  0
SECTION
  2
HEADER
  9
$ACADVER
  1
AC1024
  9
$ACADMAINTVER
 70
     6
  9
$DWGCODEPAGE
  3
UNDEFINED
  9
$INSBASE
 10
0.0
 20
0.0
 30
0.0
  9
$EXTMIN
 10
1.000000000000000E+20
 20
1.000000000000000E+20
 30
1.000000000000000E+20
  9
$EXTMAX
 10
-1.000000000000000E+20
 20
-1.000000000000000E+20
 30
-1.000000000000000E+20
  9
$LIMMIN
 10
0.0
 20
0.0
  9
$LIMMAX
 10
12.0
 20
9.0
  9
$ORTHOMODE
 70
     0
  9
$REGENMODE
 70
     1
  9
$FILLMODE
 70
     1
  9
$QTEXTMODE
 70
     0
  9
$MIRRTEXT
 70
     1
  9
$LTSCALE
 40
1.0
  9
$ATTMODE
 70
     1
  9
$TEXTSIZE
 40
0.2
  9
$TRACEWID
 40
0.05
  9
$TEXTSTYLE
  7
Standard
  9
$CLAYER
  8
0
  9
$CELTYPE
  6
ByLayer
  9
$CECOLOR
 62
   256
  9
$CELTSCALE
 40
1.0
  9
$DISPSILH
 70
     0
  9
$DIMSCALE
 40
1.0
  9
$DIMASZ
 40
0.18
  9
$DIMEXO
 40
0.0625
  9
$DIMDLI
 40
0.38
  9
$DIMRND
 40
0.0
  9
$DIMDLE
 40
0.0
  9
$DIMEXE
 40
0.18
  9
$DIMTP
 40
0.0
  9
$DIMTM
 40
0.0
  9
$DIMTXT
 40
0.18
  9
$DIMCEN
 40
0.09
  9
$DIMTSZ
 40
0.0
  9
$DIMTOL
 70
     0
  9
$DIMLIM
 70
     0
  9
$DIMTIH
 70
     1
  9
$DIMTOH
 70
     1
  9
$DIMSE1
 70
     0
  9
$DIMSE2
 70
     0
  9
$DIMTAD
 70
     0
  9
$DIMZIN
 70
     0
  9
$DIMBLK
  1

  9
$DIMASO
 70
     1
  9
$DIMSHO
 70
     1
  9
$DIMPOST
  1

  9
$DIMAPOST
  1

  9
$DIMALT
 70
     0
  9
$DIMALTD
 70
     2
  9
$DIMALTF
 40
25.4
  9
$DIMLFAC
 40
1.0
  9
$DIMTOFL
 70
     0
  9
$DIMTVP
 40
0.0
  9
$DIMTIX
 70
     0
  9
$DIMSOXD
 70
     0
  9
$DIMSAH
 70
     0
  9
$DIMBLK1
  1

  9
$DIMBLK2
  1

  9
$DIMSTYLE
  2
Standard
  9
$DIMCLRD
 70
     0
  9
$DIMCLRE
 70
     0
  9
$DIMCLRT
 70
     0
  9
$DIMTFAC
 40
1.0
  9
$DIMGAP
 40
0.09
  9
$DIMJUST
 70
     0
  9
$DIMSD1
 70
     0
  9
$DIMSD2
 70
     0
  9
$DIMTOLJ
 70
     1
  9
$DIMTZIN
 70
     0
  9
$DIMALTZ
 70
     0
  9
$DIMALTTZ
 70
     0
  9
$DIMUPT
 70
     0
  9
$DIMDEC
 70
     4
  9
$DIMTDEC
 70
     4
  9
$DIMALTU
 70
     2
  9
$DIMALTTD
 70
     2
  9
$DIMTXSTY
  7
Standard
  9
$DIMAUNIT
 70
     0
  9
$DIMADEC
 70
     0
  9
$DIMALTRND
 40
0.0
  9
$DIMAZIN
 70
     0
  9
$DIMDSEP
 70
    46
  9
$DIMATFIT
 70
     3
  9
$DIMFRAC
 70
     0
  9
$DIMLDRBLK
  1

  9
$DIMLUNIT
 70
     2
  9
$DIMLWD
 70
    -2
  9
$DIMLWE
 70
    -2
  9
$DIMTMOVE
 70
     0
  9
$DIMFXL
 40
1.0
  9
$DIMFXLON
 70
     0
  9
$DIMJOGANG
 40
0.7853981633974483
  9
$DIMTFILL
 70
     0
  9
$DIMTFILLCLR
 70
     0
  9
$DIMARCSYM
 70
     0
  9
$DIMLTYPE
  6

  9
$DIMLTEX1
  6

  9
$DIMLTEX2
  6

  9
$DIMTXTDIRECTION
 70
     0
  9
$LUNITS
 70
     2
  9
$LUPREC
 70
     4
  9
$SKETCHINC
 40
0.1
  9
$FILLETRAD
 40
0.5
  9
$AUNITS
 70
     0
  9
$AUPREC
 70
     0
  9
$MENU
  1
.
  9
$ELEVATION
 40
0.0
  9
$PELEVATION
 40
0.0
  9
$THICKNESS
 40
0.0
  9
$LIMCHECK
 70
     0
  9
$CHAMFERA
 40
0.5
  9
$CHAMFERB
 40
0.5
  9
$CHAMFERC
 40
1.0
  9
$CHAMFERD
 40
0.0
  9
$SKPOLY
 70
     0
  9
$TDCREATE
 40
2458263.773680556
  9
$TDUCREATE
 40
2458263.398680556
  9
$TDUPDATE
 40
2458263.773680556
  9
$TDUUPDATE
 40
2458263.398680556
  9
$TDINDWG
 40
0.0000000116
  9
$TDUSRTIMER
 40
0.0000000116
  9
$USRTIMER
 70
     1
  9
$ANGBASE
 50
0.0
  9
$ANGDIR
 70
     0
  9
$PDMODE
 70
     0
  9
$PDSIZE
 40
0.0
  9
$PLINEWID
 40
0.0
  9
$SPLFRAME
 70
     0
  9
$SPLINETYPE
 70
     6
  9
$SPLINESEGS
 70
     8
  9
$HANDSEED
  5
D0
  9
$SURFTAB1
 70
     6
  9
$SURFTAB2
 70
     6
  9
$SURFTYPE
 70
     6
  9
$SURFU
 70
     6
  9
$SURFV
 70
     6
  9
$UCSBASE
  2

  9
$UCSNAME
  2

  9
$UCSORG
 10
0.0
 20
0.0
 30
0.0
  9
$UCSXDIR
 10
1.0
 20
0.0
 30
0.0
  9
$UCSYDIR
 10
0.0
 20
1.0
 30
0.0
  9
$UCSORTHOREF
  2

  9
$UCSORTHOVIEW
 70
     0
  9
$UCSORGTOP
 10
0.0
 20
0.0
 30
0.0
  9
$UCSORGBOTTOM
 10
0.0
 20
0.0
 30
0.0
  9
$UCSORGLEFT
 10
0.0
 20
0.0
 30
0.0
  9
$UCSORGRIGHT
 10
0.0
 20
0.0
 30
0.0
  9
$UCSORGFRONT
 10
0.0
 20
0.0
 30
0.0
  9
$UCSORGBACK
 10
0.0
 20
0.0
 30
0.0
  9
$PUCSBASE
  2

  9
$PUCSNAME
  2

  9
$PUCSORG
 10
0.0
 20
0.0
 30
0.0
  9
$PUCSXDIR
 10
1.0
 20
0.0
 30
0.0
  9
$PUCSYDIR
 10
0.0
 20
1.0
 30
0.0
  9
$PUCSORTHOREF
  2

  9
$PUCSORTHOVIEW
 70
     0
  9
$PUCSORGTOP
 10
0.0
 20
0.0
 30
0.0
  9
$PUCSORGBOTTOM
 10
0.0
 20
0.0
 30
0.0
  9
$PUCSORGLEFT
 10
0.0
 20
0.0
 30
0.0
  9
$PUCSORGRIGHT
 10
0.0
 20
0.0
 30
0.0
  9
$PUCSORGFRONT
 10
0.0
 20
0.0
 30
0.0
  9
$PUCSORGBACK
 10
0.0
 20
0.0
 30
0.0
  9
$USERI1
 70
     0
  9
$USERI2
 70
     0
  9
$USERI3
 70
     0
  9
$USERI4
 70
     0
  9
$USERI5
 70
     0
  9
$USERR1
 40
0.0
  9
$USERR2
 40
0.0
  9
$USERR3
 40
0.0
  9
$USERR4
 40
0.0
  9
$USERR5
 40
0.0
  9
$WORLDVIEW
 70
     1
  9
$SHADEDGE
 70
     3
  9
$SHADEDIF
 70
    70
  9
$TILEMODE
 70
     1
  9
$MAXACTVP
 70
    64
  9
$PINSBASE
 10
0.0
 20
0.0
 30
0.0
  9
$PLIMCHECK
 70
     0
  9
$PEXTMIN
 10
1.000000000000000E+20
 20
1.000000000000000E+20
 30
1.000000000000000E+20
  9
$PEXTMAX
 10
-1.000000000000000E+20
 20
-1.000000000000000E+20
 30
-1.000000000000000E+20
  9
$PLIMMIN
 10
0.0
 20
0.0
  9
$PLIMMAX
 10
12.0
 20
9.0
  9
$UNITMODE
 70
     0
  9
$VISRETAIN
 70
     1
  9
$PLINEGEN
 70
     0
  9
$PSLTSCALE
 70
     1
  9
$TREEDEPTH
 70
  3020
  9
$CMLSTYLE
  2
Standard
  9
$CMLJUST
 70
     0
  9
$CMLSCALE
 40
1.0
  9
$PROXYGRAPHICS
 70
     1
  9
$MEASUREMENT
 70
     0
  9
$CELWEIGHT
370
    -1
  9
$ENDCAPS
280
     0
  9
$JOINSTYLE
280
     0
  9
$LWDISPLAY
290
     1
  9
$INSUNITS
 70
     1
  9
$HYPERLINKBASE
  1

  9
$STYLESHEET
  1

  9
$XEDIT
290
     1
  9
$CEPSNTYPE
380
     0
  9
$PSTYLEMODE
290
     1
  9
$FINGERPRINTGUID
  2
{DF863470-EC3A-7E21-2BD0-EB0AD9525281}
  9
$VERSIONGUID
  2
{FAEB1C32-E019-11D5-929B-00C0DF256EC4}
  9
$EXTNAMES
290
     1
  9
$PSVPSCALE
 40
0.0
  9
$OLESTARTUP
290
     0
  9
$SORTENTS
280
   127
  9
$INDEXCTL
280
     0
  9
$HIDETEXT
280
     1
  9
$XCLIPFRAME
280
     2
  9
$HALOGAP
280
     0
  9
$OBSCOLOR
 70
   257
  9
$OBSLTYPE
280
     0
  9
$INTERSECTIONDISPLAY
280
     0
  9
$INTERSECTIONCOLOR
 70
   257
  9
$DIMASSOC
280
     2
  9
$PROJECTNAME
  1

  9
$CAMERADISPLAY
290
     0
  9
$LENSLENGTH
 40
50.0
  9
$CAMERAHEIGHT
 40
0.0
  9
$STEPSPERSEC
 40
2.0
  9
$STEPSIZE
 40
6.0
  9
$3DDWFPREC
 40
2.0
  9
$PSOLWIDTH
 40
0.25
  9
$PSOLHEIGHT
 40
4.0
  9
$LOFTANG1
 40
1.570796326794897
  9
$LOFTANG2
 40
1.570796326794897
  9
$LOFTMAG1
 40
0.0
  9
$LOFTMAG2
 40
0.0
  9
$LOFTPARAM
 70
     7
  9
$LOFTNORMALS
280
     1
  9
$LATITUDE
 40
37.795
  9
$LONGITUDE
 40
-122.394
  9
$NORTHDIRECTION
 40
0.0
  9
$TIMEZONE
 70
 -8000
  9
$LIGHTGLYPHDISPLAY
280
     1
  9
$TILEMODELIGHTSYNCH
280
     1
  9
$CMATERIAL
347
3C
  9
$SOLIDHIST
280
     1
  9
$SHOWHIST
280
     1
  9
$DWFFRAME
280
     2
  9
$DGNFRAME
280
     2
  9
$REALWORLDSCALE
290
     1
  9
$INTERFERECOLOR
 62
   256
  9
$CSHADOW
280
     0
  9
$SHADOWPLANELOCATION
 40
0.0
  0
ENDSEC
  0
SECTION
  2
CLASSES
  0
CLASS
  1
ACDBDICTIONARYWDFLT
  2
AcDbDictionaryWithDefault
  3
ObjectDBX Classes
 90
        0
 91
        4
280
     0
281
     0
  0
CLASS
  1
VISUALSTYLE
  2
AcDbVisualStyle
  3
ObjectDBX Classes
 90
     4095
 91
        4
280
     0
281
     0
  0
CLASS
  1
MATERIAL
  2
AcDbMaterial
  3
ObjectDBX Classes
 90
     1153
 91
        4
280
     0
281
     0
  0
CLASS
  1
SUN
  2
AcDbSun
  3
SCENEOE
 90
     1024
 91
        4
280
     0
281
     0
  0
ENDSEC
  0
SECTION
  2
TABLES
  0
TABLE
  2
VPORT
  5
8
330
0
100
AcDbSymbolTable
 70
     1
  0
VPORT
  5
29
330
8
100
AcDbSymbolTableRecord
100
AcDbViewportTableRecord
  2
*Active
 70
     0
 10
0.0
 20
0.0
 11
1.0
 21
1.0
 12
0.0
 22
0.0
 13
0.0
 23
0.0
 14
0.5
 24
0.5
 15
0.5
 25
0.5
 16
0.0
 26
0.0
 36
1.0
 17
105.0007777515277
 27
-148.5000416295416
 37
0.0
 40
297.0000832590831
 41
0.7070757462376333
 42
50.0
 43
0.0
 44
0.0
 50
0.0
 51
0.0
 71
     0
 72
   100
 73
     1
 74
     3
 75
     0
 76
     0
 77
     0
 78
     0
281
     0
 65
     1
110
0.0
120
0.0
130
0.0
111
1.0
121
0.0
131
0.0
112
0.0
122
1.0
132
0.0
 79
     0
146
0.0
 60
     3
 61
     5
292
     1
282
     1
141
0.0
142
0.0
 63
   250
361
3F
  0
ENDTAB
  0
TABLE
  2
LTYPE
  5
5
330
0
100
AcDbSymbolTable
 70
     2
  0
LTYPE
  5
14
330
5
100
AcDbSymbolTableRecord
100
AcDbLinetypeTableRecord
  2
ByBlock
 70
     0
  3

 72
    65
 73
     0
 40
0.0
  0
LTYPE
  5
15
330
5
100
AcDbSymbolTableRecord
100
AcDbLinetypeTableRecord
  2
ByLayer
 70
     0
  3

 72
    65
 73
     0
 40
0.0
  0
LTYPE
  5
16
330
5
100
AcDbSymbolTableRecord
100
AcDbLinetypeTableRecord
  2
Continuous
 70
     0
  3
Solid line
 72
    65
 73
     0
 40
0.0
  0
LTYPE
  5
8A
330
5
100
AcDbSymbolTableRecord
100
AcDbLinetypeTableRecord
  2
AI-Linetype-1
 70
     0
  3
Adobe Illustrator Linetype No. 1
 72
    65
 73
     2
 40
1.411111110758333
 49
0.7055555553791667
 74
     0
 49
-0.7055555553791667
 74
     0
  0
ENDTAB
  0
TABLE
  2
LAYER
  5
2
330
0
100
AcDbSymbolTable
 70
     2
  0
LAYER
  5
10
330
2
100
AcDbSymbolTableRecord
100
AcDbLayerTableRecord
  2
0
 70
     0
 62
     7
  6
Continuous
370
    -3
390
F
347
3E
  0
LAYER
  5
40
330
2
100
AcDbSymbolTableRecord
100
AcDbLayerTableRecord
  2
_U+30EC_U+30A4_U+30E4_U+30FC 1
 70
     0
 62
     7
  6
Continuous
370
    -3
390
F
347
3E
  0
ENDTAB
  0
TABLE
  2
STYLE
  5
3
330
0
100
AcDbSymbolTable
 70
     1
  0
STYLE
  5
11
330
3
100
AcDbSymbolTableRecord
100
AcDbTextStyleTableRecord
  2
Standard
 70
     0
 40
0.0
 41
1.0
 50
0.0
 71
     0
 42
0.2
  3
txt
  4

  0
ENDTAB
  0
TABLE
  2
VIEW
  5
6
330
0
100
AcDbSymbolTable
 70
     0
  0
ENDTAB
  0
TABLE
  2
UCS
  5
7
330
0
100
AcDbSymbolTable
 70
     0
  0
ENDTAB
  0
TABLE
  2
APPID
  5
9
330
0
100
AcDbSymbolTable
 70
     1
  0
APPID
  5
12
330
9
100
AcDbSymbolTableRecord
100
AcDbRegAppTableRecord
  2
ACAD
 70
     0
  0
ENDTAB
  0
TABLE
  2
DIMSTYLE
  5
A
330
0
100
AcDbSymbolTable
 70
     1
100
AcDbDimStyleTable
  0
DIMSTYLE
105
27
330
A
100
AcDbSymbolTableRecord
100
AcDbDimStyleTableRecord
  2
Standard
 70
     0
178
     0
340
11
  0
ENDTAB
  0
TABLE
  2
BLOCK_RECORD
  5
1
330
0
100
AcDbSymbolTable
 70
     4
  0
BLOCK_RECORD
  5
1F
330
1
100
AcDbSymbolTableRecord
100
AcDbBlockTableRecord
  2
*Model_Space
340
22
 70
     0
280
     1
281
     0
  0
BLOCK_RECORD
  5
1B
330
1
100
AcDbSymbolTableRecord
100
AcDbBlockTableRecord
  2
*Paper_Space
340
1E
 70
     0
280
     1
281
     0
  0
BLOCK_RECORD
  5
23
330
1
100
AcDbSymbolTableRecord
100
AcDbBlockTableRecord
  2
*Paper_Space0
340
26
 70
     0
280
     1
281
     0
  0
BLOCK_RECORD
  5
6A
330
1
100
AcDbSymbolTableRecord
100
AcDbBlockTableRecord
  2
block 2
340
0
102
{BLKREFS
331
6B
102
}
 70
     0
280
     1
281
     0
  0
BLOCK_RECORD
  5
7E
330
1
100
AcDbSymbolTableRecord
100
AcDbBlockTableRecord
  2
block 3
340
0
102
{BLKREFS
331
7F
102
}
 70
     0
280
     1
281
     0
  0
BLOCK_RECORD
  5
90
330
1
100
AcDbSymbolTableRecord
100
AcDbBlockTableRecord
  2
block 4
340
0
102
{BLKREFS
331
91
102
}
 70
     0
280
     1
281
     0
  0
ENDTAB
  0
ENDSEC
  0
SECTION
  2
BLOCKS
  0
BLOCK
  5
20
330
1F
100
AcDbEntity
  8
0
100
AcDbBlockBegin
  2
*Model_Space
 70
     0
 10
0.0
 20
0.0
 30
0.0
  3
*Model_Space
  1

  0
ENDBLK
  5
21
330
1F
100
AcDbEntity
  8
0
100
AcDbBlockEnd
  0
BLOCK
  5
1C
330
1B
100
AcDbEntity
 67
     1
  8
0
100
AcDbBlockBegin
  2
*Paper_Space
 70
     0
 10
0.0
 20
0.0
 30
0.0
  3
*Paper_Space
  1

  0
ENDBLK
  5
1D
330
1B
100
AcDbEntity
 67
     1
  8
0
100
AcDbBlockEnd
  0
BLOCK
  5
24
330
23
100
AcDbEntity
  8
0
100
AcDbBlockBegin
  2
*Paper_Space0
 70
     0
 10
0.0
 20
0.0
 30
0.0
  3
*Paper_Space0
  1

  0
ENDBLK
  5
25
330
23
100
AcDbEntity
  8
0
100
AcDbBlockEnd
  0
BLOCK
  5
6C
330
6A
100
AcDbEntity
  8
0
100
AcDbBlockBegin
  2
block 2
 70
     0
 10
0.0
 20
0.0
 30
0.0
  3
block 2
  1

  0
SPLINE
  5
6E
330
6A
100
AcDbEntity
  8
_U+30EC_U+30A4_U+30E4_U+30FC 1
370
     0
100
AcDbSpline
210
0.0
220
0.0
230
1.0
 70
    11
 71
     3
 72
    44
 73
    40
 74
     0
 42
0.0000000001
 43
0.0000000001
 12
1.0
 22
0.0
 32
0.0
 13
1.0
 23
0.0
 33
0.0
 40
0.0
 40
0.0
 40
0.0
 40
0.0
 40
1.0
 40
1.0
 40
1.0
 40
2.0
 40
2.0
 40
2.0
 40
3.0
 40
3.0
 40
3.0
 40
4.0
 40
4.0
 40
4.0
 40
5.0
 40
5.0
 40
5.0
 40
6.0
 40
6.0
 40
6.0
 40
7.0
 40
7.0
 40
7.0
 40
8.0
 40
8.0
 40
8.0
 40
9.0
 40
9.0
 40
9.0
 40
10.0
 40
10.0
 40
10.0
 40
11.0
 40
11.0
 40
11.0
 40
12.0
 40
12.0
 40
12.0
 40
13.0
 40
13.0
 40
13.0
 40
13.0
 10
90.99634058054953
 20
-146.9536485092685
 30
0.0
 10
91.15515948241955
 20
-147.1865369640714
 30
0.0
 10
91.22922903535242
 20
-147.2861002235952
 30
0.0
 10
91.37288951708734
 20
-147.3377766558739
 30
0.0
 10
91.37288951708734
 20
-147.3377766558739
 30
0.0
 10
91.37288951708734
 20
-146.5061306057346
 30
0.0
 10
91.37288951708734
 20
-146.5061306057346
 30
0.0
 10
91.37288951708734
 20
-146.5061306057346
 30
0.0
 10
91.57821720800823
 20
-146.5061306057346
 30
0.0
 10
91.57821720800823
 20
-146.5061306057346
 30
0.0
 10
91.57821720800823
 20
-146.5061306057346
 30
0.0
 10
91.57821720800823
 20
-147.6047715559808
 30
0.0
 10
91.57821720800823
 20
-147.6047715559808
 30
0.0
 10
91.22061629663929
 20
-147.5706651106768
 30
0.0
 10
91.14241262912412
 20
-147.5007296723262
 30
0.0
 10
90.84406736010149
 20
-147.0893852713874
 30
0.0
 10
90.64528535060258
 20
-146.8158446898586
 30
0.0
 10
90.57741696954315
 20
-146.7455647419594
 30
0.0
 10
90.43995765968168
 20
-146.7455647419594
 30
0.0
 10
90.3214463749891
 20
-146.7455647419594
 30
0.0
 10
90.1905327465496
 20
-146.8223903712805
 30
0.0
 10
90.1905327465496
 20
-147.0328857054293
 30
0.0
 10
90.1905327465496
 20
-147.310904911089
 30
0.0
 10
90.42100963451281
 20
-147.3198621593506
 30
0.0
 10
90.53745386191426
 20
-147.3243407834814
 30
0.0
 10
90.53745386191426
 20
-147.3243407834814
 30
0.0
 10
90.53745386191426
 20
-147.5641194292548
 30
0.0
 10
90.53745386191426
 20
-147.5641194292548
 30
0.0
 10
90.41032983850853
 20
-147.5548176714446
 30
0.0
 10
90.29836423523791
 20
-147.5437933658918
 30
0.0
 10
90.17985295054532
 20
-147.4576659787606
 30
0.0
 10
90.01896699138415
 20
-147.3401882227136
 30
0.0
 10
89.9852050556287
 20
-147.1414062132147
 30
0.0
 10
89.9852050556287
 20
-147.0170382661971
 30
0.0
 10
89.9852050556287
 20
-146.7207600544656
 30
0.0
 10
90.16917315454104
 20
-146.4992404147641
 30
0.0
 10
90.44202471697282
 20
-146.4992404147641
 30
0.0
 10
90.67077905719341
 20
-146.4992404147641
 30
0.0
 10
90.76999780716862
 20
-146.6236083617816
 30
0.0
 10
90.99634058054953
 20
-146.9536485092685
 30
0.0
  0
HATCH
  5
6F
330
6A
100
AcDbEntity
  8
_U+30EC_U+30A4_U+30E4_U+30FC 1
 62
   179
420
  2234388
100
AcDbHatch
 10
0.0
 20
0.0
 30
0.0
210
0.0
220
0.0
230
1.0
  2
SOLID
 70
     1
 71
     0
 91
        1
 92
        1
 93
        1
 72
     4
 94
        3
 73
     0
 74
     1
 95
       44
 96
       40
 40
0.0
 40
0.0
 40
0.0
 40
0.0
 40
1.0
 40
1.0
 40
1.0
 40
2.0
 40
2.0
 40
2.0
 40
3.0
 40
3.0
 40
3.0
 40
4.0
 40
4.0
 40
4.0
 40
5.0
 40
5.0
 40
5.0
 40
6.0
 40
6.0
 40
6.0
 40
7.0
 40
7.0
 40
7.0
 40
8.0
 40
8.0
 40
8.0
 40
9.0
 40
9.0
 40
9.0
 40
10.0
 40
10.0
 40
10.0
 40
11.0
 40
11.0
 40
11.0
 40
12.0
 40
12.0
 40
12.0
 40
13.0
 40
13.0
 40
13.0
 40
13.0
 10
90.99634058054953
 20
-146.9536485092685
 10
91.15515948241955
 20
-147.1865369640714
 10
91.22922903535242
 20
-147.2861002235952
 10
91.37288951708734
 20
-147.3377766558739
 10
91.37288951708734
 20
-147.3377766558739
 10
91.37288951708734
 20
-146.5061306057346
 10
91.37288951708734
 20
-146.5061306057346
 10
91.37288951708734
 20
-146.5061306057346
 10
91.57821720800823
 20
-146.5061306057346
 10
91.57821720800823
 20
-146.5061306057346
 10
91.57821720800823
 20
-146.5061306057346
 10
91.57821720800823
 20
-147.6047715559808
 10
91.57821720800823
 20
-147.6047715559808
 10
91.22061629663929
 20
-147.5706651106768
 10
91.14241262912412
 20
-147.5007296723262
 10
90.84406736010149
 20
-147.0893852713874
 10
90.64528535060258
 20
-146.8158446898586
 10
90.57741696954315
 20
-146.7455647419594
 10
90.43995765968168
 20
-146.7455647419594
 10
90.3214463749891
 20
-146.7455647419594
 10
90.1905327465496
 20
-146.8223903712805
 10
90.1905327465496
 20
-147.0328857054293
 10
90.1905327465496
 20
-147.310904911089
 10
90.42100963451281
 20
-147.3198621593506
 10
90.53745386191426
 20
-147.3243407834814
 10
90.53745386191426
 20
-147.3243407834814
 10
90.53745386191426
 20
-147.5641194292548
 10
90.53745386191426
 20
-147.5641194292548
 10
90.41032983850853
 20
-147.5548176714446
 10
90.29836423523791
 20
-147.5437933658918
 10
90.17985295054532
 20
-147.4576659787606
 10
90.01896699138415
 20
-147.3401882227136
 10
89.9852050556287
 20
-147.1414062132147
 10
89.9852050556287
 20
-147.0170382661971
 10
89.9852050556287
 20
-146.7207600544656
 10
90.16917315454104
 20
-146.4992404147641
 10
90.44202471697282
 20
-146.4992404147641
 10
90.67077905719341
 20
-146.4992404147641
 10
90.76999780716862
 20
-146.6236083617816
 10
90.99634058054953
 20
-146.9536485092685
 97
        0
 97
        0
 75
     2
 76
     1
 98
        0
  0
SPLINE
  5
70
330
6A
100
AcDbEntity
  8
_U+30EC_U+30A4_U+30E4_U+30FC 1
370
     0
100
AcDbSpline
210
0.0
220
0.0
230
1.0
 70
    11
 71
     3
 72
    26
 73
    22
 74
     0
 42
0.0000000001
 43
0.0000000001
 12
1.0
 22
0.0
 32
0.0
 13
1.0
 23
0.0
 33
0.0
 40
0.0
 40
0.0
 40
0.0
 40
0.0
 40
1.0
 40
1.0
 40
1.0
 40
2.0
 40
2.0
 40
2.0
 40
3.0
 40
3.0
 40
3.0
 40
4.0
 40
4.0
 40
4.0
 40
5.0
 40
5.0
 40
5.0
 40
6.0
 40
6.0
 40
6.0
 40
7.0
 40
7.0
 40
7.0
 40
7.0
 10
91.57821720800823
 20
-145.8474283489548
 30
0.0
 10
91.57821720800823
 20
-145.8474283489548
 30
0.0
 10
90.47406410498566
 20
-145.8474283489548
 30
0.0
 10
90.47406410498566
 20
-145.8474283489548
 30
0.0
 10
90.47406410498566
 20
-145.8474283489548
 30
0.0
 10
90.47406410498566
 20
-146.1998616170959
 30
0.0
 10
90.47406410498566
 20
-146.1998616170959
 30
0.0
 10
90.47406410498566
 20
-146.1998616170959
 30
0.0
 10
90.3259249991199
 20
-146.1998616170959
 30
0.0
 10
90.3259249991199
 20
-146.1998616170959
 30
0.0
 10
90.31111108853334
 20
-145.8450167821152
 30
0.0
 10
90.14815807208102
 20
-145.7954074071276
 30
0.0
 10
90.03378090197073
 20
-145.7637125286632
 30
0.0
 10
90.03378090197073
 20
-145.7637125286632
 30
0.0
 10
90.03378090197073
 20
-145.6076497031814
 30
0.0
 10
90.03378090197073
 20
-145.6076497031814
 30
0.0
 10
90.03378090197073
 20
-145.6076497031814
 30
0.0
 10
91.57821720800823
 20
-145.6076497031814
 30
0.0
 10
91.57821720800823
 20
-145.6076497031814
 30
0.0
 10
91.57821720800823
 20
-145.6076497031814
 30
0.0
 10
91.57821720800823
 20
-145.8474283489548
 30
0.0
 10
91.57821720800823
 20
-145.8474283489548
 30
0.0
  0
HATCH
  5
71
330
6A
100
AcDbEntity
  8
_U+30EC_U+30A4_U+30E4_U+30FC 1
 62
   179
420
  2234388
100
AcDbHatch
 10
0.0
 20
0.0
 30
0.0
210
0.0
220
0.0
230
1.0
  2
SOLID
 70
     1
 71
     0
 91
        1
 92
        1
 93
        1
 72
     4
 94
        3
 73
     0
 74
     1
 95
       26
 96
       22
 40
0.0
 40
0.0
 40
0.0
 40
0.0
 40
1.0
 40
1.0
 40
1.0
 40
2.0
 40
2.0
 40
2.0
 40
3.0
 40
3.0
 40
3.0
 40
4.0
 40
4.0
 40
4.0
 40
5.0
 40
5.0
 40
5.0
 40
6.0
 40
6.0
 40
6.0
 40
7.0
 40
7.0
 40
7.0
 40
7.0
 10
91.57821720800823
 20
-145.8474283489548
 10
91.57821720800823
 20
-145.8474283489548
 10
90.47406410498566
 20
-145.8474283489548
 10
90.47406410498566
 20
-145.8474283489548
 10
90.47406410498566
 20
-145.8474283489548
 10
90.47406410498566
 20
-146.1998616170959
 10
90.47406410498566
 20
-146.1998616170959
 10
90.47406410498566
 20
-146.1998616170959
 10
90.3259249991199
 20
-146.1998616170959
 10
90.3259249991199
 20
-146.1998616170959
 10
90.31111108853334
 20
-145.8450167821152
 10
90.14815807208102
 20
-145.7954074071276
 10
90.03378090197073
 20
-145.7637125286632
 10
90.03378090197073
 20
-145.7637125286632
 10
90.03378090197073
 20
-145.6076497031814
 10
90.03378090197073
 20
-145.6076497031814
 10
90.03378090197073
 20
-145.6076497031814
 10
91.57821720800823
 20
-145.6076497031814
 10
91.57821720800823
 20
-145.6076497031814
 10
91.57821720800823
 20
-145.6076497031814
 10
91.57821720800823
 20
-145.8474283489548
 10
91.57821720800823
 20
-145.8474283489548
 97
        0
 97
        0
 75
     2
 76
     1
 98
        0
  0
ENDBLK
  5
6D
330
6A
100
AcDbEntity
  8
0
100
AcDbBlockEnd
  0
BLOCK
  5
80
330
7E
100
AcDbEntity
  8
0
100
AcDbBlockBegin
  2
block 3
 70
     0
 10
0.0
 20
0.0
 30
0.0
  3
block 3
  1

  0
SPLINE
  5
82
330
7E
100
AcDbEntity
  8
_U+30EC_U+30A4_U+30E4_U+30FC 1
370
     0
100
AcDbSpline
210
0.0
220
0.0
230
1.0
 70
    11
 71
     3
 72
    44
 73
    40
 74
     0
 42
0.0000000001
 43
0.0000000001
 12
1.0
 22
0.0
 32
0.0
 13
1.0
 23
0.0
 33
0.0
 40
0.0
 40
0.0
 40
0.0
 40
0.0
 40
1.0
 40
1.0
 40
1.0
 40
2.0
 40
2.0
 40
2.0
 40
3.0
 40
3.0
 40
3.0
 40
4.0
 40
4.0
 40
4.0
 40
5.0
 40
5.0
 40
5.0
 40
6.0
 40
6.0
 40
6.0
 40
7.0
 40
7.0
 40
7.0
 40
8.0
 40
8.0
 40
8.0
 40
9.0
 40
9.0
 40
9.0
 40
10.0
 40
10.0
 40
10.0
 40
11.0
 40
11.0
 40
11.0
 40
12.0
 40
12.0
 40
12.0
 40
13.0
 40
13.0
 40
13.0
 40
13.0
 10
106.2667263189194
 20
-159.6340114618276
 30
0.0
 10
106.0338378641165
 20
-159.7928303636976
 30
0.0
 10
105.9342746045928
 20
-159.8668999166305
 30
0.0
 10
105.8822536627655
 20
-160.0105603983654
 30
0.0
 10
105.8822536627655
 20
-160.0105603983654
 30
0.0
 10
106.7145887320019
 20
-160.0105603983654
 30
0.0
 10
106.7145887320019
 20
-160.0105603983654
 30
0.0
 10
106.7145887320019
 20
-160.0105603983654
 30
0.0
 10
106.7145887320019
 20
-160.2158880892863
 30
0.0
 10
106.7145887320019
 20
-160.2158880892863
 30
0.0
 10
106.7145887320019
 20
-160.2158880892863
 30
0.0
 10
105.6156032722072
 20
-160.2158880892863
 30
0.0
 10
105.6156032722072
 20
-160.2158880892863
 30
0.0
 10
105.6497097175112
 20
-159.8582871779174
 30
0.0
 10
105.7196451558618
 20
-159.7800835104022
 30
0.0
 10
106.1309895568006
 20
-159.4817382413796
 30
0.0
 10
106.4045301383294
 20
-159.2829562318807
 30
0.0
 10
106.4748100862285
 20
-159.2150878508212
 30
0.0
 10
106.4748100862285
 20
-159.0776285409598
 30
0.0
 10
106.4748100862285
 20
-158.9591172562672
 30
0.0
 10
106.3979844569075
 20
-158.8282036278277
 30
0.0
 10
106.1874891227587
 20
-158.8282036278277
 30
0.0
 10
105.909469917099
 20
-158.8282036278277
 30
0.0
 10
105.9005126688374
 20
-159.0586805157909
 30
0.0
 10
105.8960340447066
 20
-159.1751247431923
 30
0.0
 10
105.8960340447066
 20
-159.1751247431923
 30
0.0
 10
105.6562553989332
 20
-159.1751247431923
 30
0.0
 10
105.6562553989332
 20
-159.1751247431923
 30
0.0
 10
105.6652126471948
 20
-159.0480007197866
 30
0.0
 10
105.6765814622961
 20
-158.936035116516
 30
0.0
 10
105.7627088494274
 20
-158.8175238318234
 30
0.0
 10
105.8801866054744
 20
-158.6566378726622
 30
0.0
 10
106.0789686149733
 20
-158.6228759369068
 30
0.0
 10
106.2033365619908
 20
-158.6228759369068
 30
0.0
 10
106.4996147737223
 20
-158.6228759369068
 30
0.0
 10
106.7211344134239
 20
-158.8068440358191
 30
0.0
 10
106.7211344134239
 20
-159.0796955982509
 30
0.0
 10
106.7211344134239
 20
-159.3084499384715
 30
0.0
 10
106.5967664664064
 20
-159.4076686884467
 30
0.0
 10
106.2667263189194
 20
-159.6340114618276
 30
0.0
  0
HATCH
  5
83
330
7E
100
AcDbEntity
  8
_U+30EC_U+30A4_U+30E4_U+30FC 1
 62
   179
420
  2234388
100
AcDbHatch
 10
0.0
 20
0.0
 30
0.0
210
0.0
220
0.0
230
1.0
  2
SOLID
 70
     1
 71
     0
 91
        1
 92
        1
 93
        1
 72
     4
 94
        3
 73
     0
 74
     1
 95
       44
 96
       40
 40
0.0
 40
0.0
 40
0.0
 40
0.0
 40
1.0
 40
1.0
 40
1.0
 40
2.0
 40
2.0
 40
2.0
 40
3.0
 40
3.0
 40
3.0
 40
4.0
 40
4.0
 40
4.0
 40
5.0
 40
5.0
 40
5.0
 40
6.0
 40
6.0
 40
6.0
 40
7.0
 40
7.0
 40
7.0
 40
8.0
 40
8.0
 40
8.0
 40
9.0
 40
9.0
 40
9.0
 40
10.0
 40
10.0
 40
10.0
 40
11.0
 40
11.0
 40
11.0
 40
12.0
 40
12.0
 40
12.0
 40
13.0
 40
13.0
 40
13.0
 40
13.0
 10
106.2667263189194
 20
-159.6340114618276
 10
106.0338378641165
 20
-159.7928303636976
 10
105.9342746045928
 20
-159.8668999166305
 10
105.8822536627655
 20
-160.0105603983654
 10
105.8822536627655
 20
-160.0105603983654
 10
106.7145887320019
 20
-160.0105603983654
 10
106.7145887320019
 20
-160.0105603983654
 10
106.7145887320019
 20
-160.0105603983654
 10
106.7145887320019
 20
-160.2158880892863
 10
106.7145887320019
 20
-160.2158880892863
 10
106.7145887320019
 20
-160.2158880892863
 10
105.6156032722072
 20
-160.2158880892863
 10
105.6156032722072
 20
-160.2158880892863
 10
105.6497097175112
 20
-159.8582871779174
 10
105.7196451558618
 20
-159.7800835104022
 10
106.1309895568006
 20
-159.4817382413796
 10
106.4045301383294
 20
-159.2829562318807
 10
106.4748100862285
 20
-159.2150878508212
 10
106.4748100862285
 20
-159.0776285409598
 10
106.4748100862285
 20
-158.9591172562672
 10
106.3979844569075
 20
-158.8282036278277
 10
106.1874891227587
 20
-158.8282036278277
 10
105.909469917099
 20
-158.8282036278277
 10
105.9005126688374
 20
-159.0586805157909
 10
105.8960340447066
 20
-159.1751247431923
 10
105.8960340447066
 20
-159.1751247431923
 10
105.6562553989332
 20
-159.1751247431923
 10
105.6562553989332
 20
-159.1751247431923
 10
105.6652126471948
 20
-159.0480007197866
 10
105.6765814622961
 20
-158.936035116516
 10
105.7627088494274
 20
-158.8175238318234
 10
105.8801866054744
 20
-158.6566378726622
 10
106.0789686149733
 20
-158.6228759369068
 10
106.2033365619908
 20
-158.6228759369068
 10
106.4996147737223
 20
-158.6228759369068
 10
106.7211344134239
 20
-158.8068440358191
 10
106.7211344134239
 20
-159.0796955982509
 10
106.7211344134239
 20
-159.3084499384715
 10
106.5967664664064
 20
-159.4076686884467
 10
106.2667263189194
 20
-159.6340114618276
 97
        0
 97
        0
 75
     2
 76
     1
 98
        0
  0
SPLINE
  5
84
330
7E
100
AcDbEntity
  8
_U+30EC_U+30A4_U+30E4_U+30FC 1
370
     0
100
AcDbSpline
210
0.0
220
0.0
230
1.0
 70
    11
 71
     3
 72
    26
 73
    22
 74
     0
 42
0.0000000001
 43
0.0000000001
 12
1.0
 22
0.0
 32
0.0
 13
1.0
 23
0.0
 33
0.0
 40
0.0
 40
0.0
 40
0.0
 40
0.0
 40
1.0
 40
1.0
 40
1.0
 40
2.0
 40
2.0
 40
2.0
 40
3.0
 40
3.0
 40
3.0
 40
4.0
 40
4.0
 40
4.0
 40
5.0
 40
5.0
 40
5.0
 40
6.0
 40
6.0
 40
6.0
 40
7.0
 40
7.0
 40
7.0
 40
7.0
 10
107.3729464792332
 20
-160.2158880892863
 30
0.0
 10
107.3729464792332
 20
-160.2158880892863
 30
0.0
 10
107.3729464792332
 20
-159.1117349862637
 30
0.0
 10
107.3729464792332
 20
-159.1117349862637
 30
0.0
 10
107.3729464792332
 20
-159.1117349862637
 30
0.0
 10
107.0205132110921
 20
-159.1117349862637
 30
0.0
 10
107.0205132110921
 20
-159.1117349862637
 30
0.0
 10
107.0205132110921
 20
-159.1117349862637
 30
0.0
 10
107.0205132110921
 20
-158.963595880398
 30
0.0
 10
107.0205132110921
 20
-158.963595880398
 30
0.0
 10
107.3753580460728
 20
-158.9487819698114
 30
0.0
 10
107.4249674210604
 20
-158.7858289533591
 30
0.0
 10
107.4566622995247
 20
-158.6714517832488
 30
0.0
 10
107.4566622995247
 20
-158.6714517832488
 30
0.0
 10
107.6127251250065
 20
-158.6714517832488
 30
0.0
 10
107.6127251250065
 20
-158.6714517832488
 30
0.0
 10
107.6127251250065
 20
-158.6714517832488
 30
0.0
 10
107.6127251250065
 20
-160.2158880892863
 30
0.0
 10
107.6127251250065
 20
-160.2158880892863
 30
0.0
 10
107.6127251250065
 20
-160.2158880892863
 30
0.0
 10
107.3729464792332
 20
-160.2158880892863
 30
0.0
 10
107.3729464792332
 20
-160.2158880892863
 30
0.0
  0
HATCH
  5
85
330
7E
100
AcDbEntity
  8
_U+30EC_U+30A4_U+30E4_U+30FC 1
 62
   179
420
  2234388
100
AcDbHatch
 10
0.0
 20
0.0
 30
0.0
210
0.0
220
0.0
230
1.0
  2
SOLID
 70
     1
 71
     0
 91
        1
 92
        1
 93
        1
 72
     4
 94
        3
 73
     0
 74
     1
 95
       26
 96
       22
 40
0.0
 40
0.0
 40
0.0
 40
0.0
 40
1.0
 40
1.0
 40
1.0
 40
2.0
 40
2.0
 40
2.0
 40
3.0
 40
3.0
 40
3.0
 40
4.0
 40
4.0
 40
4.0
 40
5.0
 40
5.0
 40
5.0
 40
6.0
 40
6.0
 40
6.0
 40
7.0
 40
7.0
 40
7.0
 40
7.0
 10
107.3729464792332
 20
-160.2158880892863
 10
107.3729464792332
 20
-160.2158880892863
 10
107.3729464792332
 20
-159.1117349862637
 10
107.3729464792332
 20
-159.1117349862637
 10
107.3729464792332
 20
-159.1117349862637
 10
107.0205132110921
 20
-159.1117349862637
 10
107.0205132110921
 20
-159.1117349862637
 10
107.0205132110921
 20
-159.1117349862637
 10
107.0205132110921
 20
-158.963595880398
 10
107.0205132110921
 20
-158.963595880398
 10
107.3753580460728
 20
-158.9487819698114
 10
107.4249674210604
 20
-158.7858289533591
 10
107.4566622995247
 20
-158.6714517832488
 10
107.4566622995247
 20
-158.6714517832488
 10
107.6127251250065
 20
-158.6714517832488
 10
107.6127251250065
 20
-158.6714517832488
 10
107.6127251250065
 20
-158.6714517832488
 10
107.6127251250065
 20
-160.2158880892863
 10
107.6127251250065
 20
-160.2158880892863
 10
107.6127251250065
 20
-160.2158880892863
 10
107.3729464792332
 20
-160.2158880892863
 10
107.3729464792332
 20
-160.2158880892863
 97
        0
 97
        0
 75
     2
 76
     1
 98
        0
  0
ENDBLK
  5
81
330
7E
100
AcDbEntity
  8
0
100
AcDbBlockEnd
  0
BLOCK
  5
92
330
90
100
AcDbEntity
  8
0
100
AcDbBlockBegin
  2
block 4
 70
     0
 10
0.0
 20
0.0
 30
0.0
  3
block 4
  1

  0
SPLINE
  5
94
330
90
100
AcDbEntity
  8
_U+30EC_U+30A4_U+30E4_U+30FC 1
370
     0
100
AcDbSpline
210
0.0
220
0.0
230
1.0
 70
    11
 71
     3
 72
    17
 73
    13
 74
     0
 42
0.0000000001
 43
0.0000000001
 12
1.0
 22
0.0
 32
0.0
 13
1.0
 23
0.0
 33
0.0
 40
0.0
 40
0.0
 40
0.0
 40
0.0
 40
1.0
 40
1.0
 40
1.0
 40
2.0
 40
2.0
 40
2.0
 40
3.0
 40
3.0
 40
3.0
 40
4.0
 40
4.0
 40
4.0
 40
4.0
 10
103.8045165756114
 20
-151.5983262424824
 30
0.0
 10
103.6987521442142
 20
-151.4925618110852
 30
0.0
 10
103.6181369098594
 20
-151.4546657607474
 30
0.0
 10
103.5251193317576
 20
-151.4226263727346
 30
0.0
 10
103.5251193317576
 20
-151.4226263727346
 30
0.0
 10
103.6353623872856
 20
-151.2576062989912
 30
0.0
 10
103.6353623872856
 20
-151.2576062989912
 30
0.0
 10
103.7325140799696
 20
-151.2999809734597
 30
0.0
 10
103.8530924219534
 20
-151.3785291505234
 30
0.0
 10
103.9061468924262
 20
-151.4333061687389
 30
0.0
 10
103.9061468924262
 20
-151.4333061687389
 30
0.0
 10
103.8045165756114
 20
-151.5983262424824
 30
0.0
 10
103.8045165756114
 20
-151.5983262424824
 30
0.0
  0
SPLINE
  5
95
330
90
100
AcDbEntity
  8
_U+30EC_U+30A4_U+30E4_U+30FC 1
370
     0
100
AcDbSpline
210
0.0
220
0.0
230
1.0
 70
    11
 71
     3
 72
   182
 73
   178
 74
     0
 42
0.0000000001
 43
0.0000000001
 12
1.0
 22
0.0
 32
0.0
 13
1.0
 23
0.0
 33
0.0
 40
0.0
 40
0.0
 40
0.0
 40
0.0
 40
1.0
 40
1.0
 40
1.0
 40
2.0
 40
2.0
 40
2.0
 40
3.0
 40
3.0
 40
3.0
 40
4.0
 40
4.0
 40
4.0
 40
5.0
 40
5.0
 40
5.0
 40
6.0
 40
6.0
 40
6.0
 40
7.0
 40
7.0
 40
7.0
 40
8.0
 40
8.0
 40
8.0
 40
9.0
 40
9.0
 40
9.0
 40
10.0
 40
10.0
 40
10.0
 40
11.0
 40
11.0
 40
11.0
 40
12.0
 40
12.0
 40
12.0
 40
13.0
 40
13.0
 40
13.0
 40
14.0
 40
14.0
 40
14.0
 40
15.0
 40
15.0
 40
15.0
 40
16.0
 40
16.0
 40
16.0
 40
17.0
 40
17.0
 40
17.0
 40
18.0
 40
18.0
 40
18.0
 40
19.0
 40
19.0
 40
19.0
 40
20.0
 40
20.0
 40
20.0
 40
21.0
 40
21.0
 40
21.0
 40
22.0
 40
22.0
 40
22.0
 40
23.0
 40
23.0
 40
23.0
 40
24.0
 40
24.0
 40
24.0
 40
25.0
 40
25.0
 40
25.0
 40
26.0
 40
26.0
 40
26.0
 40
27.0
 40
27.0
 40
27.0
 40
28.0
 40
28.0
 40
28.0
 40
29.0
 40
29.0
 40
29.0
 40
30.0
 40
30.0
 40
30.0
 40
31.0
 40
31.0
 40
31.0
 40
32.0
 40
32.0
 40
32.0
 40
33.0
 40
33.0
 40
33.0
 40
34.0
 40
34.0
 40
34.0
 40
35.0
 40
35.0
 40
35.0
 40
36.0
 40
36.0
 40
36.0
 40
37.0
 40
37.0
 40
37.0
 40
38.0
 40
38.0
 40
38.0
 40
39.0
 40
39.0
 40
39.0
 40
40.0
 40
40.0
 40
40.0
 40
41.0
 40
41.0
 40
41.0
 40
42.0
 40
42.0
 40
42.0
 40
43.0
 40
43.0
 40
43.0
 40
44.0
 40
44.0
 40
44.0
 40
45.0
 40
45.0
 40
45.0
 40
46.0
 40
46.0
 40
46.0
 40
47.0
 40
47.0
 40
47.0
 40
48.0
 40
48.0
 40
48.0
 40
49.0
 40
49.0
 40
49.0
 40
50.0
 40
50.0
 40
50.0
 40
51.0
 40
51.0
 40
51.0
 40
52.0
 40
52.0
 40
52.0
 40
53.0
 40
53.0
 40
53.0
 40
54.0
 40
54.0
 40
54.0
 40
55.0
 40
55.0
 40
55.0
 40
56.0
 40
56.0
 40
56.0
 40
57.0
 40
57.0
 40
57.0
 40
58.0
 40
58.0
 40
58.0
 40
59.0
 40
59.0
 40
59.0
 40
59.0
 10
104.8494140362877
 20
-152.7765488984378
 30
0.0
 10
104.8494140362877
 20
-152.7765488984378
 30
0.0
 10
104.2127603906135
 20
-152.7765488984378
 30
0.0
 10
104.2127603906135
 20
-152.7765488984378
 30
0.0
 10
103.999164470528
 20
-152.7765488984378
 30
0.0
 10
103.7831569836028
 20
-152.7810275225686
 30
0.0
 10
103.5695610635173
 20
-152.7937743758641
 30
0.0
 10
103.5695610635173
 20
-152.7937743758641
 30
0.0
 10
103.5695610635173
 20
-152.586379627652
 30
0.0
 10
103.5695610635173
 20
-152.586379627652
 30
0.0
 10
103.7917697223159
 20
-152.5991264809475
 30
0.0
 10
104.1152641883809
 20
-152.6032605955297
 30
0.0
 10
104.2127603906135
 20
-152.6032605955297
 30
0.0
 10
104.2127603906135
 20
-152.6032605955297
 30
0.0
 10
104.4329019921209
 20
-152.6032605955297
 30
0.0
 10
104.4329019921209
 20
-152.6032605955297
 30
0.0
 10
104.4329019921209
 20
-152.6032605955297
 30
0.0
 10
104.4329019921209
 20
-152.461667171086
 30
0.0
 10
104.4329019921209
 20
-152.461667171086
 30
0.0
 10
104.4329019921209
 20
-152.461667171086
 30
0.0
 10
104.2720160329598
 20
-152.461667171086
 30
0.0
 10
104.2720160329598
 20
-152.461667171086
 30
0.0
 10
104.1069959592163
 20
-152.461667171086
 30
0.0
 10
103.9419758854728
 20
-152.4658012856683
 30
0.0
 10
103.7769558117294
 20
-152.4806151962549
 30
0.0
 10
103.7769558117294
 20
-152.4806151962549
 30
0.0
 10
103.7769558117294
 20
-152.2711533907517
 30
0.0
 10
103.7769558117294
 20
-152.2711533907517
 30
0.0
 10
103.9481770573463
 20
-152.2859673013382
 30
0.0
 10
104.1958794227358
 20
-152.2901014159205
 30
0.0
 10
104.2720160329598
 20
-152.2901014159205
 30
0.0
 10
104.2720160329598
 20
-152.2901014159205
 30
0.0
 10
104.4329019921209
 20
-152.2901014159205
 30
0.0
 10
104.4329019921209
 20
-152.2901014159205
 30
0.0
 10
104.4284233679901
 20
-152.2180989202788
 30
0.0
 10
104.4284233679901
 20
-152.2118977484054
 30
0.0
 10
104.4222221961167
 20
-152.1588432779325
 30
0.0
 10
104.4222221961167
 20
-152.1588432779325
 30
0.0
 10
104.5617485632693
 20
-152.1736571885191
 30
0.0
 10
104.5617485632693
 20
-152.1736571885191
 30
0.0
 10
104.5617485632693
 20
-152.1736571885191
 30
0.0
 10
104.4625298132941
 20
-152.0024359429022
 30
0.0
 10
104.4625298132941
 20
-152.0024359429022
 30
0.0
 10
104.509038602345
 20
-152.0086371147756
 30
0.0
 10
104.5831081552778
 20
-152.0172498534887
 30
0.0
 10
104.5999891231556
 20
-152.0172498534887
 30
0.0
 10
104.6506320267887
 20
-152.0172498534887
 30
0.0
 10
104.6675129946665
 20
-151.9962347710287
 30
0.0
 10
104.6675129946665
 20
-151.9390461859736
 30
0.0
 10
104.6675129946665
 20
-151.9390461859736
 30
0.0
 10
104.6675129946665
 20
-151.8015868761121
 30
0.0
 10
104.6675129946665
 20
-151.8015868761121
 30
0.0
 10
104.6675129946665
 20
-151.8015868761121
 30
0.0
 10
104.5617485632693
 20
-151.8015868761121
 30
0.0
 10
104.5617485632693
 20
-151.8015868761121
 30
0.0
 10
104.4284233679901
 20
-151.8015868761121
 30
0.0
 10
104.2720160329598
 20
-151.8015868761121
 30
0.0
 10
104.1493706336849
 20
-151.813989219859
 30
0.0
 10
104.1493706336849
 20
-151.813989219859
 30
0.0
 10
104.1493706336849
 20
-151.6238199490732
 30
0.0
 10
104.1493706336849
 20
-151.6238199490732
 30
0.0
 10
104.3164577647195
 20
-151.6407009169509
 30
0.0
 10
104.5469346526827
 20
-151.6427679742421
 30
0.0
 10
104.5617485632693
 20
-151.6427679742421
 30
0.0
 10
104.5617485632693
 20
-151.6427679742421
 30
0.0
 10
104.6675129946665
 20
-151.6427679742421
 30
0.0
 10
104.6675129946665
 20
-151.6427679742421
 30
0.0
 10
104.6675129946665
 20
-151.6427679742421
 30
0.0
 10
104.6675129946665
 20
-151.5115098362541
 30
0.0
 10
104.6675129946665
 20
-151.5115098362541
 30
0.0
 10
104.6675129946665
 20
-151.5115098362541
 30
0.0
 10
104.6296169443287
 20
-151.5115098362541
 30
0.0
 10
104.6296169443287
 20
-151.5115098362541
 30
0.0
 10
104.585175212569
 20
-151.5115098362541
 30
0.0
 10
104.4601182464544
 20
-151.5159884603849
 30
0.0
 10
104.371234782935
 20
-151.5242566895495
 30
0.0
 10
104.371234782935
 20
-151.5242566895495
 30
0.0
 10
104.371234782935
 20
-151.4439859647432
 30
0.0
 10
104.371234782935
 20
-151.4439859647432
 30
0.0
 10
104.3185248220106
 20
-151.4818820150809
 30
0.0
 10
104.2930311154198
 20
-151.4966959256675
 30
0.0
 10
104.2506564409512
 20
-151.5201225749672
 30
0.0
 10
104.2506564409512
 20
-151.5201225749672
 30
0.0
 10
104.0625542274566
 20
-151.3909314942703
 30
0.0
 10
104.0625542274566
 20
-151.3909314942703
 30
0.0
 10
104.1407578949718
 20
-151.3571695585149
 30
0.0
 10
104.2975097395506
 20
-151.2937798015863
 30
0.0
 10
104.453917074581
 20
-151.1497748103028
 30
0.0
 10
104.5362548566784
 20
-151.0715711427877
 30
0.0
 10
104.6148030337421
 20
-150.9868217938505
 30
0.0
 10
104.6675129946665
 20
-150.8855359865842
 30
0.0
 10
104.6675129946665
 20
-150.8855359865842
 30
0.0
 10
104.8790418574608
 20
-150.9468586862216
 30
0.0
 10
104.8790418574608
 20
-150.9468586862216
 30
0.0
 10
104.8983343921782
 20
-150.9530598580951
 30
0.0
 10
104.9086696786339
 20
-150.9616725968082
 30
0.0
 10
104.9086696786339
 20
-150.9744194501036
 30
0.0
 10
104.9086696786339
 20
-150.9913004179813
 30
0.0
 10
104.8959228253385
 20
-150.9975015898548
 30
0.0
 10
104.8707736282962
 20
-151.0102484431502
 30
0.0
 10
104.9510443531025
 20
-151.1077446453828
 30
0.0
 10
105.1139973695548
 20
-151.2048963380668
 30
0.0
 10
105.1477593053103
 20
-151.2238443632357
 30
0.0
 10
105.2979654684672
 20
-151.3127278267552
 30
0.0
 10
105.4123426385775
 20
-151.3402885906372
 30
0.0
 10
105.4905463060926
 20
-151.359236615806
 30
0.0
 10
105.4905463060926
 20
-151.359236615806
 30
0.0
 10
105.3720350214001
 20
-151.5283908041318
 30
0.0
 10
105.3720350214001
 20
-151.5283908041318
 30
0.0
 10
105.2872856724629
 20
-151.4991074925072
 30
0.0
 10
105.2366427688297
 20
-151.4798149577898
 30
0.0
 10
105.1181314841371
 20
-151.41435814357
 30
0.0
 10
105.1181314841371
 20
-151.41435814357
 30
0.0
 10
105.1181314841371
 20
-151.5242566895495
 30
0.0
 10
105.1181314841371
 20
-151.5242566895495
 30
0.0
 10
105.0357937020397
 20
-151.5159884603849
 30
0.0
 10
104.9086696786339
 20
-151.5115098362541
 30
0.0
 10
104.8559597177096
 20
-151.5115098362541
 30
0.0
 10
104.8559597177096
 20
-151.5115098362541
 30
0.0
 10
104.8559597177096
 20
-151.6427679742421
 30
0.0
 10
104.8559597177096
 20
-151.6427679742421
 30
0.0
 10
104.8559597177096
 20
-151.6427679742421
 30
0.0
 10
104.9765380596934
 20
-151.6427679742421
 30
0.0
 10
104.9765380596934
 20
-151.6427679742421
 30
0.0
 10
104.9786051169845
 20
-151.6427679742421
 30
0.0
 10
105.2111490622389
 20
-151.6407009169509
 30
0.0
 10
105.3889159892778
 20
-151.6238199490732
 30
0.0
 10
105.3889159892778
 20
-151.6238199490732
 30
0.0
 10
105.3889159892778
 20
-151.813989219859
 30
0.0
 10
105.3889159892778
 20
-151.813989219859
 30
0.0
 10
105.2600694181294
 20
-151.8015868761121
 30
0.0
 10
105.1033175735506
 20
-151.8015868761121
 30
0.0
 10
104.9765380596934
 20
-151.8015868761121
 30
0.0
 10
104.9765380596934
 20
-151.8015868761121
 30
0.0
 10
104.8559597177096
 20
-151.8015868761121
 30
0.0
 10
104.8559597177096
 20
-151.8015868761121
 30
0.0
 10
104.8559597177096
 20
-151.8015868761121
 30
0.0
 10
104.8559597177096
 20
-152.027929649493
 30
0.0
 10
104.8559597177096
 20
-152.027929649493
 30
0.0
 10
104.8559597177096
 20
-152.1464409341856
 30
0.0
 10
104.8304660111188
 20
-152.1822699272322
 30
0.0
 10
104.6695800519576
 20
-152.1970838378188
 30
0.0
 10
104.6740586760884
 20
-152.2160318629877
 30
0.0
 10
104.6675129946665
 20
-152.2267116589919
 30
0.0
 10
104.6296169443287
 20
-152.2497937987431
 30
0.0
 10
104.6275498870376
 20
-152.2690863334605
 30
0.0
 10
104.6275498870376
 20
-152.2752875053339
 30
0.0
 10
104.6251383201979
 20
-152.2901014159205
 30
0.0
 10
104.6251383201979
 20
-152.2901014159205
 30
0.0
 10
104.7625976300594
 20
-152.2901014159205
 30
0.0
 10
104.7625976300594
 20
-152.2901014159205
 30
0.0
 10
104.9276177038028
 20
-152.2901014159205
 30
0.0
 10
105.095049344386
 20
-152.2859673013382
 30
0.0
 10
105.2621364754206
 20
-152.2711533907517
 30
0.0
 10
105.2621364754206
 20
-152.2711533907517
 30
0.0
 10
105.2621364754206
 20
-152.4785481389637
 30
0.0
 10
105.2621364754206
 20
-152.4785481389637
 30
0.0
 10
105.0461289884954
 20
-152.461667171086
 30
0.0
 10
104.7818901647768
 20
-152.461667171086
 30
0.0
 10
104.7625976300594
 20
-152.461667171086
 30
0.0
 10
104.7625976300594
 20
-152.461667171086
 30
0.0
 10
104.6230712629067
 20
-152.461667171086
 30
0.0
 10
104.6230712629067
 20
-152.461667171086
 30
0.0
 10
104.6230712629067
 20
-152.461667171086
 30
0.0
 10
104.6230712629067
 20
-152.6032605955297
 30
0.0
 10
104.6230712629067
 20
-152.6032605955297
 30
0.0
 10
104.6230712629067
 20
-152.6032605955297
 30
0.0
 10
104.8494140362877
 20
-152.6032605955297
 30
0.0
 10
104.8494140362877
 20
-152.6032605955297
 30
0.0
 10
105.0654215232128
 20
-152.6032605955297
 30
0.0
 10
105.2831515578806
 20
-152.5991264809475
 30
0.0
 10
105.4988145352572
 20
-152.586379627652
 30
0.0
 10
105.4988145352572
 20
-152.586379627652
 30
0.0
 10
105.4988145352572
 20
-152.7937743758641
 30
0.0
 10
105.4988145352572
 20
-152.7937743758641
 30
0.0
 10
105.2176947436609
 20
-152.7765488984378
 30
0.0
 10
104.8728406855873
 20
-152.7765488984378
 30
0.0
 10
104.8494140362877
 20
-152.7765488984378
 30
0.0
  0
SPLINE
  5
96
330
90
100
AcDbEntity
  8
_U+30EC_U+30A4_U+30E4_U+30FC 1
370
     0
100
AcDbSpline
210
0.0
220
0.0
230
1.0
 70
    11
 71
     3
 72
    23
 73
    19
 74
     0
 42
0.0000000001
 43
0.0000000001
 12
1.0
 22
0.0
 32
0.0
 13
1.0
 23
0.0
 33
0.0
 40
0.0
 40
0.0
 40
0.0
 40
0.0
 40
1.0
 40
1.0
 40
1.0
 40
2.0
 40
2.0
 40
2.0
 40
3.0
 40
3.0
 40
3.0
 40
4.0
 40
4.0
 40
4.0
 40
5.0
 40
5.0
 40
5.0
 40
6.0
 40
6.0
 40
6.0
 40
6.0
 10
103.7304470226785
 20
-152.1485079914768
 30
0.0
 10
103.7304470226785
 20
-152.1695230739368
 30
0.0
 10
103.7325140799696
 20
-152.2077636338231
 30
0.0
 10
103.7070203733788
 20
-152.2077636338231
 30
0.0
 10
103.6966850869231
 20
-152.2077636338231
 30
0.0
 10
103.6880723482099
 20
-152.2012179524011
 30
0.0
 10
103.6773925522057
 20
-152.1843369845234
 30
0.0
 10
103.6773925522057
 20
-152.1843369845234
 30
0.0
 10
103.5736951780996
 20
-152.0024359429022
 30
0.0
 10
103.5736951780996
 20
-152.0024359429022
 30
0.0
 10
103.7897026650248
 20
-151.8732448622053
 30
0.0
 10
103.9864176172326
 20
-151.5962591851912
 30
0.0
 10
104.0329264062834
 20
-151.5242566895495
 30
0.0
 10
104.0329264062834
 20
-151.5242566895495
 30
0.0
 10
104.1049289019252
 20
-151.7040906738795
 30
0.0
 10
104.1049289019252
 20
-151.7040906738795
 30
0.0
 10
103.971603706646
 20
-151.9008056260873
 30
0.0
 10
103.7959038368982
 20
-152.0847737249996
 30
0.0
 10
103.7304470226785
 20
-152.1485079914768
 30
0.0
  0
SPLINE
  5
97
330
90
100
AcDbEntity
  8
_U+30EC_U+30A4_U+30E4_U+30FC 1
370
     0
100
AcDbSpline
210
0.0
220
0.0
230
1.0
 70
    11
 71
     3
 72
    17
 73
    13
 74
     0
 42
0.0000000001
 43
0.0000000001
 12
1.0
 22
0.0
 32
0.0
 13
1.0
 23
0.0
 33
0.0
 40
0.0
 40
0.0
 40
0.0
 40
0.0
 40
1.0
 40
1.0
 40
1.0
 40
2.0
 40
2.0
 40
2.0
 40
3.0
 40
3.0
 40
3.0
 40
4.0
 40
4.0
 40
4.0
 40
4.0
 10
103.9843505599414
 20
-151.2534721844088
 30
0.0
 10
103.923027860304
 20
-151.1773355741848
 30
0.0
 10
103.7938367796071
 20
-151.1011989639608
 30
0.0
 10
103.6901394055011
 20
-151.0715711427877
 30
0.0
 10
103.6901394055011
 20
-151.0715711427877
 30
0.0
 10
103.7855685504425
 20
-150.9065510690442
 30
0.0
 10
103.7855685504425
 20
-150.9065510690442
 30
0.0
 10
103.8868543577088
 20
-150.9427245716393
 30
0.0
 10
103.992618789106
 20
-150.9995686471459
 30
0.0
 10
104.0815022526255
 20
-151.0801838815008
 30
0.0
 10
104.0815022526255
 20
-151.0801838815008
 30
0.0
 10
103.9843505599414
 20
-151.2534721844088
 30
0.0
 10
103.9843505599414
 20
-151.2534721844088
 30
0.0
  0
SPLINE
  5
98
330
90
100
AcDbEntity
  8
_U+30EC_U+30A4_U+30E4_U+30FC 1
370
     0
100
AcDbSpline
210
0.0
220
0.0
230
1.0
 70
    11
 71
     3
 72
    23
 73
    19
 74
     0
 42
0.0000000001
 43
0.0000000001
 12
1.0
 22
0.0
 32
0.0
 13
1.0
 23
0.0
 33
0.0
 40
0.0
 40
0.0
 40
0.0
 40
0.0
 40
1.0
 40
1.0
 40
1.0
 40
2.0
 40
2.0
 40
2.0
 40
3.0
 40
3.0
 40
3.0
 40
4.0
 40
4.0
 40
4.0
 40
5.0
 40
5.0
 40
5.0
 40
6.0
 40
6.0
 40
6.0
 40
6.0
 10
104.4370361067032
 20
-151.9579942111424
 30
0.0
 10
104.4156765146947
 20
-151.9814208604421
 30
0.0
 10
104.3185248220106
 20
-152.0933864637128
 30
0.0
 10
104.178998454858
 20
-152.1736571885191
 30
0.0
 10
104.178998454858
 20
-152.1736571885191
 30
0.0
 10
104.0119113238234
 20
-152.0530788465354
 30
0.0
 10
104.0119113238234
 20
-152.0530788465354
 30
0.0
 10
104.1621174869803
 20
-151.9769422363113
 30
0.0
 10
104.2613362369555
 20
-151.8818576009184
 30
0.0
 10
104.3099120832975
 20
-151.8288031304456
 30
0.0
 10
104.3099120832975
 20
-151.8288031304456
 30
0.0
 10
104.4835448957541
 20
-151.9114854220916
 30
0.0
 10
104.4835448957541
 20
-151.9114854220916
 30
0.0
 10
104.4918131249187
 20
-151.9156195366739
 30
0.0
 10
104.5004258636318
 20
-151.9221652180958
 30
0.0
 10
104.5004258636318
 20
-151.9325005045516
 30
0.0
 10
104.5004258636318
 20
-151.9579942111424
 30
0.0
 10
104.4645968705852
 20
-151.9579942111424
 30
0.0
 10
104.4370361067032
 20
-151.9579942111424
 30
0.0
  0
SPLINE
  5
99
330
90
100
AcDbEntity
  8
_U+30EC_U+30A4_U+30E4_U+30FC 1
370
     0
100
AcDbSpline
210
0.0
220
0.0
230
1.0
 70
    11
 71
     3
 72
    20
 73
    16
 74
     0
 42
0.0000000001
 43
0.0000000001
 12
1.0
 22
0.0
 32
0.0
 13
1.0
 23
0.0
 33
0.0
 40
0.0
 40
0.0
 40
0.0
 40
0.0
 40
1.0
 40
1.0
 40
1.0
 40
2.0
 40
2.0
 40
2.0
 40
3.0
 40
3.0
 40
3.0
 40
4.0
 40
4.0
 40
4.0
 40
5.0
 40
5.0
 40
5.0
 40
5.0
 10
104.7353813757259
 20
-151.1160128745474
 30
0.0
 10
104.6971408158396
 20
-151.1645887208894
 30
0.0
 10
104.6358181162022
 20
-151.2431368979531
 30
0.0
 10
104.4962917490495
 20
-151.3530354439326
 30
0.0
 10
104.5765624738559
 20
-151.3571695585149
 30
0.0
 10
104.606190295029
 20
-151.3571695585149
 30
0.0
 10
104.6296169443287
 20
-151.3571695585149
 30
0.0
 10
104.6296169443287
 20
-151.3571695585149
 30
0.0
 10
104.8580267750008
 20
-151.3571695585149
 30
0.0
 10
104.8580267750008
 20
-151.3571695585149
 30
0.0
 10
104.8897216534651
 20
-151.3571695585149
 30
0.0
 10
104.9382974998071
 20
-151.3551025012237
 30
0.0
 10
105.01236705274
 20
-151.3530354439326
 30
0.0
 10
104.9004014494693
 20
-151.2789658909997
 30
0.0
 10
104.8514810935788
 20
-151.2324571019488
 30
0.0
 10
104.7353813757259
 20
-151.1160128745474
 30
0.0
  0
SPLINE
  5
9A
330
90
100
AcDbEntity
  8
_U+30EC_U+30A4_U+30E4_U+30FC 1
370
     0
100
AcDbSpline
210
0.0
220
0.0
230
1.0
 70
    11
 71
     3
 72
    17
 73
    13
 74
     0
 42
0.0000000001
 43
0.0000000001
 12
1.0
 22
0.0
 32
0.0
 13
1.0
 23
0.0
 33
0.0
 40
0.0
 40
0.0
 40
0.0
 40
0.0
 40
1.0
 40
1.0
 40
1.0
 40
2.0
 40
2.0
 40
2.0
 40
3.0
 40
3.0
 40
3.0
 40
4.0
 40
4.0
 40
4.0
 40
4.0
 10
105.295898411176
 20
-152.1715901312279
 30
0.0
 10
105.1605061586057
 20
-152.0596245279573
 30
0.0
 10
105.0547417272085
 20
-151.9962347710287
 30
0.0
 10
104.9362304425159
 20
-151.9325005045516
 30
0.0
 10
104.9362304425159
 20
-151.9325005045516
 30
0.0
 10
105.0630099563731
 20
-151.820534901281
 30
0.0
 10
105.0630099563731
 20
-151.820534901281
 30
0.0
 10
105.1942680943612
 20
-151.8670436903319
 30
0.0
 10
105.3041666403406
 20
-151.924232275387
 30
0.0
 10
105.4292236064552
 20
-152.0258625922019
 30
0.0
 10
105.4292236064552
 20
-152.0258625922019
 30
0.0
 10
105.295898411176
 20
-152.1715901312279
 30
0.0
 10
105.295898411176
 20
-152.1715901312279
 30
0.0
  0
HATCH
  5
9B
330
90
100
AcDbEntity
  8
_U+30EC_U+30A4_U+30E4_U+30FC 1
 62
   179
420
  2234388
100
AcDbHatch
 10
0.0
 20
0.0
 30
0.0
210
0.0
220
0.0
230
1.0
  2
SOLID
 70
     1
 71
     0
 91
        7
 92
        1
 93
        1
 72
     4
 94
        3
 73
     0
 74
     1
 95
       17
 96
       13
 40
0.0
 40
0.0
 40
0.0
 40
0.0
 40
1.0
 40
1.0
 40
1.0
 40
2.0
 40
2.0
 40
2.0
 40
3.0
 40
3.0
 40
3.0
 40
4.0
 40
4.0
 40
4.0
 40
4.0
 10
103.8045165756114
 20
-151.5983262424824
 10
103.6987521442142
 20
-151.4925618110852
 10
103.6181369098594
 20
-151.4546657607474
 10
103.5251193317576
 20
-151.4226263727346
 10
103.5251193317576
 20
-151.4226263727346
 10
103.6353623872856
 20
-151.2576062989912
 10
103.6353623872856
 20
-151.2576062989912
 10
103.7325140799696
 20
-151.2999809734597
 10
103.8530924219534
 20
-151.3785291505234
 10
103.9061468924262
 20
-151.4333061687389
 10
103.9061468924262
 20
-151.4333061687389
 10
103.8045165756114
 20
-151.5983262424824
 10
103.8045165756114
 20
-151.5983262424824
 97
        0
 97
        0
 92
        1
 93
        1
 72
     4
 94
        3
 73
     0
 74
     1
 95
      182
 96
      178
 40
0.0
 40
0.0
 40
0.0
 40
0.0
 40
1.0
 40
1.0
 40
1.0
 40
2.0
 40
2.0
 40
2.0
 40
3.0
 40
3.0
 40
3.0
 40
4.0
 40
4.0
 40
4.0
 40
5.0
 40
5.0
 40
5.0
 40
6.0
 40
6.0
 40
6.0
 40
7.0
 40
7.0
 40
7.0
 40
8.0
 40
8.0
 40
8.0
 40
9.0
 40
9.0
 40
9.0
 40
10.0
 40
10.0
 40
10.0
 40
11.0
 40
11.0
 40
11.0
 40
12.0
 40
12.0
 40
12.0
 40
13.0
 40
13.0
 40
13.0
 40
14.0
 40
14.0
 40
14.0
 40
15.0
 40
15.0
 40
15.0
 40
16.0
 40
16.0
 40
16.0
 40
17.0
 40
17.0
 40
17.0
 40
18.0
 40
18.0
 40
18.0
 40
19.0
 40
19.0
 40
19.0
 40
20.0
 40
20.0
 40
20.0
 40
21.0
 40
21.0
 40
21.0
 40
22.0
 40
22.0
 40
22.0
 40
23.0
 40
23.0
 40
23.0
 40
24.0
 40
24.0
 40
24.0
 40
25.0
 40
25.0
 40
25.0
 40
26.0
 40
26.0
 40
26.0
 40
27.0
 40
27.0
 40
27.0
 40
28.0
 40
28.0
 40
28.0
 40
29.0
 40
29.0
 40
29.0
 40
30.0
 40
30.0
 40
30.0
 40
31.0
 40
31.0
 40
31.0
 40
32.0
 40
32.0
 40
32.0
 40
33.0
 40
33.0
 40
33.0
 40
34.0
 40
34.0
 40
34.0
 40
35.0
 40
35.0
 40
35.0
 40
36.0
 40
36.0
 40
36.0
 40
37.0
 40
37.0
 40
37.0
 40
38.0
 40
38.0
 40
38.0
 40
39.0
 40
39.0
 40
39.0
 40
40.0
 40
40.0
 40
40.0
 40
41.0
 40
41.0
 40
41.0
 40
42.0
 40
42.0
 40
42.0
 40
43.0
 40
43.0
 40
43.0
 40
44.0
 40
44.0
 40
44.0
 40
45.0
 40
45.0
 40
45.0
 40
46.0
 40
46.0
 40
46.0
 40
47.0
 40
47.0
 40
47.0
 40
48.0
 40
48.0
 40
48.0
 40
49.0
 40
49.0
 40
49.0
 40
50.0
 40
50.0
 40
50.0
 40
51.0
 40
51.0
 40
51.0
 40
52.0
 40
52.0
 40
52.0
 40
53.0
 40
53.0
 40
53.0
 40
54.0
 40
54.0
 40
54.0
 40
55.0
 40
55.0
 40
55.0
 40
56.0
 40
56.0
 40
56.0
 40
57.0
 40
57.0
 40
57.0
 40
58.0
 40
58.0
 40
58.0
 40
59.0
 40
59.0
 40
59.0
 40
59.0
 10
104.8494140362877
 20
-152.7765488984378
 10
104.8494140362877
 20
-152.7765488984378
 10
104.2127603906135
 20
-152.7765488984378
 10
104.2127603906135
 20
-152.7765488984378
 10
103.999164470528
 20
-152.7765488984378
 10
103.7831569836028
 20
-152.7810275225686
 10
103.5695610635173
 20
-152.7937743758641
 10
103.5695610635173
 20
-152.7937743758641
 10
103.5695610635173
 20
-152.586379627652
 10
103.5695610635173
 20
-152.586379627652
 10
103.7917697223159
 20
-152.5991264809475
 10
104.1152641883809
 20
-152.6032605955297
 10
104.2127603906135
 20
-152.6032605955297
 10
104.2127603906135
 20
-152.6032605955297
 10
104.4329019921209
 20
-152.6032605955297
 10
104.4329019921209
 20
-152.6032605955297
 10
104.4329019921209
 20
-152.6032605955297
 10
104.4329019921209
 20
-152.461667171086
 10
104.4329019921209
 20
-152.461667171086
 10
104.4329019921209
 20
-152.461667171086
 10
104.2720160329598
 20
-152.461667171086
 10
104.2720160329598
 20
-152.461667171086
 10
104.1069959592163
 20
-152.461667171086
 10
103.9419758854728
 20
-152.4658012856683
 10
103.7769558117294
 20
-152.4806151962549
 10
103.7769558117294
 20
-152.4806151962549
 10
103.7769558117294
 20
-152.2711533907517
 10
103.7769558117294
 20
-152.2711533907517
 10
103.9481770573463
 20
-152.2859673013382
 10
104.1958794227358
 20
-152.2901014159205
 10
104.2720160329598
 20
-152.2901014159205
 10
104.2720160329598
 20
-152.2901014159205
 10
104.4329019921209
 20
-152.2901014159205
 10
104.4329019921209
 20
-152.2901014159205
 10
104.4284233679901
 20
-152.2180989202788
 10
104.4284233679901
 20
-152.2118977484054
 10
104.4222221961167
 20
-152.1588432779325
 10
104.4222221961167
 20
-152.1588432779325
 10
104.5617485632693
 20
-152.1736571885191
 10
104.5617485632693
 20
-152.1736571885191
 10
104.5617485632693
 20
-152.1736571885191
 10
104.4625298132941
 20
-152.0024359429022
 10
104.4625298132941
 20
-152.0024359429022
 10
104.509038602345
 20
-152.0086371147756
 10
104.5831081552778
 20
-152.0172498534887
 10
104.5999891231556
 20
-152.0172498534887
 10
104.6506320267887
 20
-152.0172498534887
 10
104.6675129946665
 20
-151.9962347710287
 10
104.6675129946665
 20
-151.9390461859736
 10
104.6675129946665
 20
-151.9390461859736
 10
104.6675129946665
 20
-151.8015868761121
 10
104.6675129946665
 20
-151.8015868761121
 10
104.6675129946665
 20
-151.8015868761121
 10
104.5617485632693
 20
-151.8015868761121
 10
104.5617485632693
 20
-151.8015868761121
 10
104.4284233679901
 20
-151.8015868761121
 10
104.2720160329598
 20
-151.8015868761121
 10
104.1493706336849
 20
-151.813989219859
 10
104.1493706336849
 20
-151.813989219859
 10
104.1493706336849
 20
-151.6238199490732
 10
104.1493706336849
 20
-151.6238199490732
 10
104.3164577647195
 20
-151.6407009169509
 10
104.5469346526827
 20
-151.6427679742421
 10
104.5617485632693
 20
-151.6427679742421
 10
104.5617485632693
 20
-151.6427679742421
 10
104.6675129946665
 20
-151.6427679742421
 10
104.6675129946665
 20
-151.6427679742421
 10
104.6675129946665
 20
-151.6427679742421
 10
104.6675129946665
 20
-151.5115098362541
 10
104.6675129946665
 20
-151.5115098362541
 10
104.6675129946665
 20
-151.5115098362541
 10
104.6296169443287
 20
-151.5115098362541
 10
104.6296169443287
 20
-151.5115098362541
 10
104.585175212569
 20
-151.5115098362541
 10
104.4601182464544
 20
-151.5159884603849
 10
104.371234782935
 20
-151.5242566895495
 10
104.371234782935
 20
-151.5242566895495
 10
104.371234782935
 20
-151.4439859647432
 10
104.371234782935
 20
-151.4439859647432
 10
104.3185248220106
 20
-151.4818820150809
 10
104.2930311154198
 20
-151.4966959256675
 10
104.2506564409512
 20
-151.5201225749672
 10
104.2506564409512
 20
-151.5201225749672
 10
104.0625542274566
 20
-151.3909314942703
 10
104.0625542274566
 20
-151.3909314942703
 10
104.1407578949718
 20
-151.3571695585149
 10
104.2975097395506
 20
-151.2937798015863
 10
104.453917074581
 20
-151.1497748103028
 10
104.5362548566784
 20
-151.0715711427877
 10
104.6148030337421
 20
-150.9868217938505
 10
104.6675129946665
 20
-150.8855359865842
 10
104.6675129946665
 20
-150.8855359865842
 10
104.8790418574608
 20
-150.9468586862216
 10
104.8790418574608
 20
-150.9468586862216
 10
104.8983343921782
 20
-150.9530598580951
 10
104.9086696786339
 20
-150.9616725968082
 10
104.9086696786339
 20
-150.9744194501036
 10
104.9086696786339
 20
-150.9913004179813
 10
104.8959228253385
 20
-150.9975015898548
 10
104.8707736282962
 20
-151.0102484431502
 10
104.9510443531025
 20
-151.1077446453828
 10
105.1139973695548
 20
-151.2048963380668
 10
105.1477593053103
 20
-151.2238443632357
 10
105.2979654684672
 20
-151.3127278267552
 10
105.4123426385775
 20
-151.3402885906372
 10
105.4905463060926
 20
-151.359236615806
 10
105.4905463060926
 20
-151.359236615806
 10
105.3720350214001
 20
-151.5283908041318
 10
105.3720350214001
 20
-151.5283908041318
 10
105.2872856724629
 20
-151.4991074925072
 10
105.2366427688297
 20
-151.4798149577898
 10
105.1181314841371
 20
-151.41435814357
 10
105.1181314841371
 20
-151.41435814357
 10
105.1181314841371
 20
-151.5242566895495
 10
105.1181314841371
 20
-151.5242566895495
 10
105.0357937020397
 20
-151.5159884603849
 10
104.9086696786339
 20
-151.5115098362541
 10
104.8559597177096
 20
-151.5115098362541
 10
104.8559597177096
 20
-151.5115098362541
 10
104.8559597177096
 20
-151.6427679742421
 10
104.8559597177096
 20
-151.6427679742421
 10
104.8559597177096
 20
-151.6427679742421
 10
104.9765380596934
 20
-151.6427679742421
 10
104.9765380596934
 20
-151.6427679742421
 10
104.9786051169845
 20
-151.6427679742421
 10
105.2111490622389
 20
-151.6407009169509
 10
105.3889159892778
 20
-151.6238199490732
 10
105.3889159892778
 20
-151.6238199490732
 10
105.3889159892778
 20
-151.813989219859
 10
105.3889159892778
 20
-151.813989219859
 10
105.2600694181294
 20
-151.8015868761121
 10
105.1033175735506
 20
-151.8015868761121
 10
104.9765380596934
 20
-151.8015868761121
 10
104.9765380596934
 20
-151.8015868761121
 10
104.8559597177096
 20
-151.8015868761121
 10
104.8559597177096
 20
-151.8015868761121
 10
104.8559597177096
 20
-151.8015868761121
 10
104.8559597177096
 20
-152.027929649493
 10
104.8559597177096
 20
-152.027929649493
 10
104.8559597177096
 20
-152.1464409341856
 10
104.8304660111188
 20
-152.1822699272322
 10
104.6695800519576
 20
-152.1970838378188
 10
104.6740586760884
 20
-152.2160318629877
 10
104.6675129946665
 20
-152.2267116589919
 10
104.6296169443287
 20
-152.2497937987431
 10
104.6275498870376
 20
-152.2690863334605
 10
104.6275498870376
 20
-152.2752875053339
 10
104.6251383201979
 20
-152.2901014159205
 10
104.6251383201979
 20
-152.2901014159205
 10
104.7625976300594
 20
-152.2901014159205
 10
104.7625976300594
 20
-152.2901014159205
 10
104.9276177038028
 20
-152.2901014159205
 10
105.095049344386
 20
-152.2859673013382
 10
105.2621364754206
 20
-152.2711533907517
 10
105.2621364754206
 20
-152.2711533907517
 10
105.2621364754206
 20
-152.4785481389637
 10
105.2621364754206
 20
-152.4785481389637
 10
105.0461289884954
 20
-152.461667171086
 10
104.7818901647768
 20
-152.461667171086
 10
104.7625976300594
 20
-152.461667171086
 10
104.7625976300594
 20
-152.461667171086
 10
104.6230712629067
 20
-152.461667171086
 10
104.6230712629067
 20
-152.461667171086
 10
104.6230712629067
 20
-152.461667171086
 10
104.6230712629067
 20
-152.6032605955297
 10
104.6230712629067
 20
-152.6032605955297
 10
104.6230712629067
 20
-152.6032605955297
 10
104.8494140362877
 20
-152.6032605955297
 10
104.8494140362877
 20
-152.6032605955297
 10
105.0654215232128
 20
-152.6032605955297
 10
105.2831515578806
 20
-152.5991264809475
 10
105.4988145352572
 20
-152.586379627652
 10
105.4988145352572
 20
-152.586379627652
 10
105.4988145352572
 20
-152.7937743758641
 10
105.4988145352572
 20
-152.7937743758641
 10
105.2176947436609
 20
-152.7765488984378
 10
104.8728406855873
 20
-152.7765488984378
 10
104.8494140362877
 20
-152.7765488984378
 97
        0
 97
        0
 92
        1
 93
        1
 72
     4
 94
        3
 73
     0
 74
     1
 95
       23
 96
       19
 40
0.0
 40
0.0
 40
0.0
 40
0.0
 40
1.0
 40
1.0
 40
1.0
 40
2.0
 40
2.0
 40
2.0
 40
3.0
 40
3.0
 40
3.0
 40
4.0
 40
4.0
 40
4.0
 40
5.0
 40
5.0
 40
5.0
 40
6.0
 40
6.0
 40
6.0
 40
6.0
 10
103.7304470226785
 20
-152.1485079914768
 10
103.7304470226785
 20
-152.1695230739368
 10
103.7325140799696
 20
-152.2077636338231
 10
103.7070203733788
 20
-152.2077636338231
 10
103.6966850869231
 20
-152.2077636338231
 10
103.6880723482099
 20
-152.2012179524011
 10
103.6773925522057
 20
-152.1843369845234
 10
103.6773925522057
 20
-152.1843369845234
 10
103.5736951780996
 20
-152.0024359429022
 10
103.5736951780996
 20
-152.0024359429022
 10
103.7897026650248
 20
-151.8732448622053
 10
103.9864176172326
 20
-151.5962591851912
 10
104.0329264062834
 20
-151.5242566895495
 10
104.0329264062834
 20
-151.5242566895495
 10
104.1049289019252
 20
-151.7040906738795
 10
104.1049289019252
 20
-151.7040906738795
 10
103.971603706646
 20
-151.9008056260873
 10
103.7959038368982
 20
-152.0847737249996
 10
103.7304470226785
 20
-152.1485079914768
 97
        0
 97
        0
 92
        1
 93
        1
 72
     4
 94
        3
 73
     0
 74
     1
 95
       17
 96
       13
 40
0.0
 40
0.0
 40
0.0
 40
0.0
 40
1.0
 40
1.0
 40
1.0
 40
2.0
 40
2.0
 40
2.0
 40
3.0
 40
3.0
 40
3.0
 40
4.0
 40
4.0
 40
4.0
 40
4.0
 10
103.9843505599414
 20
-151.2534721844088
 10
103.923027860304
 20
-151.1773355741848
 10
103.7938367796071
 20
-151.1011989639608
 10
103.6901394055011
 20
-151.0715711427877
 10
103.6901394055011
 20
-151.0715711427877
 10
103.7855685504425
 20
-150.9065510690442
 10
103.7855685504425
 20
-150.9065510690442
 10
103.8868543577088
 20
-150.9427245716393
 10
103.992618789106
 20
-150.9995686471459
 10
104.0815022526255
 20
-151.0801838815008
 10
104.0815022526255
 20
-151.0801838815008
 10
103.9843505599414
 20
-151.2534721844088
 10
103.9843505599414
 20
-151.2534721844088
 97
        0
 97
        0
 92
        1
 93
        1
 72
     4
 94
        3
 73
     0
 74
     1
 95
       23
 96
       19
 40
0.0
 40
0.0
 40
0.0
 40
0.0
 40
1.0
 40
1.0
 40
1.0
 40
2.0
 40
2.0
 40
2.0
 40
3.0
 40
3.0
 40
3.0
 40
4.0
 40
4.0
 40
4.0
 40
5.0
 40
5.0
 40
5.0
 40
6.0
 40
6.0
 40
6.0
 40
6.0
 10
104.4370361067032
 20
-151.9579942111424
 10
104.4156765146947
 20
-151.9814208604421
 10
104.3185248220106
 20
-152.0933864637128
 10
104.178998454858
 20
-152.1736571885191
 10
104.178998454858
 20
-152.1736571885191
 10
104.0119113238234
 20
-152.0530788465354
 10
104.0119113238234
 20
-152.0530788465354
 10
104.1621174869803
 20
-151.9769422363113
 10
104.2613362369555
 20
-151.8818576009184
 10
104.3099120832975
 20
-151.8288031304456
 10
104.3099120832975
 20
-151.8288031304456
 10
104.4835448957541
 20
-151.9114854220916
 10
104.4835448957541
 20
-151.9114854220916
 10
104.4918131249187
 20
-151.9156195366739
 10
104.5004258636318
 20
-151.9221652180958
 10
104.5004258636318
 20
-151.9325005045516
 10
104.5004258636318
 20
-151.9579942111424
 10
104.4645968705852
 20
-151.9579942111424
 10
104.4370361067032
 20
-151.9579942111424
 97
        0
 97
        0
 92
        1
 93
        1
 72
     4
 94
        3
 73
     0
 74
     1
 95
       20
 96
       16
 40
0.0
 40
0.0
 40
0.0
 40
0.0
 40
1.0
 40
1.0
 40
1.0
 40
2.0
 40
2.0
 40
2.0
 40
3.0
 40
3.0
 40
3.0
 40
4.0
 40
4.0
 40
4.0
 40
5.0
 40
5.0
 40
5.0
 40
5.0
 10
104.7353813757259
 20
-151.1160128745474
 10
104.6971408158396
 20
-151.1645887208894
 10
104.6358181162022
 20
-151.2431368979531
 10
104.4962917490495
 20
-151.3530354439326
 10
104.5765624738559
 20
-151.3571695585149
 10
104.606190295029
 20
-151.3571695585149
 10
104.6296169443287
 20
-151.3571695585149
 10
104.6296169443287
 20
-151.3571695585149
 10
104.8580267750008
 20
-151.3571695585149
 10
104.8580267750008
 20
-151.3571695585149
 10
104.8897216534651
 20
-151.3571695585149
 10
104.9382974998071
 20
-151.3551025012237
 10
105.01236705274
 20
-151.3530354439326
 10
104.9004014494693
 20
-151.2789658909997
 10
104.8514810935788
 20
-151.2324571019488
 10
104.7353813757259
 20
-151.1160128745474
 97
        0
 97
        0
 92
        1
 93
        1
 72
     4
 94
        3
 73
     0
 74
     1
 95
       17
 96
       13
 40
0.0
 40
0.0
 40
0.0
 40
0.0
 40
1.0
 40
1.0
 40
1.0
 40
2.0
 40
2.0
 40
2.0
 40
3.0
 40
3.0
 40
3.0
 40
4.0
 40
4.0
 40
4.0
 40
4.0
 10
105.295898411176
 20
-152.1715901312279
 10
105.1605061586057
 20
-152.0596245279573
 10
105.0547417272085
 20
-151.9962347710287
 10
104.9362304425159
 20
-151.9325005045516
 10
104.9362304425159
 20
-151.9325005045516
 10
105.0630099563731
 20
-151.820534901281
 10
105.0630099563731
 20
-151.820534901281
 10
105.1942680943612
 20
-151.8670436903319
 10
105.3041666403406
 20
-151.924232275387
 10
105.4292236064552
 20
-152.0258625922019
 10
105.4292236064552
 20
-152.0258625922019
 10
105.295898411176
 20
-152.1715901312279
 10
105.295898411176
 20
-152.1715901312279
 97
        0
 97
        0
 75
     2
 76
     1
 98
        0
  0
SPLINE
  5
9C
330
90
100
AcDbEntity
  8
_U+30EC_U+30A4_U+30E4_U+30FC 1
370
     0
100
AcDbSpline
210
0.0
220
0.0
230
1.0
 70
    11
 71
     3
 72
   113
 73
   109
 74
     0
 42
0.0000000001
 43
0.0000000001
 12
1.0
 22
0.0
 32
0.0
 13
1.0
 23
0.0
 33
0.0
 40
0.0
 40
0.0
 40
0.0
 40
0.0
 40
1.0
 40
1.0
 40
1.0
 40
2.0
 40
2.0
 40
2.0
 40
3.0
 40
3.0
 40
3.0
 40
4.0
 40
4.0
 40
4.0
 40
5.0
 40
5.0
 40
5.0
 40
6.0
 40
6.0
 40
6.0
 40
7.0
 40
7.0
 40
7.0
 40
8.0
 40
8.0
 40
8.0
 40
9.0
 40
9.0
 40
9.0
 40
10.0
 40
10.0
 40
10.0
 40
11.0
 40
11.0
 40
11.0
 40
12.0
 40
12.0
 40
12.0
 40
13.0
 40
13.0
 40
13.0
 40
14.0
 40
14.0
 40
14.0
 40
15.0
 40
15.0
 40
15.0
 40
16.0
 40
16.0
 40
16.0
 40
17.0
 40
17.0
 40
17.0
 40
18.0
 40
18.0
 40
18.0
 40
19.0
 40
19.0
 40
19.0
 40
20.0
 40
20.0
 40
20.0
 40
21.0
 40
21.0
 40
21.0
 40
22.0
 40
22.0
 40
22.0
 40
23.0
 40
23.0
 40
23.0
 40
24.0
 40
24.0
 40
24.0
 40
25.0
 40
25.0
 40
25.0
 40
26.0
 40
26.0
 40
26.0
 40
27.0
 40
27.0
 40
27.0
 40
28.0
 40
28.0
 40
28.0
 40
29.0
 40
29.0
 40
29.0
 40
30.0
 40
30.0
 40
30.0
 40
31.0
 40
31.0
 40
31.0
 40
32.0
 40
32.0
 40
32.0
 40
33.0
 40
33.0
 40
33.0
 40
34.0
 40
34.0
 40
34.0
 40
35.0
 40
35.0
 40
35.0
 40
36.0
 40
36.0
 40
36.0
 40
36.0
 10
107.1755425079283
 20
-152.1485079914768
 30
0.0
 10
107.1755425079283
 20
-152.1485079914768
 30
0.0
 10
107.2751057674521
 20
-152.247726741452
 30
0.0
 10
107.2751057674521
 20
-152.247726741452
 30
0.0
 10
107.2857855634563
 20
-152.2584065374562
 30
0.0
 10
107.2961208499121
 20
-152.2711533907517
 30
0.0
 10
107.2961208499121
 20
-152.2859673013382
 30
0.0
 10
107.2961208499121
 20
-152.2880343586294
 30
0.0
 10
107.2961208499121
 20
-152.3176621798025
 30
0.0
 10
107.2582247995743
 20
-152.3176621798025
 30
0.0
 10
107.2496120608612
 20
-152.3176621798025
 30
0.0
 10
107.2093044436838
 20
-152.3135280652202
 30
0.0
 10
107.2031032718103
 20
-152.3135280652202
 30
0.0
 10
107.1627956546329
 20
-152.3452229436845
 30
0.0
 10
107.116286865582
 20
-152.37898487944
 30
0.0
 10
107.0170681156068
 20
-152.4361734644951
 30
0.0
 10
107.1627956546329
 20
-152.5440049531834
 30
0.0
 10
107.3216145565029
 20
-152.6011935382386
 30
0.0
 10
107.5944661189347
 20
-152.6390895885764
 30
0.0
 10
107.5944661189347
 20
-152.6390895885764
 30
0.0
 10
107.4442599557778
 20
-152.8147894583241
 30
0.0
 10
107.4442599557778
 20
-152.8147894583241
 30
0.0
 10
107.1820881893503
 20
-152.7427869626824
 30
0.0
 10
107.0253363447714
 20
-152.6539034991629
 30
0.0
 10
106.9491997345474
 20
-152.6011935382386
 30
0.0
 10
106.7989935713905
 20
-152.4995632214237
 30
0.0
 10
106.6553330896556
 20
-152.3366102049714
 30
0.0
 10
106.5791964794316
 20
-152.1715901312279
 30
0.0
 10
106.5113280983722
 20
-152.2373914549962
 30
0.0
 10
106.4372585454393
 20
-152.2901014159205
 30
0.0
 10
106.3590548779241
 20
-152.3386772622626
 30
0.0
 10
106.3590548779241
 20
-152.3386772622626
 30
0.0
 10
106.3590548779241
 20
-152.5905137422343
 30
0.0
 10
106.3590548779241
 20
-152.5905137422343
 30
0.0
 10
106.5220078943764
 20
-152.5650200356435
 30
0.0
 10
106.7080430505799
 20
-152.5205783038838
 30
0.0
 10
106.7714328075085
 20
-152.5057643932972
 30
0.0
 10
106.7714328075085
 20
-152.5057643932972
 30
0.0
 10
106.7418049863354
 20
-152.6752630911715
 30
0.0
 10
106.7418049863354
 20
-152.6752630911715
 30
0.0
 10
106.7397379290442
 20
-152.6752630911715
 30
0.0
 10
106.7207899038754
 20
-152.6814642630449
 30
0.0
 10
106.7187228465842
 20
-152.6814642630449
 30
0.0
 10
106.5199408370853
 20
-152.7197048229312
 30
0.0
 10
106.2026475428938
 20
-152.7851616371509
 30
0.0
 10
106.0055880811375
 20
-152.8209906301975
 30
0.0
 10
105.9952527946817
 20
-152.8382161076238
 30
0.0
 10
105.9718261453821
 20
-152.8699109860881
 30
0.0
 10
105.9487440056309
 20
-152.8699109860881
 30
0.0
 10
105.9211832417489
 20
-152.8699109860881
 30
0.0
 10
105.9170491271666
 20
-152.8506184513707
 30
0.0
 10
105.9146375603269
 20
-152.8316704262018
 30
0.0
 10
105.9146375603269
 20
-152.8316704262018
 30
0.0
 10
105.8894883632846
 20
-152.6583821232937
 30
0.0
 10
105.8894883632846
 20
-152.6583821232937
 30
0.0
 10
105.9635579162175
 20
-152.6497693845806
 30
0.0
 10
106.0713894049058
 20
-152.6370225312852
 30
0.0
 10
106.1792208935941
 20
-152.6160074488252
 30
0.0
 10
106.1792208935941
 20
-152.6160074488252
 30
0.0
 10
106.1792208935941
 20
-152.4382405217863
 30
0.0
 10
106.1792208935941
 20
-152.4382405217863
 30
0.0
 10
106.0352159023106
 20
-152.510243017428
 30
0.0
 10
105.9401312669177
 20
-152.5398708386012
 30
0.0
 10
105.7751111931743
 20
-152.5694986597743
 30
0.0
 10
105.7751111931743
 20
-152.5694986597743
 30
0.0
 10
105.6545328511905
 20
-152.3999999619
 30
0.0
 10
105.6545328511905
 20
-152.3999999619
 30
0.0
 10
105.9718261453821
 20
-152.3727837075665
 30
0.0
 10
106.1644069830075
 20
-152.2794216199163
 30
0.0
 10
106.3421739100464
 20
-152.1464409341856
 30
0.0
 10
106.1961018614718
 20
-152.1464409341856
 30
0.0
 10
105.895689535158
 20
-152.1505750487679
 30
0.0
 10
105.6989745829503
 20
-152.1567762206414
 30
0.0
 10
105.6989745829503
 20
-152.1567762206414
 30
0.0
 10
105.6989745829503
 20
-151.9790092936025
 30
0.0
 10
105.6989745829503
 20
-151.9790092936025
 30
0.0
 10
105.8533148606895
 20
-151.9855549750245
 30
0.0
 10
106.1495930724209
 20
-151.9917561468979
 30
0.0
 10
106.3335611713333
 20
-151.9917561468979
 30
0.0
 10
106.3335611713333
 20
-151.9917561468979
 30
0.0
 10
106.5450900341276
 20
-151.9917561468979
 30
0.0
 10
106.5450900341276
 20
-151.9917561468979
 30
0.0
 10
106.5450900341276
 20
-151.896671511505
 30
0.0
 10
106.5430229768365
 20
-151.8460286078718
 30
0.0
 10
106.536821804963
 20
-151.7991753092724
 30
0.0
 10
106.536821804963
 20
-151.7991753092724
 30
0.0
 10
106.7524847823397
 20
-151.8164007866987
 30
0.0
 10
106.7524847823397
 20
-151.8164007866987
 30
0.0
 10
106.8010606286817
 20
-151.820534901281
 30
0.0
 10
106.8096733673948
 20
-151.8353488118676
 30
0.0
 10
106.8096733673948
 20
-151.8501627224541
 30
0.0
 10
106.8096733673948
 20
-151.875656429045
 30
0.0
 10
106.7927923995171
 20
-151.8839246582096
 30
0.0
 10
106.7418049863354
 20
-151.9094183648004
 30
0.0
 10
106.7397379290442
 20
-151.9349120713913
 30
0.0
 10
106.7397379290442
 20
-151.9411132432647
 30
0.0
 10
106.7376708717531
 20
-151.9917561468979
 30
0.0
 10
106.7376708717531
 20
-151.9917561468979
 30
0.0
 10
106.9681477597163
 20
-151.9917561468979
 30
0.0
 10
106.9681477597163
 20
-151.9917561468979
 30
0.0
 10
107.1331678334598
 20
-151.9917561468979
 30
0.0
 10
107.425311930609
 20
-151.9855549750245
 30
0.0
 10
107.605145914939
 20
-151.9790092936025
 30
0.0
 10
107.605145914939
 20
-151.9790092936025
 30
0.0
 10
107.605145914939
 20
-152.1567762206414
 30
0.0
 10
107.605145914939
 20
-152.1567762206414
 30
0.0
 10
107.4759548342421
 20
-152.1526421060591
 30
0.0
 10
107.4528726944909
 20
-152.1526421060591
 30
0.0
 10
107.1755425079283
 20
-152.1485079914768
 30
0.0
  0
SPLINE
  5
9D
330
90
100
AcDbEntity
  8
_U+30EC_U+30A4_U+30E4_U+30FC 1
370
     0
100
AcDbSpline
210
0.0
220
0.0
230
1.0
 70
    11
 71
     3
 72
    23
 73
    19
 74
     0
 42
0.0000000001
 43
0.0000000001
 12
1.0
 22
0.0
 32
0.0
 13
1.0
 23
0.0
 33
0.0
 40
0.0
 40
0.0
 40
0.0
 40
0.0
 40
1.0
 40
1.0
 40
1.0
 40
2.0
 40
2.0
 40
2.0
 40
3.0
 40
3.0
 40
3.0
 40
4.0
 40
4.0
 40
4.0
 40
5.0
 40
5.0
 40
5.0
 40
6.0
 40
6.0
 40
6.0
 40
6.0
 10
105.8915554205757
 20
-151.7971082519813
 30
0.0
 10
105.874674452698
 20
-151.8374158691587
 30
0.0
 10
105.868128771276
 20
-151.8542968370364
 30
0.0
 10
105.847113688816
 20
-151.8542968370364
 30
0.0
 10
105.8322997782294
 20
-151.8542968370364
 30
0.0
 10
105.8216199822252
 20
-151.8374158691587
 30
0.0
 10
105.8154188103517
 20
-151.8246690158633
 30
0.0
 10
105.8154188103517
 20
-151.8246690158633
 30
0.0
 10
105.715855550828
 20
-151.6596489421198
 30
0.0
 10
105.715855550828
 20
-151.6596489421198
 30
0.0
 10
105.8174858676429
 20
-151.6279540636555
 30
0.0
 10
105.9676920307998
 20
-151.5728325358915
 30
0.0
 10
106.1664740402987
 20
-151.4102240289877
 30
0.0
 10
106.1664740402987
 20
-151.4102240289877
 30
0.0
 10
106.2236626253538
 20
-151.5835123318958
 30
0.0
 10
106.2236626253538
 20
-151.5835123318958
 30
0.0
 10
106.1306450472521
 20
-151.6661946235418
 30
0.0
 10
106.0417615837326
 20
-151.7230386990484
 30
0.0
 10
105.8915554205757
 20
-151.7971082519813
 30
0.0
  0
SPLINE
  5
9E
330
90
100
AcDbEntity
  8
_U+30EC_U+30A4_U+30E4_U+30FC 1
370
     0
100
AcDbSpline
210
0.0
220
0.0
230
1.0
 70
    11
 71
     3
 72
    17
 73
    13
 74
     0
 42
0.0000000001
 43
0.0000000001
 12
1.0
 22
0.0
 32
0.0
 13
1.0
 23
0.0
 33
0.0
 40
0.0
 40
0.0
 40
0.0
 40
0.0
 40
1.0
 40
1.0
 40
1.0
 40
2.0
 40
2.0
 40
2.0
 40
3.0
 40
3.0
 40
3.0
 40
4.0
 40
4.0
 40
4.0
 40
4.0
 10
106.0438286410238
 20
-151.331675851924
 30
0.0
 10
106.0142008198506
 20
-151.2917127442951
 30
0.0
 10
105.9463324387912
 20
-151.1942165420626
 30
0.0
 10
105.76443139717
 20
-151.0843179960831
 30
0.0
 10
105.76443139717
 20
-151.0843179960831
 30
0.0
 10
105.8915554205757
 20
-150.9509928008039
 30
0.0
 10
105.8915554205757
 20
-150.9509928008039
 30
0.0
 10
106.0775905767792
 20
-151.0526231176188
 30
0.0
 10
106.1347791618344
 20
-151.1415065811382
 30
0.0
 10
106.1623399257164
 20
-151.1838812556068
 30
0.0
 10
106.1623399257164
 20
-151.1838812556068
 30
0.0
 10
106.0438286410238
 20
-151.331675851924
 30
0.0
 10
106.0438286410238
 20
-151.331675851924
 30
0.0
  0
SPLINE
  5
9F
330
90
100
AcDbEntity
  8
_U+30EC_U+30A4_U+30E4_U+30FC 1
370
     0
100
AcDbSpline
210
0.0
220
0.0
230
1.0
 70
    11
 71
     3
 72
    38
 73
    34
 74
     0
 42
0.0000000001
 43
0.0000000001
 12
1.0
 22
0.0
 32
0.0
 13
1.0
 23
0.0
 33
0.0
 40
0.0
 40
0.0
 40
0.0
 40
0.0
 40
1.0
 40
1.0
 40
1.0
 40
2.0
 40
2.0
 40
2.0
 40
3.0
 40
3.0
 40
3.0
 40
4.0
 40
4.0
 40
4.0
 40
5.0
 40
5.0
 40
5.0
 40
6.0
 40
6.0
 40
6.0
 40
7.0
 40
7.0
 40
7.0
 40
8.0
 40
8.0
 40
8.0
 40
9.0
 40
9.0
 40
9.0
 40
10.0
 40
10.0
 40
10.0
 40
11.0
 40
11.0
 40
11.0
 40
11.0
 10
106.4117648388485
 20
-151.0271294110279
 30
0.0
 10
106.4096977815573
 20
-151.0736382000788
 30
0.0
 10
106.4076307242662
 20
-151.1900824274803
 30
0.0
 10
106.4076307242662
 20
-151.23452415924
 30
0.0
 10
106.4076307242662
 20
-151.23452415924
 30
0.0
 10
106.4076307242662
 20
-151.5814452746046
 30
0.0
 10
106.4076307242662
 20
-151.5814452746046
 30
0.0
 10
106.4076307242662
 20
-151.668261680833
 30
0.0
 10
106.4096977815573
 20
-151.8098551052767
 30
0.0
 10
106.4203775775616
 20
-151.9304334472604
 30
0.0
 10
106.4203775775616
 20
-151.9304334472604
 30
0.0
 10
106.2298637972273
 20
-151.9304334472604
 30
0.0
 10
106.2298637972273
 20
-151.9304334472604
 30
0.0
 10
106.2343424213581
 20
-151.8670436903319
 30
0.0
 10
106.2384765359404
 20
-151.813989219859
 30
0.0
 10
106.2405435932315
 20
-151.7592122016435
 30
0.0
 10
106.2426106505227
 20
-151.6365668023686
 30
0.0
 10
106.2446777078138
 20
-151.6217528917821
 30
0.0
 10
106.2446777078138
 20
-151.5773111600223
 30
0.0
 10
106.2446777078138
 20
-151.5773111600223
 30
0.0
 10
106.2446777078138
 20
-151.2555392417
 30
0.0
 10
106.2446777078138
 20
-151.2555392417
 30
0.0
 10
106.2446777078138
 20
-151.2007622234845
 30
0.0
 10
106.2319308545184
 20
-150.9616725968082
 30
0.0
 10
106.2298637972273
 20
-150.9106851836265
 30
0.0
 10
106.2298637972273
 20
-150.9106851836265
 30
0.0
 10
106.4310573735658
 20
-150.9382459475085
 30
0.0
 10
106.4310573735658
 20
-150.9382459475085
 30
0.0
 10
106.4520724560259
 20
-150.9403130047997
 30
0.0
 10
106.4837673344902
 20
-150.9447916289305
 30
0.0
 10
106.4837673344902
 20
-150.9699408259728
 30
0.0
 10
106.4837673344902
 20
-150.9975015898548
 30
0.0
 10
106.433124430857
 20
-151.0188611818633
 30
0.0
 10
106.4117648388485
 20
-151.0271294110279
 30
0.0
  0
SPLINE
  5
A0
330
90
100
AcDbEntity
  8
_U+30EC_U+30A4_U+30E4_U+30FC 1
370
     0
100
AcDbSpline
210
0.0
220
0.0
230
1.0
 70
    11
 71
     3
 72
    83
 73
    79
 74
     0
 42
0.0000000001
 43
0.0000000001
 12
1.0
 22
0.0
 32
0.0
 13
1.0
 23
0.0
 33
0.0
 40
0.0
 40
0.0
 40
0.0
 40
0.0
 40
1.0
 40
1.0
 40
1.0
 40
2.0
 40
2.0
 40
2.0
 40
3.0
 40
3.0
 40
3.0
 40
4.0
 40
4.0
 40
4.0
 40
5.0
 40
5.0
 40
5.0
 40
6.0
 40
6.0
 40
6.0
 40
7.0
 40
7.0
 40
7.0
 40
8.0
 40
8.0
 40
8.0
 40
9.0
 40
9.0
 40
9.0
 40
10.0
 40
10.0
 40
10.0
 40
11.0
 40
11.0
 40
11.0
 40
12.0
 40
12.0
 40
12.0
 40
13.0
 40
13.0
 40
13.0
 40
14.0
 40
14.0
 40
14.0
 40
15.0
 40
15.0
 40
15.0
 40
16.0
 40
16.0
 40
16.0
 40
17.0
 40
17.0
 40
17.0
 40
18.0
 40
18.0
 40
18.0
 40
19.0
 40
19.0
 40
19.0
 40
20.0
 40
20.0
 40
20.0
 40
21.0
 40
21.0
 40
21.0
 40
22.0
 40
22.0
 40
22.0
 40
23.0
 40
23.0
 40
23.0
 40
24.0
 40
24.0
 40
24.0
 40
25.0
 40
25.0
 40
25.0
 40
26.0
 40
26.0
 40
26.0
 40
26.0
 10
107.2137830678146
 20
-151.3489013293503
 30
0.0
 10
107.2137830678146
 20
-151.3489013293503
 30
0.0
 10
107.116286865582
 20
-151.3489013293503
 30
0.0
 10
107.116286865582
 20
-151.3489013293503
 30
0.0
 10
107.116286865582
 20
-151.3489013293503
 30
0.0
 10
107.116286865582
 20
-151.5962591851912
 30
0.0
 10
107.116286865582
 20
-151.5962591851912
 30
0.0
 10
107.116286865582
 20
-151.5962591851912
 30
0.0
 10
107.198969157228
 20
-151.5962591851912
 30
0.0
 10
107.198969157228
 20
-151.5962591851912
 30
0.0
 10
107.2644259714478
 20
-151.5962591851912
 30
0.0
 10
107.4039523386004
 20
-151.5921250706089
 30
0.0
 10
107.5035155981241
 20
-151.5835123318958
 30
0.0
 10
107.5035155981241
 20
-151.5835123318958
 30
0.0
 10
107.5035155981241
 20
-151.7633463162258
 30
0.0
 10
107.5035155981241
 20
-151.7633463162258
 30
0.0
 10
107.4104980200224
 20
-151.7550780870612
 30
0.0
 10
107.2602918568655
 20
-151.7505994629304
 30
0.0
 10
107.198969157228
 20
-151.7505994629304
 30
0.0
 10
107.198969157228
 20
-151.7505994629304
 30
0.0
 10
106.8940782067834
 20
-151.7505994629304
 30
0.0
 10
106.8940782067834
 20
-151.7505994629304
 30
0.0
 10
106.8413682458591
 20
-151.7505994629304
 30
0.0
 10
106.6952961972845
 20
-151.7550780870612
 30
0.0
 10
106.5895317658873
 20
-151.7633463162258
 30
0.0
 10
106.5895317658873
 20
-151.7633463162258
 30
0.0
 10
106.5895317658873
 20
-151.5835123318958
 30
0.0
 10
106.5895317658873
 20
-151.5835123318958
 30
0.0
 10
106.6890950254111
 20
-151.5921250706089
 30
0.0
 10
106.8286213925637
 20
-151.5962591851912
 30
0.0
 10
106.8940782067834
 20
-151.5962591851912
 30
0.0
 10
106.8940782067834
 20
-151.5962591851912
 30
0.0
 10
106.9385199385432
 20
-151.5962591851912
 30
0.0
 10
106.9385199385432
 20
-151.5962591851912
 30
0.0
 10
106.9385199385432
 20
-151.5962591851912
 30
0.0
 10
106.9385199385432
 20
-151.3489013293503
 30
0.0
 10
106.9385199385432
 20
-151.3489013293503
 30
0.0
 10
106.9385199385432
 20
-151.3489013293503
 30
0.0
 10
106.8647948951588
 20
-151.3489013293503
 30
0.0
 10
106.8647948951588
 20
-151.3489013293503
 30
0.0
 10
106.8031276859728
 20
-151.3489013293503
 30
0.0
 10
106.6360405549382
 20
-151.3530354439326
 30
0.0
 10
106.5154622129545
 20
-151.3613036730972
 30
0.0
 10
106.5154622129545
 20
-151.3613036730972
 30
0.0
 10
106.5154622129545
 20
-151.1838812556068
 30
0.0
 10
106.5154622129545
 20
-151.1838812556068
 30
0.0
 10
106.6298393830648
 20
-151.1900824274803
 30
0.0
 10
106.7883137753863
 20
-151.1942165420626
 30
0.0
 10
106.8647948951588
 20
-151.1942165420626
 30
0.0
 10
106.8647948951588
 20
-151.1942165420626
 30
0.0
 10
106.936452881252
 20
-151.1942165420626
 30
0.0
 10
106.936452881252
 20
-151.1942165420626
 30
0.0
 10
106.9323187666697
 20
-151.0419433216145
 30
0.0
 10
106.9302517093786
 20
-151.0081813858591
 30
0.0
 10
106.9237060279566
 20
-150.9151638077573
 30
0.0
 10
106.9237060279566
 20
-150.9151638077573
 30
0.0
 10
107.1355794002994
 20
-150.9382459475085
 30
0.0
 10
107.1355794002994
 20
-150.9382459475085
 30
0.0
 10
107.1607285973418
 20
-150.9403130047997
 30
0.0
 10
107.1841552466415
 20
-150.9447916289305
 30
0.0
 10
107.1841552466415
 20
-150.9678737686816
 30
0.0
 10
107.1841552466415
 20
-150.9995686471459
 30
0.0
 10
107.1397135148817
 20
-151.0164496150237
 30
0.0
 10
107.116286865582
 20
-151.0250623537368
 30
0.0
 10
107.116286865582
 20
-151.0250623537368
 30
0.0
 10
107.116286865582
 20
-151.1942165420626
 30
0.0
 10
107.116286865582
 20
-151.1942165420626
 30
0.0
 10
107.116286865582
 20
-151.1942165420626
 30
0.0
 10
107.2137830678146
 20
-151.1942165420626
 30
0.0
 10
107.2137830678146
 20
-151.1942165420626
 30
0.0
 10
107.2899196780386
 20
-151.1942165420626
 30
0.0
 10
107.4483940703601
 20
-151.1900824274803
 30
0.0
 10
107.5648382977616
 20
-151.1838812556068
 30
0.0
 10
107.5648382977616
 20
-151.1838812556068
 30
0.0
 10
107.5648382977616
 20
-151.3613036730972
 30
0.0
 10
107.5648382977616
 20
-151.3613036730972
 30
0.0
 10
107.4570068090732
 20
-151.3551025012237
 30
0.0
 10
107.2833739966167
 20
-151.3489013293503
 30
0.0
 10
107.2137830678146
 20
-151.3489013293503
 30
0.0
  0
SPLINE
  5
A1
330
90
100
AcDbEntity
  8
_U+30EC_U+30A4_U+30E4_U+30FC 1
370
     0
100
AcDbSpline
210
0.0
220
0.0
230
1.0
 70
    11
 71
     3
 72
    17
 73
    13
 74
     0
 42
0.0000000001
 43
0.0000000001
 12
1.0
 22
0.0
 32
0.0
 13
1.0
 23
0.0
 33
0.0
 40
0.0
 40
0.0
 40
0.0
 40
0.0
 40
1.0
 40
1.0
 40
1.0
 40
2.0
 40
2.0
 40
2.0
 40
3.0
 40
3.0
 40
3.0
 40
4.0
 40
4.0
 40
4.0
 40
4.0
 10
106.9681477597163
 20
-152.1464409341856
 30
0.0
 10
106.9681477597163
 20
-152.1464409341856
 30
0.0
 10
106.7652316356351
 20
-152.1464409341856
 30
0.0
 10
106.7652316356351
 20
-152.1464409341856
 30
0.0
 10
106.7927923995171
 20
-152.2056965765319
 30
0.0
 10
106.8475694177326
 20
-152.2773545626251
 30
0.0
 10
106.8751301816146
 20
-152.3069823837983
 30
0.0
 10
106.9026909454966
 20
-152.2921684732117
 30
0.0
 10
107.0170681156068
 20
-152.2287787162831
 30
0.0
 10
107.1080186364174
 20
-152.1464409341856
 30
0.0
 10
107.1080186364174
 20
-152.1464409341856
 30
0.0
 10
106.9681477597163
 20
-152.1464409341856
 30
0.0
 10
106.9681477597163
 20
-152.1464409341856
 30
0.0
  0
HATCH
  5
A2
330
90
100
AcDbEntity
  8
_U+30EC_U+30A4_U+30E4_U+30FC 1
 62
   179
420
  2234388
100
AcDbHatch
 10
0.0
 20
0.0
 30
0.0
210
0.0
220
0.0
230
1.0
  2
SOLID
 70
     1
 71
     0
 91
        6
 92
        1
 93
        1
 72
     4
 94
        3
 73
     0
 74
     1
 95
      113
 96
      109
 40
0.0
 40
0.0
 40
0.0
 40
0.0
 40
1.0
 40
1.0
 40
1.0
 40
2.0
 40
2.0
 40
2.0
 40
3.0
 40
3.0
 40
3.0
 40
4.0
 40
4.0
 40
4.0
 40
5.0
 40
5.0
 40
5.0
 40
6.0
 40
6.0
 40
6.0
 40
7.0
 40
7.0
 40
7.0
 40
8.0
 40
8.0
 40
8.0
 40
9.0
 40
9.0
 40
9.0
 40
10.0
 40
10.0
 40
10.0
 40
11.0
 40
11.0
 40
11.0
 40
12.0
 40
12.0
 40
12.0
 40
13.0
 40
13.0
 40
13.0
 40
14.0
 40
14.0
 40
14.0
 40
15.0
 40
15.0
 40
15.0
 40
16.0
 40
16.0
 40
16.0
 40
17.0
 40
17.0
 40
17.0
 40
18.0
 40
18.0
 40
18.0
 40
19.0
 40
19.0
 40
19.0
 40
20.0
 40
20.0
 40
20.0
 40
21.0
 40
21.0
 40
21.0
 40
22.0
 40
22.0
 40
22.0
 40
23.0
 40
23.0
 40
23.0
 40
24.0
 40
24.0
 40
24.0
 40
25.0
 40
25.0
 40
25.0
 40
26.0
 40
26.0
 40
26.0
 40
27.0
 40
27.0
 40
27.0
 40
28.0
 40
28.0
 40
28.0
 40
29.0
 40
29.0
 40
29.0
 40
30.0
 40
30.0
 40
30.0
 40
31.0
 40
31.0
 40
31.0
 40
32.0
 40
32.0
 40
32.0
 40
33.0
 40
33.0
 40
33.0
 40
34.0
 40
34.0
 40
34.0
 40
35.0
 40
35.0
 40
35.0
 40
36.0
 40
36.0
 40
36.0
 40
36.0
 10
107.1755425079283
 20
-152.1485079914768
 10
107.1755425079283
 20
-152.1485079914768
 10
107.2751057674521
 20
-152.247726741452
 10
107.2751057674521
 20
-152.247726741452
 10
107.2857855634563
 20
-152.2584065374562
 10
107.2961208499121
 20
-152.2711533907517
 10
107.2961208499121
 20
-152.2859673013382
 10
107.2961208499121
 20
-152.2880343586294
 10
107.2961208499121
 20
-152.3176621798025
 10
107.2582247995743
 20
-152.3176621798025
 10
107.2496120608612
 20
-152.3176621798025
 10
107.2093044436838
 20
-152.3135280652202
 10
107.2031032718103
 20
-152.3135280652202
 10
107.1627956546329
 20
-152.3452229436845
 10
107.116286865582
 20
-152.37898487944
 10
107.0170681156068
 20
-152.4361734644951
 10
107.1627956546329
 20
-152.5440049531834
 10
107.3216145565029
 20
-152.6011935382386
 10
107.5944661189347
 20
-152.6390895885764
 10
107.5944661189347
 20
-152.6390895885764
 10
107.4442599557778
 20
-152.8147894583241
 10
107.4442599557778
 20
-152.8147894583241
 10
107.1820881893503
 20
-152.7427869626824
 10
107.0253363447714
 20
-152.6539034991629
 10
106.9491997345474
 20
-152.6011935382386
 10
106.7989935713905
 20
-152.4995632214237
 10
106.6553330896556
 20
-152.3366102049714
 10
106.5791964794316
 20
-152.1715901312279
 10
106.5113280983722
 20
-152.2373914549962
 10
106.4372585454393
 20
-152.2901014159205
 10
106.3590548779241
 20
-152.3386772622626
 10
106.3590548779241
 20
-152.3386772622626
 10
106.3590548779241
 20
-152.5905137422343
 10
106.3590548779241
 20
-152.5905137422343
 10
106.5220078943764
 20
-152.5650200356435
 10
106.7080430505799
 20
-152.5205783038838
 10
106.7714328075085
 20
-152.5057643932972
 10
106.7714328075085
 20
-152.5057643932972
 10
106.7418049863354
 20
-152.6752630911715
 10
106.7418049863354
 20
-152.6752630911715
 10
106.7397379290442
 20
-152.6752630911715
 10
106.7207899038754
 20
-152.6814642630449
 10
106.7187228465842
 20
-152.6814642630449
 10
106.5199408370853
 20
-152.7197048229312
 10
106.2026475428938
 20
-152.7851616371509
 10
106.0055880811375
 20
-152.8209906301975
 10
105.9952527946817
 20
-152.8382161076238
 10
105.9718261453821
 20
-152.8699109860881
 10
105.9487440056309
 20
-152.8699109860881
 10
105.9211832417489
 20
-152.8699109860881
 10
105.9170491271666
 20
-152.8506184513707
 10
105.9146375603269
 20
-152.8316704262018
 10
105.9146375603269
 20
-152.8316704262018
 10
105.8894883632846
 20
-152.6583821232937
 10
105.8894883632846
 20
-152.6583821232937
 10
105.9635579162175
 20
-152.6497693845806
 10
106.0713894049058
 20
-152.6370225312852
 10
106.1792208935941
 20
-152.6160074488252
 10
106.1792208935941
 20
-152.6160074488252
 10
106.1792208935941
 20
-152.4382405217863
 10
106.1792208935941
 20
-152.4382405217863
 10
106.0352159023106
 20
-152.510243017428
 10
105.9401312669177
 20
-152.5398708386012
 10
105.7751111931743
 20
-152.5694986597743
 10
105.7751111931743
 20
-152.5694986597743
 10
105.6545328511905
 20
-152.3999999619
 10
105.6545328511905
 20
-152.3999999619
 10
105.9718261453821
 20
-152.3727837075665
 10
106.1644069830075
 20
-152.2794216199163
 10
106.3421739100464
 20
-152.1464409341856
 10
106.1961018614718
 20
-152.1464409341856
 10
105.895689535158
 20
-152.1505750487679
 10
105.6989745829503
 20
-152.1567762206414
 10
105.6989745829503
 20
-152.1567762206414
 10
105.6989745829503
 20
-151.9790092936025
 10
105.6989745829503
 20
-151.9790092936025
 10
105.8533148606895
 20
-151.9855549750245
 10
106.1495930724209
 20
-151.9917561468979
 10
106.3335611713333
 20
-151.9917561468979
 10
106.3335611713333
 20
-151.9917561468979
 10
106.5450900341276
 20
-151.9917561468979
 10
106.5450900341276
 20
-151.9917561468979
 10
106.5450900341276
 20
-151.896671511505
 10
106.5430229768365
 20
-151.8460286078718
 10
106.536821804963
 20
-151.7991753092724
 10
106.536821804963
 20
-151.7991753092724
 10
106.7524847823397
 20
-151.8164007866987
 10
106.7524847823397
 20
-151.8164007866987
 10
106.8010606286817
 20
-151.820534901281
 10
106.8096733673948
 20
-151.8353488118676
 10
106.8096733673948
 20
-151.8501627224541
 10
106.8096733673948
 20
-151.875656429045
 10
106.7927923995171
 20
-151.8839246582096
 10
106.7418049863354
 20
-151.9094183648004
 10
106.7397379290442
 20
-151.9349120713913
 10
106.7397379290442
 20
-151.9411132432647
 10
106.7376708717531
 20
-151.9917561468979
 10
106.7376708717531
 20
-151.9917561468979
 10
106.9681477597163
 20
-151.9917561468979
 10
106.9681477597163
 20
-151.9917561468979
 10
107.1331678334598
 20
-151.9917561468979
 10
107.425311930609
 20
-151.9855549750245
 10
107.605145914939
 20
-151.9790092936025
 10
107.605145914939
 20
-151.9790092936025
 10
107.605145914939
 20
-152.1567762206414
 10
107.605145914939
 20
-152.1567762206414
 10
107.4759548342421
 20
-152.1526421060591
 10
107.4528726944909
 20
-152.1526421060591
 10
107.1755425079283
 20
-152.1485079914768
 97
        0
 97
        0
 92
        1
 93
        1
 72
     4
 94
        3
 73
     0
 74
     1
 95
       23
 96
       19
 40
0.0
 40
0.0
 40
0.0
 40
0.0
 40
1.0
 40
1.0
 40
1.0
 40
2.0
 40
2.0
 40
2.0
 40
3.0
 40
3.0
 40
3.0
 40
4.0
 40
4.0
 40
4.0
 40
5.0
 40
5.0
 40
5.0
 40
6.0
 40
6.0
 40
6.0
 40
6.0
 10
105.8915554205757
 20
-151.7971082519813
 10
105.874674452698
 20
-151.8374158691587
 10
105.868128771276
 20
-151.8542968370364
 10
105.847113688816
 20
-151.8542968370364
 10
105.8322997782294
 20
-151.8542968370364
 10
105.8216199822252
 20
-151.8374158691587
 10
105.8154188103517
 20
-151.8246690158633
 10
105.8154188103517
 20
-151.8246690158633
 10
105.715855550828
 20
-151.6596489421198
 10
105.715855550828
 20
-151.6596489421198
 10
105.8174858676429
 20
-151.6279540636555
 10
105.9676920307998
 20
-151.5728325358915
 10
106.1664740402987
 20
-151.4102240289877
 10
106.1664740402987
 20
-151.4102240289877
 10
106.2236626253538
 20
-151.5835123318958
 10
106.2236626253538
 20
-151.5835123318958
 10
106.1306450472521
 20
-151.6661946235418
 10
106.0417615837326
 20
-151.7230386990484
 10
105.8915554205757
 20
-151.7971082519813
 97
        0
 97
        0
 92
        1
 93
        1
 72
     4
 94
        3
 73
     0
 74
     1
 95
       17
 96
       13
 40
0.0
 40
0.0
 40
0.0
 40
0.0
 40
1.0
 40
1.0
 40
1.0
 40
2.0
 40
2.0
 40
2.0
 40
3.0
 40
3.0
 40
3.0
 40
4.0
 40
4.0
 40
4.0
 40
4.0
 10
106.0438286410238
 20
-151.331675851924
 10
106.0142008198506
 20
-151.2917127442951
 10
105.9463324387912
 20
-151.1942165420626
 10
105.76443139717
 20
-151.0843179960831
 10
105.76443139717
 20
-151.0843179960831
 10
105.8915554205757
 20
-150.9509928008039
 10
105.8915554205757
 20
-150.9509928008039
 10
106.0775905767792
 20
-151.0526231176188
 10
106.1347791618344
 20
-151.1415065811382
 10
106.1623399257164
 20
-151.1838812556068
 10
106.1623399257164
 20
-151.1838812556068
 10
106.0438286410238
 20
-151.331675851924
 10
106.0438286410238
 20
-151.331675851924
 97
        0
 97
        0
 92
        1
 93
        1
 72
     4
 94
        3
 73
     0
 74
     1
 95
       38
 96
       34
 40
0.0
 40
0.0
 40
0.0
 40
0.0
 40
1.0
 40
1.0
 40
1.0
 40
2.0
 40
2.0
 40
2.0
 40
3.0
 40
3.0
 40
3.0
 40
4.0
 40
4.0
 40
4.0
 40
5.0
 40
5.0
 40
5.0
 40
6.0
 40
6.0
 40
6.0
 40
7.0
 40
7.0
 40
7.0
 40
8.0
 40
8.0
 40
8.0
 40
9.0
 40
9.0
 40
9.0
 40
10.0
 40
10.0
 40
10.0
 40
11.0
 40
11.0
 40
11.0
 40
11.0
 10
106.4117648388485
 20
-151.0271294110279
 10
106.4096977815573
 20
-151.0736382000788
 10
106.4076307242662
 20
-151.1900824274803
 10
106.4076307242662
 20
-151.23452415924
 10
106.4076307242662
 20
-151.23452415924
 10
106.4076307242662
 20
-151.5814452746046
 10
106.4076307242662
 20
-151.5814452746046
 10
106.4076307242662
 20
-151.668261680833
 10
106.4096977815573
 20
-151.8098551052767
 10
106.4203775775616
 20
-151.9304334472604
 10
106.4203775775616
 20
-151.9304334472604
 10
106.2298637972273
 20
-151.9304334472604
 10
106.2298637972273
 20
-151.9304334472604
 10
106.2343424213581
 20
-151.8670436903319
 10
106.2384765359404
 20
-151.813989219859
 10
106.2405435932315
 20
-151.7592122016435
 10
106.2426106505227
 20
-151.6365668023686
 10
106.2446777078138
 20
-151.6217528917821
 10
106.2446777078138
 20
-151.5773111600223
 10
106.2446777078138
 20
-151.5773111600223
 10
106.2446777078138
 20
-151.2555392417
 10
106.2446777078138
 20
-151.2555392417
 10
106.2446777078138
 20
-151.2007622234845
 10
106.2319308545184
 20
-150.9616725968082
 10
106.2298637972273
 20
-150.9106851836265
 10
106.2298637972273
 20
-150.9106851836265
 10
106.4310573735658
 20
-150.9382459475085
 10
106.4310573735658
 20
-150.9382459475085
 10
106.4520724560259
 20
-150.9403130047997
 10
106.4837673344902
 20
-150.9447916289305
 10
106.4837673344902
 20
-150.9699408259728
 10
106.4837673344902
 20
-150.9975015898548
 10
106.433124430857
 20
-151.0188611818633
 10
106.4117648388485
 20
-151.0271294110279
 97
        0
 97
        0
 92
        1
 93
        1
 72
     4
 94
        3
 73
     0
 74
     1
 95
       83
 96
       79
 40
0.0
 40
0.0
 40
0.0
 40
0.0
 40
1.0
 40
1.0
 40
1.0
 40
2.0
 40
2.0
 40
2.0
 40
3.0
 40
3.0
 40
3.0
 40
4.0
 40
4.0
 40
4.0
 40
5.0
 40
5.0
 40
5.0
 40
6.0
 40
6.0
 40
6.0
 40
7.0
 40
7.0
 40
7.0
 40
8.0
 40
8.0
 40
8.0
 40
9.0
 40
9.0
 40
9.0
 40
10.0
 40
10.0
 40
10.0
 40
11.0
 40
11.0
 40
11.0
 40
12.0
 40
12.0
 40
12.0
 40
13.0
 40
13.0
 40
13.0
 40
14.0
 40
14.0
 40
14.0
 40
15.0
 40
15.0
 40
15.0
 40
16.0
 40
16.0
 40
16.0
 40
17.0
 40
17.0
 40
17.0
 40
18.0
 40
18.0
 40
18.0
 40
19.0
 40
19.0
 40
19.0
 40
20.0
 40
20.0
 40
20.0
 40
21.0
 40
21.0
 40
21.0
 40
22.0
 40
22.0
 40
22.0
 40
23.0
 40
23.0
 40
23.0
 40
24.0
 40
24.0
 40
24.0
 40
25.0
 40
25.0
 40
25.0
 40
26.0
 40
26.0
 40
26.0
 40
26.0
 10
107.2137830678146
 20
-151.3489013293503
 10
107.2137830678146
 20
-151.3489013293503
 10
107.116286865582
 20
-151.3489013293503
 10
107.116286865582
 20
-151.3489013293503
 10
107.116286865582
 20
-151.3489013293503
 10
107.116286865582
 20
-151.5962591851912
 10
107.116286865582
 20
-151.5962591851912
 10
107.116286865582
 20
-151.5962591851912
 10
107.198969157228
 20
-151.5962591851912
 10
107.198969157228
 20
-151.5962591851912
 10
107.2644259714478
 20
-151.5962591851912
 10
107.4039523386004
 20
-151.5921250706089
 10
107.5035155981241
 20
-151.5835123318958
 10
107.5035155981241
 20
-151.5835123318958
 10
107.5035155981241
 20
-151.7633463162258
 10
107.5035155981241
 20
-151.7633463162258
 10
107.4104980200224
 20
-151.7550780870612
 10
107.2602918568655
 20
-151.7505994629304
 10
107.198969157228
 20
-151.7505994629304
 10
107.198969157228
 20
-151.7505994629304
 10
106.8940782067834
 20
-151.7505994629304
 10
106.8940782067834
 20
-151.7505994629304
 10
106.8413682458591
 20
-151.7505994629304
 10
106.6952961972845
 20
-151.7550780870612
 10
106.5895317658873
 20
-151.7633463162258
 10
106.5895317658873
 20
-151.7633463162258
 10
106.5895317658873
 20
-151.5835123318958
 10
106.5895317658873
 20
-151.5835123318958
 10
106.6890950254111
 20
-151.5921250706089
 10
106.8286213925637
 20
-151.5962591851912
 10
106.8940782067834
 20
-151.5962591851912
 10
106.8940782067834
 20
-151.5962591851912
 10
106.9385199385432
 20
-151.5962591851912
 10
106.9385199385432
 20
-151.5962591851912
 10
106.9385199385432
 20
-151.5962591851912
 10
106.9385199385432
 20
-151.3489013293503
 10
106.9385199385432
 20
-151.3489013293503
 10
106.9385199385432
 20
-151.3489013293503
 10
106.8647948951588
 20
-151.3489013293503
 10
106.8647948951588
 20
-151.3489013293503
 10
106.8031276859728
 20
-151.3489013293503
 10
106.6360405549382
 20
-151.3530354439326
 10
106.5154622129545
 20
-151.3613036730972
 10
106.5154622129545
 20
-151.3613036730972
 10
106.5154622129545
 20
-151.1838812556068
 10
106.5154622129545
 20
-151.1838812556068
 10
106.6298393830648
 20
-151.1900824274803
 10
106.7883137753863
 20
-151.1942165420626
 10
106.8647948951588
 20
-151.1942165420626
 10
106.8647948951588
 20
-151.1942165420626
 10
106.936452881252
 20
-151.1942165420626
 10
106.936452881252
 20
-151.1942165420626
 10
106.9323187666697
 20
-151.0419433216145
 10
106.9302517093786
 20
-151.0081813858591
 10
106.9237060279566
 20
-150.9151638077573
 10
106.9237060279566
 20
-150.9151638077573
 10
107.1355794002994
 20
-150.9382459475085
 10
107.1355794002994
 20
-150.9382459475085
 10
107.1607285973418
 20
-150.9403130047997
 10
107.1841552466415
 20
-150.9447916289305
 10
107.1841552466415
 20
-150.9678737686816
 10
107.1841552466415
 20
-150.9995686471459
 10
107.1397135148817
 20
-151.0164496150237
 10
107.116286865582
 20
-151.0250623537368
 10
107.116286865582
 20
-151.0250623537368
 10
107.116286865582
 20
-151.1942165420626
 10
107.116286865582
 20
-151.1942165420626
 10
107.116286865582
 20
-151.1942165420626
 10
107.2137830678146
 20
-151.1942165420626
 10
107.2137830678146
 20
-151.1942165420626
 10
107.2899196780386
 20
-151.1942165420626
 10
107.4483940703601
 20
-151.1900824274803
 10
107.5648382977616
 20
-151.1838812556068
 10
107.5648382977616
 20
-151.1838812556068
 10
107.5648382977616
 20
-151.3613036730972
 10
107.5648382977616
 20
-151.3613036730972
 10
107.4570068090732
 20
-151.3551025012237
 10
107.2833739966167
 20
-151.3489013293503
 10
107.2137830678146
 20
-151.3489013293503
 97
        0
 97
        0
 92
        1
 93
        1
 72
     4
 94
        3
 73
     0
 74
     1
 95
       17
 96
       13
 40
0.0
 40
0.0
 40
0.0
 40
0.0
 40
1.0
 40
1.0
 40
1.0
 40
2.0
 40
2.0
 40
2.0
 40
3.0
 40
3.0
 40
3.0
 40
4.0
 40
4.0
 40
4.0
 40
4.0
 10
106.9681477597163
 20
-152.1464409341856
 10
106.9681477597163
 20
-152.1464409341856
 10
106.7652316356351
 20
-152.1464409341856
 10
106.7652316356351
 20
-152.1464409341856
 10
106.7927923995171
 20
-152.2056965765319
 10
106.8475694177326
 20
-152.2773545626251
 10
106.8751301816146
 20
-152.3069823837983
 10
106.9026909454966
 20
-152.2921684732117
 10
107.0170681156068
 20
-152.2287787162831
 10
107.1080186364174
 20
-152.1464409341856
 10
107.1080186364174
 20
-152.1464409341856
 10
106.9681477597163
 20
-152.1464409341856
 10
106.9681477597163
 20
-152.1464409341856
 97
        0
 97
        0
 75
     2
 76
     1
 98
        0
  0
SPLINE
  5
A3
330
90
100
AcDbEntity
  8
_U+30EC_U+30A4_U+30E4_U+30FC 1
370
     0
100
AcDbSpline
210
0.0
220
0.0
230
1.0
 70
    11
 71
     3
 72
    77
 73
    73
 74
     0
 42
0.0000000001
 43
0.0000000001
 12
1.0
 22
0.0
 32
0.0
 13
1.0
 23
0.0
 33
0.0
 40
0.0
 40
0.0
 40
0.0
 40
0.0
 40
1.0
 40
1.0
 40
1.0
 40
2.0
 40
2.0
 40
2.0
 40
3.0
 40
3.0
 40
3.0
 40
4.0
 40
4.0
 40
4.0
 40
5.0
 40
5.0
 40
5.0
 40
6.0
 40
6.0
 40
6.0
 40
7.0
 40
7.0
 40
7.0
 40
8.0
 40
8.0
 40
8.0
 40
9.0
 40
9.0
 40
9.0
 40
10.0
 40
10.0
 40
10.0
 40
11.0
 40
11.0
 40
11.0
 40
12.0
 40
12.0
 40
12.0
 40
13.0
 40
13.0
 40
13.0
 40
14.0
 40
14.0
 40
14.0
 40
15.0
 40
15.0
 40
15.0
 40
16.0
 40
16.0
 40
16.0
 40
17.0
 40
17.0
 40
17.0
 40
18.0
 40
18.0
 40
18.0
 40
19.0
 40
19.0
 40
19.0
 40
20.0
 40
20.0
 40
20.0
 40
21.0
 40
21.0
 40
21.0
 40
22.0
 40
22.0
 40
22.0
 40
23.0
 40
23.0
 40
23.0
 40
24.0
 40
24.0
 40
24.0
 40
24.0
 10
109.4592963051005
 20
-152.7765488984378
 30
0.0
 10
109.4127875160496
 20
-152.8020426050287
 30
0.0
 10
109.2880750594835
 20
-152.8147894583241
 30
0.0
 10
109.2095268824199
 20
-152.8147894583241
 30
0.0
 10
109.197124538673
 20
-152.8147894583241
 30
0.0
 10
109.1716308320821
 20
-152.8147894583241
 30
0.0
 10
109.1378688963267
 20
-152.8106553437418
 30
0.0
 10
109.1378688963267
 20
-152.8106553437418
 30
0.0
 10
109.0403726940941
 20
-152.5843125703609
 30
0.0
 10
109.0403726940941
 20
-152.5843125703609
 30
0.0
 10
109.0700005152672
 20
-152.5905137422343
 30
0.0
 10
109.1271891003224
 20
-152.5991264809475
 30
0.0
 10
109.2436333277238
 20
-152.5991264809475
 30
0.0
 10
109.321836995239
 20
-152.5991264809475
 30
0.0
 10
109.3239040525301
 20
-152.5567518064789
 30
0.0
 10
109.3239040525301
 20
-152.4995632214237
 30
0.0
 10
109.3239040525301
 20
-152.4995632214237
 30
0.0
 10
109.3239040525301
 20
-152.1505750487679
 30
0.0
 10
109.3239040525301
 20
-152.1505750487679
 30
0.0
 10
109.3239040525301
 20
-152.1505750487679
 30
0.0
 10
108.8646728243463
 20
-152.1505750487679
 30
0.0
 10
108.8646728243463
 20
-152.1505750487679
 30
0.0
 10
108.867084391186
 20
-152.2880343586294
 30
0.0
 10
108.8691514484772
 20
-152.4868163681283
 30
0.0
 10
108.8753526203506
 20
-152.6201415634075
 30
0.0
 10
108.8774196776418
 20
-152.6477023272895
 30
0.0
 10
108.8774196776418
 20
-152.6921440590492
 30
0.0
 10
108.8901665309372
 20
-152.7534667586866
 30
0.0
 10
108.8901665309372
 20
-152.7534667586866
 30
0.0
 10
108.6490098469697
 20
-152.7534667586866
 30
0.0
 10
108.6490098469697
 20
-152.7534667586866
 30
0.0
 10
108.6745035535605
 20
-152.6287543021206
 30
0.0
 10
108.6745035535605
 20
-152.2880343586294
 30
0.0
 10
108.6745035535605
 20
-152.1505750487679
 30
0.0
 10
108.6745035535605
 20
-152.1505750487679
 30
0.0
 10
108.2321532932545
 20
-152.1505750487679
 30
0.0
 10
108.2321532932545
 20
-152.1505750487679
 30
0.0
 10
108.2090711535033
 20
-152.35796979698
 30
0.0
 10
108.1436143392835
 20
-152.6263427352809
 30
0.0
 10
107.9465548775272
 20
-152.8106553437418
 30
0.0
 10
107.9465548775272
 20
-152.8106553437418
 30
0.0
 10
107.7584526640326
 20
-152.6880099444669
 30
0.0
 10
107.7584526640326
 20
-152.6880099444669
 30
0.0
 10
108.0123562012955
 20
-152.4678683429594
 30
0.0
 10
108.0440510797598
 20
-152.1357611381814
 30
0.0
 10
108.0440510797598
 20
-151.8036539334033
 30
0.0
 10
108.0440510797598
 20
-151.8036539334033
 30
0.0
 10
108.0440510797598
 20
-151.3678493545192
 30
0.0
 10
108.0440510797598
 20
-151.3678493545192
 30
0.0
 10
108.0440510797598
 20
-151.331675851924
 30
0.0
 10
108.0419840224687
 20
-151.0991319066697
 30
0.0
 10
108.0333712837556
 20
-150.9975015898548
 30
0.0
 10
108.1732421604567
 20
-151.0081813858591
 30
0.0
 10
108.4143988444242
 20
-151.0081813858591
 30
0.0
 10
108.5580593261591
 20
-151.0081813858591
 30
0.0
 10
108.5580593261591
 20
-151.0081813858591
 30
0.0
 10
109.0172905543429
 20
-151.0081813858591
 30
0.0
 10
109.0172905543429
 20
-151.0081813858591
 30
0.0
 10
109.0321044649295
 20
-151.0081813858591
 30
0.0
 10
109.3810926375853
 20
-151.0081813858591
 30
0.0
 10
109.5395670299068
 20
-150.9975015898548
 30
0.0
 10
109.5374999726156
 20
-151.0505560603276
 30
0.0
 10
109.5312988007422
 20
-151.2110975099403
 30
0.0
 10
109.5312988007422
 20
-151.262084923122
 30
0.0
 10
109.5312988007422
 20
-151.262084923122
 30
0.0
 10
109.5312988007422
 20
-151.869110747623
 30
0.0
 10
109.5312988007422
 20
-151.869110747623
 30
0.0
 10
109.5312988007422
 20
-151.8880587727919
 30
0.0
 10
109.5416340871979
 20
-152.4592556042463
 30
0.0
 10
109.5416340871979
 20
-152.5715657170655
 30
0.0
 10
109.5416340871979
 20
-152.6287543021206
 30
0.0
 10
109.5416340871979
 20
-152.7300401093869
 30
0.0
 10
109.4592963051005
 20
-152.7765488984378
 30
0.0
  0
POLYLINE
  5
A4
330
90
100
AcDbEntity
  8
_U+30EC_U+30A4_U+30E4_U+30FC 1
370
     0
100
AcDb2dPolyline
 66
     1
 10
0.0
 20
0.0
 30
0.0
  0
VERTEX
  5
A5
330
A4
100
AcDbEntity
  8
_U+30EC_U+30A4_U+30E4_U+30FC 1
370
     0
100
AcDbVertex
100
AcDb2dVertex
 10
108.6745035535605
 20
-151.1900824274803
 30
0.0
  0
VERTEX
  5
A6
330
A4
100
AcDbEntity
  8
_U+30EC_U+30A4_U+30E4_U+30FC 1
370
     0
100
AcDbVertex
100
AcDb2dVertex
 10
108.2366319173853
 20
-151.1900824274803
 30
0.0
  0
VERTEX
  5
A7
330
A4
100
AcDbEntity
  8
_U+30EC_U+30A4_U+30E4_U+30FC 1
370
     0
100
AcDbVertex
100
AcDb2dVertex
 10
108.2366319173853
 20
-151.4946288683763
 30
0.0
  0
VERTEX
  5
A8
330
A4
100
AcDbEntity
  8
_U+30EC_U+30A4_U+30E4_U+30FC 1
370
     0
100
AcDbVertex
100
AcDb2dVertex
 10
108.6745035535605
 20
-151.4946288683763
 30
0.0
  0
VERTEX
  5
A9
330
A4
100
AcDbEntity
  8
_U+30EC_U+30A4_U+30E4_U+30FC 1
370
     0
100
AcDbVertex
100
AcDb2dVertex
 10
108.6745035535605
 20
-151.1900824274803
 30
0.0
  0
SEQEND
  5
AA
330
A4
100
AcDbEntity
  8
_U+30EC_U+30A4_U+30E4_U+30FC 1
370
     0
  0
POLYLINE
  5
AB
330
90
100
AcDbEntity
  8
_U+30EC_U+30A4_U+30E4_U+30FC 1
370
     0
100
AcDb2dPolyline
 66
     1
 10
0.0
 20
0.0
 30
0.0
  0
VERTEX
  5
AC
330
AB
100
AcDbEntity
  8
_U+30EC_U+30A4_U+30E4_U+30FC 1
370
     0
100
AcDbVertex
100
AcDb2dVertex
 10
108.6745035535605
 20
-151.661715999411
 30
0.0
  0
VERTEX
  5
AD
330
AB
100
AcDbEntity
  8
_U+30EC_U+30A4_U+30E4_U+30FC 1
370
     0
100
AcDbVertex
100
AcDb2dVertex
 10
108.2366319173853
 20
-151.661715999411
 30
0.0
  0
VERTEX
  5
AE
330
AB
100
AcDbEntity
  8
_U+30EC_U+30A4_U+30E4_U+30FC 1
370
     0
100
AcDbVertex
100
AcDb2dVertex
 10
108.2366319173853
 20
-151.9707410644379
 30
0.0
  0
VERTEX
  5
AF
330
AB
100
AcDbEntity
  8
_U+30EC_U+30A4_U+30E4_U+30FC 1
370
     0
100
AcDbVertex
100
AcDb2dVertex
 10
108.6745035535605
 20
-151.9707410644379
 30
0.0
  0
VERTEX
  5
B0
330
AB
100
AcDbEntity
  8
_U+30EC_U+30A4_U+30E4_U+30FC 1
370
     0
100
AcDbVertex
100
AcDb2dVertex
 10
108.6745035535605
 20
-151.661715999411
 30
0.0
  0
SEQEND
  5
B1
330
AB
100
AcDbEntity
  8
_U+30EC_U+30A4_U+30E4_U+30FC 1
370
     0
  0
POLYLINE
  5
B2
330
90
100
AcDbEntity
  8
_U+30EC_U+30A4_U+30E4_U+30FC 1
370
     0
100
AcDb2dPolyline
 66
     1
 10
0.0
 20
0.0
 30
0.0
  0
VERTEX
  5
B3
330
B2
100
AcDbEntity
  8
_U+30EC_U+30A4_U+30E4_U+30FC 1
370
     0
100
AcDbVertex
100
AcDb2dVertex
 10
109.3239040525301
 20
-151.1900824274803
 30
0.0
  0
VERTEX
  5
B4
330
B2
100
AcDbEntity
  8
_U+30EC_U+30A4_U+30E4_U+30FC 1
370
     0
100
AcDbVertex
100
AcDb2dVertex
 10
108.8646728243463
 20
-151.1900824274803
 30
0.0
  0
VERTEX
  5
B5
330
B2
100
AcDbEntity
  8
_U+30EC_U+30A4_U+30E4_U+30FC 1
370
     0
100
AcDbVertex
100
AcDb2dVertex
 10
108.8646728243463
 20
-151.4946288683763
 30
0.0
  0
VERTEX
  5
B6
330
B2
100
AcDbEntity
  8
_U+30EC_U+30A4_U+30E4_U+30FC 1
370
     0
100
AcDbVertex
100
AcDb2dVertex
 10
109.3239040525301
 20
-151.4946288683763
 30
0.0
  0
VERTEX
  5
B7
330
B2
100
AcDbEntity
  8
_U+30EC_U+30A4_U+30E4_U+30FC 1
370
     0
100
AcDbVertex
100
AcDb2dVertex
 10
109.3239040525301
 20
-151.1900824274803
 30
0.0
  0
SEQEND
  5
B8
330
B2
100
AcDbEntity
  8
_U+30EC_U+30A4_U+30E4_U+30FC 1
370
     0
  0
POLYLINE
  5
B9
330
90
100
AcDbEntity
  8
_U+30EC_U+30A4_U+30E4_U+30FC 1
370
     0
100
AcDb2dPolyline
 66
     1
 10
0.0
 20
0.0
 30
0.0
  0
VERTEX
  5
BA
330
B9
100
AcDbEntity
  8
_U+30EC_U+30A4_U+30E4_U+30FC 1
370
     0
100
AcDbVertex
100
AcDb2dVertex
 10
109.3239040525301
 20
-151.661715999411
 30
0.0
  0
VERTEX
  5
BB
330
B9
100
AcDbEntity
  8
_U+30EC_U+30A4_U+30E4_U+30FC 1
370
     0
100
AcDbVertex
100
AcDb2dVertex
 10
108.8646728243463
 20
-151.661715999411
 30
0.0
  0
VERTEX
  5
BC
330
B9
100
AcDbEntity
  8
_U+30EC_U+30A4_U+30E4_U+30FC 1
370
     0
100
AcDbVertex
100
AcDb2dVertex
 10
108.8646728243463
 20
-151.9707410644379
 30
0.0
  0
VERTEX
  5
BD
330
B9
100
AcDbEntity
  8
_U+30EC_U+30A4_U+30E4_U+30FC 1
370
     0
100
AcDbVertex
100
AcDb2dVertex
 10
109.3239040525301
 20
-151.9707410644379
 30
0.0
  0
VERTEX
  5
BE
330
B9
100
AcDbEntity
  8
_U+30EC_U+30A4_U+30E4_U+30FC 1
370
     0
100
AcDbVertex
100
AcDb2dVertex
 10
109.3239040525301
 20
-151.661715999411
 30
0.0
  0
SEQEND
  5
BF
330
B9
100
AcDbEntity
  8
_U+30EC_U+30A4_U+30E4_U+30FC 1
370
     0
  0
HATCH
  5
C0
330
90
100
AcDbEntity
  8
_U+30EC_U+30A4_U+30E4_U+30FC 1
 62
   179
420
  2234388
100
AcDbHatch
 10
0.0
 20
0.0
 30
0.0
210
0.0
220
0.0
230
1.0
  2
SOLID
 70
     1
 71
     0
 91
        5
 92
        1
 93
        1
 72
     4
 94
        3
 73
     0
 74
     1
 95
       77
 96
       73
 40
0.0
 40
0.0
 40
0.0
 40
0.0
 40
1.0
 40
1.0
 40
1.0
 40
2.0
 40
2.0
 40
2.0
 40
3.0
 40
3.0
 40
3.0
 40
4.0
 40
4.0
 40
4.0
 40
5.0
 40
5.0
 40
5.0
 40
6.0
 40
6.0
 40
6.0
 40
7.0
 40
7.0
 40
7.0
 40
8.0
 40
8.0
 40
8.0
 40
9.0
 40
9.0
 40
9.0
 40
10.0
 40
10.0
 40
10.0
 40
11.0
 40
11.0
 40
11.0
 40
12.0
 40
12.0
 40
12.0
 40
13.0
 40
13.0
 40
13.0
 40
14.0
 40
14.0
 40
14.0
 40
15.0
 40
15.0
 40
15.0
 40
16.0
 40
16.0
 40
16.0
 40
17.0
 40
17.0
 40
17.0
 40
18.0
 40
18.0
 40
18.0
 40
19.0
 40
19.0
 40
19.0
 40
20.0
 40
20.0
 40
20.0
 40
21.0
 40
21.0
 40
21.0
 40
22.0
 40
22.0
 40
22.0
 40
23.0
 40
23.0
 40
23.0
 40
24.0
 40
24.0
 40
24.0
 40
24.0
 10
109.4592963051005
 20
-152.7765488984378
 10
109.4127875160496
 20
-152.8020426050287
 10
109.2880750594835
 20
-152.8147894583241
 10
109.2095268824199
 20
-152.8147894583241
 10
109.197124538673
 20
-152.8147894583241
 10
109.1716308320821
 20
-152.8147894583241
 10
109.1378688963267
 20
-152.8106553437418
 10
109.1378688963267
 20
-152.8106553437418
 10
109.0403726940941
 20
-152.5843125703609
 10
109.0403726940941
 20
-152.5843125703609
 10
109.0700005152672
 20
-152.5905137422343
 10
109.1271891003224
 20
-152.5991264809475
 10
109.2436333277238
 20
-152.5991264809475
 10
109.321836995239
 20
-152.5991264809475
 10
109.3239040525301
 20
-152.5567518064789
 10
109.3239040525301
 20
-152.4995632214237
 10
109.3239040525301
 20
-152.4995632214237
 10
109.3239040525301
 20
-152.1505750487679
 10
109.3239040525301
 20
-152.1505750487679
 10
109.3239040525301
 20
-152.1505750487679
 10
108.8646728243463
 20
-152.1505750487679
 10
108.8646728243463
 20
-152.1505750487679
 10
108.867084391186
 20
-152.2880343586294
 10
108.8691514484772
 20
-152.4868163681283
 10
108.8753526203506
 20
-152.6201415634075
 10
108.8774196776418
 20
-152.6477023272895
 10
108.8774196776418
 20
-152.6921440590492
 10
108.8901665309372
 20
-152.7534667586866
 10
108.8901665309372
 20
-152.7534667586866
 10
108.6490098469697
 20
-152.7534667586866
 10
108.6490098469697
 20
-152.7534667586866
 10
108.6745035535605
 20
-152.6287543021206
 10
108.6745035535605
 20
-152.2880343586294
 10
108.6745035535605
 20
-152.1505750487679
 10
108.6745035535605
 20
-152.1505750487679
 10
108.2321532932545
 20
-152.1505750487679
 10
108.2321532932545
 20
-152.1505750487679
 10
108.2090711535033
 20
-152.35796979698
 10
108.1436143392835
 20
-152.6263427352809
 10
107.9465548775272
 20
-152.8106553437418
 10
107.9465548775272
 20
-152.8106553437418
 10
107.7584526640326
 20
-152.6880099444669
 10
107.7584526640326
 20
-152.6880099444669
 10
108.0123562012955
 20
-152.4678683429594
 10
108.0440510797598
 20
-152.1357611381814
 10
108.0440510797598
 20
-151.8036539334033
 10
108.0440510797598
 20
-151.8036539334033
 10
108.0440510797598
 20
-151.3678493545192
 10
108.0440510797598
 20
-151.3678493545192
 10
108.0440510797598
 20
-151.331675851924
 10
108.0419840224687
 20
-151.0991319066697
 10
108.0333712837556
 20
-150.9975015898548
 10
108.1732421604567
 20
-151.0081813858591
 10
108.4143988444242
 20
-151.0081813858591
 10
108.5580593261591
 20
-151.0081813858591
 10
108.5580593261591
 20
-151.0081813858591
 10
109.0172905543429
 20
-151.0081813858591
 10
109.0172905543429
 20
-151.0081813858591
 10
109.0321044649295
 20
-151.0081813858591
 10
109.3810926375853
 20
-151.0081813858591
 10
109.5395670299068
 20
-150.9975015898548
 10
109.5374999726156
 20
-151.0505560603276
 10
109.5312988007422
 20
-151.2110975099403
 10
109.5312988007422
 20
-151.262084923122
 10
109.5312988007422
 20
-151.262084923122
 10
109.5312988007422
 20
-151.869110747623
 10
109.5312988007422
 20
-151.869110747623
 10
109.5312988007422
 20
-151.8880587727919
 10
109.5416340871979
 20
-152.4592556042463
 10
109.5416340871979
 20
-152.5715657170655
 10
109.5416340871979
 20
-152.6287543021206
 10
109.5416340871979
 20
-152.7300401093869
 10
109.4592963051005
 20
-152.7765488984378
 97
        0
 97
        0
 92
        1
 93
        4
 72
     1
 10
108.6745035535605
 20
-151.1900824274803
 11
108.2366319173853
 21
-151.1900824274803
 72
     1
 10
108.2366319173853
 20
-151.1900824274803
 11
108.2366319173853
 21
-151.4946288683763
 72
     1
 10
108.2366319173853
 20
-151.4946288683763
 11
108.6745035535605
 21
-151.4946288683763
 72
     1
 10
108.6745035535605
 20
-151.4946288683763
 11
108.6745035535605
 21
-151.1900824274803
 97
        0
 92
        1
 93
        4
 72
     1
 10
108.6745035535605
 20
-151.661715999411
 11
108.2366319173853
 21
-151.661715999411
 72
     1
 10
108.2366319173853
 20
-151.661715999411
 11
108.2366319173853
 21
-151.9707410644379
 72
     1
 10
108.2366319173853
 20
-151.9707410644379
 11
108.6745035535605
 21
-151.9707410644379
 72
     1
 10
108.6745035535605
 20
-151.9707410644379
 11
108.6745035535605
 21
-151.661715999411
 97
        0
 92
        1
 93
        4
 72
     1
 10
109.3239040525301
 20
-151.1900824274803
 11
108.8646728243463
 21
-151.1900824274803
 72
     1
 10
108.8646728243463
 20
-151.1900824274803
 11
108.8646728243463
 21
-151.4946288683763
 72
     1
 10
108.8646728243463
 20
-151.4946288683763
 11
109.3239040525301
 21
-151.4946288683763
 72
     1
 10
109.3239040525301
 20
-151.4946288683763
 11
109.3239040525301
 21
-151.1900824274803
 97
        0
 92
        1
 93
        4
 72
     1
 10
109.3239040525301
 20
-151.661715999411
 11
108.8646728243463
 21
-151.661715999411
 72
     1
 10
108.8646728243463
 20
-151.661715999411
 11
108.8646728243463
 21
-151.9707410644379
 72
     1
 10
108.8646728243463
 20
-151.9707410644379
 11
109.3239040525301
 21
-151.9707410644379
 72
     1
 10
109.3239040525301
 20
-151.9707410644379
 11
109.3239040525301
 21
-151.661715999411
 97
        0
 75
     2
 76
     1
 98
        0
  0
SPLINE
  5
C1
330
90
100
AcDbEntity
  8
_U+30EC_U+30A4_U+30E4_U+30FC 1
370
     0
100
AcDbSpline
210
0.0
220
0.0
230
1.0
 70
    11
 71
     3
 72
    44
 73
    40
 74
     0
 42
0.0000000001
 43
0.0000000001
 12
1.0
 22
0.0
 32
0.0
 13
1.0
 23
0.0
 33
0.0
 40
0.0
 40
0.0
 40
0.0
 40
0.0
 40
1.0
 40
1.0
 40
1.0
 40
2.0
 40
2.0
 40
2.0
 40
3.0
 40
3.0
 40
3.0
 40
4.0
 40
4.0
 40
4.0
 40
5.0
 40
5.0
 40
5.0
 40
6.0
 40
6.0
 40
6.0
 40
7.0
 40
7.0
 40
7.0
 40
8.0
 40
8.0
 40
8.0
 40
9.0
 40
9.0
 40
9.0
 40
10.0
 40
10.0
 40
10.0
 40
11.0
 40
11.0
 40
11.0
 40
12.0
 40
12.0
 40
12.0
 40
13.0
 40
13.0
 40
13.0
 40
13.0
 10
111.3368733445616
 20
-151.5263237468407
 30
0.0
 10
111.224907741291
 20
-151.8946044542139
 30
0.0
 10
111.1742648376578
 20
-152.0530788465354
 30
0.0
 10
110.9775498854501
 20
-152.302848269216
 30
0.0
 10
110.7932372769892
 20
-152.5333251571792
 30
0.0
 10
110.5565592171525
 20
-152.7197048229312
 30
0.0
 10
110.2771619732988
 20
-152.8127224010329
 30
0.0
 10
110.2771619732988
 20
-152.8127224010329
 30
0.0
 10
110.0845811356733
 20
-152.6328884167029
 30
0.0
 10
110.0845811356733
 20
-152.6328884167029
 30
0.0
 10
110.7257134054783
 20
-152.4806151962549
 30
0.0
 10
111.0557535529652
 20
-151.924232275387
 30
0.0
 10
111.1191433098938
 20
-151.4842935819206
 30
0.0
 10
111.1191433098938
 20
-151.4842935819206
 30
0.0
 10
110.3532985835228
 20
-151.4842935819206
 30
0.0
 10
110.3532985835228
 20
-151.4842935819206
 30
0.0
 10
110.260281005421
 20
-151.4842935819206
 30
0.0
 10
110.0763129065087
 20
-151.4884276965029
 30
0.0
 10
109.9195610619298
 20
-151.5073757216718
 30
0.0
 10
109.9195610619298
 20
-151.5073757216718
 30
0.0
 10
109.9195610619298
 20
-151.2872341201643
 30
0.0
 10
109.9195610619298
 20
-151.2872341201643
 30
0.0
 10
110.0063774681581
 20
-151.3085937121729
 30
0.0
 10
110.2582139481299
 20
-151.3085937121729
 30
0.0
 10
110.3574326981051
 20
-151.3085937121729
 30
0.0
 10
110.3574326981051
 20
-151.3085937121729
 30
0.0
 10
110.7891031624069
 20
-151.3085937121729
 30
0.0
 10
110.7891031624069
 20
-151.3085937121729
 30
0.0
 10
110.8314778368755
 20
-151.3085937121729
 30
0.0
 10
111.066088839421
 20
-151.3065266548817
 30
0.0
 10
111.1043293993073
 20
-151.2999809734597
 30
0.0
 10
111.1467040737758
 20
-151.2937798015863
 30
0.0
 10
111.148771131067
 20
-151.2917127442951
 30
0.0
 10
111.2100938307044
 20
-151.2514051271177
 30
0.0
 10
111.2100938307044
 20
-151.2514051271177
 30
0.0
 10
111.3985405537476
 20
-151.4057454048569
 30
0.0
 10
111.3985405537476
 20
-151.4057454048569
 30
0.0
 10
111.3689127325744
 20
-151.4353732260301
 30
0.0
 10
111.3540988219879
 20
-151.4670681044944
 30
0.0
 10
111.3368733445616
 20
-151.5263237468407
 30
0.0
  0
SPLINE
  5
C2
330
90
100
AcDbEntity
  8
_U+30EC_U+30A4_U+30E4_U+30FC 1
370
     0
100
AcDbSpline
210
0.0
220
0.0
230
1.0
 70
    11
 71
     3
 72
    17
 73
    13
 74
     0
 42
0.0000000001
 43
0.0000000001
 12
1.0
 22
0.0
 32
0.0
 13
1.0
 23
0.0
 33
0.0
 40
0.0
 40
0.0
 40
0.0
 40
0.0
 40
1.0
 40
1.0
 40
1.0
 40
2.0
 40
2.0
 40
2.0
 40
3.0
 40
3.0
 40
3.0
 40
4.0
 40
4.0
 40
4.0
 40
4.0
 10
111.5463351500648
 20
-151.3275417373417
 30
0.0
 10
111.4195556362076
 20
-151.3275417373417
 30
0.0
 10
111.3179253193927
 20
-151.2259114205269
 30
0.0
 10
111.3179253193927
 20
-151.0991319066697
 30
0.0
 10
111.3179253193927
 20
-150.9723523928125
 30
0.0
 10
111.4195556362076
 20
-150.8686550187064
 30
0.0
 10
111.5463351500648
 20
-150.8686550187064
 30
0.0
 10
111.6734591734705
 20
-150.8686550187064
 30
0.0
 10
111.7771565475766
 20
-150.9723523928125
 30
0.0
 10
111.7771565475766
 20
-151.0991319066697
 30
0.0
 10
111.7771565475766
 20
-151.2259114205269
 30
0.0
 10
111.6734591734705
 20
-151.3275417373417
 30
0.0
 10
111.5463351500648
 20
-151.3275417373417
 30
0.0
  0
SPLINE
  5
C3
330
90
100
AcDbEntity
  8
_U+30EC_U+30A4_U+30E4_U+30FC 1
370
     0
100
AcDbSpline
210
0.0
220
0.0
230
1.0
 70
    11
 71
     3
 72
    17
 73
    13
 74
     0
 42
0.0000000001
 43
0.0000000001
 12
1.0
 22
0.0
 32
0.0
 13
1.0
 23
0.0
 33
0.0
 40
0.0
 40
0.0
 40
0.0
 40
0.0
 40
1.0
 40
1.0
 40
1.0
 40
2.0
 40
2.0
 40
2.0
 40
3.0
 40
3.0
 40
3.0
 40
4.0
 40
4.0
 40
4.0
 40
4.0
 10
111.5442680927737
 20
-150.9975015898548
 30
0.0
 10
111.4894910745582
 20
-150.9975015898548
 30
0.0
 10
111.4450493427985
 20
-151.0419433216145
 30
0.0
 10
111.4450493427985
 20
-151.0970648493785
 30
0.0
 10
111.4450493427985
 20
-151.1542534344337
 30
0.0
 10
111.4894910745582
 20
-151.2028292807757
 30
0.0
 10
111.548402207356
 20
-151.2028292807757
 30
0.0
 10
111.6076578497023
 20
-151.2028292807757
 30
0.0
 10
111.6479654668797
 20
-151.151841867594
 30
0.0
 10
111.6479654668797
 20
-151.0991319066697
 30
0.0
 10
111.6479654668797
 20
-151.0419433216145
 30
0.0
 10
111.6014566778288
 20
-150.9975015898548
 30
0.0
 10
111.5442680927737
 20
-150.9975015898548
 30
0.0
  0
HATCH
  5
C4
330
90
100
AcDbEntity
  8
_U+30EC_U+30A4_U+30E4_U+30FC 1
 62
   179
420
  2234388
100
AcDbHatch
 10
0.0
 20
0.0
 30
0.0
210
0.0
220
0.0
230
1.0
  2
SOLID
 70
     1
 71
     0
 91
        3
 92
        1
 93
        1
 72
     4
 94
        3
 73
     0
 74
     1
 95
       44
 96
       40
 40
0.0
 40
0.0
 40
0.0
 40
0.0
 40
1.0
 40
1.0
 40
1.0
 40
2.0
 40
2.0
 40
2.0
 40
3.0
 40
3.0
 40
3.0
 40
4.0
 40
4.0
 40
4.0
 40
5.0
 40
5.0
 40
5.0
 40
6.0
 40
6.0
 40
6.0
 40
7.0
 40
7.0
 40
7.0
 40
8.0
 40
8.0
 40
8.0
 40
9.0
 40
9.0
 40
9.0
 40
10.0
 40
10.0
 40
10.0
 40
11.0
 40
11.0
 40
11.0
 40
12.0
 40
12.0
 40
12.0
 40
13.0
 40
13.0
 40
13.0
 40
13.0
 10
111.3368733445616
 20
-151.5263237468407
 10
111.224907741291
 20
-151.8946044542139
 10
111.1742648376578
 20
-152.0530788465354
 10
110.9775498854501
 20
-152.302848269216
 10
110.7932372769892
 20
-152.5333251571792
 10
110.5565592171525
 20
-152.7197048229312
 10
110.2771619732988
 20
-152.8127224010329
 10
110.2771619732988
 20
-152.8127224010329
 10
110.0845811356733
 20
-152.6328884167029
 10
110.0845811356733
 20
-152.6328884167029
 10
110.7257134054783
 20
-152.4806151962549
 10
111.0557535529652
 20
-151.924232275387
 10
111.1191433098938
 20
-151.4842935819206
 10
111.1191433098938
 20
-151.4842935819206
 10
110.3532985835228
 20
-151.4842935819206
 10
110.3532985835228
 20
-151.4842935819206
 10
110.260281005421
 20
-151.4842935819206
 10
110.0763129065087
 20
-151.4884276965029
 10
109.9195610619298
 20
-151.5073757216718
 10
109.9195610619298
 20
-151.5073757216718
 10
109.9195610619298
 20
-151.2872341201643
 10
109.9195610619298
 20
-151.2872341201643
 10
110.0063774681581
 20
-151.3085937121729
 10
110.2582139481299
 20
-151.3085937121729
 10
110.3574326981051
 20
-151.3085937121729
 10
110.3574326981051
 20
-151.3085937121729
 10
110.7891031624069
 20
-151.3085937121729
 10
110.7891031624069
 20
-151.3085937121729
 10
110.8314778368755
 20
-151.3085937121729
 10
111.066088839421
 20
-151.3065266548817
 10
111.1043293993073
 20
-151.2999809734597
 10
111.1467040737758
 20
-151.2937798015863
 10
111.148771131067
 20
-151.2917127442951
 10
111.2100938307044
 20
-151.2514051271177
 10
111.2100938307044
 20
-151.2514051271177
 10
111.3985405537476
 20
-151.4057454048569
 10
111.3985405537476
 20
-151.4057454048569
 10
111.3689127325744
 20
-151.4353732260301
 10
111.3540988219879
 20
-151.4670681044944
 10
111.3368733445616
 20
-151.5263237468407
 97
        0
 97
        0
 92
        1
 93
        1
 72
     4
 94
        3
 73
     0
 74
     1
 95
       17
 96
       13
 40
0.0
 40
0.0
 40
0.0
 40
0.0
 40
1.0
 40
1.0
 40
1.0
 40
2.0
 40
2.0
 40
2.0
 40
3.0
 40
3.0
 40
3.0
 40
4.0
 40
4.0
 40
4.0
 40
4.0
 10
111.5463351500648
 20
-151.3275417373417
 10
111.4195556362076
 20
-151.3275417373417
 10
111.3179253193927
 20
-151.2259114205269
 10
111.3179253193927
 20
-151.0991319066697
 10
111.3179253193927
 20
-150.9723523928125
 10
111.4195556362076
 20
-150.8686550187064
 10
111.5463351500648
 20
-150.8686550187064
 10
111.6734591734705
 20
-150.8686550187064
 10
111.7771565475766
 20
-150.9723523928125
 10
111.7771565475766
 20
-151.0991319066697
 10
111.7771565475766
 20
-151.2259114205269
 10
111.6734591734705
 20
-151.3275417373417
 10
111.5463351500648
 20
-151.3275417373417
 97
        0
 97
        0
 92
        1
 93
        1
 72
     4
 94
        3
 73
     0
 74
     1
 95
       17
 96
       13
 40
0.0
 40
0.0
 40
0.0
 40
0.0
 40
1.0
 40
1.0
 40
1.0
 40
2.0
 40
2.0
 40
2.0
 40
3.0
 40
3.0
 40
3.0
 40
4.0
 40
4.0
 40
4.0
 40
4.0
 10
111.5442680927737
 20
-150.9975015898548
 10
111.4894910745582
 20
-150.9975015898548
 10
111.4450493427985
 20
-151.0419433216145
 10
111.4450493427985
 20
-151.0970648493785
 10
111.4450493427985
 20
-151.1542534344337
 10
111.4894910745582
 20
-151.2028292807757
 10
111.548402207356
 20
-151.2028292807757
 10
111.6076578497023
 20
-151.2028292807757
 10
111.6479654668797
 20
-151.151841867594
 10
111.6479654668797
 20
-151.0991319066697
 10
111.6479654668797
 20
-151.0419433216145
 10
111.6014566778288
 20
-150.9975015898548
 10
111.5442680927737
 20
-150.9975015898548
 97
        0
 97
        0
 75
     2
 76
     1
 98
        0
  0
SPLINE
  5
C5
330
90
100
AcDbEntity
  8
_U+30EC_U+30A4_U+30E4_U+30FC 1
370
     0
100
AcDbSpline
210
0.0
220
0.0
230
1.0
 70
    11
 71
     3
 72
    50
 73
    46
 74
     0
 42
0.0000000001
 43
0.0000000001
 12
1.0
 22
0.0
 32
0.0
 13
1.0
 23
0.0
 33
0.0
 40
0.0
 40
0.0
 40
0.0
 40
0.0
 40
1.0
 40
1.0
 40
1.0
 40
2.0
 40
2.0
 40
2.0
 40
3.0
 40
3.0
 40
3.0
 40
4.0
 40
4.0
 40
4.0
 40
5.0
 40
5.0
 40
5.0
 40
6.0
 40
6.0
 40
6.0
 40
7.0
 40
7.0
 40
7.0
 40
8.0
 40
8.0
 40
8.0
 40
9.0
 40
9.0
 40
9.0
 40
10.0
 40
10.0
 40
10.0
 40
11.0
 40
11.0
 40
11.0
 40
12.0
 40
12.0
 40
12.0
 40
13.0
 40
13.0
 40
13.0
 40
14.0
 40
14.0
 40
14.0
 40
15.0
 40
15.0
 40
15.0
 40
15.0
 10
113.3415744074285
 20
-151.8353488118676
 30
0.0
 10
113.2630262303648
 20
-152.0131157389065
 30
0.0
 10
113.1276339777945
 20
-152.22016597757
 30
0.0
 10
112.990174667933
 20
-152.3600368542711
 30
0.0
 10
112.8210204796073
 20
-152.531258099888
 30
0.0
 10
112.6580674631549
 20
-152.6201415634075
 30
0.0
 10
112.3387071116723
 20
-152.7617349878512
 30
0.0
 10
112.3387071116723
 20
-152.7617349878512
 30
0.0
 10
112.1695529233465
 20
-152.5736327743566
 30
0.0
 10
112.1695529233465
 20
-152.5736327743566
 30
0.0
 10
112.35558807955
 20
-152.5502061250569
 30
0.0
 10
112.5268093251669
 20
-152.4637342283771
 30
0.0
 10
112.6794270551635
 20
-152.35796979698
 30
0.0
 10
112.941598821591
 20
-152.1760687553588
 30
0.0
 10
113.1321126019253
 20
-151.8629095757496
 30
0.0
 10
113.1806884482673
 20
-151.6810085341284
 30
0.0
 10
113.1806884482673
 20
-151.6810085341284
 30
0.0
 10
112.5099283572892
 20
-151.6810085341284
 30
0.0
 10
112.5099283572892
 20
-151.6810085341284
 30
0.0
 10
112.3514539649677
 20
-151.6810085341284
 30
0.0
 10
112.0593098678185
 20
-151.689276763293
 30
0.0
 10
111.9070366473705
 20
-151.7061577311707
 30
0.0
 10
111.9070366473705
 20
-151.7061577311707
 30
0.0
 10
111.9070366473705
 20
-151.4777479004986
 30
0.0
 10
111.9070366473705
 20
-151.4777479004986
 30
0.0
 10
111.9411430926744
 20
-151.4842935819206
 30
0.0
 10
111.9662922897168
 20
-151.4904947537941
 30
0.0
 10
112.0193467601896
 20
-151.4946288683763
 30
0.0
 10
112.120632567456
 20
-151.5011745497983
 30
0.0
 10
112.3176920292123
 20
-151.5032416070895
 30
0.0
 10
112.4020968686009
 20
-151.5032416070895
 30
0.0
 10
112.4020968686009
 20
-151.5032416070895
 30
0.0
 10
112.9078368858356
 20
-151.5032416070895
 30
0.0
 10
112.9078368858356
 20
-151.5032416070895
 30
0.0
 10
112.9753607573464
 20
-151.5032416070895
 30
0.0
 10
113.121432805921
 20
-151.4991074925072
 30
0.0
 10
113.1827555055585
 20
-151.4925618110852
 30
0.0
 10
113.2547580012002
 20
-151.4842935819206
 30
0.0
 10
113.2823187650822
 20
-151.469479671334
 30
0.0
 10
113.3160807008376
 20
-151.4460530220343
 30
0.0
 10
113.3160807008376
 20
-151.4460530220343
 30
0.0
 10
113.4811007745811
 20
-151.6131401530689
 30
0.0
 10
113.4811007745811
 20
-151.6131401530689
 30
0.0
 10
113.4111653362306
 20
-151.6810085341284
 30
0.0
 10
113.3646565471797
 20
-151.7847059082344
 30
0.0
 10
113.3415744074285
 20
-151.8353488118676
 30
0.0
  0
SPLINE
  5
C6
330
90
100
AcDbEntity
  8
_U+30EC_U+30A4_U+30E4_U+30FC 1
370
     0
100
AcDbSpline
210
0.0
220
0.0
230
1.0
 70
    11
 71
     3
 72
    29
 73
    25
 74
     0
 42
0.0000000001
 43
0.0000000001
 12
1.0
 22
0.0
 32
0.0
 13
1.0
 23
0.0
 33
0.0
 40
0.0
 40
0.0
 40
0.0
 40
0.0
 40
1.0
 40
1.0
 40
1.0
 40
2.0
 40
2.0
 40
2.0
 40
3.0
 40
3.0
 40
3.0
 40
4.0
 40
4.0
 40
4.0
 40
5.0
 40
5.0
 40
5.0
 40
6.0
 40
6.0
 40
6.0
 40
7.0
 40
7.0
 40
7.0
 40
8.0
 40
8.0
 40
8.0
 40
8.0
 10
112.8485812434892
 20
-151.2090304526491
 30
0.0
 10
112.8485812434892
 20
-151.2090304526491
 30
0.0
 10
112.507861299998
 20
-151.2090304526491
 30
0.0
 10
112.507861299998
 20
-151.2090304526491
 30
0.0
 10
112.3938286394363
 20
-151.2090304526491
 30
0.0
 10
112.2773844120348
 20
-151.21350907678
 30
0.0
 10
112.1630072419245
 20
-151.2283229873665
 30
0.0
 10
112.1630072419245
 20
-151.2283229873665
 30
0.0
 10
112.1630072419245
 20
-151.0188611818633
 30
0.0
 10
112.1630072419245
 20
-151.0188611818633
 30
0.0
 10
112.2815185266171
 20
-151.0336750924499
 30
0.0
 10
112.4551513390737
 20
-151.0378092070322
 30
0.0
 10
112.507861299998
 20
-151.0378092070322
 30
0.0
 10
112.507861299998
 20
-151.0378092070322
 30
0.0
 10
112.8485812434892
 20
-151.0378092070322
 30
0.0
 10
112.8485812434892
 20
-151.0378092070322
 30
0.0
 10
112.9650254708907
 20
-151.0378092070322
 30
0.0
 10
113.0811251887436
 20
-151.0336750924499
 30
0.0
 10
113.1975694161451
 20
-151.0188611818633
 30
0.0
 10
113.1975694161451
 20
-151.0188611818633
 30
0.0
 10
113.1975694161451
 20
-151.2283229873665
 30
0.0
 10
113.1975694161451
 20
-151.2283229873665
 30
0.0
 10
113.0473632529882
 20
-151.2090304526491
 30
0.0
 10
112.8633951540758
 20
-151.2090304526491
 30
0.0
 10
112.8485812434892
 20
-151.2090304526491
 30
0.0
  0
HATCH
  5
C7
330
90
100
AcDbEntity
  8
_U+30EC_U+30A4_U+30E4_U+30FC 1
 62
   179
420
  2234388
100
AcDbHatch
 10
0.0
 20
0.0
 30
0.0
210
0.0
220
0.0
230
1.0
  2
SOLID
 70
     1
 71
     0
 91
        2
 92
        1
 93
        1
 72
     4
 94
        3
 73
     0
 74
     1
 95
       50
 96
       46
 40
0.0
 40
0.0
 40
0.0
 40
0.0
 40
1.0
 40
1.0
 40
1.0
 40
2.0
 40
2.0
 40
2.0
 40
3.0
 40
3.0
 40
3.0
 40
4.0
 40
4.0
 40
4.0
 40
5.0
 40
5.0
 40
5.0
 40
6.0
 40
6.0
 40
6.0
 40
7.0
 40
7.0
 40
7.0
 40
8.0
 40
8.0
 40
8.0
 40
9.0
 40
9.0
 40
9.0
 40
10.0
 40
10.0
 40
10.0
 40
11.0
 40
11.0
 40
11.0
 40
12.0
 40
12.0
 40
12.0
 40
13.0
 40
13.0
 40
13.0
 40
14.0
 40
14.0
 40
14.0
 40
15.0
 40
15.0
 40
15.0
 40
15.0
 10
113.3415744074285
 20
-151.8353488118676
 10
113.2630262303648
 20
-152.0131157389065
 10
113.1276339777945
 20
-152.22016597757
 10
112.990174667933
 20
-152.3600368542711
 10
112.8210204796073
 20
-152.531258099888
 10
112.6580674631549
 20
-152.6201415634075
 10
112.3387071116723
 20
-152.7617349878512
 10
112.3387071116723
 20
-152.7617349878512
 10
112.1695529233465
 20
-152.5736327743566
 10
112.1695529233465
 20
-152.5736327743566
 10
112.35558807955
 20
-152.5502061250569
 10
112.5268093251669
 20
-152.4637342283771
 10
112.6794270551635
 20
-152.35796979698
 10
112.941598821591
 20
-152.1760687553588
 10
113.1321126019253
 20
-151.8629095757496
 10
113.1806884482673
 20
-151.6810085341284
 10
113.1806884482673
 20
-151.6810085341284
 10
112.5099283572892
 20
-151.6810085341284
 10
112.5099283572892
 20
-151.6810085341284
 10
112.3514539649677
 20
-151.6810085341284
 10
112.0593098678185
 20
-151.689276763293
 10
111.9070366473705
 20
-151.7061577311707
 10
111.9070366473705
 20
-151.7061577311707
 10
111.9070366473705
 20
-151.4777479004986
 10
111.9070366473705
 20
-151.4777479004986
 10
111.9411430926744
 20
-151.4842935819206
 10
111.9662922897168
 20
-151.4904947537941
 10
112.0193467601896
 20
-151.4946288683763
 10
112.120632567456
 20
-151.5011745497983
 10
112.3176920292123
 20
-151.5032416070895
 10
112.4020968686009
 20
-151.5032416070895
 10
112.4020968686009
 20
-151.5032416070895
 10
112.9078368858356
 20
-151.5032416070895
 10
112.9078368858356
 20
-151.5032416070895
 10
112.9753607573464
 20
-151.5032416070895
 10
113.121432805921
 20
-151.4991074925072
 10
113.1827555055585
 20
-151.4925618110852
 10
113.2547580012002
 20
-151.4842935819206
 10
113.2823187650822
 20
-151.469479671334
 10
113.3160807008376
 20
-151.4460530220343
 10
113.3160807008376
 20
-151.4460530220343
 10
113.4811007745811
 20
-151.6131401530689
 10
113.4811007745811
 20
-151.6131401530689
 10
113.4111653362306
 20
-151.6810085341284
 10
113.3646565471797
 20
-151.7847059082344
 10
113.3415744074285
 20
-151.8353488118676
 97
        0
 97
        0
 92
        1
 93
        1
 72
     4
 94
        3
 73
     0
 74
     1
 95
       29
 96
       25
 40
0.0
 40
0.0
 40
0.0
 40
0.0
 40
1.0
 40
1.0
 40
1.0
 40
2.0
 40
2.0
 40
2.0
 40
3.0
 40
3.0
 40
3.0
 40
4.0
 40
4.0
 40
4.0
 40
5.0
 40
5.0
 40
5.0
 40
6.0
 40
6.0
 40
6.0
 40
7.0
 40
7.0
 40
7.0
 40
8.0
 40
8.0
 40
8.0
 40
8.0
 10
112.8485812434892
 20
-151.2090304526491
 10
112.8485812434892
 20
-151.2090304526491
 10
112.507861299998
 20
-151.2090304526491
 10
112.507861299998
 20
-151.2090304526491
 10
112.3938286394363
 20
-151.2090304526491
 10
112.2773844120348
 20
-151.21350907678
 10
112.1630072419245
 20
-151.2283229873665
 10
112.1630072419245
 20
-151.2283229873665
 10
112.1630072419245
 20
-151.0188611818633
 10
112.1630072419245
 20
-151.0188611818633
 10
112.2815185266171
 20
-151.0336750924499
 10
112.4551513390737
 20
-151.0378092070322
 10
112.507861299998
 20
-151.0378092070322
 10
112.507861299998
 20
-151.0378092070322
 10
112.8485812434892
 20
-151.0378092070322
 10
112.8485812434892
 20
-151.0378092070322
 10
112.9650254708907
 20
-151.0378092070322
 10
113.0811251887436
 20
-151.0336750924499
 10
113.1975694161451
 20
-151.0188611818633
 10
113.1975694161451
 20
-151.0188611818633
 10
113.1975694161451
 20
-151.2283229873665
 10
113.1975694161451
 20
-151.2283229873665
 10
113.0473632529882
 20
-151.2090304526491
 10
112.8633951540758
 20
-151.2090304526491
 10
112.8485812434892
 20
-151.2090304526491
 97
        0
 97
        0
 75
     2
 76
     1
 98
        0
  0
SPLINE
  5
C8
330
90
100
AcDbEntity
  8
_U+30EC_U+30A4_U+30E4_U+30FC 1
370
     0
100
AcDbSpline
210
0.0
220
0.0
230
1.0
 70
    11
 71
     3
 72
    50
 73
    46
 74
     0
 42
0.0000000001
 43
0.0000000001
 12
1.0
 22
0.0
 32
0.0
 13
1.0
 23
0.0
 33
0.0
 40
0.0
 40
0.0
 40
0.0
 40
0.0
 40
1.0
 40
1.0
 40
1.0
 40
2.0
 40
2.0
 40
2.0
 40
3.0
 40
3.0
 40
3.0
 40
4.0
 40
4.0
 40
4.0
 40
5.0
 40
5.0
 40
5.0
 40
6.0
 40
6.0
 40
6.0
 40
7.0
 40
7.0
 40
7.0
 40
8.0
 40
8.0
 40
8.0
 40
9.0
 40
9.0
 40
9.0
 40
10.0
 40
10.0
 40
10.0
 40
11.0
 40
11.0
 40
11.0
 40
12.0
 40
12.0
 40
12.0
 40
13.0
 40
13.0
 40
13.0
 40
14.0
 40
14.0
 40
14.0
 40
15.0
 40
15.0
 40
15.0
 40
15.0
 10
115.0517198063065
 20
-151.1942165420626
 30
0.0
 10
114.8422580008033
 20
-151.4078124621481
 30
0.0
 10
114.7706000147101
 20
-151.4798149577898
 30
0.0
 10
114.6286620807178
 20
-151.5983262424824
 30
0.0
 10
114.6286620807178
 20
-151.5983262424824
 30
0.0
 10
114.6286620807178
 20
-152.1653889593545
 30
0.0
 10
114.6286620807178
 20
-152.1653889593545
 30
0.0
 10
114.6286620807178
 20
-152.3155951225114
 30
0.0
 10
114.6352077621398
 20
-152.3345431476803
 30
0.0
 10
114.6393418767221
 20
-152.5123100747192
 30
0.0
 10
114.6414089340133
 20
-152.6435682127072
 30
0.0
 10
114.6476101058867
 20
-152.6921440590492
 30
0.0
 10
114.6541557873087
 20
-152.7513997013955
 30
0.0
 10
114.6541557873087
 20
-152.7513997013955
 30
0.0
 10
114.4278130139278
 20
-152.7513997013955
 30
0.0
 10
114.4278130139278
 20
-152.7513997013955
 30
0.0
 10
114.4319471285101
 20
-152.7069579696358
 30
0.0
 10
114.4360812430924
 20
-152.6604491805849
 30
0.0
 10
114.4360812430924
 20
-152.6518364418718
 30
0.0
 10
114.4360812430924
 20
-152.5715657170655
 30
0.0
 10
114.4405598672232
 20
-152.22016597757
 30
0.0
 10
114.4405598672232
 20
-152.1485079914768
 30
0.0
 10
114.4405598672232
 20
-152.1485079914768
 30
0.0
 10
114.4405598672232
 20
-151.7423312337658
 30
0.0
 10
114.4405598672232
 20
-151.7423312337658
 30
0.0
 10
114.258658825602
 20
-151.8670436903319
 30
0.0
 10
114.0640109306854
 20
-151.9769422363113
 30
0.0
 10
113.8607502970556
 20
-152.0637586425396
 30
0.0
 10
113.8607502970556
 20
-152.0637586425396
 30
0.0
 10
113.6578341729744
 20
-151.9008056260873
 30
0.0
 10
113.6578341729744
 20
-151.9008056260873
 30
0.0
 10
113.7804795722493
 20
-151.8649766330407
 30
0.0
 10
114.0364501668034
 20
-151.7909070801078
 30
0.0
 10
114.3813042248769
 20
-151.5349364855538
 30
0.0
 10
114.5969672022535
 20
-151.3761175836838
 30
0.0
 10
114.789548039879
 20
-151.1880153701891
 30
0.0
 10
114.941821260327
 20
-150.9678737686816
 30
0.0
 10
114.941821260327
 20
-150.9678737686816
 30
0.0
 10
115.1344020979525
 20
-151.1118787599651
 30
0.0
 10
115.1344020979525
 20
-151.1118787599651
 30
0.0
 10
115.1471489512479
 20
-151.1225585559694
 30
0.0
 10
115.1554171804125
 20
-151.1370279570074
 30
0.0
 10
115.1554171804125
 20
-151.1497748103028
 30
0.0
 10
115.1554171804125
 20
-151.1900824274803
 30
0.0
 10
115.1175211300748
 20
-151.1900824274803
 30
0.0
 10
115.0517198063065
 20
-151.1942165420626
 30
0.0
  0
HATCH
  5
C9
330
90
100
AcDbEntity
  8
_U+30EC_U+30A4_U+30E4_U+30FC 1
 62
   179
420
  2234388
100
AcDbHatch
 10
0.0
 20
0.0
 30
0.0
210
0.0
220
0.0
230
1.0
  2
SOLID
 70
     1
 71
     0
 91
        1
 92
        1
 93
        1
 72
     4
 94
        3
 73
     0
 74
     1
 95
       50
 96
       46
 40
0.0
 40
0.0
 40
0.0
 40
0.0
 40
1.0
 40
1.0
 40
1.0
 40
2.0
 40
2.0
 40
2.0
 40
3.0
 40
3.0
 40
3.0
 40
4.0
 40
4.0
 40
4.0
 40
5.0
 40
5.0
 40
5.0
 40
6.0
 40
6.0
 40
6.0
 40
7.0
 40
7.0
 40
7.0
 40
8.0
 40
8.0
 40
8.0
 40
9.0
 40
9.0
 40
9.0
 40
10.0
 40
10.0
 40
10.0
 40
11.0
 40
11.0
 40
11.0
 40
12.0
 40
12.0
 40
12.0
 40
13.0
 40
13.0
 40
13.0
 40
14.0
 40
14.0
 40
14.0
 40
15.0
 40
15.0
 40
15.0
 40
15.0
 10
115.0517198063065
 20
-151.1942165420626
 10
114.8422580008033
 20
-151.4078124621481
 10
114.7706000147101
 20
-151.4798149577898
 10
114.6286620807178
 20
-151.5983262424824
 10
114.6286620807178
 20
-151.5983262424824
 10
114.6286620807178
 20
-152.1653889593545
 10
114.6286620807178
 20
-152.1653889593545
 10
114.6286620807178
 20
-152.3155951225114
 10
114.6352077621398
 20
-152.3345431476803
 10
114.6393418767221
 20
-152.5123100747192
 10
114.6414089340133
 20
-152.6435682127072
 10
114.6476101058867
 20
-152.6921440590492
 10
114.6541557873087
 20
-152.7513997013955
 10
114.6541557873087
 20
-152.7513997013955
 10
114.4278130139278
 20
-152.7513997013955
 10
114.4278130139278
 20
-152.7513997013955
 10
114.4319471285101
 20
-152.7069579696358
 10
114.4360812430924
 20
-152.6604491805849
 10
114.4360812430924
 20
-152.6518364418718
 10
114.4360812430924
 20
-152.5715657170655
 10
114.4405598672232
 20
-152.22016597757
 10
114.4405598672232
 20
-152.1485079914768
 10
114.4405598672232
 20
-152.1485079914768
 10
114.4405598672232
 20
-151.7423312337658
 10
114.4405598672232
 20
-151.7423312337658
 10
114.258658825602
 20
-151.8670436903319
 10
114.0640109306854
 20
-151.9769422363113
 10
113.8607502970556
 20
-152.0637586425396
 10
113.8607502970556
 20
-152.0637586425396
 10
113.6578341729744
 20
-151.9008056260873
 10
113.6578341729744
 20
-151.9008056260873
 10
113.7804795722493
 20
-151.8649766330407
 10
114.0364501668034
 20
-151.7909070801078
 10
114.3813042248769
 20
-151.5349364855538
 10
114.5969672022535
 20
-151.3761175836838
 10
114.789548039879
 20
-151.1880153701891
 10
114.941821260327
 20
-150.9678737686816
 10
114.941821260327
 20
-150.9678737686816
 10
115.1344020979525
 20
-151.1118787599651
 10
115.1344020979525
 20
-151.1118787599651
 10
115.1471489512479
 20
-151.1225585559694
 10
115.1554171804125
 20
-151.1370279570074
 10
115.1554171804125
 20
-151.1497748103028
 10
115.1554171804125
 20
-151.1900824274803
 10
115.1175211300748
 20
-151.1900824274803
 10
115.0517198063065
 20
-151.1942165420626
 97
        0
 97
        0
 75
     2
 76
     1
 98
        0
  0
SPLINE
  5
CA
330
90
100
AcDbEntity
  8
_U+30EC_U+30A4_U+30E4_U+30FC 1
370
     0
100
AcDbSpline
210
0.0
220
0.0
230
1.0
 70
    11
 71
     3
 72
    50
 73
    46
 74
     0
 42
0.0000000001
 43
0.0000000001
 12
1.0
 22
0.0
 32
0.0
 13
1.0
 23
0.0
 33
0.0
 40
0.0
 40
0.0
 40
0.0
 40
0.0
 40
1.0
 40
1.0
 40
1.0
 40
2.0
 40
2.0
 40
2.0
 40
3.0
 40
3.0
 40
3.0
 40
4.0
 40
4.0
 40
4.0
 40
5.0
 40
5.0
 40
5.0
 40
6.0
 40
6.0
 40
6.0
 40
7.0
 40
7.0
 40
7.0
 40
8.0
 40
8.0
 40
8.0
 40
9.0
 40
9.0
 40
9.0
 40
10.0
 40
10.0
 40
10.0
 40
11.0
 40
11.0
 40
11.0
 40
12.0
 40
12.0
 40
12.0
 40
13.0
 40
13.0
 40
13.0
 40
14.0
 40
14.0
 40
14.0
 40
15.0
 40
15.0
 40
15.0
 40
15.0
 10
116.7622097147331
 20
-151.7209716417573
 30
0.0
 10
116.7008870150956
 20
-151.792974137399
 30
0.0
 10
116.4404377964107
 20
-152.1102674315905
 30
0.0
 10
116.3835937209041
 20
-152.1736571885191
 30
0.0
 10
116.4679985602927
 20
-152.2711533907517
 30
0.0
 10
116.5189859734744
 20
-152.3345431476803
 30
0.0
 10
116.5844427876942
 20
-152.4254936684908
 30
0.0
 10
116.5844427876942
 20
-152.4254936684908
 30
0.0
 10
116.4004746887818
 20
-152.5629529783523
 30
0.0
 10
116.4004746887818
 20
-152.5629529783523
 30
0.0
 10
116.2650824362115
 20
-152.351424115558
 30
0.0
 10
116.0935166810461
 20
-152.1271483994682
 30
0.0
 10
115.7996500361543
 20
-151.9283663899693
 30
0.0
 10
115.7996500361543
 20
-151.9283663899693
 30
0.0
 10
115.94778914202
 20
-151.7740261122301
 30
0.0
 10
115.94778914202
 20
-151.7740261122301
 30
0.0
 10
116.0576876879995
 20
-151.8542968370364
 30
0.0
 10
116.1613850621055
 20
-151.9431803005559
 30
0.0
 10
116.2585367547895
 20
-152.0382649359488
 30
0.0
 10
116.326405135849
 20
-151.9621283257248
 30
0.0
 10
116.5293212599302
 20
-151.7189045844661
 30
0.0
 10
116.6626464552093
 20
-151.4904947537941
 30
0.0
 10
116.6626464552093
 20
-151.4904947537941
 30
0.0
 10
115.98981930694
 20
-151.4904947537941
 30
0.0
 10
115.98981930694
 20
-151.4904947537941
 30
0.0
 10
115.865106850374
 20
-151.4904947537941
 30
0.0
 10
115.6132703704022
 20
-151.4991074925072
 30
0.0
 10
115.4038085648991
 20
-151.5094427789629
 30
0.0
 10
115.4038085648991
 20
-151.5094427789629
 30
0.0
 10
115.4038085648991
 20
-151.289645687004
 30
0.0
 10
115.4038085648991
 20
-151.289645687004
 30
0.0
 10
115.5881211733599
 20
-151.3085937121729
 30
0.0
 10
115.7931043547323
 20
-151.3127278267552
 30
0.0
 10
115.9815510777754
 20
-151.3127278267552
 30
0.0
 10
115.9815510777754
 20
-151.3127278267552
 30
0.0
 10
116.4848795281705
 20
-151.3127278267552
 30
0.0
 10
116.4848795281705
 20
-151.3127278267552
 30
0.0
 10
116.8235324143705
 20
-151.3127278267552
 30
0.0
 10
116.8679741461302
 20
-151.2979139161686
 30
0.0
 10
116.9503119282277
 20
-151.2576062989912
 30
0.0
 10
116.9503119282277
 20
-151.2576062989912
 30
0.0
 10
117.1173990592623
 20
-151.4164252008612
 30
0.0
 10
117.1173990592623
 20
-151.4164252008612
 30
0.0
 10
116.9651258388143
 20
-151.4884276965029
 30
0.0
 10
116.8214653570794
 20
-151.6513807129552
 30
0.0
 10
116.7622097147331
 20
-151.7209716417573
 30
0.0
  0
HATCH
  5
CB
330
90
100
AcDbEntity
  8
_U+30EC_U+30A4_U+30E4_U+30FC 1
 62
   179
420
  2234388
100
AcDbHatch
 10
0.0
 20
0.0
 30
0.0
210
0.0
220
0.0
230
1.0
  2
SOLID
 70
     1
 71
     0
 91
        1
 92
        1
 93
        1
 72
     4
 94
        3
 73
     0
 74
     1
 95
       50
 96
       46
 40
0.0
 40
0.0
 40
0.0
 40
0.0
 40
1.0
 40
1.0
 40
1.0
 40
2.0
 40
2.0
 40
2.0
 40
3.0
 40
3.0
 40
3.0
 40
4.0
 40
4.0
 40
4.0
 40
5.0
 40
5.0
 40
5.0
 40
6.0
 40
6.0
 40
6.0
 40
7.0
 40
7.0
 40
7.0
 40
8.0
 40
8.0
 40
8.0
 40
9.0
 40
9.0
 40
9.0
 40
10.0
 40
10.0
 40
10.0
 40
11.0
 40
11.0
 40
11.0
 40
12.0
 40
12.0
 40
12.0
 40
13.0
 40
13.0
 40
13.0
 40
14.0
 40
14.0
 40
14.0
 40
15.0
 40
15.0
 40
15.0
 40
15.0
 10
116.7622097147331
 20
-151.7209716417573
 10
116.7008870150956
 20
-151.792974137399
 10
116.4404377964107
 20
-152.1102674315905
 10
116.3835937209041
 20
-152.1736571885191
 10
116.4679985602927
 20
-152.2711533907517
 10
116.5189859734744
 20
-152.3345431476803
 10
116.5844427876942
 20
-152.4254936684908
 10
116.5844427876942
 20
-152.4254936684908
 10
116.4004746887818
 20
-152.5629529783523
 10
116.4004746887818
 20
-152.5629529783523
 10
116.2650824362115
 20
-152.351424115558
 10
116.0935166810461
 20
-152.1271483994682
 10
115.7996500361543
 20
-151.9283663899693
 10
115.7996500361543
 20
-151.9283663899693
 10
115.94778914202
 20
-151.7740261122301
 10
115.94778914202
 20
-151.7740261122301
 10
116.0576876879995
 20
-151.8542968370364
 10
116.1613850621055
 20
-151.9431803005559
 10
116.2585367547895
 20
-152.0382649359488
 10
116.326405135849
 20
-151.9621283257248
 10
116.5293212599302
 20
-151.7189045844661
 10
116.6626464552093
 20
-151.4904947537941
 10
116.6626464552093
 20
-151.4904947537941
 10
115.98981930694
 20
-151.4904947537941
 10
115.98981930694
 20
-151.4904947537941
 10
115.865106850374
 20
-151.4904947537941
 10
115.6132703704022
 20
-151.4991074925072
 10
115.4038085648991
 20
-151.5094427789629
 10
115.4038085648991
 20
-151.5094427789629
 10
115.4038085648991
 20
-151.289645687004
 10
115.4038085648991
 20
-151.289645687004
 10
115.5881211733599
 20
-151.3085937121729
 10
115.7931043547323
 20
-151.3127278267552
 10
115.9815510777754
 20
-151.3127278267552
 10
115.9815510777754
 20
-151.3127278267552
 10
116.4848795281705
 20
-151.3127278267552
 10
116.4848795281705
 20
-151.3127278267552
 10
116.8235324143705
 20
-151.3127278267552
 10
116.8679741461302
 20
-151.2979139161686
 10
116.9503119282277
 20
-151.2576062989912
 10
116.9503119282277
 20
-151.2576062989912
 10
117.1173990592623
 20
-151.4164252008612
 10
117.1173990592623
 20
-151.4164252008612
 10
116.9651258388143
 20
-151.4884276965029
 10
116.8214653570794
 20
-151.6513807129552
 10
116.7622097147331
 20
-151.7209716417573
 97
        0
 97
        0
 75
     2
 76
     1
 98
        0
  0
SPLINE
  5
CC
330
90
100
AcDbEntity
  8
_U+30EC_U+30A4_U+30E4_U+30FC 1
370
     0
100
AcDbSpline
210
0.0
220
0.0
230
1.0
 70
    11
 71
     3
 72
    29
 73
    25
 74
     0
 42
0.0000000001
 43
0.0000000001
 12
1.0
 22
0.0
 32
0.0
 13
1.0
 23
0.0
 33
0.0
 40
0.0
 40
0.0
 40
0.0
 40
0.0
 40
1.0
 40
1.0
 40
1.0
 40
2.0
 40
2.0
 40
2.0
 40
3.0
 40
3.0
 40
3.0
 40
4.0
 40
4.0
 40
4.0
 40
5.0
 40
5.0
 40
5.0
 40
6.0
 40
6.0
 40
6.0
 40
7.0
 40
7.0
 40
7.0
 40
8.0
 40
8.0
 40
8.0
 40
8.0
 10
118.3855387073828
 20
-151.9641953830159
 30
0.0
 10
118.3855387073828
 20
-151.9641953830159
 30
0.0
 10
117.9011582821567
 20
-151.9641953830159
 30
0.0
 10
117.9011582821567
 20
-151.9641953830159
 30
0.0
 10
117.8735975182747
 20
-151.9641953830159
 30
0.0
 10
117.5563042240831
 20
-151.9641953830159
 30
0.0
 10
117.3447753612888
 20
-151.9896890896067
 30
0.0
 10
117.3447753612888
 20
-151.9896890896067
 30
0.0
 10
117.3447753612888
 20
-151.7592122016435
 30
0.0
 10
117.3447753612888
 20
-151.7592122016435
 30
0.0
 10
117.5032497536103
 20
-151.7822943413947
 30
0.0
 10
117.6937635339446
 20
-151.7847059082344
 30
0.0
 10
117.9011582821567
 20
-151.7847059082344
 30
0.0
 10
117.9011582821567
 20
-151.7847059082344
 30
0.0
 10
118.3855387073828
 20
-151.7847059082344
 30
0.0
 10
118.3855387073828
 20
-151.7847059082344
 30
0.0
 10
118.5715738635863
 20
-151.7847059082344
 30
0.0
 10
118.7579535293383
 20
-151.7822943413947
 30
0.0
 10
118.9419216282506
 20
-151.7592122016435
 30
0.0
 10
118.9419216282506
 20
-151.7592122016435
 30
0.0
 10
118.9419216282506
 20
-151.9896890896067
 30
0.0
 10
118.9419216282506
 20
-151.9896890896067
 30
0.0
 10
118.7579535293383
 20
-151.9666069498556
 30
0.0
 10
118.5102511639488
 20
-151.9641953830159
 30
0.0
 10
118.3855387073828
 20
-151.9641953830159
 30
0.0
  0
HATCH
  5
CD
330
90
100
AcDbEntity
  8
_U+30EC_U+30A4_U+30E4_U+30FC 1
 62
   179
420
  2234388
100
AcDbHatch
 10
0.0
 20
0.0
 30
0.0
210
0.0
220
0.0
230
1.0
  2
SOLID
 70
     1
 71
     0
 91
        1
 92
        1
 93
        1
 72
     4
 94
        3
 73
     0
 74
     1
 95
       29
 96
       25
 40
0.0
 40
0.0
 40
0.0
 40
0.0
 40
1.0
 40
1.0
 40
1.0
 40
2.0
 40
2.0
 40
2.0
 40
3.0
 40
3.0
 40
3.0
 40
4.0
 40
4.0
 40
4.0
 40
5.0
 40
5.0
 40
5.0
 40
6.0
 40
6.0
 40
6.0
 40
7.0
 40
7.0
 40
7.0
 40
8.0
 40
8.0
 40
8.0
 40
8.0
 10
118.3855387073828
 20
-151.9641953830159
 10
118.3855387073828
 20
-151.9641953830159
 10
117.9011582821567
 20
-151.9641953830159
 10
117.9011582821567
 20
-151.9641953830159
 10
117.8735975182747
 20
-151.9641953830159
 10
117.5563042240831
 20
-151.9641953830159
 10
117.3447753612888
 20
-151.9896890896067
 10
117.3447753612888
 20
-151.9896890896067
 10
117.3447753612888
 20
-151.7592122016435
 10
117.3447753612888
 20
-151.7592122016435
 10
117.5032497536103
 20
-151.7822943413947
 10
117.6937635339446
 20
-151.7847059082344
 10
117.9011582821567
 20
-151.7847059082344
 10
117.9011582821567
 20
-151.7847059082344
 10
118.3855387073828
 20
-151.7847059082344
 10
118.3855387073828
 20
-151.7847059082344
 10
118.5715738635863
 20
-151.7847059082344
 10
118.7579535293383
 20
-151.7822943413947
 10
118.9419216282506
 20
-151.7592122016435
 10
118.9419216282506
 20
-151.7592122016435
 10
118.9419216282506
 20
-151.9896890896067
 10
118.9419216282506
 20
-151.9896890896067
 10
118.7579535293383
 20
-151.9666069498556
 10
118.5102511639488
 20
-151.9641953830159
 10
118.3855387073828
 20
-151.9641953830159
 97
        0
 97
        0
 75
     2
 76
     1
 98
        0
  0
ENDBLK
  5
93
330
90
100
AcDbEntity
  8
0
100
AcDbBlockEnd
  0
ENDSEC
  0
SECTION
  2
ENTITIES
  0
POLYLINE
  5
41
330
1F
100
AcDbEntity
  8
_U+30EC_U+30A4_U+30E4_U+30FC 1
 62
   179
420
  2234388
370
    25
100
AcDb2dPolyline
 66
     1
 10
0.0
 20
0.0
 30
0.0
  0
VERTEX
  5
42
330
41
100
AcDbEntity
  8
_U+30EC_U+30A4_U+30E4_U+30FC 1
 62
   179
420
  2234388
370
    25
100
AcDbVertex
100
AcDb2dVertex
 10
97.29127288081499
 20
-155.9305768788776
 30
0.0
  0
VERTEX
  5
43
330
41
100
AcDbEntity
  8
_U+30EC_U+30A4_U+30E4_U+30FC 1
 62
   179
420
  2234388
370
    25
100
AcDbVertex
100
AcDb2dVertex
 10
117.2916562952756
 20
-155.9305768788776
 30
0.0
  0
SEQEND
  5
44
330
41
100
AcDbEntity
  8
_U+30EC_U+30A4_U+30E4_U+30FC 1
 62
   179
420
  2234388
370
    25
  0
POLYLINE
  5
45
330
1F
100
AcDbEntity
  8
_U+30EC_U+30A4_U+30E4_U+30FC 1
 62
   179
420
  2234388
370
    25
100
AcDb2dPolyline
 66
     1
 10
0.0
 20
0.0
 30
0.0
  0
VERTEX
  5
46
330
45
100
AcDbEntity
  8
_U+30EC_U+30A4_U+30E4_U+30FC 1
 62
   179
420
  2234388
370
    25
100
AcDbVertex
100
AcDb2dVertex
 10
117.2917639545095
 20
-155.9305768788776
 30
0.0
  0
VERTEX
  5
47
330
45
100
AcDbEntity
  8
_U+30EC_U+30A4_U+30E4_U+30FC 1
 62
   179
420
  2234388
370
    25
100
AcDbVertex
100
AcDb2dVertex
 10
117.2917639545095
 20
-156.3302833166303
 30
0.0
  0
SEQEND
  5
48
330
45
100
AcDbEntity
  8
_U+30EC_U+30A4_U+30E4_U+30FC 1
 62
   179
420
  2234388
370
    25
  0
POLYLINE
  5
49
330
1F
100
AcDbEntity
  8
_U+30EC_U+30A4_U+30E4_U+30FC 1
 62
   179
420
  2234388
370
    25
100
AcDb2dPolyline
 66
     1
 10
0.0
 20
0.0
 30
0.0
  0
VERTEX
  5
4A
330
49
100
AcDbEntity
  8
_U+30EC_U+30A4_U+30E4_U+30FC 1
 62
   179
420
  2234388
370
    25
100
AcDbVertex
100
AcDb2dVertex
 10
97.69157144435424
 20
-135.930441080655
 30
0.0
  0
VERTEX
  5
4B
330
49
100
AcDbEntity
  8
_U+30EC_U+30A4_U+30E4_U+30FC 1
 62
   179
420
  2234388
370
    25
100
AcDbVertex
100
AcDb2dVertex
 10
98.09126711618357
 20
-135.930441080655
 30
0.0
  0
SEQEND
  5
4C
330
49
100
AcDbEntity
  8
_U+30EC_U+30A4_U+30E4_U+30FC 1
 62
   179
420
  2234388
370
    25
  0
POLYLINE
  5
4D
330
1F
100
AcDbEntity
  8
_U+30EC_U+30A4_U+30E4_U+30FC 1
 62
   179
420
  2234388
370
    25
100
AcDb2dPolyline
 66
     1
 10
0.0
 20
0.0
 30
0.0
  0
VERTEX
  5
4E
330
4D
100
AcDbEntity
  8
_U+30EC_U+30A4_U+30E4_U+30FC 1
 62
   179
420
  2234388
370
    25
100
AcDbVertex
100
AcDb2dVertex
 10
97.29127288081499
 20
-155.9305768788776
 30
0.0
  0
VERTEX
  5
4F
330
4D
100
AcDbEntity
  8
_U+30EC_U+30A4_U+30E4_U+30FC 1
 62
   179
420
  2234388
370
    25
100
AcDbVertex
100
AcDb2dVertex
 10
98.09136400949409
 20
-135.9305487398889
 30
0.0
  0
SEQEND
  5
50
330
4D
100
AcDbEntity
  8
_U+30EC_U+30A4_U+30E4_U+30FC 1
 62
   179
420
  2234388
370
    25
  0
POLYLINE
  5
51
330
1F
100
AcDbEntity
  8
_U+30EC_U+30A4_U+30E4_U+30FC 1
 62
   179
420
  2234388
370
    25
100
AcDb2dPolyline
 66
     1
 10
0.0
 20
0.0
 30
0.0
  0
VERTEX
  5
52
330
51
100
AcDbEntity
  8
_U+30EC_U+30A4_U+30E4_U+30FC 1
 62
   179
420
  2234388
370
    25
100
AcDbVertex
100
AcDb2dVertex
 10
97.69157144435424
 20
-135.930441080655
 30
0.0
  0
VERTEX
  5
53
330
51
100
AcDbEntity
  8
_U+30EC_U+30A4_U+30E4_U+30FC 1
 62
   179
420
  2234388
370
    25
100
AcDbVertex
100
AcDb2dVertex
 10
96.2935086327463
 20
-156.0747648908587
 30
0.0
  0
SEQEND
  5
54
330
51
100
AcDbEntity
  8
_U+30EC_U+30A4_U+30E4_U+30FC 1
 62
   179
420
  2234388
370
    25
  0
POLYLINE
  5
55
330
1F
100
AcDbEntity
  8
_U+30EC_U+30A4_U+30E4_U+30FC 1
 62
   179
420
  2234388
370
    25
100
AcDb2dPolyline
 66
     1
 10
0.0
 20
0.0
 30
0.0
  0
VERTEX
  5
56
330
55
100
AcDbEntity
  8
_U+30EC_U+30A4_U+30E4_U+30FC 1
 62
   179
420
  2234388
370
    25
100
AcDbVertex
100
AcDb2dVertex
 10
117.2917639545095
 20
-156.3302294870134
 30
0.0
  0
VERTEX
  5
57
330
55
100
AcDbEntity
  8
_U+30EC_U+30A4_U+30E4_U+30FC 1
 62
   179
420
  2234388
370
    25
100
AcDbVertex
100
AcDb2dVertex
 10
97.11569143622455
 20
-156.9296007399831
 30
0.0
  0
SEQEND
  5
58
330
55
100
AcDbEntity
  8
_U+30EC_U+30A4_U+30E4_U+30FC 1
 62
   179
420
  2234388
370
    25
  0
SPLINE
  5
59
330
1F
100
AcDbEntity
  8
_U+30EC_U+30A4_U+30E4_U+30FC 1
 62
   179
420
  2234388
370
    25
100
AcDbSpline
210
0.0
220
0.0
230
1.0
 70
     8
 71
     3
 72
    11
 73
     7
 74
     0
 42
0.0000000001
 43
0.0000000001
 12
1.0
 22
0.0
 32
0.0
 13
1.0
 23
0.0
 33
0.0
 40
0.0
 40
0.0
 40
0.0
 40
0.0
 40
1.0
 40
1.0
 40
1.0
 40
2.0
 40
2.0
 40
2.0
 40
2.0
 10
96.29355169643985
 20
-156.074581870161
 30
0.0
 10
96.26285804885096
 20
-156.515554092273
 30
0.0
 10
96.59516980617347
 20
-156.8979704570592
 30
0.0
 10
97.03614202828545
 20
-156.9283088291761
 30
0.0
 10
97.06260466798153
 20
-156.9304297160842
 30
0.0
 10
97.08871203220569
 20
-156.9311295011047
 30
0.0
 10
97.1155191814503
 20
-156.9297191651404
 30
0.0
  0
SPLINE
  5
5A
330
1F
100
AcDbEntity
  8
_U+30EC_U+30A4_U+30E4_U+30FC 1
 62
   179
420
  2234388
370
     9
100
AcDbSpline
210
0.0
220
0.0
230
1.0
 70
    11
 71
     3
 72
    17
 73
    13
 74
     0
 42
0.0000000001
 43
0.0000000001
 12
1.0
 22
0.0
 32
0.0
 13
1.0
 23
0.0
 33
0.0
 40
0.0
 40
0.0
 40
0.0
 40
0.0
 40
1.0
 40
1.0
 40
1.0
 40
2.0
 40
2.0
 40
2.0
 40
3.0
 40
3.0
 40
3.0
 40
4.0
 40
4.0
 40
4.0
 40
4.0
 10
117.3916717235818
 20
-160.930067149302
 30
0.0
 10
117.3916717235818
 20
-160.8750425148485
 30
0.0
 10
117.3468639504267
 20
-160.8302347416935
 30
0.0
 10
117.2918285500499
 20
-160.8302347416935
 30
0.0
 10
117.2360825987292
 20
-160.8302347416935
 30
0.0
 10
117.191985376518
 20
-160.8750425148485
 30
0.0
 10
117.191985376518
 20
-160.930067149302
 30
0.0
 10
117.191985376518
 20
-160.9851025496789
 30
0.0
 10
117.2360825987292
 20
-161.0299103228339
 30
0.0
 10
117.2918285500499
 20
-161.0299103228339
 30
0.0
 10
117.3468639504267
 20
-161.0299103228339
 30
0.0
 10
117.3916717235818
 20
-160.9851025496789
 30
0.0
 10
117.3916717235818
 20
-160.930067149302
 30
0.0
  0
SPLINE
  5
5B
330
1F
100
AcDbEntity
  8
_U+30EC_U+30A4_U+30E4_U+30FC 1
 62
   179
420
  2234388
370
     9
100
AcDbSpline
210
0.0
220
0.0
230
1.0
 70
    11
 71
     3
 72
    17
 73
    13
 74
     0
 42
0.0000000001
 43
0.0000000001
 12
1.0
 22
0.0
 32
0.0
 13
1.0
 23
0.0
 33
0.0
 40
0.0
 40
0.0
 40
0.0
 40
0.0
 40
1.0
 40
1.0
 40
1.0
 40
2.0
 40
2.0
 40
2.0
 40
3.0
 40
3.0
 40
3.0
 40
4.0
 40
4.0
 40
4.0
 40
4.0
 10
92.39165808169267
 20
-156.9303435886971
 30
0.0
 10
92.39165808169267
 20
-156.8753189542436
 30
0.0
 10
92.34685030853764
 20
-156.8305111810886
 30
0.0
 10
92.29181490816077
 20
-156.8305111810886
 30
0.0
 10
92.23643499823538
 20
-156.8305111810886
 30
0.0
 10
92.19162722508035
 20
-156.8753189542436
 30
0.0
 10
92.19162722508035
 20
-156.9303435886971
 30
0.0
 10
92.19162722508035
 20
-156.985378989074
 30
0.0
 10
92.23643499823538
 20
-157.030186762229
 30
0.0
 10
92.29181490816077
 20
-157.030186762229
 30
0.0
 10
92.34685030853764
 20
-157.030186762229
 30
0.0
 10
92.39165808169267
 20
-156.985378989074
 30
0.0
 10
92.39165808169267
 20
-156.9303435886971
 30
0.0
  0
SPLINE
  5
5C
330
1F
100
AcDbEntity
  8
_U+30EC_U+30A4_U+30E4_U+30FC 1
 62
   179
420
  2234388
370
     9
100
AcDbSpline
210
0.0
220
0.0
230
1.0
 70
    11
 71
     3
 72
    17
 73
    13
 74
     0
 42
0.0000000001
 43
0.0000000001
 12
1.0
 22
0.0
 32
0.0
 13
1.0
 23
0.0
 33
0.0
 40
0.0
 40
0.0
 40
0.0
 40
0.0
 40
1.0
 40
1.0
 40
1.0
 40
2.0
 40
2.0
 40
2.0
 40
3.0
 40
3.0
 40
3.0
 40
4.0
 40
4.0
 40
4.0
 40
4.0
 10
96.39141394006774
 20
-160.930067149302
 30
0.0
 10
96.39141394006774
 20
-160.8750425148485
 30
0.0
 10
96.34660616691271
 20
-160.8302347416935
 30
0.0
 10
96.29157076653584
 20
-160.8302347416935
 30
0.0
 10
96.23653536615898
 20
-160.8302347416935
 30
0.0
 10
96.19173835892732
 20
-160.8750425148485
 30
0.0
 10
96.19173835892732
 20
-160.930067149302
 30
0.0
 10
96.19173835892732
 20
-160.9851025496789
 30
0.0
 10
96.23653536615898
 20
-161.0299103228339
 30
0.0
 10
96.29157076653584
 20
-161.0299103228339
 30
0.0
 10
96.34660616691271
 20
-161.0299103228339
 30
0.0
 10
96.39141394006774
 20
-160.9851025496789
 30
0.0
 10
96.39141394006774
 20
-160.930067149302
 30
0.0
  0
SPLINE
  5
5D
330
1F
100
AcDbEntity
  8
_U+30EC_U+30A4_U+30E4_U+30FC 1
 62
   179
420
  2234388
370
     9
100
AcDbSpline
210
0.0
220
0.0
230
1.0
 70
    11
 71
     3
 72
    17
 73
    13
 74
     0
 42
0.0000000001
 43
0.0000000001
 12
1.0
 22
0.0
 32
0.0
 13
1.0
 23
0.0
 33
0.0
 40
0.0
 40
0.0
 40
0.0
 40
0.0
 40
1.0
 40
1.0
 40
1.0
 40
2.0
 40
2.0
 40
2.0
 40
3.0
 40
3.0
 40
3.0
 40
4.0
 40
4.0
 40
4.0
 40
4.0
 10
92.39165808169267
 20
-135.930441080655
 30
0.0
 10
92.39165808169267
 20
-135.8750611707296
 30
0.0
 10
92.34685030853764
 20
-135.8306086730465
 30
0.0
 10
92.29181490816077
 20
-135.8306086730465
 30
0.0
 10
92.23643499823538
 20
-135.8306086730465
 30
0.0
 10
92.19162722508035
 20
-135.8750611707296
 30
0.0
 10
92.19162722508035
 20
-135.930441080655
 30
0.0
 10
92.19162722508035
 20
-135.9854764810318
 30
0.0
 10
92.23643499823538
 20
-136.0302842541869
 30
0.0
 10
92.29181490816077
 20
-136.0302842541869
 30
0.0
 10
92.34685030853764
 20
-136.0302842541869
 30
0.0
 10
92.39165808169267
 20
-135.9854764810318
 30
0.0
 10
92.39165808169267
 20
-135.930441080655
 30
0.0
  0
POLYLINE
  5
5E
330
1F
100
AcDbEntity
  8
_U+30EC_U+30A4_U+30E4_U+30FC 1
 62
   179
420
  2234388
370
     9
100
AcDb2dPolyline
 66
     1
 10
0.0
 20
0.0
 30
0.0
  0
VERTEX
  5
5F
330
5E
100
AcDbEntity
  8
_U+30EC_U+30A4_U+30E4_U+30FC 1
 62
   179
420
  2234388
370
     9
100
AcDbVertex
100
AcDb2dVertex
 10
92.29175031262042
 20
-156.9303435886971
 30
0.0
  0
VERTEX
  5
60
330
5E
100
AcDbEntity
  8
_U+30EC_U+30A4_U+30E4_U+30FC 1
 62
   179
420
  2234388
370
     9
100
AcDbVertex
100
AcDb2dVertex
 10
92.29175031262042
 20
-135.9305487398889
 30
0.0
  0
SEQEND
  5
61
330
5E
100
AcDbEntity
  8
_U+30EC_U+30A4_U+30E4_U+30FC 1
 62
   179
420
  2234388
370
     9
  0
POLYLINE
  5
62
330
1F
100
AcDbEntity
  8
_U+30EC_U+30A4_U+30E4_U+30FC 1
 62
   179
420
  2234388
370
     9
100
AcDb2dPolyline
 66
     1
 10
0.0
 20
0.0
 30
0.0
  0
VERTEX
  5
63
330
62
100
AcDbEntity
  8
_U+30EC_U+30A4_U+30E4_U+30FC 1
 62
   179
420
  2234388
370
     9
100
AcDbVertex
100
AcDb2dVertex
 10
94.55171141909754
 20
-156.9303435886971
 30
0.0
  0
VERTEX
  5
64
330
62
100
AcDbEntity
  8
_U+30EC_U+30A4_U+30E4_U+30FC 1
 62
   179
420
  2234388
370
     9
100
AcDbVertex
100
AcDb2dVertex
 10
91.29133764739744
 20
-156.9303435886971
 30
0.0
  0
SEQEND
  5
65
330
62
100
AcDbEntity
  8
_U+30EC_U+30A4_U+30E4_U+30FC 1
 62
   179
420
  2234388
370
     9
  0
POLYLINE
  5
66
330
1F
100
AcDbEntity
  8
_U+30EC_U+30A4_U+30E4_U+30FC 1
 62
   179
420
  2234388
370
     9
100
AcDb2dPolyline
 66
     1
 10
0.0
 20
0.0
 30
0.0
  0
VERTEX
  5
67
330
66
100
AcDbEntity
  8
_U+30EC_U+30A4_U+30E4_U+30FC 1
 62
   179
420
  2234388
370
     9
100
AcDbVertex
100
AcDb2dVertex
 10
95.15150254307953
 20
-135.930441080655
 30
0.0
  0
VERTEX
  5
68
330
66
100
AcDbEntity
  8
_U+30EC_U+30A4_U+30E4_U+30FC 1
 62
   179
420
  2234388
370
     9
100
AcDbVertex
100
AcDb2dVertex
 10
91.29140224293779
 20
-135.930441080655
 30
0.0
  0
SEQEND
  5
69
330
66
100
AcDbEntity
  8
_U+30EC_U+30A4_U+30E4_U+30FC 1
 62
   179
420
  2234388
370
     9
  0
INSERT
  5
6B
330
1F
100
AcDbEntity
  8
_U+30EC_U+30A4_U+30E4_U+30FC 1
100
AcDbBlockReference
  2
block 2
 10
0.0
 20
0.0
 30
0.0
  0
POLYLINE
  5
72
330
1F
100
AcDbEntity
  8
_U+30EC_U+30A4_U+30E4_U+30FC 1
 62
   179
420
  2234388
370
     9
100
AcDb2dPolyline
 66
     1
 10
0.0
 20
0.0
 30
0.0
  0
VERTEX
  5
73
330
72
100
AcDbEntity
  8
_U+30EC_U+30A4_U+30E4_U+30FC 1
 62
   179
420
  2234388
370
     9
100
AcDbVertex
100
AcDb2dVertex
 10
96.29150617099549
 20
-160.930067149302
 30
0.0
  0
VERTEX
  5
74
330
72
100
AcDbEntity
  8
_U+30EC_U+30A4_U+30E4_U+30FC 1
 62
   179
420
  2234388
370
     9
100
AcDbVertex
100
AcDb2dVertex
 10
117.2916562952756
 20
-160.930067149302
 30
0.0
  0
SEQEND
  5
75
330
72
100
AcDbEntity
  8
_U+30EC_U+30A4_U+30E4_U+30FC 1
 62
   179
420
  2234388
370
     9
  0
POLYLINE
  5
76
330
1F
100
AcDbEntity
  8
_U+30EC_U+30A4_U+30E4_U+30FC 1
 62
   179
420
  2234388
370
     9
100
AcDb2dPolyline
 66
     1
 10
0.0
 20
0.0
 30
0.0
  0
VERTEX
  5
77
330
76
100
AcDbEntity
  8
_U+30EC_U+30A4_U+30E4_U+30FC 1
 62
   179
420
  2234388
370
     9
100
AcDbVertex
100
AcDb2dVertex
 10
96.29150617099549
 20
-158.6701060428249
 30
0.0
  0
VERTEX
  5
78
330
76
100
AcDbEntity
  8
_U+30EC_U+30A4_U+30E4_U+30FC 1
 62
   179
420
  2234388
370
     9
100
AcDbVertex
100
AcDb2dVertex
 10
96.29150617099549
 20
-161.930479814525
 30
0.0
  0
SEQEND
  5
79
330
76
100
AcDbEntity
  8
_U+30EC_U+30A4_U+30E4_U+30FC 1
 62
   179
420
  2234388
370
     9
  0
POLYLINE
  5
7A
330
1F
100
AcDbEntity
  8
_U+30EC_U+30A4_U+30E4_U+30FC 1
 62
   179
420
  2234388
370
     9
100
AcDb2dPolyline
 66
     1
 10
0.0
 20
0.0
 30
0.0
  0
VERTEX
  5
7B
330
7A
100
AcDbEntity
  8
_U+30EC_U+30A4_U+30E4_U+30FC 1
 62
   179
420
  2234388
370
     9
100
AcDbVertex
100
AcDb2dVertex
 10
117.2917639545095
 20
-158.8699215809694
 30
0.0
  0
VERTEX
  5
7C
330
7A
100
AcDbEntity
  8
_U+30EC_U+30A4_U+30E4_U+30FC 1
 62
   179
420
  2234388
370
     9
100
AcDbVertex
100
AcDb2dVertex
 10
117.2917639545095
 20
-161.9306305374525
 30
0.0
  0
SEQEND
  5
7D
330
7A
100
AcDbEntity
  8
_U+30EC_U+30A4_U+30E4_U+30FC 1
 62
   179
420
  2234388
370
     9
  0
INSERT
  5
7F
330
1F
100
AcDbEntity
  8
_U+30EC_U+30A4_U+30E4_U+30FC 1
100
AcDbBlockReference
  2
block 3
 10
0.0
 20
0.0
 30
0.0
  0
POLYLINE
  5
86
330
1F
100
AcDbEntity
  8
_U+30EC_U+30A4_U+30E4_U+30FC 1
  6
AI-Linetype-1
 62
   154
420
    23468
370
    25
100
AcDb2dPolyline
 66
     1
 10
0.0
 20
0.0
 30
0.0
  0
VERTEX
  5
87
330
86
100
AcDbEntity
  8
_U+30EC_U+30A4_U+30E4_U+30FC 1
  6
AI-Linetype-1
 62
   154
420
    23468
370
    25
100
AcDbVertex
100
AcDb2dVertex
 10
97.19168808944448
 20
-135.930441080655
 30
0.0
  0
VERTEX
  5
88
330
86
100
AcDbEntity
  8
_U+30EC_U+30A4_U+30E4_U+30FC 1
  6
AI-Linetype-1
 62
   154
420
    23468
370
    25
100
AcDbVertex
100
AcDb2dVertex
 10
95.71213800368699
 20
-157.4791688313442
 30
0.0
  0
VERTEX
  5
89
330
86
100
AcDbEntity
  8
_U+30EC_U+30A4_U+30E4_U+30FC 1
  6
AI-Linetype-1
 62
   154
420
    23468
370
    25
100
AcDbVertex
100
AcDb2dVertex
 10
117.2918931455902
 20
-156.8300590123062
 30
0.0
  0
SEQEND
  5
8B
330
86
100
AcDbEntity
  8
_U+30EC_U+30A4_U+30E4_U+30FC 1
  6
AI-Linetype-1
 62
   154
420
    23468
370
    25
  0
POLYLINE
  5
8C
330
1F
100
AcDbEntity
  8
_U+30EC_U+30A4_U+30E4_U+30FC 1
 62
   179
420
  2234388
370
     9
100
AcDb2dPolyline
 66
     1
 10
0.0
 20
0.0
 30
0.0
  0
VERTEX
  5
8D
330
8C
100
AcDbEntity
  8
_U+30EC_U+30A4_U+30E4_U+30FC 1
 62
   179
420
  2234388
370
     9
100
AcDbVertex
100
AcDb2dVertex
 10
109.8369325999008
 20
-156.9823429986776
 30
0.0
  0
VERTEX
  5
8E
330
8C
100
AcDbEntity
  8
_U+30EC_U+30A4_U+30E4_U+30FC 1
 62
   179
420
  2234388
370
     9
100
AcDbVertex
100
AcDb2dVertex
 10
107.6521714683127
 20
-153.2707693776437
 30
0.0
  0
SEQEND
  5
8F
330
8C
100
AcDbEntity
  8
_U+30EC_U+30A4_U+30E4_U+30FC 1
 62
   179
420
  2234388
370
     9
  0
INSERT
  5
91
330
1F
100
AcDbEntity
  8
_U+30EC_U+30A4_U+30E4_U+30FC 1
100
AcDbBlockReference
  2
block 4
 10
0.0
 20
0.0
 30
0.0
  0
ENDSEC
  0
SECTION
  2
OBJECTS
  0
DICTIONARY
  5
C
330
0
100
AcDbDictionary
281
     1
  3
ACAD_GROUP
350
D
  3
ACAD_LAYOUT
350
1A
  3
ACAD_MATERIAL
350
3B
  3
ACAD_MLEADERSTYLE
350
CF
  3
ACAD_MLINESTYLE
350
17
  3
ACAD_PLOTSETTINGS
350
19
  3
ACAD_PLOTSTYLENAME
350
E
  3
ACAD_TABLESTYLE
350
CE
  3
ACAD_VISUALSTYLE
350
2A
  0
SUN
  5
3F
330
29
100
AcDbSun
 90
        1
290
     0
 63
     7
421
 16777215
 40
1.0
291
     1
 91
  2455826
 92
 54000000
292
     0
 70
     2
 71
   256
280
     1
  0
DICTIONARY
  5
D
102
{ACAD_REACTORS
330
C
102
}
330
C
100
AcDbDictionary
281
     1
  0
DICTIONARY
  5
1A
102
{ACAD_REACTORS
330
C
102
}
330
C
100
AcDbDictionary
281
     1
  3
Layout1
350
1E
  3
Layout2
350
26
  3
Model
350
22
  0
DICTIONARY
  5
3B
102
{ACAD_REACTORS
330
C
102
}
330
C
100
AcDbDictionary
281
     1
  3
ByBlock
350
3D
  3
ByLayer
350
3C
  3
Global
350
3E
  0
DICTIONARY
  5
CF
102
{ACAD_REACTORS
330
C
102
}
330
C
100
AcDbDictionary
281
     1
  0
DICTIONARY
  5
17
102
{ACAD_REACTORS
330
C
102
}
330
C
100
AcDbDictionary
281
     1
  3
Standard
350
18
  0
DICTIONARY
  5
19
102
{ACAD_REACTORS
330
C
102
}
330
C
100
AcDbDictionary
281
     1
  0
ACDBDICTIONARYWDFLT
  5
E
102
{ACAD_REACTORS
330
C
102
}
330
C
100
AcDbDictionary
281
     1
  3
Normal
350
F
100
AcDbDictionaryWithDefault
340
F
  0
DICTIONARY
  5
CE
102
{ACAD_REACTORS
330
C
102
}
330
C
100
AcDbDictionary
281
     1
  0
DICTIONARY
  5
2A
102
{ACAD_REACTORS
330
C
102
}
330
C
100
AcDbDictionary
281
     1
  3
2dWireframe
350
2F
  3
3D Hidden
350
31
  3
3dWireframe
350
30
  3
Basic
350
32
  3
Brighten
350
36
  3
ColorChange
350
3A
  3
Conceptual
350
34
  3
Dim
350
35
  3
Facepattern
350
39
  3
Flat
350
2B
  3
FlatWithEdges
350
2C
  3
Gouraud
350
2D
  3
GouraudWithEdges
350
2E
  3
Linepattern
350
38
  3
Realistic
350
33
  3
Thicken
350
37
  0
LAYOUT
  5
1E
102
{ACAD_REACTORS
330
1A
102
}
330
1A
100
AcDbPlotSettings
  1

  2
none_device
  4

  6

 40
0.0
 41
0.0
 42
0.0
 43
0.0
 44
0.0
 45
0.0
 46
0.0
 47
0.0
 48
0.0
 49
0.0
140
0.0
141
0.0
142
1.0
143
1.0
 70
   688
 72
     0
 73
     0
 74
     5
  7

 75
    16
 76
     0
 77
     2
 78
   300
147
1.0
148
0.0
149
0.0
100
AcDbLayout
  1
Layout1
 70
     1
 71
     1
 10
0.0
 20
0.0
 11
12.0
 21
9.0
 12
0.0
 22
0.0
 32
0.0
 14
1.000000000000000E+20
 24
1.000000000000000E+20
 34
1.000000000000000E+20
 15
-1.000000000000000E+20
 25
-1.000000000000000E+20
 35
-1.000000000000000E+20
146
0.0
 13
0.0
 23
0.0
 33
0.0
 16
1.0
 26
0.0
 36
0.0
 17
0.0
 27
1.0
 37
0.0
 76
     0
330
1B
  0
LAYOUT
  5
26
102
{ACAD_REACTORS
330
1A
102
}
330
1A
100
AcDbPlotSettings
  1

  2
none_device
  4

  6

 40
0.0
 41
0.0
 42
0.0
 43
0.0
 44
0.0
 45
0.0
 46
0.0
 47
0.0
 48
0.0
 49
0.0
140
0.0
141
0.0
142
1.0
143
1.0
 70
   688
 72
     0
 73
     0
 74
     5
  7

 75
    16
 76
     0
 77
     2
 78
   300
147
1.0
148
0.0
149
0.0
100
AcDbLayout
  1
Layout2
 70
     1
 71
     2
 10
0.0
 20
0.0
 11
0.0
 21
0.0
 12
0.0
 22
0.0
 32
0.0
 14
0.0
 24
0.0
 34
0.0
 15
0.0
 25
0.0
 35
0.0
146
0.0
 13
0.0
 23
0.0
 33
0.0
 16
1.0
 26
0.0
 36
0.0
 17
0.0
 27
1.0
 37
0.0
 76
     0
330
23
  0
LAYOUT
  5
22
102
{ACAD_REACTORS
330
1A
102
}
330
1A
100
AcDbPlotSettings
  1

  2
none_device
  4

  6

 40
0.0
 41
0.0
 42
0.0
 43
0.0
 44
0.0
 45
0.0
 46
0.0
 47
0.0
 48
0.0
 49
0.0
140
0.0
141
0.0
142
1.0
143
1.0
 70
  1712
 72
     0
 73
     0
 74
     0
  7

 75
     0
 76
     0
 77
     2
 78
   300
147
1.0
148
0.0
149
0.0
100
AcDbLayout
  1
Model
 70
     1
 71
     0
 10
0.0
 20
0.0
 11
12.0
 21
9.0
 12
0.0
 22
0.0
 32
0.0
 14
1.000000000000000E+20
 24
1.000000000000000E+20
 34
1.000000000000000E+20
 15
-1.000000000000000E+20
 25
-1.000000000000000E+20
 35
-1.000000000000000E+20
146
0.0
 13
0.0
 23
0.0
 33
0.0
 16
1.0
 26
0.0
 36
0.0
 17
0.0
 27
1.0
 37
0.0
 76
     0
330
1F
331
29
  0
MATERIAL
  5
3D
102
{ACAD_REACTORS
330
3B
102
}
330
3B
100
AcDbMaterial
  1
ByBlock
 72
     1
 94
      127
  0
MATERIAL
  5
3C
102
{ACAD_REACTORS
330
3B
102
}
330
3B
100
AcDbMaterial
  1
ByLayer
 72
     1
 94
      127
  0
MATERIAL
  5
3E
102
{ACAD_REACTORS
330
3B
102
}
330
3B
100
AcDbMaterial
  1
Global
 72
     1
 94
      127
  0
MLINESTYLE
  5
18
102
{ACAD_REACTORS
330
17
102
}
330
17
100
AcDbMlineStyle
  2
Standard
 70
     0
  3

 62
   256
 51
90.0
 52
90.0
 71
     2
 49
0.5
 62
   256
  6
BYLAYER
 49
-0.5
 62
   256
  6
BYLAYER
  0
ACDBPLACEHOLDER
  5
F
102
{ACAD_REACTORS
330
E
102
}
330
E
  0
VISUALSTYLE
  5
2F
102
{ACAD_REACTORS
330
2A
102
}
330
2A
100
AcDbVisualStyle
  2
2dWireframe
 70
     4
177
     2
291
     0
 71
     0
176
     1
 72
     2
176
     1
 73
     0
176
     1
 90
        0
176
     1
 40
-0.6
176
     1
 41
-30.0
176
     1
 62
     5
 63
     7
421
 16777215
176
     1
 74
     1
176
     1
 91
        4
176
     1
 64
     7
176
     1
 65
   257
176
     1
 75
     1
176
     1
175
     1
176
     1
 42
1.0
176
     1
 92
        0
176
     1
 66
   257
176
     1
 43
1.0
176
     1
 76
     1
176
     1
 77
     6
176
     1
 78
     2
176
     1
 67
     7
176
     1
 79
     5
176
     1
170
     0
176
     1
171
     0
176
     1
290
     0
176
     1
 93
        1
176
     1
 44
0.0
176
     1
173
     0
176
     1
  0
VISUALSTYLE
  5
31
102
{ACAD_REACTORS
330
2A
102
}
330
2A
100
AcDbVisualStyle
  2
3D Hidden
 70
     6
177
     2
291
     0
 71
     1
176
     1
 72
     2
176
     1
 73
     2
176
     1
 90
        0
176
     1
 40
-0.6
176
     1
 41
-30.0
176
     1
 62
     5
 63
     7
421
 16777215
176
     1
 74
     2
176
     1
 91
        2
176
     1
 64
     7
176
     1
 65
   257
176
     1
 75
     2
176
     1
175
     1
176
     1
 42
40.0
176
     1
 92
        0
176
     1
 66
   257
176
     1
 43
1.0
176
     1
 76
     1
176
     1
 77
     6
176
     1
 78
     2
176
     1
 67
     7
176
     1
 79
     3
176
     1
170
     0
176
     1
171
     0
176
     1
290
     0
176
     1
 93
        1
176
     1
 44
0.0
176
     1
173
     0
176
     1
  0
VISUALSTYLE
  5
30
102
{ACAD_REACTORS
330
2A
102
}
330
2A
100
AcDbVisualStyle
  2
3dWireframe
 70
     5
177
     2
291
     0
 71
     0
176
     1
 72
     2
176
     1
 73
     0
176
     1
 90
        0
176
     1
 40
-0.6
176
     1
 41
-30.0
176
     1
 62
     5
 63
     7
421
 16777215
176
     1
 74
     1
176
     1
 91
        4
176
     1
 64
     7
176
     1
 65
   257
176
     1
 75
     1
176
     1
175
     1
176
     1
 42
1.0
176
     1
 92
        0
176
     1
 66
   257
176
     1
 43
1.0
176
     1
 76
     1
176
     1
 77
     6
176
     1
 78
     2
176
     1
 67
     7
176
     1
 79
     5
176
     1
170
     0
176
     1
171
     0
176
     1
290
     0
176
     1
 93
        1
176
     1
 44
0.0
176
     1
173
     0
176
     1
  0
VISUALSTYLE
  5
32
102
{ACAD_REACTORS
330
2A
102
}
330
2A
100
AcDbVisualStyle
  2
Basic
 70
     7
177
     2
291
     1
 71
     1
176
     1
 72
     0
176
     1
 73
     1
176
     1
 90
        0
176
     1
 40
-0.6
176
     1
 41
-30.0
176
     1
 62
     5
 63
     7
421
 16777215
176
     1
 74
     0
176
     1
 91
        4
176
     1
 64
     7
176
     1
 65
   257
176
     1
 75
     1
176
     1
175
     1
176
     1
 42
1.0
176
     1
 92
        8
176
     1
 66
     7
176
     1
 43
1.0
176
     1
 76
     1
176
     1
 77
     6
176
     1
 78
     2
176
     1
 67
     7
176
     1
 79
     5
176
     1
170
     0
176
     1
171
     0
176
     1
290
     0
176
     1
 93
        1
176
     1
 44
0.0
176
     1
173
     0
176
     1
  0
VISUALSTYLE
  5
36
102
{ACAD_REACTORS
330
2A
102
}
330
2A
100
AcDbVisualStyle
  2
Brighten
 70
    12
177
     2
291
     1
 71
     2
176
     1
 72
     2
176
     1
 73
     0
176
     1
 90
        0
176
     1
 40
-0.6
176
     1
 41
-30.0
176
     1
 62
     5
 63
     7
421
 16777215
176
     1
 74
     1
176
     1
 91
        4
176
     1
 64
     7
176
     1
 65
   257
176
     1
 75
     1
176
     1
175
     1
176
     1
 42
1.0
176
     1
 92
        8
176
     1
 66
     7
176
     1
 43
1.0
176
     1
 76
     1
176
     1
 77
     6
176
     1
 78
     2
176
     1
 67
     7
176
     1
 79
     5
176
     1
170
     0
176
     1
171
     0
176
     1
290
     0
176
     1
 93
        1
176
     1
 44
50.0
176
     1
173
     0
176
     1
  0
VISUALSTYLE
  5
3A
102
{ACAD_REACTORS
330
2A
102
}
330
2A
100
AcDbVisualStyle
  2
ColorChange
 70
    16
177
     2
291
     1
 71
     2
176
     1
 72
     2
176
     1
 73
     3
176
     1
 90
        0
176
     1
 40
-0.6
176
     1
 41
-30.0
176
     1
 62
     5
 63
     8
421
  8421504
176
     1
 74
     1
176
     1
 91
        4
176
     1
 64
     7
176
     1
 65
   257
176
     1
 75
     1
176
     1
175
     1
176
     1
 42
1.0
176
     1
 92
        8
176
     1
 66
     8
424
  8421504
176
     1
 43
1.0
176
     1
 76
     1
176
     1
 77
     6
176
     1
 78
     2
176
     1
 67
     7
176
     1
 79
     5
176
     1
170
     0
176
     1
171
     0
176
     1
290
     0
176
     1
 93
        1
176
     1
 44
0.0
176
     1
173
     0
176
     1
  0
VISUALSTYLE
  5
34
102
{ACAD_REACTORS
330
2A
102
}
330
2A
100
AcDbVisualStyle
  2
Conceptual
 70
     9
177
     2
291
     0
 71
     3
176
     1
 72
     2
176
     1
 73
     0
176
     1
 90
        0
176
     1
 40
-0.6
176
     1
 41
-30.0
176
     1
 62
     5
 63
     7
421
 16777215
176
     1
 74
     2
176
     1
 91
        2
176
     1
 64
     7
176
     1
 65
   257
176
     1
 75
     1
176
     1
175
     1
176
     1
 42
40.0
176
     1
 92
        8
176
     1
 66
     7
176
     1
 43
1.0
176
     1
 76
     1
176
     1
 77
     6
176
     1
 78
     2
176
     1
 67
     7
176
     1
 79
     3
176
     1
170
     0
176
     1
171
     0
176
     1
290
     0
176
     1
 93
        1
176
     1
 44
0.0
176
     1
173
     0
176
     1
  0
VISUALSTYLE
  5
35
102
{ACAD_REACTORS
330
2A
102
}
330
2A
100
AcDbVisualStyle
  2
Dim
 70
    11
177
     2
291
     1
 71
     2
176
     1
 72
     2
176
     1
 73
     0
176
     1
 90
        0
176
     1
 40
-0.6
176
     1
 41
-30.0
176
     1
 62
     5
 63
     7
421
 16777215
176
     1
 74
     1
176
     1
 91
        4
176
     1
 64
     7
176
     1
 65
   257
176
     1
 75
     1
176
     1
175
     1
176
     1
 42
1.0
176
     1
 92
        8
176
     1
 66
     7
176
     1
 43
1.0
176
     1
 76
     1
176
     1
 77
     6
176
     1
 78
     2
176
     1
 67
     7
176
     1
 79
     5
176
     1
170
     0
176
     1
171
     0
176
     1
290
     0
176
     1
 93
        1
176
     1
 44
-50.0
176
     1
173
     0
176
     1
  0
VISUALSTYLE
  5
39
102
{ACAD_REACTORS
330
2A
102
}
330
2A
100
AcDbVisualStyle
  2
Facepattern
 70
    15
177
     2
291
     1
 71
     2
176
     1
 72
     2
176
     1
 73
     0
176
     1
 90
        0
176
     1
 40
-0.6
176
     1
 41
-30.0
176
     1
 62
     5
 63
     7
421
 16777215
176
     1
 74
     1
176
     1
 91
        4
176
     1
 64
     7
176
     1
 65
   257
176
     1
 75
     1
176
     1
175
     1
176
     1
 42
1.0
176
     1
 92
        8
176
     1
 66
     7
176
     1
 43
1.0
176
     1
 76
     1
176
     1
 77
     6
176
     1
 78
     2
176
     1
 67
     7
176
     1
 79
     5
176
     1
170
     0
176
     1
171
     0
176
     1
290
     0
176
     1
 93
        1
176
     1
 44
0.0
176
     1
173
     0
176
     1
  0
VISUALSTYLE
  5
2B
102
{ACAD_REACTORS
330
2A
102
}
330
2A
100
AcDbVisualStyle
  2
Flat
 70
     0
177
     2
291
     1
 71
     2
176
     1
 72
     1
176
     1
 73
     1
176
     1
 90
        2
176
     1
 40
-0.6
176
     1
 41
30.0
176
     1
 62
     5
 63
     7
421
 16777215
176
     1
 74
     0
176
     1
 91
        4
176
     1
 64
     7
176
     1
 65
   257
176
     1
 75
     1
176
     1
175
     1
176
     1
 42
1.0
176
     1
 92
        8
176
     1
 66
     7
176
     1
 43
1.0
176
     1
 76
     1
176
     1
 77
     6
176
     1
 78
     2
176
     1
 67
     7
176
     1
 79
     5
176
     1
170
     0
176
     1
171
     0
176
     1
290
     0
176
     1
 93
       13
176
     1
 44
0.0
176
     1
173
     0
176
     1
  0
VISUALSTYLE
  5
2C
102
{ACAD_REACTORS
330
2A
102
}
330
2A
100
AcDbVisualStyle
  2
FlatWithEdges
 70
     1
177
     2
291
     1
 71
     2
176
     1
 72
     1
176
     1
 73
     1
176
     1
 90
        2
176
     1
 40
-0.6
176
     1
 41
30.0
176
     1
 62
     5
 63
     7
421
 16777215
176
     1
 74
     1
176
     1
 91
        4
176
     1
 64
     7
176
     1
 65
   257
176
     1
 75
     1
176
     1
175
     1
176
     1
 42
1.0
176
     1
 92
        0
176
     1
 66
   257
176
     1
 43
1.0
176
     1
 76
     1
176
     1
 77
     6
176
     1
 78
     2
176
     1
 67
     7
176
     1
 79
     5
176
     1
170
     0
176
     1
171
     0
176
     1
290
     0
176
     1
 93
       13
176
     1
 44
0.0
176
     1
173
     0
176
     1
  0
VISUALSTYLE
  5
2D
102
{ACAD_REACTORS
330
2A
102
}
330
2A
100
AcDbVisualStyle
  2
Gouraud
 70
     2
177
     2
291
     1
 71
     2
176
     1
 72
     2
176
     1
 73
     1
176
     1
 90
        2
176
     1
 40
-0.6
176
     1
 41
30.0
176
     1
 62
     5
 63
     7
421
 16777215
176
     1
 74
     0
176
     1
 91
        4
176
     1
 64
     7
176
     1
 65
   257
176
     1
 75
     1
176
     1
175
     1
176
     1
 42
1.0
176
     1
 92
        0
176
     1
 66
     7
176
     1
 43
1.0
176
     1
 76
     1
176
     1
 77
     6
176
     1
 78
     2
176
     1
 67
     7
176
     1
 79
     5
176
     1
170
     0
176
     1
171
     0
176
     1
290
     0
176
     1
 93
       13
176
     1
 44
0.0
176
     1
173
     0
176
     1
  0
VISUALSTYLE
  5
2E
102
{ACAD_REACTORS
330
2A
102
}
330
2A
100
AcDbVisualStyle
  2
GouraudWithEdges
 70
     3
177
     2
291
     1
 71
     2
176
     1
 72
     2
176
     1
 73
     1
176
     1
 90
        2
176
     1
 40
-0.6
176
     1
 41
30.0
176
     1
 62
     5
 63
     7
421
 16777215
176
     1
 74
     1
176
     1
 91
        4
176
     1
 64
     7
176
     1
 65
   257
176
     1
 75
     1
176
     1
175
     1
176
     1
 42
1.0
176
     1
 92
        0
176
     1
 66
   257
176
     1
 43
1.0
176
     1
 76
     1
176
     1
 77
     6
176
     1
 78
     2
176
     1
 67
     7
176
     1
 79
     5
176
     1
170
     0
176
     1
171
     0
176
     1
290
     0
176
     1
 93
       13
176
     1
 44
0.0
176
     1
173
     0
176
     1
  0
VISUALSTYLE
  5
38
102
{ACAD_REACTORS
330
2A
102
}
330
2A
100
AcDbVisualStyle
  2
Linepattern
 70
    14
177
     2
291
     1
 71
     2
176
     1
 72
     2
176
     1
 73
     0
176
     1
 90
        0
176
     1
 40
-0.6
176
     1
 41
-30.0
176
     1
 62
     5
 63
     7
421
 16777215
176
     1
 74
     1
176
     1
 91
        4
176
     1
 64
     7
176
     1
 65
   257
176
     1
 75
     7
176
     1
175
     7
176
     1
 42
1.0
176
     1
 92
        8
176
     1
 66
     7
176
     1
 43
1.0
176
     1
 76
     1
176
     1
 77
     6
176
     1
 78
     2
176
     1
 67
     7
176
     1
 79
     5
176
     1
170
     0
176
     1
171
     0
176
     1
290
     0
176
     1
 93
        1
176
     1
 44
0.0
176
     1
173
     0
176
     1
  0
VISUALSTYLE
  5
33
102
{ACAD_REACTORS
330
2A
102
}
330
2A
100
AcDbVisualStyle
  2
Realistic
 70
     8
177
     2
291
     0
 71
     2
176
     1
 72
     2
176
     1
 73
     0
176
     1
 90
        0
176
     1
 40
-0.6
176
     1
 41
-30.0
176
     1
 62
     5
 63
     7
421
 16777215
176
     1
 74
     1
176
     1
 91
        0
176
     1
 64
     7
176
     1
 65
   257
176
     1
 75
     1
176
     1
175
     1
176
     1
 42
1.0
176
     1
 92
        8
176
     1
 66
     8
424
  7895160
176
     1
 43
1.0
176
     1
 76
     1
176
     1
 77
     6
176
     1
 78
     2
176
     1
 67
     7
176
     1
 79
     5
176
     1
170
     0
176
     1
171
     0
176
     1
290
     0
176
     1
 93
       13
176
     1
 44
0.0
176
     1
173
     0
176
     1
  0
VISUALSTYLE
  5
37
102
{ACAD_REACTORS
330
2A
102
}
330
2A
100
AcDbVisualStyle
  2
Thicken
 70
    13
177
     2
291
     1
 71
     2
176
     1
 72
     2
176
     1
 73
     0
176
     1
 90
        0
176
     1
 40
-0.6
176
     1
 41
-30.0
176
     1
 62
     5
 63
     7
421
 16777215
176
     1
 74
     1
176
     1
 91
        4
176
     1
 64
     7
176
     1
 65
   257
176
     1
 75
     1
176
     1
175
     1
176
     1
 42
1.0
176
     1
 92
       12
176
     1
 66
     7
176
     1
 43
1.0
176
     1
 76
     1
176
     1
 77
     6
176
     1
 78
     2
176
     1
 67
     7
176
     1
 79
     5
176
     1
170
     0
176
     1
171
     0
176
     1
290
     0
176
     1
 93
        1
176
     1
 44
0.0
176
     1
173
     0
176
     1
  0
ENDSEC
  0
EOF
