  0
SECTION
  2
HEADER
  9
$ACADVER
  1
AC1024
  9
$ACADMAINTVER
 70
     6
  9
$DWGCODEPAGE
  3
UNDEFINED
  9
$INSBASE
 10
0.0
 20
0.0
 30
0.0
  9
$EXTMIN
 10
1.000000000000000E+20
 20
1.000000000000000E+20
 30
1.000000000000000E+20
  9
$EXTMAX
 10
-1.000000000000000E+20
 20
-1.000000000000000E+20
 30
-1.000000000000000E+20
  9
$LIMMIN
 10
0.0
 20
0.0
  9
$LIMMAX
 10
12.0
 20
9.0
  9
$ORTHOMODE
 70
     0
  9
$REGENMODE
 70
     1
  9
$FILLMODE
 70
     1
  9
$QTEXTMODE
 70
     0
  9
$MIRRTEXT
 70
     1
  9
$LTSCALE
 40
1.0
  9
$ATTMODE
 70
     1
  9
$TEXTSIZE
 40
0.2
  9
$TRACEWID
 40
0.05
  9
$TEXTSTYLE
  7
Standard
  9
$CLAYER
  8
0
  9
$CELTYPE
  6
ByLayer
  9
$CECOLOR
 62
   256
  9
$CELTSCALE
 40
1.0
  9
$DISPSILH
 70
     0
  9
$DIMSCALE
 40
1.0
  9
$DIMASZ
 40
0.18
  9
$DIMEXO
 40
0.0625
  9
$DIMDLI
 40
0.38
  9
$DIMRND
 40
0.0
  9
$DIMDLE
 40
0.0
  9
$DIMEXE
 40
0.18
  9
$DIMTP
 40
0.0
  9
$DIMTM
 40
0.0
  9
$DIMTXT
 40
0.18
  9
$DIMCEN
 40
0.09
  9
$DIMTSZ
 40
0.0
  9
$DIMTOL
 70
     0
  9
$DIMLIM
 70
     0
  9
$DIMTIH
 70
     1
  9
$DIMTOH
 70
     1
  9
$DIMSE1
 70
     0
  9
$DIMSE2
 70
     0
  9
$DIMTAD
 70
     0
  9
$DIMZIN
 70
     0
  9
$DIMBLK
  1

  9
$DIMASO
 70
     1
  9
$DIMSHO
 70
     1
  9
$DIMPOST
  1

  9
$DIMAPOST
  1

  9
$DIMALT
 70
     0
  9
$DIMALTD
 70
     2
  9
$DIMALTF
 40
25.4
  9
$DIMLFAC
 40
1.0
  9
$DIMTOFL
 70
     0
  9
$DIMTVP
 40
0.0
  9
$DIMTIX
 70
     0
  9
$DIMSOXD
 70
     0
  9
$DIMSAH
 70
     0
  9
$DIMBLK1
  1

  9
$DIMBLK2
  1

  9
$DIMSTYLE
  2
Standard
  9
$DIMCLRD
 70
     0
  9
$DIMCLRE
 70
     0
  9
$DIMCLRT
 70
     0
  9
$DIMTFAC
 40
1.0
  9
$DIMGAP
 40
0.09
  9
$DIMJUST
 70
     0
  9
$DIMSD1
 70
     0
  9
$DIMSD2
 70
     0
  9
$DIMTOLJ
 70
     1
  9
$DIMTZIN
 70
     0
  9
$DIMALTZ
 70
     0
  9
$DIMALTTZ
 70
     0
  9
$DIMUPT
 70
     0
  9
$DIMDEC
 70
     4
  9
$DIMTDEC
 70
     4
  9
$DIMALTU
 70
     2
  9
$DIMALTTD
 70
     2
  9
$DIMTXSTY
  7
Standard
  9
$DIMAUNIT
 70
     0
  9
$DIMADEC
 70
     0
  9
$DIMALTRND
 40
0.0
  9
$DIMAZIN
 70
     0
  9
$DIMDSEP
 70
    46
  9
$DIMATFIT
 70
     3
  9
$DIMFRAC
 70
     0
  9
$DIMLDRBLK
  1

  9
$DIMLUNIT
 70
     2
  9
$DIMLWD
 70
    -2
  9
$DIMLWE
 70
    -2
  9
$DIMTMOVE
 70
     0
  9
$DIMFXL
 40
1.0
  9
$DIMFXLON
 70
     0
  9
$DIMJOGANG
 40
0.7853981633974483
  9
$DIMTFILL
 70
     0
  9
$DIMTFILLCLR
 70
     0
  9
$DIMARCSYM
 70
     0
  9
$DIMLTYPE
  6

  9
$DIMLTEX1
  6

  9
$DIMLTEX2
  6

  9
$DIMTXTDIRECTION
 70
     0
  9
$LUNITS
 70
     2
  9
$LUPREC
 70
     4
  9
$SKETCHINC
 40
0.1
  9
$FILLETRAD
 40
0.5
  9
$AUNITS
 70
     0
  9
$AUPREC
 70
     0
  9
$MENU
  1
.
  9
$ELEVATION
 40
0.0
  9
$PELEVATION
 40
0.0
  9
$THICKNESS
 40
0.0
  9
$LIMCHECK
 70
     0
  9
$CHAMFERA
 40
0.5
  9
$CHAMFERB
 40
0.5
  9
$CHAMFERC
 40
1.0
  9
$CHAMFERD
 40
0.0
  9
$SKPOLY
 70
     0
  9
$TDCREATE
 40
2458263.773645822
  9
$TDUCREATE
 40
2458263.398645833
  9
$TDUPDATE
 40
2458263.773645822
  9
$TDUUPDATE
 40
2458263.398645833
  9
$TDINDWG
 40
0.0000000116
  9
$TDUSRTIMER
 40
0.0000000116
  9
$USRTIMER
 70
     1
  9
$ANGBASE
 50
0.0
  9
$ANGDIR
 70
     0
  9
$PDMODE
 70
     0
  9
$PDSIZE
 40
0.0
  9
$PLINEWID
 40
0.0
  9
$SPLFRAME
 70
     0
  9
$SPLINETYPE
 70
     6
  9
$SPLINESEGS
 70
     8
  9
$HANDSEED
  5
D0
  9
$SURFTAB1
 70
     6
  9
$SURFTAB2
 70
     6
  9
$SURFTYPE
 70
     6
  9
$SURFU
 70
     6
  9
$SURFV
 70
     6
  9
$UCSBASE
  2

  9
$UCSNAME
  2

  9
$UCSORG
 10
0.0
 20
0.0
 30
0.0
  9
$UCSXDIR
 10
1.0
 20
0.0
 30
0.0
  9
$UCSYDIR
 10
0.0
 20
1.0
 30
0.0
  9
$UCSORTHOREF
  2

  9
$UCSORTHOVIEW
 70
     0
  9
$UCSORGTOP
 10
0.0
 20
0.0
 30
0.0
  9
$UCSORGBOTTOM
 10
0.0
 20
0.0
 30
0.0
  9
$UCSORGLEFT
 10
0.0
 20
0.0
 30
0.0
  9
$UCSORGRIGHT
 10
0.0
 20
0.0
 30
0.0
  9
$UCSORGFRONT
 10
0.0
 20
0.0
 30
0.0
  9
$UCSORGBACK
 10
0.0
 20
0.0
 30
0.0
  9
$PUCSBASE
  2

  9
$PUCSNAME
  2

  9
$PUCSORG
 10
0.0
 20
0.0
 30
0.0
  9
$PUCSXDIR
 10
1.0
 20
0.0
 30
0.0
  9
$PUCSYDIR
 10
0.0
 20
1.0
 30
0.0
  9
$PUCSORTHOREF
  2

  9
$PUCSORTHOVIEW
 70
     0
  9
$PUCSORGTOP
 10
0.0
 20
0.0
 30
0.0
  9
$PUCSORGBOTTOM
 10
0.0
 20
0.0
 30
0.0
  9
$PUCSORGLEFT
 10
0.0
 20
0.0
 30
0.0
  9
$PUCSORGRIGHT
 10
0.0
 20
0.0
 30
0.0
  9
$PUCSORGFRONT
 10
0.0
 20
0.0
 30
0.0
  9
$PUCSORGBACK
 10
0.0
 20
0.0
 30
0.0
  9
$USERI1
 70
     0
  9
$USERI2
 70
     0
  9
$USERI3
 70
     0
  9
$USERI4
 70
     0
  9
$USERI5
 70
     0
  9
$USERR1
 40
0.0
  9
$USERR2
 40
0.0
  9
$USERR3
 40
0.0
  9
$USERR4
 40
0.0
  9
$USERR5
 40
0.0
  9
$WORLDVIEW
 70
     1
  9
$SHADEDGE
 70
     3
  9
$SHADEDIF
 70
    70
  9
$TILEMODE
 70
     1
  9
$MAXACTVP
 70
    64
  9
$PINSBASE
 10
0.0
 20
0.0
 30
0.0
  9
$PLIMCHECK
 70
     0
  9
$PEXTMIN
 10
1.000000000000000E+20
 20
1.000000000000000E+20
 30
1.000000000000000E+20
  9
$PEXTMAX
 10
-1.000000000000000E+20
 20
-1.000000000000000E+20
 30
-1.000000000000000E+20
  9
$PLIMMIN
 10
0.0
 20
0.0
  9
$PLIMMAX
 10
12.0
 20
9.0
  9
$UNITMODE
 70
     0
  9
$VISRETAIN
 70
     1
  9
$PLINEGEN
 70
     0
  9
$PSLTSCALE
 70
     1
  9
$TREEDEPTH
 70
  3020
  9
$CMLSTYLE
  2
Standard
  9
$CMLJUST
 70
     0
  9
$CMLSCALE
 40
1.0
  9
$PROXYGRAPHICS
 70
     1
  9
$MEASUREMENT
 70
     0
  9
$CELWEIGHT
370
    -1
  9
$ENDCAPS
280
     0
  9
$JOINSTYLE
280
     0
  9
$LWDISPLAY
290
     1
  9
$INSUNITS
 70
     1
  9
$HYPERLINKBASE
  1

  9
$STYLESHEET
  1

  9
$XEDIT
290
     1
  9
$CEPSNTYPE
380
     0
  9
$PSTYLEMODE
290
     1
  9
$FINGERPRINTGUID
  2
{09862702-5E83-B376-DD85-492720D7D36A}
  9
$VERSIONGUID
  2
{FAEB1C32-E019-11D5-929B-00C0DF256EC4}
  9
$EXTNAMES
290
     1
  9
$PSVPSCALE
 40
0.0
  9
$OLESTARTUP
290
     0
  9
$SORTENTS
280
   127
  9
$INDEXCTL
280
     0
  9
$HIDETEXT
280
     1
  9
$XCLIPFRAME
280
     2
  9
$HALOGAP
280
     0
  9
$OBSCOLOR
 70
   257
  9
$OBSLTYPE
280
     0
  9
$INTERSECTIONDISPLAY
280
     0
  9
$INTERSECTIONCOLOR
 70
   257
  9
$DIMASSOC
280
     2
  9
$PROJECTNAME
  1

  9
$CAMERADISPLAY
290
     0
  9
$LENSLENGTH
 40
50.0
  9
$CAMERAHEIGHT
 40
0.0
  9
$STEPSPERSEC
 40
2.0
  9
$STEPSIZE
 40
6.0
  9
$3DDWFPREC
 40
2.0
  9
$PSOLWIDTH
 40
0.25
  9
$PSOLHEIGHT
 40
4.0
  9
$LOFTANG1
 40
1.570796326794897
  9
$LOFTANG2
 40
1.570796326794897
  9
$LOFTMAG1
 40
0.0
  9
$LOFTMAG2
 40
0.0
  9
$LOFTPARAM
 70
     7
  9
$LOFTNORMALS
280
     1
  9
$LATITUDE
 40
37.795
  9
$LONGITUDE
 40
-122.394
  9
$NORTHDIRECTION
 40
0.0
  9
$TIMEZONE
 70
 -8000
  9
$LIGHTGLYPHDISPLAY
280
     1
  9
$TILEMODELIGHTSYNCH
280
     1
  9
$CMATERIAL
347
3C
  9
$SOLIDHIST
280
     1
  9
$SHOWHIST
280
     1
  9
$DWFFRAME
280
     2
  9
$DGNFRAME
280
     2
  9
$REALWORLDSCALE
290
     1
  9
$INTERFERECOLOR
 62
   256
  9
$CSHADOW
280
     0
  9
$SHADOWPLANELOCATION
 40
0.0
  0
ENDSEC
  0
SECTION
  2
CLASSES
  0
CLASS
  1
ACDBDICTIONARYWDFLT
  2
AcDbDictionaryWithDefault
  3
ObjectDBX Classes
 90
        0
 91
        4
280
     0
281
     0
  0
CLASS
  1
VISUALSTYLE
  2
AcDbVisualStyle
  3
ObjectDBX Classes
 90
     4095
 91
        4
280
     0
281
     0
  0
CLASS
  1
MATERIAL
  2
AcDbMaterial
  3
ObjectDBX Classes
 90
     1153
 91
        4
280
     0
281
     0
  0
CLASS
  1
SUN
  2
AcDbSun
  3
SCENEOE
 90
     1024
 91
        4
280
     0
281
     0
  0
ENDSEC
  0
SECTION
  2
TABLES
  0
TABLE
  2
VPORT
  5
8
330
0
100
AcDbSymbolTable
 70
     1
  0
VPORT
  5
29
330
8
100
AcDbSymbolTableRecord
100
AcDbViewportTableRecord
  2
*Active
 70
     0
 10
0.0
 20
0.0
 11
1.0
 21
1.0
 12
0.0
 22
0.0
 13
0.0
 23
0.0
 14
0.5
 24
0.5
 15
0.5
 25
0.5
 16
0.0
 26
0.0
 36
1.0
 17
105.0007777515277
 27
-148.5000416295416
 37
0.0
 40
297.0000832590831
 41
0.7070757462376333
 42
50.0
 43
0.0
 44
0.0
 50
0.0
 51
0.0
 71
     0
 72
   100
 73
     1
 74
     3
 75
     0
 76
     0
 77
     0
 78
     0
281
     0
 65
     1
110
0.0
120
0.0
130
0.0
111
1.0
121
0.0
131
0.0
112
0.0
122
1.0
132
0.0
 79
     0
146
0.0
 60
     3
 61
     5
292
     1
282
     1
141
0.0
142
0.0
 63
   250
361
3F
  0
ENDTAB
  0
TABLE
  2
LTYPE
  5
5
330
0
100
AcDbSymbolTable
 70
     2
  0
LTYPE
  5
14
330
5
100
AcDbSymbolTableRecord
100
AcDbLinetypeTableRecord
  2
ByBlock
 70
     0
  3

 72
    65
 73
     0
 40
0.0
  0
LTYPE
  5
15
330
5
100
AcDbSymbolTableRecord
100
AcDbLinetypeTableRecord
  2
ByLayer
 70
     0
  3

 72
    65
 73
     0
 40
0.0
  0
LTYPE
  5
16
330
5
100
AcDbSymbolTableRecord
100
AcDbLinetypeTableRecord
  2
Continuous
 70
     0
  3
Solid line
 72
    65
 73
     0
 40
0.0
  0
LTYPE
  5
8A
330
5
100
AcDbSymbolTableRecord
100
AcDbLinetypeTableRecord
  2
AI-Linetype-1
 70
     0
  3
Adobe Illustrator Linetype No. 1
 72
    65
 73
     2
 40
1.411111110758333
 49
0.7055555553791667
 74
     0
 49
-0.7055555553791667
 74
     0
  0
ENDTAB
  0
TABLE
  2
LAYER
  5
2
330
0
100
AcDbSymbolTable
 70
     2
  0
LAYER
  5
10
330
2
100
AcDbSymbolTableRecord
100
AcDbLayerTableRecord
  2
0
 70
     0
 62
     7
  6
Continuous
370
    -3
390
F
347
3E
  0
LAYER
  5
40
330
2
100
AcDbSymbolTableRecord
100
AcDbLayerTableRecord
  2
_U+30EC_U+30A4_U+30E4_U+30FC 1
 70
     0
 62
     7
  6
Continuous
370
    -3
390
F
347
3E
  0
ENDTAB
  0
TABLE
  2
STYLE
  5
3
330
0
100
AcDbSymbolTable
 70
     1
  0
STYLE
  5
11
330
3
100
AcDbSymbolTableRecord
100
AcDbTextStyleTableRecord
  2
Standard
 70
     0
 40
0.0
 41
1.0
 50
0.0
 71
     0
 42
0.2
  3
txt
  4

  0
ENDTAB
  0
TABLE
  2
VIEW
  5
6
330
0
100
AcDbSymbolTable
 70
     0
  0
ENDTAB
  0
TABLE
  2
UCS
  5
7
330
0
100
AcDbSymbolTable
 70
     0
  0
ENDTAB
  0
TABLE
  2
APPID
  5
9
330
0
100
AcDbSymbolTable
 70
     1
  0
APPID
  5
12
330
9
100
AcDbSymbolTableRecord
100
AcDbRegAppTableRecord
  2
ACAD
 70
     0
  0
ENDTAB
  0
TABLE
  2
DIMSTYLE
  5
A
330
0
100
AcDbSymbolTable
 70
     1
100
AcDbDimStyleTable
  0
DIMSTYLE
105
27
330
A
100
AcDbSymbolTableRecord
100
AcDbDimStyleTableRecord
  2
Standard
 70
     0
178
     0
340
11
  0
ENDTAB
  0
TABLE
  2
BLOCK_RECORD
  5
1
330
0
100
AcDbSymbolTable
 70
     4
  0
BLOCK_RECORD
  5
1F
330
1
100
AcDbSymbolTableRecord
100
AcDbBlockTableRecord
  2
*Model_Space
340
22
 70
     0
280
     1
281
     0
  0
BLOCK_RECORD
  5
1B
330
1
100
AcDbSymbolTableRecord
100
AcDbBlockTableRecord
  2
*Paper_Space
340
1E
 70
     0
280
     1
281
     0
  0
BLOCK_RECORD
  5
23
330
1
100
AcDbSymbolTableRecord
100
AcDbBlockTableRecord
  2
*Paper_Space0
340
26
 70
     0
280
     1
281
     0
  0
BLOCK_RECORD
  5
6A
330
1
100
AcDbSymbolTableRecord
100
AcDbBlockTableRecord
  2
block 2
340
0
102
{BLKREFS
331
6B
102
}
 70
     0
280
     1
281
     0
  0
BLOCK_RECORD
  5
7E
330
1
100
AcDbSymbolTableRecord
100
AcDbBlockTableRecord
  2
block 3
340
0
102
{BLKREFS
331
7F
102
}
 70
     0
280
     1
281
     0
  0
BLOCK_RECORD
  5
90
330
1
100
AcDbSymbolTableRecord
100
AcDbBlockTableRecord
  2
block 4
340
0
102
{BLKREFS
331
91
102
}
 70
     0
280
     1
281
     0
  0
ENDTAB
  0
ENDSEC
  0
SECTION
  2
BLOCKS
  0
BLOCK
  5
20
330
1F
100
AcDbEntity
  8
0
100
AcDbBlockBegin
  2
*Model_Space
 70
     0
 10
0.0
 20
0.0
 30
0.0
  3
*Model_Space
  1

  0
ENDBLK
  5
21
330
1F
100
AcDbEntity
  8
0
100
AcDbBlockEnd
  0
BLOCK
  5
1C
330
1B
100
AcDbEntity
 67
     1
  8
0
100
AcDbBlockBegin
  2
*Paper_Space
 70
     0
 10
0.0
 20
0.0
 30
0.0
  3
*Paper_Space
  1

  0
ENDBLK
  5
1D
330
1B
100
AcDbEntity
 67
     1
  8
0
100
AcDbBlockEnd
  0
BLOCK
  5
24
330
23
100
AcDbEntity
  8
0
100
AcDbBlockBegin
  2
*Paper_Space0
 70
     0
 10
0.0
 20
0.0
 30
0.0
  3
*Paper_Space0
  1

  0
ENDBLK
  5
25
330
23
100
AcDbEntity
  8
0
100
AcDbBlockEnd
  0
BLOCK
  5
6C
330
6A
100
AcDbEntity
  8
0
100
AcDbBlockBegin
  2
block 2
 70
     0
 10
0.0
 20
0.0
 30
0.0
  3
block 2
  1

  0
SPLINE
  5
6E
330
6A
100
AcDbEntity
  8
_U+30EC_U+30A4_U+30E4_U+30FC 1
370
     0
100
AcDbSpline
210
0.0
220
0.0
230
1.0
 70
    11
 71
     3
 72
    26
 73
    22
 74
     0
 42
0.0000000001
 43
0.0000000001
 12
1.0
 22
0.0
 32
0.0
 13
1.0
 23
0.0
 33
0.0
 40
0.0
 40
0.0
 40
0.0
 40
0.0
 40
1.0
 40
1.0
 40
1.0
 40
2.0
 40
2.0
 40
2.0
 40
3.0
 40
3.0
 40
3.0
 40
4.0
 40
4.0
 40
4.0
 40
5.0
 40
5.0
 40
5.0
 40
6.0
 40
6.0
 40
6.0
 40
7.0
 40
7.0
 40
7.0
 40
7.0
 10
93.69471161937146
 20
-146.9357340127452
 30
0.0
 10
93.69471161937146
 20
-146.9357340127452
 30
0.0
 10
92.59038626157464
 20
-146.9357340127452
 30
0.0
 10
92.59038626157464
 20
-146.9357340127452
 30
0.0
 10
92.59038626157464
 20
-146.9357340127452
 30
0.0
 10
92.59038626157464
 20
-147.2881672808863
 30
0.0
 10
92.59038626157464
 20
-147.2881672808863
 30
0.0
 10
92.59038626157464
 20
-147.2881672808863
 30
0.0
 10
92.44241941048315
 20
-147.2881672808863
 30
0.0
 10
92.44241941048315
 20
-147.2881672808863
 30
0.0
 10
92.42760549989657
 20
-146.9333224459056
 30
0.0
 10
92.26465248344425
 20
-146.883713070918
 30
0.0
 10
92.15044756810822
 20
-146.8520181924537
 30
0.0
 10
92.15044756810822
 20
-146.8520181924537
 30
0.0
 10
92.15044756810822
 20
-146.6959553669718
 30
0.0
 10
92.15044756810822
 20
-146.6959553669718
 30
0.0
 10
92.15044756810822
 20
-146.6959553669718
 30
0.0
 10
93.69471161937146
 20
-146.6959553669718
 30
0.0
 10
93.69471161937146
 20
-146.6959553669718
 30
0.0
 10
93.69471161937146
 20
-146.6959553669718
 30
0.0
 10
93.69471161937146
 20
-146.9357340127452
 30
0.0
 10
93.69471161937146
 20
-146.9357340127452
 30
0.0
  0
HATCH
  5
6F
330
6A
100
AcDbEntity
  8
_U+30EC_U+30A4_U+30E4_U+30FC 1
 62
   179
420
  2234388
100
AcDbHatch
 10
0.0
 20
0.0
 30
0.0
210
0.0
220
0.0
230
1.0
  2
SOLID
 70
     1
 71
     0
 91
        1
 92
        1
 93
        1
 72
     4
 94
        3
 73
     0
 74
     1
 95
       26
 96
       22
 40
0.0
 40
0.0
 40
0.0
 40
0.0
 40
1.0
 40
1.0
 40
1.0
 40
2.0
 40
2.0
 40
2.0
 40
3.0
 40
3.0
 40
3.0
 40
4.0
 40
4.0
 40
4.0
 40
5.0
 40
5.0
 40
5.0
 40
6.0
 40
6.0
 40
6.0
 40
7.0
 40
7.0
 40
7.0
 40
7.0
 10
93.69471161937146
 20
-146.9357340127452
 10
93.69471161937146
 20
-146.9357340127452
 10
92.59038626157464
 20
-146.9357340127452
 10
92.59038626157464
 20
-146.9357340127452
 10
92.59038626157464
 20
-146.9357340127452
 10
92.59038626157464
 20
-147.2881672808863
 10
92.59038626157464
 20
-147.2881672808863
 10
92.59038626157464
 20
-147.2881672808863
 10
92.44241941048315
 20
-147.2881672808863
 10
92.44241941048315
 20
-147.2881672808863
 10
92.42760549989657
 20
-146.9333224459056
 10
92.26465248344425
 20
-146.883713070918
 10
92.15044756810822
 20
-146.8520181924537
 10
92.15044756810822
 20
-146.8520181924537
 10
92.15044756810822
 20
-146.6959553669718
 10
92.15044756810822
 20
-146.6959553669718
 10
92.15044756810822
 20
-146.6959553669718
 10
93.69471161937146
 20
-146.6959553669718
 10
93.69471161937146
 20
-146.6959553669718
 10
93.69471161937146
 20
-146.6959553669718
 10
93.69471161937146
 20
-146.9357340127452
 10
93.69471161937146
 20
-146.9357340127452
 97
        0
 97
        0
 75
     2
 76
     1
 98
        0
  0
SPLINE
  5
70
330
6A
100
AcDbEntity
  8
_U+30EC_U+30A4_U+30E4_U+30FC 1
370
     0
100
AcDbSpline
210
0.0
220
0.0
230
1.0
 70
    11
 71
     3
 72
    53
 73
    49
 74
     0
 42
0.0000000001
 43
0.0000000001
 12
1.0
 22
0.0
 32
0.0
 13
1.0
 23
0.0
 33
0.0
 40
0.0
 40
0.0
 40
0.0
 40
0.0
 40
1.0
 40
1.0
 40
1.0
 40
2.0
 40
2.0
 40
2.0
 40
3.0
 40
3.0
 40
3.0
 40
4.0
 40
4.0
 40
4.0
 40
5.0
 40
5.0
 40
5.0
 40
6.0
 40
6.0
 40
6.0
 40
7.0
 40
7.0
 40
7.0
 40
8.0
 40
8.0
 40
8.0
 40
9.0
 40
9.0
 40
9.0
 40
10.0
 40
10.0
 40
10.0
 40
11.0
 40
11.0
 40
11.0
 40
12.0
 40
12.0
 40
12.0
 40
13.0
 40
13.0
 40
13.0
 40
14.0
 40
14.0
 40
14.0
 40
15.0
 40
15.0
 40
15.0
 40
16.0
 40
16.0
 40
16.0
 40
16.0
 10
93.7455267777789
 20
-145.6462347726162
 30
0.0
 10
93.7455267777789
 20
-145.7296060833593
 30
0.0
 10
93.72847355512691
 20
-145.8384711006932
 30
0.0
 10
93.66508379819831
 20
-145.94664709893
 30
0.0
 10
93.55501299744458
 20
-146.132337745585
 30
0.0
 10
93.42392711423082
 20
-146.1547308662391
 30
0.0
 10
93.3160956255425
 20
-146.1750569296021
 30
0.0
 10
93.3160956255425
 20
-146.1750569296021
 30
0.0
 10
93.3160956255425
 20
-145.9376898506684
 30
0.0
 10
93.3160956255425
 20
-145.9376898506684
 30
0.0
 10
93.51487763504143
 20
-145.8791232274191
 30
0.0
 10
93.54450545621457
 20
-145.7433864653003
 30
0.0
 10
93.54450545621457
 20
-145.6438232057766
 30
0.0
 10
93.54450545621457
 20
-145.4946505712652
 30
0.0
 10
93.44511445146512
 20
-145.3320420643614
 30
0.0
 10
93.21239825143648
 20
-145.3320420643614
 30
0.0
 10
92.95642765688243
 20
-145.3320420643614
 30
0.0
 10
92.88666447330611
 20
-145.5239338828898
 30
0.0
 10
92.88666447330611
 20
-145.6527804540382
 30
0.0
 10
92.88666447330611
 20
-145.6868868993422
 30
0.0
 10
92.88666447330611
 20
-145.8384711006932
 30
0.0
 10
93.01568329922873
 20
-145.9332112265375
 30
0.0
 10
93.01568329922873
 20
-145.9332112265375
 30
0.0
 10
92.99656301928559
 20
-146.1209689304837
 30
0.0
 10
92.99656301928559
 20
-146.1209689304837
 30
0.0
 10
92.99656301928559
 20
-146.1209689304837
 30
0.0
 10
92.15044756810822
 20
-145.9921223593353
 30
0.0
 10
92.15044756810822
 20
-145.9921223593353
 30
0.0
 10
92.15044756810822
 20
-145.9921223593353
 30
0.0
 10
92.15044756810822
 20
-145.1601317996475
 30
0.0
 10
92.15044756810822
 20
-145.1601317996475
 30
0.0
 10
92.15044756810822
 20
-145.1601317996475
 30
0.0
 10
92.34509546302485
 20
-145.1601317996475
 30
0.0
 10
92.34509546302485
 20
-145.1601317996475
 30
0.0
 10
92.34509546302485
 20
-145.1601317996475
 30
0.0
 10
92.34509546302485
 20
-145.8178005277817
 30
0.0
 10
92.34509546302485
 20
-145.8178005277817
 30
0.0
 10
92.34509546302485
 20
-145.8178005277817
 30
0.0
 10
92.76815318861352
 20
-145.8880804756808
 30
0.0
 10
92.76815318861352
 20
-145.8880804756808
 30
0.0
 10
92.7342189980838
 20
-145.822623661461
 30
0.0
 10
92.69408363568066
 20
-145.7344292170386
 30
0.0
 10
92.69408363568066
 20
-145.6076497031814
 30
0.0
 10
92.69408363568066
 20
-145.3365206884923
 30
0.0
 10
92.8802910466584
 20
-145.0833061703264
 30
0.0
 10
93.19327797149334
 20
-145.0833061703264
 30
0.0
 10
93.51074352045913
 20
-145.0833061703264
 30
0.0
 10
93.7455267777789
 20
-145.3227403065513
 30
0.0
 10
93.7455267777789
 20
-145.6462347726162
 30
0.0
  0
HATCH
  5
71
330
6A
100
AcDbEntity
  8
_U+30EC_U+30A4_U+30E4_U+30FC 1
 62
   179
420
  2234388
100
AcDbHatch
 10
0.0
 20
0.0
 30
0.0
210
0.0
220
0.0
230
1.0
  2
SOLID
 70
     1
 71
     0
 91
        1
 92
        1
 93
        1
 72
     4
 94
        3
 73
     0
 74
     1
 95
       53
 96
       49
 40
0.0
 40
0.0
 40
0.0
 40
0.0
 40
1.0
 40
1.0
 40
1.0
 40
2.0
 40
2.0
 40
2.0
 40
3.0
 40
3.0
 40
3.0
 40
4.0
 40
4.0
 40
4.0
 40
5.0
 40
5.0
 40
5.0
 40
6.0
 40
6.0
 40
6.0
 40
7.0
 40
7.0
 40
7.0
 40
8.0
 40
8.0
 40
8.0
 40
9.0
 40
9.0
 40
9.0
 40
10.0
 40
10.0
 40
10.0
 40
11.0
 40
11.0
 40
11.0
 40
12.0
 40
12.0
 40
12.0
 40
13.0
 40
13.0
 40
13.0
 40
14.0
 40
14.0
 40
14.0
 40
15.0
 40
15.0
 40
15.0
 40
16.0
 40
16.0
 40
16.0
 40
16.0
 10
93.7455267777789
 20
-145.6462347726162
 10
93.7455267777789
 20
-145.7296060833593
 10
93.72847355512691
 20
-145.8384711006932
 10
93.66508379819831
 20
-145.94664709893
 10
93.55501299744458
 20
-146.132337745585
 10
93.42392711423082
 20
-146.1547308662391
 10
93.3160956255425
 20
-146.1750569296021
 10
93.3160956255425
 20
-146.1750569296021
 10
93.3160956255425
 20
-145.9376898506684
 10
93.3160956255425
 20
-145.9376898506684
 10
93.51487763504143
 20
-145.8791232274191
 10
93.54450545621457
 20
-145.7433864653003
 10
93.54450545621457
 20
-145.6438232057766
 10
93.54450545621457
 20
-145.4946505712652
 10
93.44511445146512
 20
-145.3320420643614
 10
93.21239825143648
 20
-145.3320420643614
 10
92.95642765688243
 20
-145.3320420643614
 10
92.88666447330611
 20
-145.5239338828898
 10
92.88666447330611
 20
-145.6527804540382
 10
92.88666447330611
 20
-145.6868868993422
 10
92.88666447330611
 20
-145.8384711006932
 10
93.01568329922873
 20
-145.9332112265375
 10
93.01568329922873
 20
-145.9332112265375
 10
92.99656301928559
 20
-146.1209689304837
 10
92.99656301928559
 20
-146.1209689304837
 10
92.99656301928559
 20
-146.1209689304837
 10
92.15044756810822
 20
-145.9921223593353
 10
92.15044756810822
 20
-145.9921223593353
 10
92.15044756810822
 20
-145.9921223593353
 10
92.15044756810822
 20
-145.1601317996475
 10
92.15044756810822
 20
-145.1601317996475
 10
92.15044756810822
 20
-145.1601317996475
 10
92.34509546302485
 20
-145.1601317996475
 10
92.34509546302485
 20
-145.1601317996475
 10
92.34509546302485
 20
-145.1601317996475
 10
92.34509546302485
 20
-145.8178005277817
 10
92.34509546302485
 20
-145.8178005277817
 10
92.34509546302485
 20
-145.8178005277817
 10
92.76815318861352
 20
-145.8880804756808
 10
92.76815318861352
 20
-145.8880804756808
 10
92.7342189980838
 20
-145.822623661461
 10
92.69408363568066
 20
-145.7344292170386
 10
92.69408363568066
 20
-145.6076497031814
 10
92.69408363568066
 20
-145.3365206884923
 10
92.8802910466584
 20
-145.0833061703264
 10
93.19327797149334
 20
-145.0833061703264
 10
93.51074352045913
 20
-145.0833061703264
 10
93.7455267777789
 20
-145.3227403065513
 10
93.7455267777789
 20
-145.6462347726162
 97
        0
 97
        0
 75
     2
 76
     1
 98
        0
  0
ENDBLK
  5
6D
330
6A
100
AcDbEntity
  8
0
100
AcDbBlockEnd
  0
BLOCK
  5
80
330
7E
100
AcDbEntity
  8
0
100
AcDbBlockBegin
  2
block 3
 70
     0
 10
0.0
 20
0.0
 30
0.0
  3
block 3
  1

  0
SPLINE
  5
82
330
7E
100
AcDbEntity
  8
_U+30EC_U+30A4_U+30E4_U+30FC 1
370
     0
100
AcDbSpline
210
0.0
220
0.0
230
1.0
 70
    11
 71
     3
 72
    26
 73
    22
 74
     0
 42
0.0000000001
 43
0.0000000001
 12
1.0
 22
0.0
 32
0.0
 13
1.0
 23
0.0
 33
0.0
 40
0.0
 40
0.0
 40
0.0
 40
0.0
 40
1.0
 40
1.0
 40
1.0
 40
2.0
 40
2.0
 40
2.0
 40
3.0
 40
3.0
 40
3.0
 40
4.0
 40
4.0
 40
4.0
 40
5.0
 40
5.0
 40
5.0
 40
6.0
 40
6.0
 40
6.0
 40
7.0
 40
7.0
 40
7.0
 40
7.0
 10
105.2318196351504
 20
-157.046744752405
 30
0.0
 10
105.2318196351504
 20
-157.046744752405
 30
0.0
 10
105.2318196351504
 20
-155.9422471398339
 30
0.0
 10
105.2318196351504
 20
-155.9422471398339
 30
0.0
 10
105.2318196351504
 20
-155.9422471398339
 30
0.0
 10
104.8793863670093
 20
-155.9422471398339
 30
0.0
 10
104.8793863670093
 20
-155.9422471398339
 30
0.0
 10
104.8793863670093
 20
-155.9422471398339
 30
0.0
 10
104.8793863670093
 20
-155.7941080339681
 30
0.0
 10
104.8793863670093
 20
-155.7941080339681
 30
0.0
 10
105.2342312019901
 20
-155.7796386329301
 30
0.0
 10
105.2838405769777
 20
-155.6166856164778
 30
0.0
 10
105.315535455442
 20
-155.5023084463675
 30
0.0
 10
105.315535455442
 20
-155.5023084463675
 30
0.0
 10
105.4715982809238
 20
-155.5023084463675
 30
0.0
 10
105.4715982809238
 20
-155.5023084463675
 30
0.0
 10
105.4715982809238
 20
-155.5023084463675
 30
0.0
 10
105.4715982809238
 20
-157.046744752405
 30
0.0
 10
105.4715982809238
 20
-157.046744752405
 30
0.0
 10
105.4715982809238
 20
-157.046744752405
 30
0.0
 10
105.2318196351504
 20
-157.046744752405
 30
0.0
 10
105.2318196351504
 20
-157.046744752405
 30
0.0
  0
HATCH
  5
83
330
7E
100
AcDbEntity
  8
_U+30EC_U+30A4_U+30E4_U+30FC 1
 62
   179
420
  2234388
100
AcDbHatch
 10
0.0
 20
0.0
 30
0.0
210
0.0
220
0.0
230
1.0
  2
SOLID
 70
     1
 71
     0
 91
        1
 92
        1
 93
        1
 72
     4
 94
        3
 73
     0
 74
     1
 95
       26
 96
       22
 40
0.0
 40
0.0
 40
0.0
 40
0.0
 40
1.0
 40
1.0
 40
1.0
 40
2.0
 40
2.0
 40
2.0
 40
3.0
 40
3.0
 40
3.0
 40
4.0
 40
4.0
 40
4.0
 40
5.0
 40
5.0
 40
5.0
 40
6.0
 40
6.0
 40
6.0
 40
7.0
 40
7.0
 40
7.0
 40
7.0
 10
105.2318196351504
 20
-157.046744752405
 10
105.2318196351504
 20
-157.046744752405
 10
105.2318196351504
 20
-155.9422471398339
 10
105.2318196351504
 20
-155.9422471398339
 10
105.2318196351504
 20
-155.9422471398339
 10
104.8793863670093
 20
-155.9422471398339
 10
104.8793863670093
 20
-155.9422471398339
 10
104.8793863670093
 20
-155.9422471398339
 10
104.8793863670093
 20
-155.7941080339681
 10
104.8793863670093
 20
-155.7941080339681
 10
105.2342312019901
 20
-155.7796386329301
 10
105.2838405769777
 20
-155.6166856164778
 10
105.315535455442
 20
-155.5023084463675
 10
105.315535455442
 20
-155.5023084463675
 10
105.4715982809238
 20
-155.5023084463675
 10
105.4715982809238
 20
-155.5023084463675
 10
105.4715982809238
 20
-155.5023084463675
 10
105.4715982809238
 20
-157.046744752405
 10
105.4715982809238
 20
-157.046744752405
 10
105.4715982809238
 20
-157.046744752405
 10
105.2318196351504
 20
-157.046744752405
 10
105.2318196351504
 20
-157.046744752405
 97
        0
 97
        0
 75
     2
 76
     1
 98
        0
  0
SPLINE
  5
84
330
7E
100
AcDbEntity
  8
_U+30EC_U+30A4_U+30E4_U+30FC 1
370
     0
100
AcDbSpline
210
0.0
220
0.0
230
1.0
 70
    11
 71
     3
 72
    53
 73
    49
 74
     0
 42
0.0000000001
 43
0.0000000001
 12
1.0
 22
0.0
 32
0.0
 13
1.0
 23
0.0
 33
0.0
 40
0.0
 40
0.0
 40
0.0
 40
0.0
 40
1.0
 40
1.0
 40
1.0
 40
2.0
 40
2.0
 40
2.0
 40
3.0
 40
3.0
 40
3.0
 40
4.0
 40
4.0
 40
4.0
 40
5.0
 40
5.0
 40
5.0
 40
6.0
 40
6.0
 40
6.0
 40
7.0
 40
7.0
 40
7.0
 40
8.0
 40
8.0
 40
8.0
 40
9.0
 40
9.0
 40
9.0
 40
10.0
 40
10.0
 40
10.0
 40
11.0
 40
11.0
 40
11.0
 40
12.0
 40
12.0
 40
12.0
 40
13.0
 40
13.0
 40
13.0
 40
14.0
 40
14.0
 40
14.0
 40
15.0
 40
15.0
 40
15.0
 40
16.0
 40
16.0
 40
16.0
 40
16.0
 10
106.5213188752794
 20
-157.0973876560382
 30
0.0
 10
106.4376030549878
 20
-157.0973876560382
 30
0.0
 10
106.329427056751
 20
-157.0805066881604
 30
0.0
 10
106.2205620394171
 20
-157.0171169312318
 30
0.0
 10
106.0352159023106
 20
-156.9068738757038
 30
0.0
 10
106.0128227816565
 20
-156.7759602472644
 30
0.0
 10
105.9924967182936
 20
-156.668128758576
 30
0.0
 10
105.9924967182936
 20
-156.668128758576
 30
0.0
 10
106.2298637972273
 20
-156.668128758576
 30
0.0
 10
106.2298637972273
 20
-156.668128758576
 30
0.0
 10
106.2884304204765
 20
-156.8669107680749
 30
0.0
 10
106.4241671825954
 20
-156.8965385892481
 30
0.0
 10
106.5237304421191
 20
-156.8965385892481
 30
0.0
 10
106.6729030766304
 20
-156.8965385892481
 30
0.0
 10
106.8358560930827
 20
-156.7969753297244
 30
0.0
 10
106.8358560930827
 20
-156.56443138447
 30
0.0
 10
106.8358560930827
 20
-156.308460789916
 30
0.0
 10
106.6436197650058
 20
-156.2385253515654
 30
0.0
 10
106.5147731938574
 20
-156.2385253515654
 30
0.0
 10
106.4806667485534
 20
-156.2385253515654
 30
0.0
 10
106.329427056751
 20
-156.2385253515654
 30
0.0
 10
106.2343424213581
 20
-156.3677164322623
 30
0.0
 10
106.2343424213581
 20
-156.3677164322623
 30
0.0
 10
106.046584717412
 20
-156.3484238975448
 30
0.0
 10
106.046584717412
 20
-156.3484238975448
 30
0.0
 10
106.046584717412
 20
-156.3484238975448
 30
0.0
 10
106.1754312885603
 20
-155.5023084463675
 30
0.0
 10
106.1754312885603
 20
-155.5023084463675
 30
0.0
 10
106.1754312885603
 20
-155.5023084463675
 30
0.0
 10
107.0074218482481
 20
-155.5023084463675
 30
0.0
 10
107.0074218482481
 20
-155.5023084463675
 30
0.0
 10
107.0074218482481
 20
-155.5023084463675
 30
0.0
 10
107.0074218482481
 20
-155.6969563412841
 30
0.0
 10
107.0074218482481
 20
-155.6969563412841
 30
0.0
 10
107.0074218482481
 20
-155.6969563412841
 30
0.0
 10
106.349753120114
 20
-155.6969563412841
 30
0.0
 10
106.349753120114
 20
-155.6969563412841
 30
0.0
 10
106.349753120114
 20
-155.6969563412841
 30
0.0
 10
106.2794731722149
 20
-156.1200140668728
 30
0.0
 10
106.2794731722149
 20
-156.1200140668728
 30
0.0
 10
106.3449299864346
 20
-156.0862521311173
 30
0.0
 10
106.433124430857
 20
-156.0459445139399
 30
0.0
 10
106.5599039447142
 20
-156.0459445139399
 30
0.0
 10
106.8310329594034
 20
-156.0459445139399
 30
0.0
 10
107.0842474775692
 20
-156.2323241796919
 30
0.0
 10
107.0842474775692
 20
-156.5451388497526
 30
0.0
 10
107.0842474775692
 20
-156.8627766534927
 30
0.0
 10
106.8448133413444
 20
-157.0973876560382
 30
0.0
 10
106.5213188752794
 20
-157.0973876560382
 30
0.0
  0
HATCH
  5
85
330
7E
100
AcDbEntity
  8
_U+30EC_U+30A4_U+30E4_U+30FC 1
 62
   179
420
  2234388
100
AcDbHatch
 10
0.0
 20
0.0
 30
0.0
210
0.0
220
0.0
230
1.0
  2
SOLID
 70
     1
 71
     0
 91
        1
 92
        1
 93
        1
 72
     4
 94
        3
 73
     0
 74
     1
 95
       53
 96
       49
 40
0.0
 40
0.0
 40
0.0
 40
0.0
 40
1.0
 40
1.0
 40
1.0
 40
2.0
 40
2.0
 40
2.0
 40
3.0
 40
3.0
 40
3.0
 40
4.0
 40
4.0
 40
4.0
 40
5.0
 40
5.0
 40
5.0
 40
6.0
 40
6.0
 40
6.0
 40
7.0
 40
7.0
 40
7.0
 40
8.0
 40
8.0
 40
8.0
 40
9.0
 40
9.0
 40
9.0
 40
10.0
 40
10.0
 40
10.0
 40
11.0
 40
11.0
 40
11.0
 40
12.0
 40
12.0
 40
12.0
 40
13.0
 40
13.0
 40
13.0
 40
14.0
 40
14.0
 40
14.0
 40
15.0
 40
15.0
 40
15.0
 40
16.0
 40
16.0
 40
16.0
 40
16.0
 10
106.5213188752794
 20
-157.0973876560382
 10
106.4376030549878
 20
-157.0973876560382
 10
106.329427056751
 20
-157.0805066881604
 10
106.2205620394171
 20
-157.0171169312318
 10
106.0352159023106
 20
-156.9068738757038
 10
106.0128227816565
 20
-156.7759602472644
 10
105.9924967182936
 20
-156.668128758576
 10
105.9924967182936
 20
-156.668128758576
 10
106.2298637972273
 20
-156.668128758576
 10
106.2298637972273
 20
-156.668128758576
 10
106.2884304204765
 20
-156.8669107680749
 10
106.4241671825954
 20
-156.8965385892481
 10
106.5237304421191
 20
-156.8965385892481
 10
106.6729030766304
 20
-156.8965385892481
 10
106.8358560930827
 20
-156.7969753297244
 10
106.8358560930827
 20
-156.56443138447
 10
106.8358560930827
 20
-156.308460789916
 10
106.6436197650058
 20
-156.2385253515654
 10
106.5147731938574
 20
-156.2385253515654
 10
106.4806667485534
 20
-156.2385253515654
 10
106.329427056751
 20
-156.2385253515654
 10
106.2343424213581
 20
-156.3677164322623
 10
106.2343424213581
 20
-156.3677164322623
 10
106.046584717412
 20
-156.3484238975448
 10
106.046584717412
 20
-156.3484238975448
 10
106.046584717412
 20
-156.3484238975448
 10
106.1754312885603
 20
-155.5023084463675
 10
106.1754312885603
 20
-155.5023084463675
 10
106.1754312885603
 20
-155.5023084463675
 10
107.0074218482481
 20
-155.5023084463675
 10
107.0074218482481
 20
-155.5023084463675
 10
107.0074218482481
 20
-155.5023084463675
 10
107.0074218482481
 20
-155.6969563412841
 10
107.0074218482481
 20
-155.6969563412841
 10
107.0074218482481
 20
-155.6969563412841
 10
106.349753120114
 20
-155.6969563412841
 10
106.349753120114
 20
-155.6969563412841
 10
106.349753120114
 20
-155.6969563412841
 10
106.2794731722149
 20
-156.1200140668728
 10
106.2794731722149
 20
-156.1200140668728
 10
106.3449299864346
 20
-156.0862521311173
 10
106.433124430857
 20
-156.0459445139399
 10
106.5599039447142
 20
-156.0459445139399
 10
106.8310329594034
 20
-156.0459445139399
 10
107.0842474775692
 20
-156.2323241796919
 10
107.0842474775692
 20
-156.5451388497526
 10
107.0842474775692
 20
-156.8627766534927
 10
106.8448133413444
 20
-157.0973876560382
 10
106.5213188752794
 20
-157.0973876560382
 97
        0
 97
        0
 75
     2
 76
     1
 98
        0
  0
ENDBLK
  5
81
330
7E
100
AcDbEntity
  8
0
100
AcDbBlockEnd
  0
BLOCK
  5
92
330
90
100
AcDbEntity
  8
0
100
AcDbBlockBegin
  2
block 4
 70
     0
 10
0.0
 20
0.0
 30
0.0
  3
block 4
  1

  0
SPLINE
  5
94
330
90
100
AcDbEntity
  8
_U+30EC_U+30A4_U+30E4_U+30FC 1
370
     0
100
AcDbSpline
210
0.0
220
0.0
230
1.0
 70
    11
 71
     3
 72
    17
 73
    13
 74
     0
 42
0.0000000001
 43
0.0000000001
 12
1.0
 22
0.0
 32
0.0
 13
1.0
 23
0.0
 33
0.0
 40
0.0
 40
0.0
 40
0.0
 40
0.0
 40
1.0
 40
1.0
 40
1.0
 40
2.0
 40
2.0
 40
2.0
 40
3.0
 40
3.0
 40
3.0
 40
4.0
 40
4.0
 40
4.0
 40
4.0
 10
101.6206705475115
 20
-148.5294351842218
 30
0.0
 10
101.5149061161143
 20
-148.4236707528246
 30
0.0
 10
101.4342908817595
 20
-148.3856024477126
 30
0.0
 10
101.3412733036577
 20
-148.3539075692483
 30
0.0
 10
101.3412733036577
 20
-148.3539075692483
 30
0.0
 10
101.4515163591857
 20
-148.1888874955049
 30
0.0
 10
101.4515163591857
 20
-148.1888874955049
 30
0.0
 10
101.5486680518698
 20
-148.2312621699734
 30
0.0
 10
101.6692463938535
 20
-148.3094658374886
 30
0.0
 10
101.7223008643264
 20
-148.3644151104783
 30
0.0
 10
101.7223008643264
 20
-148.3644151104783
 30
0.0
 10
101.6206705475115
 20
-148.5294351842218
 30
0.0
 10
101.6206705475115
 20
-148.5294351842218
 30
0.0
  0
SPLINE
  5
95
330
90
100
AcDbEntity
  8
_U+30EC_U+30A4_U+30E4_U+30FC 1
370
     0
100
AcDbSpline
210
0.0
220
0.0
230
1.0
 70
    11
 71
     3
 72
   182
 73
   178
 74
     0
 42
0.0000000001
 43
0.0000000001
 12
1.0
 22
0.0
 32
0.0
 13
1.0
 23
0.0
 33
0.0
 40
0.0
 40
0.0
 40
0.0
 40
0.0
 40
1.0
 40
1.0
 40
1.0
 40
2.0
 40
2.0
 40
2.0
 40
3.0
 40
3.0
 40
3.0
 40
4.0
 40
4.0
 40
4.0
 40
5.0
 40
5.0
 40
5.0
 40
6.0
 40
6.0
 40
6.0
 40
7.0
 40
7.0
 40
7.0
 40
8.0
 40
8.0
 40
8.0
 40
9.0
 40
9.0
 40
9.0
 40
10.0
 40
10.0
 40
10.0
 40
11.0
 40
11.0
 40
11.0
 40
12.0
 40
12.0
 40
12.0
 40
13.0
 40
13.0
 40
13.0
 40
14.0
 40
14.0
 40
14.0
 40
15.0
 40
15.0
 40
15.0
 40
16.0
 40
16.0
 40
16.0
 40
17.0
 40
17.0
 40
17.0
 40
18.0
 40
18.0
 40
18.0
 40
19.0
 40
19.0
 40
19.0
 40
20.0
 40
20.0
 40
20.0
 40
21.0
 40
21.0
 40
21.0
 40
22.0
 40
22.0
 40
22.0
 40
23.0
 40
23.0
 40
23.0
 40
24.0
 40
24.0
 40
24.0
 40
25.0
 40
25.0
 40
25.0
 40
26.0
 40
26.0
 40
26.0
 40
27.0
 40
27.0
 40
27.0
 40
28.0
 40
28.0
 40
28.0
 40
29.0
 40
29.0
 40
29.0
 40
30.0
 40
30.0
 40
30.0
 40
31.0
 40
31.0
 40
31.0
 40
32.0
 40
32.0
 40
32.0
 40
33.0
 40
33.0
 40
33.0
 40
34.0
 40
34.0
 40
34.0
 40
35.0
 40
35.0
 40
35.0
 40
36.0
 40
36.0
 40
36.0
 40
37.0
 40
37.0
 40
37.0
 40
38.0
 40
38.0
 40
38.0
 40
39.0
 40
39.0
 40
39.0
 40
40.0
 40
40.0
 40
40.0
 40
41.0
 40
41.0
 40
41.0
 40
42.0
 40
42.0
 40
42.0
 40
43.0
 40
43.0
 40
43.0
 40
44.0
 40
44.0
 40
44.0
 40
45.0
 40
45.0
 40
45.0
 40
46.0
 40
46.0
 40
46.0
 40
47.0
 40
47.0
 40
47.0
 40
48.0
 40
48.0
 40
48.0
 40
49.0
 40
49.0
 40
49.0
 40
50.0
 40
50.0
 40
50.0
 40
51.0
 40
51.0
 40
51.0
 40
52.0
 40
52.0
 40
52.0
 40
53.0
 40
53.0
 40
53.0
 40
54.0
 40
54.0
 40
54.0
 40
55.0
 40
55.0
 40
55.0
 40
56.0
 40
56.0
 40
56.0
 40
57.0
 40
57.0
 40
57.0
 40
58.0
 40
58.0
 40
58.0
 40
59.0
 40
59.0
 40
59.0
 40
59.0
 10
102.6655680081878
 20
-149.7076578401773
 30
0.0
 10
102.6655680081878
 20
-149.7076578401773
 30
0.0
 10
102.0289143625136
 20
-149.7076578401773
 30
0.0
 10
102.0289143625136
 20
-149.7076578401773
 30
0.0
 10
101.8153184424281
 20
-149.7076578401773
 30
0.0
 10
101.599310955503
 20
-149.7117919547595
 30
0.0
 10
101.3857150354175
 20
-149.724538808055
 30
0.0
 10
101.3857150354175
 20
-149.724538808055
 30
0.0
 10
101.3857150354175
 20
-149.5174885693915
 30
0.0
 10
101.3857150354175
 20
-149.5174885693915
 30
0.0
 10
101.6079236942161
 20
-149.5298909131384
 30
0.0
 10
101.931418160281
 20
-149.5343695372692
 30
0.0
 10
102.0289143625136
 20
-149.5343695372692
 30
0.0
 10
102.0289143625136
 20
-149.5343695372692
 30
0.0
 10
102.2490559640211
 20
-149.5343695372692
 30
0.0
 10
102.2490559640211
 20
-149.5343695372692
 30
0.0
 10
102.2490559640211
 20
-149.5343695372692
 30
0.0
 10
102.2490559640211
 20
-149.3924316032769
 30
0.0
 10
102.2490559640211
 20
-149.3924316032769
 30
0.0
 10
102.2490559640211
 20
-149.3924316032769
 30
0.0
 10
102.0881700048599
 20
-149.3924316032769
 30
0.0
 10
102.0881700048599
 20
-149.3924316032769
 30
0.0
 10
101.9231499311164
 20
-149.3924316032769
 30
0.0
 10
101.758129857373
 20
-149.3969102274077
 30
0.0
 10
101.5931097836295
 20
-149.4117241379943
 30
0.0
 10
101.5931097836295
 20
-149.4117241379943
 30
0.0
 10
101.5931097836295
 20
-149.2022623324911
 30
0.0
 10
101.5931097836295
 20
-149.2022623324911
 30
0.0
 10
101.7643310292464
 20
-149.2170762430777
 30
0.0
 10
102.0120333946359
 20
-149.22121035766
 30
0.0
 10
102.0881700048599
 20
-149.22121035766
 30
0.0
 10
102.0881700048599
 20
-149.22121035766
 30
0.0
 10
102.2490559640211
 20
-149.22121035766
 30
0.0
 10
102.2490559640211
 20
-149.22121035766
 30
0.0
 10
102.2445773398903
 20
-149.1492078620183
 30
0.0
 10
102.2445773398903
 20
-149.1430066901448
 30
0.0
 10
102.2383761680168
 20
-149.089952219672
 30
0.0
 10
102.2383761680168
 20
-149.089952219672
 30
0.0
 10
102.3779025351694
 20
-149.1047661302585
 30
0.0
 10
102.3779025351694
 20
-149.1047661302585
 30
0.0
 10
102.3779025351694
 20
-149.1047661302585
 30
0.0
 10
102.2786837851942
 20
-148.9335448846416
 30
0.0
 10
102.2786837851942
 20
-148.9335448846416
 30
0.0
 10
102.3251925742451
 20
-148.9397460565151
 30
0.0
 10
102.399262127178
 20
-148.9483587952282
 30
0.0
 10
102.4161430950557
 20
-148.9483587952282
 30
0.0
 10
102.4667859986889
 20
-148.9483587952282
 30
0.0
 10
102.4836669665666
 20
-148.9269992032197
 30
0.0
 10
102.4836669665666
 20
-148.870155127713
 30
0.0
 10
102.4836669665666
 20
-148.870155127713
 30
0.0
 10
102.4836669665666
 20
-148.7325235630773
 30
0.0
 10
102.4836669665666
 20
-148.7325235630773
 30
0.0
 10
102.4836669665666
 20
-148.7325235630773
 30
0.0
 10
102.3779025351694
 20
-148.7325235630773
 30
0.0
 10
102.3779025351694
 20
-148.7325235630773
 30
0.0
 10
102.2445773398903
 20
-148.7325235630773
 30
0.0
 10
102.0881700048599
 20
-148.7325235630773
 30
0.0
 10
101.965524605585
 20
-148.7452704163727
 30
0.0
 10
101.965524605585
 20
-148.7452704163727
 30
0.0
 10
101.965524605585
 20
-148.5549288908127
 30
0.0
 10
101.965524605585
 20
-148.5549288908127
 30
0.0
 10
102.1326117366196
 20
-148.5718098586904
 30
0.0
 10
102.3630886245828
 20
-148.5738769159815
 30
0.0
 10
102.3779025351694
 20
-148.5738769159815
 30
0.0
 10
102.3779025351694
 20
-148.5738769159815
 30
0.0
 10
102.4836669665666
 20
-148.5738769159815
 30
0.0
 10
102.4836669665666
 20
-148.5738769159815
 30
0.0
 10
102.4836669665666
 20
-148.5738769159815
 30
0.0
 10
102.4836669665666
 20
-148.4427910327678
 30
0.0
 10
102.4836669665666
 20
-148.4427910327678
 30
0.0
 10
102.4836669665666
 20
-148.4427910327678
 30
0.0
 10
102.4457709162288
 20
-148.4427910327678
 30
0.0
 10
102.4457709162288
 20
-148.4427910327678
 30
0.0
 10
102.4013291844691
 20
-148.4427910327678
 30
0.0
 10
102.2762722183545
 20
-148.4469251473501
 30
0.0
 10
102.1873887548351
 20
-148.4553656312889
 30
0.0
 10
102.1873887548351
 20
-148.4553656312889
 30
0.0
 10
102.1873887548351
 20
-148.3750949064826
 30
0.0
 10
102.1873887548351
 20
-148.3750949064826
 30
0.0
 10
102.1346787939108
 20
-148.4131632115946
 30
0.0
 10
102.1091850873199
 20
-148.4279771221812
 30
0.0
 10
102.0668104128514
 20
-148.4512315167067
 30
0.0
 10
102.0668104128514
 20
-148.4512315167067
 30
0.0
 10
101.8787081993567
 20
-148.322212690784
 30
0.0
 10
101.8787081993567
 20
-148.322212690784
 30
0.0
 10
101.9569118668719
 20
-148.2882785002543
 30
0.0
 10
102.1136637114508
 20
-148.2248887433257
 30
0.0
 10
102.2700710464811
 20
-148.0810560068165
 30
0.0
 10
102.3524088285786
 20
-148.0026800845271
 30
0.0
 10
102.4309570056423
 20
-147.9181029903642
 30
0.0
 10
102.4836669665666
 20
-147.8164726735494
 30
0.0
 10
102.4836669665666
 20
-147.8164726735494
 30
0.0
 10
102.6951958293609
 20
-147.8779676279611
 30
0.0
 10
102.6951958293609
 20
-147.8779676279611
 30
0.0
 10
102.7141438545298
 20
-147.8843410546088
 30
0.0
 10
102.7248236505341
 20
-147.8927815385476
 30
0.0
 10
102.7248236505341
 20
-147.9053561370688
 30
0.0
 10
102.7248236505341
 20
-147.9224093597208
 30
0.0
 10
102.7120767972387
 20
-147.9286105315942
 30
0.0
 10
102.6869276001963
 20
-147.9413573848897
 30
0.0
 10
102.7671983250027
 20
-148.038681332348
 30
0.0
 10
102.930151341455
 20
-148.1360052798063
 30
0.0
 10
102.9639132772104
 20
-148.1551255597494
 30
0.0
 10
103.1141194403673
 20
-148.2438367684946
 30
0.0
 10
103.2284966104776
 20
-148.2713975323766
 30
0.0
 10
103.3067002779928
 20
-148.2905178123197
 30
0.0
 10
103.3067002779928
 20
-148.2905178123197
 30
0.0
 10
103.1881889933002
 20
-148.4596720006455
 30
0.0
 10
103.1881889933002
 20
-148.4596720006455
 30
0.0
 10
103.103439644363
 20
-148.4300441794724
 30
0.0
 10
103.0527967407299
 20
-148.4110961543035
 30
0.0
 10
102.9342854560373
 20
-148.3454670853095
 30
0.0
 10
102.9342854560373
 20
-148.3454670853095
 30
0.0
 10
102.9342854560373
 20
-148.4553656312889
 30
0.0
 10
102.9342854560373
 20
-148.4553656312889
 30
0.0
 10
102.8519476739398
 20
-148.4469251473501
 30
0.0
 10
102.7248236505341
 20
-148.4427910327678
 30
0.0
 10
102.6721136896098
 20
-148.4427910327678
 30
0.0
 10
102.6721136896098
 20
-148.4427910327678
 30
0.0
 10
102.6721136896098
 20
-148.5738769159815
 30
0.0
 10
102.6721136896098
 20
-148.5738769159815
 30
0.0
 10
102.6721136896098
 20
-148.5738769159815
 30
0.0
 10
102.7926920315935
 20
-148.5738769159815
 30
0.0
 10
102.7926920315935
 20
-148.5738769159815
 30
0.0
 10
102.7947590888846
 20
-148.5738769159815
 30
0.0
 10
103.027303034139
 20
-148.5718098586904
 30
0.0
 10
103.2050699611779
 20
-148.5549288908127
 30
0.0
 10
103.2050699611779
 20
-148.5549288908127
 30
0.0
 10
103.2050699611779
 20
-148.7452704163727
 30
0.0
 10
103.2050699611779
 20
-148.7452704163727
 30
0.0
 10
103.0762233900296
 20
-148.7325235630773
 30
0.0
 10
102.9194715454507
 20
-148.7325235630773
 30
0.0
 10
102.7926920315935
 20
-148.7325235630773
 30
0.0
 10
102.7926920315935
 20
-148.7325235630773
 30
0.0
 10
102.6721136896098
 20
-148.7325235630773
 30
0.0
 10
102.6721136896098
 20
-148.7325235630773
 30
0.0
 10
102.6721136896098
 20
-148.7325235630773
 30
0.0
 10
102.6721136896098
 20
-148.9586940816839
 30
0.0
 10
102.6721136896098
 20
-148.9586940816839
 30
0.0
 10
102.6721136896098
 20
-149.0772053663765
 30
0.0
 10
102.6466199830189
 20
-149.1133788689717
 30
0.0
 10
102.4857340238577
 20
-149.1281927795582
 30
0.0
 10
102.4902126479886
 20
-149.1471408047271
 30
0.0
 10
102.4836669665666
 20
-149.1578206007314
 30
0.0
 10
102.4457709162288
 20
-149.1809027404826
 30
0.0
 10
102.4433593493892
 20
-149.1998507656514
 30
0.0
 10
102.4433593493892
 20
-149.2063964470734
 30
0.0
 10
102.441292292098
 20
-149.22121035766
 30
0.0
 10
102.441292292098
 20
-149.22121035766
 30
0.0
 10
102.579096111508
 20
-149.22121035766
 30
0.0
 10
102.579096111508
 20
-149.22121035766
 30
0.0
 10
102.7437716757029
 20
-149.22121035766
 30
0.0
 10
102.9112033162861
 20
-149.2170762430777
 30
0.0
 10
103.0782904473207
 20
-149.2022623324911
 30
0.0
 10
103.0782904473207
 20
-149.2022623324911
 30
0.0
 10
103.0782904473207
 20
-149.4093125711546
 30
0.0
 10
103.0782904473207
 20
-149.4093125711546
 30
0.0
 10
102.8622829603955
 20
-149.3924316032769
 30
0.0
 10
102.5980441366769
 20
-149.3924316032769
 30
0.0
 10
102.579096111508
 20
-149.3924316032769
 30
0.0
 10
102.579096111508
 20
-149.3924316032769
 30
0.0
 10
102.4392252348069
 20
-149.3924316032769
 30
0.0
 10
102.4392252348069
 20
-149.3924316032769
 30
0.0
 10
102.4392252348069
 20
-149.3924316032769
 30
0.0
 10
102.4392252348069
 20
-149.5343695372692
 30
0.0
 10
102.4392252348069
 20
-149.5343695372692
 30
0.0
 10
102.4392252348069
 20
-149.5343695372692
 30
0.0
 10
102.6655680081878
 20
-149.5343695372692
 30
0.0
 10
102.6655680081878
 20
-149.5343695372692
 30
0.0
 10
102.8815754951129
 20
-149.5343695372692
 30
0.0
 10
103.0993055297807
 20
-149.5298909131384
 30
0.0
 10
103.3149685071574
 20
-149.5174885693915
 30
0.0
 10
103.3149685071574
 20
-149.5174885693915
 30
0.0
 10
103.3149685071574
 20
-149.724538808055
 30
0.0
 10
103.3149685071574
 20
-149.724538808055
 30
0.0
 10
103.033848715561
 20
-149.7076578401773
 30
0.0
 10
102.6889946574875
 20
-149.7076578401773
 30
0.0
 10
102.6655680081878
 20
-149.7076578401773
 30
0.0
  0
SPLINE
  5
96
330
90
100
AcDbEntity
  8
_U+30EC_U+30A4_U+30E4_U+30FC 1
370
     0
100
AcDbSpline
210
0.0
220
0.0
230
1.0
 70
    11
 71
     3
 72
    23
 73
    19
 74
     0
 42
0.0000000001
 43
0.0000000001
 12
1.0
 22
0.0
 32
0.0
 13
1.0
 23
0.0
 33
0.0
 40
0.0
 40
0.0
 40
0.0
 40
0.0
 40
1.0
 40
1.0
 40
1.0
 40
2.0
 40
2.0
 40
2.0
 40
3.0
 40
3.0
 40
3.0
 40
4.0
 40
4.0
 40
4.0
 40
5.0
 40
5.0
 40
5.0
 40
6.0
 40
6.0
 40
6.0
 40
6.0
 10
101.5466009945786
 20
-149.0792724236677
 30
0.0
 10
101.5466009945786
 20
-149.1006320156762
 30
0.0
 10
101.5486680518698
 20
-149.138528066014
 30
0.0
 10
101.5231743452789
 20
-149.138528066014
 30
0.0
 10
101.5128390588232
 20
-149.138528066014
 30
0.0
 10
101.5042263201101
 20
-149.1323268941405
 30
0.0
 10
101.4935465241058
 20
-149.1154459262628
 30
0.0
 10
101.4935465241058
 20
-149.1154459262628
 30
0.0
 10
101.3898491499998
 20
-148.9335448846416
 30
0.0
 10
101.3898491499998
 20
-148.9335448846416
 30
0.0
 10
101.6058566369249
 20
-148.804526058719
 30
0.0
 10
101.8025715891327
 20
-148.5273681269307
 30
0.0
 10
101.8490803781836
 20
-148.4553656312889
 30
0.0
 10
101.8490803781836
 20
-148.4553656312889
 30
0.0
 10
101.9210828738253
 20
-148.635199615619
 30
0.0
 10
101.9210828738253
 20
-148.635199615619
 30
0.0
 10
101.7877576785461
 20
-148.832086822601
 30
0.0
 10
101.6120578087984
 20
-149.0158826667391
 30
0.0
 10
101.5466009945786
 20
-149.0792724236677
 30
0.0
  0
SPLINE
  5
97
330
90
100
AcDbEntity
  8
_U+30EC_U+30A4_U+30E4_U+30FC 1
370
     0
100
AcDbSpline
210
0.0
220
0.0
230
1.0
 70
    11
 71
     3
 72
    17
 73
    13
 74
     0
 42
0.0000000001
 43
0.0000000001
 12
1.0
 22
0.0
 32
0.0
 13
1.0
 23
0.0
 33
0.0
 40
0.0
 40
0.0
 40
0.0
 40
0.0
 40
1.0
 40
1.0
 40
1.0
 40
2.0
 40
2.0
 40
2.0
 40
3.0
 40
3.0
 40
3.0
 40
4.0
 40
4.0
 40
4.0
 40
4.0
 10
101.8005045318415
 20
-148.1845811261483
 30
0.0
 10
101.7391818322041
 20
-148.1084445159243
 30
0.0
 10
101.6099907515072
 20
-148.0323079057003
 30
0.0
 10
101.5062933774012
 20
-148.0026800845271
 30
0.0
 10
101.5062933774012
 20
-148.0026800845271
 30
0.0
 10
101.6017225223426
 20
-147.8376600107837
 30
0.0
 10
101.6017225223426
 20
-147.8376600107837
 30
0.0
 10
101.703008329609
 20
-147.8736612586045
 30
0.0
 10
101.8087727610061
 20
-147.9308498436596
 30
0.0
 10
101.8976562245256
 20
-148.011120568466
 30
0.0
 10
101.8976562245256
 20
-148.011120568466
 30
0.0
 10
101.8005045318415
 20
-148.1845811261483
 30
0.0
 10
101.8005045318415
 20
-148.1845811261483
 30
0.0
  0
SPLINE
  5
98
330
90
100
AcDbEntity
  8
_U+30EC_U+30A4_U+30E4_U+30FC 1
370
     0
100
AcDbSpline
210
0.0
220
0.0
230
1.0
 70
    11
 71
     3
 72
    23
 73
    19
 74
     0
 42
0.0000000001
 43
0.0000000001
 12
1.0
 22
0.0
 32
0.0
 13
1.0
 23
0.0
 33
0.0
 40
0.0
 40
0.0
 40
0.0
 40
0.0
 40
1.0
 40
1.0
 40
1.0
 40
2.0
 40
2.0
 40
2.0
 40
3.0
 40
3.0
 40
3.0
 40
4.0
 40
4.0
 40
4.0
 40
5.0
 40
5.0
 40
5.0
 40
6.0
 40
6.0
 40
6.0
 40
6.0
 10
102.2531900786034
 20
-148.8891031528819
 30
0.0
 10
102.2318304865948
 20
-148.9121852926331
 30
0.0
 10
102.1346787939108
 20
-149.0244954054522
 30
0.0
 10
101.9951524267582
 20
-149.1047661302585
 30
0.0
 10
101.9951524267582
 20
-149.1047661302585
 30
0.0
 10
101.8280652957235
 20
-148.9841877882748
 30
0.0
 10
101.8280652957235
 20
-148.9841877882748
 30
0.0
 10
101.9782714588804
 20
-148.9080511780508
 30
0.0
 10
102.0774902088556
 20
-148.8129665426579
 30
0.0
 10
102.1260660551977
 20
-148.7600843269593
 30
0.0
 10
102.1260660551977
 20
-148.7600843269593
 30
0.0
 10
102.2996988676542
 20
-148.842594363831
 30
0.0
 10
102.2996988676542
 20
-148.842594363831
 30
0.0
 10
102.3083116063674
 20
-148.8467284784133
 30
0.0
 10
102.316579835532
 20
-148.853101905061
 30
0.0
 10
102.316579835532
 20
-148.8637817010653
 30
0.0
 10
102.316579835532
 20
-148.8891031528819
 30
0.0
 10
102.2807508424854
 20
-148.8891031528819
 30
0.0
 10
102.2531900786034
 20
-148.8891031528819
 30
0.0
  0
SPLINE
  5
99
330
90
100
AcDbEntity
  8
_U+30EC_U+30A4_U+30E4_U+30FC 1
370
     0
100
AcDbSpline
210
0.0
220
0.0
230
1.0
 70
    11
 71
     3
 72
    20
 73
    16
 74
     0
 42
0.0000000001
 43
0.0000000001
 12
1.0
 22
0.0
 32
0.0
 13
1.0
 23
0.0
 33
0.0
 40
0.0
 40
0.0
 40
0.0
 40
0.0
 40
1.0
 40
1.0
 40
1.0
 40
2.0
 40
2.0
 40
2.0
 40
3.0
 40
3.0
 40
3.0
 40
4.0
 40
4.0
 40
4.0
 40
5.0
 40
5.0
 40
5.0
 40
5.0
 10
102.551535347626
 20
-148.0471218162868
 30
0.0
 10
102.5132947877397
 20
-148.0958699174031
 30
0.0
 10
102.4519720881023
 20
-148.1740735849183
 30
0.0
 10
102.3124457209497
 20
-148.284144385672
 30
0.0
 10
102.392716445756
 20
-148.2882785002543
 30
0.0
 10
102.4223442669291
 20
-148.2882785002543
 30
0.0
 10
102.4457709162288
 20
-148.2882785002543
 30
0.0
 10
102.4457709162288
 20
-148.2882785002543
 30
0.0
 10
102.6741807469009
 20
-148.2882785002543
 30
0.0
 10
102.6741807469009
 20
-148.2882785002543
 30
0.0
 10
102.7058756253652
 20
-148.2882785002543
 30
0.0
 10
102.7544514717072
 20
-148.2862114429632
 30
0.0
 10
102.8285210246401
 20
-148.284144385672
 30
0.0
 10
102.7165554213695
 20
-148.2100748327392
 30
0.0
 10
102.6676350654789
 20
-148.1635660436883
 30
0.0
 10
102.551535347626
 20
-148.0471218162868
 30
0.0
  0
SPLINE
  5
9A
330
90
100
AcDbEntity
  8
_U+30EC_U+30A4_U+30E4_U+30FC 1
370
     0
100
AcDbSpline
210
0.0
220
0.0
230
1.0
 70
    11
 71
     3
 72
    17
 73
    13
 74
     0
 42
0.0000000001
 43
0.0000000001
 12
1.0
 22
0.0
 32
0.0
 13
1.0
 23
0.0
 33
0.0
 40
0.0
 40
0.0
 40
0.0
 40
0.0
 40
1.0
 40
1.0
 40
1.0
 40
2.0
 40
2.0
 40
2.0
 40
3.0
 40
3.0
 40
3.0
 40
4.0
 40
4.0
 40
4.0
 40
4.0
 10
103.1120523830762
 20
-149.1026990729674
 30
0.0
 10
102.9766601305058
 20
-148.9907334696968
 30
0.0
 10
102.8708956991087
 20
-148.9269992032197
 30
0.0
 10
102.7523844144161
 20
-148.8637817010653
 30
0.0
 10
102.7523844144161
 20
-148.8637817010653
 30
0.0
 10
102.8791639282733
 20
-148.7516438430204
 30
0.0
 10
102.8791639282733
 20
-148.7516438430204
 30
0.0
 10
103.0104220662613
 20
-148.7981526320713
 30
0.0
 10
103.1206651217893
 20
-148.8553412171264
 30
0.0
 10
103.2453775783553
 20
-148.9566270243928
 30
0.0
 10
103.2453775783553
 20
-148.9566270243928
 30
0.0
 10
103.1120523830762
 20
-149.1026990729674
 30
0.0
 10
103.1120523830762
 20
-149.1026990729674
 30
0.0
  0
HATCH
  5
9B
330
90
100
AcDbEntity
  8
_U+30EC_U+30A4_U+30E4_U+30FC 1
 62
   179
420
  2234388
100
AcDbHatch
 10
0.0
 20
0.0
 30
0.0
210
0.0
220
0.0
230
1.0
  2
SOLID
 70
     1
 71
     0
 91
        7
 92
        1
 93
        1
 72
     4
 94
        3
 73
     0
 74
     1
 95
       17
 96
       13
 40
0.0
 40
0.0
 40
0.0
 40
0.0
 40
1.0
 40
1.0
 40
1.0
 40
2.0
 40
2.0
 40
2.0
 40
3.0
 40
3.0
 40
3.0
 40
4.0
 40
4.0
 40
4.0
 40
4.0
 10
101.6206705475115
 20
-148.5294351842218
 10
101.5149061161143
 20
-148.4236707528246
 10
101.4342908817595
 20
-148.3856024477126
 10
101.3412733036577
 20
-148.3539075692483
 10
101.3412733036577
 20
-148.3539075692483
 10
101.4515163591857
 20
-148.1888874955049
 10
101.4515163591857
 20
-148.1888874955049
 10
101.5486680518698
 20
-148.2312621699734
 10
101.6692463938535
 20
-148.3094658374886
 10
101.7223008643264
 20
-148.3644151104783
 10
101.7223008643264
 20
-148.3644151104783
 10
101.6206705475115
 20
-148.5294351842218
 10
101.6206705475115
 20
-148.5294351842218
 97
        0
 97
        0
 92
        1
 93
        1
 72
     4
 94
        3
 73
     0
 74
     1
 95
      182
 96
      178
 40
0.0
 40
0.0
 40
0.0
 40
0.0
 40
1.0
 40
1.0
 40
1.0
 40
2.0
 40
2.0
 40
2.0
 40
3.0
 40
3.0
 40
3.0
 40
4.0
 40
4.0
 40
4.0
 40
5.0
 40
5.0
 40
5.0
 40
6.0
 40
6.0
 40
6.0
 40
7.0
 40
7.0
 40
7.0
 40
8.0
 40
8.0
 40
8.0
 40
9.0
 40
9.0
 40
9.0
 40
10.0
 40
10.0
 40
10.0
 40
11.0
 40
11.0
 40
11.0
 40
12.0
 40
12.0
 40
12.0
 40
13.0
 40
13.0
 40
13.0
 40
14.0
 40
14.0
 40
14.0
 40
15.0
 40
15.0
 40
15.0
 40
16.0
 40
16.0
 40
16.0
 40
17.0
 40
17.0
 40
17.0
 40
18.0
 40
18.0
 40
18.0
 40
19.0
 40
19.0
 40
19.0
 40
20.0
 40
20.0
 40
20.0
 40
21.0
 40
21.0
 40
21.0
 40
22.0
 40
22.0
 40
22.0
 40
23.0
 40
23.0
 40
23.0
 40
24.0
 40
24.0
 40
24.0
 40
25.0
 40
25.0
 40
25.0
 40
26.0
 40
26.0
 40
26.0
 40
27.0
 40
27.0
 40
27.0
 40
28.0
 40
28.0
 40
28.0
 40
29.0
 40
29.0
 40
29.0
 40
30.0
 40
30.0
 40
30.0
 40
31.0
 40
31.0
 40
31.0
 40
32.0
 40
32.0
 40
32.0
 40
33.0
 40
33.0
 40
33.0
 40
34.0
 40
34.0
 40
34.0
 40
35.0
 40
35.0
 40
35.0
 40
36.0
 40
36.0
 40
36.0
 40
37.0
 40
37.0
 40
37.0
 40
38.0
 40
38.0
 40
38.0
 40
39.0
 40
39.0
 40
39.0
 40
40.0
 40
40.0
 40
40.0
 40
41.0
 40
41.0
 40
41.0
 40
42.0
 40
42.0
 40
42.0
 40
43.0
 40
43.0
 40
43.0
 40
44.0
 40
44.0
 40
44.0
 40
45.0
 40
45.0
 40
45.0
 40
46.0
 40
46.0
 40
46.0
 40
47.0
 40
47.0
 40
47.0
 40
48.0
 40
48.0
 40
48.0
 40
49.0
 40
49.0
 40
49.0
 40
50.0
 40
50.0
 40
50.0
 40
51.0
 40
51.0
 40
51.0
 40
52.0
 40
52.0
 40
52.0
 40
53.0
 40
53.0
 40
53.0
 40
54.0
 40
54.0
 40
54.0
 40
55.0
 40
55.0
 40
55.0
 40
56.0
 40
56.0
 40
56.0
 40
57.0
 40
57.0
 40
57.0
 40
58.0
 40
58.0
 40
58.0
 40
59.0
 40
59.0
 40
59.0
 40
59.0
 10
102.6655680081878
 20
-149.7076578401773
 10
102.6655680081878
 20
-149.7076578401773
 10
102.0289143625136
 20
-149.7076578401773
 10
102.0289143625136
 20
-149.7076578401773
 10
101.8153184424281
 20
-149.7076578401773
 10
101.599310955503
 20
-149.7117919547595
 10
101.3857150354175
 20
-149.724538808055
 10
101.3857150354175
 20
-149.724538808055
 10
101.3857150354175
 20
-149.5174885693915
 10
101.3857150354175
 20
-149.5174885693915
 10
101.6079236942161
 20
-149.5298909131384
 10
101.931418160281
 20
-149.5343695372692
 10
102.0289143625136
 20
-149.5343695372692
 10
102.0289143625136
 20
-149.5343695372692
 10
102.2490559640211
 20
-149.5343695372692
 10
102.2490559640211
 20
-149.5343695372692
 10
102.2490559640211
 20
-149.5343695372692
 10
102.2490559640211
 20
-149.3924316032769
 10
102.2490559640211
 20
-149.3924316032769
 10
102.2490559640211
 20
-149.3924316032769
 10
102.0881700048599
 20
-149.3924316032769
 10
102.0881700048599
 20
-149.3924316032769
 10
101.9231499311164
 20
-149.3924316032769
 10
101.758129857373
 20
-149.3969102274077
 10
101.5931097836295
 20
-149.4117241379943
 10
101.5931097836295
 20
-149.4117241379943
 10
101.5931097836295
 20
-149.2022623324911
 10
101.5931097836295
 20
-149.2022623324911
 10
101.7643310292464
 20
-149.2170762430777
 10
102.0120333946359
 20
-149.22121035766
 10
102.0881700048599
 20
-149.22121035766
 10
102.0881700048599
 20
-149.22121035766
 10
102.2490559640211
 20
-149.22121035766
 10
102.2490559640211
 20
-149.22121035766
 10
102.2445773398903
 20
-149.1492078620183
 10
102.2445773398903
 20
-149.1430066901448
 10
102.2383761680168
 20
-149.089952219672
 10
102.2383761680168
 20
-149.089952219672
 10
102.3779025351694
 20
-149.1047661302585
 10
102.3779025351694
 20
-149.1047661302585
 10
102.3779025351694
 20
-149.1047661302585
 10
102.2786837851942
 20
-148.9335448846416
 10
102.2786837851942
 20
-148.9335448846416
 10
102.3251925742451
 20
-148.9397460565151
 10
102.399262127178
 20
-148.9483587952282
 10
102.4161430950557
 20
-148.9483587952282
 10
102.4667859986889
 20
-148.9483587952282
 10
102.4836669665666
 20
-148.9269992032197
 10
102.4836669665666
 20
-148.870155127713
 10
102.4836669665666
 20
-148.870155127713
 10
102.4836669665666
 20
-148.7325235630773
 10
102.4836669665666
 20
-148.7325235630773
 10
102.4836669665666
 20
-148.7325235630773
 10
102.3779025351694
 20
-148.7325235630773
 10
102.3779025351694
 20
-148.7325235630773
 10
102.2445773398903
 20
-148.7325235630773
 10
102.0881700048599
 20
-148.7325235630773
 10
101.965524605585
 20
-148.7452704163727
 10
101.965524605585
 20
-148.7452704163727
 10
101.965524605585
 20
-148.5549288908127
 10
101.965524605585
 20
-148.5549288908127
 10
102.1326117366196
 20
-148.5718098586904
 10
102.3630886245828
 20
-148.5738769159815
 10
102.3779025351694
 20
-148.5738769159815
 10
102.3779025351694
 20
-148.5738769159815
 10
102.4836669665666
 20
-148.5738769159815
 10
102.4836669665666
 20
-148.5738769159815
 10
102.4836669665666
 20
-148.5738769159815
 10
102.4836669665666
 20
-148.4427910327678
 10
102.4836669665666
 20
-148.4427910327678
 10
102.4836669665666
 20
-148.4427910327678
 10
102.4457709162288
 20
-148.4427910327678
 10
102.4457709162288
 20
-148.4427910327678
 10
102.4013291844691
 20
-148.4427910327678
 10
102.2762722183545
 20
-148.4469251473501
 10
102.1873887548351
 20
-148.4553656312889
 10
102.1873887548351
 20
-148.4553656312889
 10
102.1873887548351
 20
-148.3750949064826
 10
102.1873887548351
 20
-148.3750949064826
 10
102.1346787939108
 20
-148.4131632115946
 10
102.1091850873199
 20
-148.4279771221812
 10
102.0668104128514
 20
-148.4512315167067
 10
102.0668104128514
 20
-148.4512315167067
 10
101.8787081993567
 20
-148.322212690784
 10
101.8787081993567
 20
-148.322212690784
 10
101.9569118668719
 20
-148.2882785002543
 10
102.1136637114508
 20
-148.2248887433257
 10
102.2700710464811
 20
-148.0810560068165
 10
102.3524088285786
 20
-148.0026800845271
 10
102.4309570056423
 20
-147.9181029903642
 10
102.4836669665666
 20
-147.8164726735494
 10
102.4836669665666
 20
-147.8164726735494
 10
102.6951958293609
 20
-147.8779676279611
 10
102.6951958293609
 20
-147.8779676279611
 10
102.7141438545298
 20
-147.8843410546088
 10
102.7248236505341
 20
-147.8927815385476
 10
102.7248236505341
 20
-147.9053561370688
 10
102.7248236505341
 20
-147.9224093597208
 10
102.7120767972387
 20
-147.9286105315942
 10
102.6869276001963
 20
-147.9413573848897
 10
102.7671983250027
 20
-148.038681332348
 10
102.930151341455
 20
-148.1360052798063
 10
102.9639132772104
 20
-148.1551255597494
 10
103.1141194403673
 20
-148.2438367684946
 10
103.2284966104776
 20
-148.2713975323766
 10
103.3067002779928
 20
-148.2905178123197
 10
103.3067002779928
 20
-148.2905178123197
 10
103.1881889933002
 20
-148.4596720006455
 10
103.1881889933002
 20
-148.4596720006455
 10
103.103439644363
 20
-148.4300441794724
 10
103.0527967407299
 20
-148.4110961543035
 10
102.9342854560373
 20
-148.3454670853095
 10
102.9342854560373
 20
-148.3454670853095
 10
102.9342854560373
 20
-148.4553656312889
 10
102.9342854560373
 20
-148.4553656312889
 10
102.8519476739398
 20
-148.4469251473501
 10
102.7248236505341
 20
-148.4427910327678
 10
102.6721136896098
 20
-148.4427910327678
 10
102.6721136896098
 20
-148.4427910327678
 10
102.6721136896098
 20
-148.5738769159815
 10
102.6721136896098
 20
-148.5738769159815
 10
102.6721136896098
 20
-148.5738769159815
 10
102.7926920315935
 20
-148.5738769159815
 10
102.7926920315935
 20
-148.5738769159815
 10
102.7947590888846
 20
-148.5738769159815
 10
103.027303034139
 20
-148.5718098586904
 10
103.2050699611779
 20
-148.5549288908127
 10
103.2050699611779
 20
-148.5549288908127
 10
103.2050699611779
 20
-148.7452704163727
 10
103.2050699611779
 20
-148.7452704163727
 10
103.0762233900296
 20
-148.7325235630773
 10
102.9194715454507
 20
-148.7325235630773
 10
102.7926920315935
 20
-148.7325235630773
 10
102.7926920315935
 20
-148.7325235630773
 10
102.6721136896098
 20
-148.7325235630773
 10
102.6721136896098
 20
-148.7325235630773
 10
102.6721136896098
 20
-148.7325235630773
 10
102.6721136896098
 20
-148.9586940816839
 10
102.6721136896098
 20
-148.9586940816839
 10
102.6721136896098
 20
-149.0772053663765
 10
102.6466199830189
 20
-149.1133788689717
 10
102.4857340238577
 20
-149.1281927795582
 10
102.4902126479886
 20
-149.1471408047271
 10
102.4836669665666
 20
-149.1578206007314
 10
102.4457709162288
 20
-149.1809027404826
 10
102.4433593493892
 20
-149.1998507656514
 10
102.4433593493892
 20
-149.2063964470734
 10
102.441292292098
 20
-149.22121035766
 10
102.441292292098
 20
-149.22121035766
 10
102.579096111508
 20
-149.22121035766
 10
102.579096111508
 20
-149.22121035766
 10
102.7437716757029
 20
-149.22121035766
 10
102.9112033162861
 20
-149.2170762430777
 10
103.0782904473207
 20
-149.2022623324911
 10
103.0782904473207
 20
-149.2022623324911
 10
103.0782904473207
 20
-149.4093125711546
 10
103.0782904473207
 20
-149.4093125711546
 10
102.8622829603955
 20
-149.3924316032769
 10
102.5980441366769
 20
-149.3924316032769
 10
102.579096111508
 20
-149.3924316032769
 10
102.579096111508
 20
-149.3924316032769
 10
102.4392252348069
 20
-149.3924316032769
 10
102.4392252348069
 20
-149.3924316032769
 10
102.4392252348069
 20
-149.3924316032769
 10
102.4392252348069
 20
-149.5343695372692
 10
102.4392252348069
 20
-149.5343695372692
 10
102.4392252348069
 20
-149.5343695372692
 10
102.6655680081878
 20
-149.5343695372692
 10
102.6655680081878
 20
-149.5343695372692
 10
102.8815754951129
 20
-149.5343695372692
 10
103.0993055297807
 20
-149.5298909131384
 10
103.3149685071574
 20
-149.5174885693915
 10
103.3149685071574
 20
-149.5174885693915
 10
103.3149685071574
 20
-149.724538808055
 10
103.3149685071574
 20
-149.724538808055
 10
103.033848715561
 20
-149.7076578401773
 10
102.6889946574875
 20
-149.7076578401773
 10
102.6655680081878
 20
-149.7076578401773
 97
        0
 97
        0
 92
        1
 93
        1
 72
     4
 94
        3
 73
     0
 74
     1
 95
       23
 96
       19
 40
0.0
 40
0.0
 40
0.0
 40
0.0
 40
1.0
 40
1.0
 40
1.0
 40
2.0
 40
2.0
 40
2.0
 40
3.0
 40
3.0
 40
3.0
 40
4.0
 40
4.0
 40
4.0
 40
5.0
 40
5.0
 40
5.0
 40
6.0
 40
6.0
 40
6.0
 40
6.0
 10
101.5466009945786
 20
-149.0792724236677
 10
101.5466009945786
 20
-149.1006320156762
 10
101.5486680518698
 20
-149.138528066014
 10
101.5231743452789
 20
-149.138528066014
 10
101.5128390588232
 20
-149.138528066014
 10
101.5042263201101
 20
-149.1323268941405
 10
101.4935465241058
 20
-149.1154459262628
 10
101.4935465241058
 20
-149.1154459262628
 10
101.3898491499998
 20
-148.9335448846416
 10
101.3898491499998
 20
-148.9335448846416
 10
101.6058566369249
 20
-148.804526058719
 10
101.8025715891327
 20
-148.5273681269307
 10
101.8490803781836
 20
-148.4553656312889
 10
101.8490803781836
 20
-148.4553656312889
 10
101.9210828738253
 20
-148.635199615619
 10
101.9210828738253
 20
-148.635199615619
 10
101.7877576785461
 20
-148.832086822601
 10
101.6120578087984
 20
-149.0158826667391
 10
101.5466009945786
 20
-149.0792724236677
 97
        0
 97
        0
 92
        1
 93
        1
 72
     4
 94
        3
 73
     0
 74
     1
 95
       17
 96
       13
 40
0.0
 40
0.0
 40
0.0
 40
0.0
 40
1.0
 40
1.0
 40
1.0
 40
2.0
 40
2.0
 40
2.0
 40
3.0
 40
3.0
 40
3.0
 40
4.0
 40
4.0
 40
4.0
 40
4.0
 10
101.8005045318415
 20
-148.1845811261483
 10
101.7391818322041
 20
-148.1084445159243
 10
101.6099907515072
 20
-148.0323079057003
 10
101.5062933774012
 20
-148.0026800845271
 10
101.5062933774012
 20
-148.0026800845271
 10
101.6017225223426
 20
-147.8376600107837
 10
101.6017225223426
 20
-147.8376600107837
 10
101.703008329609
 20
-147.8736612586045
 10
101.8087727610061
 20
-147.9308498436596
 10
101.8976562245256
 20
-148.011120568466
 10
101.8976562245256
 20
-148.011120568466
 10
101.8005045318415
 20
-148.1845811261483
 10
101.8005045318415
 20
-148.1845811261483
 97
        0
 97
        0
 92
        1
 93
        1
 72
     4
 94
        3
 73
     0
 74
     1
 95
       23
 96
       19
 40
0.0
 40
0.0
 40
0.0
 40
0.0
 40
1.0
 40
1.0
 40
1.0
 40
2.0
 40
2.0
 40
2.0
 40
3.0
 40
3.0
 40
3.0
 40
4.0
 40
4.0
 40
4.0
 40
5.0
 40
5.0
 40
5.0
 40
6.0
 40
6.0
 40
6.0
 40
6.0
 10
102.2531900786034
 20
-148.8891031528819
 10
102.2318304865948
 20
-148.9121852926331
 10
102.1346787939108
 20
-149.0244954054522
 10
101.9951524267582
 20
-149.1047661302585
 10
101.9951524267582
 20
-149.1047661302585
 10
101.8280652957235
 20
-148.9841877882748
 10
101.8280652957235
 20
-148.9841877882748
 10
101.9782714588804
 20
-148.9080511780508
 10
102.0774902088556
 20
-148.8129665426579
 10
102.1260660551977
 20
-148.7600843269593
 10
102.1260660551977
 20
-148.7600843269593
 10
102.2996988676542
 20
-148.842594363831
 10
102.2996988676542
 20
-148.842594363831
 10
102.3083116063674
 20
-148.8467284784133
 10
102.316579835532
 20
-148.853101905061
 10
102.316579835532
 20
-148.8637817010653
 10
102.316579835532
 20
-148.8891031528819
 10
102.2807508424854
 20
-148.8891031528819
 10
102.2531900786034
 20
-148.8891031528819
 97
        0
 97
        0
 92
        1
 93
        1
 72
     4
 94
        3
 73
     0
 74
     1
 95
       20
 96
       16
 40
0.0
 40
0.0
 40
0.0
 40
0.0
 40
1.0
 40
1.0
 40
1.0
 40
2.0
 40
2.0
 40
2.0
 40
3.0
 40
3.0
 40
3.0
 40
4.0
 40
4.0
 40
4.0
 40
5.0
 40
5.0
 40
5.0
 40
5.0
 10
102.551535347626
 20
-148.0471218162868
 10
102.5132947877397
 20
-148.0958699174031
 10
102.4519720881023
 20
-148.1740735849183
 10
102.3124457209497
 20
-148.284144385672
 10
102.392716445756
 20
-148.2882785002543
 10
102.4223442669291
 20
-148.2882785002543
 10
102.4457709162288
 20
-148.2882785002543
 10
102.4457709162288
 20
-148.2882785002543
 10
102.6741807469009
 20
-148.2882785002543
 10
102.6741807469009
 20
-148.2882785002543
 10
102.7058756253652
 20
-148.2882785002543
 10
102.7544514717072
 20
-148.2862114429632
 10
102.8285210246401
 20
-148.284144385672
 10
102.7165554213695
 20
-148.2100748327392
 10
102.6676350654789
 20
-148.1635660436883
 10
102.551535347626
 20
-148.0471218162868
 97
        0
 97
        0
 92
        1
 93
        1
 72
     4
 94
        3
 73
     0
 74
     1
 95
       17
 96
       13
 40
0.0
 40
0.0
 40
0.0
 40
0.0
 40
1.0
 40
1.0
 40
1.0
 40
2.0
 40
2.0
 40
2.0
 40
3.0
 40
3.0
 40
3.0
 40
4.0
 40
4.0
 40
4.0
 40
4.0
 10
103.1120523830762
 20
-149.1026990729674
 10
102.9766601305058
 20
-148.9907334696968
 10
102.8708956991087
 20
-148.9269992032197
 10
102.7523844144161
 20
-148.8637817010653
 10
102.7523844144161
 20
-148.8637817010653
 10
102.8791639282733
 20
-148.7516438430204
 10
102.8791639282733
 20
-148.7516438430204
 10
103.0104220662613
 20
-148.7981526320713
 10
103.1206651217893
 20
-148.8553412171264
 10
103.2453775783553
 20
-148.9566270243928
 10
103.2453775783553
 20
-148.9566270243928
 10
103.1120523830762
 20
-149.1026990729674
 10
103.1120523830762
 20
-149.1026990729674
 97
        0
 97
        0
 75
     2
 76
     1
 98
        0
  0
SPLINE
  5
9C
330
90
100
AcDbEntity
  8
_U+30EC_U+30A4_U+30E4_U+30FC 1
370
     0
100
AcDbSpline
210
0.0
220
0.0
230
1.0
 70
    11
 71
     3
 72
   113
 73
   109
 74
     0
 42
0.0000000001
 43
0.0000000001
 12
1.0
 22
0.0
 32
0.0
 13
1.0
 23
0.0
 33
0.0
 40
0.0
 40
0.0
 40
0.0
 40
0.0
 40
1.0
 40
1.0
 40
1.0
 40
2.0
 40
2.0
 40
2.0
 40
3.0
 40
3.0
 40
3.0
 40
4.0
 40
4.0
 40
4.0
 40
5.0
 40
5.0
 40
5.0
 40
6.0
 40
6.0
 40
6.0
 40
7.0
 40
7.0
 40
7.0
 40
8.0
 40
8.0
 40
8.0
 40
9.0
 40
9.0
 40
9.0
 40
10.0
 40
10.0
 40
10.0
 40
11.0
 40
11.0
 40
11.0
 40
12.0
 40
12.0
 40
12.0
 40
13.0
 40
13.0
 40
13.0
 40
14.0
 40
14.0
 40
14.0
 40
15.0
 40
15.0
 40
15.0
 40
16.0
 40
16.0
 40
16.0
 40
17.0
 40
17.0
 40
17.0
 40
18.0
 40
18.0
 40
18.0
 40
19.0
 40
19.0
 40
19.0
 40
20.0
 40
20.0
 40
20.0
 40
21.0
 40
21.0
 40
21.0
 40
22.0
 40
22.0
 40
22.0
 40
23.0
 40
23.0
 40
23.0
 40
24.0
 40
24.0
 40
24.0
 40
25.0
 40
25.0
 40
25.0
 40
26.0
 40
26.0
 40
26.0
 40
27.0
 40
27.0
 40
27.0
 40
28.0
 40
28.0
 40
28.0
 40
29.0
 40
29.0
 40
29.0
 40
30.0
 40
30.0
 40
30.0
 40
31.0
 40
31.0
 40
31.0
 40
32.0
 40
32.0
 40
32.0
 40
33.0
 40
33.0
 40
33.0
 40
34.0
 40
34.0
 40
34.0
 40
35.0
 40
35.0
 40
35.0
 40
36.0
 40
36.0
 40
36.0
 40
36.0
 10
104.9916964798285
 20
-149.0792724236677
 30
0.0
 10
104.9916964798285
 20
-149.0792724236677
 30
0.0
 10
105.0912597393522
 20
-149.1788356831914
 30
0.0
 10
105.0912597393522
 20
-149.1788356831914
 30
0.0
 10
105.1015950258079
 20
-149.1895154791957
 30
0.0
 10
105.1122748218122
 20
-149.2022623324911
 30
0.0
 10
105.1122748218122
 20
-149.2170762430777
 30
0.0
 10
105.1122748218122
 20
-149.2191433003688
 30
0.0
 10
105.1122748218122
 20
-149.248771121542
 30
0.0
 10
105.0743787714745
 20
-149.248771121542
 30
0.0
 10
105.0657660327613
 20
-149.248771121542
 30
0.0
 10
105.0254584155839
 20
-149.2442924974112
 30
0.0
 10
105.0192572437105
 20
-149.2442924974112
 30
0.0
 10
104.9789496265331
 20
-149.276331885424
 30
0.0
 10
104.9324408374822
 20
-149.3100938211794
 30
0.0
 10
104.833222087507
 20
-149.3672824062346
 30
0.0
 10
104.9789496265331
 20
-149.4751138949229
 30
0.0
 10
105.1377685284031
 20
-149.532302479978
 30
0.0
 10
105.4106200908349
 20
-149.5701985303158
 30
0.0
 10
105.4106200908349
 20
-149.5701985303158
 30
0.0
 10
105.260413927678
 20
-149.7458984000635
 30
0.0
 10
105.260413927678
 20
-149.7458984000635
 30
0.0
 10
104.9982421612504
 20
-149.6738959044218
 30
0.0
 10
104.8414903166716
 20
-149.5850124409024
 30
0.0
 10
104.7653537064476
 20
-149.532302479978
 30
0.0
 10
104.6151475432907
 20
-149.4306721631632
 30
0.0
 10
104.4714870615557
 20
-149.2677191467108
 30
0.0
 10
104.3953504513317
 20
-149.1026990729674
 30
0.0
 10
104.3274820702723
 20
-149.1681558871871
 30
0.0
 10
104.2534125173394
 20
-149.22121035766
 30
0.0
 10
104.1752088498243
 20
-149.269786204002
 30
0.0
 10
104.1752088498243
 20
-149.269786204002
 30
0.0
 10
104.1752088498243
 20
-149.5216226839738
 30
0.0
 10
104.1752088498243
 20
-149.5216226839738
 30
0.0
 10
104.3381618662766
 20
-149.4961289773829
 30
0.0
 10
104.5241970224801
 20
-149.4516872456232
 30
0.0
 10
104.5875867794087
 20
-149.4368733350366
 30
0.0
 10
104.5875867794087
 20
-149.4368733350366
 30
0.0
 10
104.5579589582355
 20
-149.6060275233624
 30
0.0
 10
104.5579589582355
 20
-149.6060275233624
 30
0.0
 10
104.5558919009444
 20
-149.6060275233624
 30
0.0
 10
104.5369438757755
 20
-149.6125732047844
 30
0.0
 10
104.5348768184843
 20
-149.6125732047844
 30
0.0
 10
104.3360948089854
 20
-149.6504692551221
 30
0.0
 10
104.0184570052454
 20
-149.7162705788904
 30
0.0
 10
103.8217420530376
 20
-149.752099571937
 30
0.0
 10
103.8114067665819
 20
-149.7689805398147
 30
0.0
 10
103.7879801172822
 20
-149.800675418279
 30
0.0
 10
103.764897977531
 20
-149.800675418279
 30
0.0
 10
103.737337213649
 20
-149.800675418279
 30
0.0
 10
103.7332030990667
 20
-149.7817273931101
 30
0.0
 10
103.730791532227
 20
-149.7627793679412
 30
0.0
 10
103.730791532227
 20
-149.7627793679412
 30
0.0
 10
103.7056423351847
 20
-149.5891465554847
 30
0.0
 10
103.7056423351847
 20
-149.5891465554847
 30
0.0
 10
103.7797118881176
 20
-149.5808783263201
 30
0.0
 10
103.8875433768059
 20
-149.5681314730246
 30
0.0
 10
103.9953748654942
 20
-149.5471163905646
 30
0.0
 10
103.9953748654942
 20
-149.5471163905646
 30
0.0
 10
103.9953748654942
 20
-149.3693494635257
 30
0.0
 10
103.9953748654942
 20
-149.3693494635257
 30
0.0
 10
103.8513698742108
 20
-149.4410074496189
 30
0.0
 10
103.7562852388179
 20
-149.4706352707921
 30
0.0
 10
103.5912651650744
 20
-149.5002630919652
 30
0.0
 10
103.5912651650744
 20
-149.5002630919652
 30
0.0
 10
103.4706868230907
 20
-149.3311089036395
 30
0.0
 10
103.4706868230907
 20
-149.3311089036395
 30
0.0
 10
103.7879801172822
 20
-149.3035481397575
 30
0.0
 10
103.9805609549076
 20
-149.2105305616557
 30
0.0
 10
104.1583278819465
 20
-149.0772053663765
 30
0.0
 10
104.0122558333719
 20
-149.0772053663765
 30
0.0
 10
103.7118435070581
 20
-149.0816839905074
 30
0.0
 10
103.5151285548504
 20
-149.0878851623808
 30
0.0
 10
103.5151285548504
 20
-149.0878851623808
 30
0.0
 10
103.5151285548504
 20
-148.9101182353419
 30
0.0
 10
103.5151285548504
 20
-148.9101182353419
 30
0.0
 10
103.6694688325896
 20
-148.9166639167639
 30
0.0
 10
103.9657470443211
 20
-148.9228650886373
 30
0.0
 10
104.1497151432334
 20
-148.9228650886373
 30
0.0
 10
104.1497151432334
 20
-148.9228650886373
 30
0.0
 10
104.3612440060277
 20
-148.9228650886373
 30
0.0
 10
104.3612440060277
 20
-148.9228650886373
 30
0.0
 10
104.3612440060277
 20
-148.8277804532445
 30
0.0
 10
104.3591769487366
 20
-148.776965294837
 30
0.0
 10
104.3529757768631
 20
-148.7304565057862
 30
0.0
 10
104.3529757768631
 20
-148.7304565057862
 30
0.0
 10
104.5686387542398
 20
-148.7473374736639
 30
0.0
 10
104.5686387542398
 20
-148.7473374736639
 30
0.0
 10
104.6172146005818
 20
-148.7516438430204
 30
0.0
 10
104.6258273392949
 20
-148.766457753607
 30
0.0
 10
104.6258273392949
 20
-148.7812716641936
 30
0.0
 10
104.6258273392949
 20
-148.8065931160102
 30
0.0
 10
104.6089463714172
 20
-148.815033599949
 30
0.0
 10
104.5579589582355
 20
-148.8405273065399
 30
0.0
 10
104.5558919009444
 20
-148.8658487583565
 30
0.0
 10
104.5558919009444
 20
-148.8722221850042
 30
0.0
 10
104.5538248436532
 20
-148.9228650886373
 30
0.0
 10
104.5538248436532
 20
-148.9228650886373
 30
0.0
 10
104.7843017316164
 20
-148.9228650886373
 30
0.0
 10
104.7843017316164
 20
-148.9228650886373
 30
0.0
 10
104.9493218053599
 20
-148.9228650886373
 30
0.0
 10
105.2414659025091
 20
-148.9166639167639
 30
0.0
 10
105.4212998868391
 20
-148.9101182353419
 30
0.0
 10
105.4212998868391
 20
-148.9101182353419
 30
0.0
 10
105.4212998868391
 20
-149.0878851623808
 30
0.0
 10
105.4212998868391
 20
-149.0878851623808
 30
0.0
 10
105.2921088061423
 20
-149.0837510477985
 30
0.0
 10
105.2690266663911
 20
-149.0837510477985
 30
0.0
 10
104.9916964798285
 20
-149.0792724236677
 30
0.0
  0
SPLINE
  5
9D
330
90
100
AcDbEntity
  8
_U+30EC_U+30A4_U+30E4_U+30FC 1
370
     0
100
AcDbSpline
210
0.0
220
0.0
230
1.0
 70
    11
 71
     3
 72
    23
 73
    19
 74
     0
 42
0.0000000001
 43
0.0000000001
 12
1.0
 22
0.0
 32
0.0
 13
1.0
 23
0.0
 33
0.0
 40
0.0
 40
0.0
 40
0.0
 40
0.0
 40
1.0
 40
1.0
 40
1.0
 40
2.0
 40
2.0
 40
2.0
 40
3.0
 40
3.0
 40
3.0
 40
4.0
 40
4.0
 40
4.0
 40
5.0
 40
5.0
 40
5.0
 40
6.0
 40
6.0
 40
6.0
 40
6.0
 10
103.7077093924758
 20
-148.728389448495
 30
0.0
 10
103.6908284245981
 20
-148.7685248108982
 30
0.0
 10
103.6842827431762
 20
-148.7854057787759
 30
0.0
 10
103.6632676607161
 20
-148.7854057787759
 30
0.0
 10
103.6484537501296
 20
-148.7854057787759
 30
0.0
 10
103.6377739541253
 20
-148.7685248108982
 30
0.0
 10
103.6315727822518
 20
-148.7557779576027
 30
0.0
 10
103.6315727822518
 20
-148.7557779576027
 30
0.0
 10
103.5320095227281
 20
-148.5907578838593
 30
0.0
 10
103.5320095227281
 20
-148.5907578838593
 30
0.0
 10
103.633639839543
 20
-148.559063005395
 30
0.0
 10
103.7838460026999
 20
-148.5041137324052
 30
0.0
 10
103.9826280121988
 20
-148.3411607159529
 30
0.0
 10
103.9826280121988
 20
-148.3411607159529
 30
0.0
 10
104.0398165972539
 20
-148.5146212736352
 30
0.0
 10
104.0398165972539
 20
-148.5146212736352
 30
0.0
 10
103.9467990191522
 20
-148.597131310507
 30
0.0
 10
103.8579155556327
 20
-148.6543198955621
 30
0.0
 10
103.7077093924758
 20
-148.728389448495
 30
0.0
  0
SPLINE
  5
9E
330
90
100
AcDbEntity
  8
_U+30EC_U+30A4_U+30E4_U+30FC 1
370
     0
100
AcDbSpline
210
0.0
220
0.0
230
1.0
 70
    11
 71
     3
 72
    17
 73
    13
 74
     0
 42
0.0000000001
 43
0.0000000001
 12
1.0
 22
0.0
 32
0.0
 13
1.0
 23
0.0
 33
0.0
 40
0.0
 40
0.0
 40
0.0
 40
0.0
 40
1.0
 40
1.0
 40
1.0
 40
2.0
 40
2.0
 40
2.0
 40
3.0
 40
3.0
 40
3.0
 40
4.0
 40
4.0
 40
4.0
 40
4.0
 10
103.8599826129239
 20
-148.2629570484377
 30
0.0
 10
103.8303547917508
 20
-148.2226494312603
 30
0.0
 10
103.7624864106913
 20
-148.1254977385763
 30
0.0
 10
103.5805853690701
 20
-148.0154269378225
 30
0.0
 10
103.5805853690701
 20
-148.0154269378225
 30
0.0
 10
103.7077093924758
 20
-147.8821017425434
 30
0.0
 10
103.7077093924758
 20
-147.8821017425434
 30
0.0
 10
103.8937445486794
 20
-147.9837320593582
 30
0.0
 10
103.9509331337345
 20
-148.0726155228777
 30
0.0
 10
103.9784938976165
 20
-148.114817942572
 30
0.0
 10
103.9784938976165
 20
-148.114817942572
 30
0.0
 10
103.8599826129239
 20
-148.2629570484377
 30
0.0
 10
103.8599826129239
 20
-148.2629570484377
 30
0.0
  0
SPLINE
  5
9F
330
90
100
AcDbEntity
  8
_U+30EC_U+30A4_U+30E4_U+30FC 1
370
     0
100
AcDbSpline
210
0.0
220
0.0
230
1.0
 70
    11
 71
     3
 72
    38
 73
    34
 74
     0
 42
0.0000000001
 43
0.0000000001
 12
1.0
 22
0.0
 32
0.0
 13
1.0
 23
0.0
 33
0.0
 40
0.0
 40
0.0
 40
0.0
 40
0.0
 40
1.0
 40
1.0
 40
1.0
 40
2.0
 40
2.0
 40
2.0
 40
3.0
 40
3.0
 40
3.0
 40
4.0
 40
4.0
 40
4.0
 40
5.0
 40
5.0
 40
5.0
 40
6.0
 40
6.0
 40
6.0
 40
7.0
 40
7.0
 40
7.0
 40
8.0
 40
8.0
 40
8.0
 40
9.0
 40
9.0
 40
9.0
 40
10.0
 40
10.0
 40
10.0
 40
11.0
 40
11.0
 40
11.0
 40
11.0
 10
104.2279188107486
 20
-147.9582383527674
 30
0.0
 10
104.2258517534574
 20
-148.0049193965925
 30
0.0
 10
104.2237846961663
 20
-148.1211913692197
 30
0.0
 10
104.2237846961663
 20
-148.1656331009794
 30
0.0
 10
104.2237846961663
 20
-148.1656331009794
 30
0.0
 10
104.2237846961663
 20
-148.5125542163441
 30
0.0
 10
104.2237846961663
 20
-148.5125542163441
 30
0.0
 10
104.2237846961663
 20
-148.5993706225724
 30
0.0
 10
104.2258517534574
 20
-148.7409640470161
 30
0.0
 10
104.2365315494617
 20
-148.8615423889999
 30
0.0
 10
104.2365315494617
 20
-148.8615423889999
 30
0.0
 10
104.0460177691274
 20
-148.8615423889999
 30
0.0
 10
104.0460177691274
 20
-148.8615423889999
 30
0.0
 10
104.0504963932582
 20
-148.7981526320713
 30
0.0
 10
104.0546305078405
 20
-148.7452704163727
 30
0.0
 10
104.0566975651317
 20
-148.690321143383
 30
0.0
 10
104.0587646224228
 20
-148.5675034893338
 30
0.0
 10
104.060831679714
 20
-148.5526895787472
 30
0.0
 10
104.060831679714
 20
-148.5082478469875
 30
0.0
 10
104.060831679714
 20
-148.5082478469875
 30
0.0
 10
104.060831679714
 20
-148.1868204382137
 30
0.0
 10
104.060831679714
 20
-148.1868204382137
 30
0.0
 10
104.060831679714
 20
-148.1316989104497
 30
0.0
 10
104.0480848264185
 20
-147.8927815385476
 30
0.0
 10
104.0460177691274
 20
-147.8419663801402
 30
0.0
 10
104.0460177691274
 20
-147.8419663801402
 30
0.0
 10
104.247211345466
 20
-147.8695271440222
 30
0.0
 10
104.247211345466
 20
-147.8695271440222
 30
0.0
 10
104.268226427926
 20
-147.8715942013134
 30
0.0
 10
104.2999213063903
 20
-147.8757283158957
 30
0.0
 10
104.2999213063903
 20
-147.9012220224865
 30
0.0
 10
104.2999213063903
 20
-147.9286105315942
 30
0.0
 10
104.2492784027571
 20
-147.9497978688285
 30
0.0
 10
104.2279188107486
 20
-147.9582383527674
 30
0.0
  0
SPLINE
  5
A0
330
90
100
AcDbEntity
  8
_U+30EC_U+30A4_U+30E4_U+30FC 1
370
     0
100
AcDbSpline
210
0.0
220
0.0
230
1.0
 70
    11
 71
     3
 72
    83
 73
    79
 74
     0
 42
0.0000000001
 43
0.0000000001
 12
1.0
 22
0.0
 32
0.0
 13
1.0
 23
0.0
 33
0.0
 40
0.0
 40
0.0
 40
0.0
 40
0.0
 40
1.0
 40
1.0
 40
1.0
 40
2.0
 40
2.0
 40
2.0
 40
3.0
 40
3.0
 40
3.0
 40
4.0
 40
4.0
 40
4.0
 40
5.0
 40
5.0
 40
5.0
 40
6.0
 40
6.0
 40
6.0
 40
7.0
 40
7.0
 40
7.0
 40
8.0
 40
8.0
 40
8.0
 40
9.0
 40
9.0
 40
9.0
 40
10.0
 40
10.0
 40
10.0
 40
11.0
 40
11.0
 40
11.0
 40
12.0
 40
12.0
 40
12.0
 40
13.0
 40
13.0
 40
13.0
 40
14.0
 40
14.0
 40
14.0
 40
15.0
 40
15.0
 40
15.0
 40
16.0
 40
16.0
 40
16.0
 40
17.0
 40
17.0
 40
17.0
 40
18.0
 40
18.0
 40
18.0
 40
19.0
 40
19.0
 40
19.0
 40
20.0
 40
20.0
 40
20.0
 40
21.0
 40
21.0
 40
21.0
 40
22.0
 40
22.0
 40
22.0
 40
23.0
 40
23.0
 40
23.0
 40
24.0
 40
24.0
 40
24.0
 40
25.0
 40
25.0
 40
25.0
 40
26.0
 40
26.0
 40
26.0
 40
26.0
 10
105.0299370397147
 20
-148.2798380163155
 30
0.0
 10
105.0299370397147
 20
-148.2798380163155
 30
0.0
 10
104.9324408374822
 20
-148.2798380163155
 30
0.0
 10
104.9324408374822
 20
-148.2798380163155
 30
0.0
 10
104.9324408374822
 20
-148.2798380163155
 30
0.0
 10
104.9324408374822
 20
-148.5273681269307
 30
0.0
 10
104.9324408374822
 20
-148.5273681269307
 30
0.0
 10
104.9324408374822
 20
-148.5273681269307
 30
0.0
 10
105.0151231291282
 20
-148.5273681269307
 30
0.0
 10
105.0151231291282
 20
-148.5273681269307
 30
0.0
 10
105.0805799433479
 20
-148.5273681269307
 30
0.0
 10
105.2201063105005
 20
-148.5230617575741
 30
0.0
 10
105.3196695700243
 20
-148.5146212736352
 30
0.0
 10
105.3196695700243
 20
-148.5146212736352
 30
0.0
 10
105.3196695700243
 20
-148.6944552579653
 30
0.0
 10
105.3196695700243
 20
-148.6944552579653
 30
0.0
 10
105.2266519919225
 20
-148.6860147740264
 30
0.0
 10
105.0764458287656
 20
-148.6818806594441
 30
0.0
 10
105.0151231291282
 20
-148.6818806594441
 30
0.0
 10
105.0151231291282
 20
-148.6818806594441
 30
0.0
 10
104.7102321786836
 20
-148.6818806594441
 30
0.0
 10
104.7102321786836
 20
-148.6818806594441
 30
0.0
 10
104.6575222177592
 20
-148.6818806594441
 30
0.0
 10
104.5114501691846
 20
-148.6860147740264
 30
0.0
 10
104.4056857377875
 20
-148.6944552579653
 30
0.0
 10
104.4056857377875
 20
-148.6944552579653
 30
0.0
 10
104.4056857377875
 20
-148.5146212736352
 30
0.0
 10
104.4056857377875
 20
-148.5146212736352
 30
0.0
 10
104.5052489973112
 20
-148.5230617575741
 30
0.0
 10
104.6447753644638
 20
-148.5273681269307
 30
0.0
 10
104.7102321786836
 20
-148.5273681269307
 30
0.0
 10
104.7102321786836
 20
-148.5273681269307
 30
0.0
 10
104.7546739104433
 20
-148.5273681269307
 30
0.0
 10
104.7546739104433
 20
-148.5273681269307
 30
0.0
 10
104.7546739104433
 20
-148.5273681269307
 30
0.0
 10
104.7546739104433
 20
-148.2798380163155
 30
0.0
 10
104.7546739104433
 20
-148.2798380163155
 30
0.0
 10
104.7546739104433
 20
-148.2798380163155
 30
0.0
 10
104.6809488670589
 20
-148.2798380163155
 30
0.0
 10
104.6809488670589
 20
-148.2798380163155
 30
0.0
 10
104.619281657873
 20
-148.2798380163155
 30
0.0
 10
104.4521945268383
 20
-148.284144385672
 30
0.0
 10
104.3316161848546
 20
-148.2925848696109
 30
0.0
 10
104.3316161848546
 20
-148.2925848696109
 30
0.0
 10
104.3316161848546
 20
-148.114817942572
 30
0.0
 10
104.3316161848546
 20
-148.114817942572
 30
0.0
 10
104.4459933549649
 20
-148.1211913692197
 30
0.0
 10
104.6044677472864
 20
-148.1254977385763
 30
0.0
 10
104.6809488670589
 20
-148.1254977385763
 30
0.0
 10
104.6809488670589
 20
-148.1254977385763
 30
0.0
 10
104.7526068531521
 20
-148.1254977385763
 30
0.0
 10
104.7526068531521
 20
-148.1254977385763
 30
0.0
 10
104.7484727385698
 20
-147.973052263354
 30
0.0
 10
104.7464056812787
 20
-147.9392903275985
 30
0.0
 10
104.7398599998567
 20
-147.8461004947225
 30
0.0
 10
104.7398599998567
 20
-147.8461004947225
 30
0.0
 10
104.9517333721996
 20
-147.8695271440222
 30
0.0
 10
104.9517333721996
 20
-147.8695271440222
 30
0.0
 10
104.9768825692419
 20
-147.8715942013134
 30
0.0
 10
105.0003092185416
 20
-147.8757283158957
 30
0.0
 10
105.0003092185416
 20
-147.8989827104211
 30
0.0
 10
105.0003092185416
 20
-147.9308498436596
 30
0.0
 10
104.9558674867819
 20
-147.9477308115374
 30
0.0
 10
104.9324408374822
 20
-147.9561712954763
 30
0.0
 10
104.9324408374822
 20
-147.9561712954763
 30
0.0
 10
104.9324408374822
 20
-148.1254977385763
 30
0.0
 10
104.9324408374822
 20
-148.1254977385763
 30
0.0
 10
104.9324408374822
 20
-148.1254977385763
 30
0.0
 10
105.0299370397147
 20
-148.1254977385763
 30
0.0
 10
105.0299370397147
 20
-148.1254977385763
 30
0.0
 10
105.1060736499388
 20
-148.1254977385763
 30
0.0
 10
105.2645480422603
 20
-148.1211913692197
 30
0.0
 10
105.3809922696617
 20
-148.114817942572
 30
0.0
 10
105.3809922696617
 20
-148.114817942572
 30
0.0
 10
105.3809922696617
 20
-148.2925848696109
 30
0.0
 10
105.3809922696617
 20
-148.2925848696109
 30
0.0
 10
105.2731607809734
 20
-148.2862114429632
 30
0.0
 10
105.0995279685168
 20
-148.2798380163155
 30
0.0
 10
105.0299370397147
 20
-148.2798380163155
 30
0.0
  0
SPLINE
  5
A1
330
90
100
AcDbEntity
  8
_U+30EC_U+30A4_U+30E4_U+30FC 1
370
     0
100
AcDbSpline
210
0.0
220
0.0
230
1.0
 70
    11
 71
     3
 72
    17
 73
    13
 74
     0
 42
0.0000000001
 43
0.0000000001
 12
1.0
 22
0.0
 32
0.0
 13
1.0
 23
0.0
 33
0.0
 40
0.0
 40
0.0
 40
0.0
 40
0.0
 40
1.0
 40
1.0
 40
1.0
 40
2.0
 40
2.0
 40
2.0
 40
3.0
 40
3.0
 40
3.0
 40
4.0
 40
4.0
 40
4.0
 40
4.0
 10
104.7843017316164
 20
-149.0772053663765
 30
0.0
 10
104.7843017316164
 20
-149.0772053663765
 30
0.0
 10
104.5813856075352
 20
-149.0772053663765
 30
0.0
 10
104.5813856075352
 20
-149.0772053663765
 30
0.0
 10
104.6089463714172
 20
-149.1364610087228
 30
0.0
 10
104.6637233896327
 20
-149.2084635043645
 30
0.0
 10
104.6912841535147
 20
-149.2380913255377
 30
0.0
 10
104.7188449173967
 20
-149.2232774149511
 30
0.0
 10
104.833222087507
 20
-149.1598876580225
 30
0.0
 10
104.9241726083176
 20
-149.0772053663765
 30
0.0
 10
104.9241726083176
 20
-149.0772053663765
 30
0.0
 10
104.7843017316164
 20
-149.0772053663765
 30
0.0
 10
104.7843017316164
 20
-149.0772053663765
 30
0.0
  0
HATCH
  5
A2
330
90
100
AcDbEntity
  8
_U+30EC_U+30A4_U+30E4_U+30FC 1
 62
   179
420
  2234388
100
AcDbHatch
 10
0.0
 20
0.0
 30
0.0
210
0.0
220
0.0
230
1.0
  2
SOLID
 70
     1
 71
     0
 91
        6
 92
        1
 93
        1
 72
     4
 94
        3
 73
     0
 74
     1
 95
      113
 96
      109
 40
0.0
 40
0.0
 40
0.0
 40
0.0
 40
1.0
 40
1.0
 40
1.0
 40
2.0
 40
2.0
 40
2.0
 40
3.0
 40
3.0
 40
3.0
 40
4.0
 40
4.0
 40
4.0
 40
5.0
 40
5.0
 40
5.0
 40
6.0
 40
6.0
 40
6.0
 40
7.0
 40
7.0
 40
7.0
 40
8.0
 40
8.0
 40
8.0
 40
9.0
 40
9.0
 40
9.0
 40
10.0
 40
10.0
 40
10.0
 40
11.0
 40
11.0
 40
11.0
 40
12.0
 40
12.0
 40
12.0
 40
13.0
 40
13.0
 40
13.0
 40
14.0
 40
14.0
 40
14.0
 40
15.0
 40
15.0
 40
15.0
 40
16.0
 40
16.0
 40
16.0
 40
17.0
 40
17.0
 40
17.0
 40
18.0
 40
18.0
 40
18.0
 40
19.0
 40
19.0
 40
19.0
 40
20.0
 40
20.0
 40
20.0
 40
21.0
 40
21.0
 40
21.0
 40
22.0
 40
22.0
 40
22.0
 40
23.0
 40
23.0
 40
23.0
 40
24.0
 40
24.0
 40
24.0
 40
25.0
 40
25.0
 40
25.0
 40
26.0
 40
26.0
 40
26.0
 40
27.0
 40
27.0
 40
27.0
 40
28.0
 40
28.0
 40
28.0
 40
29.0
 40
29.0
 40
29.0
 40
30.0
 40
30.0
 40
30.0
 40
31.0
 40
31.0
 40
31.0
 40
32.0
 40
32.0
 40
32.0
 40
33.0
 40
33.0
 40
33.0
 40
34.0
 40
34.0
 40
34.0
 40
35.0
 40
35.0
 40
35.0
 40
36.0
 40
36.0
 40
36.0
 40
36.0
 10
104.9916964798285
 20
-149.0792724236677
 10
104.9916964798285
 20
-149.0792724236677
 10
105.0912597393522
 20
-149.1788356831914
 10
105.0912597393522
 20
-149.1788356831914
 10
105.1015950258079
 20
-149.1895154791957
 10
105.1122748218122
 20
-149.2022623324911
 10
105.1122748218122
 20
-149.2170762430777
 10
105.1122748218122
 20
-149.2191433003688
 10
105.1122748218122
 20
-149.248771121542
 10
105.0743787714745
 20
-149.248771121542
 10
105.0657660327613
 20
-149.248771121542
 10
105.0254584155839
 20
-149.2442924974112
 10
105.0192572437105
 20
-149.2442924974112
 10
104.9789496265331
 20
-149.276331885424
 10
104.9324408374822
 20
-149.3100938211794
 10
104.833222087507
 20
-149.3672824062346
 10
104.9789496265331
 20
-149.4751138949229
 10
105.1377685284031
 20
-149.532302479978
 10
105.4106200908349
 20
-149.5701985303158
 10
105.4106200908349
 20
-149.5701985303158
 10
105.260413927678
 20
-149.7458984000635
 10
105.260413927678
 20
-149.7458984000635
 10
104.9982421612504
 20
-149.6738959044218
 10
104.8414903166716
 20
-149.5850124409024
 10
104.7653537064476
 20
-149.532302479978
 10
104.6151475432907
 20
-149.4306721631632
 10
104.4714870615557
 20
-149.2677191467108
 10
104.3953504513317
 20
-149.1026990729674
 10
104.3274820702723
 20
-149.1681558871871
 10
104.2534125173394
 20
-149.22121035766
 10
104.1752088498243
 20
-149.269786204002
 10
104.1752088498243
 20
-149.269786204002
 10
104.1752088498243
 20
-149.5216226839738
 10
104.1752088498243
 20
-149.5216226839738
 10
104.3381618662766
 20
-149.4961289773829
 10
104.5241970224801
 20
-149.4516872456232
 10
104.5875867794087
 20
-149.4368733350366
 10
104.5875867794087
 20
-149.4368733350366
 10
104.5579589582355
 20
-149.6060275233624
 10
104.5579589582355
 20
-149.6060275233624
 10
104.5558919009444
 20
-149.6060275233624
 10
104.5369438757755
 20
-149.6125732047844
 10
104.5348768184843
 20
-149.6125732047844
 10
104.3360948089854
 20
-149.6504692551221
 10
104.0184570052454
 20
-149.7162705788904
 10
103.8217420530376
 20
-149.752099571937
 10
103.8114067665819
 20
-149.7689805398147
 10
103.7879801172822
 20
-149.800675418279
 10
103.764897977531
 20
-149.800675418279
 10
103.737337213649
 20
-149.800675418279
 10
103.7332030990667
 20
-149.7817273931101
 10
103.730791532227
 20
-149.7627793679412
 10
103.730791532227
 20
-149.7627793679412
 10
103.7056423351847
 20
-149.5891465554847
 10
103.7056423351847
 20
-149.5891465554847
 10
103.7797118881176
 20
-149.5808783263201
 10
103.8875433768059
 20
-149.5681314730246
 10
103.9953748654942
 20
-149.5471163905646
 10
103.9953748654942
 20
-149.5471163905646
 10
103.9953748654942
 20
-149.3693494635257
 10
103.9953748654942
 20
-149.3693494635257
 10
103.8513698742108
 20
-149.4410074496189
 10
103.7562852388179
 20
-149.4706352707921
 10
103.5912651650744
 20
-149.5002630919652
 10
103.5912651650744
 20
-149.5002630919652
 10
103.4706868230907
 20
-149.3311089036395
 10
103.4706868230907
 20
-149.3311089036395
 10
103.7879801172822
 20
-149.3035481397575
 10
103.9805609549076
 20
-149.2105305616557
 10
104.1583278819465
 20
-149.0772053663765
 10
104.0122558333719
 20
-149.0772053663765
 10
103.7118435070581
 20
-149.0816839905074
 10
103.5151285548504
 20
-149.0878851623808
 10
103.5151285548504
 20
-149.0878851623808
 10
103.5151285548504
 20
-148.9101182353419
 10
103.5151285548504
 20
-148.9101182353419
 10
103.6694688325896
 20
-148.9166639167639
 10
103.9657470443211
 20
-148.9228650886373
 10
104.1497151432334
 20
-148.9228650886373
 10
104.1497151432334
 20
-148.9228650886373
 10
104.3612440060277
 20
-148.9228650886373
 10
104.3612440060277
 20
-148.9228650886373
 10
104.3612440060277
 20
-148.8277804532445
 10
104.3591769487366
 20
-148.776965294837
 10
104.3529757768631
 20
-148.7304565057862
 10
104.3529757768631
 20
-148.7304565057862
 10
104.5686387542398
 20
-148.7473374736639
 10
104.5686387542398
 20
-148.7473374736639
 10
104.6172146005818
 20
-148.7516438430204
 10
104.6258273392949
 20
-148.766457753607
 10
104.6258273392949
 20
-148.7812716641936
 10
104.6258273392949
 20
-148.8065931160102
 10
104.6089463714172
 20
-148.815033599949
 10
104.5579589582355
 20
-148.8405273065399
 10
104.5558919009444
 20
-148.8658487583565
 10
104.5558919009444
 20
-148.8722221850042
 10
104.5538248436532
 20
-148.9228650886373
 10
104.5538248436532
 20
-148.9228650886373
 10
104.7843017316164
 20
-148.9228650886373
 10
104.7843017316164
 20
-148.9228650886373
 10
104.9493218053599
 20
-148.9228650886373
 10
105.2414659025091
 20
-148.9166639167639
 10
105.4212998868391
 20
-148.9101182353419
 10
105.4212998868391
 20
-148.9101182353419
 10
105.4212998868391
 20
-149.0878851623808
 10
105.4212998868391
 20
-149.0878851623808
 10
105.2921088061423
 20
-149.0837510477985
 10
105.2690266663911
 20
-149.0837510477985
 10
104.9916964798285
 20
-149.0792724236677
 97
        0
 97
        0
 92
        1
 93
        1
 72
     4
 94
        3
 73
     0
 74
     1
 95
       23
 96
       19
 40
0.0
 40
0.0
 40
0.0
 40
0.0
 40
1.0
 40
1.0
 40
1.0
 40
2.0
 40
2.0
 40
2.0
 40
3.0
 40
3.0
 40
3.0
 40
4.0
 40
4.0
 40
4.0
 40
5.0
 40
5.0
 40
5.0
 40
6.0
 40
6.0
 40
6.0
 40
6.0
 10
103.7077093924758
 20
-148.728389448495
 10
103.6908284245981
 20
-148.7685248108982
 10
103.6842827431762
 20
-148.7854057787759
 10
103.6632676607161
 20
-148.7854057787759
 10
103.6484537501296
 20
-148.7854057787759
 10
103.6377739541253
 20
-148.7685248108982
 10
103.6315727822518
 20
-148.7557779576027
 10
103.6315727822518
 20
-148.7557779576027
 10
103.5320095227281
 20
-148.5907578838593
 10
103.5320095227281
 20
-148.5907578838593
 10
103.633639839543
 20
-148.559063005395
 10
103.7838460026999
 20
-148.5041137324052
 10
103.9826280121988
 20
-148.3411607159529
 10
103.9826280121988
 20
-148.3411607159529
 10
104.0398165972539
 20
-148.5146212736352
 10
104.0398165972539
 20
-148.5146212736352
 10
103.9467990191522
 20
-148.597131310507
 10
103.8579155556327
 20
-148.6543198955621
 10
103.7077093924758
 20
-148.728389448495
 97
        0
 97
        0
 92
        1
 93
        1
 72
     4
 94
        3
 73
     0
 74
     1
 95
       17
 96
       13
 40
0.0
 40
0.0
 40
0.0
 40
0.0
 40
1.0
 40
1.0
 40
1.0
 40
2.0
 40
2.0
 40
2.0
 40
3.0
 40
3.0
 40
3.0
 40
4.0
 40
4.0
 40
4.0
 40
4.0
 10
103.8599826129239
 20
-148.2629570484377
 10
103.8303547917508
 20
-148.2226494312603
 10
103.7624864106913
 20
-148.1254977385763
 10
103.5805853690701
 20
-148.0154269378225
 10
103.5805853690701
 20
-148.0154269378225
 10
103.7077093924758
 20
-147.8821017425434
 10
103.7077093924758
 20
-147.8821017425434
 10
103.8937445486794
 20
-147.9837320593582
 10
103.9509331337345
 20
-148.0726155228777
 10
103.9784938976165
 20
-148.114817942572
 10
103.9784938976165
 20
-148.114817942572
 10
103.8599826129239
 20
-148.2629570484377
 10
103.8599826129239
 20
-148.2629570484377
 97
        0
 97
        0
 92
        1
 93
        1
 72
     4
 94
        3
 73
     0
 74
     1
 95
       38
 96
       34
 40
0.0
 40
0.0
 40
0.0
 40
0.0
 40
1.0
 40
1.0
 40
1.0
 40
2.0
 40
2.0
 40
2.0
 40
3.0
 40
3.0
 40
3.0
 40
4.0
 40
4.0
 40
4.0
 40
5.0
 40
5.0
 40
5.0
 40
6.0
 40
6.0
 40
6.0
 40
7.0
 40
7.0
 40
7.0
 40
8.0
 40
8.0
 40
8.0
 40
9.0
 40
9.0
 40
9.0
 40
10.0
 40
10.0
 40
10.0
 40
11.0
 40
11.0
 40
11.0
 40
11.0
 10
104.2279188107486
 20
-147.9582383527674
 10
104.2258517534574
 20
-148.0049193965925
 10
104.2237846961663
 20
-148.1211913692197
 10
104.2237846961663
 20
-148.1656331009794
 10
104.2237846961663
 20
-148.1656331009794
 10
104.2237846961663
 20
-148.5125542163441
 10
104.2237846961663
 20
-148.5125542163441
 10
104.2237846961663
 20
-148.5993706225724
 10
104.2258517534574
 20
-148.7409640470161
 10
104.2365315494617
 20
-148.8615423889999
 10
104.2365315494617
 20
-148.8615423889999
 10
104.0460177691274
 20
-148.8615423889999
 10
104.0460177691274
 20
-148.8615423889999
 10
104.0504963932582
 20
-148.7981526320713
 10
104.0546305078405
 20
-148.7452704163727
 10
104.0566975651317
 20
-148.690321143383
 10
104.0587646224228
 20
-148.5675034893338
 10
104.060831679714
 20
-148.5526895787472
 10
104.060831679714
 20
-148.5082478469875
 10
104.060831679714
 20
-148.5082478469875
 10
104.060831679714
 20
-148.1868204382137
 10
104.060831679714
 20
-148.1868204382137
 10
104.060831679714
 20
-148.1316989104497
 10
104.0480848264185
 20
-147.8927815385476
 10
104.0460177691274
 20
-147.8419663801402
 10
104.0460177691274
 20
-147.8419663801402
 10
104.247211345466
 20
-147.8695271440222
 10
104.247211345466
 20
-147.8695271440222
 10
104.268226427926
 20
-147.8715942013134
 10
104.2999213063903
 20
-147.8757283158957
 10
104.2999213063903
 20
-147.9012220224865
 10
104.2999213063903
 20
-147.9286105315942
 10
104.2492784027571
 20
-147.9497978688285
 10
104.2279188107486
 20
-147.9582383527674
 97
        0
 97
        0
 92
        1
 93
        1
 72
     4
 94
        3
 73
     0
 74
     1
 95
       83
 96
       79
 40
0.0
 40
0.0
 40
0.0
 40
0.0
 40
1.0
 40
1.0
 40
1.0
 40
2.0
 40
2.0
 40
2.0
 40
3.0
 40
3.0
 40
3.0
 40
4.0
 40
4.0
 40
4.0
 40
5.0
 40
5.0
 40
5.0
 40
6.0
 40
6.0
 40
6.0
 40
7.0
 40
7.0
 40
7.0
 40
8.0
 40
8.0
 40
8.0
 40
9.0
 40
9.0
 40
9.0
 40
10.0
 40
10.0
 40
10.0
 40
11.0
 40
11.0
 40
11.0
 40
12.0
 40
12.0
 40
12.0
 40
13.0
 40
13.0
 40
13.0
 40
14.0
 40
14.0
 40
14.0
 40
15.0
 40
15.0
 40
15.0
 40
16.0
 40
16.0
 40
16.0
 40
17.0
 40
17.0
 40
17.0
 40
18.0
 40
18.0
 40
18.0
 40
19.0
 40
19.0
 40
19.0
 40
20.0
 40
20.0
 40
20.0
 40
21.0
 40
21.0
 40
21.0
 40
22.0
 40
22.0
 40
22.0
 40
23.0
 40
23.0
 40
23.0
 40
24.0
 40
24.0
 40
24.0
 40
25.0
 40
25.0
 40
25.0
 40
26.0
 40
26.0
 40
26.0
 40
26.0
 10
105.0299370397147
 20
-148.2798380163155
 10
105.0299370397147
 20
-148.2798380163155
 10
104.9324408374822
 20
-148.2798380163155
 10
104.9324408374822
 20
-148.2798380163155
 10
104.9324408374822
 20
-148.2798380163155
 10
104.9324408374822
 20
-148.5273681269307
 10
104.9324408374822
 20
-148.5273681269307
 10
104.9324408374822
 20
-148.5273681269307
 10
105.0151231291282
 20
-148.5273681269307
 10
105.0151231291282
 20
-148.5273681269307
 10
105.0805799433479
 20
-148.5273681269307
 10
105.2201063105005
 20
-148.5230617575741
 10
105.3196695700243
 20
-148.5146212736352
 10
105.3196695700243
 20
-148.5146212736352
 10
105.3196695700243
 20
-148.6944552579653
 10
105.3196695700243
 20
-148.6944552579653
 10
105.2266519919225
 20
-148.6860147740264
 10
105.0764458287656
 20
-148.6818806594441
 10
105.0151231291282
 20
-148.6818806594441
 10
105.0151231291282
 20
-148.6818806594441
 10
104.7102321786836
 20
-148.6818806594441
 10
104.7102321786836
 20
-148.6818806594441
 10
104.6575222177592
 20
-148.6818806594441
 10
104.5114501691846
 20
-148.6860147740264
 10
104.4056857377875
 20
-148.6944552579653
 10
104.4056857377875
 20
-148.6944552579653
 10
104.4056857377875
 20
-148.5146212736352
 10
104.4056857377875
 20
-148.5146212736352
 10
104.5052489973112
 20
-148.5230617575741
 10
104.6447753644638
 20
-148.5273681269307
 10
104.7102321786836
 20
-148.5273681269307
 10
104.7102321786836
 20
-148.5273681269307
 10
104.7546739104433
 20
-148.5273681269307
 10
104.7546739104433
 20
-148.5273681269307
 10
104.7546739104433
 20
-148.5273681269307
 10
104.7546739104433
 20
-148.2798380163155
 10
104.7546739104433
 20
-148.2798380163155
 10
104.7546739104433
 20
-148.2798380163155
 10
104.6809488670589
 20
-148.2798380163155
 10
104.6809488670589
 20
-148.2798380163155
 10
104.619281657873
 20
-148.2798380163155
 10
104.4521945268383
 20
-148.284144385672
 10
104.3316161848546
 20
-148.2925848696109
 10
104.3316161848546
 20
-148.2925848696109
 10
104.3316161848546
 20
-148.114817942572
 10
104.3316161848546
 20
-148.114817942572
 10
104.4459933549649
 20
-148.1211913692197
 10
104.6044677472864
 20
-148.1254977385763
 10
104.6809488670589
 20
-148.1254977385763
 10
104.6809488670589
 20
-148.1254977385763
 10
104.7526068531521
 20
-148.1254977385763
 10
104.7526068531521
 20
-148.1254977385763
 10
104.7484727385698
 20
-147.973052263354
 10
104.7464056812787
 20
-147.9392903275985
 10
104.7398599998567
 20
-147.8461004947225
 10
104.7398599998567
 20
-147.8461004947225
 10
104.9517333721996
 20
-147.8695271440222
 10
104.9517333721996
 20
-147.8695271440222
 10
104.9768825692419
 20
-147.8715942013134
 10
105.0003092185416
 20
-147.8757283158957
 10
105.0003092185416
 20
-147.8989827104211
 10
105.0003092185416
 20
-147.9308498436596
 10
104.9558674867819
 20
-147.9477308115374
 10
104.9324408374822
 20
-147.9561712954763
 10
104.9324408374822
 20
-147.9561712954763
 10
104.9324408374822
 20
-148.1254977385763
 10
104.9324408374822
 20
-148.1254977385763
 10
104.9324408374822
 20
-148.1254977385763
 10
105.0299370397147
 20
-148.1254977385763
 10
105.0299370397147
 20
-148.1254977385763
 10
105.1060736499388
 20
-148.1254977385763
 10
105.2645480422603
 20
-148.1211913692197
 10
105.3809922696617
 20
-148.114817942572
 10
105.3809922696617
 20
-148.114817942572
 10
105.3809922696617
 20
-148.2925848696109
 10
105.3809922696617
 20
-148.2925848696109
 10
105.2731607809734
 20
-148.2862114429632
 10
105.0995279685168
 20
-148.2798380163155
 10
105.0299370397147
 20
-148.2798380163155
 97
        0
 97
        0
 92
        1
 93
        1
 72
     4
 94
        3
 73
     0
 74
     1
 95
       17
 96
       13
 40
0.0
 40
0.0
 40
0.0
 40
0.0
 40
1.0
 40
1.0
 40
1.0
 40
2.0
 40
2.0
 40
2.0
 40
3.0
 40
3.0
 40
3.0
 40
4.0
 40
4.0
 40
4.0
 40
4.0
 10
104.7843017316164
 20
-149.0772053663765
 10
104.7843017316164
 20
-149.0772053663765
 10
104.5813856075352
 20
-149.0772053663765
 10
104.5813856075352
 20
-149.0772053663765
 10
104.6089463714172
 20
-149.1364610087228
 10
104.6637233896327
 20
-149.2084635043645
 10
104.6912841535147
 20
-149.2380913255377
 10
104.7188449173967
 20
-149.2232774149511
 10
104.833222087507
 20
-149.1598876580225
 10
104.9241726083176
 20
-149.0772053663765
 10
104.9241726083176
 20
-149.0772053663765
 10
104.7843017316164
 20
-149.0772053663765
 10
104.7843017316164
 20
-149.0772053663765
 97
        0
 97
        0
 75
     2
 76
     1
 98
        0
  0
SPLINE
  5
A3
330
90
100
AcDbEntity
  8
_U+30EC_U+30A4_U+30E4_U+30FC 1
370
     0
100
AcDbSpline
210
0.0
220
0.0
230
1.0
 70
    11
 71
     3
 72
    77
 73
    73
 74
     0
 42
0.0000000001
 43
0.0000000001
 12
1.0
 22
0.0
 32
0.0
 13
1.0
 23
0.0
 33
0.0
 40
0.0
 40
0.0
 40
0.0
 40
0.0
 40
1.0
 40
1.0
 40
1.0
 40
2.0
 40
2.0
 40
2.0
 40
3.0
 40
3.0
 40
3.0
 40
4.0
 40
4.0
 40
4.0
 40
5.0
 40
5.0
 40
5.0
 40
6.0
 40
6.0
 40
6.0
 40
7.0
 40
7.0
 40
7.0
 40
8.0
 40
8.0
 40
8.0
 40
9.0
 40
9.0
 40
9.0
 40
10.0
 40
10.0
 40
10.0
 40
11.0
 40
11.0
 40
11.0
 40
12.0
 40
12.0
 40
12.0
 40
13.0
 40
13.0
 40
13.0
 40
14.0
 40
14.0
 40
14.0
 40
15.0
 40
15.0
 40
15.0
 40
16.0
 40
16.0
 40
16.0
 40
17.0
 40
17.0
 40
17.0
 40
18.0
 40
18.0
 40
18.0
 40
19.0
 40
19.0
 40
19.0
 40
20.0
 40
20.0
 40
20.0
 40
21.0
 40
21.0
 40
21.0
 40
22.0
 40
22.0
 40
22.0
 40
23.0
 40
23.0
 40
23.0
 40
24.0
 40
24.0
 40
24.0
 40
24.0
 10
107.2754502770006
 20
-149.7076578401773
 30
0.0
 10
107.2289414879497
 20
-149.7331515467681
 30
0.0
 10
107.1042290313837
 20
-149.7458984000635
 30
0.0
 10
107.02568085432
 20
-149.7458984000635
 30
0.0
 10
107.0132785105731
 20
-149.7458984000635
 30
0.0
 10
106.9877848039822
 20
-149.7458984000635
 30
0.0
 10
106.9540228682268
 20
-149.7414197759327
 30
0.0
 10
106.9540228682268
 20
-149.7414197759327
 30
0.0
 10
106.8565266659942
 20
-149.5150770025518
 30
0.0
 10
106.8565266659942
 20
-149.5150770025518
 30
0.0
 10
106.8861544871674
 20
-149.5216226839738
 30
0.0
 10
106.9433430722225
 20
-149.5298909131384
 30
0.0
 10
107.0597872996239
 20
-149.5298909131384
 30
0.0
 10
107.1379909671391
 20
-149.5298909131384
 30
0.0
 10
107.1400580244303
 20
-149.4878607482183
 30
0.0
 10
107.1400580244303
 20
-149.4306721631632
 30
0.0
 10
107.1400580244303
 20
-149.4306721631632
 30
0.0
 10
107.1400580244303
 20
-149.0816839905074
 30
0.0
 10
107.1400580244303
 20
-149.0816839905074
 30
0.0
 10
107.1400580244303
 20
-149.0816839905074
 30
0.0
 10
106.6808267962465
 20
-149.0816839905074
 30
0.0
 10
106.6808267962465
 20
-149.0816839905074
 30
0.0
 10
106.6832383630861
 20
-149.2191433003688
 30
0.0
 10
106.6853054203773
 20
-149.4179253098677
 30
0.0
 10
106.6915065922507
 20
-149.5512505051469
 30
0.0
 10
106.6935736495419
 20
-149.5788112690289
 30
0.0
 10
106.6935736495419
 20
-149.6232530007887
 30
0.0
 10
106.7063205028373
 20
-149.6845757004261
 30
0.0
 10
106.7063205028373
 20
-149.6845757004261
 30
0.0
 10
106.4651638188698
 20
-149.6845757004261
 30
0.0
 10
106.4651638188698
 20
-149.6845757004261
 30
0.0
 10
106.4906575254607
 20
-149.5595187343115
 30
0.0
 10
106.4906575254607
 20
-149.2191433003688
 30
0.0
 10
106.4906575254607
 20
-149.0816839905074
 30
0.0
 10
106.4906575254607
 20
-149.0816839905074
 30
0.0
 10
106.0483072651546
 20
-149.0816839905074
 30
0.0
 10
106.0483072651546
 20
-149.0816839905074
 30
0.0
 10
106.0252251254034
 20
-149.2887342291709
 30
0.0
 10
105.9597683111837
 20
-149.5574516770204
 30
0.0
 10
105.7627088494274
 20
-149.7414197759327
 30
0.0
 10
105.7627088494274
 20
-149.7414197759327
 30
0.0
 10
105.5746066359327
 20
-149.6187743766578
 30
0.0
 10
105.5746066359327
 20
-149.6187743766578
 30
0.0
 10
105.8285101731957
 20
-149.3989772846989
 30
0.0
 10
105.86020505166
 20
-149.0668700799208
 30
0.0
 10
105.86020505166
 20
-148.7347628751427
 30
0.0
 10
105.86020505166
 20
-148.7347628751427
 30
0.0
 10
105.86020505166
 20
-148.2989582962586
 30
0.0
 10
105.86020505166
 20
-148.2989582962586
 30
0.0
 10
105.86020505166
 20
-148.2629570484377
 30
0.0
 10
105.8581379943688
 20
-148.0302408484091
 30
0.0
 10
105.8495252556557
 20
-147.9286105315942
 30
0.0
 10
105.9890516228083
 20
-147.9392903275985
 30
0.0
 10
106.2305528163243
 20
-147.9392903275985
 30
0.0
 10
106.3742132980592
 20
-147.9392903275985
 30
0.0
 10
106.3742132980592
 20
-147.9392903275985
 30
0.0
 10
106.833444526243
 20
-147.9392903275985
 30
0.0
 10
106.833444526243
 20
-147.9392903275985
 30
0.0
 10
106.8482584368296
 20
-147.9392903275985
 30
0.0
 10
107.1972466094854
 20
-147.9392903275985
 30
0.0
 10
107.3557210018069
 20
-147.9286105315942
 30
0.0
 10
107.3536539445158
 20
-147.9814927472928
 30
0.0
 10
107.3474527726423
 20
-148.142378706454
 30
0.0
 10
107.3474527726423
 20
-148.1931938648614
 30
0.0
 10
107.3474527726423
 20
-148.1931938648614
 30
0.0
 10
107.3474527726423
 20
-148.8002196893625
 30
0.0
 10
107.3474527726423
 20
-148.8002196893625
 30
0.0
 10
107.3474527726423
 20
-148.8193399693056
 30
0.0
 10
107.3577880590981
 20
-149.3903645459858
 30
0.0
 10
107.3577880590981
 20
-149.5026746588049
 30
0.0
 10
107.3577880590981
 20
-149.5595187343115
 30
0.0
 10
107.3577880590981
 20
-149.6611490511264
 30
0.0
 10
107.2754502770006
 20
-149.7076578401773
 30
0.0
  0
POLYLINE
  5
A4
330
90
100
AcDbEntity
  8
_U+30EC_U+30A4_U+30E4_U+30FC 1
370
     0
100
AcDb2dPolyline
 66
     1
 10
0.0
 20
0.0
 30
0.0
  0
VERTEX
  5
A5
330
A4
100
AcDbEntity
  8
_U+30EC_U+30A4_U+30E4_U+30FC 1
370
     0
100
AcDbVertex
100
AcDb2dVertex
 10
106.4906575254607
 20
-148.1211913692197
 30
0.0
  0
VERTEX
  5
A6
330
A4
100
AcDbEntity
  8
_U+30EC_U+30A4_U+30E4_U+30FC 1
370
     0
100
AcDbVertex
100
AcDb2dVertex
 10
106.0527858892854
 20
-148.1211913692197
 30
0.0
  0
VERTEX
  5
A7
330
A4
100
AcDbEntity
  8
_U+30EC_U+30A4_U+30E4_U+30FC 1
370
     0
100
AcDbVertex
100
AcDb2dVertex
 10
106.0527858892854
 20
-148.42591006489
 30
0.0
  0
VERTEX
  5
A8
330
A4
100
AcDbEntity
  8
_U+30EC_U+30A4_U+30E4_U+30FC 1
370
     0
100
AcDbVertex
100
AcDb2dVertex
 10
106.4906575254607
 20
-148.42591006489
 30
0.0
  0
VERTEX
  5
A9
330
A4
100
AcDbEntity
  8
_U+30EC_U+30A4_U+30E4_U+30FC 1
370
     0
100
AcDbVertex
100
AcDb2dVertex
 10
106.4906575254607
 20
-148.1211913692197
 30
0.0
  0
SEQEND
  5
AA
330
A4
100
AcDbEntity
  8
_U+30EC_U+30A4_U+30E4_U+30FC 1
370
     0
  0
POLYLINE
  5
AB
330
90
100
AcDbEntity
  8
_U+30EC_U+30A4_U+30E4_U+30FC 1
370
     0
100
AcDb2dPolyline
 66
     1
 10
0.0
 20
0.0
 30
0.0
  0
VERTEX
  5
AC
330
AB
100
AcDbEntity
  8
_U+30EC_U+30A4_U+30E4_U+30FC 1
370
     0
100
AcDbVertex
100
AcDb2dVertex
 10
106.4906575254607
 20
-148.5929971959247
 30
0.0
  0
VERTEX
  5
AD
330
AB
100
AcDbEntity
  8
_U+30EC_U+30A4_U+30E4_U+30FC 1
370
     0
100
AcDbVertex
100
AcDb2dVertex
 10
106.0527858892854
 20
-148.5929971959247
 30
0.0
  0
VERTEX
  5
AE
330
AB
100
AcDbEntity
  8
_U+30EC_U+30A4_U+30E4_U+30FC 1
370
     0
100
AcDbVertex
100
AcDb2dVertex
 10
106.0527858892854
 20
-148.9018500061773
 30
0.0
  0
VERTEX
  5
AF
330
AB
100
AcDbEntity
  8
_U+30EC_U+30A4_U+30E4_U+30FC 1
370
     0
100
AcDbVertex
100
AcDb2dVertex
 10
106.4906575254607
 20
-148.9018500061773
 30
0.0
  0
VERTEX
  5
B0
330
AB
100
AcDbEntity
  8
_U+30EC_U+30A4_U+30E4_U+30FC 1
370
     0
100
AcDbVertex
100
AcDb2dVertex
 10
106.4906575254607
 20
-148.5929971959247
 30
0.0
  0
SEQEND
  5
B1
330
AB
100
AcDbEntity
  8
_U+30EC_U+30A4_U+30E4_U+30FC 1
370
     0
  0
POLYLINE
  5
B2
330
90
100
AcDbEntity
  8
_U+30EC_U+30A4_U+30E4_U+30FC 1
370
     0
100
AcDb2dPolyline
 66
     1
 10
0.0
 20
0.0
 30
0.0
  0
VERTEX
  5
B3
330
B2
100
AcDbEntity
  8
_U+30EC_U+30A4_U+30E4_U+30FC 1
370
     0
100
AcDbVertex
100
AcDb2dVertex
 10
107.1400580244303
 20
-148.1211913692197
 30
0.0
  0
VERTEX
  5
B4
330
B2
100
AcDbEntity
  8
_U+30EC_U+30A4_U+30E4_U+30FC 1
370
     0
100
AcDbVertex
100
AcDb2dVertex
 10
106.6808267962465
 20
-148.1211913692197
 30
0.0
  0
VERTEX
  5
B5
330
B2
100
AcDbEntity
  8
_U+30EC_U+30A4_U+30E4_U+30FC 1
370
     0
100
AcDbVertex
100
AcDb2dVertex
 10
106.6808267962465
 20
-148.42591006489
 30
0.0
  0
VERTEX
  5
B6
330
B2
100
AcDbEntity
  8
_U+30EC_U+30A4_U+30E4_U+30FC 1
370
     0
100
AcDbVertex
100
AcDb2dVertex
 10
107.1400580244303
 20
-148.42591006489
 30
0.0
  0
VERTEX
  5
B7
330
B2
100
AcDbEntity
  8
_U+30EC_U+30A4_U+30E4_U+30FC 1
370
     0
100
AcDbVertex
100
AcDb2dVertex
 10
107.1400580244303
 20
-148.1211913692197
 30
0.0
  0
SEQEND
  5
B8
330
B2
100
AcDbEntity
  8
_U+30EC_U+30A4_U+30E4_U+30FC 1
370
     0
  0
POLYLINE
  5
B9
330
90
100
AcDbEntity
  8
_U+30EC_U+30A4_U+30E4_U+30FC 1
370
     0
100
AcDb2dPolyline
 66
     1
 10
0.0
 20
0.0
 30
0.0
  0
VERTEX
  5
BA
330
B9
100
AcDbEntity
  8
_U+30EC_U+30A4_U+30E4_U+30FC 1
370
     0
100
AcDbVertex
100
AcDb2dVertex
 10
107.1400580244303
 20
-148.5929971959247
 30
0.0
  0
VERTEX
  5
BB
330
B9
100
AcDbEntity
  8
_U+30EC_U+30A4_U+30E4_U+30FC 1
370
     0
100
AcDbVertex
100
AcDb2dVertex
 10
106.6808267962465
 20
-148.5929971959247
 30
0.0
  0
VERTEX
  5
BC
330
B9
100
AcDbEntity
  8
_U+30EC_U+30A4_U+30E4_U+30FC 1
370
     0
100
AcDbVertex
100
AcDb2dVertex
 10
106.6808267962465
 20
-148.9018500061773
 30
0.0
  0
VERTEX
  5
BD
330
B9
100
AcDbEntity
  8
_U+30EC_U+30A4_U+30E4_U+30FC 1
370
     0
100
AcDbVertex
100
AcDb2dVertex
 10
107.1400580244303
 20
-148.9018500061773
 30
0.0
  0
VERTEX
  5
BE
330
B9
100
AcDbEntity
  8
_U+30EC_U+30A4_U+30E4_U+30FC 1
370
     0
100
AcDbVertex
100
AcDb2dVertex
 10
107.1400580244303
 20
-148.5929971959247
 30
0.0
  0
SEQEND
  5
BF
330
B9
100
AcDbEntity
  8
_U+30EC_U+30A4_U+30E4_U+30FC 1
370
     0
  0
HATCH
  5
C0
330
90
100
AcDbEntity
  8
_U+30EC_U+30A4_U+30E4_U+30FC 1
 62
   179
420
  2234388
100
AcDbHatch
 10
0.0
 20
0.0
 30
0.0
210
0.0
220
0.0
230
1.0
  2
SOLID
 70
     1
 71
     0
 91
        5
 92
        1
 93
        1
 72
     4
 94
        3
 73
     0
 74
     1
 95
       77
 96
       73
 40
0.0
 40
0.0
 40
0.0
 40
0.0
 40
1.0
 40
1.0
 40
1.0
 40
2.0
 40
2.0
 40
2.0
 40
3.0
 40
3.0
 40
3.0
 40
4.0
 40
4.0
 40
4.0
 40
5.0
 40
5.0
 40
5.0
 40
6.0
 40
6.0
 40
6.0
 40
7.0
 40
7.0
 40
7.0
 40
8.0
 40
8.0
 40
8.0
 40
9.0
 40
9.0
 40
9.0
 40
10.0
 40
10.0
 40
10.0
 40
11.0
 40
11.0
 40
11.0
 40
12.0
 40
12.0
 40
12.0
 40
13.0
 40
13.0
 40
13.0
 40
14.0
 40
14.0
 40
14.0
 40
15.0
 40
15.0
 40
15.0
 40
16.0
 40
16.0
 40
16.0
 40
17.0
 40
17.0
 40
17.0
 40
18.0
 40
18.0
 40
18.0
 40
19.0
 40
19.0
 40
19.0
 40
20.0
 40
20.0
 40
20.0
 40
21.0
 40
21.0
 40
21.0
 40
22.0
 40
22.0
 40
22.0
 40
23.0
 40
23.0
 40
23.0
 40
24.0
 40
24.0
 40
24.0
 40
24.0
 10
107.2754502770006
 20
-149.7076578401773
 10
107.2289414879497
 20
-149.7331515467681
 10
107.1042290313837
 20
-149.7458984000635
 10
107.02568085432
 20
-149.7458984000635
 10
107.0132785105731
 20
-149.7458984000635
 10
106.9877848039822
 20
-149.7458984000635
 10
106.9540228682268
 20
-149.7414197759327
 10
106.9540228682268
 20
-149.7414197759327
 10
106.8565266659942
 20
-149.5150770025518
 10
106.8565266659942
 20
-149.5150770025518
 10
106.8861544871674
 20
-149.5216226839738
 10
106.9433430722225
 20
-149.5298909131384
 10
107.0597872996239
 20
-149.5298909131384
 10
107.1379909671391
 20
-149.5298909131384
 10
107.1400580244303
 20
-149.4878607482183
 10
107.1400580244303
 20
-149.4306721631632
 10
107.1400580244303
 20
-149.4306721631632
 10
107.1400580244303
 20
-149.0816839905074
 10
107.1400580244303
 20
-149.0816839905074
 10
107.1400580244303
 20
-149.0816839905074
 10
106.6808267962465
 20
-149.0816839905074
 10
106.6808267962465
 20
-149.0816839905074
 10
106.6832383630861
 20
-149.2191433003688
 10
106.6853054203773
 20
-149.4179253098677
 10
106.6915065922507
 20
-149.5512505051469
 10
106.6935736495419
 20
-149.5788112690289
 10
106.6935736495419
 20
-149.6232530007887
 10
106.7063205028373
 20
-149.6845757004261
 10
106.7063205028373
 20
-149.6845757004261
 10
106.4651638188698
 20
-149.6845757004261
 10
106.4651638188698
 20
-149.6845757004261
 10
106.4906575254607
 20
-149.5595187343115
 10
106.4906575254607
 20
-149.2191433003688
 10
106.4906575254607
 20
-149.0816839905074
 10
106.4906575254607
 20
-149.0816839905074
 10
106.0483072651546
 20
-149.0816839905074
 10
106.0483072651546
 20
-149.0816839905074
 10
106.0252251254034
 20
-149.2887342291709
 10
105.9597683111837
 20
-149.5574516770204
 10
105.7627088494274
 20
-149.7414197759327
 10
105.7627088494274
 20
-149.7414197759327
 10
105.5746066359327
 20
-149.6187743766578
 10
105.5746066359327
 20
-149.6187743766578
 10
105.8285101731957
 20
-149.3989772846989
 10
105.86020505166
 20
-149.0668700799208
 10
105.86020505166
 20
-148.7347628751427
 10
105.86020505166
 20
-148.7347628751427
 10
105.86020505166
 20
-148.2989582962586
 10
105.86020505166
 20
-148.2989582962586
 10
105.86020505166
 20
-148.2629570484377
 10
105.8581379943688
 20
-148.0302408484091
 10
105.8495252556557
 20
-147.9286105315942
 10
105.9890516228083
 20
-147.9392903275985
 10
106.2305528163243
 20
-147.9392903275985
 10
106.3742132980592
 20
-147.9392903275985
 10
106.3742132980592
 20
-147.9392903275985
 10
106.833444526243
 20
-147.9392903275985
 10
106.833444526243
 20
-147.9392903275985
 10
106.8482584368296
 20
-147.9392903275985
 10
107.1972466094854
 20
-147.9392903275985
 10
107.3557210018069
 20
-147.9286105315942
 10
107.3536539445158
 20
-147.9814927472928
 10
107.3474527726423
 20
-148.142378706454
 10
107.3474527726423
 20
-148.1931938648614
 10
107.3474527726423
 20
-148.1931938648614
 10
107.3474527726423
 20
-148.8002196893625
 10
107.3474527726423
 20
-148.8002196893625
 10
107.3474527726423
 20
-148.8193399693056
 10
107.3577880590981
 20
-149.3903645459858
 10
107.3577880590981
 20
-149.5026746588049
 10
107.3577880590981
 20
-149.5595187343115
 10
107.3577880590981
 20
-149.6611490511264
 10
107.2754502770006
 20
-149.7076578401773
 97
        0
 97
        0
 92
        1
 93
        4
 72
     1
 10
106.4906575254607
 20
-148.1211913692197
 11
106.0527858892854
 21
-148.1211913692197
 72
     1
 10
106.0527858892854
 20
-148.1211913692197
 11
106.0527858892854
 21
-148.42591006489
 72
     1
 10
106.0527858892854
 20
-148.42591006489
 11
106.4906575254607
 21
-148.42591006489
 72
     1
 10
106.4906575254607
 20
-148.42591006489
 11
106.4906575254607
 21
-148.1211913692197
 97
        0
 92
        1
 93
        4
 72
     1
 10
106.4906575254607
 20
-148.5929971959247
 11
106.0527858892854
 21
-148.5929971959247
 72
     1
 10
106.0527858892854
 20
-148.5929971959247
 11
106.0527858892854
 21
-148.9018500061773
 72
     1
 10
106.0527858892854
 20
-148.9018500061773
 11
106.4906575254607
 21
-148.9018500061773
 72
     1
 10
106.4906575254607
 20
-148.9018500061773
 11
106.4906575254607
 21
-148.5929971959247
 97
        0
 92
        1
 93
        4
 72
     1
 10
107.1400580244303
 20
-148.1211913692197
 11
106.6808267962465
 21
-148.1211913692197
 72
     1
 10
106.6808267962465
 20
-148.1211913692197
 11
106.6808267962465
 21
-148.42591006489
 72
     1
 10
106.6808267962465
 20
-148.42591006489
 11
107.1400580244303
 21
-148.42591006489
 72
     1
 10
107.1400580244303
 20
-148.42591006489
 11
107.1400580244303
 21
-148.1211913692197
 97
        0
 92
        1
 93
        4
 72
     1
 10
107.1400580244303
 20
-148.5929971959247
 11
106.6808267962465
 21
-148.5929971959247
 72
     1
 10
106.6808267962465
 20
-148.5929971959247
 11
106.6808267962465
 21
-148.9018500061773
 72
     1
 10
106.6808267962465
 20
-148.9018500061773
 11
107.1400580244303
 21
-148.9018500061773
 72
     1
 10
107.1400580244303
 20
-148.9018500061773
 11
107.1400580244303
 21
-148.5929971959247
 97
        0
 75
     2
 76
     1
 98
        0
  0
SPLINE
  5
C1
330
90
100
AcDbEntity
  8
_U+30EC_U+30A4_U+30E4_U+30FC 1
370
     0
100
AcDbSpline
210
0.0
220
0.0
230
1.0
 70
    11
 71
     3
 72
    44
 73
    40
 74
     0
 42
0.0000000001
 43
0.0000000001
 12
1.0
 22
0.0
 32
0.0
 13
1.0
 23
0.0
 33
0.0
 40
0.0
 40
0.0
 40
0.0
 40
0.0
 40
1.0
 40
1.0
 40
1.0
 40
2.0
 40
2.0
 40
2.0
 40
3.0
 40
3.0
 40
3.0
 40
4.0
 40
4.0
 40
4.0
 40
5.0
 40
5.0
 40
5.0
 40
6.0
 40
6.0
 40
6.0
 40
7.0
 40
7.0
 40
7.0
 40
8.0
 40
8.0
 40
8.0
 40
9.0
 40
9.0
 40
9.0
 40
10.0
 40
10.0
 40
10.0
 40
11.0
 40
11.0
 40
11.0
 40
12.0
 40
12.0
 40
12.0
 40
13.0
 40
13.0
 40
13.0
 40
13.0
 10
109.1530273164617
 20
-148.4576049433544
 30
0.0
 10
109.0410617131911
 20
-148.8257133959533
 30
0.0
 10
108.990418809558
 20
-148.9841877882748
 30
0.0
 10
108.7937038573502
 20
-149.2339572109554
 30
0.0
 10
108.6093912488893
 20
-149.4644340989186
 30
0.0
 10
108.3727131890527
 20
-149.6504692551221
 30
0.0
 10
108.0933159451989
 20
-149.7438313427724
 30
0.0
 10
108.0933159451989
 20
-149.7438313427724
 30
0.0
 10
107.9007351075734
 20
-149.5639973584424
 30
0.0
 10
107.9007351075734
 20
-149.5639973584424
 30
0.0
 10
108.5418673773784
 20
-149.4117241379943
 30
0.0
 10
108.8719075248654
 20
-148.8553412171264
 30
0.0
 10
108.935297281794
 20
-148.4152302688858
 30
0.0
 10
108.935297281794
 20
-148.4152302688858
 30
0.0
 10
108.1694525554229
 20
-148.4152302688858
 30
0.0
 10
108.1694525554229
 20
-148.4152302688858
 30
0.0
 10
108.0764349773212
 20
-148.4152302688858
 30
0.0
 10
107.8924668784088
 20
-148.4195366382423
 30
0.0
 10
107.73571503383
 20
-148.4384846634112
 30
0.0
 10
107.73571503383
 20
-148.4384846634112
 30
0.0
 10
107.73571503383
 20
-148.218515316678
 30
0.0
 10
107.73571503383
 20
-148.218515316678
 30
0.0
 10
107.8225314400583
 20
-148.2397026539123
 30
0.0
 10
108.07436792003
 20
-148.2397026539123
 30
0.0
 10
108.1735866700052
 20
-148.2397026539123
 30
0.0
 10
108.1735866700052
 20
-148.2397026539123
 30
0.0
 10
108.605257134307
 20
-148.2397026539123
 30
0.0
 10
108.605257134307
 20
-148.2397026539123
 30
0.0
 10
108.6476318087756
 20
-148.2397026539123
 30
0.0
 10
108.8822428113211
 20
-148.2374633418469
 30
0.0
 10
108.9204833712074
 20
-148.2312621699734
 30
0.0
 10
108.962858045676
 20
-148.2248887433257
 30
0.0
 10
108.9649251029671
 20
-148.2226494312603
 30
0.0
 10
109.0262478026046
 20
-148.1825140688572
 30
0.0
 10
109.0262478026046
 20
-148.1825140688572
 30
0.0
 10
109.2143500160992
 20
-148.3370266013706
 30
0.0
 10
109.2143500160992
 20
-148.3370266013706
 30
0.0
 10
109.1850667044746
 20
-148.3666544225437
 30
0.0
 10
109.170252793888
 20
-148.3983493010081
 30
0.0
 10
109.1530273164617
 20
-148.4576049433544
 30
0.0
  0
SPLINE
  5
C2
330
90
100
AcDbEntity
  8
_U+30EC_U+30A4_U+30E4_U+30FC 1
370
     0
100
AcDbSpline
210
0.0
220
0.0
230
1.0
 70
    11
 71
     3
 72
    17
 73
    13
 74
     0
 42
0.0000000001
 43
0.0000000001
 12
1.0
 22
0.0
 32
0.0
 13
1.0
 23
0.0
 33
0.0
 40
0.0
 40
0.0
 40
0.0
 40
0.0
 40
1.0
 40
1.0
 40
1.0
 40
2.0
 40
2.0
 40
2.0
 40
3.0
 40
3.0
 40
3.0
 40
4.0
 40
4.0
 40
4.0
 40
4.0
 10
109.3624891219649
 20
-148.2586506790812
 30
0.0
 10
109.2357096081077
 20
-148.2586506790812
 30
0.0
 10
109.1340792912929
 20
-148.1571926170406
 30
0.0
 10
109.1340792912929
 20
-148.0302408484091
 30
0.0
 10
109.1340792912929
 20
-147.9032890797777
 30
0.0
 10
109.2357096081077
 20
-147.7995917056716
 30
0.0
 10
109.3624891219649
 20
-147.7995917056716
 30
0.0
 10
109.4896131453707
 20
-147.7995917056716
 30
0.0
 10
109.5933105194767
 20
-147.9032890797777
 30
0.0
 10
109.5933105194767
 20
-148.0302408484091
 30
0.0
 10
109.5933105194767
 20
-148.1571926170406
 30
0.0
 10
109.4896131453707
 20
-148.2586506790812
 30
0.0
 10
109.3624891219649
 20
-148.2586506790812
 30
0.0
  0
SPLINE
  5
C3
330
90
100
AcDbEntity
  8
_U+30EC_U+30A4_U+30E4_U+30FC 1
370
     0
100
AcDbSpline
210
0.0
220
0.0
230
1.0
 70
    11
 71
     3
 72
    17
 73
    13
 74
     0
 42
0.0000000001
 43
0.0000000001
 12
1.0
 22
0.0
 32
0.0
 13
1.0
 23
0.0
 33
0.0
 40
0.0
 40
0.0
 40
0.0
 40
0.0
 40
1.0
 40
1.0
 40
1.0
 40
2.0
 40
2.0
 40
2.0
 40
3.0
 40
3.0
 40
3.0
 40
4.0
 40
4.0
 40
4.0
 40
4.0
 10
109.3604220646738
 20
-147.9286105315942
 30
0.0
 10
109.3056450464583
 20
-147.9286105315942
 30
0.0
 10
109.2612033146986
 20
-147.973052263354
 30
0.0
 10
109.2612033146986
 20
-148.028173791118
 30
0.0
 10
109.2612033146986
 20
-148.0851901213989
 30
0.0
 10
109.3056450464583
 20
-148.1339382225151
 30
0.0
 10
109.3645561792561
 20
-148.1339382225151
 30
0.0
 10
109.4238118216024
 20
-148.1339382225151
 30
0.0
 10
109.4641194387798
 20
-148.0831230641077
 30
0.0
 10
109.4641194387798
 20
-148.0302408484091
 30
0.0
 10
109.4641194387798
 20
-147.973052263354
 30
0.0
 10
109.4176106497289
 20
-147.9286105315942
 30
0.0
 10
109.3604220646738
 20
-147.9286105315942
 30
0.0
  0
HATCH
  5
C4
330
90
100
AcDbEntity
  8
_U+30EC_U+30A4_U+30E4_U+30FC 1
 62
   179
420
  2234388
100
AcDbHatch
 10
0.0
 20
0.0
 30
0.0
210
0.0
220
0.0
230
1.0
  2
SOLID
 70
     1
 71
     0
 91
        3
 92
        1
 93
        1
 72
     4
 94
        3
 73
     0
 74
     1
 95
       44
 96
       40
 40
0.0
 40
0.0
 40
0.0
 40
0.0
 40
1.0
 40
1.0
 40
1.0
 40
2.0
 40
2.0
 40
2.0
 40
3.0
 40
3.0
 40
3.0
 40
4.0
 40
4.0
 40
4.0
 40
5.0
 40
5.0
 40
5.0
 40
6.0
 40
6.0
 40
6.0
 40
7.0
 40
7.0
 40
7.0
 40
8.0
 40
8.0
 40
8.0
 40
9.0
 40
9.0
 40
9.0
 40
10.0
 40
10.0
 40
10.0
 40
11.0
 40
11.0
 40
11.0
 40
12.0
 40
12.0
 40
12.0
 40
13.0
 40
13.0
 40
13.0
 40
13.0
 10
109.1530273164617
 20
-148.4576049433544
 10
109.0410617131911
 20
-148.8257133959533
 10
108.990418809558
 20
-148.9841877882748
 10
108.7937038573502
 20
-149.2339572109554
 10
108.6093912488893
 20
-149.4644340989186
 10
108.3727131890527
 20
-149.6504692551221
 10
108.0933159451989
 20
-149.7438313427724
 10
108.0933159451989
 20
-149.7438313427724
 10
107.9007351075734
 20
-149.5639973584424
 10
107.9007351075734
 20
-149.5639973584424
 10
108.5418673773784
 20
-149.4117241379943
 10
108.8719075248654
 20
-148.8553412171264
 10
108.935297281794
 20
-148.4152302688858
 10
108.935297281794
 20
-148.4152302688858
 10
108.1694525554229
 20
-148.4152302688858
 10
108.1694525554229
 20
-148.4152302688858
 10
108.0764349773212
 20
-148.4152302688858
 10
107.8924668784088
 20
-148.4195366382423
 10
107.73571503383
 20
-148.4384846634112
 10
107.73571503383
 20
-148.4384846634112
 10
107.73571503383
 20
-148.218515316678
 10
107.73571503383
 20
-148.218515316678
 10
107.8225314400583
 20
-148.2397026539123
 10
108.07436792003
 20
-148.2397026539123
 10
108.1735866700052
 20
-148.2397026539123
 10
108.1735866700052
 20
-148.2397026539123
 10
108.605257134307
 20
-148.2397026539123
 10
108.605257134307
 20
-148.2397026539123
 10
108.6476318087756
 20
-148.2397026539123
 10
108.8822428113211
 20
-148.2374633418469
 10
108.9204833712074
 20
-148.2312621699734
 10
108.962858045676
 20
-148.2248887433257
 10
108.9649251029671
 20
-148.2226494312603
 10
109.0262478026046
 20
-148.1825140688572
 10
109.0262478026046
 20
-148.1825140688572
 10
109.2143500160992
 20
-148.3370266013706
 10
109.2143500160992
 20
-148.3370266013706
 10
109.1850667044746
 20
-148.3666544225437
 10
109.170252793888
 20
-148.3983493010081
 10
109.1530273164617
 20
-148.4576049433544
 97
        0
 97
        0
 92
        1
 93
        1
 72
     4
 94
        3
 73
     0
 74
     1
 95
       17
 96
       13
 40
0.0
 40
0.0
 40
0.0
 40
0.0
 40
1.0
 40
1.0
 40
1.0
 40
2.0
 40
2.0
 40
2.0
 40
3.0
 40
3.0
 40
3.0
 40
4.0
 40
4.0
 40
4.0
 40
4.0
 10
109.3624891219649
 20
-148.2586506790812
 10
109.2357096081077
 20
-148.2586506790812
 10
109.1340792912929
 20
-148.1571926170406
 10
109.1340792912929
 20
-148.0302408484091
 10
109.1340792912929
 20
-147.9032890797777
 10
109.2357096081077
 20
-147.7995917056716
 10
109.3624891219649
 20
-147.7995917056716
 10
109.4896131453707
 20
-147.7995917056716
 10
109.5933105194767
 20
-147.9032890797777
 10
109.5933105194767
 20
-148.0302408484091
 10
109.5933105194767
 20
-148.1571926170406
 10
109.4896131453707
 20
-148.2586506790812
 10
109.3624891219649
 20
-148.2586506790812
 97
        0
 97
        0
 92
        1
 93
        1
 72
     4
 94
        3
 73
     0
 74
     1
 95
       17
 96
       13
 40
0.0
 40
0.0
 40
0.0
 40
0.0
 40
1.0
 40
1.0
 40
1.0
 40
2.0
 40
2.0
 40
2.0
 40
3.0
 40
3.0
 40
3.0
 40
4.0
 40
4.0
 40
4.0
 40
4.0
 10
109.3604220646738
 20
-147.9286105315942
 10
109.3056450464583
 20
-147.9286105315942
 10
109.2612033146986
 20
-147.973052263354
 10
109.2612033146986
 20
-148.028173791118
 10
109.2612033146986
 20
-148.0851901213989
 10
109.3056450464583
 20
-148.1339382225151
 10
109.3645561792561
 20
-148.1339382225151
 10
109.4238118216024
 20
-148.1339382225151
 10
109.4641194387798
 20
-148.0831230641077
 10
109.4641194387798
 20
-148.0302408484091
 10
109.4641194387798
 20
-147.973052263354
 10
109.4176106497289
 20
-147.9286105315942
 10
109.3604220646738
 20
-147.9286105315942
 97
        0
 97
        0
 75
     2
 76
     1
 98
        0
  0
SPLINE
  5
C5
330
90
100
AcDbEntity
  8
_U+30EC_U+30A4_U+30E4_U+30FC 1
370
     0
100
AcDbSpline
210
0.0
220
0.0
230
1.0
 70
    11
 71
     3
 72
    50
 73
    46
 74
     0
 42
0.0000000001
 43
0.0000000001
 12
1.0
 22
0.0
 32
0.0
 13
1.0
 23
0.0
 33
0.0
 40
0.0
 40
0.0
 40
0.0
 40
0.0
 40
1.0
 40
1.0
 40
1.0
 40
2.0
 40
2.0
 40
2.0
 40
3.0
 40
3.0
 40
3.0
 40
4.0
 40
4.0
 40
4.0
 40
5.0
 40
5.0
 40
5.0
 40
6.0
 40
6.0
 40
6.0
 40
7.0
 40
7.0
 40
7.0
 40
8.0
 40
8.0
 40
8.0
 40
9.0
 40
9.0
 40
9.0
 40
10.0
 40
10.0
 40
10.0
 40
11.0
 40
11.0
 40
11.0
 40
12.0
 40
12.0
 40
12.0
 40
13.0
 40
13.0
 40
13.0
 40
14.0
 40
14.0
 40
14.0
 40
15.0
 40
15.0
 40
15.0
 40
15.0
 10
111.1577283793286
 20
-148.766457753607
 30
0.0
 10
111.0791802022649
 20
-148.9438801710974
 30
0.0
 10
110.9437879496946
 20
-149.1512749193094
 30
0.0
 10
110.8063286398331
 20
-149.2911457960106
 30
0.0
 10
110.6371744515074
 20
-149.4623670416275
 30
0.0
 10
110.4742214350551
 20
-149.5512505051469
 30
0.0
 10
110.1548610835724
 20
-149.6928439295907
 30
0.0
 10
110.1548610835724
 20
-149.6928439295907
 30
0.0
 10
109.9857068952466
 20
-149.504741716096
 30
0.0
 10
109.9857068952466
 20
-149.504741716096
 30
0.0
 10
110.1717420514501
 20
-149.4813150667964
 30
0.0
 10
110.342963297067
 20
-149.394498660568
 30
0.0
 10
110.4955810270636
 20
-149.2887342291709
 30
0.0
 10
110.7577527934911
 20
-149.1068331875497
 30
0.0
 10
110.9482665738254
 20
-148.7938462627147
 30
0.0
 10
110.9968424201675
 20
-148.6119452210935
 30
0.0
 10
110.9968424201675
 20
-148.6119452210935
 30
0.0
 10
110.3260823291893
 20
-148.6119452210935
 30
0.0
 10
110.3260823291893
 20
-148.6119452210935
 30
0.0
 10
110.1676079368678
 20
-148.6119452210935
 30
0.0
 10
109.8754638397186
 20
-148.6203857050324
 30
0.0
 10
109.7231906192706
 20
-148.6374389276844
 30
0.0
 10
109.7231906192706
 20
-148.6374389276844
 30
0.0
 10
109.7231906192706
 20
-148.4088568422381
 30
0.0
 10
109.7231906192706
 20
-148.4088568422381
 30
0.0
 10
109.7572970645746
 20
-148.4152302688858
 30
0.0
 10
109.7824462616169
 20
-148.4216036955335
 30
0.0
 10
109.8355007320897
 20
-148.42591006489
 30
0.0
 10
109.9367865393561
 20
-148.4321112367635
 30
0.0
 10
110.1338460011124
 20
-148.4343505488289
 30
0.0
 10
110.218250840501
 20
-148.4343505488289
 30
0.0
 10
110.218250840501
 20
-148.4343505488289
 30
0.0
 10
110.7239908577357
 20
-148.4343505488289
 30
0.0
 10
110.7239908577357
 20
-148.4343505488289
 30
0.0
 10
110.7915147292466
 20
-148.4343505488289
 30
0.0
 10
110.9375867778212
 20
-148.4300441794724
 30
0.0
 10
110.9989094774586
 20
-148.4236707528246
 30
0.0
 10
111.0709119731003
 20
-148.4152302688858
 30
0.0
 10
111.0984727369823
 20
-148.4004163582992
 30
0.0
 10
111.1322346727378
 20
-148.3771619637738
 30
0.0
 10
111.1322346727378
 20
-148.3771619637738
 30
0.0
 10
111.2972547464812
 20
-148.5442490948084
 30
0.0
 10
111.2972547464812
 20
-148.5442490948084
 30
0.0
 10
111.2273193081307
 20
-148.6119452210935
 30
0.0
 10
111.1808105190798
 20
-148.7156425951996
 30
0.0
 10
111.1577283793286
 20
-148.766457753607
 30
0.0
  0
SPLINE
  5
C6
330
90
100
AcDbEntity
  8
_U+30EC_U+30A4_U+30E4_U+30FC 1
370
     0
100
AcDbSpline
210
0.0
220
0.0
230
1.0
 70
    11
 71
     3
 72
    29
 73
    25
 74
     0
 42
0.0000000001
 43
0.0000000001
 12
1.0
 22
0.0
 32
0.0
 13
1.0
 23
0.0
 33
0.0
 40
0.0
 40
0.0
 40
0.0
 40
0.0
 40
1.0
 40
1.0
 40
1.0
 40
2.0
 40
2.0
 40
2.0
 40
3.0
 40
3.0
 40
3.0
 40
4.0
 40
4.0
 40
4.0
 40
5.0
 40
5.0
 40
5.0
 40
6.0
 40
6.0
 40
6.0
 40
7.0
 40
7.0
 40
7.0
 40
8.0
 40
8.0
 40
8.0
 40
8.0
 10
110.6647352153894
 20
-148.1403116491628
 30
0.0
 10
110.6647352153894
 20
-148.1403116491628
 30
0.0
 10
110.3240152718982
 20
-148.1403116491628
 30
0.0
 10
110.3240152718982
 20
-148.1403116491628
 30
0.0
 10
110.2099826113364
 20
-148.1403116491628
 30
0.0
 10
110.093538383935
 20
-148.1444457637452
 30
0.0
 10
109.9791612138247
 20
-148.1592596743317
 30
0.0
 10
109.9791612138247
 20
-148.1592596743317
 30
0.0
 10
109.9791612138247
 20
-147.9497978688285
 30
0.0
 10
109.9791612138247
 20
-147.9497978688285
 30
0.0
 10
110.0976724985173
 20
-147.9646117794151
 30
0.0
 10
110.2713053109738
 20
-147.9689181487717
 30
0.0
 10
110.3240152718982
 20
-147.9689181487717
 30
0.0
 10
110.3240152718982
 20
-147.9689181487717
 30
0.0
 10
110.6647352153894
 20
-147.9689181487717
 30
0.0
 10
110.6647352153894
 20
-147.9689181487717
 30
0.0
 10
110.7811794427908
 20
-147.9689181487717
 30
0.0
 10
110.8972791606437
 20
-147.9646117794151
 30
0.0
 10
111.0137233880452
 20
-147.9497978688285
 30
0.0
 10
111.0137233880452
 20
-147.9497978688285
 30
0.0
 10
111.0137233880452
 20
-148.1592596743317
 30
0.0
 10
111.0137233880452
 20
-148.1592596743317
 30
0.0
 10
110.8635172248883
 20
-148.1403116491628
 30
0.0
 10
110.679549125976
 20
-148.1403116491628
 30
0.0
 10
110.6647352153894
 20
-148.1403116491628
 30
0.0
  0
HATCH
  5
C7
330
90
100
AcDbEntity
  8
_U+30EC_U+30A4_U+30E4_U+30FC 1
 62
   179
420
  2234388
100
AcDbHatch
 10
0.0
 20
0.0
 30
0.0
210
0.0
220
0.0
230
1.0
  2
SOLID
 70
     1
 71
     0
 91
        2
 92
        1
 93
        1
 72
     4
 94
        3
 73
     0
 74
     1
 95
       50
 96
       46
 40
0.0
 40
0.0
 40
0.0
 40
0.0
 40
1.0
 40
1.0
 40
1.0
 40
2.0
 40
2.0
 40
2.0
 40
3.0
 40
3.0
 40
3.0
 40
4.0
 40
4.0
 40
4.0
 40
5.0
 40
5.0
 40
5.0
 40
6.0
 40
6.0
 40
6.0
 40
7.0
 40
7.0
 40
7.0
 40
8.0
 40
8.0
 40
8.0
 40
9.0
 40
9.0
 40
9.0
 40
10.0
 40
10.0
 40
10.0
 40
11.0
 40
11.0
 40
11.0
 40
12.0
 40
12.0
 40
12.0
 40
13.0
 40
13.0
 40
13.0
 40
14.0
 40
14.0
 40
14.0
 40
15.0
 40
15.0
 40
15.0
 40
15.0
 10
111.1577283793286
 20
-148.766457753607
 10
111.0791802022649
 20
-148.9438801710974
 10
110.9437879496946
 20
-149.1512749193094
 10
110.8063286398331
 20
-149.2911457960106
 10
110.6371744515074
 20
-149.4623670416275
 10
110.4742214350551
 20
-149.5512505051469
 10
110.1548610835724
 20
-149.6928439295907
 10
110.1548610835724
 20
-149.6928439295907
 10
109.9857068952466
 20
-149.504741716096
 10
109.9857068952466
 20
-149.504741716096
 10
110.1717420514501
 20
-149.4813150667964
 10
110.342963297067
 20
-149.394498660568
 10
110.4955810270636
 20
-149.2887342291709
 10
110.7577527934911
 20
-149.1068331875497
 10
110.9482665738254
 20
-148.7938462627147
 10
110.9968424201675
 20
-148.6119452210935
 10
110.9968424201675
 20
-148.6119452210935
 10
110.3260823291893
 20
-148.6119452210935
 10
110.3260823291893
 20
-148.6119452210935
 10
110.1676079368678
 20
-148.6119452210935
 10
109.8754638397186
 20
-148.6203857050324
 10
109.7231906192706
 20
-148.6374389276844
 10
109.7231906192706
 20
-148.6374389276844
 10
109.7231906192706
 20
-148.4088568422381
 10
109.7231906192706
 20
-148.4088568422381
 10
109.7572970645746
 20
-148.4152302688858
 10
109.7824462616169
 20
-148.4216036955335
 10
109.8355007320897
 20
-148.42591006489
 10
109.9367865393561
 20
-148.4321112367635
 10
110.1338460011124
 20
-148.4343505488289
 10
110.218250840501
 20
-148.4343505488289
 10
110.218250840501
 20
-148.4343505488289
 10
110.7239908577357
 20
-148.4343505488289
 10
110.7239908577357
 20
-148.4343505488289
 10
110.7915147292466
 20
-148.4343505488289
 10
110.9375867778212
 20
-148.4300441794724
 10
110.9989094774586
 20
-148.4236707528246
 10
111.0709119731003
 20
-148.4152302688858
 10
111.0984727369823
 20
-148.4004163582992
 10
111.1322346727378
 20
-148.3771619637738
 10
111.1322346727378
 20
-148.3771619637738
 10
111.2972547464812
 20
-148.5442490948084
 10
111.2972547464812
 20
-148.5442490948084
 10
111.2273193081307
 20
-148.6119452210935
 10
111.1808105190798
 20
-148.7156425951996
 10
111.1577283793286
 20
-148.766457753607
 97
        0
 97
        0
 92
        1
 93
        1
 72
     4
 94
        3
 73
     0
 74
     1
 95
       29
 96
       25
 40
0.0
 40
0.0
 40
0.0
 40
0.0
 40
1.0
 40
1.0
 40
1.0
 40
2.0
 40
2.0
 40
2.0
 40
3.0
 40
3.0
 40
3.0
 40
4.0
 40
4.0
 40
4.0
 40
5.0
 40
5.0
 40
5.0
 40
6.0
 40
6.0
 40
6.0
 40
7.0
 40
7.0
 40
7.0
 40
8.0
 40
8.0
 40
8.0
 40
8.0
 10
110.6647352153894
 20
-148.1403116491628
 10
110.6647352153894
 20
-148.1403116491628
 10
110.3240152718982
 20
-148.1403116491628
 10
110.3240152718982
 20
-148.1403116491628
 10
110.2099826113364
 20
-148.1403116491628
 10
110.093538383935
 20
-148.1444457637452
 10
109.9791612138247
 20
-148.1592596743317
 10
109.9791612138247
 20
-148.1592596743317
 10
109.9791612138247
 20
-147.9497978688285
 10
109.9791612138247
 20
-147.9497978688285
 10
110.0976724985173
 20
-147.9646117794151
 10
110.2713053109738
 20
-147.9689181487717
 10
110.3240152718982
 20
-147.9689181487717
 10
110.3240152718982
 20
-147.9689181487717
 10
110.6647352153894
 20
-147.9689181487717
 10
110.6647352153894
 20
-147.9689181487717
 10
110.7811794427908
 20
-147.9689181487717
 10
110.8972791606437
 20
-147.9646117794151
 10
111.0137233880452
 20
-147.9497978688285
 10
111.0137233880452
 20
-147.9497978688285
 10
111.0137233880452
 20
-148.1592596743317
 10
111.0137233880452
 20
-148.1592596743317
 10
110.8635172248883
 20
-148.1403116491628
 10
110.679549125976
 20
-148.1403116491628
 10
110.6647352153894
 20
-148.1403116491628
 97
        0
 97
        0
 75
     2
 76
     1
 98
        0
  0
SPLINE
  5
C8
330
90
100
AcDbEntity
  8
_U+30EC_U+30A4_U+30E4_U+30FC 1
370
     0
100
AcDbSpline
210
0.0
220
0.0
230
1.0
 70
    11
 71
     3
 72
    50
 73
    46
 74
     0
 42
0.0000000001
 43
0.0000000001
 12
1.0
 22
0.0
 32
0.0
 13
1.0
 23
0.0
 33
0.0
 40
0.0
 40
0.0
 40
0.0
 40
0.0
 40
1.0
 40
1.0
 40
1.0
 40
2.0
 40
2.0
 40
2.0
 40
3.0
 40
3.0
 40
3.0
 40
4.0
 40
4.0
 40
4.0
 40
5.0
 40
5.0
 40
5.0
 40
6.0
 40
6.0
 40
6.0
 40
7.0
 40
7.0
 40
7.0
 40
8.0
 40
8.0
 40
8.0
 40
9.0
 40
9.0
 40
9.0
 40
10.0
 40
10.0
 40
10.0
 40
11.0
 40
11.0
 40
11.0
 40
12.0
 40
12.0
 40
12.0
 40
13.0
 40
13.0
 40
13.0
 40
14.0
 40
14.0
 40
14.0
 40
15.0
 40
15.0
 40
15.0
 40
15.0
 10
112.8678737782066
 20
-148.1254977385763
 30
0.0
 10
112.6584119727035
 20
-148.3390936586618
 30
0.0
 10
112.5867539866103
 20
-148.4110961543035
 30
0.0
 10
112.444816052618
 20
-148.5294351842218
 30
0.0
 10
112.444816052618
 20
-148.5294351842218
 30
0.0
 10
112.444816052618
 20
-149.0964979010939
 30
0.0
 10
112.444816052618
 20
-149.0964979010939
 30
0.0
 10
112.444816052618
 20
-149.2467040642508
 30
0.0
 10
112.4513617340399
 20
-149.2656520894197
 30
0.0
 10
112.4554958486222
 20
-149.4434190164586
 30
0.0
 10
112.4575629059134
 20
-149.5743326448981
 30
0.0
 10
112.4637640777868
 20
-149.6232530007887
 30
0.0
 10
112.4703097592088
 20
-149.6825086431349
 30
0.0
 10
112.4703097592088
 20
-149.6825086431349
 30
0.0
 10
112.2439669858279
 20
-149.6825086431349
 30
0.0
 10
112.2439669858279
 20
-149.6825086431349
 30
0.0
 10
112.2481011004102
 20
-149.6380669113752
 30
0.0
 10
112.2522352149925
 20
-149.5912136127758
 30
0.0
 10
112.2522352149925
 20
-149.5829453836112
 30
0.0
 10
112.2522352149925
 20
-149.5026746588049
 30
0.0
 10
112.2567138391233
 20
-149.1512749193094
 30
0.0
 10
112.2567138391233
 20
-149.0792724236677
 30
0.0
 10
112.2567138391233
 20
-149.0792724236677
 30
0.0
 10
112.2567138391233
 20
-148.673267920731
 30
0.0
 10
112.2567138391233
 20
-148.673267920731
 30
0.0
 10
112.0748127975021
 20
-148.7981526320713
 30
0.0
 10
111.8801649025855
 20
-148.9080511780508
 30
0.0
 10
111.6769042689558
 20
-148.9948675842791
 30
0.0
 10
111.6769042689558
 20
-148.9948675842791
 30
0.0
 10
111.4739881448746
 20
-148.832086822601
 30
0.0
 10
111.4739881448746
 20
-148.832086822601
 30
0.0
 10
111.5966335441495
 20
-148.7960855747802
 30
0.0
 10
111.8526041387035
 20
-148.7220160218473
 30
0.0
 10
112.197458196777
 20
-148.4660454272932
 30
0.0
 10
112.4131211741537
 20
-148.3073987801975
 30
0.0
 10
112.6057020117791
 20
-148.1191243119286
 30
0.0
 10
112.7579752322272
 20
-147.8989827104211
 30
0.0
 10
112.7579752322272
 20
-147.8989827104211
 30
0.0
 10
112.9505560698526
 20
-148.0429877017045
 30
0.0
 10
112.9505560698526
 20
-148.0429877017045
 30
0.0
 10
112.9633029231481
 20
-148.0534952429346
 30
0.0
 10
112.9715711523127
 20
-148.0683091535211
 30
0.0
 10
112.9715711523127
 20
-148.0810560068165
 30
0.0
 10
112.9715711523127
 20
-148.1211913692197
 30
0.0
 10
112.9336751019749
 20
-148.1211913692197
 30
0.0
 10
112.8678737782066
 20
-148.1254977385763
 30
0.0
  0
HATCH
  5
C9
330
90
100
AcDbEntity
  8
_U+30EC_U+30A4_U+30E4_U+30FC 1
 62
   179
420
  2234388
100
AcDbHatch
 10
0.0
 20
0.0
 30
0.0
210
0.0
220
0.0
230
1.0
  2
SOLID
 70
     1
 71
     0
 91
        1
 92
        1
 93
        1
 72
     4
 94
        3
 73
     0
 74
     1
 95
       50
 96
       46
 40
0.0
 40
0.0
 40
0.0
 40
0.0
 40
1.0
 40
1.0
 40
1.0
 40
2.0
 40
2.0
 40
2.0
 40
3.0
 40
3.0
 40
3.0
 40
4.0
 40
4.0
 40
4.0
 40
5.0
 40
5.0
 40
5.0
 40
6.0
 40
6.0
 40
6.0
 40
7.0
 40
7.0
 40
7.0
 40
8.0
 40
8.0
 40
8.0
 40
9.0
 40
9.0
 40
9.0
 40
10.0
 40
10.0
 40
10.0
 40
11.0
 40
11.0
 40
11.0
 40
12.0
 40
12.0
 40
12.0
 40
13.0
 40
13.0
 40
13.0
 40
14.0
 40
14.0
 40
14.0
 40
15.0
 40
15.0
 40
15.0
 40
15.0
 10
112.8678737782066
 20
-148.1254977385763
 10
112.6584119727035
 20
-148.3390936586618
 10
112.5867539866103
 20
-148.4110961543035
 10
112.444816052618
 20
-148.5294351842218
 10
112.444816052618
 20
-148.5294351842218
 10
112.444816052618
 20
-149.0964979010939
 10
112.444816052618
 20
-149.0964979010939
 10
112.444816052618
 20
-149.2467040642508
 10
112.4513617340399
 20
-149.2656520894197
 10
112.4554958486222
 20
-149.4434190164586
 10
112.4575629059134
 20
-149.5743326448981
 10
112.4637640777868
 20
-149.6232530007887
 10
112.4703097592088
 20
-149.6825086431349
 10
112.4703097592088
 20
-149.6825086431349
 10
112.2439669858279
 20
-149.6825086431349
 10
112.2439669858279
 20
-149.6825086431349
 10
112.2481011004102
 20
-149.6380669113752
 10
112.2522352149925
 20
-149.5912136127758
 10
112.2522352149925
 20
-149.5829453836112
 10
112.2522352149925
 20
-149.5026746588049
 10
112.2567138391233
 20
-149.1512749193094
 10
112.2567138391233
 20
-149.0792724236677
 10
112.2567138391233
 20
-149.0792724236677
 10
112.2567138391233
 20
-148.673267920731
 10
112.2567138391233
 20
-148.673267920731
 10
112.0748127975021
 20
-148.7981526320713
 10
111.8801649025855
 20
-148.9080511780508
 10
111.6769042689558
 20
-148.9948675842791
 10
111.6769042689558
 20
-148.9948675842791
 10
111.4739881448746
 20
-148.832086822601
 10
111.4739881448746
 20
-148.832086822601
 10
111.5966335441495
 20
-148.7960855747802
 10
111.8526041387035
 20
-148.7220160218473
 10
112.197458196777
 20
-148.4660454272932
 10
112.4131211741537
 20
-148.3073987801975
 10
112.6057020117791
 20
-148.1191243119286
 10
112.7579752322272
 20
-147.8989827104211
 10
112.7579752322272
 20
-147.8989827104211
 10
112.9505560698526
 20
-148.0429877017045
 10
112.9505560698526
 20
-148.0429877017045
 10
112.9633029231481
 20
-148.0534952429346
 10
112.9715711523127
 20
-148.0683091535211
 10
112.9715711523127
 20
-148.0810560068165
 10
112.9715711523127
 20
-148.1211913692197
 10
112.9336751019749
 20
-148.1211913692197
 10
112.8678737782066
 20
-148.1254977385763
 97
        0
 97
        0
 75
     2
 76
     1
 98
        0
  0
SPLINE
  5
CA
330
90
100
AcDbEntity
  8
_U+30EC_U+30A4_U+30E4_U+30FC 1
370
     0
100
AcDbSpline
210
0.0
220
0.0
230
1.0
 70
    11
 71
     3
 72
    50
 73
    46
 74
     0
 42
0.0000000001
 43
0.0000000001
 12
1.0
 22
0.0
 32
0.0
 13
1.0
 23
0.0
 33
0.0
 40
0.0
 40
0.0
 40
0.0
 40
0.0
 40
1.0
 40
1.0
 40
1.0
 40
2.0
 40
2.0
 40
2.0
 40
3.0
 40
3.0
 40
3.0
 40
4.0
 40
4.0
 40
4.0
 40
5.0
 40
5.0
 40
5.0
 40
6.0
 40
6.0
 40
6.0
 40
7.0
 40
7.0
 40
7.0
 40
8.0
 40
8.0
 40
8.0
 40
9.0
 40
9.0
 40
9.0
 40
10.0
 40
10.0
 40
10.0
 40
11.0
 40
11.0
 40
11.0
 40
12.0
 40
12.0
 40
12.0
 40
13.0
 40
13.0
 40
13.0
 40
14.0
 40
14.0
 40
14.0
 40
15.0
 40
15.0
 40
15.0
 40
15.0
 10
114.5783636866332
 20
-148.652252838271
 30
0.0
 10
114.5170409869957
 20
-148.7240830791384
 30
0.0
 10
114.2565917683109
 20
-149.0413763733299
 30
0.0
 10
114.1997476928042
 20
-149.1047661302585
 30
0.0
 10
114.2841525321929
 20
-149.2022623324911
 30
0.0
 10
114.3351399453746
 20
-149.2656520894197
 30
0.0
 10
114.4005967595943
 20
-149.3566026102303
 30
0.0
 10
114.4005967595943
 20
-149.3566026102303
 30
0.0
 10
114.216628660682
 20
-149.4940619200918
 30
0.0
 10
114.216628660682
 20
-149.4940619200918
 30
0.0
 10
114.0812364081116
 20
-149.2825330572974
 30
0.0
 10
113.9096706529462
 20
-149.0582573412077
 30
0.0
 10
113.6158040080544
 20
-148.8594753317088
 30
0.0
 10
113.6158040080544
 20
-148.8594753317088
 30
0.0
 10
113.7639431139201
 20
-148.7051350539696
 30
0.0
 10
113.7639431139201
 20
-148.7051350539696
 30
0.0
 10
113.8738416598996
 20
-148.7854057787759
 30
0.0
 10
113.9775390340056
 20
-148.8742892422953
 30
0.0
 10
114.0746907266897
 20
-148.9693738776882
 30
0.0
 10
114.1425591077491
 20
-148.8932372674642
 30
0.0
 10
114.3454752318303
 20
-148.6500135262056
 30
0.0
 10
114.4788004271095
 20
-148.4216036955335
 30
0.0
 10
114.4788004271095
 20
-148.4216036955335
 30
0.0
 10
113.8059732788402
 20
-148.4216036955335
 30
0.0
 10
113.8059732788402
 20
-148.4216036955335
 30
0.0
 10
113.6812608222741
 20
-148.4216036955335
 30
0.0
 10
113.4294243423024
 20
-148.4300441794724
 30
0.0
 10
113.2199625367992
 20
-148.4405517207024
 30
0.0
 10
113.2199625367992
 20
-148.4405517207024
 30
0.0
 10
113.2199625367992
 20
-148.2205823739692
 30
0.0
 10
113.2199625367992
 20
-148.2205823739692
 30
0.0
 10
113.40427514526
 20
-148.2397026539123
 30
0.0
 10
113.6092583266324
 20
-148.2438367684946
 30
0.0
 10
113.7977050496756
 20
-148.2438367684946
 30
0.0
 10
113.7977050496756
 20
-148.2438367684946
 30
0.0
 10
114.3010335000706
 20
-148.2438367684946
 30
0.0
 10
114.3010335000706
 20
-148.2438367684946
 30
0.0
 10
114.6396863862706
 20
-148.2438367684946
 30
0.0
 10
114.6841281180304
 20
-148.229022857908
 30
0.0
 10
114.7664659001278
 20
-148.1888874955049
 30
0.0
 10
114.7664659001278
 20
-148.1888874955049
 30
0.0
 10
114.9335530311624
 20
-148.3475341426006
 30
0.0
 10
114.9335530311624
 20
-148.3475341426006
 30
0.0
 10
114.7812798107144
 20
-148.4195366382423
 30
0.0
 10
114.6376193289795
 20
-148.5823173999204
 30
0.0
 10
114.5783636866332
 20
-148.652252838271
 30
0.0
  0
HATCH
  5
CB
330
90
100
AcDbEntity
  8
_U+30EC_U+30A4_U+30E4_U+30FC 1
 62
   179
420
  2234388
100
AcDbHatch
 10
0.0
 20
0.0
 30
0.0
210
0.0
220
0.0
230
1.0
  2
SOLID
 70
     1
 71
     0
 91
        1
 92
        1
 93
        1
 72
     4
 94
        3
 73
     0
 74
     1
 95
       50
 96
       46
 40
0.0
 40
0.0
 40
0.0
 40
0.0
 40
1.0
 40
1.0
 40
1.0
 40
2.0
 40
2.0
 40
2.0
 40
3.0
 40
3.0
 40
3.0
 40
4.0
 40
4.0
 40
4.0
 40
5.0
 40
5.0
 40
5.0
 40
6.0
 40
6.0
 40
6.0
 40
7.0
 40
7.0
 40
7.0
 40
8.0
 40
8.0
 40
8.0
 40
9.0
 40
9.0
 40
9.0
 40
10.0
 40
10.0
 40
10.0
 40
11.0
 40
11.0
 40
11.0
 40
12.0
 40
12.0
 40
12.0
 40
13.0
 40
13.0
 40
13.0
 40
14.0
 40
14.0
 40
14.0
 40
15.0
 40
15.0
 40
15.0
 40
15.0
 10
114.5783636866332
 20
-148.652252838271
 10
114.5170409869957
 20
-148.7240830791384
 10
114.2565917683109
 20
-149.0413763733299
 10
114.1997476928042
 20
-149.1047661302585
 10
114.2841525321929
 20
-149.2022623324911
 10
114.3351399453746
 20
-149.2656520894197
 10
114.4005967595943
 20
-149.3566026102303
 10
114.4005967595943
 20
-149.3566026102303
 10
114.216628660682
 20
-149.4940619200918
 10
114.216628660682
 20
-149.4940619200918
 10
114.0812364081116
 20
-149.2825330572974
 10
113.9096706529462
 20
-149.0582573412077
 10
113.6158040080544
 20
-148.8594753317088
 10
113.6158040080544
 20
-148.8594753317088
 10
113.7639431139201
 20
-148.7051350539696
 10
113.7639431139201
 20
-148.7051350539696
 10
113.8738416598996
 20
-148.7854057787759
 10
113.9775390340056
 20
-148.8742892422953
 10
114.0746907266897
 20
-148.9693738776882
 10
114.1425591077491
 20
-148.8932372674642
 10
114.3454752318303
 20
-148.6500135262056
 10
114.4788004271095
 20
-148.4216036955335
 10
114.4788004271095
 20
-148.4216036955335
 10
113.8059732788402
 20
-148.4216036955335
 10
113.8059732788402
 20
-148.4216036955335
 10
113.6812608222741
 20
-148.4216036955335
 10
113.4294243423024
 20
-148.4300441794724
 10
113.2199625367992
 20
-148.4405517207024
 10
113.2199625367992
 20
-148.4405517207024
 10
113.2199625367992
 20
-148.2205823739692
 10
113.2199625367992
 20
-148.2205823739692
 10
113.40427514526
 20
-148.2397026539123
 10
113.6092583266324
 20
-148.2438367684946
 10
113.7977050496756
 20
-148.2438367684946
 10
113.7977050496756
 20
-148.2438367684946
 10
114.3010335000706
 20
-148.2438367684946
 10
114.3010335000706
 20
-148.2438367684946
 10
114.6396863862706
 20
-148.2438367684946
 10
114.6841281180304
 20
-148.229022857908
 10
114.7664659001278
 20
-148.1888874955049
 10
114.7664659001278
 20
-148.1888874955049
 10
114.9335530311624
 20
-148.3475341426006
 10
114.9335530311624
 20
-148.3475341426006
 10
114.7812798107144
 20
-148.4195366382423
 10
114.6376193289795
 20
-148.5823173999204
 10
114.5783636866332
 20
-148.652252838271
 97
        0
 97
        0
 75
     2
 76
     1
 98
        0
  0
SPLINE
  5
CC
330
90
100
AcDbEntity
  8
_U+30EC_U+30A4_U+30E4_U+30FC 1
370
     0
100
AcDbSpline
210
0.0
220
0.0
230
1.0
 70
    11
 71
     3
 72
    29
 73
    25
 74
     0
 42
0.0000000001
 43
0.0000000001
 12
1.0
 22
0.0
 32
0.0
 13
1.0
 23
0.0
 33
0.0
 40
0.0
 40
0.0
 40
0.0
 40
0.0
 40
1.0
 40
1.0
 40
1.0
 40
2.0
 40
2.0
 40
2.0
 40
3.0
 40
3.0
 40
3.0
 40
4.0
 40
4.0
 40
4.0
 40
5.0
 40
5.0
 40
5.0
 40
6.0
 40
6.0
 40
6.0
 40
7.0
 40
7.0
 40
7.0
 40
8.0
 40
8.0
 40
8.0
 40
8.0
 10
116.2016926792829
 20
-148.8953043247554
 30
0.0
 10
116.2016926792829
 20
-148.8953043247554
 30
0.0
 10
115.7173122540568
 20
-148.8953043247554
 30
0.0
 10
115.7173122540568
 20
-148.8953043247554
 30
0.0
 10
115.6897514901748
 20
-148.8953043247554
 30
0.0
 10
115.3724581959833
 20
-148.8953043247554
 30
0.0
 10
115.1609293331889
 20
-148.9207980313462
 30
0.0
 10
115.1609293331889
 20
-148.9207980313462
 30
0.0
 10
115.1609293331889
 20
-148.690321143383
 30
0.0
 10
115.1609293331889
 20
-148.690321143383
 30
0.0
 10
115.3194037255104
 20
-148.7135755379084
 30
0.0
 10
115.5099175058448
 20
-148.7156425951996
 30
0.0
 10
115.7173122540568
 20
-148.7156425951996
 30
0.0
 10
115.7173122540568
 20
-148.7156425951996
 30
0.0
 10
116.2016926792829
 20
-148.7156425951996
 30
0.0
 10
116.2016926792829
 20
-148.7156425951996
 30
0.0
 10
116.3877278354864
 20
-148.7156425951996
 30
0.0
 10
116.5741075012384
 20
-148.7135755379084
 30
0.0
 10
116.7580756001508
 20
-148.690321143383
 30
0.0
 10
116.7580756001508
 20
-148.690321143383
 30
0.0
 10
116.7580756001508
 20
-148.9207980313462
 30
0.0
 10
116.7580756001508
 20
-148.9207980313462
 30
0.0
 10
116.5741075012384
 20
-148.8973713820465
 30
0.0
 10
116.326405135849
 20
-148.8953043247554
 30
0.0
 10
116.2016926792829
 20
-148.8953043247554
 30
0.0
  0
HATCH
  5
CD
330
90
100
AcDbEntity
  8
_U+30EC_U+30A4_U+30E4_U+30FC 1
 62
   179
420
  2234388
100
AcDbHatch
 10
0.0
 20
0.0
 30
0.0
210
0.0
220
0.0
230
1.0
  2
SOLID
 70
     1
 71
     0
 91
        1
 92
        1
 93
        1
 72
     4
 94
        3
 73
     0
 74
     1
 95
       29
 96
       25
 40
0.0
 40
0.0
 40
0.0
 40
0.0
 40
1.0
 40
1.0
 40
1.0
 40
2.0
 40
2.0
 40
2.0
 40
3.0
 40
3.0
 40
3.0
 40
4.0
 40
4.0
 40
4.0
 40
5.0
 40
5.0
 40
5.0
 40
6.0
 40
6.0
 40
6.0
 40
7.0
 40
7.0
 40
7.0
 40
8.0
 40
8.0
 40
8.0
 40
8.0
 10
116.2016926792829
 20
-148.8953043247554
 10
116.2016926792829
 20
-148.8953043247554
 10
115.7173122540568
 20
-148.8953043247554
 10
115.7173122540568
 20
-148.8953043247554
 10
115.6897514901748
 20
-148.8953043247554
 10
115.3724581959833
 20
-148.8953043247554
 10
115.1609293331889
 20
-148.9207980313462
 10
115.1609293331889
 20
-148.9207980313462
 10
115.1609293331889
 20
-148.690321143383
 10
115.1609293331889
 20
-148.690321143383
 10
115.3194037255104
 20
-148.7135755379084
 10
115.5099175058448
 20
-148.7156425951996
 10
115.7173122540568
 20
-148.7156425951996
 10
115.7173122540568
 20
-148.7156425951996
 10
116.2016926792829
 20
-148.7156425951996
 10
116.2016926792829
 20
-148.7156425951996
 10
116.3877278354864
 20
-148.7156425951996
 10
116.5741075012384
 20
-148.7135755379084
 10
116.7580756001508
 20
-148.690321143383
 10
116.7580756001508
 20
-148.690321143383
 10
116.7580756001508
 20
-148.9207980313462
 10
116.7580756001508
 20
-148.9207980313462
 10
116.5741075012384
 20
-148.8973713820465
 10
116.326405135849
 20
-148.8953043247554
 10
116.2016926792829
 20
-148.8953043247554
 97
        0
 97
        0
 75
     2
 76
     1
 98
        0
  0
ENDBLK
  5
93
330
90
100
AcDbEntity
  8
0
100
AcDbBlockEnd
  0
ENDSEC
  0
SECTION
  2
ENTITIES
  0
POLYLINE
  5
41
330
1F
100
AcDbEntity
  8
_U+30EC_U+30A4_U+30E4_U+30FC 1
 62
   179
420
  2234388
370
    25
100
AcDb2dPolyline
 66
     1
 10
0.0
 20
0.0
 30
0.0
  0
VERTEX
  5
42
330
41
100
AcDbEntity
  8
_U+30EC_U+30A4_U+30E4_U+30FC 1
 62
   179
420
  2234388
370
    25
100
AcDbVertex
100
AcDb2dVertex
 10
99.40759503740396
 20
-152.761261287222
 30
0.0
  0
VERTEX
  5
43
330
41
100
AcDbEntity
  8
_U+30EC_U+30A4_U+30E4_U+30FC 1
 62
   179
420
  2234388
370
    25
100
AcDbVertex
100
AcDb2dVertex
 10
113.4079247932897
 20
-152.761261287222
 30
0.0
  0
SEQEND
  5
44
330
41
100
AcDbEntity
  8
_U+30EC_U+30A4_U+30E4_U+30FC 1
 62
   179
420
  2234388
370
    25
  0
POLYLINE
  5
45
330
1F
100
AcDbEntity
  8
_U+30EC_U+30A4_U+30E4_U+30FC 1
 62
   179
420
  2234388
370
    25
100
AcDb2dPolyline
 66
     1
 10
0.0
 20
0.0
 30
0.0
  0
VERTEX
  5
46
330
45
100
AcDbEntity
  8
_U+30EC_U+30A4_U+30E4_U+30FC 1
 62
   179
420
  2234388
370
    25
100
AcDbVertex
100
AcDb2dVertex
 10
113.4077525385155
 20
-152.761261287222
 30
0.0
  0
VERTEX
  5
47
330
45
100
AcDbEntity
  8
_U+30EC_U+30A4_U+30E4_U+30FC 1
 62
   179
420
  2234388
370
    25
100
AcDbVertex
100
AcDb2dVertex
 10
113.4077525385155
 20
-153.1613230004467
 30
0.0
  0
SEQEND
  5
48
330
45
100
AcDbEntity
  8
_U+30EC_U+30A4_U+30E4_U+30FC 1
 62
   179
420
  2234388
370
    25
  0
POLYLINE
  5
49
330
1F
100
AcDbEntity
  8
_U+30EC_U+30A4_U+30E4_U+30FC 1
 62
   179
420
  2234388
370
    25
100
AcDb2dPolyline
 66
     1
 10
0.0
 20
0.0
 30
0.0
  0
VERTEX
  5
4A
330
49
100
AcDbEntity
  8
_U+30EC_U+30A4_U+30E4_U+30FC 1
 62
   179
420
  2234388
370
    25
100
AcDbVertex
100
AcDb2dVertex
 10
99.80792589871339
 20
-138.7610607224169
 30
0.0
  0
VERTEX
  5
4B
330
49
100
AcDbEntity
  8
_U+30EC_U+30A4_U+30E4_U+30FC 1
 62
   179
420
  2234388
370
    25
100
AcDbVertex
100
AcDb2dVertex
 10
100.207621570543
 20
-138.7610607224169
 30
0.0
  0
SEQEND
  5
4C
330
49
100
AcDbEntity
  8
_U+30EC_U+30A4_U+30E4_U+30FC 1
 62
   179
420
  2234388
370
    25
  0
POLYLINE
  5
4D
330
1F
100
AcDbEntity
  8
_U+30EC_U+30A4_U+30E4_U+30FC 1
 62
   179
420
  2234388
370
    25
100
AcDb2dPolyline
 66
     1
 10
0.0
 20
0.0
 30
0.0
  0
VERTEX
  5
4E
330
4D
100
AcDbEntity
  8
_U+30EC_U+30A4_U+30E4_U+30FC 1
 62
   179
420
  2234388
370
    25
100
AcDbVertex
100
AcDb2dVertex
 10
100.207546209079
 20
-138.7610607224169
 30
0.0
  0
VERTEX
  5
4F
330
4D
100
AcDbEntity
  8
_U+30EC_U+30A4_U+30E4_U+30FC 1
 62
   179
420
  2234388
370
    25
100
AcDbVertex
100
AcDb2dVertex
 10
99.40744431447648
 20
-152.7614120101495
 30
0.0
  0
SEQEND
  5
50
330
4D
100
AcDbEntity
  8
_U+30EC_U+30A4_U+30E4_U+30FC 1
 62
   179
420
  2234388
370
    25
  0
POLYLINE
  5
51
330
1F
100
AcDbEntity
  8
_U+30EC_U+30A4_U+30E4_U+30FC 1
 62
   179
420
  2234388
370
    25
100
AcDb2dPolyline
 66
     1
 10
0.0
 20
0.0
 30
0.0
  0
VERTEX
  5
52
330
51
100
AcDbEntity
  8
_U+30EC_U+30A4_U+30E4_U+30FC 1
 62
   179
420
  2234388
370
    25
100
AcDbVertex
100
AcDb2dVertex
 10
113.4077525385155
 20
-153.1612368730595
 30
0.0
  0
VERTEX
  5
53
330
51
100
AcDbEntity
  8
_U+30EC_U+30A4_U+30E4_U+30FC 1
 62
   179
420
  2234388
370
    25
100
AcDbVertex
100
AcDb2dVertex
 10
99.24160603055527
 20
-153.7602743824041
 30
0.0
  0
SEQEND
  5
54
330
51
100
AcDbEntity
  8
_U+30EC_U+30A4_U+30E4_U+30FC 1
 62
   179
420
  2234388
370
    25
  0
POLYLINE
  5
55
330
1F
100
AcDbEntity
  8
_U+30EC_U+30A4_U+30E4_U+30FC 1
 62
   179
420
  2234388
370
    25
100
AcDb2dPolyline
 66
     1
 10
0.0
 20
0.0
 30
0.0
  0
VERTEX
  5
56
330
55
100
AcDbEntity
  8
_U+30EC_U+30A4_U+30E4_U+30FC 1
 62
   179
420
  2234388
370
    25
100
AcDbVertex
100
AcDb2dVertex
 10
99.80792589871339
 20
-138.7610607224169
 30
0.0
  0
VERTEX
  5
57
330
55
100
AcDbEntity
  8
_U+30EC_U+30A4_U+30E4_U+30FC 1
 62
   179
420
  2234388
370
    25
100
AcDbVertex
100
AcDb2dVertex
 10
98.41198397401355
 20
-152.8824209890689
 30
0.0
  0
SEQEND
  5
58
330
55
100
AcDbEntity
  8
_U+30EC_U+30A4_U+30E4_U+30FC 1
 62
   179
420
  2234388
370
    25
  0
SPLINE
  5
59
330
1F
100
AcDbEntity
  8
_U+30EC_U+30A4_U+30E4_U+30FC 1
 62
   179
420
  2234388
370
    25
100
AcDbSpline
210
0.0
220
0.0
230
1.0
 70
     8
 71
     3
 72
    11
 73
     7
 74
     0
 42
0.0000000001
 43
0.0000000001
 12
1.0
 22
0.0
 32
0.0
 13
1.0
 23
0.0
 33
0.0
 40
0.0
 40
0.0
 40
0.0
 40
0.0
 40
1.0
 40
1.0
 40
1.0
 40
2.0
 40
2.0
 40
2.0
 40
2.0
 10
98.41195167624369
 20
-152.882507116456
 30
0.0
 10
98.36855423905261
 20
-153.3220797685271
 30
0.0
 10
98.68958330866094
 20
-153.7136579341193
 30
0.0
 10
99.12914519480864
 20
-153.7570446053867
 30
0.0
 10
99.166535246747
 20
-153.7609418696544
 30
0.0
 10
99.20428057415727
 20
-153.7619969301468
 30
0.0
 10
99.24168139201902
 20
-153.7602313187106
 30
0.0
  0
SPLINE
  5
5A
330
1F
100
AcDbEntity
  8
_U+30EC_U+30A4_U+30E4_U+30FC 1
 62
   179
420
  2234388
370
     9
100
AcDbSpline
210
0.0
220
0.0
230
1.0
 70
    11
 71
     3
 72
    17
 73
    13
 74
     0
 42
0.0000000001
 43
0.0000000001
 12
1.0
 22
0.0
 32
0.0
 13
1.0
 23
0.0
 33
0.0
 40
0.0
 40
0.0
 40
0.0
 40
0.0
 40
1.0
 40
1.0
 40
1.0
 40
2.0
 40
2.0
 40
2.0
 40
3.0
 40
3.0
 40
3.0
 40
4.0
 40
4.0
 40
4.0
 40
4.0
 10
113.5076603075877
 20
-157.7611068331183
 30
0.0
 10
113.5076603075877
 20
-157.7060929645882
 30
0.0
 10
113.4628525344327
 20
-157.6612851914332
 30
0.0
 10
113.4078171340558
 20
-157.6612851914332
 30
0.0
 10
113.352781733679
 20
-157.6612851914332
 30
0.0
 10
113.3079847264473
 20
-157.7060929645882
 30
0.0
 10
113.3079847264473
 20
-157.7611068331183
 30
0.0
 10
113.3079847264473
 20
-157.8161422334952
 30
0.0
 10
113.352781733679
 20
-157.8609500066502
 30
0.0
 10
113.4078171340558
 20
-157.8609500066502
 30
0.0
 10
113.4628525344327
 20
-157.8609500066502
 30
0.0
 10
113.5076603075877
 20
-157.8161422334952
 30
0.0
 10
113.5076603075877
 20
-157.7611068331183
 30
0.0
  0
SPLINE
  5
5B
330
1F
100
AcDbEntity
  8
_U+30EC_U+30A4_U+30E4_U+30FC 1
 62
   179
420
  2234388
370
     9
100
AcDbSpline
210
0.0
220
0.0
230
1.0
 70
    11
 71
     3
 72
    17
 73
    13
 74
     0
 42
0.0000000001
 43
0.0000000001
 12
1.0
 22
0.0
 32
0.0
 13
1.0
 23
0.0
 33
0.0
 40
0.0
 40
0.0
 40
0.0
 40
0.0
 40
1.0
 40
1.0
 40
1.0
 40
2.0
 40
2.0
 40
2.0
 40
3.0
 40
3.0
 40
3.0
 40
4.0
 40
4.0
 40
4.0
 40
4.0
 10
94.50796947235858
 20
-153.7610279970415
 30
0.0
 10
94.50796947235858
 20
-153.7060141285114
 30
0.0
 10
94.46316169920323
 20
-153.6612063553564
 30
0.0
 10
94.40812629882636
 20
-153.6612063553564
 30
0.0
 10
94.3530908984495
 20
-153.6612063553564
 30
0.0
 10
94.30829389121786
 20
-153.7060141285114
 30
0.0
 10
94.30829389121786
 20
-153.7610279970415
 30
0.0
 10
94.30829389121786
 20
-153.8164294388137
 30
0.0
 10
94.3530908984495
 20
-153.8608711705734
 30
0.0
 10
94.40812629882636
 20
-153.8608711705734
 30
0.0
 10
94.46316169920323
 20
-153.8608711705734
 30
0.0
 10
94.50796947235858
 20
-153.8164294388137
 30
0.0
 10
94.50796947235858
 20
-153.7610279970415
 30
0.0
  0
SPLINE
  5
5C
330
1F
100
AcDbEntity
  8
_U+30EC_U+30A4_U+30E4_U+30FC 1
 62
   179
420
  2234388
370
     9
100
AcDbSpline
210
0.0
220
0.0
230
1.0
 70
    11
 71
     3
 72
    17
 73
    13
 74
     0
 42
0.0000000001
 43
0.0000000001
 12
1.0
 22
0.0
 32
0.0
 13
1.0
 23
0.0
 33
0.0
 40
0.0
 40
0.0
 40
0.0
 40
0.0
 40
1.0
 40
1.0
 40
1.0
 40
2.0
 40
2.0
 40
2.0
 40
3.0
 40
3.0
 40
3.0
 40
4.0
 40
4.0
 40
4.0
 40
4.0
 10
98.50772533073363
 20
-157.7611068331183
 30
0.0
 10
98.50772533073363
 20
-157.7060929645882
 30
0.0
 10
98.46291755757828
 20
-157.6612851914332
 30
0.0
 10
98.40788215720141
 20
-157.6612851914332
 30
0.0
 10
98.35284675682455
 20
-157.6612851914332
 30
0.0
 10
98.30804974959291
 20
-157.7060929645882
 30
0.0
 10
98.30804974959291
 20
-157.7611068331183
 30
0.0
 10
98.30804974959291
 20
-157.8161422334952
 30
0.0
 10
98.35284675682455
 20
-157.8609500066502
 30
0.0
 10
98.40788215720141
 20
-157.8609500066502
 30
0.0
 10
98.46291755757828
 20
-157.8609500066502
 30
0.0
 10
98.50772533073363
 20
-157.8161422334952
 30
0.0
 10
98.50772533073363
 20
-157.7611068331183
 30
0.0
  0
SPLINE
  5
5D
330
1F
100
AcDbEntity
  8
_U+30EC_U+30A4_U+30E4_U+30FC 1
 62
   179
420
  2234388
370
     9
100
AcDbSpline
210
0.0
220
0.0
230
1.0
 70
    11
 71
     3
 72
    17
 73
    13
 74
     0
 42
0.0000000001
 43
0.0000000001
 12
1.0
 22
0.0
 32
0.0
 13
1.0
 23
0.0
 33
0.0
 40
0.0
 40
0.0
 40
0.0
 40
0.0
 40
1.0
 40
1.0
 40
1.0
 40
2.0
 40
2.0
 40
2.0
 40
3.0
 40
3.0
 40
3.0
 40
4.0
 40
4.0
 40
4.0
 40
4.0
 10
94.50796947235858
 20
-138.7610607224169
 30
0.0
 10
94.50796947235858
 20
-138.7060468538872
 30
0.0
 10
94.46316169920323
 20
-138.6612390807318
 30
0.0
 10
94.40812629882636
 20
-138.6612390807318
 30
0.0
 10
94.3530908984495
 20
-138.6612390807318
 30
0.0
 10
94.30829389121786
 20
-138.7060468538872
 30
0.0
 10
94.30829389121786
 20
-138.7610607224169
 30
0.0
 10
94.30829389121786
 20
-138.8164621641894
 30
0.0
 10
94.3530908984495
 20
-138.8612699373442
 30
0.0
 10
94.40812629882636
 20
-138.8612699373442
 30
0.0
 10
94.46316169920323
 20
-138.8612699373442
 30
0.0
 10
94.50796947235858
 20
-138.8164621641894
 30
0.0
 10
94.50796947235858
 20
-138.7610607224169
 30
0.0
  0
POLYLINE
  5
5E
330
1F
100
AcDbEntity
  8
_U+30EC_U+30A4_U+30E4_U+30FC 1
 62
   179
420
  2234388
370
     9
100
AcDb2dPolyline
 66
     1
 10
0.0
 20
0.0
 30
0.0
  0
VERTEX
  5
5F
330
5E
100
AcDbEntity
  8
_U+30EC_U+30A4_U+30E4_U+30FC 1
 62
   179
420
  2234388
370
     9
100
AcDbVertex
100
AcDb2dVertex
 10
94.40806170328634
 20
-153.7610279970415
 30
0.0
  0
VERTEX
  5
60
330
5E
100
AcDbEntity
  8
_U+30EC_U+30A4_U+30E4_U+30FC 1
 62
   179
420
  2234388
370
     9
100
AcDbVertex
100
AcDb2dVertex
 10
94.40806170328634
 20
-138.7609315313362
 30
0.0
  0
SEQEND
  5
61
330
5E
100
AcDbEntity
  8
_U+30EC_U+30A4_U+30E4_U+30FC 1
 62
   179
420
  2234388
370
     9
  0
POLYLINE
  5
62
330
1F
100
AcDbEntity
  8
_U+30EC_U+30A4_U+30E4_U+30FC 1
 62
   179
420
  2234388
370
     9
100
AcDb2dPolyline
 66
     1
 10
0.0
 20
0.0
 30
0.0
  0
VERTEX
  5
63
330
62
100
AcDbEntity
  8
_U+30EC_U+30A4_U+30E4_U+30FC 1
 62
   179
420
  2234388
370
     9
100
AcDbVertex
100
AcDb2dVertex
 10
96.66806587345668
 20
-153.7610279970415
 30
0.0
  0
VERTEX
  5
64
330
62
100
AcDbEntity
  8
_U+30EC_U+30A4_U+30E4_U+30FC 1
 62
   179
420
  2234388
370
     9
100
AcDbVertex
100
AcDb2dVertex
 10
93.40769210175691
 20
-153.7610279970415
 30
0.0
  0
SEQEND
  5
65
330
62
100
AcDbEntity
  8
_U+30EC_U+30A4_U+30E4_U+30FC 1
 62
   179
420
  2234388
370
     9
  0
POLYLINE
  5
66
330
1F
100
AcDbEntity
  8
_U+30EC_U+30A4_U+30E4_U+30FC 1
 62
   179
420
  2234388
370
     9
100
AcDb2dPolyline
 66
     1
 10
0.0
 20
0.0
 30
0.0
  0
VERTEX
  5
67
330
66
100
AcDbEntity
  8
_U+30EC_U+30A4_U+30E4_U+30FC 1
 62
   179
420
  2234388
370
     9
100
AcDbVertex
100
AcDb2dVertex
 10
97.26816920921704
 20
-138.7610607224169
 30
0.0
  0
VERTEX
  5
68
330
66
100
AcDbEntity
  8
_U+30EC_U+30A4_U+30E4_U+30FC 1
 62
   179
420
  2234388
370
     9
100
AcDbVertex
100
AcDb2dVertex
 10
93.40771363360336
 20
-138.7610607224169
 30
0.0
  0
SEQEND
  5
69
330
66
100
AcDbEntity
  8
_U+30EC_U+30A4_U+30E4_U+30FC 1
 62
   179
420
  2234388
370
     9
  0
INSERT
  5
6B
330
1F
100
AcDbEntity
  8
_U+30EC_U+30A4_U+30E4_U+30FC 1
100
AcDbBlockReference
  2
block 2
 10
0.0
 20
0.0
 30
0.0
  0
POLYLINE
  5
72
330
1F
100
AcDbEntity
  8
_U+30EC_U+30A4_U+30E4_U+30FC 1
 62
   179
420
  2234388
370
     9
100
AcDb2dPolyline
 66
     1
 10
0.0
 20
0.0
 30
0.0
  0
VERTEX
  5
73
330
72
100
AcDbEntity
  8
_U+30EC_U+30A4_U+30E4_U+30FC 1
 62
   179
420
  2234388
370
     9
100
AcDbVertex
100
AcDb2dVertex
 10
98.40781756166139
 20
-157.7611068331183
 30
0.0
  0
VERTEX
  5
74
330
72
100
AcDbEntity
  8
_U+30EC_U+30A4_U+30E4_U+30FC 1
 62
   179
420
  2234388
370
     9
100
AcDbVertex
100
AcDb2dVertex
 10
113.4079247932897
 20
-157.7611068331183
 30
0.0
  0
SEQEND
  5
75
330
72
100
AcDbEntity
  8
_U+30EC_U+30A4_U+30E4_U+30FC 1
 62
   179
420
  2234388
370
     9
  0
POLYLINE
  5
76
330
1F
100
AcDbEntity
  8
_U+30EC_U+30A4_U+30E4_U+30FC 1
 62
   179
420
  2234388
370
     9
100
AcDb2dPolyline
 66
     1
 10
0.0
 20
0.0
 30
0.0
  0
VERTEX
  5
77
330
76
100
AcDbEntity
  8
_U+30EC_U+30A4_U+30E4_U+30FC 1
 62
   179
420
  2234388
370
     9
100
AcDbVertex
100
AcDb2dVertex
 10
98.40781756166139
 20
-155.5011457266412
 30
0.0
  0
VERTEX
  5
78
330
76
100
AcDbEntity
  8
_U+30EC_U+30A4_U+30E4_U+30FC 1
 62
   179
420
  2234388
370
     9
100
AcDbVertex
100
AcDb2dVertex
 10
98.40781756166139
 20
-158.7611749887928
 30
0.0
  0
SEQEND
  5
79
330
76
100
AcDbEntity
  8
_U+30EC_U+30A4_U+30E4_U+30FC 1
 62
   179
420
  2234388
370
     9
  0
POLYLINE
  5
7A
330
1F
100
AcDbEntity
  8
_U+30EC_U+30A4_U+30E4_U+30FC 1
 62
   179
420
  2234388
370
     9
100
AcDb2dPolyline
 66
     1
 10
0.0
 20
0.0
 30
0.0
  0
VERTEX
  5
7B
330
7A
100
AcDbEntity
  8
_U+30EC_U+30A4_U+30E4_U+30FC 1
 62
   179
420
  2234388
370
     9
100
AcDbVertex
100
AcDb2dVertex
 10
113.4077525385155
 20
-155.7009397329389
 30
0.0
  0
VERTEX
  5
7C
330
7A
100
AcDbEntity
  8
_U+30EC_U+30A4_U+30E4_U+30FC 1
 62
   179
420
  2234388
370
     9
100
AcDbVertex
100
AcDb2dVertex
 10
113.4077525385155
 20
-158.7613041798735
 30
0.0
  0
SEQEND
  5
7D
330
7A
100
AcDbEntity
  8
_U+30EC_U+30A4_U+30E4_U+30FC 1
 62
   179
420
  2234388
370
     9
  0
INSERT
  5
7F
330
1F
100
AcDbEntity
  8
_U+30EC_U+30A4_U+30E4_U+30FC 1
100
AcDbBlockReference
  2
block 3
 10
0.0
 20
0.0
 30
0.0
  0
POLYLINE
  5
86
330
1F
100
AcDbEntity
  8
_U+30EC_U+30A4_U+30E4_U+30FC 1
  6
AI-Linetype-1
 62
   154
420
    23468
370
    25
100
AcDb2dPolyline
 66
     1
 10
0.0
 20
0.0
 30
0.0
  0
VERTEX
  5
87
330
86
100
AcDbEntity
  8
_U+30EC_U+30A4_U+30E4_U+30FC 1
  6
AI-Linetype-1
 62
   154
420
    23468
370
    25
100
AcDbVertex
100
AcDb2dVertex
 10
99.30804254380364
 20
-138.7610607224169
 30
0.0
  0
VERTEX
  5
88
330
86
100
AcDbEntity
  8
_U+30EC_U+30A4_U+30E4_U+30FC 1
  6
AI-Linetype-1
 62
   154
420
    23468
370
    25
100
AcDbVertex
100
AcDb2dVertex
 10
97.74452902151657
 20
-154.3623048184515
 30
0.0
  0
VERTEX
  5
89
330
86
100
AcDbEntity
  8
_U+30EC_U+30A4_U+30E4_U+30FC 1
  6
AI-Linetype-1
 62
   154
420
    23468
370
    25
100
AcDbVertex
100
AcDb2dVertex
 10
113.4078601977494
 20
-153.6613355464371
 30
0.0
  0
SEQEND
  5
8B
330
86
100
AcDbEntity
  8
_U+30EC_U+30A4_U+30E4_U+30FC 1
  6
AI-Linetype-1
 62
   154
420
    23468
370
    25
  0
POLYLINE
  5
8C
330
1F
100
AcDbEntity
  8
_U+30EC_U+30A4_U+30E4_U+30FC 1
 62
   179
420
  2234388
370
     9
100
AcDb2dPolyline
 66
     1
 10
0.0
 20
0.0
 30
0.0
  0
VERTEX
  5
8D
330
8C
100
AcDbEntity
  8
_U+30EC_U+30A4_U+30E4_U+30FC 1
 62
   179
420
  2234388
370
     9
100
AcDbVertex
100
AcDb2dVertex
 10
107.652042277232
 20
-153.913451940417
 30
0.0
  0
VERTEX
  5
8E
330
8C
100
AcDbEntity
  8
_U+30EC_U+30A4_U+30E4_U+30FC 1
 62
   179
420
  2234388
370
     9
100
AcDbVertex
100
AcDb2dVertex
 10
105.4672811456438
 20
-150.2018783193831
 30
0.0
  0
SEQEND
  5
8F
330
8C
100
AcDbEntity
  8
_U+30EC_U+30A4_U+30E4_U+30FC 1
 62
   179
420
  2234388
370
     9
  0
INSERT
  5
91
330
1F
100
AcDbEntity
  8
_U+30EC_U+30A4_U+30E4_U+30FC 1
100
AcDbBlockReference
  2
block 4
 10
0.0
 20
0.0
 30
0.0
  0
ENDSEC
  0
SECTION
  2
OBJECTS
  0
DICTIONARY
  5
C
330
0
100
AcDbDictionary
281
     1
  3
ACAD_GROUP
350
D
  3
ACAD_LAYOUT
350
1A
  3
ACAD_MATERIAL
350
3B
  3
ACAD_MLEADERSTYLE
350
CF
  3
ACAD_MLINESTYLE
350
17
  3
ACAD_PLOTSETTINGS
350
19
  3
ACAD_PLOTSTYLENAME
350
E
  3
ACAD_TABLESTYLE
350
CE
  3
ACAD_VISUALSTYLE
350
2A
  0
SUN
  5
3F
330
29
100
AcDbSun
 90
        1
290
     0
 63
     7
421
 16777215
 40
1.0
291
     1
 91
  2455826
 92
 54000000
292
     0
 70
     2
 71
   256
280
     1
  0
DICTIONARY
  5
D
102
{ACAD_REACTORS
330
C
102
}
330
C
100
AcDbDictionary
281
     1
  0
DICTIONARY
  5
1A
102
{ACAD_REACTORS
330
C
102
}
330
C
100
AcDbDictionary
281
     1
  3
Layout1
350
1E
  3
Layout2
350
26
  3
Model
350
22
  0
DICTIONARY
  5
3B
102
{ACAD_REACTORS
330
C
102
}
330
C
100
AcDbDictionary
281
     1
  3
ByBlock
350
3D
  3
ByLayer
350
3C
  3
Global
350
3E
  0
DICTIONARY
  5
CF
102
{ACAD_REACTORS
330
C
102
}
330
C
100
AcDbDictionary
281
     1
  0
DICTIONARY
  5
17
102
{ACAD_REACTORS
330
C
102
}
330
C
100
AcDbDictionary
281
     1
  3
Standard
350
18
  0
DICTIONARY
  5
19
102
{ACAD_REACTORS
330
C
102
}
330
C
100
AcDbDictionary
281
     1
  0
ACDBDICTIONARYWDFLT
  5
E
102
{ACAD_REACTORS
330
C
102
}
330
C
100
AcDbDictionary
281
     1
  3
Normal
350
F
100
AcDbDictionaryWithDefault
340
F
  0
DICTIONARY
  5
CE
102
{ACAD_REACTORS
330
C
102
}
330
C
100
AcDbDictionary
281
     1
  0
DICTIONARY
  5
2A
102
{ACAD_REACTORS
330
C
102
}
330
C
100
AcDbDictionary
281
     1
  3
2dWireframe
350
2F
  3
3D Hidden
350
31
  3
3dWireframe
350
30
  3
Basic
350
32
  3
Brighten
350
36
  3
ColorChange
350
3A
  3
Conceptual
350
34
  3
Dim
350
35
  3
Facepattern
350
39
  3
Flat
350
2B
  3
FlatWithEdges
350
2C
  3
Gouraud
350
2D
  3
GouraudWithEdges
350
2E
  3
Linepattern
350
38
  3
Realistic
350
33
  3
Thicken
350
37
  0
LAYOUT
  5
1E
102
{ACAD_REACTORS
330
1A
102
}
330
1A
100
AcDbPlotSettings
  1

  2
none_device
  4

  6

 40
0.0
 41
0.0
 42
0.0
 43
0.0
 44
0.0
 45
0.0
 46
0.0
 47
0.0
 48
0.0
 49
0.0
140
0.0
141
0.0
142
1.0
143
1.0
 70
   688
 72
     0
 73
     0
 74
     5
  7

 75
    16
 76
     0
 77
     2
 78
   300
147
1.0
148
0.0
149
0.0
100
AcDbLayout
  1
Layout1
 70
     1
 71
     1
 10
0.0
 20
0.0
 11
12.0
 21
9.0
 12
0.0
 22
0.0
 32
0.0
 14
1.000000000000000E+20
 24
1.000000000000000E+20
 34
1.000000000000000E+20
 15
-1.000000000000000E+20
 25
-1.000000000000000E+20
 35
-1.000000000000000E+20
146
0.0
 13
0.0
 23
0.0
 33
0.0
 16
1.0
 26
0.0
 36
0.0
 17
0.0
 27
1.0
 37
0.0
 76
     0
330
1B
  0
LAYOUT
  5
26
102
{ACAD_REACTORS
330
1A
102
}
330
1A
100
AcDbPlotSettings
  1

  2
none_device
  4

  6

 40
0.0
 41
0.0
 42
0.0
 43
0.0
 44
0.0
 45
0.0
 46
0.0
 47
0.0
 48
0.0
 49
0.0
140
0.0
141
0.0
142
1.0
143
1.0
 70
   688
 72
     0
 73
     0
 74
     5
  7

 75
    16
 76
     0
 77
     2
 78
   300
147
1.0
148
0.0
149
0.0
100
AcDbLayout
  1
Layout2
 70
     1
 71
     2
 10
0.0
 20
0.0
 11
0.0
 21
0.0
 12
0.0
 22
0.0
 32
0.0
 14
0.0
 24
0.0
 34
0.0
 15
0.0
 25
0.0
 35
0.0
146
0.0
 13
0.0
 23
0.0
 33
0.0
 16
1.0
 26
0.0
 36
0.0
 17
0.0
 27
1.0
 37
0.0
 76
     0
330
23
  0
LAYOUT
  5
22
102
{ACAD_REACTORS
330
1A
102
}
330
1A
100
AcDbPlotSettings
  1

  2
none_device
  4

  6

 40
0.0
 41
0.0
 42
0.0
 43
0.0
 44
0.0
 45
0.0
 46
0.0
 47
0.0
 48
0.0
 49
0.0
140
0.0
141
0.0
142
1.0
143
1.0
 70
  1712
 72
     0
 73
     0
 74
     0
  7

 75
     0
 76
     0
 77
     2
 78
   300
147
1.0
148
0.0
149
0.0
100
AcDbLayout
  1
Model
 70
     1
 71
     0
 10
0.0
 20
0.0
 11
12.0
 21
9.0
 12
0.0
 22
0.0
 32
0.0
 14
1.000000000000000E+20
 24
1.000000000000000E+20
 34
1.000000000000000E+20
 15
-1.000000000000000E+20
 25
-1.000000000000000E+20
 35
-1.000000000000000E+20
146
0.0
 13
0.0
 23
0.0
 33
0.0
 16
1.0
 26
0.0
 36
0.0
 17
0.0
 27
1.0
 37
0.0
 76
     0
330
1F
331
29
  0
MATERIAL
  5
3D
102
{ACAD_REACTORS
330
3B
102
}
330
3B
100
AcDbMaterial
  1
ByBlock
 72
     1
 94
      127
  0
MATERIAL
  5
3C
102
{ACAD_REACTORS
330
3B
102
}
330
3B
100
AcDbMaterial
  1
ByLayer
 72
     1
 94
      127
  0
MATERIAL
  5
3E
102
{ACAD_REACTORS
330
3B
102
}
330
3B
100
AcDbMaterial
  1
Global
 72
     1
 94
      127
  0
MLINESTYLE
  5
18
102
{ACAD_REACTORS
330
17
102
}
330
17
100
AcDbMlineStyle
  2
Standard
 70
     0
  3

 62
   256
 51
90.0
 52
90.0
 71
     2
 49
0.5
 62
   256
  6
BYLAYER
 49
-0.5
 62
   256
  6
BYLAYER
  0
ACDBPLACEHOLDER
  5
F
102
{ACAD_REACTORS
330
E
102
}
330
E
  0
VISUALSTYLE
  5
2F
102
{ACAD_REACTORS
330
2A
102
}
330
2A
100
AcDbVisualStyle
  2
2dWireframe
 70
     4
177
     2
291
     0
 71
     0
176
     1
 72
     2
176
     1
 73
     0
176
     1
 90
        0
176
     1
 40
-0.6
176
     1
 41
-30.0
176
     1
 62
     5
 63
     7
421
 16777215
176
     1
 74
     1
176
     1
 91
        4
176
     1
 64
     7
176
     1
 65
   257
176
     1
 75
     1
176
     1
175
     1
176
     1
 42
1.0
176
     1
 92
        0
176
     1
 66
   257
176
     1
 43
1.0
176
     1
 76
     1
176
     1
 77
     6
176
     1
 78
     2
176
     1
 67
     7
176
     1
 79
     5
176
     1
170
     0
176
     1
171
     0
176
     1
290
     0
176
     1
 93
        1
176
     1
 44
0.0
176
     1
173
     0
176
     1
  0
VISUALSTYLE
  5
31
102
{ACAD_REACTORS
330
2A
102
}
330
2A
100
AcDbVisualStyle
  2
3D Hidden
 70
     6
177
     2
291
     0
 71
     1
176
     1
 72
     2
176
     1
 73
     2
176
     1
 90
        0
176
     1
 40
-0.6
176
     1
 41
-30.0
176
     1
 62
     5
 63
     7
421
 16777215
176
     1
 74
     2
176
     1
 91
        2
176
     1
 64
     7
176
     1
 65
   257
176
     1
 75
     2
176
     1
175
     1
176
     1
 42
40.0
176
     1
 92
        0
176
     1
 66
   257
176
     1
 43
1.0
176
     1
 76
     1
176
     1
 77
     6
176
     1
 78
     2
176
     1
 67
     7
176
     1
 79
     3
176
     1
170
     0
176
     1
171
     0
176
     1
290
     0
176
     1
 93
        1
176
     1
 44
0.0
176
     1
173
     0
176
     1
  0
VISUALSTYLE
  5
30
102
{ACAD_REACTORS
330
2A
102
}
330
2A
100
AcDbVisualStyle
  2
3dWireframe
 70
     5
177
     2
291
     0
 71
     0
176
     1
 72
     2
176
     1
 73
     0
176
     1
 90
        0
176
     1
 40
-0.6
176
     1
 41
-30.0
176
     1
 62
     5
 63
     7
421
 16777215
176
     1
 74
     1
176
     1
 91
        4
176
     1
 64
     7
176
     1
 65
   257
176
     1
 75
     1
176
     1
175
     1
176
     1
 42
1.0
176
     1
 92
        0
176
     1
 66
   257
176
     1
 43
1.0
176
     1
 76
     1
176
     1
 77
     6
176
     1
 78
     2
176
     1
 67
     7
176
     1
 79
     5
176
     1
170
     0
176
     1
171
     0
176
     1
290
     0
176
     1
 93
        1
176
     1
 44
0.0
176
     1
173
     0
176
     1
  0
VISUALSTYLE
  5
32
102
{ACAD_REACTORS
330
2A
102
}
330
2A
100
AcDbVisualStyle
  2
Basic
 70
     7
177
     2
291
     1
 71
     1
176
     1
 72
     0
176
     1
 73
     1
176
     1
 90
        0
176
     1
 40
-0.6
176
     1
 41
-30.0
176
     1
 62
     5
 63
     7
421
 16777215
176
     1
 74
     0
176
     1
 91
        4
176
     1
 64
     7
176
     1
 65
   257
176
     1
 75
     1
176
     1
175
     1
176
     1
 42
1.0
176
     1
 92
        8
176
     1
 66
     7
176
     1
 43
1.0
176
     1
 76
     1
176
     1
 77
     6
176
     1
 78
     2
176
     1
 67
     7
176
     1
 79
     5
176
     1
170
     0
176
     1
171
     0
176
     1
290
     0
176
     1
 93
        1
176
     1
 44
0.0
176
     1
173
     0
176
     1
  0
VISUALSTYLE
  5
36
102
{ACAD_REACTORS
330
2A
102
}
330
2A
100
AcDbVisualStyle
  2
Brighten
 70
    12
177
     2
291
     1
 71
     2
176
     1
 72
     2
176
     1
 73
     0
176
     1
 90
        0
176
     1
 40
-0.6
176
     1
 41
-30.0
176
     1
 62
     5
 63
     7
421
 16777215
176
     1
 74
     1
176
     1
 91
        4
176
     1
 64
     7
176
     1
 65
   257
176
     1
 75
     1
176
     1
175
     1
176
     1
 42
1.0
176
     1
 92
        8
176
     1
 66
     7
176
     1
 43
1.0
176
     1
 76
     1
176
     1
 77
     6
176
     1
 78
     2
176
     1
 67
     7
176
     1
 79
     5
176
     1
170
     0
176
     1
171
     0
176
     1
290
     0
176
     1
 93
        1
176
     1
 44
50.0
176
     1
173
     0
176
     1
  0
VISUALSTYLE
  5
3A
102
{ACAD_REACTORS
330
2A
102
}
330
2A
100
AcDbVisualStyle
  2
ColorChange
 70
    16
177
     2
291
     1
 71
     2
176
     1
 72
     2
176
     1
 73
     3
176
     1
 90
        0
176
     1
 40
-0.6
176
     1
 41
-30.0
176
     1
 62
     5
 63
     8
421
  8421504
176
     1
 74
     1
176
     1
 91
        4
176
     1
 64
     7
176
     1
 65
   257
176
     1
 75
     1
176
     1
175
     1
176
     1
 42
1.0
176
     1
 92
        8
176
     1
 66
     8
424
  8421504
176
     1
 43
1.0
176
     1
 76
     1
176
     1
 77
     6
176
     1
 78
     2
176
     1
 67
     7
176
     1
 79
     5
176
     1
170
     0
176
     1
171
     0
176
     1
290
     0
176
     1
 93
        1
176
     1
 44
0.0
176
     1
173
     0
176
     1
  0
VISUALSTYLE
  5
34
102
{ACAD_REACTORS
330
2A
102
}
330
2A
100
AcDbVisualStyle
  2
Conceptual
 70
     9
177
     2
291
     0
 71
     3
176
     1
 72
     2
176
     1
 73
     0
176
     1
 90
        0
176
     1
 40
-0.6
176
     1
 41
-30.0
176
     1
 62
     5
 63
     7
421
 16777215
176
     1
 74
     2
176
     1
 91
        2
176
     1
 64
     7
176
     1
 65
   257
176
     1
 75
     1
176
     1
175
     1
176
     1
 42
40.0
176
     1
 92
        8
176
     1
 66
     7
176
     1
 43
1.0
176
     1
 76
     1
176
     1
 77
     6
176
     1
 78
     2
176
     1
 67
     7
176
     1
 79
     3
176
     1
170
     0
176
     1
171
     0
176
     1
290
     0
176
     1
 93
        1
176
     1
 44
0.0
176
     1
173
     0
176
     1
  0
VISUALSTYLE
  5
35
102
{ACAD_REACTORS
330
2A
102
}
330
2A
100
AcDbVisualStyle
  2
Dim
 70
    11
177
     2
291
     1
 71
     2
176
     1
 72
     2
176
     1
 73
     0
176
     1
 90
        0
176
     1
 40
-0.6
176
     1
 41
-30.0
176
     1
 62
     5
 63
     7
421
 16777215
176
     1
 74
     1
176
     1
 91
        4
176
     1
 64
     7
176
     1
 65
   257
176
     1
 75
     1
176
     1
175
     1
176
     1
 42
1.0
176
     1
 92
        8
176
     1
 66
     7
176
     1
 43
1.0
176
     1
 76
     1
176
     1
 77
     6
176
     1
 78
     2
176
     1
 67
     7
176
     1
 79
     5
176
     1
170
     0
176
     1
171
     0
176
     1
290
     0
176
     1
 93
        1
176
     1
 44
-50.0
176
     1
173
     0
176
     1
  0
VISUALSTYLE
  5
39
102
{ACAD_REACTORS
330
2A
102
}
330
2A
100
AcDbVisualStyle
  2
Facepattern
 70
    15
177
     2
291
     1
 71
     2
176
     1
 72
     2
176
     1
 73
     0
176
     1
 90
        0
176
     1
 40
-0.6
176
     1
 41
-30.0
176
     1
 62
     5
 63
     7
421
 16777215
176
     1
 74
     1
176
     1
 91
        4
176
     1
 64
     7
176
     1
 65
   257
176
     1
 75
     1
176
     1
175
     1
176
     1
 42
1.0
176
     1
 92
        8
176
     1
 66
     7
176
     1
 43
1.0
176
     1
 76
     1
176
     1
 77
     6
176
     1
 78
     2
176
     1
 67
     7
176
     1
 79
     5
176
     1
170
     0
176
     1
171
     0
176
     1
290
     0
176
     1
 93
        1
176
     1
 44
0.0
176
     1
173
     0
176
     1
  0
VISUALSTYLE
  5
2B
102
{ACAD_REACTORS
330
2A
102
}
330
2A
100
AcDbVisualStyle
  2
Flat
 70
     0
177
     2
291
     1
 71
     2
176
     1
 72
     1
176
     1
 73
     1
176
     1
 90
        2
176
     1
 40
-0.6
176
     1
 41
30.0
176
     1
 62
     5
 63
     7
421
 16777215
176
     1
 74
     0
176
     1
 91
        4
176
     1
 64
     7
176
     1
 65
   257
176
     1
 75
     1
176
     1
175
     1
176
     1
 42
1.0
176
     1
 92
        8
176
     1
 66
     7
176
     1
 43
1.0
176
     1
 76
     1
176
     1
 77
     6
176
     1
 78
     2
176
     1
 67
     7
176
     1
 79
     5
176
     1
170
     0
176
     1
171
     0
176
     1
290
     0
176
     1
 93
       13
176
     1
 44
0.0
176
     1
173
     0
176
     1
  0
VISUALSTYLE
  5
2C
102
{ACAD_REACTORS
330
2A
102
}
330
2A
100
AcDbVisualStyle
  2
FlatWithEdges
 70
     1
177
     2
291
     1
 71
     2
176
     1
 72
     1
176
     1
 73
     1
176
     1
 90
        2
176
     1
 40
-0.6
176
     1
 41
30.0
176
     1
 62
     5
 63
     7
421
 16777215
176
     1
 74
     1
176
     1
 91
        4
176
     1
 64
     7
176
     1
 65
   257
176
     1
 75
     1
176
     1
175
     1
176
     1
 42
1.0
176
     1
 92
        0
176
     1
 66
   257
176
     1
 43
1.0
176
     1
 76
     1
176
     1
 77
     6
176
     1
 78
     2
176
     1
 67
     7
176
     1
 79
     5
176
     1
170
     0
176
     1
171
     0
176
     1
290
     0
176
     1
 93
       13
176
     1
 44
0.0
176
     1
173
     0
176
     1
  0
VISUALSTYLE
  5
2D
102
{ACAD_REACTORS
330
2A
102
}
330
2A
100
AcDbVisualStyle
  2
Gouraud
 70
     2
177
     2
291
     1
 71
     2
176
     1
 72
     2
176
     1
 73
     1
176
     1
 90
        2
176
     1
 40
-0.6
176
     1
 41
30.0
176
     1
 62
     5
 63
     7
421
 16777215
176
     1
 74
     0
176
     1
 91
        4
176
     1
 64
     7
176
     1
 65
   257
176
     1
 75
     1
176
     1
175
     1
176
     1
 42
1.0
176
     1
 92
        0
176
     1
 66
     7
176
     1
 43
1.0
176
     1
 76
     1
176
     1
 77
     6
176
     1
 78
     2
176
     1
 67
     7
176
     1
 79
     5
176
     1
170
     0
176
     1
171
     0
176
     1
290
     0
176
     1
 93
       13
176
     1
 44
0.0
176
     1
173
     0
176
     1
  0
VISUALSTYLE
  5
2E
102
{ACAD_REACTORS
330
2A
102
}
330
2A
100
AcDbVisualStyle
  2
GouraudWithEdges
 70
     3
177
     2
291
     1
 71
     2
176
     1
 72
     2
176
     1
 73
     1
176
     1
 90
        2
176
     1
 40
-0.6
176
     1
 41
30.0
176
     1
 62
     5
 63
     7
421
 16777215
176
     1
 74
     1
176
     1
 91
        4
176
     1
 64
     7
176
     1
 65
   257
176
     1
 75
     1
176
     1
175
     1
176
     1
 42
1.0
176
     1
 92
        0
176
     1
 66
   257
176
     1
 43
1.0
176
     1
 76
     1
176
     1
 77
     6
176
     1
 78
     2
176
     1
 67
     7
176
     1
 79
     5
176
     1
170
     0
176
     1
171
     0
176
     1
290
     0
176
     1
 93
       13
176
     1
 44
0.0
176
     1
173
     0
176
     1
  0
VISUALSTYLE
  5
38
102
{ACAD_REACTORS
330
2A
102
}
330
2A
100
AcDbVisualStyle
  2
Linepattern
 70
    14
177
     2
291
     1
 71
     2
176
     1
 72
     2
176
     1
 73
     0
176
     1
 90
        0
176
     1
 40
-0.6
176
     1
 41
-30.0
176
     1
 62
     5
 63
     7
421
 16777215
176
     1
 74
     1
176
     1
 91
        4
176
     1
 64
     7
176
     1
 65
   257
176
     1
 75
     7
176
     1
175
     7
176
     1
 42
1.0
176
     1
 92
        8
176
     1
 66
     7
176
     1
 43
1.0
176
     1
 76
     1
176
     1
 77
     6
176
     1
 78
     2
176
     1
 67
     7
176
     1
 79
     5
176
     1
170
     0
176
     1
171
     0
176
     1
290
     0
176
     1
 93
        1
176
     1
 44
0.0
176
     1
173
     0
176
     1
  0
VISUALSTYLE
  5
33
102
{ACAD_REACTORS
330
2A
102
}
330
2A
100
AcDbVisualStyle
  2
Realistic
 70
     8
177
     2
291
     0
 71
     2
176
     1
 72
     2
176
     1
 73
     0
176
     1
 90
        0
176
     1
 40
-0.6
176
     1
 41
-30.0
176
     1
 62
     5
 63
     7
421
 16777215
176
     1
 74
     1
176
     1
 91
        0
176
     1
 64
     7
176
     1
 65
   257
176
     1
 75
     1
176
     1
175
     1
176
     1
 42
1.0
176
     1
 92
        8
176
     1
 66
     8
424
  7895160
176
     1
 43
1.0
176
     1
 76
     1
176
     1
 77
     6
176
     1
 78
     2
176
     1
 67
     7
176
     1
 79
     5
176
     1
170
     0
176
     1
171
     0
176
     1
290
     0
176
     1
 93
       13
176
     1
 44
0.0
176
     1
173
     0
176
     1
  0
VISUALSTYLE
  5
37
102
{ACAD_REACTORS
330
2A
102
}
330
2A
100
AcDbVisualStyle
  2
Thicken
 70
    13
177
     2
291
     1
 71
     2
176
     1
 72
     2
176
     1
 73
     0
176
     1
 90
        0
176
     1
 40
-0.6
176
     1
 41
-30.0
176
     1
 62
     5
 63
     7
421
 16777215
176
     1
 74
     1
176
     1
 91
        4
176
     1
 64
     7
176
     1
 65
   257
176
     1
 75
     1
176
     1
175
     1
176
     1
 42
1.0
176
     1
 92
       12
176
     1
 66
     7
176
     1
 43
1.0
176
     1
 76
     1
176
     1
 77
     6
176
     1
 78
     2
176
     1
 67
     7
176
     1
 79
     5
176
     1
170
     0
176
     1
171
     0
176
     1
290
     0
176
     1
 93
        1
176
     1
 44
0.0
176
     1
173
     0
176
     1
  0
ENDSEC
  0
EOF
