  0
SECTION
  2
HEADER
  9
$ACADVER
  1
AC1024
  9
$ACADMAINTVER
 70
     6
  9
$DWGCODEPAGE
  3
UNDEFINED
  9
$INSBASE
 10
0.0
 20
0.0
 30
0.0
  9
$EXTMIN
 10
1.000000000000000E+20
 20
1.000000000000000E+20
 30
1.000000000000000E+20
  9
$EXTMAX
 10
-1.000000000000000E+20
 20
-1.000000000000000E+20
 30
-1.000000000000000E+20
  9
$LIMMIN
 10
0.0
 20
0.0
  9
$LIMMAX
 10
12.0
 20
9.0
  9
$ORTHOMODE
 70
     0
  9
$REGENMODE
 70
     1
  9
$FILLMODE
 70
     1
  9
$QTEXTMODE
 70
     0
  9
$MIRRTEXT
 70
     1
  9
$LTSCALE
 40
1.0
  9
$ATTMODE
 70
     1
  9
$TEXTSIZE
 40
0.2
  9
$TRACEWID
 40
0.05
  9
$TEXTSTYLE
  7
Standard
  9
$CLAYER
  8
0
  9
$CELTYPE
  6
ByLayer
  9
$CECOLOR
 62
   256
  9
$CELTSCALE
 40
1.0
  9
$DISPSILH
 70
     0
  9
$DIMSCALE
 40
1.0
  9
$DIMASZ
 40
0.18
  9
$DIMEXO
 40
0.0625
  9
$DIMDLI
 40
0.38
  9
$DIMRND
 40
0.0
  9
$DIMDLE
 40
0.0
  9
$DIMEXE
 40
0.18
  9
$DIMTP
 40
0.0
  9
$DIMTM
 40
0.0
  9
$DIMTXT
 40
0.18
  9
$DIMCEN
 40
0.09
  9
$DIMTSZ
 40
0.0
  9
$DIMTOL
 70
     0
  9
$DIMLIM
 70
     0
  9
$DIMTIH
 70
     1
  9
$DIMTOH
 70
     1
  9
$DIMSE1
 70
     0
  9
$DIMSE2
 70
     0
  9
$DIMTAD
 70
     0
  9
$DIMZIN
 70
     0
  9
$DIMBLK
  1

  9
$DIMASO
 70
     1
  9
$DIMSHO
 70
     1
  9
$DIMPOST
  1

  9
$DIMAPOST
  1

  9
$DIMALT
 70
     0
  9
$DIMALTD
 70
     2
  9
$DIMALTF
 40
25.4
  9
$DIMLFAC
 40
1.0
  9
$DIMTOFL
 70
     0
  9
$DIMTVP
 40
0.0
  9
$DIMTIX
 70
     0
  9
$DIMSOXD
 70
     0
  9
$DIMSAH
 70
     0
  9
$DIMBLK1
  1

  9
$DIMBLK2
  1

  9
$DIMSTYLE
  2
Standard
  9
$DIMCLRD
 70
     0
  9
$DIMCLRE
 70
     0
  9
$DIMCLRT
 70
     0
  9
$DIMTFAC
 40
1.0
  9
$DIMGAP
 40
0.09
  9
$DIMJUST
 70
     0
  9
$DIMSD1
 70
     0
  9
$DIMSD2
 70
     0
  9
$DIMTOLJ
 70
     1
  9
$DIMTZIN
 70
     0
  9
$DIMALTZ
 70
     0
  9
$DIMALTTZ
 70
     0
  9
$DIMUPT
 70
     0
  9
$DIMDEC
 70
     4
  9
$DIMTDEC
 70
     4
  9
$DIMALTU
 70
     2
  9
$DIMALTTD
 70
     2
  9
$DIMTXSTY
  7
Standard
  9
$DIMAUNIT
 70
     0
  9
$DIMADEC
 70
     0
  9
$DIMALTRND
 40
0.0
  9
$DIMAZIN
 70
     0
  9
$DIMDSEP
 70
    46
  9
$DIMATFIT
 70
     3
  9
$DIMFRAC
 70
     0
  9
$DIMLDRBLK
  1

  9
$DIMLUNIT
 70
     2
  9
$DIMLWD
 70
    -2
  9
$DIMLWE
 70
    -2
  9
$DIMTMOVE
 70
     0
  9
$DIMFXL
 40
1.0
  9
$DIMFXLON
 70
     0
  9
$DIMJOGANG
 40
0.7853981633974483
  9
$DIMTFILL
 70
     0
  9
$DIMTFILLCLR
 70
     0
  9
$DIMARCSYM
 70
     0
  9
$DIMLTYPE
  6

  9
$DIMLTEX1
  6

  9
$DIMLTEX2
  6

  9
$DIMTXTDIRECTION
 70
     0
  9
$LUNITS
 70
     2
  9
$LUPREC
 70
     4
  9
$SKETCHINC
 40
0.1
  9
$FILLETRAD
 40
0.5
  9
$AUNITS
 70
     0
  9
$AUPREC
 70
     0
  9
$MENU
  1
.
  9
$ELEVATION
 40
0.0
  9
$PELEVATION
 40
0.0
  9
$THICKNESS
 40
0.0
  9
$LIMCHECK
 70
     0
  9
$CHAMFERA
 40
0.5
  9
$CHAMFERB
 40
0.5
  9
$CHAMFERC
 40
1.0
  9
$CHAMFERD
 40
0.0
  9
$SKPOLY
 70
     0
  9
$TDCREATE
 40
2457917.583784722
  9
$TDUCREATE
 40
2457917.208784722
  9
$TDUPDATE
 40
2457917.583796285
  9
$TDUUPDATE
 40
2457917.208796296
  9
$TDINDWG
 40
0.0000000116
  9
$TDUSRTIMER
 40
0.0000000116
  9
$USRTIMER
 70
     1
  9
$ANGBASE
 50
0.0
  9
$ANGDIR
 70
     0
  9
$PDMODE
 70
     0
  9
$PDSIZE
 40
0.0
  9
$PLINEWID
 40
0.0
  9
$SPLFRAME
 70
     0
  9
$SPLINETYPE
 70
     6
  9
$SPLINESEGS
 70
     8
  9
$HANDSEED
  5
F1
  9
$SURFTAB1
 70
     6
  9
$SURFTAB2
 70
     6
  9
$SURFTYPE
 70
     6
  9
$SURFU
 70
     6
  9
$SURFV
 70
     6
  9
$UCSBASE
  2

  9
$UCSNAME
  2

  9
$UCSORG
 10
0.0
 20
0.0
 30
0.0
  9
$UCSXDIR
 10
1.0
 20
0.0
 30
0.0
  9
$UCSYDIR
 10
0.0
 20
1.0
 30
0.0
  9
$UCSORTHOREF
  2

  9
$UCSORTHOVIEW
 70
     0
  9
$UCSORGTOP
 10
0.0
 20
0.0
 30
0.0
  9
$UCSORGBOTTOM
 10
0.0
 20
0.0
 30
0.0
  9
$UCSORGLEFT
 10
0.0
 20
0.0
 30
0.0
  9
$UCSORGRIGHT
 10
0.0
 20
0.0
 30
0.0
  9
$UCSORGFRONT
 10
0.0
 20
0.0
 30
0.0
  9
$UCSORGBACK
 10
0.0
 20
0.0
 30
0.0
  9
$PUCSBASE
  2

  9
$PUCSNAME
  2

  9
$PUCSORG
 10
0.0
 20
0.0
 30
0.0
  9
$PUCSXDIR
 10
1.0
 20
0.0
 30
0.0
  9
$PUCSYDIR
 10
0.0
 20
1.0
 30
0.0
  9
$PUCSORTHOREF
  2

  9
$PUCSORTHOVIEW
 70
     0
  9
$PUCSORGTOP
 10
0.0
 20
0.0
 30
0.0
  9
$PUCSORGBOTTOM
 10
0.0
 20
0.0
 30
0.0
  9
$PUCSORGLEFT
 10
0.0
 20
0.0
 30
0.0
  9
$PUCSORGRIGHT
 10
0.0
 20
0.0
 30
0.0
  9
$PUCSORGFRONT
 10
0.0
 20
0.0
 30
0.0
  9
$PUCSORGBACK
 10
0.0
 20
0.0
 30
0.0
  9
$USERI1
 70
     0
  9
$USERI2
 70
     0
  9
$USERI3
 70
     0
  9
$USERI4
 70
     0
  9
$USERI5
 70
     0
  9
$USERR1
 40
0.0
  9
$USERR2
 40
0.0
  9
$USERR3
 40
0.0
  9
$USERR4
 40
0.0
  9
$USERR5
 40
0.0
  9
$WORLDVIEW
 70
     1
  9
$SHADEDGE
 70
     3
  9
$SHADEDIF
 70
    70
  9
$TILEMODE
 70
     1
  9
$MAXACTVP
 70
    64
  9
$PINSBASE
 10
0.0
 20
0.0
 30
0.0
  9
$PLIMCHECK
 70
     0
  9
$PEXTMIN
 10
1.000000000000000E+20
 20
1.000000000000000E+20
 30
1.000000000000000E+20
  9
$PEXTMAX
 10
-1.000000000000000E+20
 20
-1.000000000000000E+20
 30
-1.000000000000000E+20
  9
$PLIMMIN
 10
0.0
 20
0.0
  9
$PLIMMAX
 10
12.0
 20
9.0
  9
$UNITMODE
 70
     0
  9
$VISRETAIN
 70
     1
  9
$PLINEGEN
 70
     0
  9
$PSLTSCALE
 70
     1
  9
$TREEDEPTH
 70
  3020
  9
$CMLSTYLE
  2
Standard
  9
$CMLJUST
 70
     0
  9
$CMLSCALE
 40
1.0
  9
$PROXYGRAPHICS
 70
     1
  9
$MEASUREMENT
 70
     0
  9
$CELWEIGHT
370
    -1
  9
$ENDCAPS
280
     0
  9
$JOINSTYLE
280
     0
  9
$LWDISPLAY
290
     1
  9
$INSUNITS
 70
     1
  9
$HYPERLINKBASE
  1

  9
$STYLESHEET
  1

  9
$XEDIT
290
     1
  9
$CEPSNTYPE
380
     0
  9
$PSTYLEMODE
290
     1
  9
$FINGERPRINTGUID
  2
{17295B4C-70A0-E74C-B94A-87C1CE8C0DE3}
  9
$VERSIONGUID
  2
{FAEB1C32-E019-11D5-929B-00C0DF256EC4}
  9
$EXTNAMES
290
     1
  9
$PSVPSCALE
 40
0.0
  9
$OLESTARTUP
290
     0
  9
$SORTENTS
280
   127
  9
$INDEXCTL
280
     0
  9
$HIDETEXT
280
     1
  9
$XCLIPFRAME
280
     2
  9
$HALOGAP
280
     0
  9
$OBSCOLOR
 70
   257
  9
$OBSLTYPE
280
     0
  9
$INTERSECTIONDISPLAY
280
     0
  9
$INTERSECTIONCOLOR
 70
   257
  9
$DIMASSOC
280
     2
  9
$PROJECTNAME
  1

  9
$CAMERADISPLAY
290
     0
  9
$LENSLENGTH
 40
50.0
  9
$CAMERAHEIGHT
 40
0.0
  9
$STEPSPERSEC
 40
2.0
  9
$STEPSIZE
 40
6.0
  9
$3DDWFPREC
 40
2.0
  9
$PSOLWIDTH
 40
0.25
  9
$PSOLHEIGHT
 40
4.0
  9
$LOFTANG1
 40
1.570796326794897
  9
$LOFTANG2
 40
1.570796326794897
  9
$LOFTMAG1
 40
0.0
  9
$LOFTMAG2
 40
0.0
  9
$LOFTPARAM
 70
     7
  9
$LOFTNORMALS
280
     1
  9
$LATITUDE
 40
37.795
  9
$LONGITUDE
 40
-122.394
  9
$NORTHDIRECTION
 40
0.0
  9
$TIMEZONE
 70
 -8000
  9
$LIGHTGLYPHDISPLAY
280
     1
  9
$TILEMODELIGHTSYNCH
280
     1
  9
$CMATERIAL
347
3C
  9
$SOLIDHIST
280
     1
  9
$SHOWHIST
280
     1
  9
$DWFFRAME
280
     2
  9
$DGNFRAME
280
     2
  9
$REALWORLDSCALE
290
     1
  9
$INTERFERECOLOR
 62
   256
  9
$CSHADOW
280
     0
  9
$SHADOWPLANELOCATION
 40
0.0
  0
ENDSEC
  0
SECTION
  2
CLASSES
  0
CLASS
  1
ACDBDICTIONARYWDFLT
  2
AcDbDictionaryWithDefault
  3
ObjectDBX Classes
 90
        0
 91
        4
280
     0
281
     0
  0
CLASS
  1
VISUALSTYLE
  2
AcDbVisualStyle
  3
ObjectDBX Classes
 90
     4095
 91
        4
280
     0
281
     0
  0
CLASS
  1
MATERIAL
  2
AcDbMaterial
  3
ObjectDBX Classes
 90
     1153
 91
        4
280
     0
281
     0
  0
CLASS
  1
SUN
  2
AcDbSun
  3
SCENEOE
 90
     1024
 91
        4
280
     0
281
     0
  0
ENDSEC
  0
SECTION
  2
TABLES
  0
TABLE
  2
VPORT
  5
8
330
0
100
AcDbSymbolTable
 70
     1
  0
VPORT
  5
29
330
8
100
AcDbSymbolTableRecord
100
AcDbViewportTableRecord
  2
*Active
 70
     0
 10
0.0
 20
0.0
 11
1.0
 21
1.0
 12
0.0
 22
0.0
 13
0.0
 23
0.0
 14
0.5
 24
0.5
 15
0.5
 25
0.5
 16
0.0
 26
0.0
 36
1.0
 17
91.00082462281999
 27
-128.4993055234307
 37
0.0
 40
256.9986110468615
 41
0.7081814508812795
 42
50.0
 43
0.0
 44
0.0
 50
0.0
 51
0.0
 71
     0
 72
   100
 73
     1
 74
     3
 75
     0
 76
     0
 77
     0
 78
     0
281
     0
 65
     1
110
0.0
120
0.0
130
0.0
111
1.0
121
0.0
131
0.0
112
0.0
122
1.0
132
0.0
 79
     0
146
0.0
 60
     3
 61
     5
292
     1
282
     1
141
0.0
142
0.0
 63
   250
361
3F
  0
ENDTAB
  0
TABLE
  2
LTYPE
  5
5
330
0
100
AcDbSymbolTable
 70
     3
  0
LTYPE
  5
14
330
5
100
AcDbSymbolTableRecord
100
AcDbLinetypeTableRecord
  2
ByBlock
 70
     0
  3

 72
    65
 73
     0
 40
0.0
  0
LTYPE
  5
15
330
5
100
AcDbSymbolTableRecord
100
AcDbLinetypeTableRecord
  2
ByLayer
 70
     0
  3

 72
    65
 73
     0
 40
0.0
  0
LTYPE
  5
16
330
5
100
AcDbSymbolTableRecord
100
AcDbLinetypeTableRecord
  2
Continuous
 70
     0
  3
Solid line
 72
    65
 73
     0
 40
0.0
  0
LTYPE
  5
44
330
5
100
AcDbSymbolTableRecord
100
AcDbLinetypeTableRecord
  2
AI-Linetype-1
 70
     0
  3
Adobe Illustrator Linetype No. 1
 72
    65
 73
     2
 40
1.411111110758333
 49
0.7055555553791667
 74
     0
 49
-0.7055555553791667
 74
     0
  0
LTYPE
  5
49
330
5
100
AcDbSymbolTableRecord
100
AcDbLinetypeTableRecord
  2
AI-Linetype-2
 70
     0
  3
Adobe Illustrator Linetype No. 2
 72
    65
 73
     2
 40
1.411111110758333
 49
0.7055555553791667
 74
     0
 49
-0.7055555553791667
 74
     0
  0
ENDTAB
  0
TABLE
  2
LAYER
  5
2
330
0
100
AcDbSymbolTable
 70
     2
  0
LAYER
  5
10
330
2
100
AcDbSymbolTableRecord
100
AcDbLayerTableRecord
  2
0
 70
     0
 62
     7
  6
Continuous
370
    -3
390
F
347
3E
  0
LAYER
  5
40
330
2
100
AcDbSymbolTableRecord
100
AcDbLayerTableRecord
  2
_U+30EC_U+30A4_U+30E4_U+30FC 1
 70
     0
 62
     7
  6
Continuous
370
    -3
390
F
347
3E
  0
ENDTAB
  0
TABLE
  2
STYLE
  5
3
330
0
100
AcDbSymbolTable
 70
     1
  0
STYLE
  5
11
330
3
100
AcDbSymbolTableRecord
100
AcDbTextStyleTableRecord
  2
Standard
 70
     0
 40
0.0
 41
1.0
 50
0.0
 71
     0
 42
0.2
  3
txt
  4

  0
ENDTAB
  0
TABLE
  2
VIEW
  5
6
330
0
100
AcDbSymbolTable
 70
     0
  0
ENDTAB
  0
TABLE
  2
UCS
  5
7
330
0
100
AcDbSymbolTable
 70
     0
  0
ENDTAB
  0
TABLE
  2
APPID
  5
9
330
0
100
AcDbSymbolTable
 70
     1
  0
APPID
  5
12
330
9
100
AcDbSymbolTableRecord
100
AcDbRegAppTableRecord
  2
ACAD
 70
     0
  0
ENDTAB
  0
TABLE
  2
DIMSTYLE
  5
A
330
0
100
AcDbSymbolTable
 70
     1
100
AcDbDimStyleTable
  0
DIMSTYLE
105
27
330
A
100
AcDbSymbolTableRecord
100
AcDbDimStyleTableRecord
  2
Standard
 70
     0
178
     0
340
11
  0
ENDTAB
  0
TABLE
  2
BLOCK_RECORD
  5
1
330
0
100
AcDbSymbolTable
 70
     5
  0
BLOCK_RECORD
  5
1F
330
1
100
AcDbSymbolTableRecord
100
AcDbBlockTableRecord
  2
*Model_Space
340
22
 70
     0
280
     1
281
     0
  0
BLOCK_RECORD
  5
1B
330
1
100
AcDbSymbolTableRecord
100
AcDbBlockTableRecord
  2
*Paper_Space
340
1E
 70
     0
280
     1
281
     0
  0
BLOCK_RECORD
  5
23
330
1
100
AcDbSymbolTableRecord
100
AcDbBlockTableRecord
  2
*Paper_Space0
340
26
 70
     0
280
     1
281
     0
  0
BLOCK_RECORD
  5
63
330
1
100
AcDbSymbolTableRecord
100
AcDbBlockTableRecord
  2
block 2
340
0
102
{BLKREFS
331
64
102
}
 70
     0
280
     1
281
     0
  0
BLOCK_RECORD
  5
BD
330
1
100
AcDbSymbolTableRecord
100
AcDbBlockTableRecord
  2
block 3
340
0
102
{BLKREFS
331
BE
102
}
 70
     0
280
     1
281
     0
  0
BLOCK_RECORD
  5
D1
330
1
100
AcDbSymbolTableRecord
100
AcDbBlockTableRecord
  2
block 4
340
0
102
{BLKREFS
331
D2
102
}
 70
     0
280
     1
281
     0
  0
BLOCK_RECORD
  5
E6
330
1
100
AcDbSymbolTableRecord
100
AcDbBlockTableRecord
  2
block 5
340
0
102
{BLKREFS
331
E7
102
}
 70
     0
280
     1
281
     0
  0
ENDTAB
  0
ENDSEC
  0
SECTION
  2
BLOCKS
  0
BLOCK
  5
20
330
1F
100
AcDbEntity
  8
0
100
AcDbBlockBegin
  2
*Model_Space
 70
     0
 10
0.0
 20
0.0
 30
0.0
  3
*Model_Space
  1

  0
ENDBLK
  5
21
330
1F
100
AcDbEntity
  8
0
100
AcDbBlockEnd
  0
BLOCK
  5
1C
330
1B
100
AcDbEntity
 67
     1
  8
0
100
AcDbBlockBegin
  2
*Paper_Space
 70
     0
 10
0.0
 20
0.0
 30
0.0
  3
*Paper_Space
  1

  0
ENDBLK
  5
1D
330
1B
100
AcDbEntity
 67
     1
  8
0
100
AcDbBlockEnd
  0
BLOCK
  5
24
330
23
100
AcDbEntity
  8
0
100
AcDbBlockBegin
  2
*Paper_Space0
 70
     0
 10
0.0
 20
0.0
 30
0.0
  3
*Paper_Space0
  1

  0
ENDBLK
  5
25
330
23
100
AcDbEntity
  8
0
100
AcDbBlockEnd
  0
BLOCK
  5
65
330
63
100
AcDbEntity
  8
0
100
AcDbBlockBegin
  2
block 2
 70
     0
 10
0.0
 20
0.0
 30
0.0
  3
block 2
  1

  0
SPLINE
  5
67
330
63
100
AcDbEntity
  8
_U+30EC_U+30A4_U+30E4_U+30FC 1
370
     0
100
AcDbSpline
210
0.0
220
0.0
230
1.0
 70
    11
 71
     3
 72
   242
 73
   238
 74
     0
 42
0.0000000001
 43
0.0000000001
 12
1.0
 22
0.0
 32
0.0
 13
1.0
 23
0.0
 33
0.0
 40
0.0
 40
0.0
 40
0.0
 40
0.0
 40
1.0
 40
1.0
 40
1.0
 40
2.0
 40
2.0
 40
2.0
 40
3.0
 40
3.0
 40
3.0
 40
4.0
 40
4.0
 40
4.0
 40
5.0
 40
5.0
 40
5.0
 40
6.0
 40
6.0
 40
6.0
 40
7.0
 40
7.0
 40
7.0
 40
8.0
 40
8.0
 40
8.0
 40
9.0
 40
9.0
 40
9.0
 40
10.0
 40
10.0
 40
10.0
 40
11.0
 40
11.0
 40
11.0
 40
12.0
 40
12.0
 40
12.0
 40
13.0
 40
13.0
 40
13.0
 40
14.0
 40
14.0
 40
14.0
 40
15.0
 40
15.0
 40
15.0
 40
16.0
 40
16.0
 40
16.0
 40
17.0
 40
17.0
 40
17.0
 40
18.0
 40
18.0
 40
18.0
 40
19.0
 40
19.0
 40
19.0
 40
20.0
 40
20.0
 40
20.0
 40
21.0
 40
21.0
 40
21.0
 40
22.0
 40
22.0
 40
22.0
 40
23.0
 40
23.0
 40
23.0
 40
24.0
 40
24.0
 40
24.0
 40
25.0
 40
25.0
 40
25.0
 40
26.0
 40
26.0
 40
26.0
 40
27.0
 40
27.0
 40
27.0
 40
28.0
 40
28.0
 40
28.0
 40
29.0
 40
29.0
 40
29.0
 40
30.0
 40
30.0
 40
30.0
 40
31.0
 40
31.0
 40
31.0
 40
32.0
 40
32.0
 40
32.0
 40
33.0
 40
33.0
 40
33.0
 40
34.0
 40
34.0
 40
34.0
 40
35.0
 40
35.0
 40
35.0
 40
36.0
 40
36.0
 40
36.0
 40
37.0
 40
37.0
 40
37.0
 40
38.0
 40
38.0
 40
38.0
 40
39.0
 40
39.0
 40
39.0
 40
40.0
 40
40.0
 40
40.0
 40
41.0
 40
41.0
 40
41.0
 40
42.0
 40
42.0
 40
42.0
 40
43.0
 40
43.0
 40
43.0
 40
44.0
 40
44.0
 40
44.0
 40
45.0
 40
45.0
 40
45.0
 40
46.0
 40
46.0
 40
46.0
 40
47.0
 40
47.0
 40
47.0
 40
48.0
 40
48.0
 40
48.0
 40
49.0
 40
49.0
 40
49.0
 40
50.0
 40
50.0
 40
50.0
 40
51.0
 40
51.0
 40
51.0
 40
52.0
 40
52.0
 40
52.0
 40
53.0
 40
53.0
 40
53.0
 40
54.0
 40
54.0
 40
54.0
 40
55.0
 40
55.0
 40
55.0
 40
56.0
 40
56.0
 40
56.0
 40
57.0
 40
57.0
 40
57.0
 40
58.0
 40
58.0
 40
58.0
 40
59.0
 40
59.0
 40
59.0
 40
60.0
 40
60.0
 40
60.0
 40
61.0
 40
61.0
 40
61.0
 40
62.0
 40
62.0
 40
62.0
 40
63.0
 40
63.0
 40
63.0
 40
64.0
 40
64.0
 40
64.0
 40
65.0
 40
65.0
 40
65.0
 40
66.0
 40
66.0
 40
66.0
 40
67.0
 40
67.0
 40
67.0
 40
68.0
 40
68.0
 40
68.0
 40
69.0
 40
69.0
 40
69.0
 40
70.0
 40
70.0
 40
70.0
 40
71.0
 40
71.0
 40
71.0
 40
72.0
 40
72.0
 40
72.0
 40
73.0
 40
73.0
 40
73.0
 40
74.0
 40
74.0
 40
74.0
 40
75.0
 40
75.0
 40
75.0
 40
76.0
 40
76.0
 40
76.0
 40
77.0
 40
77.0
 40
77.0
 40
78.0
 40
78.0
 40
78.0
 40
79.0
 40
79.0
 40
79.0
 40
79.0
 10
93.6683566389093
 20
-118.2992390654773
 30
0.0
 10
93.6683566389093
 20
-118.2992390654773
 30
0.0
 10
93.41445310164639
 20
-118.2992390654773
 30
0.0
 10
93.41445310164639
 20
-118.2992390654773
 30
0.0
 10
93.41445310164639
 20
-118.2992390654773
 30
0.0
 10
93.1374674246323
 20
-118.2992390654773
 30
0.0
 10
93.1374674246323
 20
-118.2992390654773
 30
0.0
 10
93.1374674246323
 20
-118.2992390654773
 30
0.0
 10
93.26424693848949
 20
-118.3416137399459
 30
0.0
 10
93.26424693848949
 20
-118.3416137399459
 30
0.0
 10
93.27492673449377
 20
-118.3459201093024
 30
0.0
 10
93.2876735877892
 20
-118.3521212811759
 30
0.0
 10
93.2876735877892
 20
-118.3648681344713
 30
0.0
 10
93.2876735877892
 20
-118.3860554717056
 30
0.0
 10
93.25563419977637
 20
-118.3924288983533
 30
0.0
 10
93.23461911731636
 20
-118.3965630129356
 30
0.0
 10
93.22393932131207
 20
-118.419817407461
 30
0.0
 10
93.19431150013892
 20
-118.485446476455
 30
0.0
 10
93.17536347497006
 20
-118.5298882082148
 30
0.0
 10
93.17536347497006
 20
-118.5298882082148
 30
0.0
 10
93.4461479801107
 20
-118.5298882082148
 30
0.0
 10
93.4461479801107
 20
-118.5298882082148
 30
0.0
 10
93.53709850092129
 20
-118.5298882082148
 30
0.0
 10
93.73381345312905
 20
-118.5255818388582
 30
0.0
 10
93.87575138712134
 20
-118.5171413549193
 30
0.0
 10
93.87575138712134
 20
-118.5171413549193
 30
0.0
 10
93.87575138712134
 20
-118.6949082819582
 30
0.0
 10
93.87575138712134
 20
-118.6949082819582
 30
0.0
 10
93.79306909547535
 20
-118.6906019126017
 30
0.0
 10
93.77205401301532
 20
-118.6906019126017
 30
0.0
 10
93.59222002868528
 20
-118.6864677980194
 30
0.0
 10
93.56052515022098
 20
-118.8408080757586
 30
0.0
 10
93.51608341846126
 20
-118.9212510553391
 30
0.0
 10
93.47164168670155
 20
-118.9910142389154
 30
0.0
 10
93.59222002868528
 20
-119.0502698812617
 30
0.0
 10
93.69798446008245
 20
-119.1179660075469
 30
0.0
 10
93.80168183418847
 20
-119.2004760444186
 30
0.0
 10
93.80168183418847
 20
-119.2004760444186
 30
0.0
 10
93.68317054949588
 20
-119.3675631754533
 30
0.0
 10
93.68317054949588
 20
-119.3675631754533
 30
0.0
 10
93.65974390019618
 20
-119.3486151502844
 30
0.0
 10
93.64699704690075
 20
-119.3401746663455
 30
0.0
 10
93.53503144363013
 20
-119.2554253174084
 30
0.0
 10
93.48645559728811
 20
-119.2173570122964
 30
0.0
 10
93.42719995494181
 20
-119.1815280192498
 30
0.0
 10
93.34658472058697
 20
-119.13708628749
 30
0.0
 10
93.13505585779262
 20
-119.3232936984678
 30
0.0
 10
92.93007267642027
 20
-119.3465480929932
 30
0.0
 10
92.63999563656223
 20
-119.3761759141664
 30
0.0
 10
92.63999563656223
 20
-119.3761759141664
 30
0.0
 10
92.53664277200473
 20
-119.1963419298363
 30
0.0
 10
92.53664277200473
 20
-119.1963419298363
 30
0.0
 10
92.85393606619624
 20
-119.1920355604798
 30
0.0
 10
93.02929142639546
 20
-119.1667141086632
 30
0.0
 10
93.1815646468435
 20
-119.0566433079095
 30
0.0
 10
93.06339787169944
 20
-119.005828149502
 30
0.0
 10
92.97451440817999
 20
-118.9784396403943
 30
0.0
 10
92.93834090558487
 20
-118.9656927870989
 30
0.0
 10
92.91939288041598
 20
-118.9932535509809
 30
0.0
 10
92.90457896982942
 20
-119.0122015761497
 30
0.0
 10
92.87701820594742
 20
-119.0461357666794
 30
0.0
 10
92.87701820594742
 20
-119.0461357666794
 30
0.0
 10
92.68030325373965
 20
-118.9636257298077
 30
0.0
 10
92.68030325373965
 20
-118.9636257298077
 30
0.0
 10
92.76298554538565
 20
-118.8831827502271
 30
0.0
 10
92.82430824502309
 20
-118.78792586006
 30
0.0
 10
92.88115232052972
 20
-118.6864677980194
 30
0.0
 10
92.69098304974392
 20
-118.6906019126017
 30
0.0
 10
92.66962345773537
 20
-118.6906019126017
 30
0.0
 10
92.5872856756379
 20
-118.6949082819582
 30
0.0
 10
92.5872856756379
 20
-118.6949082819582
 30
0.0
 10
92.5872856756379
 20
-118.5171413549193
 30
0.0
 10
92.5872856756379
 20
-118.5171413549193
 30
0.0
 10
92.72681204279053
 20
-118.523514781567
 30
0.0
 10
92.93627384829371
 20
-118.5278211509236
 30
0.0
 10
92.96176755488456
 20
-118.5278211509236
 30
0.0
 10
92.97864852276228
 20
-118.4938869603939
 30
0.0
 10
93.03377005052629
 20
-118.3733086184101
 30
0.0
 10
93.05271807569515
 20
-118.2992390654773
 30
0.0
 10
93.03377005052629
 20
-118.2992390654773
 30
0.0
 10
92.8560031234874
 20
-118.305612492125
 30
0.0
 10
92.66135522857077
 20
-118.3183593454204
 30
0.0
 10
92.66135522857077
 20
-118.3183593454204
 30
0.0
 10
92.66135522857077
 20
-118.4516845406996
 30
0.0
 10
92.66135522857077
 20
-118.4516845406996
 30
0.0
 10
92.61277938222875
 20
-118.4770059925162
 30
0.0
 10
92.55352373988245
 20
-118.5087008709805
 30
0.0
 10
92.4201985446033
 20
-118.5743299399745
 30
0.0
 10
92.4201985446033
 20
-118.5743299399745
 30
0.0
 10
92.4201985446033
 20
-118.7202297337748
 30
0.0
 10
92.4201985446033
 20
-118.7202297337748
 30
0.0
 10
92.4201985446033
 20
-118.7202297337748
 30
0.0
 10
92.4201985446033
 20
-119.1879014458975
 30
0.0
 10
92.4201985446033
 20
-119.1879014458975
 30
0.0
 10
92.4201985446033
 20
-119.3146809597547
 30
0.0
 10
92.38402504200816
 20
-119.373936602101
 30
0.0
 10
92.10083819312062
 20
-119.3654961181621
 30
0.0
 10
92.10083819312062
 20
-119.3654961181621
 30
0.0
 10
91.9971408190146
 20
-119.1582736247243
 30
0.0
 10
91.9971408190146
 20
-119.1582736247243
 30
0.0
 10
92.0605305759432
 20
-119.1708482232455
 30
0.0
 10
92.10910642228522
 20
-119.1751545926021
 30
0.0
 10
92.14941403946266
 20
-119.1751545926021
 30
0.0
 10
92.22555064968667
 20
-119.1751545926021
 30
0.0
 10
92.23623044569095
 20
-119.1519001980766
 30
0.0
 10
92.23623044569095
 20
-119.0862711290826
 30
0.0
 10
92.23623044569095
 20
-119.0862711290826
 30
0.0
 10
92.23623044569095
 20
-118.6568399768462
 30
0.0
 10
92.23623044569095
 20
-118.6568399768462
 30
0.0
 10
92.13873424345837
 20
-118.6969753392494
 30
0.0
 10
92.12185327558065
 20
-118.7033487658971
 30
0.0
 10
92.07534448652977
 20
-118.7224690458402
 30
0.0
 10
92.07121037194747
 20
-118.7434841283002
 30
0.0
 10
92.06673174781666
 20
-118.7731119494734
 30
0.0
 10
92.04778372264778
 20
-118.7731119494734
 30
0.0
 10
92.03951549348318
 20
-118.7731119494734
 30
0.0
 10
92.02883569747891
 20
-118.7689778348911
 30
0.0
 10
92.02229001605693
 20
-118.7457234403657
 30
0.0
 10
92.02229001605693
 20
-118.7457234403657
 30
0.0
 10
91.96958005513261
 20
-118.5531426027402
 30
0.0
 10
91.96958005513261
 20
-118.5531426027402
 30
0.0
 10
92.1156521037072
 20
-118.5066338136893
 30
0.0
 10
92.18110891792695
 20
-118.4833794191639
 30
0.0
 10
92.23623044569095
 20
-118.4621920819296
 30
0.0
 10
92.23623044569095
 20
-118.4621920819296
 30
0.0
 10
92.23623044569095
 20
-118.0496418975709
 30
0.0
 10
92.23623044569095
 20
-118.0496418975709
 30
0.0
 10
92.23623044569095
 20
-118.0496418975709
 30
0.0
 10
92.1831759752181
 20
-118.0496418975709
 30
0.0
 10
92.1831759752181
 20
-118.0496418975709
 30
0.0
 10
92.1831759752181
 20
-118.0496418975709
 30
0.0
 10
92.10497230770292
 20
-118.0496418975709
 30
0.0
 10
92.10497230770292
 20
-118.0496418975709
 30
0.0
 10
92.03710392664351
 20
-118.0496418975709
 30
0.0
 10
92.02883569747891
 20
-118.0496418975709
 30
0.0
 10
91.99266219488378
 20
-118.0560153242186
 30
0.0
 10
91.99266219488378
 20
-118.0560153242186
 30
0.0
 10
91.99266219488378
 20
-117.861367429302
 30
0.0
 10
91.99266219488378
 20
-117.861367429302
 30
0.0
 10
92.02022295876579
 20
-117.8677408559497
 30
0.0
 10
92.02883569747891
 20
-117.8677408559497
 30
0.0
 10
92.09842662628095
 20
-117.8677408559497
 30
0.0
 10
92.09842662628095
 20
-117.8677408559497
 30
0.0
 10
92.23175182156012
 20
-117.8677408559497
 30
0.0
 10
92.23175182156012
 20
-117.8677408559497
 30
0.0
 10
92.23175182156012
 20
-117.7979776723734
 30
0.0
 10
92.23175182156012
 20
-117.7154676355017
 30
0.0
 10
92.22968476426897
 20
-117.7111612661451
 30
0.0
 10
92.22141653510437
 20
-117.5313272818151
 30
0.0
 10
92.22141653510437
 20
-117.5123792566462
 30
0.0
 10
92.2190049682647
 20
-117.4658704675953
 30
0.0
 10
92.2190049682647
 20
-117.4658704675953
 30
0.0
 10
92.43501245518986
 20
-117.4743109515342
 30
0.0
 10
92.43501245518986
 20
-117.4743109515342
 30
0.0
 10
92.44569225119413
 20
-117.4743109515342
 30
0.0
 10
92.46670733365416
 20
-117.4763780088253
 30
0.0
 10
92.46670733365416
 20
-117.4932589767031
 30
0.0
 10
92.46670733365416
 20
-117.5123792566462
 30
0.0
 10
92.45189342306759
 20
-117.5228867978762
 30
0.0
 10
92.42639971647674
 20
-117.5420070778194
 30
0.0
 10
92.42639971647674
 20
-117.5926499814525
 30
0.0
 10
92.4201985446033
 20
-117.8212320668989
 30
0.0
 10
92.42226560189444
 20
-117.8677408559497
 30
0.0
 10
92.55145668259131
 20
-117.8677408559497
 30
0.0
 10
92.5638590263382
 20
-117.8677408559497
 30
0.0
 10
92.66135522857077
 20
-117.8593003720109
 30
0.0
 10
92.66135522857077
 20
-117.8593003720109
 30
0.0
 10
92.66135522857077
 20
-118.0539482669275
 30
0.0
 10
92.66135522857077
 20
-118.0539482669275
 30
0.0
 10
92.62311466868451
 20
-118.0517089548621
 30
0.0
 10
92.55559079717361
 20
-118.0475748402798
 30
0.0
 10
92.4201985446033
 20
-118.0496418975709
 30
0.0
 10
92.4201985446033
 20
-118.0496418975709
 30
0.0
 10
92.4201985446033
 20
-118.3881225289967
 30
0.0
 10
92.4201985446033
 20
-118.3881225289967
 30
0.0
 10
92.47532007236728
 20
-118.3648681344713
 30
0.0
 10
92.54077688658703
 20
-118.3373073705893
 30
0.0
 10
92.58935273292906
 20
-118.3140529760638
 30
0.0
 10
92.58935273292906
 20
-118.3140529760638
 30
0.0
 10
92.58935273292906
 20
-118.1364583037992
 30
0.0
 10
92.58935273292906
 20
-118.1364583037992
 30
0.0
 10
92.70372990303935
 20
-118.1490329023204
 30
0.0
 10
92.82224118773195
 20
-118.1490329023204
 30
0.0
 10
92.93834090558487
 20
-118.1490329023204
 30
0.0
 10
92.91525876583368
 20
-118.0539482669275
 30
0.0
 10
92.88769800195169
 20
-117.9714382300558
 30
0.0
 10
92.82430824502309
 20
-117.8381130347766
 30
0.0
 10
92.77986651326337
 20
-117.8401800920677
 30
0.0
 10
92.69718422161738
 20
-117.8444864614243
 30
0.0
 10
92.65928817127963
 20
-117.8465535187155
 30
0.0
 10
92.65928817127963
 20
-117.8465535187155
 30
0.0
 10
92.65928817127963
 20
-117.6667195343854
 30
0.0
 10
92.65928817127963
 20
-117.6667195343854
 30
0.0
 10
92.78400062784567
 20
-117.6751600183243
 30
0.0
 10
92.95763344030226
 20
-117.6794663876808
 30
0.0
 10
93.03997122239973
 20
-117.6794663876808
 30
0.0
 10
93.03997122239973
 20
-117.6794663876808
 30
0.0
 10
93.12265351404572
 20
-117.6794663876808
 30
0.0
 10
93.12265351404572
 20
-117.6794663876808
 30
0.0
 10
93.12265351404572
 20
-117.5165133712285
 30
0.0
 10
93.12265351404572
 20
-117.5060058299985
 30
0.0
 10
93.12024194720605
 20
-117.4510565570088
 30
0.0
 10
93.12024194720605
 20
-117.4510565570088
 30
0.0
 10
93.34451766329582
 20
-117.4763780088253
 30
0.0
 10
93.34451766329582
 20
-117.4763780088253
 30
0.0
 10
93.34899628742664
 20
-117.4763780088253
 30
0.0
 10
93.37001136988667
 20
-117.4784450661165
 30
0.0
 10
93.37001136988667
 20
-117.4953260339942
 30
0.0
 10
93.37001136988667
 20
-117.5101399445808
 30
0.0
 10
93.3593315738824
 20
-117.5187526832939
 30
0.0
 10
93.33177081000039
 20
-117.5335665938805
 30
0.0
 10
93.32556963812695
 20
-117.5990234081003
 30
0.0
 10
93.3235025808358
 20
-117.6202107453345
 30
0.0
 10
93.3235025808358
 20
-117.6794663876808
 30
0.0
 10
93.3235025808358
 20
-117.6794663876808
 30
0.0
 10
93.41858721622869
 20
-117.6794663876808
 30
0.0
 10
93.41858721622869
 20
-117.6794663876808
 30
0.0
 10
93.50126950787468
 20
-117.6794663876808
 30
0.0
 10
93.67455781078276
 20
-117.6751600183243
 30
0.0
 10
93.79961477689733
 20
-117.6667195343854
 30
0.0
 10
93.79961477689733
 20
-117.6667195343854
 30
0.0
 10
93.79961477689733
 20
-117.8465535187155
 30
0.0
 10
93.79961477689733
 20
-117.8465535187155
 30
0.0
 10
93.76998695572418
 20
-117.8444864614243
 30
0.0
 10
93.65147567103158
 20
-117.8401800920677
 30
0.0
 10
93.61116805385416
 20
-117.8381130347766
 30
0.0
 10
93.59635414326758
 20
-117.888928193184
 30
0.0
 10
93.56259220751214
 20
-118.0010660512289
 30
0.0
 10
93.49679088374386
 20
-118.1405924183815
 30
0.0
 10
93.53916555821243
 20
-118.1405924183815
 30
0.0
 10
93.81649574477505
 20
-118.1216443932126
 30
0.0
 10
93.8778184444125
 20
-118.1194050811472
 30
0.0
 10
93.8778184444125
 20
-118.1194050811472
 30
0.0
 10
93.8778184444125
 20
-118.3035454348338
 30
0.0
 10
93.8778184444125
 20
-118.3035454348338
 30
0.0
 10
93.84819062323935
 20
-118.3035454348338
 30
0.0
 10
93.83130965536162
 20
-118.2992390654773
 30
0.0
 10
93.6683566389093
 20
-118.2992390654773
 30
0.0
  0
SPLINE
  5
68
330
63
100
AcDbEntity
  8
_U+30EC_U+30A4_U+30E4_U+30FC 1
370
     0
100
AcDbSpline
210
0.0
220
0.0
230
1.0
 70
    11
 71
     3
 72
    20
 73
    16
 74
     0
 42
0.0000000001
 43
0.0000000001
 12
1.0
 22
0.0
 32
0.0
 13
1.0
 23
0.0
 33
0.0
 40
0.0
 40
0.0
 40
0.0
 40
0.0
 40
1.0
 40
1.0
 40
1.0
 40
2.0
 40
2.0
 40
2.0
 40
3.0
 40
3.0
 40
3.0
 40
4.0
 40
4.0
 40
4.0
 40
5.0
 40
5.0
 40
5.0
 40
5.0
 10
93.03997122239973
 20
-117.8339789201943
 30
0.0
 10
93.03997122239973
 20
-117.8339789201943
 30
0.0
 10
93.00827634393544
 20
-117.8339789201943
 30
0.0
 10
93.00827634393544
 20
-117.8339789201943
 30
0.0
 10
93.05478513298631
 20
-117.9333699249437
 30
0.0
 10
93.0864800114506
 20
-118.0136406497501
 30
0.0
 10
93.12024194720605
 20
-118.1405924183815
 30
0.0
 10
93.12024194720605
 20
-118.1405924183815
 30
0.0
 10
93.3276366954181
 20
-118.1405924183815
 30
0.0
 10
93.3276366954181
 20
-118.1405924183815
 30
0.0
 10
93.3593315738824
 20
-118.0475748402798
 30
0.0
 10
93.3827582231821
 20
-117.9629977461169
 30
0.0
 10
93.40584036293326
 20
-117.8339789201943
 30
0.0
 10
93.40584036293326
 20
-117.8339789201943
 30
0.0
 10
93.03997122239973
 20
-117.8339789201943
 30
0.0
 10
93.03997122239973
 20
-117.8339789201943
 30
0.0
  0
SPLINE
  5
69
330
63
100
AcDbEntity
  8
_U+30EC_U+30A4_U+30E4_U+30FC 1
370
     0
100
AcDbSpline
210
0.0
220
0.0
230
1.0
 70
    11
 71
     3
 72
    17
 73
    13
 74
     0
 42
0.0000000001
 43
0.0000000001
 12
1.0
 22
0.0
 32
0.0
 13
1.0
 23
0.0
 33
0.0
 40
0.0
 40
0.0
 40
0.0
 40
0.0
 40
1.0
 40
1.0
 40
1.0
 40
2.0
 40
2.0
 40
2.0
 40
3.0
 40
3.0
 40
3.0
 40
4.0
 40
4.0
 40
4.0
 40
4.0
 10
93.10336097932833
 20
-118.6844007407282
 30
0.0
 10
93.0864800114506
 20
-118.7138563071271
 30
0.0
 10
93.03583710781743
 20
-118.8070461400031
 30
0.0
 10
93.02515731181316
 20
-118.825994165172
 30
0.0
 10
93.21567109214747
 20
-118.8852498075183
 30
0.0
 10
93.2366861746075
 20
-118.891623234166
 30
0.0
 10
93.30868867024923
 20
-118.919183998048
 30
0.0
 10
93.36381019801321
 20
-118.8323675918197
 30
0.0
 10
93.3868923377644
 20
-118.7582980388868
 30
0.0
 10
93.40170624835096
 20
-118.6844007407282
 30
0.0
 10
93.40170624835096
 20
-118.6844007407282
 30
0.0
 10
93.10336097932833
 20
-118.6844007407282
 30
0.0
 10
93.10336097932833
 20
-118.6844007407282
 30
0.0
  0
HATCH
  5
6A
330
63
100
AcDbEntity
  8
_U+30EC_U+30A4_U+30E4_U+30FC 1
 62
   179
420
  2234388
100
AcDbHatch
 10
0.0
 20
0.0
 30
0.0
210
0.0
220
0.0
230
1.0
  2
SOLID
 70
     1
 71
     0
 91
        3
 92
        1
 93
        1
 72
     4
 94
        3
 73
     0
 74
     1
 95
      242
 96
      238
 40
0.0
 40
0.0
 40
0.0
 40
0.0
 40
1.0
 40
1.0
 40
1.0
 40
2.0
 40
2.0
 40
2.0
 40
3.0
 40
3.0
 40
3.0
 40
4.0
 40
4.0
 40
4.0
 40
5.0
 40
5.0
 40
5.0
 40
6.0
 40
6.0
 40
6.0
 40
7.0
 40
7.0
 40
7.0
 40
8.0
 40
8.0
 40
8.0
 40
9.0
 40
9.0
 40
9.0
 40
10.0
 40
10.0
 40
10.0
 40
11.0
 40
11.0
 40
11.0
 40
12.0
 40
12.0
 40
12.0
 40
13.0
 40
13.0
 40
13.0
 40
14.0
 40
14.0
 40
14.0
 40
15.0
 40
15.0
 40
15.0
 40
16.0
 40
16.0
 40
16.0
 40
17.0
 40
17.0
 40
17.0
 40
18.0
 40
18.0
 40
18.0
 40
19.0
 40
19.0
 40
19.0
 40
20.0
 40
20.0
 40
20.0
 40
21.0
 40
21.0
 40
21.0
 40
22.0
 40
22.0
 40
22.0
 40
23.0
 40
23.0
 40
23.0
 40
24.0
 40
24.0
 40
24.0
 40
25.0
 40
25.0
 40
25.0
 40
26.0
 40
26.0
 40
26.0
 40
27.0
 40
27.0
 40
27.0
 40
28.0
 40
28.0
 40
28.0
 40
29.0
 40
29.0
 40
29.0
 40
30.0
 40
30.0
 40
30.0
 40
31.0
 40
31.0
 40
31.0
 40
32.0
 40
32.0
 40
32.0
 40
33.0
 40
33.0
 40
33.0
 40
34.0
 40
34.0
 40
34.0
 40
35.0
 40
35.0
 40
35.0
 40
36.0
 40
36.0
 40
36.0
 40
37.0
 40
37.0
 40
37.0
 40
38.0
 40
38.0
 40
38.0
 40
39.0
 40
39.0
 40
39.0
 40
40.0
 40
40.0
 40
40.0
 40
41.0
 40
41.0
 40
41.0
 40
42.0
 40
42.0
 40
42.0
 40
43.0
 40
43.0
 40
43.0
 40
44.0
 40
44.0
 40
44.0
 40
45.0
 40
45.0
 40
45.0
 40
46.0
 40
46.0
 40
46.0
 40
47.0
 40
47.0
 40
47.0
 40
48.0
 40
48.0
 40
48.0
 40
49.0
 40
49.0
 40
49.0
 40
50.0
 40
50.0
 40
50.0
 40
51.0
 40
51.0
 40
51.0
 40
52.0
 40
52.0
 40
52.0
 40
53.0
 40
53.0
 40
53.0
 40
54.0
 40
54.0
 40
54.0
 40
55.0
 40
55.0
 40
55.0
 40
56.0
 40
56.0
 40
56.0
 40
57.0
 40
57.0
 40
57.0
 40
58.0
 40
58.0
 40
58.0
 40
59.0
 40
59.0
 40
59.0
 40
60.0
 40
60.0
 40
60.0
 40
61.0
 40
61.0
 40
61.0
 40
62.0
 40
62.0
 40
62.0
 40
63.0
 40
63.0
 40
63.0
 40
64.0
 40
64.0
 40
64.0
 40
65.0
 40
65.0
 40
65.0
 40
66.0
 40
66.0
 40
66.0
 40
67.0
 40
67.0
 40
67.0
 40
68.0
 40
68.0
 40
68.0
 40
69.0
 40
69.0
 40
69.0
 40
70.0
 40
70.0
 40
70.0
 40
71.0
 40
71.0
 40
71.0
 40
72.0
 40
72.0
 40
72.0
 40
73.0
 40
73.0
 40
73.0
 40
74.0
 40
74.0
 40
74.0
 40
75.0
 40
75.0
 40
75.0
 40
76.0
 40
76.0
 40
76.0
 40
77.0
 40
77.0
 40
77.0
 40
78.0
 40
78.0
 40
78.0
 40
79.0
 40
79.0
 40
79.0
 40
79.0
 10
93.6683566389093
 20
-118.2992390654773
 10
93.6683566389093
 20
-118.2992390654773
 10
93.41445310164639
 20
-118.2992390654773
 10
93.41445310164639
 20
-118.2992390654773
 10
93.41445310164639
 20
-118.2992390654773
 10
93.1374674246323
 20
-118.2992390654773
 10
93.1374674246323
 20
-118.2992390654773
 10
93.1374674246323
 20
-118.2992390654773
 10
93.26424693848949
 20
-118.3416137399459
 10
93.26424693848949
 20
-118.3416137399459
 10
93.27492673449377
 20
-118.3459201093024
 10
93.2876735877892
 20
-118.3521212811759
 10
93.2876735877892
 20
-118.3648681344713
 10
93.2876735877892
 20
-118.3860554717056
 10
93.25563419977637
 20
-118.3924288983533
 10
93.23461911731636
 20
-118.3965630129356
 10
93.22393932131207
 20
-118.419817407461
 10
93.19431150013892
 20
-118.485446476455
 10
93.17536347497006
 20
-118.5298882082148
 10
93.17536347497006
 20
-118.5298882082148
 10
93.4461479801107
 20
-118.5298882082148
 10
93.4461479801107
 20
-118.5298882082148
 10
93.53709850092129
 20
-118.5298882082148
 10
93.73381345312905
 20
-118.5255818388582
 10
93.87575138712134
 20
-118.5171413549193
 10
93.87575138712134
 20
-118.5171413549193
 10
93.87575138712134
 20
-118.6949082819582
 10
93.87575138712134
 20
-118.6949082819582
 10
93.79306909547535
 20
-118.6906019126017
 10
93.77205401301532
 20
-118.6906019126017
 10
93.59222002868528
 20
-118.6864677980194
 10
93.56052515022098
 20
-118.8408080757586
 10
93.51608341846126
 20
-118.9212510553391
 10
93.47164168670155
 20
-118.9910142389154
 10
93.59222002868528
 20
-119.0502698812617
 10
93.69798446008245
 20
-119.1179660075469
 10
93.80168183418847
 20
-119.2004760444186
 10
93.80168183418847
 20
-119.2004760444186
 10
93.68317054949588
 20
-119.3675631754533
 10
93.68317054949588
 20
-119.3675631754533
 10
93.65974390019618
 20
-119.3486151502844
 10
93.64699704690075
 20
-119.3401746663455
 10
93.53503144363013
 20
-119.2554253174084
 10
93.48645559728811
 20
-119.2173570122964
 10
93.42719995494181
 20
-119.1815280192498
 10
93.34658472058697
 20
-119.13708628749
 10
93.13505585779262
 20
-119.3232936984678
 10
92.93007267642027
 20
-119.3465480929932
 10
92.63999563656223
 20
-119.3761759141664
 10
92.63999563656223
 20
-119.3761759141664
 10
92.53664277200473
 20
-119.1963419298363
 10
92.53664277200473
 20
-119.1963419298363
 10
92.85393606619624
 20
-119.1920355604798
 10
93.02929142639546
 20
-119.1667141086632
 10
93.1815646468435
 20
-119.0566433079095
 10
93.06339787169944
 20
-119.005828149502
 10
92.97451440817999
 20
-118.9784396403943
 10
92.93834090558487
 20
-118.9656927870989
 10
92.91939288041598
 20
-118.9932535509809
 10
92.90457896982942
 20
-119.0122015761497
 10
92.87701820594742
 20
-119.0461357666794
 10
92.87701820594742
 20
-119.0461357666794
 10
92.68030325373965
 20
-118.9636257298077
 10
92.68030325373965
 20
-118.9636257298077
 10
92.76298554538565
 20
-118.8831827502271
 10
92.82430824502309
 20
-118.78792586006
 10
92.88115232052972
 20
-118.6864677980194
 10
92.69098304974392
 20
-118.6906019126017
 10
92.66962345773537
 20
-118.6906019126017
 10
92.5872856756379
 20
-118.6949082819582
 10
92.5872856756379
 20
-118.6949082819582
 10
92.5872856756379
 20
-118.5171413549193
 10
92.5872856756379
 20
-118.5171413549193
 10
92.72681204279053
 20
-118.523514781567
 10
92.93627384829371
 20
-118.5278211509236
 10
92.96176755488456
 20
-118.5278211509236
 10
92.97864852276228
 20
-118.4938869603939
 10
93.03377005052629
 20
-118.3733086184101
 10
93.05271807569515
 20
-118.2992390654773
 10
93.03377005052629
 20
-118.2992390654773
 10
92.8560031234874
 20
-118.305612492125
 10
92.66135522857077
 20
-118.3183593454204
 10
92.66135522857077
 20
-118.3183593454204
 10
92.66135522857077
 20
-118.4516845406996
 10
92.66135522857077
 20
-118.4516845406996
 10
92.61277938222875
 20
-118.4770059925162
 10
92.55352373988245
 20
-118.5087008709805
 10
92.4201985446033
 20
-118.5743299399745
 10
92.4201985446033
 20
-118.5743299399745
 10
92.4201985446033
 20
-118.7202297337748
 10
92.4201985446033
 20
-118.7202297337748
 10
92.4201985446033
 20
-118.7202297337748
 10
92.4201985446033
 20
-119.1879014458975
 10
92.4201985446033
 20
-119.1879014458975
 10
92.4201985446033
 20
-119.3146809597547
 10
92.38402504200816
 20
-119.373936602101
 10
92.10083819312062
 20
-119.3654961181621
 10
92.10083819312062
 20
-119.3654961181621
 10
91.9971408190146
 20
-119.1582736247243
 10
91.9971408190146
 20
-119.1582736247243
 10
92.0605305759432
 20
-119.1708482232455
 10
92.10910642228522
 20
-119.1751545926021
 10
92.14941403946266
 20
-119.1751545926021
 10
92.22555064968667
 20
-119.1751545926021
 10
92.23623044569095
 20
-119.1519001980766
 10
92.23623044569095
 20
-119.0862711290826
 10
92.23623044569095
 20
-119.0862711290826
 10
92.23623044569095
 20
-118.6568399768462
 10
92.23623044569095
 20
-118.6568399768462
 10
92.13873424345837
 20
-118.6969753392494
 10
92.12185327558065
 20
-118.7033487658971
 10
92.07534448652977
 20
-118.7224690458402
 10
92.07121037194747
 20
-118.7434841283002
 10
92.06673174781666
 20
-118.7731119494734
 10
92.04778372264778
 20
-118.7731119494734
 10
92.03951549348318
 20
-118.7731119494734
 10
92.02883569747891
 20
-118.7689778348911
 10
92.02229001605693
 20
-118.7457234403657
 10
92.02229001605693
 20
-118.7457234403657
 10
91.96958005513261
 20
-118.5531426027402
 10
91.96958005513261
 20
-118.5531426027402
 10
92.1156521037072
 20
-118.5066338136893
 10
92.18110891792695
 20
-118.4833794191639
 10
92.23623044569095
 20
-118.4621920819296
 10
92.23623044569095
 20
-118.4621920819296
 10
92.23623044569095
 20
-118.0496418975709
 10
92.23623044569095
 20
-118.0496418975709
 10
92.23623044569095
 20
-118.0496418975709
 10
92.1831759752181
 20
-118.0496418975709
 10
92.1831759752181
 20
-118.0496418975709
 10
92.1831759752181
 20
-118.0496418975709
 10
92.10497230770292
 20
-118.0496418975709
 10
92.10497230770292
 20
-118.0496418975709
 10
92.03710392664351
 20
-118.0496418975709
 10
92.02883569747891
 20
-118.0496418975709
 10
91.99266219488378
 20
-118.0560153242186
 10
91.99266219488378
 20
-118.0560153242186
 10
91.99266219488378
 20
-117.861367429302
 10
91.99266219488378
 20
-117.861367429302
 10
92.02022295876579
 20
-117.8677408559497
 10
92.02883569747891
 20
-117.8677408559497
 10
92.09842662628095
 20
-117.8677408559497
 10
92.09842662628095
 20
-117.8677408559497
 10
92.23175182156012
 20
-117.8677408559497
 10
92.23175182156012
 20
-117.8677408559497
 10
92.23175182156012
 20
-117.7979776723734
 10
92.23175182156012
 20
-117.7154676355017
 10
92.22968476426897
 20
-117.7111612661451
 10
92.22141653510437
 20
-117.5313272818151
 10
92.22141653510437
 20
-117.5123792566462
 10
92.2190049682647
 20
-117.4658704675953
 10
92.2190049682647
 20
-117.4658704675953
 10
92.43501245518986
 20
-117.4743109515342
 10
92.43501245518986
 20
-117.4743109515342
 10
92.44569225119413
 20
-117.4743109515342
 10
92.46670733365416
 20
-117.4763780088253
 10
92.46670733365416
 20
-117.4932589767031
 10
92.46670733365416
 20
-117.5123792566462
 10
92.45189342306759
 20
-117.5228867978762
 10
92.42639971647674
 20
-117.5420070778194
 10
92.42639971647674
 20
-117.5926499814525
 10
92.4201985446033
 20
-117.8212320668989
 10
92.42226560189444
 20
-117.8677408559497
 10
92.55145668259131
 20
-117.8677408559497
 10
92.5638590263382
 20
-117.8677408559497
 10
92.66135522857077
 20
-117.8593003720109
 10
92.66135522857077
 20
-117.8593003720109
 10
92.66135522857077
 20
-118.0539482669275
 10
92.66135522857077
 20
-118.0539482669275
 10
92.62311466868451
 20
-118.0517089548621
 10
92.55559079717361
 20
-118.0475748402798
 10
92.4201985446033
 20
-118.0496418975709
 10
92.4201985446033
 20
-118.0496418975709
 10
92.4201985446033
 20
-118.3881225289967
 10
92.4201985446033
 20
-118.3881225289967
 10
92.47532007236728
 20
-118.3648681344713
 10
92.54077688658703
 20
-118.3373073705893
 10
92.58935273292906
 20
-118.3140529760638
 10
92.58935273292906
 20
-118.3140529760638
 10
92.58935273292906
 20
-118.1364583037992
 10
92.58935273292906
 20
-118.1364583037992
 10
92.70372990303935
 20
-118.1490329023204
 10
92.82224118773195
 20
-118.1490329023204
 10
92.93834090558487
 20
-118.1490329023204
 10
92.91525876583368
 20
-118.0539482669275
 10
92.88769800195169
 20
-117.9714382300558
 10
92.82430824502309
 20
-117.8381130347766
 10
92.77986651326337
 20
-117.8401800920677
 10
92.69718422161738
 20
-117.8444864614243
 10
92.65928817127963
 20
-117.8465535187155
 10
92.65928817127963
 20
-117.8465535187155
 10
92.65928817127963
 20
-117.6667195343854
 10
92.65928817127963
 20
-117.6667195343854
 10
92.78400062784567
 20
-117.6751600183243
 10
92.95763344030226
 20
-117.6794663876808
 10
93.03997122239973
 20
-117.6794663876808
 10
93.03997122239973
 20
-117.6794663876808
 10
93.12265351404572
 20
-117.6794663876808
 10
93.12265351404572
 20
-117.6794663876808
 10
93.12265351404572
 20
-117.5165133712285
 10
93.12265351404572
 20
-117.5060058299985
 10
93.12024194720605
 20
-117.4510565570088
 10
93.12024194720605
 20
-117.4510565570088
 10
93.34451766329582
 20
-117.4763780088253
 10
93.34451766329582
 20
-117.4763780088253
 10
93.34899628742664
 20
-117.4763780088253
 10
93.37001136988667
 20
-117.4784450661165
 10
93.37001136988667
 20
-117.4953260339942
 10
93.37001136988667
 20
-117.5101399445808
 10
93.3593315738824
 20
-117.5187526832939
 10
93.33177081000039
 20
-117.5335665938805
 10
93.32556963812695
 20
-117.5990234081003
 10
93.3235025808358
 20
-117.6202107453345
 10
93.3235025808358
 20
-117.6794663876808
 10
93.3235025808358
 20
-117.6794663876808
 10
93.41858721622869
 20
-117.6794663876808
 10
93.41858721622869
 20
-117.6794663876808
 10
93.50126950787468
 20
-117.6794663876808
 10
93.67455781078276
 20
-117.6751600183243
 10
93.79961477689733
 20
-117.6667195343854
 10
93.79961477689733
 20
-117.6667195343854
 10
93.79961477689733
 20
-117.8465535187155
 10
93.79961477689733
 20
-117.8465535187155
 10
93.76998695572418
 20
-117.8444864614243
 10
93.65147567103158
 20
-117.8401800920677
 10
93.61116805385416
 20
-117.8381130347766
 10
93.59635414326758
 20
-117.888928193184
 10
93.56259220751214
 20
-118.0010660512289
 10
93.49679088374386
 20
-118.1405924183815
 10
93.53916555821243
 20
-118.1405924183815
 10
93.81649574477505
 20
-118.1216443932126
 10
93.8778184444125
 20
-118.1194050811472
 10
93.8778184444125
 20
-118.1194050811472
 10
93.8778184444125
 20
-118.3035454348338
 10
93.8778184444125
 20
-118.3035454348338
 10
93.84819062323935
 20
-118.3035454348338
 10
93.83130965536162
 20
-118.2992390654773
 10
93.6683566389093
 20
-118.2992390654773
 97
        0
 97
        0
 92
        1
 93
        1
 72
     4
 94
        3
 73
     0
 74
     1
 95
       20
 96
       16
 40
0.0
 40
0.0
 40
0.0
 40
0.0
 40
1.0
 40
1.0
 40
1.0
 40
2.0
 40
2.0
 40
2.0
 40
3.0
 40
3.0
 40
3.0
 40
4.0
 40
4.0
 40
4.0
 40
5.0
 40
5.0
 40
5.0
 40
5.0
 10
93.03997122239973
 20
-117.8339789201943
 10
93.03997122239973
 20
-117.8339789201943
 10
93.00827634393544
 20
-117.8339789201943
 10
93.00827634393544
 20
-117.8339789201943
 10
93.05478513298631
 20
-117.9333699249437
 10
93.0864800114506
 20
-118.0136406497501
 10
93.12024194720605
 20
-118.1405924183815
 10
93.12024194720605
 20
-118.1405924183815
 10
93.3276366954181
 20
-118.1405924183815
 10
93.3276366954181
 20
-118.1405924183815
 10
93.3593315738824
 20
-118.0475748402798
 10
93.3827582231821
 20
-117.9629977461169
 10
93.40584036293326
 20
-117.8339789201943
 10
93.40584036293326
 20
-117.8339789201943
 10
93.03997122239973
 20
-117.8339789201943
 10
93.03997122239973
 20
-117.8339789201943
 97
        0
 97
        0
 92
        1
 93
        1
 72
     4
 94
        3
 73
     0
 74
     1
 95
       17
 96
       13
 40
0.0
 40
0.0
 40
0.0
 40
0.0
 40
1.0
 40
1.0
 40
1.0
 40
2.0
 40
2.0
 40
2.0
 40
3.0
 40
3.0
 40
3.0
 40
4.0
 40
4.0
 40
4.0
 40
4.0
 10
93.10336097932833
 20
-118.6844007407282
 10
93.0864800114506
 20
-118.7138563071271
 10
93.03583710781743
 20
-118.8070461400031
 10
93.02515731181316
 20
-118.825994165172
 10
93.21567109214747
 20
-118.8852498075183
 10
93.2366861746075
 20
-118.891623234166
 10
93.30868867024923
 20
-118.919183998048
 10
93.36381019801321
 20
-118.8323675918197
 10
93.3868923377644
 20
-118.7582980388868
 10
93.40170624835096
 20
-118.6844007407282
 10
93.40170624835096
 20
-118.6844007407282
 10
93.10336097932833
 20
-118.6844007407282
 10
93.10336097932833
 20
-118.6844007407282
 97
        0
 97
        0
 75
     2
 76
     1
 98
        0
  0
SPLINE
  5
6B
330
63
100
AcDbEntity
  8
_U+30EC_U+30A4_U+30E4_U+30FC 1
370
     0
100
AcDbSpline
210
0.0
220
0.0
230
1.0
 70
    11
 71
     3
 72
   203
 73
   199
 74
     0
 42
0.0000000001
 43
0.0000000001
 12
1.0
 22
0.0
 32
0.0
 13
1.0
 23
0.0
 33
0.0
 40
0.0
 40
0.0
 40
0.0
 40
0.0
 40
1.0
 40
1.0
 40
1.0
 40
2.0
 40
2.0
 40
2.0
 40
3.0
 40
3.0
 40
3.0
 40
4.0
 40
4.0
 40
4.0
 40
5.0
 40
5.0
 40
5.0
 40
6.0
 40
6.0
 40
6.0
 40
7.0
 40
7.0
 40
7.0
 40
8.0
 40
8.0
 40
8.0
 40
9.0
 40
9.0
 40
9.0
 40
10.0
 40
10.0
 40
10.0
 40
11.0
 40
11.0
 40
11.0
 40
12.0
 40
12.0
 40
12.0
 40
13.0
 40
13.0
 40
13.0
 40
14.0
 40
14.0
 40
14.0
 40
15.0
 40
15.0
 40
15.0
 40
16.0
 40
16.0
 40
16.0
 40
17.0
 40
17.0
 40
17.0
 40
18.0
 40
18.0
 40
18.0
 40
19.0
 40
19.0
 40
19.0
 40
20.0
 40
20.0
 40
20.0
 40
21.0
 40
21.0
 40
21.0
 40
22.0
 40
22.0
 40
22.0
 40
23.0
 40
23.0
 40
23.0
 40
24.0
 40
24.0
 40
24.0
 40
25.0
 40
25.0
 40
25.0
 40
26.0
 40
26.0
 40
26.0
 40
27.0
 40
27.0
 40
27.0
 40
28.0
 40
28.0
 40
28.0
 40
29.0
 40
29.0
 40
29.0
 40
30.0
 40
30.0
 40
30.0
 40
31.0
 40
31.0
 40
31.0
 40
32.0
 40
32.0
 40
32.0
 40
33.0
 40
33.0
 40
33.0
 40
34.0
 40
34.0
 40
34.0
 40
35.0
 40
35.0
 40
35.0
 40
36.0
 40
36.0
 40
36.0
 40
37.0
 40
37.0
 40
37.0
 40
38.0
 40
38.0
 40
38.0
 40
39.0
 40
39.0
 40
39.0
 40
40.0
 40
40.0
 40
40.0
 40
41.0
 40
41.0
 40
41.0
 40
42.0
 40
42.0
 40
42.0
 40
43.0
 40
43.0
 40
43.0
 40
44.0
 40
44.0
 40
44.0
 40
45.0
 40
45.0
 40
45.0
 40
46.0
 40
46.0
 40
46.0
 40
47.0
 40
47.0
 40
47.0
 40
48.0
 40
48.0
 40
48.0
 40
49.0
 40
49.0
 40
49.0
 40
50.0
 40
50.0
 40
50.0
 40
51.0
 40
51.0
 40
51.0
 40
52.0
 40
52.0
 40
52.0
 40
53.0
 40
53.0
 40
53.0
 40
54.0
 40
54.0
 40
54.0
 40
55.0
 40
55.0
 40
55.0
 40
56.0
 40
56.0
 40
56.0
 40
57.0
 40
57.0
 40
57.0
 40
58.0
 40
58.0
 40
58.0
 40
59.0
 40
59.0
 40
59.0
 40
60.0
 40
60.0
 40
60.0
 40
61.0
 40
61.0
 40
61.0
 40
62.0
 40
62.0
 40
62.0
 40
63.0
 40
63.0
 40
63.0
 40
64.0
 40
64.0
 40
64.0
 40
65.0
 40
65.0
 40
65.0
 40
66.0
 40
66.0
 40
66.0
 40
66.0
 10
95.35989852216697
 20
-118.3669351917624
 30
0.0
 10
95.35989852216697
 20
-118.3669351917624
 30
0.0
 10
94.80110403445946
 20
-118.3669351917624
 30
0.0
 10
94.80110403445946
 20
-118.3669351917624
 30
0.0
 10
94.7907687480037
 20
-118.4113769235222
 30
0.0
 10
94.78215600929057
 20
-118.4430718019865
 30
0.0
 10
94.76940915599515
 20
-118.4813123618727
 30
0.0
 10
94.794902862586
 20
-118.4813123618727
 30
0.0
 10
94.80971677317258
 20
-118.4833794191639
 30
0.0
 10
94.81591794504602
 20
-118.4833794191639
 30
0.0
 10
94.81591794504602
 20
-118.4833794191639
 30
0.0
 10
95.0043646680892
 20
-118.4833794191639
 30
0.0
 10
95.0043646680892
 20
-118.4833794191639
 30
0.0
 10
95.0043646680892
 20
-118.4833794191639
 30
0.0
 10
95.37884654733585
 20
-118.4833794191639
 30
0.0
 10
95.37884654733585
 20
-118.4833794191639
 30
0.0
 10
95.42948945096902
 20
-118.4833794191639
 30
0.0
 10
95.71302080940508
 20
-118.4706325658685
 30
0.0
 10
95.74471568786939
 20
-118.4706325658685
 30
0.0
 10
95.74264863057823
 20
-118.4981933297505
 30
0.0
 10
95.74058157328709
 20
-118.5171413549193
 30
0.0
 10
95.74058157328709
 20
-118.5467691760925
 30
0.0
 10
95.73851451599593
 20
-118.5784640545568
 30
0.0
 10
95.73851451599593
 20
-118.7138563071271
 30
0.0
 10
95.73851451599593
 20
-118.7414170710091
 30
0.0
 10
95.73851451599593
 20
-118.7414170710091
 30
0.0
 10
95.73851451599593
 20
-118.9868801243331
 30
0.0
 10
95.73851451599593
 20
-118.9868801243331
 30
0.0
 10
95.73851451599593
 20
-119.0313218560929
 30
0.0
 10
95.74264863057823
 20
-119.2280368083006
 30
0.0
 10
95.74678274516053
 20
-119.3803100287487
 30
0.0
 10
95.74678274516053
 20
-119.3803100287487
 30
0.0
 10
95.52043997177962
 20
-119.3803100287487
 30
0.0
 10
95.52043997177962
 20
-119.3803100287487
 30
0.0
 10
95.52043997177962
 20
-119.3803100287487
 30
0.0
 10
95.52250702907077
 20
-119.3465480929932
 30
0.0
 10
95.52250702907077
 20
-119.3465480929932
 30
0.0
 10
95.52250702907077
 20
-119.3465480929932
 30
0.0
 10
94.82039656917685
 20
-119.3465480929932
 30
0.0
 10
94.82039656917685
 20
-119.3465480929932
 30
0.0
 10
94.82039656917685
 20
-119.3465480929932
 30
0.0
 10
94.822463626468
 20
-119.3803100287487
 30
0.0
 10
94.822463626468
 20
-119.3803100287487
 30
0.0
 10
94.822463626468
 20
-119.3803100287487
 30
0.0
 10
94.60438908225169
 20
-119.3803100287487
 30
0.0
 10
94.60438908225169
 20
-119.3803100287487
 30
0.0
 10
94.60886770638251
 20
-119.3253607557589
 30
0.0
 10
94.60886770638251
 20
-119.3126139024635
 30
0.0
 10
94.61506887825595
 20
-119.1984089871275
 30
0.0
 10
94.61713593554711
 20
-119.1708482232455
 30
0.0
 10
94.61920299283825
 20
-119.0376952827406
 30
0.0
 10
94.61920299283825
 20
-119.0185750027974
 30
0.0
 10
94.61920299283825
 20
-119.0185750027974
 30
0.0
 10
94.61920299283825
 20
-118.815486623942
 30
0.0
 10
94.61920299283825
 20
-118.815486623942
 30
0.0
 10
94.47967662568564
 20
-119.0650837918483
 30
0.0
 10
94.31052243735988
 20
-119.1963419298363
 30
0.0
 10
94.2047580059627
 20
-119.2617987440561
 30
0.0
 10
94.2047580059627
 20
-119.2617987440561
 30
0.0
 10
94.03112519350611
 20
-119.1222723769035
 30
0.0
 10
94.03112519350611
 20
-119.1222723769035
 30
0.0
 10
94.12000865702555
 20
-119.071457218496
 30
0.0
 10
94.264013648309
 20
-118.9846408122677
 30
0.0
 10
94.40147295817047
 20
-118.7901651721254
 30
0.0
 10
94.49242347898107
 20
-118.6632134034939
 30
0.0
 10
94.55788029320081
 20
-118.5193806669847
 30
0.0
 10
94.59198673850479
 20
-118.3669351917624
 30
0.0
 10
94.3632323982842
 20
-118.3691745038278
 30
0.0
 10
94.18339841395415
 20
-118.3755479304756
 30
0.0
 10
94.08831377856126
 20
-118.3776149877667
 30
0.0
 10
94.08831377856126
 20
-118.3776149877667
 30
0.0
 10
94.08831377856126
 20
-118.1998480607278
 30
0.0
 10
94.08831377856126
 20
-118.1998480607278
 30
0.0
 10
94.28502873076903
 20
-118.2062214873755
 30
0.0
 10
94.56856008920509
 20
-118.2105278567321
 30
0.0
 10
94.71876625236197
 20
-118.2105278567321
 30
0.0
 10
94.71876625236197
 20
-118.2105278567321
 30
0.0
 10
94.93236217244747
 20
-118.2105278567321
 30
0.0
 10
94.93236217244747
 20
-118.2105278567321
 30
0.0
 10
94.93236217244747
 20
-118.2105278567321
 30
0.0
 10
94.93236217244747
 20
-118.1025241132695
 30
0.0
 10
94.93236217244747
 20
-118.1025241132695
 30
0.0
 10
94.93236217244747
 20
-118.1025241132695
 30
0.0
 10
94.78629012387287
 20
-118.1025241132695
 30
0.0
 10
94.78629012387287
 20
-118.1025241132695
 30
0.0
 10
94.61713593554711
 20
-118.1025241132695
 30
0.0
 10
94.44798174722135
 20
-118.1068304826261
 30
0.0
 10
94.28089461618673
 20
-118.1132039092738
 30
0.0
 10
94.28089461618673
 20
-118.1132039092738
 30
0.0
 10
94.28089461618673
 20
-117.9418104088826
 30
0.0
 10
94.28089461618673
 20
-117.9418104088826
 30
0.0
 10
94.43523489392592
 20
-117.9523179501126
 30
0.0
 10
94.62127005012941
 20
-117.9523179501126
 30
0.0
 10
94.78629012387287
 20
-117.9523179501126
 30
0.0
 10
94.78629012387287
 20
-117.9523179501126
 30
0.0
 10
94.93236217244747
 20
-117.9523179501126
 30
0.0
 10
94.93236217244747
 20
-117.9523179501126
 30
0.0
 10
94.93236217244747
 20
-117.9523179501126
 30
0.0
 10
94.93236217244747
 20
-117.8339789201943
 30
0.0
 10
94.93236217244747
 20
-117.8339789201943
 30
0.0
 10
94.93236217244747
 20
-117.8339789201943
 30
0.0
 10
94.80110403445946
 20
-117.8339789201943
 30
0.0
 10
94.80110403445946
 20
-117.8339789201943
 30
0.0
 10
94.75459524540858
 20
-117.8339789201943
 30
0.0
 10
94.55167912132737
 20
-117.8424194041332
 30
0.0
 10
94.50930444685879
 20
-117.8424194041332
 30
0.0
 10
94.30638832277758
 20
-117.8465535187155
 30
0.0
 10
94.22990720300503
 20
-117.8486205760066
 30
0.0
 10
94.15170353548986
 20
-117.850859888072
 30
0.0
 10
94.15170353548986
 20
-117.850859888072
 30
0.0
 10
94.15170353548986
 20
-117.6667195343854
 30
0.0
 10
94.15170353548986
 20
-117.6667195343854
 30
0.0
 10
94.26608070560015
 20
-117.6751600183243
 30
0.0
 10
94.31052243735988
 20
-117.6751600183243
 30
0.0
 10
94.69327254577114
 20
-117.6837727570374
 30
0.0
 10
94.62988278884254
 20
-117.5885158668702
 30
0.0
 10
94.60232202496053
 20
-117.5609551029882
 30
0.0
 10
94.56649303191394
 20
-117.5249538551674
 30
0.0
 10
94.56649303191394
 20
-117.5249538551674
 30
0.0
 10
94.74184839211316
 20
-117.4424438182956
 30
0.0
 10
94.74184839211316
 20
-117.4424438182956
 30
0.0
 10
94.78215600929057
 20
-117.4784450661165
 30
0.0
 10
94.82659774105029
 20
-117.5208197405851
 30
0.0
 10
94.90066729398318
 20
-117.6307182865645
 30
0.0
 10
94.90066729398318
 20
-117.6307182865645
 30
0.0
 10
94.78629012387287
 20
-117.6858398143285
 30
0.0
 10
94.78629012387287
 20
-117.6858398143285
 30
0.0
 10
94.78629012387287
 20
-117.6858398143285
 30
0.0
 10
94.79696991987716
 20
-117.6858398143285
 30
0.0
 10
94.79696991987716
 20
-117.6858398143285
 30
0.0
 10
94.79696991987716
 20
-117.6858398143285
 30
0.0
 10
95.31959090498955
 20
-117.6858398143285
 30
0.0
 10
95.31959090498955
 20
-117.6858398143285
 30
0.0
 10
95.31959090498955
 20
-117.6858398143285
 30
0.0
 10
95.22450626959666
 20
-117.6413980825688
 30
0.0
 10
95.22450626959666
 20
-117.6413980825688
 30
0.0
 10
95.25172252393013
 20
-117.6033297774568
 30
0.0
 10
95.30891110898527
 20
-117.5228867978762
 30
0.0
 10
95.32372501957185
 20
-117.4488172449434
 30
0.0
 10
95.32372501957185
 20
-117.4488172449434
 30
0.0
 10
95.53732093965733
 20
-117.5123792566462
 30
0.0
 10
95.53732093965733
 20
-117.5123792566462
 30
0.0
 10
95.54593367837046
 20
-117.5144463139374
 30
0.0
 10
95.56694876083048
 20
-117.5249538551674
 30
0.0
 10
95.56694876083048
 20
-117.5461411924017
 30
0.0
 10
95.56694876083048
 20
-117.5842094975137
 30
0.0
 10
95.50149194661074
 20
-117.5842094975137
 30
0.0
 10
95.48254392144187
 20
-117.5842094975137
 30
0.0
 10
95.47186412543759
 20
-117.6033297774568
 30
0.0
 10
95.4484374761379
 20
-117.64346513986
 30
0.0
 10
95.41880965496475
 20
-117.6837727570374
 30
0.0
 10
95.81878524080226
 20
-117.6773993303897
 30
0.0
 10
95.8484130619754
 20
-117.6751600183243
 30
0.0
 10
95.92454967219942
 20
-117.6689588464508
 30
0.0
 10
95.92454967219942
 20
-117.6689588464508
 30
0.0
 10
95.92454967219942
 20
-117.850859888072
 30
0.0
 10
95.92454967219942
 20
-117.850859888072
 30
0.0
 10
95.90560164703055
 20
-117.850859888072
 30
0.0
 10
95.8801079404397
 20
-117.8486205760066
 30
0.0
 10
95.66031084848076
 20
-117.8401800920677
 30
0.0
 10
95.60932343529906
 20
-117.8381130347766
 30
0.0
 10
95.38952634334012
 20
-117.8339789201943
 30
0.0
 10
95.3450846115804
 20
-117.8339789201943
 30
0.0
 10
95.3450846115804
 20
-117.8339789201943
 30
0.0
 10
95.12907712465524
 20
-117.8339789201943
 30
0.0
 10
95.12907712465524
 20
-117.8339789201943
 30
0.0
 10
95.12907712465524
 20
-117.8339789201943
 30
0.0
 10
95.12907712465524
 20
-117.9523179501126
 30
0.0
 10
95.12907712465524
 20
-117.9523179501126
 30
0.0
 10
95.12907712465524
 20
-117.9523179501126
 30
0.0
 10
95.30270993711183
 20
-117.9523179501126
 30
0.0
 10
95.30270993711183
 20
-117.9523179501126
 30
0.0
 10
95.46566295356415
 20
-117.9523179501126
 30
0.0
 10
95.65583222434994
 20
-117.9523179501126
 30
0.0
 10
95.8125840689288
 20
-117.9418104088826
 30
0.0
 10
95.8125840689288
 20
-117.9418104088826
 30
0.0
 10
95.8125840689288
 20
-118.1132039092738
 30
0.0
 10
95.8125840689288
 20
-118.1132039092738
 30
0.0
 10
95.60312226342562
 20
-118.1047634253349
 30
0.0
 10
95.40640731121785
 20
-118.1025241132695
 30
0.0
 10
95.30270993711183
 20
-118.1025241132695
 30
0.0
 10
95.30270993711183
 20
-118.1025241132695
 30
0.0
 10
95.12907712465524
 20
-118.1025241132695
 30
0.0
 10
95.12907712465524
 20
-118.1025241132695
 30
0.0
 10
95.12907712465524
 20
-118.1025241132695
 30
0.0
 10
95.12907712465524
 20
-118.2105278567321
 30
0.0
 10
95.12907712465524
 20
-118.2105278567321
 30
0.0
 10
95.12907712465524
 20
-118.2105278567321
 30
0.0
 10
95.35989852216697
 20
-118.2105278567321
 30
0.0
 10
95.35989852216697
 20
-118.2105278567321
 30
0.0
 10
95.49287920789762
 20
-118.2105278567321
 30
0.0
 10
95.7808891904645
 20
-118.2062214873755
 30
0.0
 10
95.99000648641918
 20
-118.1998480607278
 30
0.0
 10
95.99000648641918
 20
-118.1998480607278
 30
0.0
 10
95.99000648641918
 20
-118.3776149877667
 30
0.0
 10
95.99000648641918
 20
-118.3776149877667
 30
0.0
 10
95.79777015834223
 20
-118.371241561119
 30
0.0
 10
95.48461097873302
 20
-118.3669351917624
 30
0.0
 10
95.35989852216697
 20
-118.3669351917624
 30
0.0
  0
POLYLINE
  5
6C
330
63
100
AcDbEntity
  8
_U+30EC_U+30A4_U+30E4_U+30FC 1
370
     0
100
AcDb2dPolyline
 66
     1
 10
0.0
 20
0.0
 30
0.0
  0
VERTEX
  5
6D
330
6C
100
AcDbEntity
  8
_U+30EC_U+30A4_U+30E4_U+30FC 1
370
     0
100
AcDbVertex
100
AcDb2dVertex
 10
95.52491859591044
 20
-118.6229057863165
 30
0.0
  0
VERTEX
  5
6E
330
6C
100
AcDbEntity
  8
_U+30EC_U+30A4_U+30E4_U+30FC 1
370
     0
100
AcDbVertex
100
AcDb2dVertex
 10
94.8183295118857
 20
-118.6229057863165
 30
0.0
  0
VERTEX
  5
6F
330
6C
100
AcDbEntity
  8
_U+30EC_U+30A4_U+30E4_U+30FC 1
370
     0
100
AcDbVertex
100
AcDb2dVertex
 10
94.8183295118857
 20
-118.7309095297791
 30
0.0
  0
VERTEX
  5
70
330
6C
100
AcDbEntity
  8
_U+30EC_U+30A4_U+30E4_U+30FC 1
370
     0
100
AcDbVertex
100
AcDb2dVertex
 10
95.52491859591044
 20
-118.7309095297791
 30
0.0
  0
VERTEX
  5
71
330
6C
100
AcDbEntity
  8
_U+30EC_U+30A4_U+30E4_U+30FC 1
370
     0
100
AcDbVertex
100
AcDb2dVertex
 10
95.52491859591044
 20
-118.6229057863165
 30
0.0
  0
SEQEND
  5
72
330
6C
100
AcDbEntity
  8
_U+30EC_U+30A4_U+30E4_U+30FC 1
370
     0
  0
POLYLINE
  5
73
330
63
100
AcDbEntity
  8
_U+30EC_U+30A4_U+30E4_U+30FC 1
370
     0
100
AcDb2dPolyline
 66
     1
 10
0.0
 20
0.0
 30
0.0
  0
VERTEX
  5
74
330
73
100
AcDbEntity
  8
_U+30EC_U+30A4_U+30E4_U+30FC 1
370
     0
100
AcDbVertex
100
AcDb2dVertex
 10
95.52491859591044
 20
-118.8556219863451
 30
0.0
  0
VERTEX
  5
75
330
73
100
AcDbEntity
  8
_U+30EC_U+30A4_U+30E4_U+30FC 1
370
     0
100
AcDbVertex
100
AcDb2dVertex
 10
94.8183295118857
 20
-118.8556219863451
 30
0.0
  0
VERTEX
  5
76
330
73
100
AcDbEntity
  8
_U+30EC_U+30A4_U+30E4_U+30FC 1
370
     0
100
AcDbVertex
100
AcDb2dVertex
 10
94.8183295118857
 20
-118.9699991564554
 30
0.0
  0
VERTEX
  5
77
330
73
100
AcDbEntity
  8
_U+30EC_U+30A4_U+30E4_U+30FC 1
370
     0
100
AcDbVertex
100
AcDb2dVertex
 10
95.52491859591044
 20
-118.9699991564554
 30
0.0
  0
VERTEX
  5
78
330
73
100
AcDbEntity
  8
_U+30EC_U+30A4_U+30E4_U+30FC 1
370
     0
100
AcDbVertex
100
AcDb2dVertex
 10
95.52491859591044
 20
-118.8556219863451
 30
0.0
  0
SEQEND
  5
79
330
73
100
AcDbEntity
  8
_U+30EC_U+30A4_U+30E4_U+30FC 1
370
     0
  0
POLYLINE
  5
7A
330
63
100
AcDbEntity
  8
_U+30EC_U+30A4_U+30E4_U+30FC 1
370
     0
100
AcDb2dPolyline
 66
     1
 10
0.0
 20
0.0
 30
0.0
  0
VERTEX
  5
7B
330
7A
100
AcDbEntity
  8
_U+30EC_U+30A4_U+30E4_U+30FC 1
370
     0
100
AcDbVertex
100
AcDb2dVertex
 10
95.52491859591044
 20
-119.099017982378
 30
0.0
  0
VERTEX
  5
7C
330
7A
100
AcDbEntity
  8
_U+30EC_U+30A4_U+30E4_U+30FC 1
370
     0
100
AcDbVertex
100
AcDb2dVertex
 10
94.8183295118857
 20
-119.099017982378
 30
0.0
  0
VERTEX
  5
7D
330
7A
100
AcDbEntity
  8
_U+30EC_U+30A4_U+30E4_U+30FC 1
370
     0
100
AcDbVertex
100
AcDb2dVertex
 10
94.8183295118857
 20
-119.2132228977141
 30
0.0
  0
VERTEX
  5
7E
330
7A
100
AcDbEntity
  8
_U+30EC_U+30A4_U+30E4_U+30FC 1
370
     0
100
AcDbVertex
100
AcDb2dVertex
 10
95.52491859591044
 20
-119.2132228977141
 30
0.0
  0
VERTEX
  5
7F
330
7A
100
AcDbEntity
  8
_U+30EC_U+30A4_U+30E4_U+30FC 1
370
     0
100
AcDbVertex
100
AcDb2dVertex
 10
95.52491859591044
 20
-119.099017982378
 30
0.0
  0
SEQEND
  5
80
330
7A
100
AcDbEntity
  8
_U+30EC_U+30A4_U+30E4_U+30FC 1
370
     0
  0
HATCH
  5
81
330
63
100
AcDbEntity
  8
_U+30EC_U+30A4_U+30E4_U+30FC 1
 62
   179
420
  2234388
100
AcDbHatch
 10
0.0
 20
0.0
 30
0.0
210
0.0
220
0.0
230
1.0
  2
SOLID
 70
     1
 71
     0
 91
        4
 92
        1
 93
        1
 72
     4
 94
        3
 73
     0
 74
     1
 95
      203
 96
      199
 40
0.0
 40
0.0
 40
0.0
 40
0.0
 40
1.0
 40
1.0
 40
1.0
 40
2.0
 40
2.0
 40
2.0
 40
3.0
 40
3.0
 40
3.0
 40
4.0
 40
4.0
 40
4.0
 40
5.0
 40
5.0
 40
5.0
 40
6.0
 40
6.0
 40
6.0
 40
7.0
 40
7.0
 40
7.0
 40
8.0
 40
8.0
 40
8.0
 40
9.0
 40
9.0
 40
9.0
 40
10.0
 40
10.0
 40
10.0
 40
11.0
 40
11.0
 40
11.0
 40
12.0
 40
12.0
 40
12.0
 40
13.0
 40
13.0
 40
13.0
 40
14.0
 40
14.0
 40
14.0
 40
15.0
 40
15.0
 40
15.0
 40
16.0
 40
16.0
 40
16.0
 40
17.0
 40
17.0
 40
17.0
 40
18.0
 40
18.0
 40
18.0
 40
19.0
 40
19.0
 40
19.0
 40
20.0
 40
20.0
 40
20.0
 40
21.0
 40
21.0
 40
21.0
 40
22.0
 40
22.0
 40
22.0
 40
23.0
 40
23.0
 40
23.0
 40
24.0
 40
24.0
 40
24.0
 40
25.0
 40
25.0
 40
25.0
 40
26.0
 40
26.0
 40
26.0
 40
27.0
 40
27.0
 40
27.0
 40
28.0
 40
28.0
 40
28.0
 40
29.0
 40
29.0
 40
29.0
 40
30.0
 40
30.0
 40
30.0
 40
31.0
 40
31.0
 40
31.0
 40
32.0
 40
32.0
 40
32.0
 40
33.0
 40
33.0
 40
33.0
 40
34.0
 40
34.0
 40
34.0
 40
35.0
 40
35.0
 40
35.0
 40
36.0
 40
36.0
 40
36.0
 40
37.0
 40
37.0
 40
37.0
 40
38.0
 40
38.0
 40
38.0
 40
39.0
 40
39.0
 40
39.0
 40
40.0
 40
40.0
 40
40.0
 40
41.0
 40
41.0
 40
41.0
 40
42.0
 40
42.0
 40
42.0
 40
43.0
 40
43.0
 40
43.0
 40
44.0
 40
44.0
 40
44.0
 40
45.0
 40
45.0
 40
45.0
 40
46.0
 40
46.0
 40
46.0
 40
47.0
 40
47.0
 40
47.0
 40
48.0
 40
48.0
 40
48.0
 40
49.0
 40
49.0
 40
49.0
 40
50.0
 40
50.0
 40
50.0
 40
51.0
 40
51.0
 40
51.0
 40
52.0
 40
52.0
 40
52.0
 40
53.0
 40
53.0
 40
53.0
 40
54.0
 40
54.0
 40
54.0
 40
55.0
 40
55.0
 40
55.0
 40
56.0
 40
56.0
 40
56.0
 40
57.0
 40
57.0
 40
57.0
 40
58.0
 40
58.0
 40
58.0
 40
59.0
 40
59.0
 40
59.0
 40
60.0
 40
60.0
 40
60.0
 40
61.0
 40
61.0
 40
61.0
 40
62.0
 40
62.0
 40
62.0
 40
63.0
 40
63.0
 40
63.0
 40
64.0
 40
64.0
 40
64.0
 40
65.0
 40
65.0
 40
65.0
 40
66.0
 40
66.0
 40
66.0
 40
66.0
 10
95.35989852216697
 20
-118.3669351917624
 10
95.35989852216697
 20
-118.3669351917624
 10
94.80110403445946
 20
-118.3669351917624
 10
94.80110403445946
 20
-118.3669351917624
 10
94.7907687480037
 20
-118.4113769235222
 10
94.78215600929057
 20
-118.4430718019865
 10
94.76940915599515
 20
-118.4813123618727
 10
94.794902862586
 20
-118.4813123618727
 10
94.80971677317258
 20
-118.4833794191639
 10
94.81591794504602
 20
-118.4833794191639
 10
94.81591794504602
 20
-118.4833794191639
 10
95.0043646680892
 20
-118.4833794191639
 10
95.0043646680892
 20
-118.4833794191639
 10
95.0043646680892
 20
-118.4833794191639
 10
95.37884654733585
 20
-118.4833794191639
 10
95.37884654733585
 20
-118.4833794191639
 10
95.42948945096902
 20
-118.4833794191639
 10
95.71302080940508
 20
-118.4706325658685
 10
95.74471568786939
 20
-118.4706325658685
 10
95.74264863057823
 20
-118.4981933297505
 10
95.74058157328709
 20
-118.5171413549193
 10
95.74058157328709
 20
-118.5467691760925
 10
95.73851451599593
 20
-118.5784640545568
 10
95.73851451599593
 20
-118.7138563071271
 10
95.73851451599593
 20
-118.7414170710091
 10
95.73851451599593
 20
-118.7414170710091
 10
95.73851451599593
 20
-118.9868801243331
 10
95.73851451599593
 20
-118.9868801243331
 10
95.73851451599593
 20
-119.0313218560929
 10
95.74264863057823
 20
-119.2280368083006
 10
95.74678274516053
 20
-119.3803100287487
 10
95.74678274516053
 20
-119.3803100287487
 10
95.52043997177962
 20
-119.3803100287487
 10
95.52043997177962
 20
-119.3803100287487
 10
95.52043997177962
 20
-119.3803100287487
 10
95.52250702907077
 20
-119.3465480929932
 10
95.52250702907077
 20
-119.3465480929932
 10
95.52250702907077
 20
-119.3465480929932
 10
94.82039656917685
 20
-119.3465480929932
 10
94.82039656917685
 20
-119.3465480929932
 10
94.82039656917685
 20
-119.3465480929932
 10
94.822463626468
 20
-119.3803100287487
 10
94.822463626468
 20
-119.3803100287487
 10
94.822463626468
 20
-119.3803100287487
 10
94.60438908225169
 20
-119.3803100287487
 10
94.60438908225169
 20
-119.3803100287487
 10
94.60886770638251
 20
-119.3253607557589
 10
94.60886770638251
 20
-119.3126139024635
 10
94.61506887825595
 20
-119.1984089871275
 10
94.61713593554711
 20
-119.1708482232455
 10
94.61920299283825
 20
-119.0376952827406
 10
94.61920299283825
 20
-119.0185750027974
 10
94.61920299283825
 20
-119.0185750027974
 10
94.61920299283825
 20
-118.815486623942
 10
94.61920299283825
 20
-118.815486623942
 10
94.47967662568564
 20
-119.0650837918483
 10
94.31052243735988
 20
-119.1963419298363
 10
94.2047580059627
 20
-119.2617987440561
 10
94.2047580059627
 20
-119.2617987440561
 10
94.03112519350611
 20
-119.1222723769035
 10
94.03112519350611
 20
-119.1222723769035
 10
94.12000865702555
 20
-119.071457218496
 10
94.264013648309
 20
-118.9846408122677
 10
94.40147295817047
 20
-118.7901651721254
 10
94.49242347898107
 20
-118.6632134034939
 10
94.55788029320081
 20
-118.5193806669847
 10
94.59198673850479
 20
-118.3669351917624
 10
94.3632323982842
 20
-118.3691745038278
 10
94.18339841395415
 20
-118.3755479304756
 10
94.08831377856126
 20
-118.3776149877667
 10
94.08831377856126
 20
-118.3776149877667
 10
94.08831377856126
 20
-118.1998480607278
 10
94.08831377856126
 20
-118.1998480607278
 10
94.28502873076903
 20
-118.2062214873755
 10
94.56856008920509
 20
-118.2105278567321
 10
94.71876625236197
 20
-118.2105278567321
 10
94.71876625236197
 20
-118.2105278567321
 10
94.93236217244747
 20
-118.2105278567321
 10
94.93236217244747
 20
-118.2105278567321
 10
94.93236217244747
 20
-118.2105278567321
 10
94.93236217244747
 20
-118.1025241132695
 10
94.93236217244747
 20
-118.1025241132695
 10
94.93236217244747
 20
-118.1025241132695
 10
94.78629012387287
 20
-118.1025241132695
 10
94.78629012387287
 20
-118.1025241132695
 10
94.61713593554711
 20
-118.1025241132695
 10
94.44798174722135
 20
-118.1068304826261
 10
94.28089461618673
 20
-118.1132039092738
 10
94.28089461618673
 20
-118.1132039092738
 10
94.28089461618673
 20
-117.9418104088826
 10
94.28089461618673
 20
-117.9418104088826
 10
94.43523489392592
 20
-117.9523179501126
 10
94.62127005012941
 20
-117.9523179501126
 10
94.78629012387287
 20
-117.9523179501126
 10
94.78629012387287
 20
-117.9523179501126
 10
94.93236217244747
 20
-117.9523179501126
 10
94.93236217244747
 20
-117.9523179501126
 10
94.93236217244747
 20
-117.9523179501126
 10
94.93236217244747
 20
-117.8339789201943
 10
94.93236217244747
 20
-117.8339789201943
 10
94.93236217244747
 20
-117.8339789201943
 10
94.80110403445946
 20
-117.8339789201943
 10
94.80110403445946
 20
-117.8339789201943
 10
94.75459524540858
 20
-117.8339789201943
 10
94.55167912132737
 20
-117.8424194041332
 10
94.50930444685879
 20
-117.8424194041332
 10
94.30638832277758
 20
-117.8465535187155
 10
94.22990720300503
 20
-117.8486205760066
 10
94.15170353548986
 20
-117.850859888072
 10
94.15170353548986
 20
-117.850859888072
 10
94.15170353548986
 20
-117.6667195343854
 10
94.15170353548986
 20
-117.6667195343854
 10
94.26608070560015
 20
-117.6751600183243
 10
94.31052243735988
 20
-117.6751600183243
 10
94.69327254577114
 20
-117.6837727570374
 10
94.62988278884254
 20
-117.5885158668702
 10
94.60232202496053
 20
-117.5609551029882
 10
94.56649303191394
 20
-117.5249538551674
 10
94.56649303191394
 20
-117.5249538551674
 10
94.74184839211316
 20
-117.4424438182956
 10
94.74184839211316
 20
-117.4424438182956
 10
94.78215600929057
 20
-117.4784450661165
 10
94.82659774105029
 20
-117.5208197405851
 10
94.90066729398318
 20
-117.6307182865645
 10
94.90066729398318
 20
-117.6307182865645
 10
94.78629012387287
 20
-117.6858398143285
 10
94.78629012387287
 20
-117.6858398143285
 10
94.78629012387287
 20
-117.6858398143285
 10
94.79696991987716
 20
-117.6858398143285
 10
94.79696991987716
 20
-117.6858398143285
 10
94.79696991987716
 20
-117.6858398143285
 10
95.31959090498955
 20
-117.6858398143285
 10
95.31959090498955
 20
-117.6858398143285
 10
95.31959090498955
 20
-117.6858398143285
 10
95.22450626959666
 20
-117.6413980825688
 10
95.22450626959666
 20
-117.6413980825688
 10
95.25172252393013
 20
-117.6033297774568
 10
95.30891110898527
 20
-117.5228867978762
 10
95.32372501957185
 20
-117.4488172449434
 10
95.32372501957185
 20
-117.4488172449434
 10
95.53732093965733
 20
-117.5123792566462
 10
95.53732093965733
 20
-117.5123792566462
 10
95.54593367837046
 20
-117.5144463139374
 10
95.56694876083048
 20
-117.5249538551674
 10
95.56694876083048
 20
-117.5461411924017
 10
95.56694876083048
 20
-117.5842094975137
 10
95.50149194661074
 20
-117.5842094975137
 10
95.48254392144187
 20
-117.5842094975137
 10
95.47186412543759
 20
-117.6033297774568
 10
95.4484374761379
 20
-117.64346513986
 10
95.41880965496475
 20
-117.6837727570374
 10
95.81878524080226
 20
-117.6773993303897
 10
95.8484130619754
 20
-117.6751600183243
 10
95.92454967219942
 20
-117.6689588464508
 10
95.92454967219942
 20
-117.6689588464508
 10
95.92454967219942
 20
-117.850859888072
 10
95.92454967219942
 20
-117.850859888072
 10
95.90560164703055
 20
-117.850859888072
 10
95.8801079404397
 20
-117.8486205760066
 10
95.66031084848076
 20
-117.8401800920677
 10
95.60932343529906
 20
-117.8381130347766
 10
95.38952634334012
 20
-117.8339789201943
 10
95.3450846115804
 20
-117.8339789201943
 10
95.3450846115804
 20
-117.8339789201943
 10
95.12907712465524
 20
-117.8339789201943
 10
95.12907712465524
 20
-117.8339789201943
 10
95.12907712465524
 20
-117.8339789201943
 10
95.12907712465524
 20
-117.9523179501126
 10
95.12907712465524
 20
-117.9523179501126
 10
95.12907712465524
 20
-117.9523179501126
 10
95.30270993711183
 20
-117.9523179501126
 10
95.30270993711183
 20
-117.9523179501126
 10
95.46566295356415
 20
-117.9523179501126
 10
95.65583222434994
 20
-117.9523179501126
 10
95.8125840689288
 20
-117.9418104088826
 10
95.8125840689288
 20
-117.9418104088826
 10
95.8125840689288
 20
-118.1132039092738
 10
95.8125840689288
 20
-118.1132039092738
 10
95.60312226342562
 20
-118.1047634253349
 10
95.40640731121785
 20
-118.1025241132695
 10
95.30270993711183
 20
-118.1025241132695
 10
95.30270993711183
 20
-118.1025241132695
 10
95.12907712465524
 20
-118.1025241132695
 10
95.12907712465524
 20
-118.1025241132695
 10
95.12907712465524
 20
-118.1025241132695
 10
95.12907712465524
 20
-118.2105278567321
 10
95.12907712465524
 20
-118.2105278567321
 10
95.12907712465524
 20
-118.2105278567321
 10
95.35989852216697
 20
-118.2105278567321
 10
95.35989852216697
 20
-118.2105278567321
 10
95.49287920789762
 20
-118.2105278567321
 10
95.7808891904645
 20
-118.2062214873755
 10
95.99000648641918
 20
-118.1998480607278
 10
95.99000648641918
 20
-118.1998480607278
 10
95.99000648641918
 20
-118.3776149877667
 10
95.99000648641918
 20
-118.3776149877667
 10
95.79777015834223
 20
-118.371241561119
 10
95.48461097873302
 20
-118.3669351917624
 10
95.35989852216697
 20
-118.3669351917624
 97
        0
 97
        0
 92
        1
 93
        4
 72
     1
 10
95.52491859591044
 20
-118.6229057863165
 11
94.8183295118857
 21
-118.6229057863165
 72
     1
 10
94.8183295118857
 20
-118.6229057863165
 11
94.8183295118857
 21
-118.7309095297791
 72
     1
 10
94.8183295118857
 20
-118.7309095297791
 11
95.52491859591044
 21
-118.7309095297791
 72
     1
 10
95.52491859591044
 20
-118.7309095297791
 11
95.52491859591044
 21
-118.6229057863165
 97
        0
 92
        1
 93
        4
 72
     1
 10
95.52491859591044
 20
-118.8556219863451
 11
94.8183295118857
 21
-118.8556219863451
 72
     1
 10
94.8183295118857
 20
-118.8556219863451
 11
94.8183295118857
 21
-118.9699991564554
 72
     1
 10
94.8183295118857
 20
-118.9699991564554
 11
95.52491859591044
 21
-118.9699991564554
 72
     1
 10
95.52491859591044
 20
-118.9699991564554
 11
95.52491859591044
 21
-118.8556219863451
 97
        0
 92
        1
 93
        4
 72
     1
 10
95.52491859591044
 20
-119.099017982378
 11
94.8183295118857
 21
-119.099017982378
 72
     1
 10
94.8183295118857
 20
-119.099017982378
 11
94.8183295118857
 21
-119.2132228977141
 72
     1
 10
94.8183295118857
 20
-119.2132228977141
 11
95.52491859591044
 21
-119.2132228977141
 72
     1
 10
95.52491859591044
 20
-119.2132228977141
 11
95.52491859591044
 21
-119.099017982378
 97
        0
 75
     2
 76
     1
 98
        0
  0
SPLINE
  5
82
330
63
100
AcDbEntity
  8
_U+30EC_U+30A4_U+30E4_U+30FC 1
370
     0
100
AcDbSpline
210
0.0
220
0.0
230
1.0
 70
    11
 71
     3
 72
    47
 73
    43
 74
     0
 42
0.0000000001
 43
0.0000000001
 12
1.0
 22
0.0
 32
0.0
 13
1.0
 23
0.0
 33
0.0
 40
0.0
 40
0.0
 40
0.0
 40
0.0
 40
1.0
 40
1.0
 40
1.0
 40
2.0
 40
2.0
 40
2.0
 40
3.0
 40
3.0
 40
3.0
 40
4.0
 40
4.0
 40
4.0
 40
5.0
 40
5.0
 40
5.0
 40
6.0
 40
6.0
 40
6.0
 40
7.0
 40
7.0
 40
7.0
 40
8.0
 40
8.0
 40
8.0
 40
9.0
 40
9.0
 40
9.0
 40
10.0
 40
10.0
 40
10.0
 40
11.0
 40
11.0
 40
11.0
 40
12.0
 40
12.0
 40
12.0
 40
13.0
 40
13.0
 40
13.0
 40
14.0
 40
14.0
 40
14.0
 40
14.0
 10
97.33669431160332
 20
-118.343680797237
 30
0.0
 10
97.33669431160332
 20
-118.343680797237
 30
0.0
 10
97.23506399478846
 20
-118.343680797237
 30
0.0
 10
97.23506399478846
 20
-118.343680797237
 30
0.0
 10
97.23506399478846
 20
-118.4304972034653
 30
0.0
 10
97.21404891232844
 20
-118.8197929932985
 30
0.0
 10
97.01733396012067
 20
-119.0397623400317
 30
0.0
 10
96.8647162301241
 20
-119.2089165283575
 30
0.0
 10
96.65766599146059
 20
-119.2788519667081
 30
0.0
 10
96.57291664252344
 20
-119.3062404758158
 30
0.0
 10
96.57291664252344
 20
-119.3062404758158
 30
0.0
 10
96.37826874760682
 20
-119.1391533447812
 30
0.0
 10
96.37826874760682
 20
-119.1391533447812
 30
0.0
 10
96.4757649498394
 20
-119.1264064914858
 30
0.0
 10
96.6511203100386
 20
-119.1031520969603
 30
0.0
 10
96.83956703308178
 20
-118.9148776286914
 30
0.0
 10
96.91363658601465
 20
-118.843047387824
 30
0.0
 10
97.01733396012067
 20
-118.7033487658971
 30
0.0
 10
97.01733396012067
 20
-118.343680797237
 30
0.0
 10
97.01733396012067
 20
-118.343680797237
 30
0.0
 10
96.78651256260893
 20
-118.343680797237
 30
0.0
 10
96.78651256260893
 20
-118.343680797237
 30
0.0
 10
96.60047740640545
 20
-118.343680797237
 30
0.0
 10
96.41409774065342
 20
-118.3479871665936
 30
0.0
 10
96.22806258444993
 20
-118.3628010771801
 30
0.0
 10
96.22806258444993
 20
-118.3628010771801
 30
0.0
 10
96.22806258444993
 20
-118.1428317304469
 30
0.0
 10
96.22806258444993
 20
-118.1428317304469
 30
0.0
 10
96.4165093074931
 20
-118.1576456410335
 30
0.0
 10
96.70210772322031
 20
-118.1617797556158
 30
0.0
 10
96.78651256260893
 20
-118.1617797556158
 30
0.0
 10
96.78651256260893
 20
-118.1617797556158
 30
0.0
 10
97.33669431160332
 20
-118.1617797556158
 30
0.0
 10
97.33669431160332
 20
-118.1617797556158
 30
0.0
 10
97.3556423367722
 20
-118.1617797556158
 30
0.0
 10
97.67293563096372
 20
-118.1617797556158
 30
0.0
 10
97.90134546163578
 20
-118.1428317304469
 30
0.0
 10
97.90134546163578
 20
-118.1428317304469
 30
0.0
 10
97.90134546163578
 20
-118.3628010771801
 30
0.0
 10
97.90134546163578
 20
-118.3628010771801
 30
0.0
 10
97.71324324814114
 20
-118.3479871665936
 30
0.0
 10
97.52479652509797
 20
-118.343680797237
 30
0.0
 10
97.33669431160332
 20
-118.343680797237
 30
0.0
  0
SPLINE
  5
83
330
63
100
AcDbEntity
  8
_U+30EC_U+30A4_U+30E4_U+30FC 1
370
     0
100
AcDbSpline
210
0.0
220
0.0
230
1.0
 70
    11
 71
     3
 72
    29
 73
    25
 74
     0
 42
0.0000000001
 43
0.0000000001
 12
1.0
 22
0.0
 32
0.0
 13
1.0
 23
0.0
 33
0.0
 40
0.0
 40
0.0
 40
0.0
 40
0.0
 40
1.0
 40
1.0
 40
1.0
 40
2.0
 40
2.0
 40
2.0
 40
3.0
 40
3.0
 40
3.0
 40
4.0
 40
4.0
 40
4.0
 40
5.0
 40
5.0
 40
5.0
 40
6.0
 40
6.0
 40
6.0
 40
7.0
 40
7.0
 40
7.0
 40
8.0
 40
8.0
 40
8.0
 40
8.0
 10
97.23506399478846
 20
-117.8148586402511
 30
0.0
 10
97.23506399478846
 20
-117.8148586402511
 30
0.0
 10
96.88159719800183
 20
-117.8148586402511
 30
0.0
 10
96.88159719800183
 20
-117.8148586402511
 30
0.0
 10
96.76963159473121
 20
-117.8148586402511
 30
0.0
 10
96.63010522757858
 20
-117.8212320668989
 30
0.0
 10
96.52227373889026
 20
-117.8339789201943
 30
0.0
 10
96.52227373889026
 20
-117.8339789201943
 30
0.0
 10
96.52227373889026
 20
-117.5990234081003
 30
0.0
 10
96.52227373889026
 20
-117.5990234081003
 30
0.0
 10
96.64044051403434
 20
-117.6138373186868
 30
0.0
 10
96.82475312249521
 20
-117.6181436880434
 30
0.0
 10
96.88159719800183
 20
-117.6181436880434
 30
0.0
 10
96.88159719800183
 20
-117.6181436880434
 30
0.0
 10
97.23506399478846
 20
-117.6181436880434
 30
0.0
 10
97.23506399478846
 20
-117.6181436880434
 30
0.0
 10
97.25401201995733
 20
-117.6181436880434
 30
0.0
 10
97.45727265358707
 20
-117.6181436880434
 30
0.0
 10
97.59886607803084
 20
-117.5990234081003
 30
0.0
 10
97.59886607803084
 20
-117.5990234081003
 30
0.0
 10
97.59886607803084
 20
-117.8339789201943
 30
0.0
 10
97.59886607803084
 20
-117.8339789201943
 30
0.0
 10
97.4424587430005
 20
-117.8148586402511
 30
0.0
 10
97.25194496266619
 20
-117.8148586402511
 30
0.0
 10
97.23506399478846
 20
-117.8148586402511
 30
0.0
  0
HATCH
  5
84
330
63
100
AcDbEntity
  8
_U+30EC_U+30A4_U+30E4_U+30FC 1
 62
   179
420
  2234388
100
AcDbHatch
 10
0.0
 20
0.0
 30
0.0
210
0.0
220
0.0
230
1.0
  2
SOLID
 70
     1
 71
     0
 91
        2
 92
        1
 93
        1
 72
     4
 94
        3
 73
     0
 74
     1
 95
       47
 96
       43
 40
0.0
 40
0.0
 40
0.0
 40
0.0
 40
1.0
 40
1.0
 40
1.0
 40
2.0
 40
2.0
 40
2.0
 40
3.0
 40
3.0
 40
3.0
 40
4.0
 40
4.0
 40
4.0
 40
5.0
 40
5.0
 40
5.0
 40
6.0
 40
6.0
 40
6.0
 40
7.0
 40
7.0
 40
7.0
 40
8.0
 40
8.0
 40
8.0
 40
9.0
 40
9.0
 40
9.0
 40
10.0
 40
10.0
 40
10.0
 40
11.0
 40
11.0
 40
11.0
 40
12.0
 40
12.0
 40
12.0
 40
13.0
 40
13.0
 40
13.0
 40
14.0
 40
14.0
 40
14.0
 40
14.0
 10
97.33669431160332
 20
-118.343680797237
 10
97.33669431160332
 20
-118.343680797237
 10
97.23506399478846
 20
-118.343680797237
 10
97.23506399478846
 20
-118.343680797237
 10
97.23506399478846
 20
-118.4304972034653
 10
97.21404891232844
 20
-118.8197929932985
 10
97.01733396012067
 20
-119.0397623400317
 10
96.8647162301241
 20
-119.2089165283575
 10
96.65766599146059
 20
-119.2788519667081
 10
96.57291664252344
 20
-119.3062404758158
 10
96.57291664252344
 20
-119.3062404758158
 10
96.37826874760682
 20
-119.1391533447812
 10
96.37826874760682
 20
-119.1391533447812
 10
96.4757649498394
 20
-119.1264064914858
 10
96.6511203100386
 20
-119.1031520969603
 10
96.83956703308178
 20
-118.9148776286914
 10
96.91363658601465
 20
-118.843047387824
 10
97.01733396012067
 20
-118.7033487658971
 10
97.01733396012067
 20
-118.343680797237
 10
97.01733396012067
 20
-118.343680797237
 10
96.78651256260893
 20
-118.343680797237
 10
96.78651256260893
 20
-118.343680797237
 10
96.60047740640545
 20
-118.343680797237
 10
96.41409774065342
 20
-118.3479871665936
 10
96.22806258444993
 20
-118.3628010771801
 10
96.22806258444993
 20
-118.3628010771801
 10
96.22806258444993
 20
-118.1428317304469
 10
96.22806258444993
 20
-118.1428317304469
 10
96.4165093074931
 20
-118.1576456410335
 10
96.70210772322031
 20
-118.1617797556158
 10
96.78651256260893
 20
-118.1617797556158
 10
96.78651256260893
 20
-118.1617797556158
 10
97.33669431160332
 20
-118.1617797556158
 10
97.33669431160332
 20
-118.1617797556158
 10
97.3556423367722
 20
-118.1617797556158
 10
97.67293563096372
 20
-118.1617797556158
 10
97.90134546163578
 20
-118.1428317304469
 10
97.90134546163578
 20
-118.1428317304469
 10
97.90134546163578
 20
-118.3628010771801
 10
97.90134546163578
 20
-118.3628010771801
 10
97.71324324814114
 20
-118.3479871665936
 10
97.52479652509797
 20
-118.343680797237
 10
97.33669431160332
 20
-118.343680797237
 97
        0
 97
        0
 92
        1
 93
        1
 72
     4
 94
        3
 73
     0
 74
     1
 95
       29
 96
       25
 40
0.0
 40
0.0
 40
0.0
 40
0.0
 40
1.0
 40
1.0
 40
1.0
 40
2.0
 40
2.0
 40
2.0
 40
3.0
 40
3.0
 40
3.0
 40
4.0
 40
4.0
 40
4.0
 40
5.0
 40
5.0
 40
5.0
 40
6.0
 40
6.0
 40
6.0
 40
7.0
 40
7.0
 40
7.0
 40
8.0
 40
8.0
 40
8.0
 40
8.0
 10
97.23506399478846
 20
-117.8148586402511
 10
97.23506399478846
 20
-117.8148586402511
 10
96.88159719800183
 20
-117.8148586402511
 10
96.88159719800183
 20
-117.8148586402511
 10
96.76963159473121
 20
-117.8148586402511
 10
96.63010522757858
 20
-117.8212320668989
 10
96.52227373889026
 20
-117.8339789201943
 10
96.52227373889026
 20
-117.8339789201943
 10
96.52227373889026
 20
-117.5990234081003
 10
96.52227373889026
 20
-117.5990234081003
 10
96.64044051403434
 20
-117.6138373186868
 10
96.82475312249521
 20
-117.6181436880434
 10
96.88159719800183
 20
-117.6181436880434
 10
96.88159719800183
 20
-117.6181436880434
 10
97.23506399478846
 20
-117.6181436880434
 10
97.23506399478846
 20
-117.6181436880434
 10
97.25401201995733
 20
-117.6181436880434
 10
97.45727265358707
 20
-117.6181436880434
 10
97.59886607803084
 20
-117.5990234081003
 10
97.59886607803084
 20
-117.5990234081003
 10
97.59886607803084
 20
-117.8339789201943
 10
97.59886607803084
 20
-117.8339789201943
 10
97.4424587430005
 20
-117.8148586402511
 10
97.25194496266619
 20
-117.8148586402511
 10
97.23506399478846
 20
-117.8148586402511
 97
        0
 97
        0
 75
     2
 76
     1
 98
        0
  0
SPLINE
  5
85
330
63
100
AcDbEntity
  8
_U+30EC_U+30A4_U+30E4_U+30FC 1
370
     0
100
AcDbSpline
210
0.0
220
0.0
230
1.0
 70
    11
 71
     3
 72
    29
 73
    25
 74
     0
 42
0.0000000001
 43
0.0000000001
 12
1.0
 22
0.0
 32
0.0
 13
1.0
 23
0.0
 33
0.0
 40
0.0
 40
0.0
 40
0.0
 40
0.0
 40
1.0
 40
1.0
 40
1.0
 40
2.0
 40
2.0
 40
2.0
 40
3.0
 40
3.0
 40
3.0
 40
4.0
 40
4.0
 40
4.0
 40
5.0
 40
5.0
 40
5.0
 40
6.0
 40
6.0
 40
6.0
 40
7.0
 40
7.0
 40
7.0
 40
8.0
 40
8.0
 40
8.0
 40
8.0
 10
99.18257647260019
 20
-118.5066338136893
 30
0.0
 10
99.18257647260019
 20
-118.5066338136893
 30
0.0
 10
98.69819604737407
 20
-118.5066338136893
 30
0.0
 10
98.69819604737407
 20
-118.5066338136893
 30
0.0
 10
98.67063528349206
 20
-118.5066338136893
 30
0.0
 10
98.35334198930056
 20
-118.5066338136893
 30
0.0
 10
98.14181312650622
 20
-118.5319552655059
 30
0.0
 10
98.14181312650622
 20
-118.5319552655059
 30
0.0
 10
98.14181312650622
 20
-118.3014783775427
 30
0.0
 10
98.14181312650622
 20
-118.3014783775427
 30
0.0
 10
98.30028751882772
 20
-118.3247327720681
 30
0.0
 10
98.49080129916203
 20
-118.3267998293593
 30
0.0
 10
98.69819604737407
 20
-118.3267998293593
 30
0.0
 10
98.69819604737407
 20
-118.3267998293593
 30
0.0
 10
99.18257647260019
 20
-118.3267998293593
 30
0.0
 10
99.18257647260019
 20
-118.3267998293593
 30
0.0
 10
99.36861162880369
 20
-118.3267998293593
 30
0.0
 10
99.5549912945557
 20
-118.3247327720681
 30
0.0
 10
99.73895939346804
 20
-118.3014783775427
 30
0.0
 10
99.73895939346804
 20
-118.3014783775427
 30
0.0
 10
99.73895939346804
 20
-118.5319552655059
 30
0.0
 10
99.73895939346804
 20
-118.5319552655059
 30
0.0
 10
99.5549912945557
 20
-118.5087008709805
 30
0.0
 10
99.30728892916623
 20
-118.5066338136893
 30
0.0
 10
99.18257647260019
 20
-118.5066338136893
 30
0.0
  0
HATCH
  5
86
330
63
100
AcDbEntity
  8
_U+30EC_U+30A4_U+30E4_U+30FC 1
 62
   179
420
  2234388
100
AcDbHatch
 10
0.0
 20
0.0
 30
0.0
210
0.0
220
0.0
230
1.0
  2
SOLID
 70
     1
 71
     0
 91
        1
 92
        1
 93
        1
 72
     4
 94
        3
 73
     0
 74
     1
 95
       29
 96
       25
 40
0.0
 40
0.0
 40
0.0
 40
0.0
 40
1.0
 40
1.0
 40
1.0
 40
2.0
 40
2.0
 40
2.0
 40
3.0
 40
3.0
 40
3.0
 40
4.0
 40
4.0
 40
4.0
 40
5.0
 40
5.0
 40
5.0
 40
6.0
 40
6.0
 40
6.0
 40
7.0
 40
7.0
 40
7.0
 40
8.0
 40
8.0
 40
8.0
 40
8.0
 10
99.18257647260019
 20
-118.5066338136893
 10
99.18257647260019
 20
-118.5066338136893
 10
98.69819604737407
 20
-118.5066338136893
 10
98.69819604737407
 20
-118.5066338136893
 10
98.67063528349206
 20
-118.5066338136893
 10
98.35334198930056
 20
-118.5066338136893
 10
98.14181312650622
 20
-118.5319552655059
 10
98.14181312650622
 20
-118.5319552655059
 10
98.14181312650622
 20
-118.3014783775427
 10
98.14181312650622
 20
-118.3014783775427
 10
98.30028751882772
 20
-118.3247327720681
 10
98.49080129916203
 20
-118.3267998293593
 10
98.69819604737407
 20
-118.3267998293593
 10
98.69819604737407
 20
-118.3267998293593
 10
99.18257647260019
 20
-118.3267998293593
 10
99.18257647260019
 20
-118.3267998293593
 10
99.36861162880369
 20
-118.3267998293593
 10
99.5549912945557
 20
-118.3247327720681
 10
99.73895939346804
 20
-118.3014783775427
 10
99.73895939346804
 20
-118.3014783775427
 10
99.73895939346804
 20
-118.5319552655059
 10
99.73895939346804
 20
-118.5319552655059
 10
99.5549912945557
 20
-118.5087008709805
 10
99.30728892916623
 20
-118.5066338136893
 10
99.18257647260019
 20
-118.5066338136893
 97
        0
 97
        0
 75
     2
 76
     1
 98
        0
  0
SPLINE
  5
87
330
63
100
AcDbEntity
  8
_U+30EC_U+30A4_U+30E4_U+30FC 1
370
     0
100
AcDbSpline
210
0.0
220
0.0
230
1.0
 70
    11
 71
     3
 72
    44
 73
    40
 74
     0
 42
0.0000000001
 43
0.0000000001
 12
1.0
 22
0.0
 32
0.0
 13
1.0
 23
0.0
 33
0.0
 40
0.0
 40
0.0
 40
0.0
 40
0.0
 40
1.0
 40
1.0
 40
1.0
 40
2.0
 40
2.0
 40
2.0
 40
3.0
 40
3.0
 40
3.0
 40
4.0
 40
4.0
 40
4.0
 40
5.0
 40
5.0
 40
5.0
 40
6.0
 40
6.0
 40
6.0
 40
7.0
 40
7.0
 40
7.0
 40
8.0
 40
8.0
 40
8.0
 40
9.0
 40
9.0
 40
9.0
 40
10.0
 40
10.0
 40
10.0
 40
11.0
 40
11.0
 40
11.0
 40
12.0
 40
12.0
 40
12.0
 40
13.0
 40
13.0
 40
13.0
 40
13.0
 10
101.3939832645821
 20
-118.0687621775141
 30
0.0
 10
101.2820176613114
 20
-118.436870630113
 30
0.0
 10
101.2313747576783
 20
-118.5955172772088
 30
0.0
 10
101.0346598054705
 20
-118.8451144451151
 30
0.0
 10
100.8503471970096
 20
-119.0757635878526
 30
0.0
 10
100.613669137173
 20
-119.2617987440561
 30
0.0
 10
100.3342718933192
 20
-119.3549885769321
 30
0.0
 10
100.3342718933192
 20
-119.3549885769321
 30
0.0
 10
100.1416910556938
 20
-119.1751545926021
 30
0.0
 10
100.1416910556938
 20
-119.1751545926021
 30
0.0
 10
100.7828233254987
 20
-119.022881372154
 30
0.0
 10
101.1128634729857
 20
-118.4664984512862
 30
0.0
 10
101.1762532299143
 20
-118.0263875030455
 30
0.0
 10
101.1762532299143
 20
-118.0263875030455
 30
0.0
 10
100.4104085035432
 20
-118.0263875030455
 30
0.0
 10
100.4104085035432
 20
-118.0263875030455
 30
0.0
 10
100.3173909254415
 20
-118.0263875030455
 30
0.0
 10
100.1334228265292
 20
-118.0306938724021
 30
0.0
 10
99.97667098195028
 20
-118.0496418975709
 30
0.0
 10
99.97667098195028
 20
-118.0496418975709
 30
0.0
 10
99.97667098195028
 20
-117.8296725508377
 30
0.0
 10
99.97667098195028
 20
-117.8296725508377
 30
0.0
 10
100.0634873881786
 20
-117.850859888072
 30
0.0
 10
100.3153238681503
 20
-117.850859888072
 30
0.0
 10
100.4145426181255
 20
-117.850859888072
 30
0.0
 10
100.4145426181255
 20
-117.850859888072
 30
0.0
 10
100.8462130824273
 20
-117.850859888072
 30
0.0
 10
100.8462130824273
 20
-117.850859888072
 30
0.0
 10
100.8885877568959
 20
-117.850859888072
 30
0.0
 10
101.1231987594414
 20
-117.8486205760066
 30
0.0
 10
101.1614393193277
 20
-117.8424194041332
 30
0.0
 10
101.2038139937963
 20
-117.8360459774854
 30
0.0
 10
101.2058810510874
 20
-117.8339789201943
 30
0.0
 10
101.2672037507249
 20
-117.7936713030169
 30
0.0
 10
101.2672037507249
 20
-117.7936713030169
 30
0.0
 10
101.4553059642195
 20
-117.9481838355303
 30
0.0
 10
101.4553059642195
 20
-117.9481838355303
 30
0.0
 10
101.4260226525949
 20
-117.9778116567035
 30
0.0
 10
101.4112087420083
 20
-118.0095065351678
 30
0.0
 10
101.3939832645821
 20
-118.0687621775141
 30
0.0
  0
SPLINE
  5
88
330
63
100
AcDbEntity
  8
_U+30EC_U+30A4_U+30E4_U+30FC 1
370
     0
100
AcDbSpline
210
0.0
220
0.0
230
1.0
 70
    11
 71
     3
 72
    17
 73
    13
 74
     0
 42
0.0000000001
 43
0.0000000001
 12
1.0
 22
0.0
 32
0.0
 13
1.0
 23
0.0
 33
0.0
 40
0.0
 40
0.0
 40
0.0
 40
0.0
 40
1.0
 40
1.0
 40
1.0
 40
2.0
 40
2.0
 40
2.0
 40
3.0
 40
3.0
 40
3.0
 40
4.0
 40
4.0
 40
4.0
 40
4.0
 10
101.6034450700853
 20
-117.8698079132409
 30
0.0
 10
101.4766655562281
 20
-117.8698079132409
 30
0.0
 10
101.3750352394132
 20
-117.7683498512003
 30
0.0
 10
101.3750352394132
 20
-117.6413980825688
 30
0.0
 10
101.3750352394132
 20
-117.5144463139374
 30
0.0
 10
101.4766655562281
 20
-117.4107489398314
 30
0.0
 10
101.6034450700853
 20
-117.4107489398314
 30
0.0
 10
101.730569093491
 20
-117.4107489398314
 30
0.0
 10
101.834266467597
 20
-117.5144463139374
 30
0.0
 10
101.834266467597
 20
-117.6413980825688
 30
0.0
 10
101.834266467597
 20
-117.7683498512003
 30
0.0
 10
101.730569093491
 20
-117.8698079132409
 30
0.0
 10
101.6034450700853
 20
-117.8698079132409
 30
0.0
  0
SPLINE
  5
89
330
63
100
AcDbEntity
  8
_U+30EC_U+30A4_U+30E4_U+30FC 1
370
     0
100
AcDbSpline
210
0.0
220
0.0
230
1.0
 70
    11
 71
     3
 72
    17
 73
    13
 74
     0
 42
0.0000000001
 43
0.0000000001
 12
1.0
 22
0.0
 32
0.0
 13
1.0
 23
0.0
 33
0.0
 40
0.0
 40
0.0
 40
0.0
 40
0.0
 40
1.0
 40
1.0
 40
1.0
 40
2.0
 40
2.0
 40
2.0
 40
3.0
 40
3.0
 40
3.0
 40
4.0
 40
4.0
 40
4.0
 40
4.0
 10
101.6013780127941
 20
-117.539767765754
 30
0.0
 10
101.5466009945786
 20
-117.539767765754
 30
0.0
 10
101.5021592628189
 20
-117.5842094975137
 30
0.0
 10
101.5021592628189
 20
-117.6393310252777
 30
0.0
 10
101.5021592628189
 20
-117.6963473555586
 30
0.0
 10
101.5466009945786
 20
-117.7450954566748
 30
0.0
 10
101.6055121273764
 20
-117.7450954566748
 30
0.0
 10
101.6647677697227
 20
-117.7450954566748
 30
0.0
 10
101.7050753869001
 20
-117.6942802982674
 30
0.0
 10
101.7050753869001
 20
-117.6413980825688
 30
0.0
 10
101.7050753869001
 20
-117.5842094975137
 30
0.0
 10
101.6585665978493
 20
-117.539767765754
 30
0.0
 10
101.6013780127941
 20
-117.539767765754
 30
0.0
  0
HATCH
  5
8A
330
63
100
AcDbEntity
  8
_U+30EC_U+30A4_U+30E4_U+30FC 1
 62
   179
420
  2234388
100
AcDbHatch
 10
0.0
 20
0.0
 30
0.0
210
0.0
220
0.0
230
1.0
  2
SOLID
 70
     1
 71
     0
 91
        3
 92
        1
 93
        1
 72
     4
 94
        3
 73
     0
 74
     1
 95
       44
 96
       40
 40
0.0
 40
0.0
 40
0.0
 40
0.0
 40
1.0
 40
1.0
 40
1.0
 40
2.0
 40
2.0
 40
2.0
 40
3.0
 40
3.0
 40
3.0
 40
4.0
 40
4.0
 40
4.0
 40
5.0
 40
5.0
 40
5.0
 40
6.0
 40
6.0
 40
6.0
 40
7.0
 40
7.0
 40
7.0
 40
8.0
 40
8.0
 40
8.0
 40
9.0
 40
9.0
 40
9.0
 40
10.0
 40
10.0
 40
10.0
 40
11.0
 40
11.0
 40
11.0
 40
12.0
 40
12.0
 40
12.0
 40
13.0
 40
13.0
 40
13.0
 40
13.0
 10
101.3939832645821
 20
-118.0687621775141
 10
101.2820176613114
 20
-118.436870630113
 10
101.2313747576783
 20
-118.5955172772088
 10
101.0346598054705
 20
-118.8451144451151
 10
100.8503471970096
 20
-119.0757635878526
 10
100.613669137173
 20
-119.2617987440561
 10
100.3342718933192
 20
-119.3549885769321
 10
100.3342718933192
 20
-119.3549885769321
 10
100.1416910556938
 20
-119.1751545926021
 10
100.1416910556938
 20
-119.1751545926021
 10
100.7828233254987
 20
-119.022881372154
 10
101.1128634729857
 20
-118.4664984512862
 10
101.1762532299143
 20
-118.0263875030455
 10
101.1762532299143
 20
-118.0263875030455
 10
100.4104085035432
 20
-118.0263875030455
 10
100.4104085035432
 20
-118.0263875030455
 10
100.3173909254415
 20
-118.0263875030455
 10
100.1334228265292
 20
-118.0306938724021
 10
99.97667098195028
 20
-118.0496418975709
 10
99.97667098195028
 20
-118.0496418975709
 10
99.97667098195028
 20
-117.8296725508377
 10
99.97667098195028
 20
-117.8296725508377
 10
100.0634873881786
 20
-117.850859888072
 10
100.3153238681503
 20
-117.850859888072
 10
100.4145426181255
 20
-117.850859888072
 10
100.4145426181255
 20
-117.850859888072
 10
100.8462130824273
 20
-117.850859888072
 10
100.8462130824273
 20
-117.850859888072
 10
100.8885877568959
 20
-117.850859888072
 10
101.1231987594414
 20
-117.8486205760066
 10
101.1614393193277
 20
-117.8424194041332
 10
101.2038139937963
 20
-117.8360459774854
 10
101.2058810510874
 20
-117.8339789201943
 10
101.2672037507249
 20
-117.7936713030169
 10
101.2672037507249
 20
-117.7936713030169
 10
101.4553059642195
 20
-117.9481838355303
 10
101.4553059642195
 20
-117.9481838355303
 10
101.4260226525949
 20
-117.9778116567035
 10
101.4112087420083
 20
-118.0095065351678
 10
101.3939832645821
 20
-118.0687621775141
 97
        0
 97
        0
 92
        1
 93
        1
 72
     4
 94
        3
 73
     0
 74
     1
 95
       17
 96
       13
 40
0.0
 40
0.0
 40
0.0
 40
0.0
 40
1.0
 40
1.0
 40
1.0
 40
2.0
 40
2.0
 40
2.0
 40
3.0
 40
3.0
 40
3.0
 40
4.0
 40
4.0
 40
4.0
 40
4.0
 10
101.6034450700853
 20
-117.8698079132409
 10
101.4766655562281
 20
-117.8698079132409
 10
101.3750352394132
 20
-117.7683498512003
 10
101.3750352394132
 20
-117.6413980825688
 10
101.3750352394132
 20
-117.5144463139374
 10
101.4766655562281
 20
-117.4107489398314
 10
101.6034450700853
 20
-117.4107489398314
 10
101.730569093491
 20
-117.4107489398314
 10
101.834266467597
 20
-117.5144463139374
 10
101.834266467597
 20
-117.6413980825688
 10
101.834266467597
 20
-117.7683498512003
 10
101.730569093491
 20
-117.8698079132409
 10
101.6034450700853
 20
-117.8698079132409
 97
        0
 97
        0
 92
        1
 93
        1
 72
     4
 94
        3
 73
     0
 74
     1
 95
       17
 96
       13
 40
0.0
 40
0.0
 40
0.0
 40
0.0
 40
1.0
 40
1.0
 40
1.0
 40
2.0
 40
2.0
 40
2.0
 40
3.0
 40
3.0
 40
3.0
 40
4.0
 40
4.0
 40
4.0
 40
4.0
 10
101.6013780127941
 20
-117.539767765754
 10
101.5466009945786
 20
-117.539767765754
 10
101.5021592628189
 20
-117.5842094975137
 10
101.5021592628189
 20
-117.6393310252777
 10
101.5021592628189
 20
-117.6963473555586
 10
101.5466009945786
 20
-117.7450954566748
 10
101.6055121273764
 20
-117.7450954566748
 10
101.6647677697227
 20
-117.7450954566748
 10
101.7050753869001
 20
-117.6942802982674
 10
101.7050753869001
 20
-117.6413980825688
 10
101.7050753869001
 20
-117.5842094975137
 10
101.6585665978493
 20
-117.539767765754
 10
101.6013780127941
 20
-117.539767765754
 97
        0
 97
        0
 75
     2
 76
     1
 98
        0
  0
ENDBLK
  5
66
330
63
100
AcDbEntity
  8
0
100
AcDbBlockEnd
  0
BLOCK
  5
BF
330
BD
100
AcDbEntity
  8
0
100
AcDbBlockBegin
  2
block 3
 70
     0
 10
0.0
 20
0.0
 30
0.0
  3
block 3
  1

  0
SPLINE
  5
C1
330
BD
100
AcDbEntity
  8
_U+30EC_U+30A4_U+30E4_U+30FC 1
370
     0
100
AcDbSpline
210
0.0
220
0.0
230
1.0
 70
    11
 71
     3
 72
    26
 73
    22
 74
     0
 42
0.0000000001
 43
0.0000000001
 12
1.0
 22
0.0
 32
0.0
 13
1.0
 23
0.0
 33
0.0
 40
0.0
 40
0.0
 40
0.0
 40
0.0
 40
1.0
 40
1.0
 40
1.0
 40
2.0
 40
2.0
 40
2.0
 40
3.0
 40
3.0
 40
3.0
 40
4.0
 40
4.0
 40
4.0
 40
5.0
 40
5.0
 40
5.0
 40
6.0
 40
6.0
 40
6.0
 40
7.0
 40
7.0
 40
7.0
 40
7.0
 10
80.65364716950673
 20
-137.8865017016395
 30
0.0
 10
80.65364716950673
 20
-137.8865017016395
 30
0.0
 10
81.43447806123861
 20
-137.1054985551334
 30
0.0
 10
81.43447806123861
 20
-137.1054985551334
 30
0.0
 10
81.43447806123861
 20
-137.1054985551334
 30
0.0
 10
81.20124509688719
 20
-136.872265590782
 30
0.0
 10
81.20124509688719
 20
-136.872265590782
 30
0.0
 10
81.20124509688719
 20
-136.872265590782
 30
0.0
 10
81.30597599963879
 20
-136.7675346880303
 30
0.0
 10
81.30597599963879
 20
-136.7675346880303
 30
0.0
 10
81.55109454341431
 20
-136.9918104041201
 30
0.0
 10
81.69923364928006
 20
-136.9094726220226
 30
0.0
 10
81.8010362208692
 20
-136.8498724701278
 30
0.0
 10
81.8010362208692
 20
-136.8498724701278
 30
0.0
 10
81.90438908542669
 20
-136.9532253346853
 30
0.0
 10
81.90438908542669
 20
-136.9532253346853
 30
0.0
 10
81.90438908542669
 20
-136.9532253346853
 30
0.0
 10
80.81246607137675
 20
-138.0453206035095
 30
0.0
 10
80.81246607137675
 20
-138.0453206035095
 30
0.0
 10
80.81246607137675
 20
-138.0453206035095
 30
0.0
 10
80.65364716950673
 20
-137.8865017016395
 30
0.0
 10
80.65364716950673
 20
-137.8865017016395
 30
0.0
  0
HATCH
  5
C2
330
BD
100
AcDbEntity
  8
_U+30EC_U+30A4_U+30E4_U+30FC 1
 62
     7
420
 16777215
100
AcDbHatch
 10
0.0
 20
0.0
 30
0.0
210
0.0
220
0.0
230
1.0
  2
SOLID
 70
     1
 71
     0
 91
        1
 92
        1
 93
        1
 72
     4
 94
        3
 73
     0
 74
     1
 95
       26
 96
       22
 40
0.0
 40
0.0
 40
0.0
 40
0.0
 40
1.0
 40
1.0
 40
1.0
 40
2.0
 40
2.0
 40
2.0
 40
3.0
 40
3.0
 40
3.0
 40
4.0
 40
4.0
 40
4.0
 40
5.0
 40
5.0
 40
5.0
 40
6.0
 40
6.0
 40
6.0
 40
7.0
 40
7.0
 40
7.0
 40
7.0
 10
80.65364716950673
 20
-137.8865017016395
 10
80.65364716950673
 20
-137.8865017016395
 10
81.43447806123861
 20
-137.1054985551334
 10
81.43447806123861
 20
-137.1054985551334
 10
81.43447806123861
 20
-137.1054985551334
 10
81.20124509688719
 20
-136.872265590782
 10
81.20124509688719
 20
-136.872265590782
 10
81.20124509688719
 20
-136.872265590782
 10
81.30597599963879
 20
-136.7675346880303
 10
81.30597599963879
 20
-136.7675346880303
 10
81.55109454341431
 20
-136.9918104041201
 10
81.69923364928006
 20
-136.9094726220226
 10
81.8010362208692
 20
-136.8498724701278
 10
81.8010362208692
 20
-136.8498724701278
 10
81.90438908542669
 20
-136.9532253346853
 10
81.90438908542669
 20
-136.9532253346853
 10
81.90438908542669
 20
-136.9532253346853
 10
80.81246607137675
 20
-138.0453206035095
 10
80.81246607137675
 20
-138.0453206035095
 10
80.81246607137675
 20
-138.0453206035095
 10
80.65364716950673
 20
-137.8865017016395
 10
80.65364716950673
 20
-137.8865017016395
 97
        0
 97
        0
 75
     2
 76
     1
 98
        0
  0
SPLINE
  5
C3
330
BD
100
AcDbEntity
  8
_U+30EC_U+30A4_U+30E4_U+30FC 1
370
     0
100
AcDbSpline
210
0.0
220
0.0
230
1.0
 70
    11
 71
     3
 72
    53
 73
    49
 74
     0
 42
0.0000000001
 43
0.0000000001
 12
1.0
 22
0.0
 32
0.0
 13
1.0
 23
0.0
 33
0.0
 40
0.0
 40
0.0
 40
0.0
 40
0.0
 40
1.0
 40
1.0
 40
1.0
 40
2.0
 40
2.0
 40
2.0
 40
3.0
 40
3.0
 40
3.0
 40
4.0
 40
4.0
 40
4.0
 40
5.0
 40
5.0
 40
5.0
 40
6.0
 40
6.0
 40
6.0
 40
7.0
 40
7.0
 40
7.0
 40
8.0
 40
8.0
 40
8.0
 40
9.0
 40
9.0
 40
9.0
 40
10.0
 40
10.0
 40
10.0
 40
11.0
 40
11.0
 40
11.0
 40
12.0
 40
12.0
 40
12.0
 40
13.0
 40
13.0
 40
13.0
 40
14.0
 40
14.0
 40
14.0
 40
15.0
 40
15.0
 40
15.0
 40
16.0
 40
16.0
 40
16.0
 40
16.0
 10
81.47099607338225
 20
-138.7756808463825
 30
0.0
 10
81.41553003606973
 20
-138.7202148090699
 30
0.0
 10
81.35558537462639
 20
-138.6361544792298
 30
0.0
 10
81.32871362984143
 20
-138.5197102518284
 30
0.0
 10
81.28392738853319
 20
-138.3192056945869
 30
0.0
 10
81.36144203695132
 20
-138.2113742058986
 30
0.0
 10
81.42431502955712
 20
-138.1214572137335
 30
0.0
 10
81.42431502955712
 20
-138.1214572137335
 30
0.0
 10
81.58141138368451
 20
-138.2785535678609
 30
0.0
 10
81.58141138368451
 20
-138.2785535678609
 30
0.0
 10
81.47978106686965
 20
-138.458387552191
 30
0.0
 10
81.54868297657464
 20
-138.5689751172675
 30
0.0
 10
81.61448430034291
 20
-138.6347764410358
 30
0.0
 10
81.71301403122105
 20
-138.7333061719139
 30
0.0
 10
81.89129772258273
 20
-138.7708577127031
 30
0.0
 10
82.05580103200342
 20
-138.6065266580567
 30
0.0
 10
82.2368407997533
 20
-138.4253146355326
 30
0.0
 10
82.15898164178665
 20
-138.2489257466878
 30
0.0
 10
82.07354327375245
 20
-138.1634873786536
 30
0.0
 10
82.05115015309833
 20
-138.1410942579994
 30
0.0
 10
81.95089787447756
 20
-138.0408419793787
 30
0.0
 10
81.7969021062869
 20
-138.0694362719063
 30
0.0
 10
81.7969021062869
 20
-138.0694362719063
 30
0.0
 10
81.68614228643611
 20
-137.9316324524963
 30
0.0
 10
81.68614228643611
 20
-137.9316324524963
 30
0.0
 10
81.68614228643611
 20
-137.9316324524963
 30
0.0
 10
82.36982148548394
 20
-137.4186577347426
 30
0.0
 10
82.36982148548394
 20
-137.4186577347426
 30
0.0
 10
82.36982148548394
 20
-137.4186577347426
 30
0.0
 10
82.92034774402686
 20
-137.9691839932855
 30
0.0
 10
82.92034774402686
 20
-137.9691839932855
 30
0.0
 10
82.92034774402686
 20
-137.9691839932855
 30
0.0
 10
82.78271617939113
 20
-138.106643303147
 30
0.0
 10
82.78271617939113
 20
-138.106643303147
 30
0.0
 10
82.78271617939113
 20
-138.106643303147
 30
0.0
 10
82.34725611005555
 20
-137.6711832338114
 30
0.0
 10
82.34725611005555
 20
-137.6711832338114
 30
0.0
 10
82.34725611005555
 20
-137.6711832338114
 30
0.0
 10
82.00188528765925
 20
-137.9243977519772
 30
0.0
 10
82.00188528765925
 20
-137.9243977519772
 30
0.0
 10
82.0692369043959
 20
-137.9436902866946
 30
0.0
 10
82.15588105584992
 20
-137.9736626174163
 30
0.0
 10
82.23959687614149
 20
-138.0573784377079
 30
0.0
 10
82.41908635092301
 20
-138.2368679124894
 30
0.0
 10
82.45525985351813
 20
-138.5362467101576
 30
0.0
 10
82.23391246859083
 20
-138.7577663498592
 30
0.0
 10
82.00946449772681
 20
-138.9820420659489
 30
0.0
 10
81.68459199346775
 20
-138.989276766468
 30
0.0
 10
81.47099607338225
 20
-138.7756808463825
 30
0.0
  0
HATCH
  5
C4
330
BD
100
AcDbEntity
  8
_U+30EC_U+30A4_U+30E4_U+30FC 1
 62
     7
420
 16777215
100
AcDbHatch
 10
0.0
 20
0.0
 30
0.0
210
0.0
220
0.0
230
1.0
  2
SOLID
 70
     1
 71
     0
 91
        1
 92
        1
 93
        1
 72
     4
 94
        3
 73
     0
 74
     1
 95
       53
 96
       49
 40
0.0
 40
0.0
 40
0.0
 40
0.0
 40
1.0
 40
1.0
 40
1.0
 40
2.0
 40
2.0
 40
2.0
 40
3.0
 40
3.0
 40
3.0
 40
4.0
 40
4.0
 40
4.0
 40
5.0
 40
5.0
 40
5.0
 40
6.0
 40
6.0
 40
6.0
 40
7.0
 40
7.0
 40
7.0
 40
8.0
 40
8.0
 40
8.0
 40
9.0
 40
9.0
 40
9.0
 40
10.0
 40
10.0
 40
10.0
 40
11.0
 40
11.0
 40
11.0
 40
12.0
 40
12.0
 40
12.0
 40
13.0
 40
13.0
 40
13.0
 40
14.0
 40
14.0
 40
14.0
 40
15.0
 40
15.0
 40
15.0
 40
16.0
 40
16.0
 40
16.0
 40
16.0
 10
81.47099607338225
 20
-138.7756808463825
 10
81.41553003606973
 20
-138.7202148090699
 10
81.35558537462639
 20
-138.6361544792298
 10
81.32871362984143
 20
-138.5197102518284
 10
81.28392738853319
 20
-138.3192056945869
 10
81.36144203695132
 20
-138.2113742058986
 10
81.42431502955712
 20
-138.1214572137335
 10
81.42431502955712
 20
-138.1214572137335
 10
81.58141138368451
 20
-138.2785535678609
 10
81.58141138368451
 20
-138.2785535678609
 10
81.47978106686965
 20
-138.458387552191
 10
81.54868297657464
 20
-138.5689751172675
 10
81.61448430034291
 20
-138.6347764410358
 10
81.71301403122105
 20
-138.7333061719139
 10
81.89129772258273
 20
-138.7708577127031
 10
82.05580103200342
 20
-138.6065266580567
 10
82.2368407997533
 20
-138.4253146355326
 10
82.15898164178665
 20
-138.2489257466878
 10
82.07354327375245
 20
-138.1634873786536
 10
82.05115015309833
 20
-138.1410942579994
 10
81.95089787447756
 20
-138.0408419793787
 10
81.7969021062869
 20
-138.0694362719063
 10
81.7969021062869
 20
-138.0694362719063
 10
81.68614228643611
 20
-137.9316324524963
 10
81.68614228643611
 20
-137.9316324524963
 10
81.68614228643611
 20
-137.9316324524963
 10
82.36982148548394
 20
-137.4186577347426
 10
82.36982148548394
 20
-137.4186577347426
 10
82.36982148548394
 20
-137.4186577347426
 10
82.92034774402686
 20
-137.9691839932855
 10
82.92034774402686
 20
-137.9691839932855
 10
82.92034774402686
 20
-137.9691839932855
 10
82.78271617939113
 20
-138.106643303147
 10
82.78271617939113
 20
-138.106643303147
 10
82.78271617939113
 20
-138.106643303147
 10
82.34725611005555
 20
-137.6711832338114
 10
82.34725611005555
 20
-137.6711832338114
 10
82.34725611005555
 20
-137.6711832338114
 10
82.00188528765925
 20
-137.9243977519772
 10
82.00188528765925
 20
-137.9243977519772
 10
82.0692369043959
 20
-137.9436902866946
 10
82.15588105584992
 20
-137.9736626174163
 10
82.23959687614149
 20
-138.0573784377079
 10
82.41908635092301
 20
-138.2368679124894
 10
82.45525985351813
 20
-138.5362467101576
 10
82.23391246859083
 20
-138.7577663498592
 10
82.00946449772681
 20
-138.9820420659489
 10
81.68459199346775
 20
-138.989276766468
 10
81.47099607338225
 20
-138.7756808463825
 97
        0
 97
        0
 75
     2
 76
     1
 98
        0
  0
ENDBLK
  5
C0
330
BD
100
AcDbEntity
  8
0
100
AcDbBlockEnd
  0
BLOCK
  5
D3
330
D1
100
AcDbEntity
  8
0
100
AcDbBlockBegin
  2
block 4
 70
     0
 10
0.0
 20
0.0
 30
0.0
  3
block 4
  1

  0
SPLINE
  5
D5
330
D1
100
AcDbEntity
  8
_U+30EC_U+30A4_U+30E4_U+30FC 1
370
     0
100
AcDbSpline
210
0.0
220
0.0
230
1.0
 70
    11
 71
     3
 72
    44
 73
    40
 74
     0
 42
0.0000000001
 43
0.0000000001
 12
1.0
 22
0.0
 32
0.0
 13
1.0
 23
0.0
 33
0.0
 40
0.0
 40
0.0
 40
0.0
 40
0.0
 40
1.0
 40
1.0
 40
1.0
 40
2.0
 40
2.0
 40
2.0
 40
3.0
 40
3.0
 40
3.0
 40
4.0
 40
4.0
 40
4.0
 40
5.0
 40
5.0
 40
5.0
 40
6.0
 40
6.0
 40
6.0
 40
7.0
 40
7.0
 40
7.0
 40
8.0
 40
8.0
 40
8.0
 40
9.0
 40
9.0
 40
9.0
 40
10.0
 40
10.0
 40
10.0
 40
11.0
 40
11.0
 40
11.0
 40
12.0
 40
12.0
 40
12.0
 40
13.0
 40
13.0
 40
13.0
 40
13.0
 10
73.28992782455947
 20
-121.2177517058067
 30
0.0
 10
73.44857447165522
 20
-121.4356539952487
 30
0.0
 10
73.52264402458809
 20
-121.5288438281247
 30
0.0
 10
73.66647676109727
 20
-121.5774196744668
 30
0.0
 10
73.66647676109727
 20
-121.5774196744668
 30
0.0
 10
73.66647676109727
 20
-120.7990003495746
 30
0.0
 10
73.66647676109727
 20
-120.7990003495746
 30
0.0
 10
73.66647676109727
 20
-120.7990003495746
 30
0.0
 10
73.8716321972439
 20
-120.7990003495746
 30
0.0
 10
73.8716321972439
 20
-120.7990003495746
 30
0.0
 10
73.8716321972439
 20
-120.7990003495746
 30
0.0
 10
73.8716321972439
 20
-121.8270168423731
 30
0.0
 10
73.8716321972439
 20
-121.8270168423731
 30
0.0
 10
73.51403128587496
 20
-121.7953219639088
 30
0.0
 10
73.4358276183598
 20
-121.7296928949148
 30
0.0
 10
73.13748234933716
 20
-121.3447034744381
 30
0.0
 10
72.93870033983825
 20
-121.0887328798841
 30
0.0
 10
72.87100421355309
 20
-121.0232760656643
 30
0.0
 10
72.73354490369162
 20
-121.0232760656643
 30
0.0
 10
72.61503361899902
 20
-121.0232760656643
 30
0.0
 10
72.48394773578526
 20
-121.0951063065318
 30
0.0
 10
72.48394773578526
 20
-121.2918212587395
 30
0.0
 10
72.48394773578526
 20
-121.5520982226502
 30
0.0
 10
72.71442462374849
 20
-121.560538706589
 30
0.0
 10
72.83086885114993
 20
-121.5648450759456
 30
0.0
 10
72.83086885114993
 20
-121.5648450759456
 30
0.0
 10
72.83086885114993
 20
-121.7889485372611
 30
0.0
 10
72.83086885114993
 20
-121.7889485372611
 30
0.0
 10
72.70391708251847
 20
-121.7805080533222
 30
0.0
 10
72.59177922447358
 20
-121.7700005120922
 30
0.0
 10
72.473267939781
 20
-121.6895575325116
 30
0.0
 10
72.31255423539409
 20
-121.5796589865322
 30
0.0
 10
72.27862004486438
 20
-121.3934515755544
 30
0.0
 10
72.27862004486438
 20
-121.277007348153
 30
0.0
 10
72.27862004486438
 20
-120.9998494163646
 30
0.0
 10
72.46276039855098
 20
-120.7926269229268
 30
0.0
 10
72.73561196098277
 20
-120.7926269229268
 30
0.0
 10
72.96402179165483
 20
-120.7926269229268
 30
0.0
 10
73.06358505117855
 20
-120.908898895554
 30
0.0
 10
73.28992782455947
 20
-121.2177517058067
 30
0.0
  0
HATCH
  5
D6
330
D1
100
AcDbEntity
  8
_U+30EC_U+30A4_U+30E4_U+30FC 1
 62
     7
420
 16777215
100
AcDbHatch
 10
0.0
 20
0.0
 30
0.0
210
0.0
220
0.0
230
1.0
  2
SOLID
 70
     1
 71
     0
 91
        1
 92
        1
 93
        1
 72
     4
 94
        3
 73
     0
 74
     1
 95
       44
 96
       40
 40
0.0
 40
0.0
 40
0.0
 40
0.0
 40
1.0
 40
1.0
 40
1.0
 40
2.0
 40
2.0
 40
2.0
 40
3.0
 40
3.0
 40
3.0
 40
4.0
 40
4.0
 40
4.0
 40
5.0
 40
5.0
 40
5.0
 40
6.0
 40
6.0
 40
6.0
 40
7.0
 40
7.0
 40
7.0
 40
8.0
 40
8.0
 40
8.0
 40
9.0
 40
9.0
 40
9.0
 40
10.0
 40
10.0
 40
10.0
 40
11.0
 40
11.0
 40
11.0
 40
12.0
 40
12.0
 40
12.0
 40
13.0
 40
13.0
 40
13.0
 40
13.0
 10
73.28992782455947
 20
-121.2177517058067
 10
73.44857447165522
 20
-121.4356539952487
 10
73.52264402458809
 20
-121.5288438281247
 10
73.66647676109727
 20
-121.5774196744668
 10
73.66647676109727
 20
-121.5774196744668
 10
73.66647676109727
 20
-120.7990003495746
 10
73.66647676109727
 20
-120.7990003495746
 10
73.66647676109727
 20
-120.7990003495746
 10
73.8716321972439
 20
-120.7990003495746
 10
73.8716321972439
 20
-120.7990003495746
 10
73.8716321972439
 20
-120.7990003495746
 10
73.8716321972439
 20
-121.8270168423731
 10
73.8716321972439
 20
-121.8270168423731
 10
73.51403128587496
 20
-121.7953219639088
 10
73.4358276183598
 20
-121.7296928949148
 10
73.13748234933716
 20
-121.3447034744381
 10
72.93870033983825
 20
-121.0887328798841
 10
72.87100421355309
 20
-121.0232760656643
 10
72.73354490369162
 20
-121.0232760656643
 10
72.61503361899902
 20
-121.0232760656643
 10
72.48394773578526
 20
-121.0951063065318
 10
72.48394773578526
 20
-121.2918212587395
 10
72.48394773578526
 20
-121.5520982226502
 10
72.71442462374849
 20
-121.560538706589
 10
72.83086885114993
 20
-121.5648450759456
 10
72.83086885114993
 20
-121.5648450759456
 10
72.83086885114993
 20
-121.7889485372611
 10
72.83086885114993
 20
-121.7889485372611
 10
72.70391708251847
 20
-121.7805080533222
 10
72.59177922447358
 20
-121.7700005120922
 10
72.473267939781
 20
-121.6895575325116
 10
72.31255423539409
 20
-121.5796589865322
 10
72.27862004486438
 20
-121.3934515755544
 10
72.27862004486438
 20
-121.277007348153
 10
72.27862004486438
 20
-120.9998494163646
 10
72.46276039855098
 20
-120.7926269229268
 10
72.73561196098277
 20
-120.7926269229268
 10
72.96402179165483
 20
-120.7926269229268
 10
73.06358505117855
 20
-120.908898895554
 10
73.28992782455947
 20
-121.2177517058067
 97
        0
 97
        0
 75
     2
 76
     1
 98
        0
  0
SPLINE
  5
D7
330
D1
100
AcDbEntity
  8
_U+30EC_U+30A4_U+30E4_U+30FC 1
370
     0
100
AcDbSpline
210
0.0
220
0.0
230
1.0
 70
    11
 71
     3
 72
    29
 73
    25
 74
     0
 42
0.0000000001
 43
0.0000000001
 12
1.0
 22
0.0
 32
0.0
 13
1.0
 23
0.0
 33
0.0
 40
0.0
 40
0.0
 40
0.0
 40
0.0
 40
1.0
 40
1.0
 40
1.0
 40
2.0
 40
2.0
 40
2.0
 40
3.0
 40
3.0
 40
3.0
 40
4.0
 40
4.0
 40
4.0
 40
5.0
 40
5.0
 40
5.0
 40
6.0
 40
6.0
 40
6.0
 40
7.0
 40
7.0
 40
7.0
 40
8.0
 40
8.0
 40
8.0
 40
8.0
 10
73.69386527020501
 20
-119.7363606471493
 30
0.0
 10
73.9033270757082
 20
-119.8441921358376
 30
0.0
 10
73.92244735565134
 20
-120.0176526935199
 30
0.0
 10
73.92244735565134
 20
-120.1340969209213
 30
0.0
 10
73.92244735565134
 20
-120.2948106253082
 30
0.0
 10
73.87593856660047
 20
-120.4365763045263
 30
0.0
 10
73.69386527020501
 20
-120.5318331946934
 30
0.0
 10
73.4992173752884
 20
-120.6353583140252
 30
0.0
 10
73.26236706067746
 20
-120.6544785939683
 30
0.0
 10
73.09941404422516
 20
-120.6544785939683
 30
0.0
 10
72.95558130771597
 20
-120.6544785939683
 30
0.0
 10
72.70391708251847
 20
-120.6375976260906
 30
0.0
 10
72.50496281824529
 20
-120.5318331946934
 30
0.0
 10
72.3018744393898
 20
-120.4238294512309
 30
0.0
 10
72.27862004486438
 20
-120.263115746844
 30
0.0
 10
72.27862004486438
 20
-120.1340969209213
 30
0.0
 10
72.27862004486438
 20
-119.9754502738256
 30
0.0
 10
72.3230617766241
 20
-119.8316175373164
 30
0.0
 10
72.50496281824529
 20
-119.7363606471493
 30
0.0
 10
72.69754365587076
 20
-119.6369696423998
 30
0.0
 10
72.92595348654282
 20
-119.6137152478744
 30
0.0
 10
73.09941404422516
 20
-119.6137152478744
 30
0.0
 10
73.27080754461633
 20
-119.6137152478744
 30
0.0
 10
73.50145668735381
 20
-119.6347303303344
 30
0.0
 10
73.69386527020501
 20
-119.7363606471493
 30
0.0
  0
SPLINE
  5
D8
330
D1
100
AcDbEntity
  8
_U+30EC_U+30A4_U+30E4_U+30FC 1
370
     0
100
AcDbSpline
210
0.0
220
0.0
230
1.0
 70
    11
 71
     3
 72
    17
 73
    13
 74
     0
 42
0.0000000001
 43
0.0000000001
 12
1.0
 22
0.0
 32
0.0
 13
1.0
 23
0.0
 33
0.0
 40
0.0
 40
0.0
 40
0.0
 40
0.0
 40
1.0
 40
1.0
 40
1.0
 40
2.0
 40
2.0
 40
2.0
 40
3.0
 40
3.0
 40
3.0
 40
4.0
 40
4.0
 40
4.0
 40
4.0
 10
72.47120088248984
 20
-120.1340969209213
 30
0.0
 10
72.47120088248984
 20
-120.3836940888277
 30
0.0
 10
72.7547322409259
 20
-120.4302028778786
 30
0.0
 10
73.09941404422516
 20
-120.4302028778786
 30
0.0
 10
73.41894665048207
 20
-120.4302028778786
 30
0.0
 10
73.72779946073472
 20
-120.3942016300577
 30
0.0
 10
73.72779946073472
 20
-120.1340969209213
 30
0.0
 10
73.72779946073472
 20
-119.8865668103061
 30
0.0
 10
73.44633515958981
 20
-119.8378187091899
 30
0.0
 10
73.09941404422516
 20
-119.8378187091899
 30
0.0
 10
72.78005369274248
 20
-119.8378187091899
 30
0.0
 10
72.47120088248984
 20
-119.8758870143019
 30
0.0
 10
72.47120088248984
 20
-120.1340969209213
 30
0.0
  0
HATCH
  5
D9
330
D1
100
AcDbEntity
  8
_U+30EC_U+30A4_U+30E4_U+30FC 1
 62
     7
420
 16777215
100
AcDbHatch
 10
0.0
 20
0.0
 30
0.0
210
0.0
220
0.0
230
1.0
  2
SOLID
 70
     1
 71
     0
 91
        2
 92
        1
 93
        1
 72
     4
 94
        3
 73
     0
 74
     1
 95
       29
 96
       25
 40
0.0
 40
0.0
 40
0.0
 40
0.0
 40
1.0
 40
1.0
 40
1.0
 40
2.0
 40
2.0
 40
2.0
 40
3.0
 40
3.0
 40
3.0
 40
4.0
 40
4.0
 40
4.0
 40
5.0
 40
5.0
 40
5.0
 40
6.0
 40
6.0
 40
6.0
 40
7.0
 40
7.0
 40
7.0
 40
8.0
 40
8.0
 40
8.0
 40
8.0
 10
73.69386527020501
 20
-119.7363606471493
 10
73.9033270757082
 20
-119.8441921358376
 10
73.92244735565134
 20
-120.0176526935199
 10
73.92244735565134
 20
-120.1340969209213
 10
73.92244735565134
 20
-120.2948106253082
 10
73.87593856660047
 20
-120.4365763045263
 10
73.69386527020501
 20
-120.5318331946934
 10
73.4992173752884
 20
-120.6353583140252
 10
73.26236706067746
 20
-120.6544785939683
 10
73.09941404422516
 20
-120.6544785939683
 10
72.95558130771597
 20
-120.6544785939683
 10
72.70391708251847
 20
-120.6375976260906
 10
72.50496281824529
 20
-120.5318331946934
 10
72.3018744393898
 20
-120.4238294512309
 10
72.27862004486438
 20
-120.263115746844
 10
72.27862004486438
 20
-120.1340969209213
 10
72.27862004486438
 20
-119.9754502738256
 10
72.3230617766241
 20
-119.8316175373164
 10
72.50496281824529
 20
-119.7363606471493
 10
72.69754365587076
 20
-119.6369696423998
 10
72.92595348654282
 20
-119.6137152478744
 10
73.09941404422516
 20
-119.6137152478744
 10
73.27080754461633
 20
-119.6137152478744
 10
73.50145668735381
 20
-119.6347303303344
 10
73.69386527020501
 20
-119.7363606471493
 97
        0
 97
        0
 92
        1
 93
        1
 72
     4
 94
        3
 73
     0
 74
     1
 95
       17
 96
       13
 40
0.0
 40
0.0
 40
0.0
 40
0.0
 40
1.0
 40
1.0
 40
1.0
 40
2.0
 40
2.0
 40
2.0
 40
3.0
 40
3.0
 40
3.0
 40
4.0
 40
4.0
 40
4.0
 40
4.0
 10
72.47120088248984
 20
-120.1340969209213
 10
72.47120088248984
 20
-120.3836940888277
 10
72.7547322409259
 20
-120.4302028778786
 10
73.09941404422516
 20
-120.4302028778786
 10
73.41894665048207
 20
-120.4302028778786
 10
73.72779946073472
 20
-120.3942016300577
 10
73.72779946073472
 20
-120.1340969209213
 10
73.72779946073472
 20
-119.8865668103061
 10
73.44633515958981
 20
-119.8378187091899
 10
73.09941404422516
 20
-119.8378187091899
 10
72.78005369274248
 20
-119.8378187091899
 10
72.47120088248984
 20
-119.8758870143019
 10
72.47120088248984
 20
-120.1340969209213
 97
        0
 97
        0
 75
     2
 76
     1
 98
        0
  0
ENDBLK
  5
D4
330
D1
100
AcDbEntity
  8
0
100
AcDbBlockEnd
  0
BLOCK
  5
E8
330
E6
100
AcDbEntity
  8
0
100
AcDbBlockBegin
  2
block 5
 70
     0
 10
0.0
 20
0.0
 30
0.0
  3
block 5
  1

  0
SPLINE
  5
EA
330
E6
100
AcDbEntity
  8
_U+30EC_U+30A4_U+30E4_U+30FC 1
370
     0
100
AcDbSpline
210
0.0
220
0.0
230
1.0
 70
    11
 71
     3
 72
    44
 73
    40
 74
     0
 42
0.0000000001
 43
0.0000000001
 12
1.0
 22
0.0
 32
0.0
 13
1.0
 23
0.0
 33
0.0
 40
0.0
 40
0.0
 40
0.0
 40
0.0
 40
1.0
 40
1.0
 40
1.0
 40
2.0
 40
2.0
 40
2.0
 40
3.0
 40
3.0
 40
3.0
 40
4.0
 40
4.0
 40
4.0
 40
5.0
 40
5.0
 40
5.0
 40
6.0
 40
6.0
 40
6.0
 40
7.0
 40
7.0
 40
7.0
 40
8.0
 40
8.0
 40
8.0
 40
9.0
 40
9.0
 40
9.0
 40
10.0
 40
10.0
 40
10.0
 40
11.0
 40
11.0
 40
11.0
 40
12.0
 40
12.0
 40
12.0
 40
13.0
 40
13.0
 40
13.0
 40
13.0
 10
98.99275171136293
 20
-144.3308973163478
 30
0.0
 10
98.77502167669513
 20
-144.4897162182179
 30
0.0
 10
98.6820040985934
 20
-144.5637857711507
 30
0.0
 10
98.63308374270285
 20
-144.7074462528856
 30
0.0
 10
98.63308374270285
 20
-144.7074462528856
 30
0.0
 10
99.4116753223693
 20
-144.7074462528856
 30
0.0
 10
99.4116753223693
 20
-144.7074462528856
 30
0.0
 10
99.4116753223693
 20
-144.7074462528856
 30
0.0
 10
99.4116753223693
 20
-144.9127739438065
 30
0.0
 10
99.4116753223693
 20
-144.9127739438065
 30
0.0
 10
99.4116753223693
 20
-144.9127739438065
 30
0.0
 10
98.38365882957076
 20
-144.9127739438065
 30
0.0
 10
98.38365882957076
 20
-144.9127739438065
 30
0.0
 10
98.41535370803506
 20
-144.5551730324376
 30
0.0
 10
98.4808105222548
 20
-144.4769693649224
 30
0.0
 10
98.86597219750573
 20
-144.1786240958998
 30
0.0
 10
99.1219427920598
 20
-143.9798420864009
 30
0.0
 10
99.18739960627954
 20
-143.9119737053415
 30
0.0
 10
99.18739960627954
 20
-143.77451439548
 30
0.0
 10
99.18739960627954
 20
-143.6560031107874
 30
0.0
 10
99.11539711063782
 20
-143.5250894823479
 30
0.0
 10
98.91868215843006
 20
-143.5250894823479
 30
0.0
 10
98.65857744929369
 20
-143.5250894823479
 30
0.0
 10
98.65030922012909
 20
-143.7555663703111
 30
0.0
 10
98.64583059599826
 20
-143.8720105977125
 30
0.0
 10
98.64583059599826
 20
-143.8720105977125
 30
0.0
 10
98.4215548799085
 20
-143.8720105977125
 30
0.0
 10
98.4215548799085
 20
-143.8720105977125
 30
0.0
 10
98.43016761862162
 20
-143.7448865743068
 30
0.0
 10
98.4408474146259
 20
-143.6329209710362
 30
0.0
 10
98.52111813943222
 20
-143.5144096863436
 30
0.0
 10
98.6310166854117
 20
-143.3535237271824
 30
0.0
 10
98.81739635116371
 20
-143.319761791427
 30
0.0
 10
98.93349606901663
 20
-143.319761791427
 30
0.0
 10
99.21082625557925
 20
-143.319761791427
 30
0.0
 10
99.41822100379129
 20
-143.5037298903393
 30
0.0
 10
99.41822100379129
 20
-143.7765814527711
 30
0.0
 10
99.41822100379129
 20
-144.0053357929917
 30
0.0
 10
99.30177677638984
 20
-144.1045545429669
 30
0.0
 10
98.99275171136293
 20
-144.3308973163478
 30
0.0
  0
HATCH
  5
EB
330
E6
100
AcDbEntity
  8
_U+30EC_U+30A4_U+30E4_U+30FC 1
 62
     7
420
 16777215
100
AcDbHatch
 10
0.0
 20
0.0
 30
0.0
210
0.0
220
0.0
230
1.0
  2
SOLID
 70
     1
 71
     0
 91
        1
 92
        1
 93
        1
 72
     4
 94
        3
 73
     0
 74
     1
 95
       44
 96
       40
 40
0.0
 40
0.0
 40
0.0
 40
0.0
 40
1.0
 40
1.0
 40
1.0
 40
2.0
 40
2.0
 40
2.0
 40
3.0
 40
3.0
 40
3.0
 40
4.0
 40
4.0
 40
4.0
 40
5.0
 40
5.0
 40
5.0
 40
6.0
 40
6.0
 40
6.0
 40
7.0
 40
7.0
 40
7.0
 40
8.0
 40
8.0
 40
8.0
 40
9.0
 40
9.0
 40
9.0
 40
10.0
 40
10.0
 40
10.0
 40
11.0
 40
11.0
 40
11.0
 40
12.0
 40
12.0
 40
12.0
 40
13.0
 40
13.0
 40
13.0
 40
13.0
 10
98.99275171136293
 20
-144.3308973163478
 10
98.77502167669513
 20
-144.4897162182179
 10
98.6820040985934
 20
-144.5637857711507
 10
98.63308374270285
 20
-144.7074462528856
 10
98.63308374270285
 20
-144.7074462528856
 10
99.4116753223693
 20
-144.7074462528856
 10
99.4116753223693
 20
-144.7074462528856
 10
99.4116753223693
 20
-144.7074462528856
 10
99.4116753223693
 20
-144.9127739438065
 10
99.4116753223693
 20
-144.9127739438065
 10
99.4116753223693
 20
-144.9127739438065
 10
98.38365882957076
 20
-144.9127739438065
 10
98.38365882957076
 20
-144.9127739438065
 10
98.41535370803506
 20
-144.5551730324376
 10
98.4808105222548
 20
-144.4769693649224
 10
98.86597219750573
 20
-144.1786240958998
 10
99.1219427920598
 20
-143.9798420864009
 10
99.18739960627954
 20
-143.9119737053415
 10
99.18739960627954
 20
-143.77451439548
 10
99.18739960627954
 20
-143.6560031107874
 10
99.11539711063782
 20
-143.5250894823479
 10
98.91868215843006
 20
-143.5250894823479
 10
98.65857744929369
 20
-143.5250894823479
 10
98.65030922012909
 20
-143.7555663703111
 10
98.64583059599826
 20
-143.8720105977125
 10
98.64583059599826
 20
-143.8720105977125
 10
98.4215548799085
 20
-143.8720105977125
 10
98.4215548799085
 20
-143.8720105977125
 10
98.43016761862162
 20
-143.7448865743068
 10
98.4408474146259
 20
-143.6329209710362
 10
98.52111813943222
 20
-143.5144096863436
 10
98.6310166854117
 20
-143.3535237271824
 10
98.81739635116371
 20
-143.319761791427
 10
98.93349606901663
 20
-143.319761791427
 10
99.21082625557925
 20
-143.319761791427
 10
99.41822100379129
 20
-143.5037298903393
 10
99.41822100379129
 20
-143.7765814527711
 10
99.41822100379129
 20
-144.0053357929917
 10
99.30177677638984
 20
-144.1045545429669
 10
98.99275171136293
 20
-144.3308973163478
 97
        0
 97
        0
 75
     2
 76
     1
 98
        0
  0
SPLINE
  5
EC
330
E6
100
AcDbEntity
  8
_U+30EC_U+30A4_U+30E4_U+30FC 1
370
     0
100
AcDbSpline
210
0.0
220
0.0
230
1.0
 70
    11
 71
     3
 72
    29
 73
    25
 74
     0
 42
0.0000000001
 43
0.0000000001
 12
1.0
 22
0.0
 32
0.0
 13
1.0
 23
0.0
 33
0.0
 40
0.0
 40
0.0
 40
0.0
 40
0.0
 40
1.0
 40
1.0
 40
1.0
 40
2.0
 40
2.0
 40
2.0
 40
3.0
 40
3.0
 40
3.0
 40
4.0
 40
4.0
 40
4.0
 40
5.0
 40
5.0
 40
5.0
 40
6.0
 40
6.0
 40
6.0
 40
7.0
 40
7.0
 40
7.0
 40
8.0
 40
8.0
 40
8.0
 40
8.0
 10
100.4744872795689
 20
-144.7350070167676
 30
0.0
 10
100.366311281332
 20
-144.9444688222708
 30
0.0
 10
100.193022978424
 20
-144.9634168474397
 30
0.0
 10
100.0765787510225
 20
-144.9634168474397
 30
0.0
 10
99.91569279186136
 20
-144.9634168474397
 30
0.0
 10
99.77409936741759
 20
-144.9169080583888
 30
0.0
 10
99.6790147320247
 20
-144.7350070167676
 30
0.0
 10
99.57531735791868
 20
-144.540359121851
 30
0.0
 10
99.5563693327498
 20
-144.3036810620144
 30
0.0
 10
99.5563693327498
 20
-144.140728045562
 30
0.0
 10
99.5563693327498
 20
-143.9967230542786
 30
0.0
 10
99.57325030062752
 20
-143.7448865743068
 30
0.0
 10
99.6790147320247
 20
-143.5461045648079
 30
0.0
 10
99.78684622071302
 20
-143.3431884407267
 30
0.0
 10
99.94773217987418
 20
-143.319761791427
 30
0.0
 10
100.0765787510225
 20
-143.319761791427
 30
0.0
 10
100.2353976528925
 20
-143.319761791427
 30
0.0
 10
100.3790581346275
 20
-143.3642035231867
 30
0.0
 10
100.4744872795689
 20
-143.5461045648079
 30
0.0
 10
100.5737060295441
 20
-143.7386854024334
 30
0.0
 10
100.5971326788438
 20
-143.9670952331055
 30
0.0
 10
100.5971326788438
 20
-144.140728045562
 30
0.0
 10
100.5971326788438
 20
-144.311949291179
 30
0.0
 10
100.5757730868352
 20
-144.5424261791422
 30
0.0
 10
100.4744872795689
 20
-144.7350070167676
 30
0.0
  0
SPLINE
  5
ED
330
E6
100
AcDbEntity
  8
_U+30EC_U+30A4_U+30E4_U+30FC 1
370
     0
100
AcDbSpline
210
0.0
220
0.0
230
1.0
 70
    11
 71
     3
 72
    17
 73
    13
 74
     0
 42
0.0000000001
 43
0.0000000001
 12
1.0
 22
0.0
 32
0.0
 13
1.0
 23
0.0
 33
0.0
 40
0.0
 40
0.0
 40
0.0
 40
0.0
 40
1.0
 40
1.0
 40
1.0
 40
2.0
 40
2.0
 40
2.0
 40
3.0
 40
3.0
 40
3.0
 40
4.0
 40
4.0
 40
4.0
 40
4.0
 10
100.0765787510225
 20
-143.5123426290525
 30
0.0
 10
99.82715383789044
 20
-143.5123426290525
 30
0.0
 10
99.78030053929103
 20
-143.7958739874885
 30
0.0
 10
99.78030053929103
 20
-144.140728045562
 30
0.0
 10
99.78030053929103
 20
-144.4600883970447
 30
0.0
 10
99.81647404188617
 20
-144.7687689525231
 30
0.0
 10
100.0765787510225
 20
-144.7687689525231
 30
0.0
 10
100.324281116412
 20
-144.7687689525231
 30
0.0
 10
100.372856962754
 20
-144.4876491609267
 30
0.0
 10
100.372856962754
 20
-144.140728045562
 30
0.0
 10
100.372856962754
 20
-143.8210231845309
 30
0.0
 10
100.3346164028677
 20
-143.5123426290525
 30
0.0
 10
100.0765787510225
 20
-143.5123426290525
 30
0.0
  0
HATCH
  5
EE
330
E6
100
AcDbEntity
  8
_U+30EC_U+30A4_U+30E4_U+30FC 1
 62
     7
420
 16777215
100
AcDbHatch
 10
0.0
 20
0.0
 30
0.0
210
0.0
220
0.0
230
1.0
  2
SOLID
 70
     1
 71
     0
 91
        2
 92
        1
 93
        1
 72
     4
 94
        3
 73
     0
 74
     1
 95
       29
 96
       25
 40
0.0
 40
0.0
 40
0.0
 40
0.0
 40
1.0
 40
1.0
 40
1.0
 40
2.0
 40
2.0
 40
2.0
 40
3.0
 40
3.0
 40
3.0
 40
4.0
 40
4.0
 40
4.0
 40
5.0
 40
5.0
 40
5.0
 40
6.0
 40
6.0
 40
6.0
 40
7.0
 40
7.0
 40
7.0
 40
8.0
 40
8.0
 40
8.0
 40
8.0
 10
100.4744872795689
 20
-144.7350070167676
 10
100.366311281332
 20
-144.9444688222708
 10
100.193022978424
 20
-144.9634168474397
 10
100.0765787510225
 20
-144.9634168474397
 10
99.91569279186136
 20
-144.9634168474397
 10
99.77409936741759
 20
-144.9169080583888
 10
99.6790147320247
 20
-144.7350070167676
 10
99.57531735791868
 20
-144.540359121851
 10
99.5563693327498
 20
-144.3036810620144
 10
99.5563693327498
 20
-144.140728045562
 10
99.5563693327498
 20
-143.9967230542786
 10
99.57325030062752
 20
-143.7448865743068
 10
99.6790147320247
 20
-143.5461045648079
 10
99.78684622071302
 20
-143.3431884407267
 10
99.94773217987418
 20
-143.319761791427
 10
100.0765787510225
 20
-143.319761791427
 10
100.2353976528925
 20
-143.319761791427
 10
100.3790581346275
 20
-143.3642035231867
 10
100.4744872795689
 20
-143.5461045648079
 10
100.5737060295441
 20
-143.7386854024334
 10
100.5971326788438
 20
-143.9670952331055
 10
100.5971326788438
 20
-144.140728045562
 10
100.5971326788438
 20
-144.311949291179
 10
100.5757730868352
 20
-144.5424261791422
 10
100.4744872795689
 20
-144.7350070167676
 97
        0
 97
        0
 92
        1
 93
        1
 72
     4
 94
        3
 73
     0
 74
     1
 95
       17
 96
       13
 40
0.0
 40
0.0
 40
0.0
 40
0.0
 40
1.0
 40
1.0
 40
1.0
 40
2.0
 40
2.0
 40
2.0
 40
3.0
 40
3.0
 40
3.0
 40
4.0
 40
4.0
 40
4.0
 40
4.0
 10
100.0765787510225
 20
-143.5123426290525
 10
99.82715383789044
 20
-143.5123426290525
 10
99.78030053929103
 20
-143.7958739874885
 10
99.78030053929103
 20
-144.140728045562
 10
99.78030053929103
 20
-144.4600883970447
 10
99.81647404188617
 20
-144.7687689525231
 10
100.0765787510225
 20
-144.7687689525231
 10
100.324281116412
 20
-144.7687689525231
 10
100.372856962754
 20
-144.4876491609267
 10
100.372856962754
 20
-144.140728045562
 10
100.372856962754
 20
-143.8210231845309
 10
100.3346164028677
 20
-143.5123426290525
 10
100.0765787510225
 20
-143.5123426290525
 97
        0
 97
        0
 75
     2
 76
     1
 98
        0
  0
ENDBLK
  5
E9
330
E6
100
AcDbEntity
  8
0
100
AcDbBlockEnd
  0
ENDSEC
  0
SECTION
  2
ENTITIES
  0
POLYLINE
  5
41
330
1F
100
AcDbEntity
  8
_U+30EC_U+30A4_U+30E4_U+30FC 1
  6
AI-Linetype-1
 62
   154
420
    23468
370
    25
100
AcDb2dPolyline
 66
     1
 10
0.0
 20
0.0
 30
0.0
  0
VERTEX
  5
42
330
41
100
AcDbEntity
  8
_U+30EC_U+30A4_U+30E4_U+30FC 1
  6
AI-Linetype-1
 62
   154
420
    23468
370
    25
100
AcDbVertex
100
AcDb2dVertex
 10
80.14878073301203
 20
-110.7463988612024
 30
0.0
  0
VERTEX
  5
43
330
41
100
AcDbEntity
  8
_U+30EC_U+30A4_U+30E4_U+30FC 1
  6
AI-Linetype-1
 62
   154
420
    23468
370
    25
100
AcDbVertex
100
AcDb2dVertex
 10
80.14878073301203
 20
-120.7461319142579
 30
0.0
  0
SEQEND
  5
45
330
41
100
AcDbEntity
  8
_U+30EC_U+30A4_U+30E4_U+30FC 1
  6
AI-Linetype-1
 62
   154
420
    23468
370
    25
  0
POLYLINE
  5
46
330
1F
100
AcDbEntity
  8
_U+30EC_U+30A4_U+30E4_U+30FC 1
  6
AI-Linetype-2
 62
   154
420
    23468
370
    25
100
AcDb2dPolyline
 66
     1
 10
0.0
 20
0.0
 30
0.0
  0
VERTEX
  5
47
330
46
100
AcDbEntity
  8
_U+30EC_U+30A4_U+30E4_U+30FC 1
  6
AI-Linetype-2
 62
   154
420
    23468
370
    25
100
AcDbVertex
100
AcDb2dVertex
 10
99.47645162881095
 20
-140.0834341316459
 30
0.0
  0
VERTEX
  5
48
330
46
100
AcDbEntity
  8
_U+30EC_U+30A4_U+30E4_U+30FC 1
  6
AI-Linetype-2
 62
   154
420
    23468
370
    25
100
AcDbVertex
100
AcDb2dVertex
 10
109.4761844292521
 20
-140.0834341316459
 30
0.0
  0
SEQEND
  5
4A
330
46
100
AcDbEntity
  8
_U+30EC_U+30A4_U+30E4_U+30FC 1
  6
AI-Linetype-2
 62
   154
420
    23468
370
    25
  0
POLYLINE
  5
4B
330
1F
100
AcDbEntity
  8
_U+30EC_U+30A4_U+30E4_U+30FC 1
 62
     7
420
 16777215
370
     9
100
AcDb2dPolyline
 66
     1
 10
0.0
 20
0.0
 30
0.0
  0
VERTEX
  5
4C
330
4B
100
AcDbEntity
  8
_U+30EC_U+30A4_U+30E4_U+30FC 1
 62
     7
420
 16777215
370
     9
100
AcDbVertex
100
AcDb2dVertex
 10
80.58975294398411
 20
-118.6763141369977
 30
0.0
  0
VERTEX
  5
4D
330
4B
100
AcDbEntity
  8
_U+30EC_U+30A4_U+30E4_U+30FC 1
 62
     7
420
 16777215
370
     9
100
AcDbVertex
100
AcDb2dVertex
 10
91.31571405923094
 20
-118.6763141369977
 30
0.0
  0
SEQEND
  5
4E
330
4B
100
AcDbEntity
  8
_U+30EC_U+30A4_U+30E4_U+30FC 1
 62
     7
420
 16777215
370
     9
  0
POLYLINE
  5
4F
330
1F
100
AcDbEntity
  8
_U+30EC_U+30A4_U+30E4_U+30FC 1
 62
     7
420
 16777215
370
     9
100
AcDb2dPolyline
 66
     1
 10
0.0
 20
0.0
 30
0.0
  0
VERTEX
  5
50
330
4F
100
AcDbEntity
  8
_U+30EC_U+30A4_U+30E4_U+30FC 1
 62
     7
420
 16777215
370
     9
100
AcDbVertex
100
AcDb2dVertex
 10
80.58975294398411
 20
-118.6763141369977
 30
0.0
  0
VERTEX
  5
51
330
4F
100
AcDbEntity
  8
_U+30EC_U+30A4_U+30E4_U+30FC 1
 62
     7
420
 16777215
370
     9
100
AcDbVertex
100
AcDb2dVertex
 10
81.55572903045112
 20
-118.4172341370624
 30
0.0
  0
SEQEND
  5
52
330
4F
100
AcDbEntity
  8
_U+30EC_U+30A4_U+30E4_U+30FC 1
 62
     7
420
 16777215
370
     9
  0
POLYLINE
  5
53
330
1F
100
AcDbEntity
  8
_U+30EC_U+30A4_U+30E4_U+30FC 1
 62
     7
420
 16777215
370
     9
100
AcDb2dPolyline
 66
     1
 10
0.0
 20
0.0
 30
0.0
  0
VERTEX
  5
54
330
53
100
AcDbEntity
  8
_U+30EC_U+30A4_U+30E4_U+30FC 1
 62
     7
420
 16777215
370
     9
100
AcDbVertex
100
AcDb2dVertex
 10
80.58975294398411
 20
-118.6763141369977
 30
0.0
  0
VERTEX
  5
55
330
53
100
AcDbEntity
  8
_U+30EC_U+30A4_U+30E4_U+30FC 1
 62
     7
420
 16777215
370
     9
100
AcDbVertex
100
AcDb2dVertex
 10
81.55572903045112
 20
-118.9353588591552
 30
0.0
  0
SEQEND
  5
56
330
53
100
AcDbEntity
  8
_U+30EC_U+30A4_U+30E4_U+30FC 1
 62
     7
420
 16777215
370
     9
  0
POLYLINE
  5
57
330
1F
100
AcDbEntity
  8
_U+30EC_U+30A4_U+30E4_U+30FC 1
 62
     7
420
 16777215
370
     9
100
AcDb2dPolyline
 66
     1
 10
0.0
 20
0.0
 30
0.0
  0
VERTEX
  5
58
330
57
100
AcDbEntity
  8
_U+30EC_U+30A4_U+30E4_U+30FC 1
 62
     7
420
 16777215
370
     9
100
AcDbVertex
100
AcDb2dVertex
 10
100.7621527525872
 20
-139.3772082984887
 30
0.0
  0
VERTEX
  5
59
330
57
100
AcDbEntity
  8
_U+30EC_U+30A4_U+30E4_U+30FC 1
 62
     7
420
 16777215
370
     9
100
AcDbVertex
100
AcDb2dVertex
 10
101.0212302005115
 20
-138.4111969098417
 30
0.0
  0
SEQEND
  5
5A
330
57
100
AcDbEntity
  8
_U+30EC_U+30A4_U+30E4_U+30FC 1
 62
     7
420
 16777215
370
     9
  0
POLYLINE
  5
5B
330
1F
100
AcDbEntity
  8
_U+30EC_U+30A4_U+30E4_U+30FC 1
 62
     7
420
 16777215
370
     9
100
AcDb2dPolyline
 66
     1
 10
0.0
 20
0.0
 30
0.0
  0
VERTEX
  5
5C
330
5B
100
AcDbEntity
  8
_U+30EC_U+30A4_U+30E4_U+30FC 1
 62
     7
420
 16777215
370
     9
100
AcDbVertex
100
AcDb2dVertex
 10
100.7621527525872
 20
-139.3772082984887
 30
0.0
  0
VERTEX
  5
5D
330
5B
100
AcDbEntity
  8
_U+30EC_U+30A4_U+30E4_U+30FC 1
 62
     7
420
 16777215
370
     9
100
AcDbVertex
100
AcDb2dVertex
 10
100.7621527525872
 20
-120.0302399699924
 30
0.0
  0
SEQEND
  5
5E
330
5B
100
AcDbEntity
  8
_U+30EC_U+30A4_U+30E4_U+30FC 1
 62
     7
420
 16777215
370
     9
  0
POLYLINE
  5
5F
330
1F
100
AcDbEntity
  8
_U+30EC_U+30A4_U+30E4_U+30FC 1
 62
     7
420
 16777215
370
     9
100
AcDb2dPolyline
 66
     1
 10
0.0
 20
0.0
 30
0.0
  0
VERTEX
  5
60
330
5F
100
AcDbEntity
  8
_U+30EC_U+30A4_U+30E4_U+30FC 1
 62
     7
420
 16777215
370
     9
100
AcDbVertex
100
AcDb2dVertex
 10
100.7621527525872
 20
-139.3772082984887
 30
0.0
  0
VERTEX
  5
61
330
5F
100
AcDbEntity
  8
_U+30EC_U+30A4_U+30E4_U+30FC 1
 62
     7
420
 16777215
370
     9
100
AcDbVertex
100
AcDb2dVertex
 10
100.5030702137309
 20
-138.4111969098417
 30
0.0
  0
SEQEND
  5
62
330
5F
100
AcDbEntity
  8
_U+30EC_U+30A4_U+30E4_U+30FC 1
 62
     7
420
 16777215
370
     9
  0
INSERT
  5
64
330
1F
100
AcDbEntity
  8
_U+30EC_U+30A4_U+30E4_U+30FC 1
100
AcDbBlockReference
  2
block 2
 10
0.0
 20
0.0
 30
0.0
  0
POLYLINE
  5
8B
330
1F
100
AcDbEntity
  8
_U+30EC_U+30A4_U+30E4_U+30FC 1
 62
     7
420
 16777215
370
    25
100
AcDb2dPolyline
 66
     1
 10
0.0
 20
0.0
 30
0.0
  0
VERTEX
  5
8C
330
8B
100
AcDbEntity
  8
_U+30EC_U+30A4_U+30E4_U+30FC 1
 62
     7
420
 16777215
370
    25
100
AcDbVertex
100
AcDb2dVertex
 10
78.58537549512005
 20
-131.0194088561339
 30
0.0
  0
VERTEX
  5
8D
330
8B
100
AcDbEntity
  8
_U+30EC_U+30A4_U+30E4_U+30FC 1
 62
     7
420
 16777215
370
    25
100
AcDbVertex
100
AcDb2dVertex
 10
89.19146272453621
 20
-141.6254610757049
 30
0.0
  0
SEQEND
  5
8E
330
8B
100
AcDbEntity
  8
_U+30EC_U+30A4_U+30E4_U+30FC 1
 62
     7
420
 16777215
370
    25
  0
POLYLINE
  5
8F
330
1F
100
AcDbEntity
  8
_U+30EC_U+30A4_U+30E4_U+30FC 1
 62
     7
420
 16777215
370
    25
100
AcDb2dPolyline
 66
     1
 10
0.0
 20
0.0
 30
0.0
  0
VERTEX
  5
90
330
8F
100
AcDbEntity
  8
_U+30EC_U+30A4_U+30E4_U+30FC 1
 62
     7
420
 16777215
370
    25
100
AcDbVertex
100
AcDb2dVertex
 10
79.48524102771812
 20
-130.6459583006715
 30
0.0
  0
VERTEX
  5
91
330
8F
100
AcDbEntity
  8
_U+30EC_U+30A4_U+30E4_U+30FC 1
 62
     7
420
 16777215
370
    25
100
AcDbVertex
100
AcDb2dVertex
 10
89.5642077150267
 20
-140.725595520374
 30
0.0
  0
SEQEND
  5
92
330
8F
100
AcDbEntity
  8
_U+30EC_U+30A4_U+30E4_U+30FC 1
 62
     7
420
 16777215
370
    25
  0
POLYLINE
  5
93
330
1F
100
AcDbEntity
  8
_U+30EC_U+30A4_U+30E4_U+30FC 1
 62
     7
420
 16777215
370
    25
100
AcDb2dPolyline
 66
     1
 10
0.0
 20
0.0
 30
0.0
  0
VERTEX
  5
94
330
93
100
AcDbEntity
  8
_U+30EC_U+30A4_U+30E4_U+30FC 1
 62
     7
420
 16777215
370
    25
100
AcDbVertex
100
AcDb2dVertex
 10
109.5643788714465
 20
-140.725595520374
 30
0.0
  0
VERTEX
  5
95
330
93
100
AcDbEntity
  8
_U+30EC_U+30A4_U+30E4_U+30FC 1
 62
     7
420
 16777215
370
    25
100
AcDbVertex
100
AcDb2dVertex
 10
109.5643788714465
 20
-141.2258344091377
 30
0.0
  0
SEQEND
  5
96
330
93
100
AcDbEntity
  8
_U+30EC_U+30A4_U+30E4_U+30FC 1
 62
     7
420
 16777215
370
    25
  0
POLYLINE
  5
97
330
1F
100
AcDbEntity
  8
_U+30EC_U+30A4_U+30E4_U+30FC 1
 62
     7
420
 16777215
370
    25
100
AcDb2dPolyline
 66
     1
 10
0.0
 20
0.0
 30
0.0
  0
VERTEX
  5
98
330
97
100
AcDbEntity
  8
_U+30EC_U+30A4_U+30E4_U+30FC 1
 62
     7
420
 16777215
370
    25
100
AcDbVertex
100
AcDb2dVertex
 10
89.5642077150267
 20
-140.725595520374
 30
0.0
  0
VERTEX
  5
99
330
97
100
AcDbEntity
  8
_U+30EC_U+30A4_U+30E4_U+30FC 1
 62
     7
420
 16777215
370
    25
100
AcDbVertex
100
AcDb2dVertex
 10
109.5643788714465
 20
-140.725595520374
 30
0.0
  0
SEQEND
  5
9A
330
97
100
AcDbEntity
  8
_U+30EC_U+30A4_U+30E4_U+30FC 1
 62
     7
420
 16777215
370
    25
  0
POLYLINE
  5
9B
330
1F
100
AcDbEntity
  8
_U+30EC_U+30A4_U+30E4_U+30FC 1
 62
     7
420
 16777215
370
    25
100
AcDb2dPolyline
 66
     1
 10
0.0
 20
0.0
 30
0.0
  0
VERTEX
  5
9C
330
9B
100
AcDbEntity
  8
_U+30EC_U+30A4_U+30E4_U+30FC 1
 62
     7
420
 16777215
370
    25
100
AcDbVertex
100
AcDb2dVertex
 10
89.19146272453621
 20
-141.6254610757049
 30
0.0
  0
VERTEX
  5
9D
330
9B
100
AcDbEntity
  8
_U+30EC_U+30A4_U+30E4_U+30FC 1
 62
     7
420
 16777215
370
    25
100
AcDbVertex
100
AcDb2dVertex
 10
109.5643788714465
 20
-141.2258344091377
 30
0.0
  0
SEQEND
  5
9E
330
9B
100
AcDbEntity
  8
_U+30EC_U+30A4_U+30E4_U+30FC 1
 62
     7
420
 16777215
370
    25
  0
POLYLINE
  5
9F
330
1F
100
AcDbEntity
  8
_U+30EC_U+30A4_U+30E4_U+30FC 1
 62
     7
420
 16777215
370
    25
100
AcDb2dPolyline
 66
     1
 10
0.0
 20
0.0
 30
0.0
  0
VERTEX
  5
A0
330
9F
100
AcDbEntity
  8
_U+30EC_U+30A4_U+30E4_U+30FC 1
 62
     7
420
 16777215
370
    25
100
AcDbVertex
100
AcDb2dVertex
 10
79.48524102771812
 20
-130.6459583006715
 30
0.0
  0
VERTEX
  5
A1
330
9F
100
AcDbEntity
  8
_U+30EC_U+30A4_U+30E4_U+30FC 1
 62
     7
420
 16777215
370
    25
100
AcDbVertex
100
AcDb2dVertex
 10
79.48524102771812
 20
-110.6464921945607
 30
0.0
  0
SEQEND
  5
A2
330
9F
100
AcDbEntity
  8
_U+30EC_U+30A4_U+30E4_U+30FC 1
 62
     7
420
 16777215
370
    25
  0
POLYLINE
  5
A3
330
1F
100
AcDbEntity
  8
_U+30EC_U+30A4_U+30E4_U+30FC 1
 62
     7
420
 16777215
370
    25
100
AcDb2dPolyline
 66
     1
 10
0.0
 20
0.0
 30
0.0
  0
VERTEX
  5
A4
330
A3
100
AcDbEntity
  8
_U+30EC_U+30A4_U+30E4_U+30FC 1
 62
     7
420
 16777215
370
    25
100
AcDbVertex
100
AcDb2dVertex
 10
79.48524102771812
 20
-110.6464921945607
 30
0.0
  0
VERTEX
  5
A5
330
A3
100
AcDbEntity
  8
_U+30EC_U+30A4_U+30E4_U+30FC 1
 62
     7
420
 16777215
370
    25
100
AcDbVertex
100
AcDb2dVertex
 10
78.98500215159139
 20
-110.6464921945607
 30
0.0
  0
SEQEND
  5
A6
330
A3
100
AcDbEntity
  8
_U+30EC_U+30A4_U+30E4_U+30FC 1
 62
     7
420
 16777215
370
    25
  0
POLYLINE
  5
A7
330
1F
100
AcDbEntity
  8
_U+30EC_U+30A4_U+30E4_U+30FC 1
 62
     7
420
 16777215
370
    25
100
AcDb2dPolyline
 66
     1
 10
0.0
 20
0.0
 30
0.0
  0
VERTEX
  5
A8
330
A7
100
AcDbEntity
  8
_U+30EC_U+30A4_U+30E4_U+30FC 1
 62
     7
420
 16777215
370
    25
100
AcDbVertex
100
AcDb2dVertex
 10
78.58537549512005
 20
-131.0194088561339
 30
0.0
  0
VERTEX
  5
A9
330
A7
100
AcDbEntity
  8
_U+30EC_U+30A4_U+30E4_U+30FC 1
 62
     7
420
 16777215
370
    25
100
AcDbVertex
100
AcDb2dVertex
 10
78.98500215159139
 20
-110.6464921945607
 30
0.0
  0
SEQEND
  5
AA
330
A7
100
AcDbEntity
  8
_U+30EC_U+30A4_U+30E4_U+30FC 1
 62
     7
420
 16777215
370
    25
  0
SPLINE
  5
AB
330
1F
100
AcDbEntity
  8
_U+30EC_U+30A4_U+30E4_U+30FC 1
 62
     7
420
 16777215
370
     9
100
AcDbSpline
210
0.0
220
0.0
230
1.0
 70
    11
 71
     3
 72
    17
 73
    13
 74
     0
 42
0.0000000001
 43
0.0000000001
 12
1.0
 22
0.0
 32
0.0
 13
1.0
 23
0.0
 33
0.0
 40
0.0
 40
0.0
 40
0.0
 40
0.0
 40
1.0
 40
1.0
 40
1.0
 40
2.0
 40
2.0
 40
2.0
 40
3.0
 40
3.0
 40
3.0
 40
4.0
 40
4.0
 40
4.0
 40
4.0
 10
74.6848528168529
 20
-110.6464921945607
 30
0.0
 10
74.6848528168529
 20
-110.5913530279076
 30
0.0
 10
74.64075559575568
 20
-110.5465855279188
 30
0.0
 10
74.58494615273506
 20
-110.5465855279188
 30
0.0
 10
74.5298069874751
 20
-110.5465855279188
 30
0.0
 10
74.48503948861722
 20
-110.5913530279076
 30
0.0
 10
74.48503948861722
 20
-110.6464921945607
 30
0.0
 10
74.48503948861722
 20
-110.7015960834356
 30
0.0
 10
74.5298069874751
 20
-110.7463988612024
 30
0.0
 10
74.58494615273506
 20
-110.7463988612024
 30
0.0
 10
74.64075559575568
 20
-110.7463988612024
 30
0.0
 10
74.6848528168529
 20
-110.7015960834356
 30
0.0
 10
74.6848528168529
 20
-110.6464921945607
 30
0.0
  0
SPLINE
  5
AC
330
1F
100
AcDbEntity
  8
_U+30EC_U+30A4_U+30E4_U+30FC 1
 62
     7
420
 16777215
370
     9
100
AcDbSpline
210
0.0
220
0.0
230
1.0
 70
    11
 71
     3
 72
    17
 73
    13
 74
     0
 42
0.0000000001
 43
0.0000000001
 12
1.0
 22
0.0
 32
0.0
 13
1.0
 23
0.0
 33
0.0
 40
0.0
 40
0.0
 40
0.0
 40
0.0
 40
1.0
 40
1.0
 40
1.0
 40
2.0
 40
2.0
 40
2.0
 40
3.0
 40
3.0
 40
3.0
 40
4.0
 40
4.0
 40
4.0
 40
4.0
 10
74.6848528168529
 20
-130.6459583006715
 30
0.0
 10
74.6848528168529
 20
-130.5908191340191
 30
0.0
 10
74.64075559575568
 20
-130.5460516340299
 30
0.0
 10
74.58494615273506
 20
-130.5460516340299
 30
0.0
 10
74.5298069874751
 20
-130.5460516340299
 30
0.0
 10
74.48503948861722
 20
-130.5908191340191
 30
0.0
 10
74.48503948861722
 20
-130.6459583006715
 30
0.0
 10
74.48503948861722
 20
-130.7017677451026
 30
0.0
 10
74.5298069874751
 20
-130.7465352450912
 30
0.0
 10
74.58494615273506
 20
-130.7465352450912
 30
0.0
 10
74.64075559575568
 20
-130.7465352450912
 30
0.0
 10
74.6848528168529
 20
-130.7017677451026
 30
0.0
 10
74.6848528168529
 20
-130.6459583006715
 30
0.0
  0
SPLINE
  5
AD
330
1F
100
AcDbEntity
  8
_U+30EC_U+30A4_U+30E4_U+30FC 1
 62
     7
420
 16777215
370
     9
100
AcDbSpline
210
0.0
220
0.0
230
1.0
 70
    11
 71
     3
 72
    17
 73
    13
 74
     0
 42
0.0000000001
 43
0.0000000001
 12
1.0
 22
0.0
 32
0.0
 13
1.0
 23
0.0
 33
0.0
 40
0.0
 40
0.0
 40
0.0
 40
0.0
 40
1.0
 40
1.0
 40
1.0
 40
2.0
 40
2.0
 40
2.0
 40
3.0
 40
3.0
 40
3.0
 40
4.0
 40
4.0
 40
4.0
 40
4.0
 10
75.85685112028605
 20
-133.84780468876
 30
0.0
 10
75.85685112028605
 20
-133.7919952443296
 30
0.0
 10
75.81208362142817
 20
-133.747227744341
 30
0.0
 10
75.75694445616821
 20
-133.747227744341
 30
0.0
 10
75.70184056868514
 20
-133.747227744341
 30
0.0
 10
75.65703779205039
 20
-133.7919952443296
 30
0.0
 10
75.65703779205039
 20
-133.84780468876
 30
0.0
 10
75.65703779205039
 20
-133.9029438554131
 30
0.0
 10
75.70184056868514
 20
-133.9477113554017
 30
0.0
 10
75.75694445616821
 20
-133.9477113554017
 30
0.0
 10
75.81208362142817
 20
-133.9477113554017
 30
0.0
 10
75.85685112028605
 20
-133.9029438554131
 30
0.0
 10
75.85685112028605
 20
-133.84780468876
 30
0.0
  0
SPLINE
  5
AE
330
1F
100
AcDbEntity
  8
_U+30EC_U+30A4_U+30E4_U+30FC 1
 62
     7
420
 16777215
370
     9
100
AcDbSpline
210
0.0
220
0.0
230
1.0
 70
    11
 71
     3
 72
    17
 73
    13
 74
     0
 42
0.0000000001
 43
0.0000000001
 12
1.0
 22
0.0
 32
0.0
 13
1.0
 23
0.0
 33
0.0
 40
0.0
 40
0.0
 40
0.0
 40
0.0
 40
1.0
 40
1.0
 40
1.0
 40
2.0
 40
2.0
 40
2.0
 40
3.0
 40
3.0
 40
3.0
 40
4.0
 40
4.0
 40
4.0
 40
4.0
 10
86.46293834970223
 20
-144.4538921861087
 30
0.0
 10
86.46293834970223
 20
-144.3987530194556
 30
0.0
 10
86.41813557306746
 20
-144.353985519467
 30
0.0
 10
86.36303168558439
 20
-144.353985519467
 30
0.0
 10
86.30789252032444
 20
-144.353985519467
 30
0.0
 10
86.26312502146655
 20
-144.3987530194556
 30
0.0
 10
86.26312502146655
 20
-144.4538921861087
 30
0.0
 10
86.26312502146655
 20
-144.5089960749836
 30
0.0
 10
86.30789252032444
 20
-144.5537988527503
 30
0.0
 10
86.36303168558439
 20
-144.5537988527503
 30
0.0
 10
86.41813557306746
 20
-144.5537988527503
 30
0.0
 10
86.46293834970223
 20
-144.5089960749836
 30
0.0
 10
86.46293834970223
 20
-144.4538921861087
 30
0.0
  0
SPLINE
  5
AF
330
1F
100
AcDbEntity
  8
_U+30EC_U+30A4_U+30E4_U+30FC 1
 62
     7
420
 16777215
370
     9
100
AcDbSpline
210
0.0
220
0.0
230
1.0
 70
    11
 71
     3
 72
    17
 73
    13
 74
     0
 42
0.0000000001
 43
0.0000000001
 12
1.0
 22
0.0
 32
0.0
 13
1.0
 23
0.0
 33
0.0
 40
0.0
 40
0.0
 40
0.0
 40
0.0
 40
1.0
 40
1.0
 40
1.0
 40
2.0
 40
2.0
 40
2.0
 40
3.0
 40
3.0
 40
3.0
 40
4.0
 40
4.0
 40
4.0
 40
4.0
 10
89.6648221998059
 20
-145.6259257969267
 30
0.0
 10
89.6648221998059
 20
-145.5700810747188
 30
0.0
 10
89.6200194220395
 20
-145.5253135747296
 30
0.0
 10
89.5642077150267
 20
-145.5253135747296
 30
0.0
 10
89.50910382754363
 20
-145.5253135747296
 30
0.0
 10
89.46430105090886
 20
-145.5700810747188
 30
0.0
 10
89.46430105090886
 20
-145.6259257969267
 30
0.0
 10
89.46430105090886
 20
-145.6810296858023
 30
0.0
 10
89.50910382754363
 20
-145.7258324635683
 30
0.0
 10
89.5642077150267
 20
-145.7258324635683
 30
0.0
 10
89.6200194220395
 20
-145.7258324635683
 30
0.0
 10
89.6648221998059
 20
-145.6810296858023
 30
0.0
 10
89.6648221998059
 20
-145.6259257969267
 30
0.0
  0
SPLINE
  5
B0
330
1F
100
AcDbEntity
  8
_U+30EC_U+30A4_U+30E4_U+30FC 1
 62
     7
420
 16777215
370
     9
100
AcDbSpline
210
0.0
220
0.0
230
1.0
 70
    11
 71
     3
 72
    17
 73
    13
 74
     0
 42
0.0000000001
 43
0.0000000001
 12
1.0
 22
0.0
 32
0.0
 13
1.0
 23
0.0
 33
0.0
 40
0.0
 40
0.0
 40
0.0
 40
0.0
 40
1.0
 40
1.0
 40
1.0
 40
2.0
 40
2.0
 40
2.0
 40
3.0
 40
3.0
 40
3.0
 40
4.0
 40
4.0
 40
4.0
 40
4.0
 10
109.6642855355643
 20
-145.6259257969267
 30
0.0
 10
109.6642855355643
 20
-145.5700810747188
 30
0.0
 10
109.6194827589296
 20
-145.5253135747296
 30
0.0
 10
109.5643788714465
 20
-145.5253135747296
 30
0.0
 10
109.5092397061865
 20
-145.5253135747296
 30
0.0
 10
109.4644749726338
 20
-145.5700810747188
 30
0.0
 10
109.4644749726338
 20
-145.6259257969267
 30
0.0
 10
109.4644749726338
 20
-145.6810296858023
 30
0.0
 10
109.5092397061865
 20
-145.7258324635683
 30
0.0
 10
109.5643788714465
 20
-145.7258324635683
 30
0.0
 10
109.6194827589296
 20
-145.7258324635683
 30
0.0
 10
109.6642855355643
 20
-145.6810296858023
 30
0.0
 10
109.6642855355643
 20
-145.6259257969267
 30
0.0
  0
POLYLINE
  5
B1
330
1F
100
AcDbEntity
  8
_U+30EC_U+30A4_U+30E4_U+30FC 1
 62
     7
420
 16777215
370
     9
100
AcDb2dPolyline
 66
     1
 10
0.0
 20
0.0
 30
0.0
  0
VERTEX
  5
B2
330
B1
100
AcDbEntity
  8
_U+30EC_U+30A4_U+30E4_U+30FC 1
 62
     7
420
 16777215
370
     9
100
AcDbVertex
100
AcDb2dVertex
 10
75.75694445616821
 20
-133.84780468876
 30
0.0
  0
VERTEX
  5
B3
330
B1
100
AcDbEntity
  8
_U+30EC_U+30A4_U+30E4_U+30FC 1
 62
     7
420
 16777215
370
     9
100
AcDbVertex
100
AcDb2dVertex
 10
86.36303168558439
 20
-144.4538921861087
 30
0.0
  0
SEQEND
  5
B4
330
B1
100
AcDbEntity
  8
_U+30EC_U+30A4_U+30E4_U+30FC 1
 62
     7
420
 16777215
370
     9
  0
POLYLINE
  5
B5
330
1F
100
AcDbEntity
  8
_U+30EC_U+30A4_U+30E4_U+30FC 1
 62
     7
420
 16777215
370
     9
100
AcDb2dPolyline
 66
     1
 10
0.0
 20
0.0
 30
0.0
  0
VERTEX
  5
B6
330
B5
100
AcDbEntity
  8
_U+30EC_U+30A4_U+30E4_U+30FC 1
 62
     7
420
 16777215
370
     9
100
AcDbVertex
100
AcDb2dVertex
 10
76.78910165205792
 20
-132.8149771890182
 30
0.0
  0
VERTEX
  5
B7
330
B5
100
AcDbEntity
  8
_U+30EC_U+30A4_U+30E4_U+30FC 1
 62
     7
420
 16777215
370
     9
100
AcDbVertex
100
AcDb2dVertex
 10
75.04934280755397
 20
-134.5547360774727
 30
0.0
  0
SEQEND
  5
B8
330
B5
100
AcDbEntity
  8
_U+30EC_U+30A4_U+30E4_U+30FC 1
 62
     7
420
 16777215
370
     9
  0
POLYLINE
  5
B9
330
1F
100
AcDbEntity
  8
_U+30EC_U+30A4_U+30E4_U+30FC 1
 62
     7
420
 16777215
370
     9
100
AcDb2dPolyline
 66
     1
 10
0.0
 20
0.0
 30
0.0
  0
VERTEX
  5
BA
330
B9
100
AcDbEntity
  8
_U+30EC_U+30A4_U+30E4_U+30FC 1
 62
     7
420
 16777215
370
     9
100
AcDbVertex
100
AcDb2dVertex
 10
87.39585915923477
 20
-143.4217349641448
 30
0.0
  0
VERTEX
  5
BB
330
B9
100
AcDbEntity
  8
_U+30EC_U+30A4_U+30E4_U+30FC 1
 62
     7
420
 16777215
370
     9
100
AcDbVertex
100
AcDb2dVertex
 10
85.65610031473082
 20
-145.1608235748207
 30
0.0
  0
SEQEND
  5
BC
330
B9
100
AcDbEntity
  8
_U+30EC_U+30A4_U+30E4_U+30FC 1
 62
     7
420
 16777215
370
     9
  0
INSERT
  5
BE
330
1F
100
AcDbEntity
  8
_U+30EC_U+30A4_U+30E4_U+30FC 1
100
AcDbBlockReference
  2
block 3
 10
0.0
 20
0.0
 30
0.0
  0
POLYLINE
  5
C5
330
1F
100
AcDbEntity
  8
_U+30EC_U+30A4_U+30E4_U+30FC 1
 62
     7
420
 16777215
370
     9
100
AcDb2dPolyline
 66
     1
 10
0.0
 20
0.0
 30
0.0
  0
VERTEX
  5
C6
330
C5
100
AcDbEntity
  8
_U+30EC_U+30A4_U+30E4_U+30FC 1
 62
     7
420
 16777215
370
     9
100
AcDbVertex
100
AcDb2dVertex
 10
74.58494615273506
 20
-110.6464921945607
 30
0.0
  0
VERTEX
  5
C7
330
C5
100
AcDbEntity
  8
_U+30EC_U+30A4_U+30E4_U+30FC 1
 62
     7
420
 16777215
370
     9
100
AcDbVertex
100
AcDb2dVertex
 10
74.58494615273506
 20
-130.6459583006715
 30
0.0
  0
SEQEND
  5
C8
330
C5
100
AcDbEntity
  8
_U+30EC_U+30A4_U+30E4_U+30FC 1
 62
     7
420
 16777215
370
     9
  0
POLYLINE
  5
C9
330
1F
100
AcDbEntity
  8
_U+30EC_U+30A4_U+30E4_U+30FC 1
 62
     7
420
 16777215
370
     9
100
AcDb2dPolyline
 66
     1
 10
0.0
 20
0.0
 30
0.0
  0
VERTEX
  5
CA
330
C9
100
AcDbEntity
  8
_U+30EC_U+30A4_U+30E4_U+30FC 1
 62
     7
420
 16777215
370
     9
100
AcDbVertex
100
AcDb2dVertex
 10
76.4452844386072
 20
-110.6464921945607
 30
0.0
  0
VERTEX
  5
CB
330
C9
100
AcDbEntity
  8
_U+30EC_U+30A4_U+30E4_U+30FC 1
 62
     7
420
 16777215
370
     9
100
AcDbVertex
100
AcDb2dVertex
 10
73.58517395601915
 20
-110.6464921945607
 30
0.0
  0
SEQEND
  5
CC
330
C9
100
AcDbEntity
  8
_U+30EC_U+30A4_U+30E4_U+30FC 1
 62
     7
420
 16777215
370
     9
  0
POLYLINE
  5
CD
330
1F
100
AcDbEntity
  8
_U+30EC_U+30A4_U+30E4_U+30FC 1
 62
     7
420
 16777215
370
     9
100
AcDb2dPolyline
 66
     1
 10
0.0
 20
0.0
 30
0.0
  0
VERTEX
  5
CE
330
CD
100
AcDbEntity
  8
_U+30EC_U+30A4_U+30E4_U+30FC 1
 62
     7
420
 16777215
370
     9
100
AcDbVertex
100
AcDb2dVertex
 10
76.94552331473393
 20
-130.6459583006715
 30
0.0
  0
VERTEX
  5
CF
330
CD
100
AcDbEntity
  8
_U+30EC_U+30A4_U+30E4_U+30FC 1
 62
     7
420
 16777215
370
     9
100
AcDbVertex
100
AcDb2dVertex
 10
73.58517395601915
 20
-130.6459583006715
 30
0.0
  0
SEQEND
  5
D0
330
CD
100
AcDbEntity
  8
_U+30EC_U+30A4_U+30E4_U+30FC 1
 62
     7
420
 16777215
370
     9
  0
INSERT
  5
D2
330
1F
100
AcDbEntity
  8
_U+30EC_U+30A4_U+30E4_U+30FC 1
100
AcDbBlockReference
  2
block 4
 10
0.0
 20
0.0
 30
0.0
  0
POLYLINE
  5
DA
330
1F
100
AcDbEntity
  8
_U+30EC_U+30A4_U+30E4_U+30FC 1
 62
     7
420
 16777215
370
     9
100
AcDb2dPolyline
 66
     1
 10
0.0
 20
0.0
 30
0.0
  0
VERTEX
  5
DB
330
DA
100
AcDbEntity
  8
_U+30EC_U+30A4_U+30E4_U+30FC 1
 62
     7
420
 16777215
370
     9
100
AcDbVertex
100
AcDb2dVertex
 10
89.5642077150267
 20
-145.6259257969267
 30
0.0
  0
VERTEX
  5
DC
330
DA
100
AcDbEntity
  8
_U+30EC_U+30A4_U+30E4_U+30FC 1
 62
     7
420
 16777215
370
     9
100
AcDbVertex
100
AcDb2dVertex
 10
109.5643788714465
 20
-145.6259257969267
 30
0.0
  0
SEQEND
  5
DD
330
DA
100
AcDbEntity
  8
_U+30EC_U+30A4_U+30E4_U+30FC 1
 62
     7
420
 16777215
370
     9
  0
POLYLINE
  5
DE
330
1F
100
AcDbEntity
  8
_U+30EC_U+30A4_U+30E4_U+30FC 1
 62
     7
420
 16777215
370
     9
100
AcDb2dPolyline
 66
     1
 10
0.0
 20
0.0
 30
0.0
  0
VERTEX
  5
DF
330
DE
100
AcDbEntity
  8
_U+30EC_U+30A4_U+30E4_U+30FC 1
 62
     7
420
 16777215
370
     9
100
AcDbVertex
100
AcDb2dVertex
 10
89.5642077150267
 20
-143.2653132975172
 30
0.0
  0
VERTEX
  5
E0
330
DE
100
AcDbEntity
  8
_U+30EC_U+30A4_U+30E4_U+30FC 1
 62
     7
420
 16777215
370
     9
100
AcDbVertex
100
AcDb2dVertex
 10
89.5642077150267
 20
-146.6256627411211
 30
0.0
  0
SEQEND
  5
E1
330
DE
100
AcDbEntity
  8
_U+30EC_U+30A4_U+30E4_U+30FC 1
 62
     7
420
 16777215
370
     9
  0
POLYLINE
  5
E2
330
1F
100
AcDbEntity
  8
_U+30EC_U+30A4_U+30E4_U+30FC 1
 62
     7
420
 16777215
370
     9
100
AcDb2dPolyline
 66
     1
 10
0.0
 20
0.0
 30
0.0
  0
VERTEX
  5
E3
330
E2
100
AcDbEntity
  8
_U+30EC_U+30A4_U+30E4_U+30FC 1
 62
     7
420
 16777215
370
     9
100
AcDbVertex
100
AcDb2dVertex
 10
109.5643788714465
 20
-143.7655521862809
 30
0.0
  0
VERTEX
  5
E4
330
E2
100
AcDbEntity
  8
_U+30EC_U+30A4_U+30E4_U+30FC 1
 62
     7
420
 16777215
370
     9
100
AcDbVertex
100
AcDb2dVertex
 10
109.5643788714465
 20
-146.6256627411211
 30
0.0
  0
SEQEND
  5
E5
330
E2
100
AcDbEntity
  8
_U+30EC_U+30A4_U+30E4_U+30FC 1
 62
     7
420
 16777215
370
     9
  0
INSERT
  5
E7
330
1F
100
AcDbEntity
  8
_U+30EC_U+30A4_U+30E4_U+30FC 1
100
AcDbBlockReference
  2
block 5
 10
0.0
 20
0.0
 30
0.0
  0
ENDSEC
  0
SECTION
  2
OBJECTS
  0
DICTIONARY
  5
C
330
0
100
AcDbDictionary
281
     1
  3
ACAD_GROUP
350
D
  3
ACAD_LAYOUT
350
1A
  3
ACAD_MATERIAL
350
3B
  3
ACAD_MLEADERSTYLE
350
F0
  3
ACAD_MLINESTYLE
350
17
  3
ACAD_PLOTSETTINGS
350
19
  3
ACAD_PLOTSTYLENAME
350
E
  3
ACAD_TABLESTYLE
350
EF
  3
ACAD_VISUALSTYLE
350
2A
  0
SUN
  5
3F
330
29
100
AcDbSun
 90
        1
290
     0
 63
     7
421
 16777215
 40
1.0
291
     1
 91
  2455826
 92
 54000000
292
     0
 70
     2
 71
   256
280
     1
  0
DICTIONARY
  5
D
102
{ACAD_REACTORS
330
C
102
}
330
C
100
AcDbDictionary
281
     1
  0
DICTIONARY
  5
1A
102
{ACAD_REACTORS
330
C
102
}
330
C
100
AcDbDictionary
281
     1
  3
Layout1
350
1E
  3
Layout2
350
26
  3
Model
350
22
  0
DICTIONARY
  5
3B
102
{ACAD_REACTORS
330
C
102
}
330
C
100
AcDbDictionary
281
     1
  3
ByBlock
350
3D
  3
ByLayer
350
3C
  3
Global
350
3E
  0
DICTIONARY
  5
F0
102
{ACAD_REACTORS
330
C
102
}
330
C
100
AcDbDictionary
281
     1
  0
DICTIONARY
  5
17
102
{ACAD_REACTORS
330
C
102
}
330
C
100
AcDbDictionary
281
     1
  3
Standard
350
18
  0
DICTIONARY
  5
19
102
{ACAD_REACTORS
330
C
102
}
330
C
100
AcDbDictionary
281
     1
  0
ACDBDICTIONARYWDFLT
  5
E
102
{ACAD_REACTORS
330
C
102
}
330
C
100
AcDbDictionary
281
     1
  3
Normal
350
F
100
AcDbDictionaryWithDefault
340
F
  0
DICTIONARY
  5
EF
102
{ACAD_REACTORS
330
C
102
}
330
C
100
AcDbDictionary
281
     1
  0
DICTIONARY
  5
2A
102
{ACAD_REACTORS
330
C
102
}
330
C
100
AcDbDictionary
281
     1
  3
2dWireframe
350
2F
  3
3D Hidden
350
31
  3
3dWireframe
350
30
  3
Basic
350
32
  3
Brighten
350
36
  3
ColorChange
350
3A
  3
Conceptual
350
34
  3
Dim
350
35
  3
Facepattern
350
39
  3
Flat
350
2B
  3
FlatWithEdges
350
2C
  3
Gouraud
350
2D
  3
GouraudWithEdges
350
2E
  3
Linepattern
350
38
  3
Realistic
350
33
  3
Thicken
350
37
  0
LAYOUT
  5
1E
102
{ACAD_REACTORS
330
1A
102
}
330
1A
100
AcDbPlotSettings
  1

  2
none_device
  4

  6

 40
0.0
 41
0.0
 42
0.0
 43
0.0
 44
0.0
 45
0.0
 46
0.0
 47
0.0
 48
0.0
 49
0.0
140
0.0
141
0.0
142
1.0
143
1.0
 70
   688
 72
     0
 73
     0
 74
     5
  7

 75
    16
 76
     0
 77
     2
 78
   300
147
1.0
148
0.0
149
0.0
100
AcDbLayout
  1
Layout1
 70
     1
 71
     1
 10
0.0
 20
0.0
 11
12.0
 21
9.0
 12
0.0
 22
0.0
 32
0.0
 14
1.000000000000000E+20
 24
1.000000000000000E+20
 34
1.000000000000000E+20
 15
-1.000000000000000E+20
 25
-1.000000000000000E+20
 35
-1.000000000000000E+20
146
0.0
 13
0.0
 23
0.0
 33
0.0
 16
1.0
 26
0.0
 36
0.0
 17
0.0
 27
1.0
 37
0.0
 76
     0
330
1B
  0
LAYOUT
  5
26
102
{ACAD_REACTORS
330
1A
102
}
330
1A
100
AcDbPlotSettings
  1

  2
none_device
  4

  6

 40
0.0
 41
0.0
 42
0.0
 43
0.0
 44
0.0
 45
0.0
 46
0.0
 47
0.0
 48
0.0
 49
0.0
140
0.0
141
0.0
142
1.0
143
1.0
 70
   688
 72
     0
 73
     0
 74
     5
  7

 75
    16
 76
     0
 77
     2
 78
   300
147
1.0
148
0.0
149
0.0
100
AcDbLayout
  1
Layout2
 70
     1
 71
     2
 10
0.0
 20
0.0
 11
0.0
 21
0.0
 12
0.0
 22
0.0
 32
0.0
 14
0.0
 24
0.0
 34
0.0
 15
0.0
 25
0.0
 35
0.0
146
0.0
 13
0.0
 23
0.0
 33
0.0
 16
1.0
 26
0.0
 36
0.0
 17
0.0
 27
1.0
 37
0.0
 76
     0
330
23
  0
LAYOUT
  5
22
102
{ACAD_REACTORS
330
1A
102
}
330
1A
100
AcDbPlotSettings
  1

  2
none_device
  4

  6

 40
0.0
 41
0.0
 42
0.0
 43
0.0
 44
0.0
 45
0.0
 46
0.0
 47
0.0
 48
0.0
 49
0.0
140
0.0
141
0.0
142
1.0
143
1.0
 70
  1712
 72
     0
 73
     0
 74
     0
  7

 75
     0
 76
     0
 77
     2
 78
   300
147
1.0
148
0.0
149
0.0
100
AcDbLayout
  1
Model
 70
     1
 71
     0
 10
0.0
 20
0.0
 11
12.0
 21
9.0
 12
0.0
 22
0.0
 32
0.0
 14
1.000000000000000E+20
 24
1.000000000000000E+20
 34
1.000000000000000E+20
 15
-1.000000000000000E+20
 25
-1.000000000000000E+20
 35
-1.000000000000000E+20
146
0.0
 13
0.0
 23
0.0
 33
0.0
 16
1.0
 26
0.0
 36
0.0
 17
0.0
 27
1.0
 37
0.0
 76
     0
330
1F
331
29
  0
MATERIAL
  5
3D
102
{ACAD_REACTORS
330
3B
102
}
330
3B
100
AcDbMaterial
  1
ByBlock
 72
     1
 94
      127
  0
MATERIAL
  5
3C
102
{ACAD_REACTORS
330
3B
102
}
330
3B
100
AcDbMaterial
  1
ByLayer
 72
     1
 94
      127
  0
MATERIAL
  5
3E
102
{ACAD_REACTORS
330
3B
102
}
330
3B
100
AcDbMaterial
  1
Global
 72
     1
 94
      127
  0
MLINESTYLE
  5
18
102
{ACAD_REACTORS
330
17
102
}
330
17
100
AcDbMlineStyle
  2
Standard
 70
     0
  3

 62
   256
 51
90.0
 52
90.0
 71
     2
 49
0.5
 62
   256
  6
BYLAYER
 49
-0.5
 62
   256
  6
BYLAYER
  0
ACDBPLACEHOLDER
  5
F
102
{ACAD_REACTORS
330
E
102
}
330
E
  0
VISUALSTYLE
  5
2F
102
{ACAD_REACTORS
330
2A
102
}
330
2A
100
AcDbVisualStyle
  2
2dWireframe
 70
     4
177
     2
291
     0
 71
     0
176
     1
 72
     2
176
     1
 73
     0
176
     1
 90
        0
176
     1
 40
-0.6
176
     1
 41
-30.0
176
     1
 62
     5
 63
     7
421
 16777215
176
     1
 74
     1
176
     1
 91
        4
176
     1
 64
     7
176
     1
 65
   257
176
     1
 75
     1
176
     1
175
     1
176
     1
 42
1.0
176
     1
 92
        0
176
     1
 66
   257
176
     1
 43
1.0
176
     1
 76
     1
176
     1
 77
     6
176
     1
 78
     2
176
     1
 67
     7
176
     1
 79
     5
176
     1
170
     0
176
     1
171
     0
176
     1
290
     0
176
     1
 93
        1
176
     1
 44
0.0
176
     1
173
     0
176
     1
  0
VISUALSTYLE
  5
31
102
{ACAD_REACTORS
330
2A
102
}
330
2A
100
AcDbVisualStyle
  2
3D Hidden
 70
     6
177
     2
291
     0
 71
     1
176
     1
 72
     2
176
     1
 73
     2
176
     1
 90
        0
176
     1
 40
-0.6
176
     1
 41
-30.0
176
     1
 62
     5
 63
     7
421
 16777215
176
     1
 74
     2
176
     1
 91
        2
176
     1
 64
     7
176
     1
 65
   257
176
     1
 75
     2
176
     1
175
     1
176
     1
 42
40.0
176
     1
 92
        0
176
     1
 66
   257
176
     1
 43
1.0
176
     1
 76
     1
176
     1
 77
     6
176
     1
 78
     2
176
     1
 67
     7
176
     1
 79
     3
176
     1
170
     0
176
     1
171
     0
176
     1
290
     0
176
     1
 93
        1
176
     1
 44
0.0
176
     1
173
     0
176
     1
  0
VISUALSTYLE
  5
30
102
{ACAD_REACTORS
330
2A
102
}
330
2A
100
AcDbVisualStyle
  2
3dWireframe
 70
     5
177
     2
291
     0
 71
     0
176
     1
 72
     2
176
     1
 73
     0
176
     1
 90
        0
176
     1
 40
-0.6
176
     1
 41
-30.0
176
     1
 62
     5
 63
     7
421
 16777215
176
     1
 74
     1
176
     1
 91
        4
176
     1
 64
     7
176
     1
 65
   257
176
     1
 75
     1
176
     1
175
     1
176
     1
 42
1.0
176
     1
 92
        0
176
     1
 66
   257
176
     1
 43
1.0
176
     1
 76
     1
176
     1
 77
     6
176
     1
 78
     2
176
     1
 67
     7
176
     1
 79
     5
176
     1
170
     0
176
     1
171
     0
176
     1
290
     0
176
     1
 93
        1
176
     1
 44
0.0
176
     1
173
     0
176
     1
  0
VISUALSTYLE
  5
32
102
{ACAD_REACTORS
330
2A
102
}
330
2A
100
AcDbVisualStyle
  2
Basic
 70
     7
177
     2
291
     1
 71
     1
176
     1
 72
     0
176
     1
 73
     1
176
     1
 90
        0
176
     1
 40
-0.6
176
     1
 41
-30.0
176
     1
 62
     5
 63
     7
421
 16777215
176
     1
 74
     0
176
     1
 91
        4
176
     1
 64
     7
176
     1
 65
   257
176
     1
 75
     1
176
     1
175
     1
176
     1
 42
1.0
176
     1
 92
        8
176
     1
 66
     7
176
     1
 43
1.0
176
     1
 76
     1
176
     1
 77
     6
176
     1
 78
     2
176
     1
 67
     7
176
     1
 79
     5
176
     1
170
     0
176
     1
171
     0
176
     1
290
     0
176
     1
 93
        1
176
     1
 44
0.0
176
     1
173
     0
176
     1
  0
VISUALSTYLE
  5
36
102
{ACAD_REACTORS
330
2A
102
}
330
2A
100
AcDbVisualStyle
  2
Brighten
 70
    12
177
     2
291
     1
 71
     2
176
     1
 72
     2
176
     1
 73
     0
176
     1
 90
        0
176
     1
 40
-0.6
176
     1
 41
-30.0
176
     1
 62
     5
 63
     7
421
 16777215
176
     1
 74
     1
176
     1
 91
        4
176
     1
 64
     7
176
     1
 65
   257
176
     1
 75
     1
176
     1
175
     1
176
     1
 42
1.0
176
     1
 92
        8
176
     1
 66
     7
176
     1
 43
1.0
176
     1
 76
     1
176
     1
 77
     6
176
     1
 78
     2
176
     1
 67
     7
176
     1
 79
     5
176
     1
170
     0
176
     1
171
     0
176
     1
290
     0
176
     1
 93
        1
176
     1
 44
50.0
176
     1
173
     0
176
     1
  0
VISUALSTYLE
  5
3A
102
{ACAD_REACTORS
330
2A
102
}
330
2A
100
AcDbVisualStyle
  2
ColorChange
 70
    16
177
     2
291
     1
 71
     2
176
     1
 72
     2
176
     1
 73
     3
176
     1
 90
        0
176
     1
 40
-0.6
176
     1
 41
-30.0
176
     1
 62
     5
 63
     8
421
  8421504
176
     1
 74
     1
176
     1
 91
        4
176
     1
 64
     7
176
     1
 65
   257
176
     1
 75
     1
176
     1
175
     1
176
     1
 42
1.0
176
     1
 92
        8
176
     1
 66
     8
424
  8421504
176
     1
 43
1.0
176
     1
 76
     1
176
     1
 77
     6
176
     1
 78
     2
176
     1
 67
     7
176
     1
 79
     5
176
     1
170
     0
176
     1
171
     0
176
     1
290
     0
176
     1
 93
        1
176
     1
 44
0.0
176
     1
173
     0
176
     1
  0
VISUALSTYLE
  5
34
102
{ACAD_REACTORS
330
2A
102
}
330
2A
100
AcDbVisualStyle
  2
Conceptual
 70
     9
177
     2
291
     0
 71
     3
176
     1
 72
     2
176
     1
 73
     0
176
     1
 90
        0
176
     1
 40
-0.6
176
     1
 41
-30.0
176
     1
 62
     5
 63
     7
421
 16777215
176
     1
 74
     2
176
     1
 91
        2
176
     1
 64
     7
176
     1
 65
   257
176
     1
 75
     1
176
     1
175
     1
176
     1
 42
40.0
176
     1
 92
        8
176
     1
 66
     7
176
     1
 43
1.0
176
     1
 76
     1
176
     1
 77
     6
176
     1
 78
     2
176
     1
 67
     7
176
     1
 79
     3
176
     1
170
     0
176
     1
171
     0
176
     1
290
     0
176
     1
 93
        1
176
     1
 44
0.0
176
     1
173
     0
176
     1
  0
VISUALSTYLE
  5
35
102
{ACAD_REACTORS
330
2A
102
}
330
2A
100
AcDbVisualStyle
  2
Dim
 70
    11
177
     2
291
     1
 71
     2
176
     1
 72
     2
176
     1
 73
     0
176
     1
 90
        0
176
     1
 40
-0.6
176
     1
 41
-30.0
176
     1
 62
     5
 63
     7
421
 16777215
176
     1
 74
     1
176
     1
 91
        4
176
     1
 64
     7
176
     1
 65
   257
176
     1
 75
     1
176
     1
175
     1
176
     1
 42
1.0
176
     1
 92
        8
176
     1
 66
     7
176
     1
 43
1.0
176
     1
 76
     1
176
     1
 77
     6
176
     1
 78
     2
176
     1
 67
     7
176
     1
 79
     5
176
     1
170
     0
176
     1
171
     0
176
     1
290
     0
176
     1
 93
        1
176
     1
 44
-50.0
176
     1
173
     0
176
     1
  0
VISUALSTYLE
  5
39
102
{ACAD_REACTORS
330
2A
102
}
330
2A
100
AcDbVisualStyle
  2
Facepattern
 70
    15
177
     2
291
     1
 71
     2
176
     1
 72
     2
176
     1
 73
     0
176
     1
 90
        0
176
     1
 40
-0.6
176
     1
 41
-30.0
176
     1
 62
     5
 63
     7
421
 16777215
176
     1
 74
     1
176
     1
 91
        4
176
     1
 64
     7
176
     1
 65
   257
176
     1
 75
     1
176
     1
175
     1
176
     1
 42
1.0
176
     1
 92
        8
176
     1
 66
     7
176
     1
 43
1.0
176
     1
 76
     1
176
     1
 77
     6
176
     1
 78
     2
176
     1
 67
     7
176
     1
 79
     5
176
     1
170
     0
176
     1
171
     0
176
     1
290
     0
176
     1
 93
        1
176
     1
 44
0.0
176
     1
173
     0
176
     1
  0
VISUALSTYLE
  5
2B
102
{ACAD_REACTORS
330
2A
102
}
330
2A
100
AcDbVisualStyle
  2
Flat
 70
     0
177
     2
291
     1
 71
     2
176
     1
 72
     1
176
     1
 73
     1
176
     1
 90
        2
176
     1
 40
-0.6
176
     1
 41
30.0
176
     1
 62
     5
 63
     7
421
 16777215
176
     1
 74
     0
176
     1
 91
        4
176
     1
 64
     7
176
     1
 65
   257
176
     1
 75
     1
176
     1
175
     1
176
     1
 42
1.0
176
     1
 92
        8
176
     1
 66
     7
176
     1
 43
1.0
176
     1
 76
     1
176
     1
 77
     6
176
     1
 78
     2
176
     1
 67
     7
176
     1
 79
     5
176
     1
170
     0
176
     1
171
     0
176
     1
290
     0
176
     1
 93
       13
176
     1
 44
0.0
176
     1
173
     0
176
     1
  0
VISUALSTYLE
  5
2C
102
{ACAD_REACTORS
330
2A
102
}
330
2A
100
AcDbVisualStyle
  2
FlatWithEdges
 70
     1
177
     2
291
     1
 71
     2
176
     1
 72
     1
176
     1
 73
     1
176
     1
 90
        2
176
     1
 40
-0.6
176
     1
 41
30.0
176
     1
 62
     5
 63
     7
421
 16777215
176
     1
 74
     1
176
     1
 91
        4
176
     1
 64
     7
176
     1
 65
   257
176
     1
 75
     1
176
     1
175
     1
176
     1
 42
1.0
176
     1
 92
        0
176
     1
 66
   257
176
     1
 43
1.0
176
     1
 76
     1
176
     1
 77
     6
176
     1
 78
     2
176
     1
 67
     7
176
     1
 79
     5
176
     1
170
     0
176
     1
171
     0
176
     1
290
     0
176
     1
 93
       13
176
     1
 44
0.0
176
     1
173
     0
176
     1
  0
VISUALSTYLE
  5
2D
102
{ACAD_REACTORS
330
2A
102
}
330
2A
100
AcDbVisualStyle
  2
Gouraud
 70
     2
177
     2
291
     1
 71
     2
176
     1
 72
     2
176
     1
 73
     1
176
     1
 90
        2
176
     1
 40
-0.6
176
     1
 41
30.0
176
     1
 62
     5
 63
     7
421
 16777215
176
     1
 74
     0
176
     1
 91
        4
176
     1
 64
     7
176
     1
 65
   257
176
     1
 75
     1
176
     1
175
     1
176
     1
 42
1.0
176
     1
 92
        0
176
     1
 66
     7
176
     1
 43
1.0
176
     1
 76
     1
176
     1
 77
     6
176
     1
 78
     2
176
     1
 67
     7
176
     1
 79
     5
176
     1
170
     0
176
     1
171
     0
176
     1
290
     0
176
     1
 93
       13
176
     1
 44
0.0
176
     1
173
     0
176
     1
  0
VISUALSTYLE
  5
2E
102
{ACAD_REACTORS
330
2A
102
}
330
2A
100
AcDbVisualStyle
  2
GouraudWithEdges
 70
     3
177
     2
291
     1
 71
     2
176
     1
 72
     2
176
     1
 73
     1
176
     1
 90
        2
176
     1
 40
-0.6
176
     1
 41
30.0
176
     1
 62
     5
 63
     7
421
 16777215
176
     1
 74
     1
176
     1
 91
        4
176
     1
 64
     7
176
     1
 65
   257
176
     1
 75
     1
176
     1
175
     1
176
     1
 42
1.0
176
     1
 92
        0
176
     1
 66
   257
176
     1
 43
1.0
176
     1
 76
     1
176
     1
 77
     6
176
     1
 78
     2
176
     1
 67
     7
176
     1
 79
     5
176
     1
170
     0
176
     1
171
     0
176
     1
290
     0
176
     1
 93
       13
176
     1
 44
0.0
176
     1
173
     0
176
     1
  0
VISUALSTYLE
  5
38
102
{ACAD_REACTORS
330
2A
102
}
330
2A
100
AcDbVisualStyle
  2
Linepattern
 70
    14
177
     2
291
     1
 71
     2
176
     1
 72
     2
176
     1
 73
     0
176
     1
 90
        0
176
     1
 40
-0.6
176
     1
 41
-30.0
176
     1
 62
     5
 63
     7
421
 16777215
176
     1
 74
     1
176
     1
 91
        4
176
     1
 64
     7
176
     1
 65
   257
176
     1
 75
     7
176
     1
175
     7
176
     1
 42
1.0
176
     1
 92
        8
176
     1
 66
     7
176
     1
 43
1.0
176
     1
 76
     1
176
     1
 77
     6
176
     1
 78
     2
176
     1
 67
     7
176
     1
 79
     5
176
     1
170
     0
176
     1
171
     0
176
     1
290
     0
176
     1
 93
        1
176
     1
 44
0.0
176
     1
173
     0
176
     1
  0
VISUALSTYLE
  5
33
102
{ACAD_REACTORS
330
2A
102
}
330
2A
100
AcDbVisualStyle
  2
Realistic
 70
     8
177
     2
291
     0
 71
     2
176
     1
 72
     2
176
     1
 73
     0
176
     1
 90
        0
176
     1
 40
-0.6
176
     1
 41
-30.0
176
     1
 62
     5
 63
     7
421
 16777215
176
     1
 74
     1
176
     1
 91
        0
176
     1
 64
     7
176
     1
 65
   257
176
     1
 75
     1
176
     1
175
     1
176
     1
 42
1.0
176
     1
 92
        8
176
     1
 66
     8
424
  7895160
176
     1
 43
1.0
176
     1
 76
     1
176
     1
 77
     6
176
     1
 78
     2
176
     1
 67
     7
176
     1
 79
     5
176
     1
170
     0
176
     1
171
     0
176
     1
290
     0
176
     1
 93
       13
176
     1
 44
0.0
176
     1
173
     0
176
     1
  0
VISUALSTYLE
  5
37
102
{ACAD_REACTORS
330
2A
102
}
330
2A
100
AcDbVisualStyle
  2
Thicken
 70
    13
177
     2
291
     1
 71
     2
176
     1
 72
     2
176
     1
 73
     0
176
     1
 90
        0
176
     1
 40
-0.6
176
     1
 41
-30.0
176
     1
 62
     5
 63
     7
421
 16777215
176
     1
 74
     1
176
     1
 91
        4
176
     1
 64
     7
176
     1
 65
   257
176
     1
 75
     1
176
     1
175
     1
176
     1
 42
1.0
176
     1
 92
       12
176
     1
 66
     7
176
     1
 43
1.0
176
     1
 76
     1
176
     1
 77
     6
176
     1
 78
     2
176
     1
 67
     7
176
     1
 79
     5
176
     1
170
     0
176
     1
171
     0
176
     1
290
     0
176
     1
 93
        1
176
     1
 44
0.0
176
     1
173
     0
176
     1
  0
ENDSEC
  0
EOF
