  0
SECTION
  2
HEADER
  9
$ACADVER
  1
AC1024
  9
$ACADMAINTVER
 70
     6
  9
$DWGCODEPAGE
  3
UNDEFINED
  9
$INSBASE
 10
0.0
 20
0.0
 30
0.0
  9
$EXTMIN
 10
1.000000000000000E+20
 20
1.000000000000000E+20
 30
1.000000000000000E+20
  9
$EXTMAX
 10
-1.000000000000000E+20
 20
-1.000000000000000E+20
 30
-1.000000000000000E+20
  9
$LIMMIN
 10
0.0
 20
0.0
  9
$LIMMAX
 10
12.0
 20
9.0
  9
$ORTHOMODE
 70
     0
  9
$REGENMODE
 70
     1
  9
$FILLMODE
 70
     1
  9
$QTEXTMODE
 70
     0
  9
$MIRRTEXT
 70
     1
  9
$LTSCALE
 40
1.0
  9
$ATTMODE
 70
     1
  9
$TEXTSIZE
 40
0.2
  9
$TRACEWID
 40
0.05
  9
$TEXTSTYLE
  7
Standard
  9
$CLAYER
  8
0
  9
$CELTYPE
  6
ByLayer
  9
$CECOLOR
 62
   256
  9
$CELTSCALE
 40
1.0
  9
$DISPSILH
 70
     0
  9
$DIMSCALE
 40
1.0
  9
$DIMASZ
 40
0.18
  9
$DIMEXO
 40
0.0625
  9
$DIMDLI
 40
0.38
  9
$DIMRND
 40
0.0
  9
$DIMDLE
 40
0.0
  9
$DIMEXE
 40
0.18
  9
$DIMTP
 40
0.0
  9
$DIMTM
 40
0.0
  9
$DIMTXT
 40
0.18
  9
$DIMCEN
 40
0.09
  9
$DIMTSZ
 40
0.0
  9
$DIMTOL
 70
     0
  9
$DIMLIM
 70
     0
  9
$DIMTIH
 70
     1
  9
$DIMTOH
 70
     1
  9
$DIMSE1
 70
     0
  9
$DIMSE2
 70
     0
  9
$DIMTAD
 70
     0
  9
$DIMZIN
 70
     0
  9
$DIMBLK
  1

  9
$DIMASO
 70
     1
  9
$DIMSHO
 70
     1
  9
$DIMPOST
  1

  9
$DIMAPOST
  1

  9
$DIMALT
 70
     0
  9
$DIMALTD
 70
     2
  9
$DIMALTF
 40
25.4
  9
$DIMLFAC
 40
1.0
  9
$DIMTOFL
 70
     0
  9
$DIMTVP
 40
0.0
  9
$DIMTIX
 70
     0
  9
$DIMSOXD
 70
     0
  9
$DIMSAH
 70
     0
  9
$DIMBLK1
  1

  9
$DIMBLK2
  1

  9
$DIMSTYLE
  2
Standard
  9
$DIMCLRD
 70
     0
  9
$DIMCLRE
 70
     0
  9
$DIMCLRT
 70
     0
  9
$DIMTFAC
 40
1.0
  9
$DIMGAP
 40
0.09
  9
$DIMJUST
 70
     0
  9
$DIMSD1
 70
     0
  9
$DIMSD2
 70
     0
  9
$DIMTOLJ
 70
     1
  9
$DIMTZIN
 70
     0
  9
$DIMALTZ
 70
     0
  9
$DIMALTTZ
 70
     0
  9
$DIMUPT
 70
     0
  9
$DIMDEC
 70
     4
  9
$DIMTDEC
 70
     4
  9
$DIMALTU
 70
     2
  9
$DIMALTTD
 70
     2
  9
$DIMTXSTY
  7
Standard
  9
$DIMAUNIT
 70
     0
  9
$DIMADEC
 70
     0
  9
$DIMALTRND
 40
0.0
  9
$DIMAZIN
 70
     0
  9
$DIMDSEP
 70
    46
  9
$DIMATFIT
 70
     3
  9
$DIMFRAC
 70
     0
  9
$DIMLDRBLK
  1

  9
$DIMLUNIT
 70
     2
  9
$DIMLWD
 70
    -2
  9
$DIMLWE
 70
    -2
  9
$DIMTMOVE
 70
     0
  9
$DIMFXL
 40
1.0
  9
$DIMFXLON
 70
     0
  9
$DIMJOGANG
 40
0.7853981633974483
  9
$DIMTFILL
 70
     0
  9
$DIMTFILLCLR
 70
     0
  9
$DIMARCSYM
 70
     0
  9
$DIMLTYPE
  6

  9
$DIMLTEX1
  6

  9
$DIMLTEX2
  6

  9
$DIMTXTDIRECTION
 70
     0
  9
$LUNITS
 70
     2
  9
$LUPREC
 70
     4
  9
$SKETCHINC
 40
0.1
  9
$FILLETRAD
 40
0.5
  9
$AUNITS
 70
     0
  9
$AUPREC
 70
     0
  9
$MENU
  1
.
  9
$ELEVATION
 40
0.0
  9
$PELEVATION
 40
0.0
  9
$THICKNESS
 40
0.0
  9
$LIMCHECK
 70
     0
  9
$CHAMFERA
 40
0.5
  9
$CHAMFERB
 40
0.5
  9
$CHAMFERC
 40
1.0
  9
$CHAMFERD
 40
0.0
  9
$SKPOLY
 70
     0
  9
$TDCREATE
 40
2457917.649502303
  9
$TDUCREATE
 40
2457917.274502315
  9
$TDUPDATE
 40
2457917.649502303
  9
$TDUUPDATE
 40
2457917.274502315
  9
$TDINDWG
 40
0.0000000116
  9
$TDUSRTIMER
 40
0.0000000116
  9
$USRTIMER
 70
     1
  9
$ANGBASE
 50
0.0
  9
$ANGDIR
 70
     0
  9
$PDMODE
 70
     0
  9
$PDSIZE
 40
0.0
  9
$PLINEWID
 40
0.0
  9
$SPLFRAME
 70
     0
  9
$SPLINETYPE
 70
     6
  9
$SPLINESEGS
 70
     8
  9
$HANDSEED
  5
19B
  9
$SURFTAB1
 70
     6
  9
$SURFTAB2
 70
     6
  9
$SURFTYPE
 70
     6
  9
$SURFU
 70
     6
  9
$SURFV
 70
     6
  9
$UCSBASE
  2

  9
$UCSNAME
  2

  9
$UCSORG
 10
0.0
 20
0.0
 30
0.0
  9
$UCSXDIR
 10
1.0
 20
0.0
 30
0.0
  9
$UCSYDIR
 10
0.0
 20
1.0
 30
0.0
  9
$UCSORTHOREF
  2

  9
$UCSORTHOVIEW
 70
     0
  9
$UCSORGTOP
 10
0.0
 20
0.0
 30
0.0
  9
$UCSORGBOTTOM
 10
0.0
 20
0.0
 30
0.0
  9
$UCSORGLEFT
 10
0.0
 20
0.0
 30
0.0
  9
$UCSORGRIGHT
 10
0.0
 20
0.0
 30
0.0
  9
$UCSORGFRONT
 10
0.0
 20
0.0
 30
0.0
  9
$UCSORGBACK
 10
0.0
 20
0.0
 30
0.0
  9
$PUCSBASE
  2

  9
$PUCSNAME
  2

  9
$PUCSORG
 10
0.0
 20
0.0
 30
0.0
  9
$PUCSXDIR
 10
1.0
 20
0.0
 30
0.0
  9
$PUCSYDIR
 10
0.0
 20
1.0
 30
0.0
  9
$PUCSORTHOREF
  2

  9
$PUCSORTHOVIEW
 70
     0
  9
$PUCSORGTOP
 10
0.0
 20
0.0
 30
0.0
  9
$PUCSORGBOTTOM
 10
0.0
 20
0.0
 30
0.0
  9
$PUCSORGLEFT
 10
0.0
 20
0.0
 30
0.0
  9
$PUCSORGRIGHT
 10
0.0
 20
0.0
 30
0.0
  9
$PUCSORGFRONT
 10
0.0
 20
0.0
 30
0.0
  9
$PUCSORGBACK
 10
0.0
 20
0.0
 30
0.0
  9
$USERI1
 70
     0
  9
$USERI2
 70
     0
  9
$USERI3
 70
     0
  9
$USERI4
 70
     0
  9
$USERI5
 70
     0
  9
$USERR1
 40
0.0
  9
$USERR2
 40
0.0
  9
$USERR3
 40
0.0
  9
$USERR4
 40
0.0
  9
$USERR5
 40
0.0
  9
$WORLDVIEW
 70
     1
  9
$SHADEDGE
 70
     3
  9
$SHADEDIF
 70
    70
  9
$TILEMODE
 70
     1
  9
$MAXACTVP
 70
    64
  9
$PINSBASE
 10
0.0
 20
0.0
 30
0.0
  9
$PLIMCHECK
 70
     0
  9
$PEXTMIN
 10
1.000000000000000E+20
 20
1.000000000000000E+20
 30
1.000000000000000E+20
  9
$PEXTMAX
 10
-1.000000000000000E+20
 20
-1.000000000000000E+20
 30
-1.000000000000000E+20
  9
$PLIMMIN
 10
0.0
 20
0.0
  9
$PLIMMAX
 10
12.0
 20
9.0
  9
$UNITMODE
 70
     0
  9
$VISRETAIN
 70
     1
  9
$PLINEGEN
 70
     0
  9
$PSLTSCALE
 70
     1
  9
$TREEDEPTH
 70
  3020
  9
$CMLSTYLE
  2
Standard
  9
$CMLJUST
 70
     0
  9
$CMLSCALE
 40
1.0
  9
$PROXYGRAPHICS
 70
     1
  9
$MEASUREMENT
 70
     0
  9
$CELWEIGHT
370
    -1
  9
$ENDCAPS
280
     0
  9
$JOINSTYLE
280
     0
  9
$LWDISPLAY
290
     1
  9
$INSUNITS
 70
     1
  9
$HYPERLINKBASE
  1

  9
$STYLESHEET
  1

  9
$XEDIT
290
     1
  9
$CEPSNTYPE
380
     0
  9
$PSTYLEMODE
290
     1
  9
$FINGERPRINTGUID
  2
{4C3685C0-1CD3-5341-FDE2-17F100EAC780}
  9
$VERSIONGUID
  2
{FAEB1C32-E019-11D5-929B-00C0DF256EC4}
  9
$EXTNAMES
290
     1
  9
$PSVPSCALE
 40
0.0
  9
$OLESTARTUP
290
     0
  9
$SORTENTS
280
   127
  9
$INDEXCTL
280
     0
  9
$HIDETEXT
280
     1
  9
$XCLIPFRAME
280
     2
  9
$HALOGAP
280
     0
  9
$OBSCOLOR
 70
   257
  9
$OBSLTYPE
280
     0
  9
$INTERSECTIONDISPLAY
280
     0
  9
$INTERSECTIONCOLOR
 70
   257
  9
$DIMASSOC
280
     2
  9
$PROJECTNAME
  1

  9
$CAMERADISPLAY
290
     0
  9
$LENSLENGTH
 40
50.0
  9
$CAMERAHEIGHT
 40
0.0
  9
$STEPSPERSEC
 40
2.0
  9
$STEPSIZE
 40
6.0
  9
$3DDWFPREC
 40
2.0
  9
$PSOLWIDTH
 40
0.25
  9
$PSOLHEIGHT
 40
4.0
  9
$LOFTANG1
 40
1.570796326794897
  9
$LOFTANG2
 40
1.570796326794897
  9
$LOFTMAG1
 40
0.0
  9
$LOFTMAG2
 40
0.0
  9
$LOFTPARAM
 70
     7
  9
$LOFTNORMALS
280
     1
  9
$LATITUDE
 40
37.795
  9
$LONGITUDE
 40
-122.394
  9
$NORTHDIRECTION
 40
0.0
  9
$TIMEZONE
 70
 -8000
  9
$LIGHTGLYPHDISPLAY
280
     1
  9
$TILEMODELIGHTSYNCH
280
     1
  9
$CMATERIAL
347
3C
  9
$SOLIDHIST
280
     1
  9
$SHOWHIST
280
     1
  9
$DWFFRAME
280
     2
  9
$DGNFRAME
280
     2
  9
$REALWORLDSCALE
290
     1
  9
$INTERFERECOLOR
 62
   256
  9
$CSHADOW
280
     0
  9
$SHADOWPLANELOCATION
 40
0.0
  0
ENDSEC
  0
SECTION
  2
CLASSES
  0
CLASS
  1
ACDBDICTIONARYWDFLT
  2
AcDbDictionaryWithDefault
  3
ObjectDBX Classes
 90
        0
 91
        4
280
     0
281
     0
  0
CLASS
  1
VISUALSTYLE
  2
AcDbVisualStyle
  3
ObjectDBX Classes
 90
     4095
 91
        4
280
     0
281
     0
  0
CLASS
  1
MATERIAL
  2
AcDbMaterial
  3
ObjectDBX Classes
 90
     1153
 91
        4
280
     0
281
     0
  0
CLASS
  1
SUN
  2
AcDbSun
  3
SCENEOE
 90
     1024
 91
        4
280
     0
281
     0
  0
ENDSEC
  0
SECTION
  2
TABLES
  0
TABLE
  2
VPORT
  5
8
330
0
100
AcDbSymbolTable
 70
     1
  0
VPORT
  5
29
330
8
100
AcDbSymbolTableRecord
100
AcDbViewportTableRecord
  2
*Active
 70
     0
 10
0.0
 20
0.0
 11
1.0
 21
1.0
 12
0.0
 22
0.0
 13
0.0
 23
0.0
 14
0.5
 24
0.5
 15
0.5
 25
0.5
 16
0.0
 26
0.0
 36
1.0
 17
91.00082462281999
 27
-128.4993055234307
 37
0.0
 40
256.9986110468615
 41
0.7081814508812795
 42
50.0
 43
0.0
 44
0.0
 50
0.0
 51
0.0
 71
     0
 72
   100
 73
     1
 74
     3
 75
     0
 76
     0
 77
     0
 78
     0
281
     0
 65
     1
110
0.0
120
0.0
130
0.0
111
1.0
121
0.0
131
0.0
112
0.0
122
1.0
132
0.0
 79
     0
146
0.0
 60
     3
 61
     5
292
     1
282
     1
141
0.0
142
0.0
 63
   250
361
3F
  0
ENDTAB
  0
TABLE
  2
LTYPE
  5
5
330
0
100
AcDbSymbolTable
 70
     1
  0
LTYPE
  5
14
330
5
100
AcDbSymbolTableRecord
100
AcDbLinetypeTableRecord
  2
ByBlock
 70
     0
  3

 72
    65
 73
     0
 40
0.0
  0
LTYPE
  5
15
330
5
100
AcDbSymbolTableRecord
100
AcDbLinetypeTableRecord
  2
ByLayer
 70
     0
  3

 72
    65
 73
     0
 40
0.0
  0
LTYPE
  5
16
330
5
100
AcDbSymbolTableRecord
100
AcDbLinetypeTableRecord
  2
Continuous
 70
     0
  3
Solid line
 72
    65
 73
     0
 40
0.0
  0
ENDTAB
  0
TABLE
  2
LAYER
  5
2
330
0
100
AcDbSymbolTable
 70
     2
  0
LAYER
  5
10
330
2
100
AcDbSymbolTableRecord
100
AcDbLayerTableRecord
  2
0
 70
     0
 62
     7
  6
Continuous
370
    -3
390
F
347
3E
  0
LAYER
  5
40
330
2
100
AcDbSymbolTableRecord
100
AcDbLayerTableRecord
  2
_U+30EC_U+30A4_U+30E4_U+30FC 1
 70
     0
 62
     7
  6
Continuous
370
    -3
390
F
347
3E
  0
ENDTAB
  0
TABLE
  2
STYLE
  5
3
330
0
100
AcDbSymbolTable
 70
     1
  0
STYLE
  5
11
330
3
100
AcDbSymbolTableRecord
100
AcDbTextStyleTableRecord
  2
Standard
 70
     0
 40
0.0
 41
1.0
 50
0.0
 71
     0
 42
0.2
  3
txt
  4

  0
ENDTAB
  0
TABLE
  2
VIEW
  5
6
330
0
100
AcDbSymbolTable
 70
     0
  0
ENDTAB
  0
TABLE
  2
UCS
  5
7
330
0
100
AcDbSymbolTable
 70
     0
  0
ENDTAB
  0
TABLE
  2
APPID
  5
9
330
0
100
AcDbSymbolTable
 70
     1
  0
APPID
  5
12
330
9
100
AcDbSymbolTableRecord
100
AcDbRegAppTableRecord
  2
ACAD
 70
     0
  0
ENDTAB
  0
TABLE
  2
DIMSTYLE
  5
A
330
0
100
AcDbSymbolTable
 70
     1
100
AcDbDimStyleTable
  0
DIMSTYLE
105
27
330
A
100
AcDbSymbolTableRecord
100
AcDbDimStyleTableRecord
  2
Standard
 70
     0
178
     0
340
11
  0
ENDTAB
  0
TABLE
  2
BLOCK_RECORD
  5
1
330
0
100
AcDbSymbolTable
 70
     5
  0
BLOCK_RECORD
  5
1F
330
1
100
AcDbSymbolTableRecord
100
AcDbBlockTableRecord
  2
*Model_Space
340
22
 70
     0
280
     1
281
     0
  0
BLOCK_RECORD
  5
1B
330
1
100
AcDbSymbolTableRecord
100
AcDbBlockTableRecord
  2
*Paper_Space
340
1E
 70
     0
280
     1
281
     0
  0
BLOCK_RECORD
  5
23
330
1
100
AcDbSymbolTableRecord
100
AcDbBlockTableRecord
  2
*Paper_Space0
340
26
 70
     0
280
     1
281
     0
  0
BLOCK_RECORD
  5
41
330
1
100
AcDbSymbolTableRecord
100
AcDbBlockTableRecord
  2
block 2
340
0
102
{BLKREFS
331
42
102
}
 70
     0
280
     1
281
     0
  0
BLOCK_RECORD
  5
156
330
1
100
AcDbSymbolTableRecord
100
AcDbBlockTableRecord
  2
block 3
340
0
102
{BLKREFS
331
157
102
}
 70
     0
280
     1
281
     0
  0
BLOCK_RECORD
  5
169
330
1
100
AcDbSymbolTableRecord
100
AcDbBlockTableRecord
  2
block 4
340
0
102
{BLKREFS
331
16A
102
}
 70
     0
280
     1
281
     0
  0
BLOCK_RECORD
  5
189
330
1
100
AcDbSymbolTableRecord
100
AcDbBlockTableRecord
  2
block 5
340
0
102
{BLKREFS
331
18A
102
}
 70
     0
280
     1
281
     0
  0
ENDTAB
  0
ENDSEC
  0
SECTION
  2
BLOCKS
  0
BLOCK
  5
20
330
1F
100
AcDbEntity
  8
0
100
AcDbBlockBegin
  2
*Model_Space
 70
     0
 10
0.0
 20
0.0
 30
0.0
  3
*Model_Space
  1

  0
ENDBLK
  5
21
330
1F
100
AcDbEntity
  8
0
100
AcDbBlockEnd
  0
BLOCK
  5
1C
330
1B
100
AcDbEntity
 67
     1
  8
0
100
AcDbBlockBegin
  2
*Paper_Space
 70
     0
 10
0.0
 20
0.0
 30
0.0
  3
*Paper_Space
  1

  0
ENDBLK
  5
1D
330
1B
100
AcDbEntity
 67
     1
  8
0
100
AcDbBlockEnd
  0
BLOCK
  5
24
330
23
100
AcDbEntity
  8
0
100
AcDbBlockBegin
  2
*Paper_Space0
 70
     0
 10
0.0
 20
0.0
 30
0.0
  3
*Paper_Space0
  1

  0
ENDBLK
  5
25
330
23
100
AcDbEntity
  8
0
100
AcDbBlockEnd
  0
BLOCK
  5
43
330
41
100
AcDbEntity
  8
0
100
AcDbBlockBegin
  2
block 2
 70
     0
 10
0.0
 20
0.0
 30
0.0
  3
block 2
  1

  0
SPLINE
  5
45
330
41
100
AcDbEntity
  8
_U+30EC_U+30A4_U+30E4_U+30FC 1
370
     0
100
AcDbSpline
210
0.0
220
0.0
230
1.0
 70
    11
 71
     3
 72
    68
 73
    64
 74
     0
 42
0.0000000001
 43
0.0000000001
 12
1.0
 22
0.0
 32
0.0
 13
1.0
 23
0.0
 33
0.0
 40
0.0
 40
0.0
 40
0.0
 40
0.0
 40
1.0
 40
1.0
 40
1.0
 40
2.0
 40
2.0
 40
2.0
 40
3.0
 40
3.0
 40
3.0
 40
4.0
 40
4.0
 40
4.0
 40
5.0
 40
5.0
 40
5.0
 40
6.0
 40
6.0
 40
6.0
 40
7.0
 40
7.0
 40
7.0
 40
8.0
 40
8.0
 40
8.0
 40
9.0
 40
9.0
 40
9.0
 40
10.0
 40
10.0
 40
10.0
 40
11.0
 40
11.0
 40
11.0
 40
12.0
 40
12.0
 40
12.0
 40
13.0
 40
13.0
 40
13.0
 40
14.0
 40
14.0
 40
14.0
 40
15.0
 40
15.0
 40
15.0
 40
16.0
 40
16.0
 40
16.0
 40
17.0
 40
17.0
 40
17.0
 40
18.0
 40
18.0
 40
18.0
 40
19.0
 40
19.0
 40
19.0
 40
20.0
 40
20.0
 40
20.0
 40
21.0
 40
21.0
 40
21.0
 40
21.0
 10
75.15613604891931
 20
-118.0000325225833
 30
0.0
 10
75.15613604891931
 20
-118.0000325225833
 30
0.0
 10
75.15613604891931
 20
-118.23671058242
 30
0.0
 10
75.15613604891931
 20
-118.23671058242
 30
0.0
 10
75.15613604891931
 20
-118.23671058242
 30
0.0
 10
73.94604625972529
 20
-118.23671058242
 30
0.0
 10
73.94604625972529
 20
-118.23671058242
 30
0.0
 10
73.94604625972529
 20
-118.23671058242
 30
0.0
 10
73.94604625972529
 20
-118.8178981907816
 30
0.0
 10
73.94604625972529
 20
-118.8178981907816
 30
0.0
 10
73.94604625972529
 20
-118.8178981907816
 30
0.0
 10
75.30289711659094
 20
-118.8178981907816
 30
0.0
 10
75.30289711659094
 20
-118.8178981907816
 30
0.0
 10
75.30289711659094
 20
-118.8178981907816
 30
0.0
 10
75.30289711659094
 20
-119.0549207601668
 30
0.0
 10
75.30289711659094
 20
-119.0549207601668
 30
0.0
 10
75.30289711659094
 20
-119.0549207601668
 30
0.0
 10
73.94604625972529
 20
-119.0549207601668
 30
0.0
 10
73.94604625972529
 20
-119.0549207601668
 30
0.0
 10
73.94604625972529
 20
-119.0549207601668
 30
0.0
 10
73.94604625972529
 20
-119.8107747096306
 30
0.0
 10
73.94604625972529
 20
-119.8107747096306
 30
0.0
 10
73.94604625972529
 20
-119.9206732556101
 30
0.0
 10
73.94604625972529
 20
-119.9602918536905
 30
0.0
 10
74.11537270282533
 20
-119.9602918536905
 30
0.0
 10
74.11537270282533
 20
-119.9602918536905
 30
0.0
 10
74.64850122916774
 20
-119.9602918536905
 30
0.0
 10
74.64850122916774
 20
-119.9602918536905
 30
0.0
 10
74.77528074302494
 20
-119.9602918536905
 30
0.0
 10
74.83746471653369
 20
-119.9602918536905
 30
0.0
 10
75.19558239222542
 20
-119.9489230385892
 30
0.0
 10
75.19558239222542
 20
-119.9489230385892
 30
0.0
 10
75.17301701679703
 20
-120.2000704994639
 30
0.0
 10
75.17301701679703
 20
-120.2000704994639
 30
0.0
 10
75.17301701679703
 20
-120.2000704994639
 30
0.0
 10
74.08143851229562
 20
-120.2028265758521
 30
0.0
 10
74.08143851229562
 20
-120.2028265758521
 30
0.0
 10
73.79652911566545
 20
-120.2028265758521
 30
0.0
 10
73.68370223852352
 20
-120.0560655081804
 30
0.0
 10
73.68370223852352
 20
-119.8869113198547
 30
0.0
 10
73.68370223852352
 20
-119.8869113198547
 30
0.0
 10
73.68370223852352
 20
-119.0549207601668
 30
0.0
 10
73.68370223852352
 20
-119.0549207601668
 30
0.0
 10
73.68370223852352
 20
-119.0549207601668
 30
0.0
 10
72.88271753820294
 20
-119.0549207601668
 30
0.0
 10
72.88271753820294
 20
-119.0549207601668
 30
0.0
 10
72.88271753820294
 20
-119.0549207601668
 30
0.0
 10
72.88271753820294
 20
-118.8178981907816
 30
0.0
 10
72.88271753820294
 20
-118.8178981907816
 30
0.0
 10
72.88271753820294
 20
-118.8178981907816
 30
0.0
 10
73.68370223852352
 20
-118.8178981907816
 30
0.0
 10
73.68370223852352
 20
-118.8178981907816
 30
0.0
 10
73.68370223852352
 20
-118.8178981907816
 30
0.0
 10
73.68370223852352
 20
-118.23671058242
 30
0.0
 10
73.68370223852352
 20
-118.23671058242
 30
0.0
 10
73.68370223852352
 20
-118.23671058242
 30
0.0
 10
73.00122882289553
 20
-118.23671058242
 30
0.0
 10
73.00122882289553
 20
-118.23671058242
 30
0.0
 10
73.00122882289553
 20
-118.23671058242
 30
0.0
 10
73.00122882289553
 20
-118.0000325225833
 30
0.0
 10
73.00122882289553
 20
-118.0000325225833
 30
0.0
 10
73.00122882289553
 20
-118.0000325225833
 30
0.0
 10
75.15613604891931
 20
-118.0000325225833
 30
0.0
 10
75.15613604891931
 20
-118.0000325225833
 30
0.0
  0
HATCH
  5
46
330
41
100
AcDbEntity
  8
_U+30EC_U+30A4_U+30E4_U+30FC 1
 62
   179
420
  2234388
100
AcDbHatch
 10
0.0
 20
0.0
 30
0.0
210
0.0
220
0.0
230
1.0
  2
SOLID
 70
     1
 71
     0
 91
        1
 92
        1
 93
        1
 72
     4
 94
        3
 73
     0
 74
     1
 95
       68
 96
       64
 40
0.0
 40
0.0
 40
0.0
 40
0.0
 40
1.0
 40
1.0
 40
1.0
 40
2.0
 40
2.0
 40
2.0
 40
3.0
 40
3.0
 40
3.0
 40
4.0
 40
4.0
 40
4.0
 40
5.0
 40
5.0
 40
5.0
 40
6.0
 40
6.0
 40
6.0
 40
7.0
 40
7.0
 40
7.0
 40
8.0
 40
8.0
 40
8.0
 40
9.0
 40
9.0
 40
9.0
 40
10.0
 40
10.0
 40
10.0
 40
11.0
 40
11.0
 40
11.0
 40
12.0
 40
12.0
 40
12.0
 40
13.0
 40
13.0
 40
13.0
 40
14.0
 40
14.0
 40
14.0
 40
15.0
 40
15.0
 40
15.0
 40
16.0
 40
16.0
 40
16.0
 40
17.0
 40
17.0
 40
17.0
 40
18.0
 40
18.0
 40
18.0
 40
19.0
 40
19.0
 40
19.0
 40
20.0
 40
20.0
 40
20.0
 40
21.0
 40
21.0
 40
21.0
 40
21.0
 10
75.15613604891931
 20
-118.0000325225833
 10
75.15613604891931
 20
-118.0000325225833
 10
75.15613604891931
 20
-118.23671058242
 10
75.15613604891931
 20
-118.23671058242
 10
75.15613604891931
 20
-118.23671058242
 10
73.94604625972529
 20
-118.23671058242
 10
73.94604625972529
 20
-118.23671058242
 10
73.94604625972529
 20
-118.23671058242
 10
73.94604625972529
 20
-118.8178981907816
 10
73.94604625972529
 20
-118.8178981907816
 10
73.94604625972529
 20
-118.8178981907816
 10
75.30289711659094
 20
-118.8178981907816
 10
75.30289711659094
 20
-118.8178981907816
 10
75.30289711659094
 20
-118.8178981907816
 10
75.30289711659094
 20
-119.0549207601668
 10
75.30289711659094
 20
-119.0549207601668
 10
75.30289711659094
 20
-119.0549207601668
 10
73.94604625972529
 20
-119.0549207601668
 10
73.94604625972529
 20
-119.0549207601668
 10
73.94604625972529
 20
-119.0549207601668
 10
73.94604625972529
 20
-119.8107747096306
 10
73.94604625972529
 20
-119.8107747096306
 10
73.94604625972529
 20
-119.9206732556101
 10
73.94604625972529
 20
-119.9602918536905
 10
74.11537270282533
 20
-119.9602918536905
 10
74.11537270282533
 20
-119.9602918536905
 10
74.64850122916774
 20
-119.9602918536905
 10
74.64850122916774
 20
-119.9602918536905
 10
74.77528074302494
 20
-119.9602918536905
 10
74.83746471653369
 20
-119.9602918536905
 10
75.19558239222542
 20
-119.9489230385892
 10
75.19558239222542
 20
-119.9489230385892
 10
75.17301701679703
 20
-120.2000704994639
 10
75.17301701679703
 20
-120.2000704994639
 10
75.17301701679703
 20
-120.2000704994639
 10
74.08143851229562
 20
-120.2028265758521
 10
74.08143851229562
 20
-120.2028265758521
 10
73.79652911566545
 20
-120.2028265758521
 10
73.68370223852352
 20
-120.0560655081804
 10
73.68370223852352
 20
-119.8869113198547
 10
73.68370223852352
 20
-119.8869113198547
 10
73.68370223852352
 20
-119.0549207601668
 10
73.68370223852352
 20
-119.0549207601668
 10
73.68370223852352
 20
-119.0549207601668
 10
72.88271753820294
 20
-119.0549207601668
 10
72.88271753820294
 20
-119.0549207601668
 10
72.88271753820294
 20
-119.0549207601668
 10
72.88271753820294
 20
-118.8178981907816
 10
72.88271753820294
 20
-118.8178981907816
 10
72.88271753820294
 20
-118.8178981907816
 10
73.68370223852352
 20
-118.8178981907816
 10
73.68370223852352
 20
-118.8178981907816
 10
73.68370223852352
 20
-118.8178981907816
 10
73.68370223852352
 20
-118.23671058242
 10
73.68370223852352
 20
-118.23671058242
 10
73.68370223852352
 20
-118.23671058242
 10
73.00122882289553
 20
-118.23671058242
 10
73.00122882289553
 20
-118.23671058242
 10
73.00122882289553
 20
-118.23671058242
 10
73.00122882289553
 20
-118.0000325225833
 10
73.00122882289553
 20
-118.0000325225833
 10
73.00122882289553
 20
-118.0000325225833
 10
75.15613604891931
 20
-118.0000325225833
 10
75.15613604891931
 20
-118.0000325225833
 97
        0
 97
        0
 75
     2
 76
     1
 98
        0
  0
SPLINE
  5
47
330
41
100
AcDbEntity
  8
_U+30EC_U+30A4_U+30E4_U+30FC 1
370
     0
100
AcDbSpline
210
0.0
220
0.0
230
1.0
 70
    11
 71
     3
 72
    29
 73
    25
 74
     0
 42
0.0000000001
 43
0.0000000001
 12
1.0
 22
0.0
 32
0.0
 13
1.0
 23
0.0
 33
0.0
 40
0.0
 40
0.0
 40
0.0
 40
0.0
 40
1.0
 40
1.0
 40
1.0
 40
2.0
 40
2.0
 40
2.0
 40
3.0
 40
3.0
 40
3.0
 40
4.0
 40
4.0
 40
4.0
 40
5.0
 40
5.0
 40
5.0
 40
6.0
 40
6.0
 40
6.0
 40
7.0
 40
7.0
 40
7.0
 40
8.0
 40
8.0
 40
8.0
 40
8.0
 10
76.42565373523387
 20
-117.8164089332195
 30
0.0
 10
76.42565373523387
 20
-117.8164089332195
 30
0.0
 10
76.42565373523387
 20
-118.5639946535187
 30
0.0
 10
76.42565373523387
 20
-118.5639946535187
 30
0.0
 10
76.9334608097597
 20
-118.7162678739668
 30
0.0
 10
77.46366100493964
 20
-118.9646592584533
 30
0.0
 10
77.85295679477288
 20
-119.181700274024
 30
0.0
 10
77.85295679477288
 20
-119.181700274024
 30
0.0
 10
77.73168943369208
 20
-119.4497287027765
 30
0.0
 10
77.73168943369208
 20
-119.4497287027765
 30
0.0
 10
77.33119708353179
 20
-119.2013373182899
 30
0.0
 10
76.85715194476141
 20
-118.9729274876179
 30
0.0
 10
76.42565373523387
 20
-118.8265109294948
 30
0.0
 10
76.42565373523387
 20
-118.8265109294948
 30
0.0
 10
76.42565373523387
 20
-120.3044568926669
 30
0.0
 10
76.42565373523387
 20
-120.3044568926669
 30
0.0
 10
76.42565373523387
 20
-120.3044568926669
 30
0.0
 10
76.15486923009323
 20
-120.3044568926669
 30
0.0
 10
76.15486923009323
 20
-120.3044568926669
 30
0.0
 10
76.15486923009323
 20
-120.3044568926669
 30
0.0
 10
76.15486923009323
 20
-117.8164089332195
 30
0.0
 10
76.15486923009323
 20
-117.8164089332195
 30
0.0
 10
76.15486923009323
 20
-117.8164089332195
 30
0.0
 10
76.42565373523387
 20
-117.8164089332195
 30
0.0
 10
76.42565373523387
 20
-117.8164089332195
 30
0.0
  0
SPLINE
  5
48
330
41
100
AcDbEntity
  8
_U+30EC_U+30A4_U+30E4_U+30FC 1
370
     0
100
AcDbSpline
210
0.0
220
0.0
230
1.0
 70
    11
 71
     3
 72
    17
 73
    13
 74
     0
 42
0.0000000001
 43
0.0000000001
 12
1.0
 22
0.0
 32
0.0
 13
1.0
 23
0.0
 33
0.0
 40
0.0
 40
0.0
 40
0.0
 40
0.0
 40
1.0
 40
1.0
 40
1.0
 40
2.0
 40
2.0
 40
2.0
 40
3.0
 40
3.0
 40
3.0
 40
4.0
 40
4.0
 40
4.0
 40
4.0
 10
77.36220294289903
 20
-118.4344590632733
 30
0.0
 10
77.33119708353179
 20
-118.3610785294375
 30
0.0
 10
77.26625703363483
 20
-118.2170735381541
 30
0.0
 10
77.12793644990205
 20
-118.0027885989715
 30
0.0
 10
77.12793644990205
 20
-118.0027885989715
 30
0.0
 10
77.30845945332914
 20
-117.912527097258
 30
0.0
 10
77.30845945332914
 20
-117.912527097258
 30
0.0
 10
77.34239364385886
 20
-117.9631700008912
 30
0.0
 10
77.46090492855144
 20
-118.1354247751537
 30
0.0
 10
77.54823809910253
 20
-118.3383408992349
 30
0.0
 10
77.54823809910253
 20
-118.3383408992349
 30
0.0
 10
77.36220294289903
 20
-118.4344590632733
 30
0.0
 10
77.36220294289903
 20
-118.4344590632733
 30
0.0
  0
SPLINE
  5
49
330
41
100
AcDbEntity
  8
_U+30EC_U+30A4_U+30E4_U+30FC 1
370
     0
100
AcDbSpline
210
0.0
220
0.0
230
1.0
 70
    11
 71
     3
 72
    17
 73
    13
 74
     0
 42
0.0000000001
 43
0.0000000001
 12
1.0
 22
0.0
 32
0.0
 13
1.0
 23
0.0
 33
0.0
 40
0.0
 40
0.0
 40
0.0
 40
0.0
 40
1.0
 40
1.0
 40
1.0
 40
2.0
 40
2.0
 40
2.0
 40
3.0
 40
3.0
 40
3.0
 40
4.0
 40
4.0
 40
4.0
 40
4.0
 10
77.73168943369208
 20
-118.2876979956017
 30
0.0
 10
77.67518986773399
 20
-118.1636745581327
 30
0.0
 10
77.61317814899948
 20
-118.0420626875034
 30
0.0
 10
77.50035127185755
 20
-117.8701524227894
 30
0.0
 10
77.50035127185755
 20
-117.8701524227894
 30
0.0
 10
77.67243379134578
 20
-117.7826469974641
 30
0.0
 10
77.67243379134578
 20
-117.7826469974641
 30
0.0
 10
77.78801674487592
 20
-117.9376762943003
 30
0.0
 10
77.86415335509994
 20
-118.0789252091955
 30
0.0
 10
77.91496851350738
 20
-118.1833116023986
 30
0.0
 10
77.91496851350738
 20
-118.1833116023986
 30
0.0
 10
77.73168943369208
 20
-118.2876979956017
 30
0.0
 10
77.73168943369208
 20
-118.2876979956017
 30
0.0
  0
HATCH
  5
4A
330
41
100
AcDbEntity
  8
_U+30EC_U+30A4_U+30E4_U+30FC 1
 62
   179
420
  2234388
100
AcDbHatch
 10
0.0
 20
0.0
 30
0.0
210
0.0
220
0.0
230
1.0
  2
SOLID
 70
     1
 71
     0
 91
        3
 92
        1
 93
        1
 72
     4
 94
        3
 73
     0
 74
     1
 95
       29
 96
       25
 40
0.0
 40
0.0
 40
0.0
 40
0.0
 40
1.0
 40
1.0
 40
1.0
 40
2.0
 40
2.0
 40
2.0
 40
3.0
 40
3.0
 40
3.0
 40
4.0
 40
4.0
 40
4.0
 40
5.0
 40
5.0
 40
5.0
 40
6.0
 40
6.0
 40
6.0
 40
7.0
 40
7.0
 40
7.0
 40
8.0
 40
8.0
 40
8.0
 40
8.0
 10
76.42565373523387
 20
-117.8164089332195
 10
76.42565373523387
 20
-117.8164089332195
 10
76.42565373523387
 20
-118.5639946535187
 10
76.42565373523387
 20
-118.5639946535187
 10
76.9334608097597
 20
-118.7162678739668
 10
77.46366100493964
 20
-118.9646592584533
 10
77.85295679477288
 20
-119.181700274024
 10
77.85295679477288
 20
-119.181700274024
 10
77.73168943369208
 20
-119.4497287027765
 10
77.73168943369208
 20
-119.4497287027765
 10
77.33119708353179
 20
-119.2013373182899
 10
76.85715194476141
 20
-118.9729274876179
 10
76.42565373523387
 20
-118.8265109294948
 10
76.42565373523387
 20
-118.8265109294948
 10
76.42565373523387
 20
-120.3044568926669
 10
76.42565373523387
 20
-120.3044568926669
 10
76.42565373523387
 20
-120.3044568926669
 10
76.15486923009323
 20
-120.3044568926669
 10
76.15486923009323
 20
-120.3044568926669
 10
76.15486923009323
 20
-120.3044568926669
 10
76.15486923009323
 20
-117.8164089332195
 10
76.15486923009323
 20
-117.8164089332195
 10
76.15486923009323
 20
-117.8164089332195
 10
76.42565373523387
 20
-117.8164089332195
 10
76.42565373523387
 20
-117.8164089332195
 97
        0
 97
        0
 92
        1
 93
        1
 72
     4
 94
        3
 73
     0
 74
     1
 95
       17
 96
       13
 40
0.0
 40
0.0
 40
0.0
 40
0.0
 40
1.0
 40
1.0
 40
1.0
 40
2.0
 40
2.0
 40
2.0
 40
3.0
 40
3.0
 40
3.0
 40
4.0
 40
4.0
 40
4.0
 40
4.0
 10
77.36220294289903
 20
-118.4344590632733
 10
77.33119708353179
 20
-118.3610785294375
 10
77.26625703363483
 20
-118.2170735381541
 10
77.12793644990205
 20
-118.0027885989715
 10
77.12793644990205
 20
-118.0027885989715
 10
77.30845945332914
 20
-117.912527097258
 10
77.30845945332914
 20
-117.912527097258
 10
77.34239364385886
 20
-117.9631700008912
 10
77.46090492855144
 20
-118.1354247751537
 10
77.54823809910253
 20
-118.3383408992349
 10
77.54823809910253
 20
-118.3383408992349
 10
77.36220294289903
 20
-118.4344590632733
 10
77.36220294289903
 20
-118.4344590632733
 97
        0
 97
        0
 92
        1
 93
        1
 72
     4
 94
        3
 73
     0
 74
     1
 95
       17
 96
       13
 40
0.0
 40
0.0
 40
0.0
 40
0.0
 40
1.0
 40
1.0
 40
1.0
 40
2.0
 40
2.0
 40
2.0
 40
3.0
 40
3.0
 40
3.0
 40
4.0
 40
4.0
 40
4.0
 40
4.0
 10
77.73168943369208
 20
-118.2876979956017
 10
77.67518986773399
 20
-118.1636745581327
 10
77.61317814899948
 20
-118.0420626875034
 10
77.50035127185755
 20
-117.8701524227894
 10
77.50035127185755
 20
-117.8701524227894
 10
77.67243379134578
 20
-117.7826469974641
 10
77.67243379134578
 20
-117.7826469974641
 10
77.78801674487592
 20
-117.9376762943003
 10
77.86415335509994
 20
-118.0789252091955
 10
77.91496851350738
 20
-118.1833116023986
 10
77.91496851350738
 20
-118.1833116023986
 10
77.73168943369208
 20
-118.2876979956017
 10
77.73168943369208
 20
-118.2876979956017
 97
        0
 97
        0
 75
     2
 76
     1
 98
        0
  0
SPLINE
  5
4B
330
41
100
AcDbEntity
  8
_U+30EC_U+30A4_U+30E4_U+30FC 1
370
     0
100
AcDbSpline
210
0.0
220
0.0
230
1.0
 70
    11
 71
     3
 72
    29
 73
    25
 74
     0
 42
0.0000000001
 43
0.0000000001
 12
1.0
 22
0.0
 32
0.0
 13
1.0
 23
0.0
 33
0.0
 40
0.0
 40
0.0
 40
0.0
 40
0.0
 40
1.0
 40
1.0
 40
1.0
 40
2.0
 40
2.0
 40
2.0
 40
3.0
 40
3.0
 40
3.0
 40
4.0
 40
4.0
 40
4.0
 40
5.0
 40
5.0
 40
5.0
 40
6.0
 40
6.0
 40
6.0
 40
7.0
 40
7.0
 40
7.0
 40
8.0
 40
8.0
 40
8.0
 40
8.0
 10
79.01223142555945
 20
-117.8164089332195
 30
0.0
 10
79.01223142555945
 20
-117.8164089332195
 30
0.0
 10
79.01223142555945
 20
-118.5639946535187
 30
0.0
 10
79.01223142555945
 20
-118.5639946535187
 30
0.0
 10
79.64699026871673
 20
-118.7417615805576
 30
0.0
 10
80.10380993006086
 20
-118.9898084554956
 30
0.0
 10
80.45073104542551
 20
-119.1930690891253
 30
0.0
 10
80.45073104542551
 20
-119.1930690891253
 30
0.0
 10
80.3153387928552
 20
-119.4442165500001
 30
0.0
 10
80.3153387928552
 20
-119.4442165500001
 30
0.0
 10
79.80201956555297
 20
-119.1365695231673
 30
0.0
 10
79.52003850008528
 20
-119.0011772705969
 30
0.0
 10
79.01223142555945
 20
-118.8265109294948
 30
0.0
 10
79.01223142555945
 20
-118.8265109294948
 30
0.0
 10
79.01223142555945
 20
-120.3044568926669
 30
0.0
 10
79.01223142555945
 20
-120.3044568926669
 30
0.0
 10
79.01223142555945
 20
-120.3044568926669
 30
0.0
 10
78.74144692041881
 20
-120.3044568926669
 30
0.0
 10
78.74144692041881
 20
-120.3044568926669
 30
0.0
 10
78.74144692041881
 20
-120.3044568926669
 30
0.0
 10
78.74144692041881
 20
-117.8164089332195
 30
0.0
 10
78.74144692041881
 20
-117.8164089332195
 30
0.0
 10
78.74144692041881
 20
-117.8164089332195
 30
0.0
 10
79.01223142555945
 20
-117.8164089332195
 30
0.0
 10
79.01223142555945
 20
-117.8164089332195
 30
0.0
  0
HATCH
  5
4C
330
41
100
AcDbEntity
  8
_U+30EC_U+30A4_U+30E4_U+30FC 1
 62
   179
420
  2234388
100
AcDbHatch
 10
0.0
 20
0.0
 30
0.0
210
0.0
220
0.0
230
1.0
  2
SOLID
 70
     1
 71
     0
 91
        1
 92
        1
 93
        1
 72
     4
 94
        3
 73
     0
 74
     1
 95
       29
 96
       25
 40
0.0
 40
0.0
 40
0.0
 40
0.0
 40
1.0
 40
1.0
 40
1.0
 40
2.0
 40
2.0
 40
2.0
 40
3.0
 40
3.0
 40
3.0
 40
4.0
 40
4.0
 40
4.0
 40
5.0
 40
5.0
 40
5.0
 40
6.0
 40
6.0
 40
6.0
 40
7.0
 40
7.0
 40
7.0
 40
8.0
 40
8.0
 40
8.0
 40
8.0
 10
79.01223142555945
 20
-117.8164089332195
 10
79.01223142555945
 20
-117.8164089332195
 10
79.01223142555945
 20
-118.5639946535187
 10
79.01223142555945
 20
-118.5639946535187
 10
79.64699026871673
 20
-118.7417615805576
 10
80.10380993006086
 20
-118.9898084554956
 10
80.45073104542551
 20
-119.1930690891253
 10
80.45073104542551
 20
-119.1930690891253
 10
80.3153387928552
 20
-119.4442165500001
 10
80.3153387928552
 20
-119.4442165500001
 10
79.80201956555297
 20
-119.1365695231673
 10
79.52003850008528
 20
-119.0011772705969
 10
79.01223142555945
 20
-118.8265109294948
 10
79.01223142555945
 20
-118.8265109294948
 10
79.01223142555945
 20
-120.3044568926669
 10
79.01223142555945
 20
-120.3044568926669
 10
79.01223142555945
 20
-120.3044568926669
 10
78.74144692041881
 20
-120.3044568926669
 10
78.74144692041881
 20
-120.3044568926669
 10
78.74144692041881
 20
-120.3044568926669
 10
78.74144692041881
 20
-117.8164089332195
 10
78.74144692041881
 20
-117.8164089332195
 10
78.74144692041881
 20
-117.8164089332195
 10
79.01223142555945
 20
-117.8164089332195
 10
79.01223142555945
 20
-117.8164089332195
 97
        0
 97
        0
 75
     2
 76
     1
 98
        0
  0
SPLINE
  5
4D
330
41
100
AcDbEntity
  8
_U+30EC_U+30A4_U+30E4_U+30FC 1
370
     0
100
AcDbSpline
210
0.0
220
0.0
230
1.0
 70
    11
 71
     3
 72
    23
 73
    19
 74
     0
 42
0.0000000001
 43
0.0000000001
 12
1.0
 22
0.0
 32
0.0
 13
1.0
 23
0.0
 33
0.0
 40
0.0
 40
0.0
 40
0.0
 40
0.0
 40
1.0
 40
1.0
 40
1.0
 40
2.0
 40
2.0
 40
2.0
 40
3.0
 40
3.0
 40
3.0
 40
4.0
 40
4.0
 40
4.0
 40
5.0
 40
5.0
 40
5.0
 40
6.0
 40
6.0
 40
6.0
 40
6.0
 10
83.09225800874083
 20
-118.6118814807637
 30
0.0
 10
82.99355602308842
 20
-119.4779784857555
 30
0.0
 10
82.67195635954035
 20
-120.1211778128517
 30
0.0
 10
81.25602211510267
 20
-120.2648382945866
 30
0.0
 10
81.25602211510267
 20
-120.2648382945866
 30
0.0
 10
81.1516357218996
 20
-120.0309163111381
 30
0.0
 10
81.1516357218996
 20
-120.0309163111381
 30
0.0
 10
81.97518579764856
 20
-119.9547797009141
 30
0.0
 10
82.65214706050016
 20
-119.7460069145079
 30
0.0
 10
82.79322372062114
 20
-118.8489040501489
 30
0.0
 10
82.79322372062114
 20
-118.8489040501489
 30
0.0
 10
80.815911166862
 20
-118.8489040501489
 30
0.0
 10
80.815911166862
 20
-118.8489040501489
 30
0.0
 10
80.815911166862
 20
-118.8489040501489
 30
0.0
 10
80.815911166862
 20
-118.6118814807637
 30
0.0
 10
80.815911166862
 20
-118.6118814807637
 30
0.0
 10
80.815911166862
 20
-118.6118814807637
 30
0.0
 10
83.09225800874083
 20
-118.6118814807637
 30
0.0
 10
83.09225800874083
 20
-118.6118814807637
 30
0.0
  0
POLYLINE
  5
4E
330
41
100
AcDbEntity
  8
_U+30EC_U+30A4_U+30E4_U+30FC 1
370
     0
100
AcDb2dPolyline
 66
     1
 10
0.0
 20
0.0
 30
0.0
  0
VERTEX
  5
4F
330
4E
100
AcDbEntity
  8
_U+30EC_U+30A4_U+30E4_U+30FC 1
370
     0
100
AcDbVertex
100
AcDb2dVertex
 10
82.93430038074213
 20
-117.9376762943003
 30
0.0
  0
VERTEX
  5
50
330
4E
100
AcDbEntity
  8
_U+30EC_U+30A4_U+30E4_U+30FC 1
370
     0
100
AcDbVertex
100
AcDb2dVertex
 10
82.93430038074213
 20
-118.1746988636855
 30
0.0
  0
VERTEX
  5
51
330
4E
100
AcDbEntity
  8
_U+30EC_U+30A4_U+30E4_U+30FC 1
370
     0
100
AcDbVertex
100
AcDb2dVertex
 10
81.01899954571748
 20
-118.1746988636855
 30
0.0
  0
VERTEX
  5
52
330
4E
100
AcDbEntity
  8
_U+30EC_U+30A4_U+30E4_U+30FC 1
370
     0
100
AcDbVertex
100
AcDb2dVertex
 10
81.01899954571748
 20
-117.9376762943003
 30
0.0
  0
VERTEX
  5
53
330
4E
100
AcDbEntity
  8
_U+30EC_U+30A4_U+30E4_U+30FC 1
370
     0
100
AcDbVertex
100
AcDb2dVertex
 10
82.93430038074213
 20
-117.9376762943003
 30
0.0
  0
SEQEND
  5
54
330
4E
100
AcDbEntity
  8
_U+30EC_U+30A4_U+30E4_U+30FC 1
370
     0
  0
HATCH
  5
55
330
41
100
AcDbEntity
  8
_U+30EC_U+30A4_U+30E4_U+30FC 1
 62
   179
420
  2234388
100
AcDbHatch
 10
0.0
 20
0.0
 30
0.0
210
0.0
220
0.0
230
1.0
  2
SOLID
 70
     1
 71
     0
 91
        2
 92
        1
 93
        1
 72
     4
 94
        3
 73
     0
 74
     1
 95
       23
 96
       19
 40
0.0
 40
0.0
 40
0.0
 40
0.0
 40
1.0
 40
1.0
 40
1.0
 40
2.0
 40
2.0
 40
2.0
 40
3.0
 40
3.0
 40
3.0
 40
4.0
 40
4.0
 40
4.0
 40
5.0
 40
5.0
 40
5.0
 40
6.0
 40
6.0
 40
6.0
 40
6.0
 10
83.09225800874083
 20
-118.6118814807637
 10
82.99355602308842
 20
-119.4779784857555
 10
82.67195635954035
 20
-120.1211778128517
 10
81.25602211510267
 20
-120.2648382945866
 10
81.25602211510267
 20
-120.2648382945866
 10
81.1516357218996
 20
-120.0309163111381
 10
81.1516357218996
 20
-120.0309163111381
 10
81.97518579764856
 20
-119.9547797009141
 10
82.65214706050016
 20
-119.7460069145079
 10
82.79322372062114
 20
-118.8489040501489
 10
82.79322372062114
 20
-118.8489040501489
 10
80.815911166862
 20
-118.8489040501489
 10
80.815911166862
 20
-118.8489040501489
 10
80.815911166862
 20
-118.8489040501489
 10
80.815911166862
 20
-118.6118814807637
 10
80.815911166862
 20
-118.6118814807637
 10
80.815911166862
 20
-118.6118814807637
 10
83.09225800874083
 20
-118.6118814807637
 10
83.09225800874083
 20
-118.6118814807637
 97
        0
 97
        0
 92
        1
 93
        4
 72
     1
 10
82.93430038074213
 20
-117.9376762943003
 11
82.93430038074213
 21
-118.1746988636855
 72
     1
 10
82.93430038074213
 20
-118.1746988636855
 11
81.01899954571748
 21
-118.1746988636855
 72
     1
 10
81.01899954571748
 20
-118.1746988636855
 11
81.01899954571748
 21
-117.9376762943003
 72
     1
 10
81.01899954571748
 20
-117.9376762943003
 11
82.93430038074213
 21
-117.9376762943003
 97
        0
 75
     2
 76
     1
 98
        0
  0
SPLINE
  5
56
330
41
100
AcDbEntity
  8
_U+30EC_U+30A4_U+30E4_U+30FC 1
370
     0
100
AcDbSpline
210
0.0
220
0.0
230
1.0
 70
    11
 71
     3
 72
    35
 73
    31
 74
     0
 42
0.0000000001
 43
0.0000000001
 12
1.0
 22
0.0
 32
0.0
 13
1.0
 23
0.0
 33
0.0
 40
0.0
 40
0.0
 40
0.0
 40
0.0
 40
1.0
 40
1.0
 40
1.0
 40
2.0
 40
2.0
 40
2.0
 40
3.0
 40
3.0
 40
3.0
 40
4.0
 40
4.0
 40
4.0
 40
5.0
 40
5.0
 40
5.0
 40
6.0
 40
6.0
 40
6.0
 40
7.0
 40
7.0
 40
7.0
 40
8.0
 40
8.0
 40
8.0
 40
9.0
 40
9.0
 40
9.0
 40
10.0
 40
10.0
 40
10.0
 40
10.0
 10
83.46036646133977
 20
-120.0336723875263
 30
0.0
 10
83.93423934533588
 20
-119.8445366453861
 30
0.0
 10
84.75778942108487
 20
-119.3029676351048
 30
0.0
 10
85.1443291345299
 20
-118.2256862768672
 30
0.0
 10
85.1443291345299
 20
-118.2256862768672
 30
0.0
 10
83.60712752901142
 20
-118.2256862768672
 30
0.0
 10
83.60712752901142
 20
-118.2256862768672
 30
0.0
 10
83.60712752901142
 20
-118.2256862768672
 30
0.0
 10
83.60712752901142
 20
-117.9831515547056
 30
0.0
 10
83.60712752901142
 20
-117.9831515547056
 30
0.0
 10
83.60712752901142
 20
-117.9831515547056
 30
0.0
 10
85.49125024989455
 20
-117.9831515547056
 30
0.0
 10
85.49125024989455
 20
-117.9831515547056
 30
0.0
 10
85.38686385669148
 20
-118.4089653566825
 30
0.0
 10
85.19514429293733
 20
-118.8092854520685
 30
0.0
 10
84.93280027173556
 20
-119.1593071533699
 30
0.0
 10
85.27403697954955
 20
-119.4328477348987
 30
0.0
 10
85.60407712703649
 20
-119.7205132079171
 30
0.0
 10
85.91430797548323
 20
-120.0309163111381
 30
0.0
 10
85.91430797548323
 20
-120.0309163111381
 30
0.0
 10
85.7055351890771
 20
-120.2396890975442
 30
0.0
 10
85.7055351890771
 20
-120.2396890975442
 30
0.0
 10
85.54774981585265
 20
-120.0619221705054
 30
0.0
 10
85.3417331058347
 20
-119.8390244926097
 30
0.0
 10
84.7805270512875
 20
-119.3508544623498
 30
0.0
 10
84.46168346412765
 20
-119.7291259466302
 30
0.0
 10
84.0723876742944
 20
-120.0477972790158
 30
0.0
 10
83.61556801295028
 20
-120.2424451739325
 30
0.0
 10
83.61556801295028
 20
-120.2424451739325
 30
0.0
 10
83.46036646133977
 20
-120.0336723875263
 30
0.0
 10
83.46036646133977
 20
-120.0336723875263
 30
0.0
  0
HATCH
  5
57
330
41
100
AcDbEntity
  8
_U+30EC_U+30A4_U+30E4_U+30FC 1
 62
   179
420
  2234388
100
AcDbHatch
 10
0.0
 20
0.0
 30
0.0
210
0.0
220
0.0
230
1.0
  2
SOLID
 70
     1
 71
     0
 91
        1
 92
        1
 93
        1
 72
     4
 94
        3
 73
     0
 74
     1
 95
       35
 96
       31
 40
0.0
 40
0.0
 40
0.0
 40
0.0
 40
1.0
 40
1.0
 40
1.0
 40
2.0
 40
2.0
 40
2.0
 40
3.0
 40
3.0
 40
3.0
 40
4.0
 40
4.0
 40
4.0
 40
5.0
 40
5.0
 40
5.0
 40
6.0
 40
6.0
 40
6.0
 40
7.0
 40
7.0
 40
7.0
 40
8.0
 40
8.0
 40
8.0
 40
9.0
 40
9.0
 40
9.0
 40
10.0
 40
10.0
 40
10.0
 40
10.0
 10
83.46036646133977
 20
-120.0336723875263
 10
83.93423934533588
 20
-119.8445366453861
 10
84.75778942108487
 20
-119.3029676351048
 10
85.1443291345299
 20
-118.2256862768672
 10
85.1443291345299
 20
-118.2256862768672
 10
83.60712752901142
 20
-118.2256862768672
 10
83.60712752901142
 20
-118.2256862768672
 10
83.60712752901142
 20
-118.2256862768672
 10
83.60712752901142
 20
-117.9831515547056
 10
83.60712752901142
 20
-117.9831515547056
 10
83.60712752901142
 20
-117.9831515547056
 10
85.49125024989455
 20
-117.9831515547056
 10
85.49125024989455
 20
-117.9831515547056
 10
85.38686385669148
 20
-118.4089653566825
 10
85.19514429293733
 20
-118.8092854520685
 10
84.93280027173556
 20
-119.1593071533699
 10
85.27403697954955
 20
-119.4328477348987
 10
85.60407712703649
 20
-119.7205132079171
 10
85.91430797548323
 20
-120.0309163111381
 10
85.91430797548323
 20
-120.0309163111381
 10
85.7055351890771
 20
-120.2396890975442
 10
85.7055351890771
 20
-120.2396890975442
 10
85.54774981585265
 20
-120.0619221705054
 10
85.3417331058347
 20
-119.8390244926097
 10
84.7805270512875
 20
-119.3508544623498
 10
84.46168346412765
 20
-119.7291259466302
 10
84.0723876742944
 20
-120.0477972790158
 10
83.61556801295028
 20
-120.2424451739325
 10
83.61556801295028
 20
-120.2424451739325
 10
83.46036646133977
 20
-120.0336723875263
 10
83.46036646133977
 20
-120.0336723875263
 97
        0
 97
        0
 75
     2
 76
     1
 98
        0
  0
SPLINE
  5
58
330
41
100
AcDbEntity
  8
_U+30EC_U+30A4_U+30E4_U+30FC 1
370
     0
100
AcDbSpline
210
0.0
220
0.0
230
1.0
 70
    11
 71
     3
 72
    17
 73
    13
 74
     0
 42
0.0000000001
 43
0.0000000001
 12
1.0
 22
0.0
 32
0.0
 13
1.0
 23
0.0
 33
0.0
 40
0.0
 40
0.0
 40
0.0
 40
0.0
 40
1.0
 40
1.0
 40
1.0
 40
2.0
 40
2.0
 40
2.0
 40
3.0
 40
3.0
 40
3.0
 40
4.0
 40
4.0
 40
4.0
 40
4.0
 10
90.04411618842647
 20
-119.1110758165764
 30
0.0
 10
89.70012340422429
 20
-118.9277967367611
 30
0.0
 10
89.60693357134826
 20
-118.8885226482293
 30
0.0
 10
89.24313148810589
 20
-118.7782795927013
 30
0.0
 10
89.24313148810589
 20
-118.7782795927013
 30
0.0
 10
89.35871444163602
 20
-118.5526258384174
 30
0.0
 10
89.35871444163602
 20
-118.5526258384174
 30
0.0
 10
89.56748722804215
 20
-118.6063693279873
 30
0.0
 10
89.86083710861118
 20
-118.7021429824772
 30
0.0
 10
90.16262747311907
 20
-118.8743977567397
 30
0.0
 10
90.16262747311907
 20
-118.8743977567397
 30
0.0
 10
90.04411618842647
 20
-119.1110758165764
 30
0.0
 10
90.04411618842647
 20
-119.1110758165764
 30
0.0
  0
SPLINE
  5
59
330
41
100
AcDbEntity
  8
_U+30EC_U+30A4_U+30E4_U+30FC 1
370
     0
100
AcDbSpline
210
0.0
220
0.0
230
1.0
 70
    11
 71
     3
 72
    17
 73
    13
 74
     0
 42
0.0000000001
 43
0.0000000001
 12
1.0
 22
0.0
 32
0.0
 13
1.0
 23
0.0
 33
0.0
 40
0.0
 40
0.0
 40
0.0
 40
0.0
 40
1.0
 40
1.0
 40
1.0
 40
2.0
 40
2.0
 40
2.0
 40
3.0
 40
3.0
 40
3.0
 40
4.0
 40
4.0
 40
4.0
 40
4.0
 10
89.38972030100327
 20
-119.9124050264455
 30
0.0
 10
90.55760767050296
 20
-119.8331678302848
 30
0.0
 10
91.03423663088728
 20
-119.3370740804088
 30
0.0
 10
91.35859237082354
 20
-118.3355848228467
 30
0.0
 10
91.35859237082354
 20
-118.3355848228467
 30
0.0
 10
91.59819876182267
 20
-118.4427272924379
 30
0.0
 10
91.59819876182267
 20
-118.4427272924379
 30
0.0
 10
91.24300941729342
 20
-119.4383598876751
 30
0.0
 10
90.80289846905275
 20
-120.0419406166909
 30
0.0
 10
89.44897594334957
 20
-120.1831895315862
 30
0.0
 10
89.44897594334957
 20
-120.1831895315862
 30
0.0
 10
89.38972030100327
 20
-119.9124050264455
 30
0.0
 10
89.38972030100327
 20
-119.9124050264455
 30
0.0
  0
SPLINE
  5
5A
330
41
100
AcDbEntity
  8
_U+30EC_U+30A4_U+30E4_U+30FC 1
370
     0
100
AcDbSpline
210
0.0
220
0.0
230
1.0
 70
    11
 71
     3
 72
    17
 73
    13
 74
     0
 42
0.0000000001
 43
0.0000000001
 12
1.0
 22
0.0
 32
0.0
 13
1.0
 23
0.0
 33
0.0
 40
0.0
 40
0.0
 40
0.0
 40
0.0
 40
1.0
 40
1.0
 40
1.0
 40
2.0
 40
2.0
 40
2.0
 40
3.0
 40
3.0
 40
3.0
 40
4.0
 40
4.0
 40
4.0
 40
4.0
 10
90.2782104266492
 20
-118.4596082603157
 30
0.0
 10
89.93421764244701
 20
-118.2622042890108
 30
0.0
 10
89.6012491637976
 20
-118.1691867109091
 30
0.0
 10
89.45741642728842
 20
-118.1268120364405
 30
0.0
 10
89.45741642728842
 20
-118.1268120364405
 30
0.0
 10
89.57317163559283
 20
-117.9097710208698
 30
0.0
 10
89.57317163559283
 20
-117.9097710208698
 30
0.0
 10
89.7395697475304
 20
-117.9518011857898
 30
0.0
 10
90.04704451958894
 20
-118.0337944583388
 30
0.0
 10
90.3939656349536
 20
-118.2256862768672
 30
0.0
 10
90.3939656349536
 20
-118.2256862768672
 30
0.0
 10
90.2782104266492
 20
-118.4596082603157
 30
0.0
 10
90.2782104266492
 20
-118.4596082603157
 30
0.0
  0
HATCH
  5
5B
330
41
100
AcDbEntity
  8
_U+30EC_U+30A4_U+30E4_U+30FC 1
 62
   179
420
  2234388
100
AcDbHatch
 10
0.0
 20
0.0
 30
0.0
210
0.0
220
0.0
230
1.0
  2
SOLID
 70
     1
 71
     0
 91
        3
 92
        1
 93
        1
 72
     4
 94
        3
 73
     0
 74
     1
 95
       17
 96
       13
 40
0.0
 40
0.0
 40
0.0
 40
0.0
 40
1.0
 40
1.0
 40
1.0
 40
2.0
 40
2.0
 40
2.0
 40
3.0
 40
3.0
 40
3.0
 40
4.0
 40
4.0
 40
4.0
 40
4.0
 10
90.04411618842647
 20
-119.1110758165764
 10
89.70012340422429
 20
-118.9277967367611
 10
89.60693357134826
 20
-118.8885226482293
 10
89.24313148810589
 20
-118.7782795927013
 10
89.24313148810589
 20
-118.7782795927013
 10
89.35871444163602
 20
-118.5526258384174
 10
89.35871444163602
 20
-118.5526258384174
 10
89.56748722804215
 20
-118.6063693279873
 10
89.86083710861118
 20
-118.7021429824772
 10
90.16262747311907
 20
-118.8743977567397
 10
90.16262747311907
 20
-118.8743977567397
 10
90.04411618842647
 20
-119.1110758165764
 10
90.04411618842647
 20
-119.1110758165764
 97
        0
 97
        0
 92
        1
 93
        1
 72
     4
 94
        3
 73
     0
 74
     1
 95
       17
 96
       13
 40
0.0
 40
0.0
 40
0.0
 40
0.0
 40
1.0
 40
1.0
 40
1.0
 40
2.0
 40
2.0
 40
2.0
 40
3.0
 40
3.0
 40
3.0
 40
4.0
 40
4.0
 40
4.0
 40
4.0
 10
89.38972030100327
 20
-119.9124050264455
 10
90.55760767050296
 20
-119.8331678302848
 10
91.03423663088728
 20
-119.3370740804088
 10
91.35859237082354
 20
-118.3355848228467
 10
91.35859237082354
 20
-118.3355848228467
 10
91.59819876182267
 20
-118.4427272924379
 10
91.59819876182267
 20
-118.4427272924379
 10
91.24300941729342
 20
-119.4383598876751
 10
90.80289846905275
 20
-120.0419406166909
 10
89.44897594334957
 20
-120.1831895315862
 10
89.44897594334957
 20
-120.1831895315862
 10
89.38972030100327
 20
-119.9124050264455
 10
89.38972030100327
 20
-119.9124050264455
 97
        0
 97
        0
 92
        1
 93
        1
 72
     4
 94
        3
 73
     0
 74
     1
 95
       17
 96
       13
 40
0.0
 40
0.0
 40
0.0
 40
0.0
 40
1.0
 40
1.0
 40
1.0
 40
2.0
 40
2.0
 40
2.0
 40
3.0
 40
3.0
 40
3.0
 40
4.0
 40
4.0
 40
4.0
 40
4.0
 10
90.2782104266492
 20
-118.4596082603157
 10
89.93421764244701
 20
-118.2622042890108
 10
89.6012491637976
 20
-118.1691867109091
 10
89.45741642728842
 20
-118.1268120364405
 10
89.45741642728842
 20
-118.1268120364405
 10
89.57317163559283
 20
-117.9097710208698
 10
89.57317163559283
 20
-117.9097710208698
 10
89.7395697475304
 20
-117.9518011857898
 10
90.04704451958894
 20
-118.0337944583388
 10
90.3939656349536
 20
-118.2256862768672
 10
90.3939656349536
 20
-118.2256862768672
 10
90.2782104266492
 20
-118.4596082603157
 10
90.2782104266492
 20
-118.4596082603157
 97
        0
 97
        0
 75
     2
 76
     1
 98
        0
  0
SPLINE
  5
5C
330
41
100
AcDbEntity
  8
_U+30EC_U+30A4_U+30E4_U+30FC 1
370
     0
100
AcDbSpline
210
0.0
220
0.0
230
1.0
 70
    11
 71
     3
 72
    17
 73
    13
 74
     0
 42
0.0000000001
 43
0.0000000001
 12
1.0
 22
0.0
 32
0.0
 13
1.0
 23
0.0
 33
0.0
 40
0.0
 40
0.0
 40
0.0
 40
0.0
 40
1.0
 40
1.0
 40
1.0
 40
2.0
 40
2.0
 40
2.0
 40
3.0
 40
3.0
 40
3.0
 40
4.0
 40
4.0
 40
4.0
 40
4.0
 10
92.91284719899402
 20
-118.6542561552323
 30
0.0
 10
92.68133678238523
 20
-118.4737331518052
 30
0.0
 10
92.25276690402015
 20
-118.2987223011545
 30
0.0
 10
92.0467501940022
 20
-118.2398111683567
 30
0.0
 10
92.0467501940022
 20
-118.2398111683567
 30
0.0
 10
92.1735297078594
 20
-118.0141574140729
 30
0.0
 10
92.1735297078594
 20
-118.0141574140729
 30
0.0
 10
92.2217610446529
 20
-118.0279377960139
 30
0.0
 10
92.68409285877343
 20
-118.160573972196
 30
0.0
 10
93.07063257221846
 20
-118.4089653566825
 30
0.0
 10
93.07063257221846
 20
-118.4089653566825
 30
0.0
 10
92.91284719899402
 20
-118.6542561552323
 30
0.0
 10
92.91284719899402
 20
-118.6542561552323
 30
0.0
  0
SPLINE
  5
5D
330
41
100
AcDbEntity
  8
_U+30EC_U+30A4_U+30E4_U+30FC 1
370
     0
100
AcDbSpline
210
0.0
220
0.0
230
1.0
 70
    11
 71
     3
 72
    17
 73
    13
 74
     0
 42
0.0000000001
 43
0.0000000001
 12
1.0
 22
0.0
 32
0.0
 13
1.0
 23
0.0
 33
0.0
 40
0.0
 40
0.0
 40
0.0
 40
0.0
 40
1.0
 40
1.0
 40
1.0
 40
2.0
 40
2.0
 40
2.0
 40
3.0
 40
3.0
 40
3.0
 40
4.0
 40
4.0
 40
4.0
 40
4.0
 10
92.06087508549173
 20
-119.9179171792219
 30
0.0
 10
92.85634763303592
 20
-119.8614176132638
 30
0.0
 10
93.73622501996873
 20
-119.6188828911022
 30
0.0
 10
94.17650822298366
 20
-118.2029486466646
 30
0.0
 10
94.17650822298366
 20
-118.2029486466646
 30
0.0
 10
94.43006725069804
 20
-118.3159477785807
 30
0.0
 10
94.43006725069804
 20
-118.3159477785807
 30
0.0
 10
94.2047580059627
 20
-118.9646592584533
 30
0.0
 10
93.83785533678359
 20
-120.0195474960368
 30
0.0
 10
92.1597493259184
 20
-120.1973144230757
 30
0.0
 10
92.1597493259184
 20
-120.1973144230757
 30
0.0
 10
92.06087508549173
 20
-119.9179171792219
 30
0.0
 10
92.06087508549173
 20
-119.9179171792219
 30
0.0
  0
HATCH
  5
5E
330
41
100
AcDbEntity
  8
_U+30EC_U+30A4_U+30E4_U+30FC 1
 62
   179
420
  2234388
100
AcDbHatch
 10
0.0
 20
0.0
 30
0.0
210
0.0
220
0.0
230
1.0
  2
SOLID
 70
     1
 71
     0
 91
        2
 92
        1
 93
        1
 72
     4
 94
        3
 73
     0
 74
     1
 95
       17
 96
       13
 40
0.0
 40
0.0
 40
0.0
 40
0.0
 40
1.0
 40
1.0
 40
1.0
 40
2.0
 40
2.0
 40
2.0
 40
3.0
 40
3.0
 40
3.0
 40
4.0
 40
4.0
 40
4.0
 40
4.0
 10
92.91284719899402
 20
-118.6542561552323
 10
92.68133678238523
 20
-118.4737331518052
 10
92.25276690402015
 20
-118.2987223011545
 10
92.0467501940022
 20
-118.2398111683567
 10
92.0467501940022
 20
-118.2398111683567
 10
92.1735297078594
 20
-118.0141574140729
 10
92.1735297078594
 20
-118.0141574140729
 10
92.2217610446529
 20
-118.0279377960139
 10
92.68409285877343
 20
-118.160573972196
 10
93.07063257221846
 20
-118.4089653566825
 10
93.07063257221846
 20
-118.4089653566825
 10
92.91284719899402
 20
-118.6542561552323
 10
92.91284719899402
 20
-118.6542561552323
 97
        0
 97
        0
 92
        1
 93
        1
 72
     4
 94
        3
 73
     0
 74
     1
 95
       17
 96
       13
 40
0.0
 40
0.0
 40
0.0
 40
0.0
 40
1.0
 40
1.0
 40
1.0
 40
2.0
 40
2.0
 40
2.0
 40
3.0
 40
3.0
 40
3.0
 40
4.0
 40
4.0
 40
4.0
 40
4.0
 10
92.06087508549173
 20
-119.9179171792219
 10
92.85634763303592
 20
-119.8614176132638
 10
93.73622501996873
 20
-119.6188828911022
 10
94.17650822298366
 20
-118.2029486466646
 10
94.17650822298366
 20
-118.2029486466646
 10
94.43006725069804
 20
-118.3159477785807
 10
94.43006725069804
 20
-118.3159477785807
 10
94.2047580059627
 20
-118.9646592584533
 10
93.83785533678359
 20
-120.0195474960368
 10
92.1597493259184
 20
-120.1973144230757
 10
92.1597493259184
 20
-120.1973144230757
 10
92.06087508549173
 20
-119.9179171792219
 10
92.06087508549173
 20
-119.9179171792219
 97
        0
 97
        0
 75
     2
 76
     1
 98
        0
  0
SPLINE
  5
5F
330
41
100
AcDbEntity
  8
_U+30EC_U+30A4_U+30E4_U+30FC 1
370
     0
100
AcDbSpline
210
0.0
220
0.0
230
1.0
 70
    11
 71
     3
 72
    35
 73
    31
 74
     0
 42
0.0000000001
 43
0.0000000001
 12
1.0
 22
0.0
 32
0.0
 13
1.0
 23
0.0
 33
0.0
 40
0.0
 40
0.0
 40
0.0
 40
0.0
 40
1.0
 40
1.0
 40
1.0
 40
2.0
 40
2.0
 40
2.0
 40
3.0
 40
3.0
 40
3.0
 40
4.0
 40
4.0
 40
4.0
 40
5.0
 40
5.0
 40
5.0
 40
6.0
 40
6.0
 40
6.0
 40
7.0
 40
7.0
 40
7.0
 40
8.0
 40
8.0
 40
8.0
 40
9.0
 40
9.0
 40
9.0
 40
10.0
 40
10.0
 40
10.0
 40
10.0
 10
97.10552840454307
 20
-117.9941758602584
 30
0.0
 10
97.10552840454307
 20
-117.9941758602584
 30
0.0
 10
97.10552840454307
 20
-118.2225856909305
 30
0.0
 10
97.10552840454307
 20
-118.2225856909305
 30
0.0
 10
97.10552840454307
 20
-118.595000512886
 30
0.0
 10
97.04627276219676
 20
-118.9701714112297
 30
0.0
 10
96.88848738897232
 20
-119.3115803738179
 30
0.0
 10
96.61770288383168
 20
-119.9010362113442
 30
0.0
 10
95.97174748034735
 20
-120.1494275958307
 30
0.0
 10
95.37953556643289
 20
-120.2507134030971
 30
0.0
 10
95.37953556643289
 20
-120.2507134030971
 30
0.0
 10
95.28651798833116
 20
-120.0167914196486
 30
0.0
 10
95.28651798833116
 20
-120.0167914196486
 30
0.0
 10
96.65973304875173
 20
-119.7994058945293
 30
0.0
 10
96.80098196364698
 20
-119.057676836555
 30
0.0
 10
96.82647567023783
 20
-118.2339545060318
 30
0.0
 10
96.82647567023783
 20
-118.2339545060318
 30
0.0
 10
95.21864960727173
 20
-118.2339545060318
 30
0.0
 10
95.21864960727173
 20
-118.2339545060318
 30
0.0
 10
95.21864960727173
 20
-118.2339545060318
 30
0.0
 10
95.21864960727173
 20
-119.0407958686773
 30
0.0
 10
95.21864960727173
 20
-119.0407958686773
 30
0.0
 10
95.21864960727173
 20
-119.0407958686773
 30
0.0
 10
94.9533772549075
 20
-119.0407958686773
 30
0.0
 10
94.9533772549075
 20
-119.0407958686773
 30
0.0
 10
94.9533772549075
 20
-119.0407958686773
 30
0.0
 10
94.9533772549075
 20
-117.9941758602584
 30
0.0
 10
94.9533772549075
 20
-117.9941758602584
 30
0.0
 10
94.9533772549075
 20
-117.9941758602584
 30
0.0
 10
97.10552840454307
 20
-117.9941758602584
 30
0.0
 10
97.10552840454307
 20
-117.9941758602584
 30
0.0
  0
HATCH
  5
60
330
41
100
AcDbEntity
  8
_U+30EC_U+30A4_U+30E4_U+30FC 1
 62
   179
420
  2234388
100
AcDbHatch
 10
0.0
 20
0.0
 30
0.0
210
0.0
220
0.0
230
1.0
  2
SOLID
 70
     1
 71
     0
 91
        1
 92
        1
 93
        1
 72
     4
 94
        3
 73
     0
 74
     1
 95
       35
 96
       31
 40
0.0
 40
0.0
 40
0.0
 40
0.0
 40
1.0
 40
1.0
 40
1.0
 40
2.0
 40
2.0
 40
2.0
 40
3.0
 40
3.0
 40
3.0
 40
4.0
 40
4.0
 40
4.0
 40
5.0
 40
5.0
 40
5.0
 40
6.0
 40
6.0
 40
6.0
 40
7.0
 40
7.0
 40
7.0
 40
8.0
 40
8.0
 40
8.0
 40
9.0
 40
9.0
 40
9.0
 40
10.0
 40
10.0
 40
10.0
 40
10.0
 10
97.10552840454307
 20
-117.9941758602584
 10
97.10552840454307
 20
-117.9941758602584
 10
97.10552840454307
 20
-118.2225856909305
 10
97.10552840454307
 20
-118.2225856909305
 10
97.10552840454307
 20
-118.595000512886
 10
97.04627276219676
 20
-118.9701714112297
 10
96.88848738897232
 20
-119.3115803738179
 10
96.61770288383168
 20
-119.9010362113442
 10
95.97174748034735
 20
-120.1494275958307
 10
95.37953556643289
 20
-120.2507134030971
 10
95.37953556643289
 20
-120.2507134030971
 10
95.28651798833116
 20
-120.0167914196486
 10
95.28651798833116
 20
-120.0167914196486
 10
96.65973304875173
 20
-119.7994058945293
 10
96.80098196364698
 20
-119.057676836555
 10
96.82647567023783
 20
-118.2339545060318
 10
96.82647567023783
 20
-118.2339545060318
 10
95.21864960727173
 20
-118.2339545060318
 10
95.21864960727173
 20
-118.2339545060318
 10
95.21864960727173
 20
-118.2339545060318
 10
95.21864960727173
 20
-119.0407958686773
 10
95.21864960727173
 20
-119.0407958686773
 10
95.21864960727173
 20
-119.0407958686773
 10
94.9533772549075
 20
-119.0407958686773
 10
94.9533772549075
 20
-119.0407958686773
 10
94.9533772549075
 20
-119.0407958686773
 10
94.9533772549075
 20
-117.9941758602584
 10
94.9533772549075
 20
-117.9941758602584
 10
94.9533772549075
 20
-117.9941758602584
 10
97.10552840454307
 20
-117.9941758602584
 10
97.10552840454307
 20
-117.9941758602584
 97
        0
 97
        0
 75
     2
 76
     1
 98
        0
  0
SPLINE
  5
61
330
41
100
AcDbEntity
  8
_U+30EC_U+30A4_U+30E4_U+30FC 1
370
     0
100
AcDbSpline
210
0.0
220
0.0
230
1.0
 70
    11
 71
     3
 72
    17
 73
    13
 74
     0
 42
0.0000000001
 43
0.0000000001
 12
1.0
 22
0.0
 32
0.0
 13
1.0
 23
0.0
 33
0.0
 40
0.0
 40
0.0
 40
0.0
 40
0.0
 40
1.0
 40
1.0
 40
1.0
 40
2.0
 40
2.0
 40
2.0
 40
3.0
 40
3.0
 40
3.0
 40
4.0
 40
4.0
 40
4.0
 40
4.0
 10
98.0146891031005
 20
-119.3002115587166
 30
0.0
 10
97.96129012307912
 20
-118.9898084554956
 30
0.0
 10
97.86241588265246
 20
-118.7727674399249
 30
0.0
 10
97.78903534881664
 20
-118.623250295865
 30
0.0
 10
97.78903534881664
 20
-118.623250295865
 30
0.0
 10
98.01158851716377
 20
-118.5612385771305
 30
0.0
 10
98.01158851716377
 20
-118.5612385771305
 30
0.0
 10
98.16420624716034
 20
-118.8657850180266
 30
0.0
 10
98.22036130356992
 20
-119.0886826959223
 30
0.0
 10
98.25446774887389
 20
-119.2409559163703
 30
0.0
 10
98.25446774887389
 20
-119.2409559163703
 30
0.0
 10
98.0146891031005
 20
-119.3002115587166
 30
0.0
 10
98.0146891031005
 20
-119.3002115587166
 30
0.0
  0
SPLINE
  5
62
330
41
100
AcDbEntity
  8
_U+30EC_U+30A4_U+30E4_U+30FC 1
370
     0
100
AcDbSpline
210
0.0
220
0.0
230
1.0
 70
    11
 71
     3
 72
    17
 73
    13
 74
     0
 42
0.0000000001
 43
0.0000000001
 12
1.0
 22
0.0
 32
0.0
 13
1.0
 23
0.0
 33
0.0
 40
0.0
 40
0.0
 40
0.0
 40
0.0
 40
1.0
 40
1.0
 40
1.0
 40
2.0
 40
2.0
 40
2.0
 40
3.0
 40
3.0
 40
3.0
 40
4.0
 40
4.0
 40
4.0
 40
4.0
 10
98.0174451794887
 20
-120.0788031383831
 30
0.0
 10
98.92006019662415
 20
-119.8841552434665
 30
0.0
 10
99.26973738837701
 20
-119.5062282687346
 30
0.0
 10
99.4364800098631
 20
-118.499226858396
 30
0.0
 10
99.4364800098631
 20
-118.499226858396
 30
0.0
 10
99.6845268848011
 20
-118.5416015328646
 30
0.0
 10
99.6845268848011
 20
-118.5416015328646
 30
0.0
 10
99.52088484925173
 20
-119.3508544623498
 30
0.0
 10
99.28110620347834
 20
-120.022303572425
 30
0.0
 10
98.11631941991537
 20
-120.2875759247892
 30
0.0
 10
98.11631941991537
 20
-120.2875759247892
 30
0.0
 10
98.0174451794887
 20
-120.0788031383831
 30
0.0
 10
98.0174451794887
 20
-120.0788031383831
 30
0.0
  0
SPLINE
  5
63
330
41
100
AcDbEntity
  8
_U+30EC_U+30A4_U+30E4_U+30FC 1
370
     0
100
AcDbSpline
210
0.0
220
0.0
230
1.0
 70
    11
 71
     3
 72
    17
 73
    13
 74
     0
 42
0.0000000001
 43
0.0000000001
 12
1.0
 22
0.0
 32
0.0
 13
1.0
 23
0.0
 33
0.0
 40
0.0
 40
0.0
 40
0.0
 40
0.0
 40
1.0
 40
1.0
 40
1.0
 40
2.0
 40
2.0
 40
2.0
 40
3.0
 40
3.0
 40
3.0
 40
4.0
 40
4.0
 40
4.0
 40
4.0
 10
98.6241264944412
 20
-119.1844563504122
 30
0.0
 10
98.59863278785035
 20
-119.0180582384747
 30
0.0
 10
98.55040145105684
 20
-118.781380178638
 30
0.0
 10
98.43774682868919
 20
-118.5161078262738
 30
0.0
 10
98.43774682868919
 20
-118.5161078262738
 30
0.0
 10
98.66340058297304
 20
-118.4623643367039
 30
0.0
 10
98.66340058297304
 20
-118.4623643367039
 30
0.0
 10
98.79603675915516
 20
-118.8206542671698
 30
0.0
 10
98.82394203258569
 20
-118.8967908773939
 30
0.0
 10
98.86080455427786
 20
-119.1283012940027
 30
0.0
 10
98.86080455427786
 20
-119.1283012940027
 30
0.0
 10
98.6241264944412
 20
-119.1844563504122
 30
0.0
 10
98.6241264944412
 20
-119.1844563504122
 30
0.0
  0
HATCH
  5
64
330
41
100
AcDbEntity
  8
_U+30EC_U+30A4_U+30E4_U+30FC 1
 62
   179
420
  2234388
100
AcDbHatch
 10
0.0
 20
0.0
 30
0.0
210
0.0
220
0.0
230
1.0
  2
SOLID
 70
     1
 71
     0
 91
        3
 92
        1
 93
        1
 72
     4
 94
        3
 73
     0
 74
     1
 95
       17
 96
       13
 40
0.0
 40
0.0
 40
0.0
 40
0.0
 40
1.0
 40
1.0
 40
1.0
 40
2.0
 40
2.0
 40
2.0
 40
3.0
 40
3.0
 40
3.0
 40
4.0
 40
4.0
 40
4.0
 40
4.0
 10
98.0146891031005
 20
-119.3002115587166
 10
97.96129012307912
 20
-118.9898084554956
 10
97.86241588265246
 20
-118.7727674399249
 10
97.78903534881664
 20
-118.623250295865
 10
97.78903534881664
 20
-118.623250295865
 10
98.01158851716377
 20
-118.5612385771305
 10
98.01158851716377
 20
-118.5612385771305
 10
98.16420624716034
 20
-118.8657850180266
 10
98.22036130356992
 20
-119.0886826959223
 10
98.25446774887389
 20
-119.2409559163703
 10
98.25446774887389
 20
-119.2409559163703
 10
98.0146891031005
 20
-119.3002115587166
 10
98.0146891031005
 20
-119.3002115587166
 97
        0
 97
        0
 92
        1
 93
        1
 72
     4
 94
        3
 73
     0
 74
     1
 95
       17
 96
       13
 40
0.0
 40
0.0
 40
0.0
 40
0.0
 40
1.0
 40
1.0
 40
1.0
 40
2.0
 40
2.0
 40
2.0
 40
3.0
 40
3.0
 40
3.0
 40
4.0
 40
4.0
 40
4.0
 40
4.0
 10
98.0174451794887
 20
-120.0788031383831
 10
98.92006019662415
 20
-119.8841552434665
 10
99.26973738837701
 20
-119.5062282687346
 10
99.4364800098631
 20
-118.499226858396
 10
99.4364800098631
 20
-118.499226858396
 10
99.6845268848011
 20
-118.5416015328646
 10
99.6845268848011
 20
-118.5416015328646
 10
99.52088484925173
 20
-119.3508544623498
 10
99.28110620347834
 20
-120.022303572425
 10
98.11631941991537
 20
-120.2875759247892
 10
98.11631941991537
 20
-120.2875759247892
 10
98.0174451794887
 20
-120.0788031383831
 10
98.0174451794887
 20
-120.0788031383831
 97
        0
 97
        0
 92
        1
 93
        1
 72
     4
 94
        3
 73
     0
 74
     1
 95
       17
 96
       13
 40
0.0
 40
0.0
 40
0.0
 40
0.0
 40
1.0
 40
1.0
 40
1.0
 40
2.0
 40
2.0
 40
2.0
 40
3.0
 40
3.0
 40
3.0
 40
4.0
 40
4.0
 40
4.0
 40
4.0
 10
98.6241264944412
 20
-119.1844563504122
 10
98.59863278785035
 20
-119.0180582384747
 10
98.55040145105684
 20
-118.781380178638
 10
98.43774682868919
 20
-118.5161078262738
 10
98.43774682868919
 20
-118.5161078262738
 10
98.66340058297304
 20
-118.4623643367039
 10
98.66340058297304
 20
-118.4623643367039
 10
98.79603675915516
 20
-118.8206542671698
 10
98.82394203258569
 20
-118.8967908773939
 10
98.86080455427786
 20
-119.1283012940027
 10
98.86080455427786
 20
-119.1283012940027
 10
98.6241264944412
 20
-119.1844563504122
 10
98.6241264944412
 20
-119.1844563504122
 97
        0
 97
        0
 75
     2
 76
     1
 98
        0
  0
SPLINE
  5
65
330
41
100
AcDbEntity
  8
_U+30EC_U+30A4_U+30E4_U+30FC 1
370
     0
100
AcDbSpline
210
0.0
220
0.0
230
1.0
 70
    11
 71
     3
 72
    17
 73
    13
 74
     0
 42
0.0000000001
 43
0.0000000001
 12
1.0
 22
0.0
 32
0.0
 13
1.0
 23
0.0
 33
0.0
 40
0.0
 40
0.0
 40
0.0
 40
0.0
 40
1.0
 40
1.0
 40
1.0
 40
2.0
 40
2.0
 40
2.0
 40
3.0
 40
3.0
 40
3.0
 40
4.0
 40
4.0
 40
4.0
 40
4.0
 10
101.0977050528506
 20
-119.1110758165764
 30
0.0
 10
100.7538845234226
 20
-118.9277967367611
 30
0.0
 10
100.6608669453209
 20
-118.8885226482293
 30
0.0
 10
100.2970648620785
 20
-118.7782795927013
 30
0.0
 10
100.2970648620785
 20
-118.7782795927013
 30
0.0
 10
100.4124755608344
 20
-118.5526258384174
 30
0.0
 10
100.4124755608344
 20
-118.5526258384174
 30
0.0
 10
100.6212483472405
 20
-118.6063693279873
 30
0.0
 10
100.9144259730353
 20
-118.7021429824772
 30
0.0
 10
101.2162163375432
 20
-118.8743977567397
 30
0.0
 10
101.2162163375432
 20
-118.8743977567397
 30
0.0
 10
101.0977050528506
 20
-119.1110758165764
 30
0.0
 10
101.0977050528506
 20
-119.1110758165764
 30
0.0
  0
SPLINE
  5
66
330
41
100
AcDbEntity
  8
_U+30EC_U+30A4_U+30E4_U+30FC 1
370
     0
100
AcDbSpline
210
0.0
220
0.0
230
1.0
 70
    11
 71
     3
 72
    17
 73
    13
 74
     0
 42
0.0000000001
 43
0.0000000001
 12
1.0
 22
0.0
 32
0.0
 13
1.0
 23
0.0
 33
0.0
 40
0.0
 40
0.0
 40
0.0
 40
0.0
 40
1.0
 40
1.0
 40
1.0
 40
2.0
 40
2.0
 40
2.0
 40
3.0
 40
3.0
 40
3.0
 40
4.0
 40
4.0
 40
4.0
 40
4.0
 10
100.4434814202016
 20
-119.9124050264455
 30
0.0
 10
101.6113687897013
 20
-119.8331678302848
 30
0.0
 10
102.0878254953114
 20
-119.3370740804088
 30
0.0
 10
102.4123534900219
 20
-118.3355848228467
 30
0.0
 10
102.4123534900219
 20
-118.3355848228467
 30
0.0
 10
102.6521321357953
 20
-118.4427272924379
 30
0.0
 10
102.6521321357953
 20
-118.4427272924379
 30
0.0
 10
102.2965982817175
 20
-119.4383598876751
 30
0.0
 10
101.8566595882511
 20
-120.0419406166909
 30
0.0
 10
100.5027370625479
 20
-120.1831895315862
 30
0.0
 10
100.5027370625479
 20
-120.1831895315862
 30
0.0
 10
100.4434814202016
 20
-119.9124050264455
 30
0.0
 10
100.4434814202016
 20
-119.9124050264455
 30
0.0
  0
SPLINE
  5
67
330
41
100
AcDbEntity
  8
_U+30EC_U+30A4_U+30E4_U+30FC 1
370
     0
100
AcDbSpline
210
0.0
220
0.0
230
1.0
 70
    11
 71
     3
 72
    17
 73
    13
 74
     0
 42
0.0000000001
 43
0.0000000001
 12
1.0
 22
0.0
 32
0.0
 13
1.0
 23
0.0
 33
0.0
 40
0.0
 40
0.0
 40
0.0
 40
0.0
 40
1.0
 40
1.0
 40
1.0
 40
2.0
 40
2.0
 40
2.0
 40
3.0
 40
3.0
 40
3.0
 40
4.0
 40
4.0
 40
4.0
 40
4.0
 10
101.3319715458476
 20
-118.4596082603157
 30
0.0
 10
100.9881510164196
 20
-118.2622042890108
 30
0.0
 10
100.6553547925445
 20
-118.1691867109091
 30
0.0
 10
100.5113498012611
 20
-118.1268120364405
 30
0.0
 10
100.5113498012611
 20
-118.1268120364405
 30
0.0
 10
100.6271050095655
 20
-117.9097710208698
 30
0.0
 10
100.6271050095655
 20
-117.9097710208698
 30
0.0
 10
100.7931586119545
 20
-117.9518011857898
 30
0.0
 10
101.1008056387873
 20
-118.0337944583388
 30
0.0
 10
101.447726754152
 20
-118.2256862768672
 30
0.0
 10
101.447726754152
 20
-118.2256862768672
 30
0.0
 10
101.3319715458476
 20
-118.4596082603157
 30
0.0
 10
101.3319715458476
 20
-118.4596082603157
 30
0.0
  0
HATCH
  5
68
330
41
100
AcDbEntity
  8
_U+30EC_U+30A4_U+30E4_U+30FC 1
 62
   179
420
  2234388
100
AcDbHatch
 10
0.0
 20
0.0
 30
0.0
210
0.0
220
0.0
230
1.0
  2
SOLID
 70
     1
 71
     0
 91
        3
 92
        1
 93
        1
 72
     4
 94
        3
 73
     0
 74
     1
 95
       17
 96
       13
 40
0.0
 40
0.0
 40
0.0
 40
0.0
 40
1.0
 40
1.0
 40
1.0
 40
2.0
 40
2.0
 40
2.0
 40
3.0
 40
3.0
 40
3.0
 40
4.0
 40
4.0
 40
4.0
 40
4.0
 10
101.0977050528506
 20
-119.1110758165764
 10
100.7538845234226
 20
-118.9277967367611
 10
100.6608669453209
 20
-118.8885226482293
 10
100.2970648620785
 20
-118.7782795927013
 10
100.2970648620785
 20
-118.7782795927013
 10
100.4124755608344
 20
-118.5526258384174
 10
100.4124755608344
 20
-118.5526258384174
 10
100.6212483472405
 20
-118.6063693279873
 10
100.9144259730353
 20
-118.7021429824772
 10
101.2162163375432
 20
-118.8743977567397
 10
101.2162163375432
 20
-118.8743977567397
 10
101.0977050528506
 20
-119.1110758165764
 10
101.0977050528506
 20
-119.1110758165764
 97
        0
 97
        0
 92
        1
 93
        1
 72
     4
 94
        3
 73
     0
 74
     1
 95
       17
 96
       13
 40
0.0
 40
0.0
 40
0.0
 40
0.0
 40
1.0
 40
1.0
 40
1.0
 40
2.0
 40
2.0
 40
2.0
 40
3.0
 40
3.0
 40
3.0
 40
4.0
 40
4.0
 40
4.0
 40
4.0
 10
100.4434814202016
 20
-119.9124050264455
 10
101.6113687897013
 20
-119.8331678302848
 10
102.0878254953114
 20
-119.3370740804088
 10
102.4123534900219
 20
-118.3355848228467
 10
102.4123534900219
 20
-118.3355848228467
 10
102.6521321357953
 20
-118.4427272924379
 10
102.6521321357953
 20
-118.4427272924379
 10
102.2965982817175
 20
-119.4383598876751
 10
101.8566595882511
 20
-120.0419406166909
 10
100.5027370625479
 20
-120.1831895315862
 10
100.5027370625479
 20
-120.1831895315862
 10
100.4434814202016
 20
-119.9124050264455
 10
100.4434814202016
 20
-119.9124050264455
 97
        0
 97
        0
 92
        1
 93
        1
 72
     4
 94
        3
 73
     0
 74
     1
 95
       17
 96
       13
 40
0.0
 40
0.0
 40
0.0
 40
0.0
 40
1.0
 40
1.0
 40
1.0
 40
2.0
 40
2.0
 40
2.0
 40
3.0
 40
3.0
 40
3.0
 40
4.0
 40
4.0
 40
4.0
 40
4.0
 10
101.3319715458476
 20
-118.4596082603157
 10
100.9881510164196
 20
-118.2622042890108
 10
100.6553547925445
 20
-118.1691867109091
 10
100.5113498012611
 20
-118.1268120364405
 10
100.5113498012611
 20
-118.1268120364405
 10
100.6271050095655
 20
-117.9097710208698
 10
100.6271050095655
 20
-117.9097710208698
 10
100.7931586119545
 20
-117.9518011857898
 10
101.1008056387873
 20
-118.0337944583388
 10
101.447726754152
 20
-118.2256862768672
 10
101.447726754152
 20
-118.2256862768672
 10
101.3319715458476
 20
-118.4596082603157
 10
101.3319715458476
 20
-118.4596082603157
 97
        0
 97
        0
 75
     2
 76
     1
 98
        0
  0
SPLINE
  5
69
330
41
100
AcDbEntity
  8
_U+30EC_U+30A4_U+30E4_U+30FC 1
370
     0
100
AcDbSpline
210
0.0
220
0.0
230
1.0
 70
    11
 71
     3
 72
    47
 73
    43
 74
     0
 42
0.0000000001
 43
0.0000000001
 12
1.0
 22
0.0
 32
0.0
 13
1.0
 23
0.0
 33
0.0
 40
0.0
 40
0.0
 40
0.0
 40
0.0
 40
1.0
 40
1.0
 40
1.0
 40
2.0
 40
2.0
 40
2.0
 40
3.0
 40
3.0
 40
3.0
 40
4.0
 40
4.0
 40
4.0
 40
5.0
 40
5.0
 40
5.0
 40
6.0
 40
6.0
 40
6.0
 40
7.0
 40
7.0
 40
7.0
 40
8.0
 40
8.0
 40
8.0
 40
9.0
 40
9.0
 40
9.0
 40
10.0
 40
10.0
 40
10.0
 40
11.0
 40
11.0
 40
11.0
 40
12.0
 40
12.0
 40
12.0
 40
13.0
 40
13.0
 40
13.0
 40
14.0
 40
14.0
 40
14.0
 40
14.0
 10
103.6636121702647
 20
-118.3610785294375
 30
0.0
 10
103.6636121702647
 20
-118.3610785294375
 30
0.0
 10
103.8978786632617
 20
-118.3328287464585
 30
0.0
 10
103.8978786632617
 20
-118.3328287464585
 30
0.0
 10
103.8978786632617
 20
-118.3328287464585
 30
0.0
 10
103.9767713498739
 20
-118.7982611465157
 30
0.0
 10
103.9767713498739
 20
-118.7982611465157
 30
0.0
 10
103.9767713498739
 20
-118.7982611465157
 30
0.0
 10
105.144314209825
 20
-118.6287624486414
 30
0.0
 10
105.144314209825
 20
-118.6287624486414
 30
0.0
 10
105.1077961976814
 20
-119.1479383382686
 30
0.0
 10
104.9017794876634
 20
-119.4411159640633
 30
0.0
 10
104.5493462195224
 20
-119.692263424938
 30
0.0
 10
104.5493462195224
 20
-119.692263424938
 30
0.0
 10
104.385704183973
 20
-119.5286213893887
 30
0.0
 10
104.385704183973
 20
-119.5286213893887
 30
0.0
 10
104.61997067697
 20
-119.3763481689406
 30
0.0
 10
104.791880941684
 20
-119.2099500570031
 30
0.0
 10
104.8597493227434
 20
-118.8799099095161
 30
0.0
 10
104.8597493227434
 20
-118.8799099095161
 30
0.0
 10
104.0105332856293
 20
-119.0125460856983
 30
0.0
 10
104.0105332856293
 20
-119.0125460856983
 30
0.0
 10
104.0105332856293
 20
-119.0125460856983
 30
0.0
 10
104.2251627343604
 20
-120.2789631860761
 30
0.0
 10
104.2251627343604
 20
-120.2789631860761
 30
0.0
 10
104.2251627343604
 20
-120.2789631860761
 30
0.0
 10
103.9795274262621
 20
-120.3072129690551
 30
0.0
 10
103.9795274262621
 20
-120.3072129690551
 30
0.0
 10
103.9795274262621
 20
-120.3072129690551
 30
0.0
 10
103.7766113021809
 20
-119.0490640978419
 30
0.0
 10
103.7766113021809
 20
-119.0490640978419
 30
0.0
 10
103.7766113021809
 20
-119.0490640978419
 30
0.0
 10
103.2123046616969
 20
-119.1365695231673
 30
0.0
 10
103.2123046616969
 20
-119.1365695231673
 30
0.0
 10
103.2123046616969
 20
-119.1365695231673
 30
0.0
 10
103.1785427259415
 20
-118.9167724312083
 30
0.0
 10
103.1785427259415
 20
-118.9167724312083
 30
0.0
 10
103.1785427259415
 20
-118.9167724312083
 30
0.0
 10
103.7397487804887
 20
-118.8347791586594
 30
0.0
 10
103.7397487804887
 20
-118.8347791586594
 30
0.0
 10
103.7397487804887
 20
-118.8347791586594
 30
0.0
 10
103.6636121702647
 20
-118.3610785294375
 30
0.0
 10
103.6636121702647
 20
-118.3610785294375
 30
0.0
  0
HATCH
  5
6A
330
41
100
AcDbEntity
  8
_U+30EC_U+30A4_U+30E4_U+30FC 1
 62
   179
420
  2234388
100
AcDbHatch
 10
0.0
 20
0.0
 30
0.0
210
0.0
220
0.0
230
1.0
  2
SOLID
 70
     1
 71
     0
 91
        1
 92
        1
 93
        1
 72
     4
 94
        3
 73
     0
 74
     1
 95
       47
 96
       43
 40
0.0
 40
0.0
 40
0.0
 40
0.0
 40
1.0
 40
1.0
 40
1.0
 40
2.0
 40
2.0
 40
2.0
 40
3.0
 40
3.0
 40
3.0
 40
4.0
 40
4.0
 40
4.0
 40
5.0
 40
5.0
 40
5.0
 40
6.0
 40
6.0
 40
6.0
 40
7.0
 40
7.0
 40
7.0
 40
8.0
 40
8.0
 40
8.0
 40
9.0
 40
9.0
 40
9.0
 40
10.0
 40
10.0
 40
10.0
 40
11.0
 40
11.0
 40
11.0
 40
12.0
 40
12.0
 40
12.0
 40
13.0
 40
13.0
 40
13.0
 40
14.0
 40
14.0
 40
14.0
 40
14.0
 10
103.6636121702647
 20
-118.3610785294375
 10
103.6636121702647
 20
-118.3610785294375
 10
103.8978786632617
 20
-118.3328287464585
 10
103.8978786632617
 20
-118.3328287464585
 10
103.8978786632617
 20
-118.3328287464585
 10
103.9767713498739
 20
-118.7982611465157
 10
103.9767713498739
 20
-118.7982611465157
 10
103.9767713498739
 20
-118.7982611465157
 10
105.144314209825
 20
-118.6287624486414
 10
105.144314209825
 20
-118.6287624486414
 10
105.1077961976814
 20
-119.1479383382686
 10
104.9017794876634
 20
-119.4411159640633
 10
104.5493462195224
 20
-119.692263424938
 10
104.5493462195224
 20
-119.692263424938
 10
104.385704183973
 20
-119.5286213893887
 10
104.385704183973
 20
-119.5286213893887
 10
104.61997067697
 20
-119.3763481689406
 10
104.791880941684
 20
-119.2099500570031
 10
104.8597493227434
 20
-118.8799099095161
 10
104.8597493227434
 20
-118.8799099095161
 10
104.0105332856293
 20
-119.0125460856983
 10
104.0105332856293
 20
-119.0125460856983
 10
104.0105332856293
 20
-119.0125460856983
 10
104.2251627343604
 20
-120.2789631860761
 10
104.2251627343604
 20
-120.2789631860761
 10
104.2251627343604
 20
-120.2789631860761
 10
103.9795274262621
 20
-120.3072129690551
 10
103.9795274262621
 20
-120.3072129690551
 10
103.9795274262621
 20
-120.3072129690551
 10
103.7766113021809
 20
-119.0490640978419
 10
103.7766113021809
 20
-119.0490640978419
 10
103.7766113021809
 20
-119.0490640978419
 10
103.2123046616969
 20
-119.1365695231673
 10
103.2123046616969
 20
-119.1365695231673
 10
103.2123046616969
 20
-119.1365695231673
 10
103.1785427259415
 20
-118.9167724312083
 10
103.1785427259415
 20
-118.9167724312083
 10
103.1785427259415
 20
-118.9167724312083
 10
103.7397487804887
 20
-118.8347791586594
 10
103.7397487804887
 20
-118.8347791586594
 10
103.7397487804887
 20
-118.8347791586594
 10
103.6636121702647
 20
-118.3610785294375
 10
103.6636121702647
 20
-118.3610785294375
 97
        0
 97
        0
 75
     2
 76
     1
 98
        0
  0
POLYLINE
  5
6B
330
41
100
AcDbEntity
  8
_U+30EC_U+30A4_U+30E4_U+30FC 1
370
     0
100
AcDb2dPolyline
 66
     1
 10
0.0
 20
0.0
 30
0.0
  0
VERTEX
  5
6C
330
6B
100
AcDbEntity
  8
_U+30EC_U+30A4_U+30E4_U+30FC 1
370
     0
100
AcDbVertex
100
AcDb2dVertex
 10
108.1935682238197
 20
-118.9081596924952
 30
0.0
  0
VERTEX
  5
6D
330
6B
100
AcDbEntity
  8
_U+30EC_U+30A4_U+30E4_U+30FC 1
370
     0
100
AcDbVertex
100
AcDb2dVertex
 10
108.1935682238197
 20
-119.1789441976358
 30
0.0
  0
VERTEX
  5
6E
330
6B
100
AcDbEntity
  8
_U+30EC_U+30A4_U+30E4_U+30FC 1
370
     0
100
AcDbVertex
100
AcDb2dVertex
 10
105.6886392964945
 20
-119.1789441976358
 30
0.0
  0
VERTEX
  5
6F
330
6B
100
AcDbEntity
  8
_U+30EC_U+30A4_U+30E4_U+30FC 1
370
     0
100
AcDbVertex
100
AcDb2dVertex
 10
105.6886392964945
 20
-118.9081596924952
 30
0.0
  0
VERTEX
  5
70
330
6B
100
AcDbEntity
  8
_U+30EC_U+30A4_U+30E4_U+30FC 1
370
     0
100
AcDbVertex
100
AcDb2dVertex
 10
108.1935682238197
 20
-118.9081596924952
 30
0.0
  0
SEQEND
  5
71
330
6B
100
AcDbEntity
  8
_U+30EC_U+30A4_U+30E4_U+30FC 1
370
     0
  0
HATCH
  5
72
330
41
100
AcDbEntity
  8
_U+30EC_U+30A4_U+30E4_U+30FC 1
 62
   179
420
  2234388
100
AcDbHatch
 10
0.0
 20
0.0
 30
0.0
210
0.0
220
0.0
230
1.0
  2
SOLID
 70
     1
 71
     0
 91
        1
 92
        1
 93
        4
 72
     1
 10
108.1935682238197
 20
-118.9081596924952
 11
108.1935682238197
 21
-119.1789441976358
 72
     1
 10
108.1935682238197
 20
-119.1789441976358
 11
105.6886392964945
 21
-119.1789441976358
 72
     1
 10
105.6886392964945
 20
-119.1789441976358
 11
105.6886392964945
 21
-118.9081596924952
 72
     1
 10
105.6886392964945
 20
-118.9081596924952
 11
108.1935682238197
 21
-118.9081596924952
 97
        0
 75
     2
 76
     1
 98
        0
  0
ENDBLK
  5
44
330
41
100
AcDbEntity
  8
0
100
AcDbBlockEnd
  0
BLOCK
  5
158
330
156
100
AcDbEntity
  8
0
100
AcDbBlockBegin
  2
block 3
 70
     0
 10
0.0
 20
0.0
 30
0.0
  3
block 3
  1

  0
SPLINE
  5
15A
330
156
100
AcDbEntity
  8
_U+30EC_U+30A4_U+30E4_U+30FC 1
370
     0
100
AcDbSpline
210
0.0
220
0.0
230
1.0
 70
    11
 71
     3
 72
    20
 73
    16
 74
     0
 42
0.0000000001
 43
0.0000000001
 12
1.0
 22
0.0
 32
0.0
 13
1.0
 23
0.0
 33
0.0
 40
0.0
 40
0.0
 40
0.0
 40
0.0
 40
1.0
 40
1.0
 40
1.0
 40
2.0
 40
2.0
 40
2.0
 40
3.0
 40
3.0
 40
3.0
 40
4.0
 40
4.0
 40
4.0
 40
5.0
 40
5.0
 40
5.0
 40
5.0
 10
106.9109591746612
 20
-129.0980631187672
 30
0.0
 10
106.9109591746612
 20
-129.0980631187672
 30
0.0
 10
106.9109591746612
 20
-129.7157687392724
 30
0.0
 10
106.9109591746612
 20
-129.7157687392724
 30
0.0
 10
106.9109591746612
 20
-129.7157687392724
 30
0.0
 10
105.3665228686236
 20
-129.7157687392724
 30
0.0
 10
105.3665228686236
 20
-129.7157687392724
 30
0.0
 10
105.3665228686236
 20
-129.7157687392724
 30
0.0
 10
105.3665228686236
 20
-129.0980631187672
 30
0.0
 10
105.3665228686236
 20
-129.0980631187672
 30
0.0
 10
105.3665228686236
 20
-128.6350422855496
 30
0.0
 10
105.736870633288
 20
-128.4276475373375
 30
0.0
 10
106.1451144482901
 20
-128.4276475373375
 30
0.0
 10
106.4961696782371
 20
-128.4276475373375
 30
0.0
 10
106.9109591746612
 20
-128.6054144643764
 30
0.0
 10
106.9109591746612
 20
-129.0980631187672
 30
0.0
  0
SPLINE
  5
15B
330
156
100
AcDbEntity
  8
_U+30EC_U+30A4_U+30E4_U+30FC 1
370
     0
100
AcDbSpline
210
0.0
220
0.0
230
1.0
 70
    11
 71
     3
 72
    20
 73
    16
 74
     0
 42
0.0000000001
 43
0.0000000001
 12
1.0
 22
0.0
 32
0.0
 13
1.0
 23
0.0
 33
0.0
 40
0.0
 40
0.0
 40
0.0
 40
0.0
 40
1.0
 40
1.0
 40
1.0
 40
2.0
 40
2.0
 40
2.0
 40
3.0
 40
3.0
 40
3.0
 40
4.0
 40
4.0
 40
4.0
 40
5.0
 40
5.0
 40
5.0
 40
5.0
 10
105.578051731418
 20
-129.095996061476
 30
0.0
 10
105.578051731418
 20
-129.095996061476
 30
0.0
 10
105.578051731418
 20
-129.4811577367269
 30
0.0
 10
105.578051731418
 20
-129.4811577367269
 30
0.0
 10
105.578051731418
 20
-129.4811577367269
 30
0.0
 10
106.6994303118668
 20
-129.4811577367269
 30
0.0
 10
106.6994303118668
 20
-129.4811577367269
 30
0.0
 10
106.6994303118668
 20
-129.4811577367269
 30
0.0
 10
106.6994303118668
 20
-129.095996061476
 30
0.0
 10
106.6994303118668
 20
-129.095996061476
 30
0.0
 10
106.6994303118668
 20
-128.7280598636513
 30
0.0
 10
106.3545762537933
 20
-128.6667371640139
 30
0.0
 10
106.1323675949947
 20
-128.6667371640139
 30
0.0
 10
105.9229057894915
 20
-128.6667371640139
 30
0.0
 10
105.578051731418
 20
-128.7301269209425
 30
0.0
 10
105.578051731418
 20
-129.095996061476
 30
0.0
  0
HATCH
  5
15C
330
156
100
AcDbEntity
  8
_U+30EC_U+30A4_U+30E4_U+30FC 1
 62
   179
420
  2234388
100
AcDbHatch
 10
0.0
 20
0.0
 30
0.0
210
0.0
220
0.0
230
1.0
  2
SOLID
 70
     1
 71
     0
 91
        2
 92
        1
 93
        1
 72
     4
 94
        3
 73
     0
 74
     1
 95
       20
 96
       16
 40
0.0
 40
0.0
 40
0.0
 40
0.0
 40
1.0
 40
1.0
 40
1.0
 40
2.0
 40
2.0
 40
2.0
 40
3.0
 40
3.0
 40
3.0
 40
4.0
 40
4.0
 40
4.0
 40
5.0
 40
5.0
 40
5.0
 40
5.0
 10
106.9109591746612
 20
-129.0980631187672
 10
106.9109591746612
 20
-129.0980631187672
 10
106.9109591746612
 20
-129.7157687392724
 10
106.9109591746612
 20
-129.7157687392724
 10
106.9109591746612
 20
-129.7157687392724
 10
105.3665228686236
 20
-129.7157687392724
 10
105.3665228686236
 20
-129.7157687392724
 10
105.3665228686236
 20
-129.7157687392724
 10
105.3665228686236
 20
-129.0980631187672
 10
105.3665228686236
 20
-129.0980631187672
 10
105.3665228686236
 20
-128.6350422855496
 10
105.736870633288
 20
-128.4276475373375
 10
106.1451144482901
 20
-128.4276475373375
 10
106.4961696782371
 20
-128.4276475373375
 10
106.9109591746612
 20
-128.6054144643764
 10
106.9109591746612
 20
-129.0980631187672
 97
        0
 97
        0
 92
        1
 93
        1
 72
     4
 94
        3
 73
     0
 74
     1
 95
       20
 96
       16
 40
0.0
 40
0.0
 40
0.0
 40
0.0
 40
1.0
 40
1.0
 40
1.0
 40
2.0
 40
2.0
 40
2.0
 40
3.0
 40
3.0
 40
3.0
 40
4.0
 40
4.0
 40
4.0
 40
5.0
 40
5.0
 40
5.0
 40
5.0
 10
105.578051731418
 20
-129.095996061476
 10
105.578051731418
 20
-129.095996061476
 10
105.578051731418
 20
-129.4811577367269
 10
105.578051731418
 20
-129.4811577367269
 10
105.578051731418
 20
-129.4811577367269
 10
106.6994303118668
 20
-129.4811577367269
 10
106.6994303118668
 20
-129.4811577367269
 10
106.6994303118668
 20
-129.4811577367269
 10
106.6994303118668
 20
-129.095996061476
 10
106.6994303118668
 20
-129.095996061476
 10
106.6994303118668
 20
-128.7280598636513
 10
106.3545762537933
 20
-128.6667371640139
 10
106.1323675949947
 20
-128.6667371640139
 10
105.9229057894915
 20
-128.6667371640139
 10
105.578051731418
 20
-128.7301269209425
 10
105.578051731418
 20
-129.095996061476
 97
        0
 97
        0
 75
     2
 76
     1
 98
        0
  0
ENDBLK
  5
159
330
156
100
AcDbEntity
  8
0
100
AcDbBlockEnd
  0
BLOCK
  5
16B
330
169
100
AcDbEntity
  8
0
100
AcDbBlockBegin
  2
block 4
 70
     0
 10
0.0
 20
0.0
 30
0.0
  3
block 4
  1

  0
POLYLINE
  5
16D
330
169
100
AcDbEntity
  8
_U+30EC_U+30A4_U+30E4_U+30FC 1
370
     0
100
AcDb2dPolyline
 66
     1
 10
0.0
 20
0.0
 30
0.0
  0
VERTEX
  5
16E
330
16D
100
AcDbEntity
  8
_U+30EC_U+30A4_U+30E4_U+30FC 1
370
     0
100
AcDbVertex
100
AcDb2dVertex
 10
80.16082626034174
 20
-128.882055631842
 30
0.0
  0
VERTEX
  5
16F
330
16D
100
AcDbEntity
  8
_U+30EC_U+30A4_U+30E4_U+30FC 1
370
     0
100
AcDbVertex
100
AcDb2dVertex
 10
79.45630423360815
 20
-128.882055631842
 30
0.0
  0
VERTEX
  5
170
330
16D
100
AcDbEntity
  8
_U+30EC_U+30A4_U+30E4_U+30FC 1
370
     0
100
AcDbVertex
100
AcDb2dVertex
 10
79.45630423360815
 20
-129.6306748807868
 30
0.0
  0
VERTEX
  5
171
330
16D
100
AcDbEntity
  8
_U+30EC_U+30A4_U+30E4_U+30FC 1
370
     0
100
AcDbVertex
100
AcDb2dVertex
 10
80.16082626034174
 20
-129.6306748807868
 30
0.0
  0
VERTEX
  5
172
330
16D
100
AcDbEntity
  8
_U+30EC_U+30A4_U+30E4_U+30FC 1
370
     0
100
AcDbVertex
100
AcDb2dVertex
 10
80.16082626034174
 20
-129.8656303928808
 30
0.0
  0
VERTEX
  5
173
330
16D
100
AcDbEntity
  8
_U+30EC_U+30A4_U+30E4_U+30FC 1
370
     0
100
AcDbVertex
100
AcDb2dVertex
 10
78.61638995430424
 20
-129.8656303928808
 30
0.0
  0
VERTEX
  5
174
330
16D
100
AcDbEntity
  8
_U+30EC_U+30A4_U+30E4_U+30FC 1
370
     0
100
AcDbVertex
100
AcDb2dVertex
 10
78.61638995430424
 20
-129.6306748807868
 30
0.0
  0
VERTEX
  5
175
330
16D
100
AcDbEntity
  8
_U+30EC_U+30A4_U+30E4_U+30FC 1
370
     0
100
AcDbVertex
100
AcDb2dVertex
 10
79.24477537081381
 20
-129.6306748807868
 30
0.0
  0
VERTEX
  5
176
330
16D
100
AcDbEntity
  8
_U+30EC_U+30A4_U+30E4_U+30FC 1
370
     0
100
AcDbVertex
100
AcDb2dVertex
 10
79.24477537081381
 20
-128.882055631842
 30
0.0
  0
VERTEX
  5
177
330
16D
100
AcDbEntity
  8
_U+30EC_U+30A4_U+30E4_U+30FC 1
370
     0
100
AcDbVertex
100
AcDb2dVertex
 10
78.61638995430424
 20
-128.882055631842
 30
0.0
  0
VERTEX
  5
178
330
16D
100
AcDbEntity
  8
_U+30EC_U+30A4_U+30E4_U+30FC 1
370
     0
100
AcDbVertex
100
AcDb2dVertex
 10
78.61638995430424
 20
-128.647100119748
 30
0.0
  0
VERTEX
  5
179
330
16D
100
AcDbEntity
  8
_U+30EC_U+30A4_U+30E4_U+30FC 1
370
     0
100
AcDbVertex
100
AcDb2dVertex
 10
80.16082626034174
 20
-128.647100119748
 30
0.0
  0
VERTEX
  5
17A
330
16D
100
AcDbEntity
  8
_U+30EC_U+30A4_U+30E4_U+30FC 1
370
     0
100
AcDbVertex
100
AcDb2dVertex
 10
80.16082626034174
 20
-128.882055631842
 30
0.0
  0
SEQEND
  5
17B
330
16D
100
AcDbEntity
  8
_U+30EC_U+30A4_U+30E4_U+30FC 1
370
     0
  0
HATCH
  5
17C
330
169
100
AcDbEntity
  8
_U+30EC_U+30A4_U+30E4_U+30FC 1
 62
   179
420
  2234388
100
AcDbHatch
 10
0.0
 20
0.0
 30
0.0
210
0.0
220
0.0
230
1.0
  2
SOLID
 70
     1
 71
     0
 91
        1
 92
        1
 93
       12
 72
     1
 10
80.16082626034174
 20
-128.882055631842
 11
79.45630423360815
 21
-128.882055631842
 72
     1
 10
79.45630423360815
 20
-128.882055631842
 11
79.45630423360815
 21
-129.6306748807868
 72
     1
 10
79.45630423360815
 20
-129.6306748807868
 11
80.16082626034174
 21
-129.6306748807868
 72
     1
 10
80.16082626034174
 20
-129.6306748807868
 11
80.16082626034174
 21
-129.8656303928808
 72
     1
 10
80.16082626034174
 20
-129.8656303928808
 11
78.61638995430424
 21
-129.8656303928808
 72
     1
 10
78.61638995430424
 20
-129.8656303928808
 11
78.61638995430424
 21
-129.6306748807868
 72
     1
 10
78.61638995430424
 20
-129.6306748807868
 11
79.24477537081381
 21
-129.6306748807868
 72
     1
 10
79.24477537081381
 20
-129.6306748807868
 11
79.24477537081381
 21
-128.882055631842
 72
     1
 10
79.24477537081381
 20
-128.882055631842
 11
78.61638995430424
 21
-128.882055631842
 72
     1
 10
78.61638995430424
 20
-128.882055631842
 11
78.61638995430424
 21
-128.647100119748
 72
     1
 10
78.61638995430424
 20
-128.647100119748
 11
80.16082626034174
 21
-128.647100119748
 72
     1
 10
80.16082626034174
 20
-128.647100119748
 11
80.16082626034174
 21
-128.882055631842
 97
        0
 75
     2
 76
     1
 98
        0
  0
ENDBLK
  5
16C
330
169
100
AcDbEntity
  8
0
100
AcDbBlockEnd
  0
BLOCK
  5
18B
330
189
100
AcDbEntity
  8
0
100
AcDbBlockBegin
  2
block 5
 70
     0
 10
0.0
 20
0.0
 30
0.0
  3
block 5
  1

  0
POLYLINE
  5
18D
330
189
100
AcDbEntity
  8
_U+30EC_U+30A4_U+30E4_U+30FC 1
370
     0
100
AcDb2dPolyline
 66
     1
 10
0.0
 20
0.0
 30
0.0
  0
VERTEX
  5
18E
330
18D
100
AcDbEntity
  8
_U+30EC_U+30A4_U+30E4_U+30FC 1
370
     0
100
AcDbVertex
100
AcDb2dVertex
 10
95.58830835283904
 20
-137.3469997486494
 30
0.0
  0
VERTEX
  5
18F
330
18D
100
AcDbEntity
  8
_U+30EC_U+30A4_U+30E4_U+30FC 1
370
     0
100
AcDbVertex
100
AcDb2dVertex
 10
95.58830835283904
 20
-135.8025634426119
 30
0.0
  0
VERTEX
  5
190
330
18D
100
AcDbEntity
  8
_U+30EC_U+30A4_U+30E4_U+30FC 1
370
     0
100
AcDbVertex
100
AcDb2dVertex
 10
95.82326386493308
 20
-135.8025634426119
 30
0.0
  0
VERTEX
  5
191
330
18D
100
AcDbEntity
  8
_U+30EC_U+30A4_U+30E4_U+30FC 1
370
     0
100
AcDbVertex
100
AcDb2dVertex
 10
95.82326386493308
 20
-137.135470885855
 30
0.0
  0
VERTEX
  5
192
330
18D
100
AcDbEntity
  8
_U+30EC_U+30A4_U+30E4_U+30FC 1
370
     0
100
AcDbVertex
100
AcDb2dVertex
 10
96.54880097412669
 20
-137.135470885855
 30
0.0
  0
VERTEX
  5
193
330
18D
100
AcDbEntity
  8
_U+30EC_U+30A4_U+30E4_U+30FC 1
370
     0
100
AcDbVertex
100
AcDb2dVertex
 10
96.54880097412669
 20
-137.3469997486494
 30
0.0
  0
VERTEX
  5
194
330
18D
100
AcDbEntity
  8
_U+30EC_U+30A4_U+30E4_U+30FC 1
370
     0
100
AcDbVertex
100
AcDb2dVertex
 10
95.58830835283904
 20
-137.3469997486494
 30
0.0
  0
SEQEND
  5
195
330
18D
100
AcDbEntity
  8
_U+30EC_U+30A4_U+30E4_U+30FC 1
370
     0
  0
HATCH
  5
196
330
189
100
AcDbEntity
  8
_U+30EC_U+30A4_U+30E4_U+30FC 1
 62
   179
420
  2234388
100
AcDbHatch
 10
0.0
 20
0.0
 30
0.0
210
0.0
220
0.0
230
1.0
  2
SOLID
 70
     1
 71
     0
 91
        1
 92
        1
 93
        6
 72
     1
 10
95.58830835283904
 20
-137.3469997486494
 11
95.58830835283904
 21
-135.8025634426119
 72
     1
 10
95.58830835283904
 20
-135.8025634426119
 11
95.82326386493308
 21
-135.8025634426119
 72
     1
 10
95.82326386493308
 20
-135.8025634426119
 11
95.82326386493308
 21
-137.135470885855
 72
     1
 10
95.82326386493308
 20
-137.135470885855
 11
96.54880097412669
 21
-137.135470885855
 72
     1
 10
96.54880097412669
 20
-137.135470885855
 11
96.54880097412669
 21
-137.3469997486494
 72
     1
 10
96.54880097412669
 20
-137.3469997486494
 11
95.58830835283904
 21
-137.3469997486494
 97
        0
 75
     2
 76
     1
 98
        0
  0
ENDBLK
  5
18C
330
189
100
AcDbEntity
  8
0
100
AcDbBlockEnd
  0
ENDSEC
  0
SECTION
  2
ENTITIES
  0
INSERT
  5
42
330
1F
100
AcDbEntity
  8
_U+30EC_U+30A4_U+30E4_U+30FC 1
100
AcDbBlockReference
  2
block 2
 10
0.0
 20
0.0
 30
0.0
  0
POLYLINE
  5
73
330
1F
100
AcDbEntity
  8
_U+30EC_U+30A4_U+30E4_U+30FC 1
 62
   179
420
  2234388
370
    25
100
AcDb2dPolyline
 66
     1
 10
0.0
 20
0.0
 30
0.0
  0
VERTEX
  5
74
330
73
100
AcDbEntity
  8
_U+30EC_U+30A4_U+30E4_U+30FC 1
 62
   179
420
  2234388
370
    25
100
AcDbVertex
100
AcDb2dVertex
 10
99.30694441961771
 20
-127.7427735791753
 30
0.0
  0
VERTEX
  5
75
330
73
100
AcDbEntity
  8
_U+30EC_U+30A4_U+30E4_U+30FC 1
 62
   179
420
  2234388
370
    25
100
AcDbVertex
100
AcDb2dVertex
 10
102.1815162820212
 20
-127.7427735791753
 30
0.0
  0
SEQEND
  5
76
330
73
100
AcDbEntity
  8
_U+30EC_U+30A4_U+30E4_U+30FC 1
 62
   179
420
  2234388
370
    25
  0
POLYLINE
  5
77
330
1F
100
AcDbEntity
  8
_U+30EC_U+30A4_U+30E4_U+30FC 1
 62
   179
420
  2234388
370
    25
100
AcDb2dPolyline
 66
     1
 10
0.0
 20
0.0
 30
0.0
  0
VERTEX
  5
78
330
77
100
AcDbEntity
  8
_U+30EC_U+30A4_U+30E4_U+30FC 1
 62
   179
420
  2234388
370
    25
100
AcDbVertex
100
AcDb2dVertex
 10
99.30694441961771
 20
-130.4933113562655
 30
0.0
  0
VERTEX
  5
79
330
77
100
AcDbEntity
  8
_U+30EC_U+30A4_U+30E4_U+30FC 1
 62
   179
420
  2234388
370
    25
100
AcDbVertex
100
AcDb2dVertex
 10
102.1815162820212
 20
-130.4933113562655
 30
0.0
  0
SEQEND
  5
7A
330
77
100
AcDbEntity
  8
_U+30EC_U+30A4_U+30E4_U+30FC 1
 62
   179
420
  2234388
370
    25
  0
POLYLINE
  5
7B
330
1F
100
AcDbEntity
  8
_U+30EC_U+30A4_U+30E4_U+30FC 1
 62
   179
420
  2234388
370
    25
100
AcDb2dPolyline
 66
     1
 10
0.0
 20
0.0
 30
0.0
  0
VERTEX
  5
7C
330
7B
100
AcDbEntity
  8
_U+30EC_U+30A4_U+30E4_U+30FC 1
 62
   179
420
  2234388
370
    25
100
AcDbVertex
100
AcDb2dVertex
 10
89.05726606129319
 20
-127.9928930235575
 30
0.0
  0
VERTEX
  5
7D
330
7B
100
AcDbEntity
  8
_U+30EC_U+30A4_U+30E4_U+30FC 1
 62
   179
420
  2234388
370
    25
100
AcDbVertex
100
AcDb2dVertex
 10
89.8902802067079
 20
-127.9928930235575
 30
0.0
  0
SEQEND
  5
7E
330
7B
100
AcDbEntity
  8
_U+30EC_U+30A4_U+30E4_U+30FC 1
 62
   179
420
  2234388
370
    25
  0
POLYLINE
  5
7F
330
1F
100
AcDbEntity
  8
_U+30EC_U+30A4_U+30E4_U+30FC 1
 62
   179
420
  2234388
370
    25
100
AcDb2dPolyline
 66
     1
 10
0.0
 20
0.0
 30
0.0
  0
VERTEX
  5
80
330
7F
100
AcDbEntity
  8
_U+30EC_U+30A4_U+30E4_U+30FC 1
 62
   179
420
  2234388
370
    25
100
AcDbVertex
100
AcDb2dVertex
 10
99.30694441961771
 20
-127.7427735791753
 30
0.0
  0
VERTEX
  5
81
330
7F
100
AcDbEntity
  8
_U+30EC_U+30A4_U+30E4_U+30FC 1
 62
   179
420
  2234388
370
    25
100
AcDbVertex
100
AcDb2dVertex
 10
99.30694441961771
 20
-130.4933113562655
 30
0.0
  0
SEQEND
  5
82
330
7F
100
AcDbEntity
  8
_U+30EC_U+30A4_U+30E4_U+30FC 1
 62
   179
420
  2234388
370
    25
  0
POLYLINE
  5
83
330
1F
100
AcDbEntity
  8
_U+30EC_U+30A4_U+30E4_U+30FC 1
 62
   179
420
  2234388
370
    25
100
AcDb2dPolyline
 66
     1
 10
0.0
 20
0.0
 30
0.0
  0
VERTEX
  5
84
330
83
100
AcDbEntity
  8
_U+30EC_U+30A4_U+30E4_U+30FC 1
 62
   179
420
  2234388
370
    25
100
AcDbVertex
100
AcDb2dVertex
 10
102.1815162820212
 20
-127.7427735791753
 30
0.0
  0
VERTEX
  5
85
330
83
100
AcDbEntity
  8
_U+30EC_U+30A4_U+30E4_U+30FC 1
 62
   179
420
  2234388
370
    25
100
AcDbVertex
100
AcDb2dVertex
 10
103.556820413601
 20
-129.1180424677204
 30
0.0
  0
SEQEND
  5
86
330
83
100
AcDbEntity
  8
_U+30EC_U+30A4_U+30E4_U+30FC 1
 62
   179
420
  2234388
370
    25
  0
POLYLINE
  5
87
330
1F
100
AcDbEntity
  8
_U+30EC_U+30A4_U+30E4_U+30FC 1
 62
   179
420
  2234388
370
    25
100
AcDb2dPolyline
 66
     1
 10
0.0
 20
0.0
 30
0.0
  0
VERTEX
  5
88
330
87
100
AcDbEntity
  8
_U+30EC_U+30A4_U+30E4_U+30FC 1
 62
   179
420
  2234388
370
    25
100
AcDbVertex
100
AcDb2dVertex
 10
102.1815162820212
 20
-130.4933113562655
 30
0.0
  0
VERTEX
  5
89
330
87
100
AcDbEntity
  8
_U+30EC_U+30A4_U+30E4_U+30FC 1
 62
   179
420
  2234388
370
    25
100
AcDbVertex
100
AcDb2dVertex
 10
103.556820413601
 20
-129.1180424677204
 30
0.0
  0
SEQEND
  5
8A
330
87
100
AcDbEntity
  8
_U+30EC_U+30A4_U+30E4_U+30FC 1
 62
   179
420
  2234388
370
    25
  0
POLYLINE
  5
8B
330
1F
100
AcDbEntity
  8
_U+30EC_U+30A4_U+30E4_U+30FC 1
 62
   179
420
  2234388
370
    25
100
AcDb2dPolyline
 66
     1
 10
0.0
 20
0.0
 30
0.0
  0
VERTEX
  5
8C
330
8B
100
AcDbEntity
  8
_U+30EC_U+30A4_U+30E4_U+30FC 1
 62
   179
420
  2234388
370
    25
100
AcDbVertex
100
AcDb2dVertex
 10
99.30694441961771
 20
-127.7427735791753
 30
0.0
  0
VERTEX
  5
8D
330
8B
100
AcDbEntity
  8
_U+30EC_U+30A4_U+30E4_U+30FC 1
 62
   179
420
  2234388
370
    25
100
AcDbVertex
100
AcDb2dVertex
 10
103.0703777520101
 20
-129.605193300932
 30
0.0
  0
SEQEND
  5
8E
330
8B
100
AcDbEntity
  8
_U+30EC_U+30A4_U+30E4_U+30FC 1
 62
   179
420
  2234388
370
    25
  0
POLYLINE
  5
8F
330
1F
100
AcDbEntity
  8
_U+30EC_U+30A4_U+30E4_U+30FC 1
 62
   179
420
  2234388
370
    25
100
AcDb2dPolyline
 66
     1
 10
0.0
 20
0.0
 30
0.0
  0
VERTEX
  5
90
330
8F
100
AcDbEntity
  8
_U+30EC_U+30A4_U+30E4_U+30FC 1
 62
   179
420
  2234388
370
    25
100
AcDbVertex
100
AcDb2dVertex
 10
97.59886251004558
 20
-126.8684138571719
 30
0.0
  0
VERTEX
  5
91
330
8F
100
AcDbEntity
  8
_U+30EC_U+30A4_U+30E4_U+30FC 1
 62
   179
420
  2234388
370
    25
100
AcDbVertex
100
AcDb2dVertex
 10
97.59886251004558
 20
-131.367706356047
 30
0.0
  0
SEQEND
  5
92
330
8F
100
AcDbEntity
  8
_U+30EC_U+30A4_U+30E4_U+30FC 1
 62
   179
420
  2234388
370
    25
  0
POLYLINE
  5
93
330
1F
100
AcDbEntity
  8
_U+30EC_U+30A4_U+30E4_U+30FC 1
 62
   179
420
  2234388
370
    25
100
AcDb2dPolyline
 66
     1
 10
0.0
 20
0.0
 30
0.0
  0
VERTEX
  5
94
330
93
100
AcDbEntity
  8
_U+30EC_U+30A4_U+30E4_U+30FC 1
 62
   179
420
  2234388
370
    25
100
AcDbVertex
100
AcDb2dVertex
 10
95.89011283141718
 20
-126.8684138571719
 30
0.0
  0
VERTEX
  5
95
330
93
100
AcDbEntity
  8
_U+30EC_U+30A4_U+30E4_U+30FC 1
 62
   179
420
  2234388
370
    25
100
AcDbVertex
100
AcDb2dVertex
 10
95.89011283141718
 20
-131.367706356047
 30
0.0
  0
SEQEND
  5
96
330
93
100
AcDbEntity
  8
_U+30EC_U+30A4_U+30E4_U+30FC 1
 62
   179
420
  2234388
370
    25
  0
POLYLINE
  5
97
330
1F
100
AcDbEntity
  8
_U+30EC_U+30A4_U+30E4_U+30FC 1
 62
   179
420
  2234388
370
    25
100
AcDb2dPolyline
 66
     1
 10
0.0
 20
0.0
 30
0.0
  0
VERTEX
  5
98
330
97
100
AcDbEntity
  8
_U+30EC_U+30A4_U+30E4_U+30FC 1
 62
   179
420
  2234388
370
    25
100
AcDbVertex
100
AcDb2dVertex
 10
94.18203343054948
 20
-126.8684138571719
 30
0.0
  0
VERTEX
  5
99
330
97
100
AcDbEntity
  8
_U+30EC_U+30A4_U+30E4_U+30FC 1
 62
   179
420
  2234388
370
    25
100
AcDbVertex
100
AcDb2dVertex
 10
94.18203343054948
 20
-131.367706356047
 30
0.0
  0
SEQEND
  5
9A
330
97
100
AcDbEntity
  8
_U+30EC_U+30A4_U+30E4_U+30FC 1
 62
   179
420
  2234388
370
    25
  0
POLYLINE
  5
9B
330
1F
100
AcDbEntity
  8
_U+30EC_U+30A4_U+30E4_U+30FC 1
 62
   179
420
  2234388
370
    25
100
AcDb2dPolyline
 66
     1
 10
0.0
 20
0.0
 30
0.0
  0
VERTEX
  5
9C
330
9B
100
AcDbEntity
  8
_U+30EC_U+30A4_U+30E4_U+30FC 1
 62
   179
420
  2234388
370
    25
100
AcDbVertex
100
AcDb2dVertex
 10
92.47324847414421
 20
-126.8684138571719
 30
0.0
  0
VERTEX
  5
9D
330
9B
100
AcDbEntity
  8
_U+30EC_U+30A4_U+30E4_U+30FC 1
 62
   179
420
  2234388
370
    25
100
AcDbVertex
100
AcDb2dVertex
 10
92.47324847414421
 20
-131.367706356047
 30
0.0
  0
SEQEND
  5
9E
330
9B
100
AcDbEntity
  8
_U+30EC_U+30A4_U+30E4_U+30FC 1
 62
   179
420
  2234388
370
    25
  0
POLYLINE
  5
9F
330
1F
100
AcDbEntity
  8
_U+30EC_U+30A4_U+30E4_U+30FC 1
 62
   179
420
  2234388
370
    25
100
AcDb2dPolyline
 66
     1
 10
0.0
 20
0.0
 30
0.0
  0
VERTEX
  5
A0
330
9F
100
AcDbEntity
  8
_U+30EC_U+30A4_U+30E4_U+30FC 1
 62
   179
420
  2234388
370
    25
100
AcDbVertex
100
AcDb2dVertex
 10
90.7653454621609
 20
-126.8684138571719
 30
0.0
  0
VERTEX
  5
A1
330
9F
100
AcDbEntity
  8
_U+30EC_U+30A4_U+30E4_U+30FC 1
 62
   179
420
  2234388
370
    25
100
AcDbVertex
100
AcDb2dVertex
 10
90.7653454621609
 20
-131.367706356047
 30
0.0
  0
SEQEND
  5
A2
330
9F
100
AcDbEntity
  8
_U+30EC_U+30A4_U+30E4_U+30FC 1
 62
   179
420
  2234388
370
    25
  0
POLYLINE
  5
A3
330
1F
100
AcDbEntity
  8
_U+30EC_U+30A4_U+30E4_U+30FC 1
 62
   179
420
  2234388
370
    25
100
AcDb2dPolyline
 66
     1
 10
0.0
 20
0.0
 30
0.0
  0
VERTEX
  5
A4
330
A3
100
AcDbEntity
  8
_U+30EC_U+30A4_U+30E4_U+30FC 1
 62
   179
420
  2234388
370
    25
100
AcDbVertex
100
AcDb2dVertex
 10
90.7653454621609
 20
-126.8684138571719
 30
0.0
  0
VERTEX
  5
A5
330
A3
100
AcDbEntity
  8
_U+30EC_U+30A4_U+30E4_U+30FC 1
 62
   179
420
  2234388
370
    25
100
AcDbVertex
100
AcDb2dVertex
 10
89.8902802067079
 20
-127.9928930235575
 30
0.0
  0
SEQEND
  5
A6
330
A3
100
AcDbEntity
  8
_U+30EC_U+30A4_U+30E4_U+30FC 1
 62
   179
420
  2234388
370
    25
  0
POLYLINE
  5
A7
330
1F
100
AcDbEntity
  8
_U+30EC_U+30A4_U+30E4_U+30FC 1
 62
   179
420
  2234388
370
    25
100
AcDb2dPolyline
 66
     1
 10
0.0
 20
0.0
 30
0.0
  0
VERTEX
  5
A8
330
A7
100
AcDbEntity
  8
_U+30EC_U+30A4_U+30E4_U+30FC 1
 62
   179
420
  2234388
370
    25
100
AcDbVertex
100
AcDb2dVertex
 10
90.7653454621609
 20
-131.367706356047
 30
0.0
  0
VERTEX
  5
A9
330
A7
100
AcDbEntity
  8
_U+30EC_U+30A4_U+30E4_U+30FC 1
 62
   179
420
  2234388
370
    25
100
AcDbVertex
100
AcDb2dVertex
 10
91.64023432872952
 20
-130.2432271896615
 30
0.0
  0
SEQEND
  5
AA
330
A7
100
AcDbEntity
  8
_U+30EC_U+30A4_U+30E4_U+30FC 1
 62
   179
420
  2234388
370
    25
  0
POLYLINE
  5
AB
330
1F
100
AcDbEntity
  8
_U+30EC_U+30A4_U+30E4_U+30FC 1
 62
   179
420
  2234388
370
    25
100
AcDb2dPolyline
 66
     1
 10
0.0
 20
0.0
 30
0.0
  0
VERTEX
  5
AC
330
AB
100
AcDbEntity
  8
_U+30EC_U+30A4_U+30E4_U+30FC 1
 62
   179
420
  2234388
370
    25
100
AcDbVertex
100
AcDb2dVertex
 10
90.7653454621609
 20
-128.2932833012601
 30
0.0
  0
VERTEX
  5
AD
330
AB
100
AcDbEntity
  8
_U+30EC_U+30A4_U+30E4_U+30FC 1
 62
   179
420
  2234388
370
    25
100
AcDbVertex
100
AcDb2dVertex
 10
91.64023432872952
 20
-130.2432271896615
 30
0.0
  0
SEQEND
  5
AE
330
AB
100
AcDbEntity
  8
_U+30EC_U+30A4_U+30E4_U+30FC 1
 62
   179
420
  2234388
370
    25
  0
POLYLINE
  5
AF
330
1F
100
AcDbEntity
  8
_U+30EC_U+30A4_U+30E4_U+30FC 1
 62
   179
420
  2234388
370
    25
100
AcDb2dPolyline
 66
     1
 10
0.0
 20
0.0
 30
0.0
  0
VERTEX
  5
B0
330
AF
100
AcDbEntity
  8
_U+30EC_U+30A4_U+30E4_U+30FC 1
 62
   179
420
  2234388
370
    25
100
AcDbVertex
100
AcDb2dVertex
 10
90.7653454621609
 20
-129.942801634181
 30
0.0
  0
VERTEX
  5
B1
330
AF
100
AcDbEntity
  8
_U+30EC_U+30A4_U+30E4_U+30FC 1
 62
   179
420
  2234388
370
    25
100
AcDbVertex
100
AcDb2dVertex
 10
89.8902802067079
 20
-127.9928930235575
 30
0.0
  0
SEQEND
  5
B2
330
AF
100
AcDbEntity
  8
_U+30EC_U+30A4_U+30E4_U+30FC 1
 62
   179
420
  2234388
370
    25
  0
POLYLINE
  5
B3
330
1F
100
AcDbEntity
  8
_U+30EC_U+30A4_U+30E4_U+30FC 1
 62
   179
420
  2234388
370
    25
100
AcDb2dPolyline
 66
     1
 10
0.0
 20
0.0
 30
0.0
  0
VERTEX
  5
B4
330
B3
100
AcDbEntity
  8
_U+30EC_U+30A4_U+30E4_U+30FC 1
 62
   179
420
  2234388
370
    25
100
AcDbVertex
100
AcDb2dVertex
 10
92.47324847414421
 20
-128.2932833012601
 30
0.0
  0
VERTEX
  5
B5
330
B3
100
AcDbEntity
  8
_U+30EC_U+30A4_U+30E4_U+30FC 1
 62
   179
420
  2234388
370
    25
100
AcDbVertex
100
AcDb2dVertex
 10
93.34831372959722
 20
-130.2432271896615
 30
0.0
  0
SEQEND
  5
B6
330
B3
100
AcDbEntity
  8
_U+30EC_U+30A4_U+30E4_U+30FC 1
 62
   179
420
  2234388
370
    25
  0
POLYLINE
  5
B7
330
1F
100
AcDbEntity
  8
_U+30EC_U+30A4_U+30E4_U+30FC 1
 62
   179
420
  2234388
370
    25
100
AcDb2dPolyline
 66
     1
 10
0.0
 20
0.0
 30
0.0
  0
VERTEX
  5
B8
330
B7
100
AcDbEntity
  8
_U+30EC_U+30A4_U+30E4_U+30FC 1
 62
   179
420
  2234388
370
    25
100
AcDbVertex
100
AcDb2dVertex
 10
92.47324847414421
 20
-131.367706356047
 30
0.0
  0
VERTEX
  5
B9
330
B7
100
AcDbEntity
  8
_U+30EC_U+30A4_U+30E4_U+30FC 1
 62
   179
420
  2234388
370
    25
100
AcDbVertex
100
AcDb2dVertex
 10
93.34831372959722
 20
-130.2432271896615
 30
0.0
  0
SEQEND
  5
BA
330
B7
100
AcDbEntity
  8
_U+30EC_U+30A4_U+30E4_U+30FC 1
 62
   179
420
  2234388
370
    25
  0
POLYLINE
  5
BB
330
1F
100
AcDbEntity
  8
_U+30EC_U+30A4_U+30E4_U+30FC 1
 62
   179
420
  2234388
370
    25
100
AcDb2dPolyline
 66
     1
 10
0.0
 20
0.0
 30
0.0
  0
VERTEX
  5
BC
330
BB
100
AcDbEntity
  8
_U+30EC_U+30A4_U+30E4_U+30FC 1
 62
   179
420
  2234388
370
    25
100
AcDbVertex
100
AcDb2dVertex
 10
92.47324847414421
 20
-129.942801634181
 30
0.0
  0
VERTEX
  5
BD
330
BB
100
AcDbEntity
  8
_U+30EC_U+30A4_U+30E4_U+30FC 1
 62
   179
420
  2234388
370
    25
100
AcDbVertex
100
AcDb2dVertex
 10
91.59818321869122
 20
-127.9928930235575
 30
0.0
  0
SEQEND
  5
BE
330
BB
100
AcDbEntity
  8
_U+30EC_U+30A4_U+30E4_U+30FC 1
 62
   179
420
  2234388
370
    25
  0
POLYLINE
  5
BF
330
1F
100
AcDbEntity
  8
_U+30EC_U+30A4_U+30E4_U+30FC 1
 62
   179
420
  2234388
370
    25
100
AcDb2dPolyline
 66
     1
 10
0.0
 20
0.0
 30
0.0
  0
VERTEX
  5
C0
330
BF
100
AcDbEntity
  8
_U+30EC_U+30A4_U+30E4_U+30FC 1
 62
   179
420
  2234388
370
    25
100
AcDbVertex
100
AcDb2dVertex
 10
92.47324847414421
 20
-126.8684138571719
 30
0.0
  0
VERTEX
  5
C1
330
BF
100
AcDbEntity
  8
_U+30EC_U+30A4_U+30E4_U+30FC 1
 62
   179
420
  2234388
370
    25
100
AcDbVertex
100
AcDb2dVertex
 10
91.59818321869122
 20
-127.9928930235575
 30
0.0
  0
SEQEND
  5
C2
330
BF
100
AcDbEntity
  8
_U+30EC_U+30A4_U+30E4_U+30FC 1
 62
   179
420
  2234388
370
    25
  0
POLYLINE
  5
C3
330
1F
100
AcDbEntity
  8
_U+30EC_U+30A4_U+30E4_U+30FC 1
 62
   179
420
  2234388
370
    25
100
AcDb2dPolyline
 66
     1
 10
0.0
 20
0.0
 30
0.0
  0
VERTEX
  5
C4
330
C3
100
AcDbEntity
  8
_U+30EC_U+30A4_U+30E4_U+30FC 1
 62
   179
420
  2234388
370
    25
100
AcDbVertex
100
AcDb2dVertex
 10
94.18203343054948
 20
-126.8684138571719
 30
0.0
  0
VERTEX
  5
C5
330
C3
100
AcDbEntity
  8
_U+30EC_U+30A4_U+30E4_U+30FC 1
 62
   179
420
  2234388
370
    25
100
AcDbVertex
100
AcDb2dVertex
 10
93.30696817509649
 20
-127.9928930235575
 30
0.0
  0
SEQEND
  5
C6
330
C3
100
AcDbEntity
  8
_U+30EC_U+30A4_U+30E4_U+30FC 1
 62
   179
420
  2234388
370
    25
  0
POLYLINE
  5
C7
330
1F
100
AcDbEntity
  8
_U+30EC_U+30A4_U+30E4_U+30FC 1
 62
   179
420
  2234388
370
    25
100
AcDb2dPolyline
 66
     1
 10
0.0
 20
0.0
 30
0.0
  0
VERTEX
  5
C8
330
C7
100
AcDbEntity
  8
_U+30EC_U+30A4_U+30E4_U+30FC 1
 62
   179
420
  2234388
370
    25
100
AcDbVertex
100
AcDb2dVertex
 10
94.18203343054948
 20
-129.942801634181
 30
0.0
  0
VERTEX
  5
C9
330
C7
100
AcDbEntity
  8
_U+30EC_U+30A4_U+30E4_U+30FC 1
 62
   179
420
  2234388
370
    25
100
AcDbVertex
100
AcDb2dVertex
 10
93.30696817509649
 20
-127.9928930235575
 30
0.0
  0
SEQEND
  5
CA
330
C7
100
AcDbEntity
  8
_U+30EC_U+30A4_U+30E4_U+30FC 1
 62
   179
420
  2234388
370
    25
  0
POLYLINE
  5
CB
330
1F
100
AcDbEntity
  8
_U+30EC_U+30A4_U+30E4_U+30FC 1
 62
   179
420
  2234388
370
    25
100
AcDb2dPolyline
 66
     1
 10
0.0
 20
0.0
 30
0.0
  0
VERTEX
  5
CC
330
CB
100
AcDbEntity
  8
_U+30EC_U+30A4_U+30E4_U+30FC 1
 62
   179
420
  2234388
370
    25
100
AcDbVertex
100
AcDb2dVertex
 10
94.18203343054948
 20
-131.367706356047
 30
0.0
  0
VERTEX
  5
CD
330
CB
100
AcDbEntity
  8
_U+30EC_U+30A4_U+30E4_U+30FC 1
 62
   179
420
  2234388
370
    25
100
AcDbVertex
100
AcDb2dVertex
 10
95.0570634082256
 20
-130.2432271896615
 30
0.0
  0
SEQEND
  5
CE
330
CB
100
AcDbEntity
  8
_U+30EC_U+30A4_U+30E4_U+30FC 1
 62
   179
420
  2234388
370
    25
  0
POLYLINE
  5
CF
330
1F
100
AcDbEntity
  8
_U+30EC_U+30A4_U+30E4_U+30FC 1
 62
   179
420
  2234388
370
    25
100
AcDb2dPolyline
 66
     1
 10
0.0
 20
0.0
 30
0.0
  0
VERTEX
  5
D0
330
CF
100
AcDbEntity
  8
_U+30EC_U+30A4_U+30E4_U+30FC 1
 62
   179
420
  2234388
370
    25
100
AcDbVertex
100
AcDb2dVertex
 10
94.18203343054948
 20
-128.2932833012601
 30
0.0
  0
VERTEX
  5
D1
330
CF
100
AcDbEntity
  8
_U+30EC_U+30A4_U+30E4_U+30FC 1
 62
   179
420
  2234388
370
    25
100
AcDbVertex
100
AcDb2dVertex
 10
95.0570634082256
 20
-130.2432271896615
 30
0.0
  0
SEQEND
  5
D2
330
CF
100
AcDbEntity
  8
_U+30EC_U+30A4_U+30E4_U+30FC 1
 62
   179
420
  2234388
370
    25
  0
POLYLINE
  5
D3
330
1F
100
AcDbEntity
  8
_U+30EC_U+30A4_U+30E4_U+30FC 1
 62
   179
420
  2234388
370
    25
100
AcDb2dPolyline
 66
     1
 10
0.0
 20
0.0
 30
0.0
  0
VERTEX
  5
D4
330
D3
100
AcDbEntity
  8
_U+30EC_U+30A4_U+30E4_U+30FC 1
 62
   179
420
  2234388
370
    25
100
AcDbVertex
100
AcDb2dVertex
 10
95.89011283141718
 20
-128.2932833012601
 30
0.0
  0
VERTEX
  5
D5
330
D3
100
AcDbEntity
  8
_U+30EC_U+30A4_U+30E4_U+30FC 1
 62
   179
420
  2234388
370
    25
100
AcDbVertex
100
AcDb2dVertex
 10
96.76514280909332
 20
-130.2432271896615
 30
0.0
  0
SEQEND
  5
D6
330
D3
100
AcDbEntity
  8
_U+30EC_U+30A4_U+30E4_U+30FC 1
 62
   179
420
  2234388
370
    25
  0
POLYLINE
  5
D7
330
1F
100
AcDbEntity
  8
_U+30EC_U+30A4_U+30E4_U+30FC 1
 62
   179
420
  2234388
370
    25
100
AcDb2dPolyline
 66
     1
 10
0.0
 20
0.0
 30
0.0
  0
VERTEX
  5
D8
330
D7
100
AcDbEntity
  8
_U+30EC_U+30A4_U+30E4_U+30FC 1
 62
   179
420
  2234388
370
    25
100
AcDbVertex
100
AcDb2dVertex
 10
95.89011283141718
 20
-131.367706356047
 30
0.0
  0
VERTEX
  5
D9
330
D7
100
AcDbEntity
  8
_U+30EC_U+30A4_U+30E4_U+30FC 1
 62
   179
420
  2234388
370
    25
100
AcDbVertex
100
AcDb2dVertex
 10
96.76514280909332
 20
-130.2432271896615
 30
0.0
  0
SEQEND
  5
DA
330
D7
100
AcDbEntity
  8
_U+30EC_U+30A4_U+30E4_U+30FC 1
 62
   179
420
  2234388
370
    25
  0
POLYLINE
  5
DB
330
1F
100
AcDbEntity
  8
_U+30EC_U+30A4_U+30E4_U+30FC 1
 62
   179
420
  2234388
370
    25
100
AcDb2dPolyline
 66
     1
 10
0.0
 20
0.0
 30
0.0
  0
VERTEX
  5
DC
330
DB
100
AcDbEntity
  8
_U+30EC_U+30A4_U+30E4_U+30FC 1
 62
   179
420
  2234388
370
    25
100
AcDbVertex
100
AcDb2dVertex
 10
95.89011283141718
 20
-129.942801634181
 30
0.0
  0
VERTEX
  5
DD
330
DB
100
AcDbEntity
  8
_U+30EC_U+30A4_U+30E4_U+30FC 1
 62
   179
420
  2234388
370
    25
100
AcDbVertex
100
AcDb2dVertex
 10
95.0150499762465
 20
-127.9928930235575
 30
0.0
  0
SEQEND
  5
DE
330
DB
100
AcDbEntity
  8
_U+30EC_U+30A4_U+30E4_U+30FC 1
 62
   179
420
  2234388
370
    25
  0
POLYLINE
  5
DF
330
1F
100
AcDbEntity
  8
_U+30EC_U+30A4_U+30E4_U+30FC 1
 62
   179
420
  2234388
370
    25
100
AcDb2dPolyline
 66
     1
 10
0.0
 20
0.0
 30
0.0
  0
VERTEX
  5
E0
330
DF
100
AcDbEntity
  8
_U+30EC_U+30A4_U+30E4_U+30FC 1
 62
   179
420
  2234388
370
    25
100
AcDbVertex
100
AcDb2dVertex
 10
95.89011283141718
 20
-126.8684138571719
 30
0.0
  0
VERTEX
  5
E1
330
DF
100
AcDbEntity
  8
_U+30EC_U+30A4_U+30E4_U+30FC 1
 62
   179
420
  2234388
370
    25
100
AcDbVertex
100
AcDb2dVertex
 10
95.0150499762465
 20
-127.9928930235575
 30
0.0
  0
SEQEND
  5
E2
330
DF
100
AcDbEntity
  8
_U+30EC_U+30A4_U+30E4_U+30FC 1
 62
   179
420
  2234388
370
    25
  0
POLYLINE
  5
E3
330
1F
100
AcDbEntity
  8
_U+30EC_U+30A4_U+30E4_U+30FC 1
 62
   179
420
  2234388
370
    25
100
AcDb2dPolyline
 66
     1
 10
0.0
 20
0.0
 30
0.0
  0
VERTEX
  5
E4
330
E3
100
AcDbEntity
  8
_U+30EC_U+30A4_U+30E4_U+30FC 1
 62
   179
420
  2234388
370
    25
100
AcDbVertex
100
AcDb2dVertex
 10
97.59886251004558
 20
-126.8684138571719
 30
0.0
  0
VERTEX
  5
E5
330
E3
100
AcDbEntity
  8
_U+30EC_U+30A4_U+30E4_U+30FC 1
 62
   179
420
  2234388
370
    25
100
AcDbVertex
100
AcDb2dVertex
 10
96.72379725459257
 20
-127.9928930235575
 30
0.0
  0
SEQEND
  5
E6
330
E3
100
AcDbEntity
  8
_U+30EC_U+30A4_U+30E4_U+30FC 1
 62
   179
420
  2234388
370
    25
  0
POLYLINE
  5
E7
330
1F
100
AcDbEntity
  8
_U+30EC_U+30A4_U+30E4_U+30FC 1
 62
   179
420
  2234388
370
    25
100
AcDb2dPolyline
 66
     1
 10
0.0
 20
0.0
 30
0.0
  0
VERTEX
  5
E8
330
E7
100
AcDbEntity
  8
_U+30EC_U+30A4_U+30E4_U+30FC 1
 62
   179
420
  2234388
370
    25
100
AcDbVertex
100
AcDb2dVertex
 10
97.59886251004558
 20
-129.942801634181
 30
0.0
  0
VERTEX
  5
E9
330
E7
100
AcDbEntity
  8
_U+30EC_U+30A4_U+30E4_U+30FC 1
 62
   179
420
  2234388
370
    25
100
AcDbVertex
100
AcDb2dVertex
 10
96.72379725459257
 20
-127.9928930235575
 30
0.0
  0
SEQEND
  5
EA
330
E7
100
AcDbEntity
  8
_U+30EC_U+30A4_U+30E4_U+30FC 1
 62
   179
420
  2234388
370
    25
  0
POLYLINE
  5
EB
330
1F
100
AcDbEntity
  8
_U+30EC_U+30A4_U+30E4_U+30FC 1
 62
   179
420
  2234388
370
    25
100
AcDb2dPolyline
 66
     1
 10
0.0
 20
0.0
 30
0.0
  0
VERTEX
  5
EC
330
EB
100
AcDbEntity
  8
_U+30EC_U+30A4_U+30E4_U+30FC 1
 62
   179
420
  2234388
370
    25
100
AcDbVertex
100
AcDb2dVertex
 10
97.59886251004558
 20
-131.367706356047
 30
0.0
  0
VERTEX
  5
ED
330
EB
100
AcDbEntity
  8
_U+30EC_U+30A4_U+30E4_U+30FC 1
 62
   179
420
  2234388
370
    25
100
AcDbVertex
100
AcDb2dVertex
 10
98.47322220996102
 20
-130.2432271896615
 30
0.0
  0
SEQEND
  5
EE
330
EB
100
AcDbEntity
  8
_U+30EC_U+30A4_U+30E4_U+30FC 1
 62
   179
420
  2234388
370
    25
  0
POLYLINE
  5
EF
330
1F
100
AcDbEntity
  8
_U+30EC_U+30A4_U+30E4_U+30FC 1
 62
   179
420
  2234388
370
    25
100
AcDb2dPolyline
 66
     1
 10
0.0
 20
0.0
 30
0.0
  0
VERTEX
  5
F0
330
EF
100
AcDbEntity
  8
_U+30EC_U+30A4_U+30E4_U+30FC 1
 62
   179
420
  2234388
370
    25
100
AcDbVertex
100
AcDb2dVertex
 10
97.59886251004558
 20
-128.2932833012601
 30
0.0
  0
VERTEX
  5
F1
330
EF
100
AcDbEntity
  8
_U+30EC_U+30A4_U+30E4_U+30FC 1
 62
   179
420
  2234388
370
    25
100
AcDbVertex
100
AcDb2dVertex
 10
98.47322220996102
 20
-130.2432271896615
 30
0.0
  0
SEQEND
  5
F2
330
EF
100
AcDbEntity
  8
_U+30EC_U+30A4_U+30E4_U+30FC 1
 62
   179
420
  2234388
370
    25
  0
POLYLINE
  5
F3
330
1F
100
AcDbEntity
  8
_U+30EC_U+30A4_U+30E4_U+30FC 1
 62
   179
420
  2234388
370
    25
100
AcDb2dPolyline
 66
     1
 10
0.0
 20
0.0
 30
0.0
  0
VERTEX
  5
F4
330
F3
100
AcDbEntity
  8
_U+30EC_U+30A4_U+30E4_U+30FC 1
 62
   179
420
  2234388
370
    25
100
AcDbVertex
100
AcDb2dVertex
 10
99.30694441961771
 20
-129.942801634181
 30
0.0
  0
VERTEX
  5
F5
330
F3
100
AcDbEntity
  8
_U+30EC_U+30A4_U+30E4_U+30FC 1
 62
   179
420
  2234388
370
    25
100
AcDbVertex
100
AcDb2dVertex
 10
98.43187665546029
 20
-127.9928930235575
 30
0.0
  0
SEQEND
  5
F6
330
F3
100
AcDbEntity
  8
_U+30EC_U+30A4_U+30E4_U+30FC 1
 62
   179
420
  2234388
370
    25
  0
POLYLINE
  5
F7
330
1F
100
AcDbEntity
  8
_U+30EC_U+30A4_U+30E4_U+30FC 1
 62
   179
420
  2234388
370
    25
100
AcDb2dPolyline
 66
     1
 10
0.0
 20
0.0
 30
0.0
  0
VERTEX
  5
F8
330
F7
100
AcDbEntity
  8
_U+30EC_U+30A4_U+30E4_U+30FC 1
 62
   179
420
  2234388
370
    25
100
AcDbVertex
100
AcDb2dVertex
 10
99.05957413944638
 20
-127.1860196904256
 30
0.0
  0
VERTEX
  5
F9
330
F7
100
AcDbEntity
  8
_U+30EC_U+30A4_U+30E4_U+30FC 1
 62
   179
420
  2234388
370
    25
100
AcDbVertex
100
AcDb2dVertex
 10
98.43187665546029
 20
-127.9928930235575
 30
0.0
  0
SEQEND
  5
FA
330
F7
100
AcDbEntity
  8
_U+30EC_U+30A4_U+30E4_U+30FC 1
 62
   179
420
  2234388
370
    25
  0
POLYLINE
  5
FB
330
1F
100
AcDbEntity
  8
_U+30EC_U+30A4_U+30E4_U+30FC 1
 62
   179
420
  2234388
370
    25
100
AcDb2dPolyline
 66
     1
 10
0.0
 20
0.0
 30
0.0
  0
VERTEX
  5
FC
330
FB
100
AcDbEntity
  8
_U+30EC_U+30A4_U+30E4_U+30FC 1
 62
   179
420
  2234388
370
    25
100
AcDbVertex
100
AcDb2dVertex
 10
89.05726606129319
 20
-127.9928930235575
 30
0.0
  0
VERTEX
  5
FD
330
FB
100
AcDbEntity
  8
_U+30EC_U+30A4_U+30E4_U+30FC 1
 62
   179
420
  2234388
370
    25
100
AcDbVertex
100
AcDb2dVertex
 10
89.05726606129319
 20
-130.2432271896615
 30
0.0
  0
SEQEND
  5
FE
330
FB
100
AcDbEntity
  8
_U+30EC_U+30A4_U+30E4_U+30FC 1
 62
   179
420
  2234388
370
    25
  0
POLYLINE
  5
FF
330
1F
100
AcDbEntity
  8
_U+30EC_U+30A4_U+30E4_U+30FC 1
 62
   179
420
  2234388
370
    25
100
AcDb2dPolyline
 66
     1
 10
0.0
 20
0.0
 30
0.0
  0
VERTEX
  5
100
330
FF
100
AcDbEntity
  8
_U+30EC_U+30A4_U+30E4_U+30FC 1
 62
   179
420
  2234388
370
    25
100
AcDbVertex
100
AcDb2dVertex
 10
89.34940133161798
 20
-130.9915041339189
 30
0.0
  0
VERTEX
  5
101
330
FF
100
AcDbEntity
  8
_U+30EC_U+30A4_U+30E4_U+30FC 1
 62
   179
420
  2234388
370
    25
100
AcDbVertex
100
AcDb2dVertex
 10
89.93162576120864
 20
-130.2432271896615
 30
0.0
  0
SEQEND
  5
102
330
FF
100
AcDbEntity
  8
_U+30EC_U+30A4_U+30E4_U+30FC 1
 62
   179
420
  2234388
370
    25
  0
POLYLINE
  5
103
330
1F
100
AcDbEntity
  8
_U+30EC_U+30A4_U+30E4_U+30FC 1
 62
   179
420
  2234388
370
    25
100
AcDb2dPolyline
 66
     1
 10
0.0
 20
0.0
 30
0.0
  0
VERTEX
  5
104
330
103
100
AcDbEntity
  8
_U+30EC_U+30A4_U+30E4_U+30FC 1
 62
   179
420
  2234388
370
    25
100
AcDbVertex
100
AcDb2dVertex
 10
90.7653454621609
 20
-127.9928930235575
 30
0.0
  0
VERTEX
  5
105
330
103
100
AcDbEntity
  8
_U+30EC_U+30A4_U+30E4_U+30FC 1
 62
   179
420
  2234388
370
    25
100
AcDbVertex
100
AcDb2dVertex
 10
91.59818321869122
 20
-127.9928930235575
 30
0.0
  0
SEQEND
  5
106
330
103
100
AcDbEntity
  8
_U+30EC_U+30A4_U+30E4_U+30FC 1
 62
   179
420
  2234388
370
    25
  0
POLYLINE
  5
107
330
1F
100
AcDbEntity
  8
_U+30EC_U+30A4_U+30E4_U+30FC 1
 62
   179
420
  2234388
370
    25
100
AcDb2dPolyline
 66
     1
 10
0.0
 20
0.0
 30
0.0
  0
VERTEX
  5
108
330
107
100
AcDbEntity
  8
_U+30EC_U+30A4_U+30E4_U+30FC 1
 62
   179
420
  2234388
370
    25
100
AcDbVertex
100
AcDb2dVertex
 10
92.47324847414421
 20
-127.9928930235575
 30
0.0
  0
VERTEX
  5
109
330
107
100
AcDbEntity
  8
_U+30EC_U+30A4_U+30E4_U+30FC 1
 62
   179
420
  2234388
370
    25
100
AcDbVertex
100
AcDb2dVertex
 10
93.30696817509649
 20
-127.9928930235575
 30
0.0
  0
SEQEND
  5
10A
330
107
100
AcDbEntity
  8
_U+30EC_U+30A4_U+30E4_U+30FC 1
 62
   179
420
  2234388
370
    25
  0
POLYLINE
  5
10B
330
1F
100
AcDbEntity
  8
_U+30EC_U+30A4_U+30E4_U+30FC 1
 62
   179
420
  2234388
370
    25
100
AcDb2dPolyline
 66
     1
 10
0.0
 20
0.0
 30
0.0
  0
VERTEX
  5
10C
330
10B
100
AcDbEntity
  8
_U+30EC_U+30A4_U+30E4_U+30FC 1
 62
   179
420
  2234388
370
    25
100
AcDbVertex
100
AcDb2dVertex
 10
94.18203343054948
 20
-127.9928930235575
 30
0.0
  0
VERTEX
  5
10D
330
10B
100
AcDbEntity
  8
_U+30EC_U+30A4_U+30E4_U+30FC 1
 62
   179
420
  2234388
370
    25
100
AcDbVertex
100
AcDb2dVertex
 10
95.0150499762465
 20
-127.9928930235575
 30
0.0
  0
SEQEND
  5
10E
330
10B
100
AcDbEntity
  8
_U+30EC_U+30A4_U+30E4_U+30FC 1
 62
   179
420
  2234388
370
    25
  0
POLYLINE
  5
10F
330
1F
100
AcDbEntity
  8
_U+30EC_U+30A4_U+30E4_U+30FC 1
 62
   179
420
  2234388
370
    25
100
AcDb2dPolyline
 66
     1
 10
0.0
 20
0.0
 30
0.0
  0
VERTEX
  5
110
330
10F
100
AcDbEntity
  8
_U+30EC_U+30A4_U+30E4_U+30FC 1
 62
   179
420
  2234388
370
    25
100
AcDbVertex
100
AcDb2dVertex
 10
95.89011283141718
 20
-127.9928930235575
 30
0.0
  0
VERTEX
  5
111
330
10F
100
AcDbEntity
  8
_U+30EC_U+30A4_U+30E4_U+30FC 1
 62
   179
420
  2234388
370
    25
100
AcDbVertex
100
AcDb2dVertex
 10
96.72379725459257
 20
-127.9928930235575
 30
0.0
  0
SEQEND
  5
112
330
10F
100
AcDbEntity
  8
_U+30EC_U+30A4_U+30E4_U+30FC 1
 62
   179
420
  2234388
370
    25
  0
POLYLINE
  5
113
330
1F
100
AcDbEntity
  8
_U+30EC_U+30A4_U+30E4_U+30FC 1
 62
   179
420
  2234388
370
    25
100
AcDb2dPolyline
 66
     1
 10
0.0
 20
0.0
 30
0.0
  0
VERTEX
  5
114
330
113
100
AcDbEntity
  8
_U+30EC_U+30A4_U+30E4_U+30FC 1
 62
   179
420
  2234388
370
    25
100
AcDbVertex
100
AcDb2dVertex
 10
97.59886251004558
 20
-127.9928930235575
 30
0.0
  0
VERTEX
  5
115
330
113
100
AcDbEntity
  8
_U+30EC_U+30A4_U+30E4_U+30FC 1
 62
   179
420
  2234388
370
    25
100
AcDbVertex
100
AcDb2dVertex
 10
98.43187665546029
 20
-127.9928930235575
 30
0.0
  0
SEQEND
  5
116
330
113
100
AcDbEntity
  8
_U+30EC_U+30A4_U+30E4_U+30FC 1
 62
   179
420
  2234388
370
    25
  0
POLYLINE
  5
117
330
1F
100
AcDbEntity
  8
_U+30EC_U+30A4_U+30E4_U+30FC 1
 62
   179
420
  2234388
370
    25
100
AcDb2dPolyline
 66
     1
 10
0.0
 20
0.0
 30
0.0
  0
VERTEX
  5
118
330
117
100
AcDbEntity
  8
_U+30EC_U+30A4_U+30E4_U+30FC 1
 62
   179
420
  2234388
370
    25
100
AcDbVertex
100
AcDb2dVertex
 10
89.93162576120864
 20
-130.2432271896615
 30
0.0
  0
VERTEX
  5
119
330
117
100
AcDbEntity
  8
_U+30EC_U+30A4_U+30E4_U+30FC 1
 62
   179
420
  2234388
370
    25
100
AcDbVertex
100
AcDb2dVertex
 10
90.7653454621609
 20
-130.2432271896615
 30
0.0
  0
SEQEND
  5
11A
330
117
100
AcDbEntity
  8
_U+30EC_U+30A4_U+30E4_U+30FC 1
 62
   179
420
  2234388
370
    25
  0
POLYLINE
  5
11B
330
1F
100
AcDbEntity
  8
_U+30EC_U+30A4_U+30E4_U+30FC 1
 62
   179
420
  2234388
370
    25
100
AcDb2dPolyline
 66
     1
 10
0.0
 20
0.0
 30
0.0
  0
VERTEX
  5
11C
330
11B
100
AcDbEntity
  8
_U+30EC_U+30A4_U+30E4_U+30FC 1
 62
   179
420
  2234388
370
    25
100
AcDbVertex
100
AcDb2dVertex
 10
89.05726606129319
 20
-127.9928930235575
 30
0.0
  0
VERTEX
  5
11D
330
11B
100
AcDbEntity
  8
_U+30EC_U+30A4_U+30E4_U+30FC 1
 62
   179
420
  2234388
370
    25
100
AcDbVertex
100
AcDb2dVertex
 10
89.93162576120864
 20
-130.2432271896615
 30
0.0
  0
SEQEND
  5
11E
330
11B
100
AcDbEntity
  8
_U+30EC_U+30A4_U+30E4_U+30FC 1
 62
   179
420
  2234388
370
    25
  0
POLYLINE
  5
11F
330
1F
100
AcDbEntity
  8
_U+30EC_U+30A4_U+30E4_U+30FC 1
 62
   179
420
  2234388
370
    25
100
AcDb2dPolyline
 66
     1
 10
0.0
 20
0.0
 30
0.0
  0
VERTEX
  5
120
330
11F
100
AcDbEntity
  8
_U+30EC_U+30A4_U+30E4_U+30FC 1
 62
   179
420
  2234388
370
    25
100
AcDbVertex
100
AcDb2dVertex
 10
91.64023432872952
 20
-130.2432271896615
 30
0.0
  0
VERTEX
  5
121
330
11F
100
AcDbEntity
  8
_U+30EC_U+30A4_U+30E4_U+30FC 1
 62
   179
420
  2234388
370
    25
100
AcDbVertex
100
AcDb2dVertex
 10
92.47324847414421
 20
-130.2432271896615
 30
0.0
  0
SEQEND
  5
122
330
11F
100
AcDbEntity
  8
_U+30EC_U+30A4_U+30E4_U+30FC 1
 62
   179
420
  2234388
370
    25
  0
POLYLINE
  5
123
330
1F
100
AcDbEntity
  8
_U+30EC_U+30A4_U+30E4_U+30FC 1
 62
   179
420
  2234388
370
    25
100
AcDb2dPolyline
 66
     1
 10
0.0
 20
0.0
 30
0.0
  0
VERTEX
  5
124
330
123
100
AcDbEntity
  8
_U+30EC_U+30A4_U+30E4_U+30FC 1
 62
   179
420
  2234388
370
    25
100
AcDbVertex
100
AcDb2dVertex
 10
93.34831372959722
 20
-130.2432271896615
 30
0.0
  0
VERTEX
  5
125
330
123
100
AcDbEntity
  8
_U+30EC_U+30A4_U+30E4_U+30FC 1
 62
   179
420
  2234388
370
    25
100
AcDbVertex
100
AcDb2dVertex
 10
94.18203343054948
 20
-130.2432271896615
 30
0.0
  0
SEQEND
  5
126
330
123
100
AcDbEntity
  8
_U+30EC_U+30A4_U+30E4_U+30FC 1
 62
   179
420
  2234388
370
    25
  0
POLYLINE
  5
127
330
1F
100
AcDbEntity
  8
_U+30EC_U+30A4_U+30E4_U+30FC 1
 62
   179
420
  2234388
370
    25
100
AcDb2dPolyline
 66
     1
 10
0.0
 20
0.0
 30
0.0
  0
VERTEX
  5
128
330
127
100
AcDbEntity
  8
_U+30EC_U+30A4_U+30E4_U+30FC 1
 62
   179
420
  2234388
370
    25
100
AcDbVertex
100
AcDb2dVertex
 10
95.0570634082256
 20
-130.2432271896615
 30
0.0
  0
VERTEX
  5
129
330
127
100
AcDbEntity
  8
_U+30EC_U+30A4_U+30E4_U+30FC 1
 62
   179
420
  2234388
370
    25
100
AcDbVertex
100
AcDb2dVertex
 10
95.89011283141718
 20
-130.2432271896615
 30
0.0
  0
SEQEND
  5
12A
330
127
100
AcDbEntity
  8
_U+30EC_U+30A4_U+30E4_U+30FC 1
 62
   179
420
  2234388
370
    25
  0
POLYLINE
  5
12B
330
1F
100
AcDbEntity
  8
_U+30EC_U+30A4_U+30E4_U+30FC 1
 62
   179
420
  2234388
370
    25
100
AcDb2dPolyline
 66
     1
 10
0.0
 20
0.0
 30
0.0
  0
VERTEX
  5
12C
330
12B
100
AcDbEntity
  8
_U+30EC_U+30A4_U+30E4_U+30FC 1
 62
   179
420
  2234388
370
    25
100
AcDbVertex
100
AcDb2dVertex
 10
96.76514280909332
 20
-130.2432271896615
 30
0.0
  0
VERTEX
  5
12D
330
12B
100
AcDbEntity
  8
_U+30EC_U+30A4_U+30E4_U+30FC 1
 62
   179
420
  2234388
370
    25
100
AcDbVertex
100
AcDb2dVertex
 10
97.59886251004558
 20
-130.2432271896615
 30
0.0
  0
SEQEND
  5
12E
330
12B
100
AcDbEntity
  8
_U+30EC_U+30A4_U+30E4_U+30FC 1
 62
   179
420
  2234388
370
    25
  0
POLYLINE
  5
12F
330
1F
100
AcDbEntity
  8
_U+30EC_U+30A4_U+30E4_U+30FC 1
 62
   179
420
  2234388
370
    25
100
AcDb2dPolyline
 66
     1
 10
0.0
 20
0.0
 30
0.0
  0
VERTEX
  5
130
330
12F
100
AcDbEntity
  8
_U+30EC_U+30A4_U+30E4_U+30FC 1
 62
   179
420
  2234388
370
    25
100
AcDbVertex
100
AcDb2dVertex
 10
98.47322220996102
 20
-130.2432271896615
 30
0.0
  0
VERTEX
  5
131
330
12F
100
AcDbEntity
  8
_U+30EC_U+30A4_U+30E4_U+30FC 1
 62
   179
420
  2234388
370
    25
100
AcDbVertex
100
AcDb2dVertex
 10
99.30694441961771
 20
-130.2432271896615
 30
0.0
  0
SEQEND
  5
132
330
12F
100
AcDbEntity
  8
_U+30EC_U+30A4_U+30E4_U+30FC 1
 62
   179
420
  2234388
370
    25
  0
POLYLINE
  5
133
330
1F
100
AcDbEntity
  8
_U+30EC_U+30A4_U+30E4_U+30FC 1
 62
   179
420
  2234388
370
    25
100
AcDb2dPolyline
 66
     1
 10
0.0
 20
0.0
 30
0.0
  0
VERTEX
  5
134
330
133
100
AcDbEntity
  8
_U+30EC_U+30A4_U+30E4_U+30FC 1
 62
   179
420
  2234388
370
    25
100
AcDbVertex
100
AcDb2dVertex
 10
89.05726606129319
 20
-130.2432271896615
 30
0.0
  0
VERTEX
  5
135
330
133
100
AcDbEntity
  8
_U+30EC_U+30A4_U+30E4_U+30FC 1
 62
   179
420
  2234388
370
    25
100
AcDbVertex
100
AcDb2dVertex
 10
89.34940133161798
 20
-130.9915041339189
 30
0.0
  0
SEQEND
  5
136
330
133
100
AcDbEntity
  8
_U+30EC_U+30A4_U+30E4_U+30FC 1
 62
   179
420
  2234388
370
    25
  0
POLYLINE
  5
137
330
1F
100
AcDbEntity
  8
_U+30EC_U+30A4_U+30E4_U+30FC 1
 62
   179
420
  2234388
370
    25
100
AcDb2dPolyline
 66
     1
 10
0.0
 20
0.0
 30
0.0
  0
VERTEX
  5
138
330
137
100
AcDbEntity
  8
_U+30EC_U+30A4_U+30E4_U+30FC 1
 62
   179
420
  2234388
370
    25
100
AcDbVertex
100
AcDb2dVertex
 10
99.30694441961771
 20
-129.942801634181
 30
0.0
  0
VERTEX
  5
139
330
137
100
AcDbEntity
  8
_U+30EC_U+30A4_U+30E4_U+30FC 1
 62
   179
420
  2234388
370
    25
100
AcDbVertex
100
AcDb2dVertex
 10
99.05957413944638
 20
-127.1860196904256
 30
0.0
  0
SEQEND
  5
13A
330
137
100
AcDbEntity
  8
_U+30EC_U+30A4_U+30E4_U+30FC 1
 62
   179
420
  2234388
370
    25
  0
POLYLINE
  5
13B
330
1F
100
AcDbEntity
  8
_U+30EC_U+30A4_U+30E4_U+30FC 1
 62
   179
420
  2234388
370
    25
100
AcDb2dPolyline
 66
     1
 10
0.0
 20
0.0
 30
0.0
  0
VERTEX
  5
13C
330
13B
100
AcDbEntity
  8
_U+30EC_U+30A4_U+30E4_U+30FC 1
 62
   179
420
  2234388
370
    25
100
AcDbVertex
100
AcDb2dVertex
 10
88.55702718516646
 20
-127.7041796902963
 30
0.0
  0
VERTEX
  5
13D
330
13B
100
AcDbEntity
  8
_U+30EC_U+30A4_U+30E4_U+30FC 1
 62
   179
420
  2234388
370
    25
100
AcDbVertex
100
AcDb2dVertex
 10
89.05726606129319
 20
-127.9928930235575
 30
0.0
  0
SEQEND
  5
13E
330
13B
100
AcDbEntity
  8
_U+30EC_U+30A4_U+30E4_U+30FC 1
 62
   179
420
  2234388
370
    25
  0
POLYLINE
  5
13F
330
1F
100
AcDbEntity
  8
_U+30EC_U+30A4_U+30E4_U+30FC 1
 62
   179
420
  2234388
370
    25
100
AcDb2dPolyline
 66
     1
 10
0.0
 20
0.0
 30
0.0
  0
VERTEX
  5
140
330
13F
100
AcDbEntity
  8
_U+30EC_U+30A4_U+30E4_U+30FC 1
 62
   179
420
  2234388
370
    25
100
AcDbVertex
100
AcDb2dVertex
 10
88.55702718516646
 20
-130.5319052451445
 30
0.0
  0
VERTEX
  5
141
330
13F
100
AcDbEntity
  8
_U+30EC_U+30A4_U+30E4_U+30FC 1
 62
   179
420
  2234388
370
    25
100
AcDbVertex
100
AcDb2dVertex
 10
89.05726606129319
 20
-130.2432271896615
 30
0.0
  0
SEQEND
  5
142
330
13F
100
AcDbEntity
  8
_U+30EC_U+30A4_U+30E4_U+30FC 1
 62
   179
420
  2234388
370
    25
  0
SPLINE
  5
143
330
1F
100
AcDbEntity
  8
_U+30EC_U+30A4_U+30E4_U+30FC 1
 62
   179
420
  2234388
370
    25
100
AcDbSpline
210
0.0
220
0.0
230
1.0
 70
     8
 71
     3
 72
     8
 73
     4
 74
     0
 42
0.0000000001
 43
0.0000000001
 12
1.0
 22
0.0
 32
0.0
 13
1.0
 23
0.0
 33
0.0
 40
0.0
 40
0.0
 40
0.0
 40
0.0
 40
1.0
 40
1.0
 40
1.0
 40
1.0
 10
101.9445201769564
 20
-129.0477691344049
 30
0.0
 10
101.7054074052789
 20
-129.5307571898397
 30
0.0
 10
101.801186569502
 20
-130.1123113563607
 30
0.0
 10
102.1815162820212
 20
-130.4933113562655
 30
0.0
  0
SPLINE
  5
144
330
1F
100
AcDbEntity
  8
_U+30EC_U+30A4_U+30E4_U+30FC 1
 62
   179
420
  2234388
370
     9
100
AcDbSpline
210
0.0
220
0.0
230
1.0
 70
    11
 71
     3
 72
    17
 73
    13
 74
     0
 42
0.0000000001
 43
0.0000000001
 12
1.0
 22
0.0
 32
0.0
 13
1.0
 23
0.0
 33
0.0
 40
0.0
 40
0.0
 40
0.0
 40
0.0
 40
1.0
 40
1.0
 40
1.0
 40
2.0
 40
2.0
 40
2.0
 40
3.0
 40
3.0
 40
3.0
 40
4.0
 40
4.0
 40
4.0
 40
4.0
 10
107.6571564201038
 20
-126.8684138571719
 30
0.0
 10
107.6571564201038
 20
-126.8126044127412
 30
0.0
 10
107.6123916397635
 20
-126.7678016349748
 30
0.0
 10
107.5565794782253
 20
-126.7678016349748
 30
0.0
 10
107.5014403129653
 20
-126.7678016349748
 30
0.0
 10
107.4566728141074
 20
-126.8126044127412
 30
0.0
 10
107.4566728141074
 20
-126.8684138571719
 30
0.0
 10
107.4566728141074
 20
-126.9235177460469
 30
0.0
 10
107.5014403129653
 20
-126.9683205238136
 30
0.0
 10
107.5565794782253
 20
-126.9683205238136
 30
0.0
 10
107.6123916397635
 20
-126.9683205238136
 30
0.0
 10
107.6571564201038
 20
-126.9235177460469
 30
0.0
 10
107.6571564201038
 20
-126.8684138571719
 30
0.0
  0
SPLINE
  5
145
330
1F
100
AcDbEntity
  8
_U+30EC_U+30A4_U+30E4_U+30FC 1
 62
   179
420
  2234388
370
     9
100
AcDbSpline
210
0.0
220
0.0
230
1.0
 70
    11
 71
     3
 72
    17
 73
    13
 74
     0
 42
0.0000000001
 43
0.0000000001
 12
1.0
 22
0.0
 32
0.0
 13
1.0
 23
0.0
 33
0.0
 40
0.0
 40
0.0
 40
0.0
 40
0.0
 40
1.0
 40
1.0
 40
1.0
 40
2.0
 40
2.0
 40
2.0
 40
3.0
 40
3.0
 40
3.0
 40
4.0
 40
4.0
 40
4.0
 40
4.0
 10
107.6571564201038
 20
-131.367706356047
 30
0.0
 10
107.6571564201038
 20
-131.3125671893939
 30
0.0
 10
107.6123916397635
 20
-131.2677996894054
 30
0.0
 10
107.5565794782253
 20
-131.2677996894054
 30
0.0
 10
107.5014403129653
 20
-131.2677996894054
 30
0.0
 10
107.4566728141074
 20
-131.3125671893939
 30
0.0
 10
107.4566728141074
 20
-131.367706356047
 30
0.0
 10
107.4566728141074
 20
-131.4235158004774
 30
0.0
 10
107.5014403129653
 20
-131.468283300466
 30
0.0
 10
107.5565794782253
 20
-131.468283300466
 30
0.0
 10
107.6123916397635
 20
-131.468283300466
 30
0.0
 10
107.6571564201038
 20
-131.4235158004774
 30
0.0
 10
107.6571564201038
 20
-131.367706356047
 30
0.0
  0
SPLINE
  5
146
330
1F
100
AcDbEntity
  8
_U+30EC_U+30A4_U+30E4_U+30FC 1
 62
   179
420
  2234388
370
     9
100
AcDbSpline
210
0.0
220
0.0
230
1.0
 70
    11
 71
     3
 72
    17
 73
    13
 74
     0
 42
0.0000000001
 43
0.0000000001
 12
1.0
 22
0.0
 32
0.0
 13
1.0
 23
0.0
 33
0.0
 40
0.0
 40
0.0
 40
0.0
 40
0.0
 40
1.0
 40
1.0
 40
1.0
 40
2.0
 40
2.0
 40
2.0
 40
3.0
 40
3.0
 40
3.0
 40
4.0
 40
4.0
 40
4.0
 40
4.0
 10
103.6567270777188
 20
-137.9932963543904
 30
0.0
 10
103.6567270777188
 20
-137.93748690996
 30
0.0
 10
103.611924301084
 20
-137.8927194099714
 30
0.0
 10
103.556820413601
 20
-137.8927194099714
 30
0.0
 10
103.501681248341
 20
-137.8927194099714
 30
0.0
 10
103.4569137494831
 20
-137.93748690996
 30
0.0
 10
103.4569137494831
 20
-137.9932963543904
 30
0.0
 10
103.4569137494831
 20
-138.0484355210435
 30
0.0
 10
103.501681248341
 20
-138.0932030210321
 30
0.0
 10
103.556820413601
 20
-138.0932030210321
 30
0.0
 10
103.611924301084
 20
-138.0932030210321
 30
0.0
 10
103.6567270777188
 20
-138.0484355210435
 30
0.0
 10
103.6567270777188
 20
-137.9932963543904
 30
0.0
  0
SPLINE
  5
147
330
1F
100
AcDbEntity
  8
_U+30EC_U+30A4_U+30E4_U+30FC 1
 62
   179
420
  2234388
370
     9
100
AcDbSpline
210
0.0
220
0.0
230
1.0
 70
    11
 71
     3
 72
    17
 73
    13
 74
     0
 42
0.0000000001
 43
0.0000000001
 12
1.0
 22
0.0
 32
0.0
 13
1.0
 23
0.0
 33
0.0
 40
0.0
 40
0.0
 40
0.0
 40
0.0
 40
1.0
 40
1.0
 40
1.0
 40
2.0
 40
2.0
 40
2.0
 40
3.0
 40
3.0
 40
3.0
 40
4.0
 40
4.0
 40
4.0
 40
4.0
 10
88.60080690627177
 20
-137.9932963543904
 30
0.0
 10
88.60080690627177
 20
-137.93748690996
 30
0.0
 10
88.556004129637
 20
-137.8927194099714
 30
0.0
 10
88.50054746438515
 20
-137.8927194099714
 30
0.0
 10
88.4454082991252
 20
-137.8927194099714
 30
0.0
 10
88.40064080026733
 20
-137.93748690996
 30
0.0
 10
88.40064080026733
 20
-137.9932963543904
 30
0.0
 10
88.40064080026733
 20
-138.0484355210435
 30
0.0
 10
88.4454082991252
 20
-138.0932030210321
 30
0.0
 10
88.50054746438515
 20
-138.0932030210321
 30
0.0
 10
88.556004129637
 20
-138.0932030210321
 30
0.0
 10
88.60080690627177
 20
-138.0484355210435
 30
0.0
 10
88.60080690627177
 20
-137.9932963543904
 30
0.0
  0
SPLINE
  5
148
330
1F
100
AcDbEntity
  8
_U+30EC_U+30A4_U+30E4_U+30FC 1
 62
   179
420
  2234388
370
     9
100
AcDbSpline
210
0.0
220
0.0
230
1.0
 70
    11
 71
     3
 72
    17
 73
    13
 74
     0
 42
0.0000000001
 43
0.0000000001
 12
1.0
 22
0.0
 32
0.0
 13
1.0
 23
0.0
 33
0.0
 40
0.0
 40
0.0
 40
0.0
 40
0.0
 40
1.0
 40
1.0
 40
1.0
 40
2.0
 40
2.0
 40
2.0
 40
3.0
 40
3.0
 40
3.0
 40
4.0
 40
4.0
 40
4.0
 40
4.0
 10
80.90686488033836
 20
-135.9606966326766
 30
0.0
 10
80.90686488033836
 20
-135.9055574660236
 30
0.0
 10
80.8620621037036
 20
-135.860789966035
 30
0.0
 10
80.80695821622052
 20
-135.860789966035
 30
0.0
 10
80.75181905096058
 20
-135.860789966035
 30
0.0
 10
80.70705155210268
 20
-135.9055574660236
 30
0.0
 10
80.70705155210268
 20
-135.9606966326766
 30
0.0
 10
80.70705155210268
 20
-136.0158005215516
 30
0.0
 10
80.75181905096058
 20
-136.0606032993183
 30
0.0
 10
80.80695821622052
 20
-136.0606032993183
 30
0.0
 10
80.8620621037036
 20
-136.0606032993183
 30
0.0
 10
80.90686488033836
 20
-136.0158005215516
 30
0.0
 10
80.90686488033836
 20
-135.9606966326766
 30
0.0
  0
SPLINE
  5
149
330
1F
100
AcDbEntity
  8
_U+30EC_U+30A4_U+30E4_U+30FC 1
 62
   179
420
  2234388
370
     9
100
AcDbSpline
210
0.0
220
0.0
230
1.0
 70
    11
 71
     3
 72
    17
 73
    13
 74
     0
 42
0.0000000001
 43
0.0000000001
 12
1.0
 22
0.0
 32
0.0
 13
1.0
 23
0.0
 33
0.0
 40
0.0
 40
0.0
 40
0.0
 40
0.0
 40
1.0
 40
1.0
 40
1.0
 40
2.0
 40
2.0
 40
2.0
 40
3.0
 40
3.0
 40
3.0
 40
4.0
 40
4.0
 40
4.0
 40
4.0
 10
80.90686488033836
 20
-122.6550477471141
 30
0.0
 10
80.90686488033836
 20
-122.599908580461
 30
0.0
 10
80.8620621037036
 20
-122.5551410804725
 30
0.0
 10
80.80695821622052
 20
-122.5551410804725
 30
0.0
 10
80.75181905096058
 20
-122.5551410804725
 30
0.0
 10
80.70705155210268
 20
-122.599908580461
 30
0.0
 10
80.70705155210268
 20
-122.6550477471141
 30
0.0
 10
80.70705155210268
 20
-122.710151635989
 30
0.0
 10
80.75181905096058
 20
-122.7549544137558
 30
0.0
 10
80.80695821622052
 20
-122.7549544137558
 30
0.0
 10
80.8620621037036
 20
-122.7549544137558
 30
0.0
 10
80.90686488033836
 20
-122.710151635989
 30
0.0
 10
80.90686488033836
 20
-122.6550477471141
 30
0.0
  0
POLYLINE
  5
14A
330
1F
100
AcDbEntity
  8
_U+30EC_U+30A4_U+30E4_U+30FC 1
 62
   179
420
  2234388
370
     9
100
AcDb2dPolyline
 66
     1
 10
0.0
 20
0.0
 30
0.0
  0
VERTEX
  5
14B
330
14A
100
AcDbEntity
  8
_U+30EC_U+30A4_U+30E4_U+30FC 1
 62
   179
420
  2234388
370
     9
100
AcDbVertex
100
AcDb2dVertex
 10
107.5565794782253
 20
-126.8684138571719
 30
0.0
  0
VERTEX
  5
14C
330
14A
100
AcDbEntity
  8
_U+30EC_U+30A4_U+30E4_U+30FC 1
 62
   179
420
  2234388
370
     9
100
AcDbVertex
100
AcDb2dVertex
 10
107.5565794782253
 20
-131.367706356047
 30
0.0
  0
SEQEND
  5
14D
330
14A
100
AcDbEntity
  8
_U+30EC_U+30A4_U+30E4_U+30FC 1
 62
   179
420
  2234388
370
     9
  0
POLYLINE
  5
14E
330
1F
100
AcDbEntity
  8
_U+30EC_U+30A4_U+30E4_U+30FC 1
 62
   179
420
  2234388
370
     9
100
AcDb2dPolyline
 66
     1
 10
0.0
 20
0.0
 30
0.0
  0
VERTEX
  5
14F
330
14E
100
AcDbEntity
  8
_U+30EC_U+30A4_U+30E4_U+30FC 1
 62
   179
420
  2234388
370
     9
100
AcDbVertex
100
AcDb2dVertex
 10
100.1385802230298
 20
-126.8684138571719
 30
0.0
  0
VERTEX
  5
150
330
14E
100
AcDbEntity
  8
_U+30EC_U+30A4_U+30E4_U+30FC 1
 62
   179
420
  2234388
370
     9
100
AcDbVertex
100
AcDb2dVertex
 10
108.5570219527019
 20
-126.8684138571719
 30
0.0
  0
SEQEND
  5
151
330
14E
100
AcDbEntity
  8
_U+30EC_U+30A4_U+30E4_U+30FC 1
 62
   179
420
  2234388
370
     9
  0
POLYLINE
  5
152
330
1F
100
AcDbEntity
  8
_U+30EC_U+30A4_U+30E4_U+30FC 1
 62
   179
420
  2234388
370
     9
100
AcDb2dPolyline
 66
     1
 10
0.0
 20
0.0
 30
0.0
  0
VERTEX
  5
153
330
152
100
AcDbEntity
  8
_U+30EC_U+30A4_U+30E4_U+30FC 1
 62
   179
420
  2234388
370
     9
100
AcDbVertex
100
AcDb2dVertex
 10
100.1385802230298
 20
-131.367706356047
 30
0.0
  0
VERTEX
  5
154
330
152
100
AcDbEntity
  8
_U+30EC_U+30A4_U+30E4_U+30FC 1
 62
   179
420
  2234388
370
     9
100
AcDbVertex
100
AcDb2dVertex
 10
108.5570219527019
 20
-131.367706356047
 30
0.0
  0
SEQEND
  5
155
330
152
100
AcDbEntity
  8
_U+30EC_U+30A4_U+30E4_U+30FC 1
 62
   179
420
  2234388
370
     9
  0
INSERT
  5
157
330
1F
100
AcDbEntity
  8
_U+30EC_U+30A4_U+30E4_U+30FC 1
100
AcDbBlockReference
  2
block 3
 10
0.0
 20
0.0
 30
0.0
  0
POLYLINE
  5
15D
330
1F
100
AcDbEntity
  8
_U+30EC_U+30A4_U+30E4_U+30FC 1
 62
   179
420
  2234388
370
     9
100
AcDb2dPolyline
 66
     1
 10
0.0
 20
0.0
 30
0.0
  0
VERTEX
  5
15E
330
15D
100
AcDbEntity
  8
_U+30EC_U+30A4_U+30E4_U+30FC 1
 62
   179
420
  2234388
370
     9
100
AcDbVertex
100
AcDb2dVertex
 10
80.80695821622052
 20
-122.5551410804725
 30
0.0
  0
VERTEX
  5
15F
330
15D
100
AcDbEntity
  8
_U+30EC_U+30A4_U+30E4_U+30FC 1
 62
   179
420
  2234388
370
     9
100
AcDbVertex
100
AcDb2dVertex
 10
80.80695821622052
 20
-135.9606966326766
 30
0.0
  0
SEQEND
  5
160
330
15D
100
AcDbEntity
  8
_U+30EC_U+30A4_U+30E4_U+30FC 1
 62
   179
420
  2234388
370
     9
  0
POLYLINE
  5
161
330
1F
100
AcDbEntity
  8
_U+30EC_U+30A4_U+30E4_U+30FC 1
 62
   179
420
  2234388
370
     9
100
AcDb2dPolyline
 66
     1
 10
0.0
 20
0.0
 30
0.0
  0
VERTEX
  5
162
330
161
100
AcDbEntity
  8
_U+30EC_U+30A4_U+30E4_U+30FC 1
 62
   179
420
  2234388
370
     9
100
AcDbVertex
100
AcDb2dVertex
 10
85.26698643576906
 20
-122.6550477471141
 30
0.0
  0
VERTEX
  5
163
330
161
100
AcDbEntity
  8
_U+30EC_U+30A4_U+30E4_U+30FC 1
 62
   179
420
  2234388
370
     9
100
AcDbVertex
100
AcDb2dVertex
 10
79.80718601950461
 20
-122.6550477471141
 30
0.0
  0
SEQEND
  5
164
330
161
100
AcDbEntity
  8
_U+30EC_U+30A4_U+30E4_U+30FC 1
 62
   179
420
  2234388
370
     9
  0
POLYLINE
  5
165
330
1F
100
AcDbEntity
  8
_U+30EC_U+30A4_U+30E4_U+30FC 1
 62
   179
420
  2234388
370
     9
100
AcDb2dPolyline
 66
     1
 10
0.0
 20
0.0
 30
0.0
  0
VERTEX
  5
166
330
165
100
AcDbEntity
  8
_U+30EC_U+30A4_U+30E4_U+30FC 1
 62
   179
420
  2234388
370
     9
100
AcDbVertex
100
AcDb2dVertex
 10
85.26698643576906
 20
-135.9606966326766
 30
0.0
  0
VERTEX
  5
167
330
165
100
AcDbEntity
  8
_U+30EC_U+30A4_U+30E4_U+30FC 1
 62
   179
420
  2234388
370
     9
100
AcDbVertex
100
AcDb2dVertex
 10
79.80718601950461
 20
-135.9606966326766
 30
0.0
  0
SEQEND
  5
168
330
165
100
AcDbEntity
  8
_U+30EC_U+30A4_U+30E4_U+30FC 1
 62
   179
420
  2234388
370
     9
  0
INSERT
  5
16A
330
1F
100
AcDbEntity
  8
_U+30EC_U+30A4_U+30E4_U+30FC 1
100
AcDbBlockReference
  2
block 4
 10
0.0
 20
0.0
 30
0.0
  0
POLYLINE
  5
17D
330
1F
100
AcDbEntity
  8
_U+30EC_U+30A4_U+30E4_U+30FC 1
 62
   179
420
  2234388
370
     9
100
AcDb2dPolyline
 66
     1
 10
0.0
 20
0.0
 30
0.0
  0
VERTEX
  5
17E
330
17D
100
AcDbEntity
  8
_U+30EC_U+30A4_U+30E4_U+30FC 1
 62
   179
420
  2234388
370
     9
100
AcDbVertex
100
AcDb2dVertex
 10
103.556820413601
 20
-137.9932963543904
 30
0.0
  0
VERTEX
  5
17F
330
17D
100
AcDbEntity
  8
_U+30EC_U+30A4_U+30E4_U+30FC 1
 62
   179
420
  2234388
370
     9
100
AcDbVertex
100
AcDb2dVertex
 10
88.50054746438515
 20
-137.9932963543904
 30
0.0
  0
SEQEND
  5
180
330
17D
100
AcDbEntity
  8
_U+30EC_U+30A4_U+30E4_U+30FC 1
 62
   179
420
  2234388
370
     9
  0
POLYLINE
  5
181
330
1F
100
AcDbEntity
  8
_U+30EC_U+30A4_U+30E4_U+30FC 1
 62
   179
420
  2234388
370
     9
100
AcDb2dPolyline
 66
     1
 10
0.0
 20
0.0
 30
0.0
  0
VERTEX
  5
182
330
181
100
AcDbEntity
  8
_U+30EC_U+30A4_U+30E4_U+30FC 1
 62
   179
420
  2234388
370
     9
100
AcDbVertex
100
AcDb2dVertex
 10
103.556820413601
 20
-131.6577602448636
 30
0.0
  0
VERTEX
  5
183
330
181
100
AcDbEntity
  8
_U+30EC_U+30A4_U+30E4_U+30FC 1
 62
   179
420
  2234388
370
     9
100
AcDbVertex
100
AcDb2dVertex
 10
103.556820413601
 20
-138.993068576363
 30
0.0
  0
SEQEND
  5
184
330
181
100
AcDbEntity
  8
_U+30EC_U+30A4_U+30E4_U+30FC 1
 62
   179
420
  2234388
370
     9
  0
POLYLINE
  5
185
330
1F
100
AcDbEntity
  8
_U+30EC_U+30A4_U+30E4_U+30FC 1
 62
   179
420
  2234388
370
     9
100
AcDb2dPolyline
 66
     1
 10
0.0
 20
0.0
 30
0.0
  0
VERTEX
  5
186
330
185
100
AcDbEntity
  8
_U+30EC_U+30A4_U+30E4_U+30FC 1
 62
   179
420
  2234388
370
     9
100
AcDbVertex
100
AcDb2dVertex
 10
88.50054746438515
 20
-136.9687238546465
 30
0.0
  0
VERTEX
  5
187
330
185
100
AcDbEntity
  8
_U+30EC_U+30A4_U+30E4_U+30FC 1
 62
   179
420
  2234388
370
     9
100
AcDbVertex
100
AcDb2dVertex
 10
88.50054746438515
 20
-138.993068576363
 30
0.0
  0
SEQEND
  5
188
330
185
100
AcDbEntity
  8
_U+30EC_U+30A4_U+30E4_U+30FC 1
 62
   179
420
  2234388
370
     9
  0
INSERT
  5
18A
330
1F
100
AcDbEntity
  8
_U+30EC_U+30A4_U+30E4_U+30FC 1
100
AcDbBlockReference
  2
block 5
 10
0.0
 20
0.0
 30
0.0
  0
SPLINE
  5
197
330
1F
100
AcDbEntity
  8
_U+30EC_U+30A4_U+30E4_U+30FC 1
 62
   179
420
  2234388
370
    25
100
AcDbSpline
210
0.0
220
0.0
230
1.0
 70
     8
 71
     3
 72
    29
 73
    25
 74
     0
 42
0.0000000001
 43
0.0000000001
 12
1.0
 22
0.0
 32
0.0
 13
1.0
 23
0.0
 33
0.0
 40
0.0
 40
0.0
 40
0.0
 40
0.0
 40
1.0
 40
1.0
 40
1.0
 40
2.0
 40
2.0
 40
2.0
 40
3.0
 40
3.0
 40
3.0
 40
4.0
 40
4.0
 40
4.0
 40
5.0
 40
5.0
 40
5.0
 40
6.0
 40
6.0
 40
6.0
 40
7.0
 40
7.0
 40
7.0
 40
8.0
 40
8.0
 40
8.0
 40
8.0
 10
87.51040831145562
 20
-124.9329338576556
 30
0.0
 10
87.51040831145562
 20
-124.9329338576556
 30
0.0
 10
86.47966001594229
 20
-126.0835891351457
 30
0.0
 10
86.35975085233476
 20
-127.0427213571283
 30
0.0
 10
86.35975085233476
 20
-127.0427213571283
 30
0.0
 10
86.35975085233476
 20
-128.5296091345343
 30
0.0
 10
86.35975085233476
 20
-128.5296091345343
 30
0.0
 10
86.35975085233476
 20
-128.5296091345343
 30
0.0
 10
86.79109442274665
 20
-128.5296091345343
 30
0.0
 10
86.79109442274665
 20
-128.5296091345343
 30
0.0
 10
86.79109442274665
 20
-128.5296091345343
 30
0.0
 10
87.0308752796574
 20
-128.5771635789668
 30
0.0
 10
87.0308752796574
 20
-128.9127258011049
 30
0.0
 10
87.0308752796574
 20
-128.9127258011049
 30
0.0
 10
87.0308752796574
 20
-129.6561696898083
 30
0.0
 10
87.0308752796574
 20
-129.6561696898083
 30
0.0
 10
87.0308752796574
 20
-129.6561696898083
 30
0.0
 10
86.95887333704987
 20
-129.8477280230936
 30
0.0
 10
86.79109442274665
 20
-129.8477280230936
 30
0.0
 10
86.79109442274665
 20
-129.8477280230936
 30
0.0
 10
86.33565831174934
 20
-129.8477280230936
 30
0.0
 10
86.33565831174934
 20
-129.8477280230936
 30
0.0
 10
86.33565831174934
 20
-129.8477280230936
 30
0.0
 10
86.28810168749601
 20
-132.9166124667711
 30
0.0
 10
87.6065380427488
 20
-133.3720485777681
 30
0.0
  0
SPLINE
  5
198
330
1F
100
AcDbEntity
  8
_U+30EC_U+30A4_U+30E4_U+30FC 1
 62
   179
420
  2234388
370
    25
100
AcDbSpline
210
0.0
220
0.0
230
1.0
 70
    11
 71
     3
 72
    20
 73
    16
 74
     0
 42
0.0000000001
 43
0.0000000001
 12
1.0
 22
0.0
 32
0.0
 13
1.0
 23
0.0
 33
0.0
 40
0.0
 40
0.0
 40
0.0
 40
0.0
 40
1.0
 40
1.0
 40
1.0
 40
2.0
 40
2.0
 40
2.0
 40
3.0
 40
3.0
 40
3.0
 40
4.0
 40
4.0
 40
4.0
 40
5.0
 40
5.0
 40
5.0
 40
5.0
 10
87.6065380427488
 20
-124.1178408023039
 30
0.0
 10
87.6065380427488
 20
-124.1178408023039
 30
0.0
 10
87.6065380427488
 20
-134.3552755219666
 30
0.0
 10
87.6065380427488
 20
-134.3552755219666
 30
0.0
 10
87.6065380427488
 20
-134.3552755219666
 30
0.0
 10
87.82254387057135
 20
-135.7932682993853
 30
0.0
 10
88.421633311228
 20
-135.6733591327483
 30
0.0
 10
88.421633311228
 20
-135.6733591327483
 30
0.0
 10
88.54154024111712
 20
-122.6798480248855
 30
0.0
 10
88.54154024111712
 20
-122.6798480248855
 30
0.0
 10
88.54154024111712
 20
-122.6798480248855
 30
0.0
 10
88.22975524907142
 20
-122.247836358327
 30
0.0
 10
87.98997219963324
 20
-122.99128024703
 30
0.0
 10
87.98997219963324
 20
-122.99128024703
 30
0.0
 10
87.6065380427488
 20
-124.1178408023039
 30
0.0
 10
87.6065380427488
 20
-124.1178408023039
 30
0.0
  0
ENDSEC
  0
SECTION
  2
OBJECTS
  0
DICTIONARY
  5
C
330
0
100
AcDbDictionary
281
     1
  3
ACAD_GROUP
350
D
  3
ACAD_LAYOUT
350
1A
  3
ACAD_MATERIAL
350
3B
  3
ACAD_MLEADERSTYLE
350
19A
  3
ACAD_MLINESTYLE
350
17
  3
ACAD_PLOTSETTINGS
350
19
  3
ACAD_PLOTSTYLENAME
350
E
  3
ACAD_TABLESTYLE
350
199
  3
ACAD_VISUALSTYLE
350
2A
  0
SUN
  5
3F
330
29
100
AcDbSun
 90
        1
290
     0
 63
     7
421
 16777215
 40
1.0
291
     1
 91
  2455826
 92
 54000000
292
     0
 70
     2
 71
   256
280
     1
  0
DICTIONARY
  5
D
102
{ACAD_REACTORS
330
C
102
}
330
C
100
AcDbDictionary
281
     1
  0
DICTIONARY
  5
1A
102
{ACAD_REACTORS
330
C
102
}
330
C
100
AcDbDictionary
281
     1
  3
Layout1
350
1E
  3
Layout2
350
26
  3
Model
350
22
  0
DICTIONARY
  5
3B
102
{ACAD_REACTORS
330
C
102
}
330
C
100
AcDbDictionary
281
     1
  3
ByBlock
350
3D
  3
ByLayer
350
3C
  3
Global
350
3E
  0
DICTIONARY
  5
19A
102
{ACAD_REACTORS
330
C
102
}
330
C
100
AcDbDictionary
281
     1
  0
DICTIONARY
  5
17
102
{ACAD_REACTORS
330
C
102
}
330
C
100
AcDbDictionary
281
     1
  3
Standard
350
18
  0
DICTIONARY
  5
19
102
{ACAD_REACTORS
330
C
102
}
330
C
100
AcDbDictionary
281
     1
  0
ACDBDICTIONARYWDFLT
  5
E
102
{ACAD_REACTORS
330
C
102
}
330
C
100
AcDbDictionary
281
     1
  3
Normal
350
F
100
AcDbDictionaryWithDefault
340
F
  0
DICTIONARY
  5
199
102
{ACAD_REACTORS
330
C
102
}
330
C
100
AcDbDictionary
281
     1
  0
DICTIONARY
  5
2A
102
{ACAD_REACTORS
330
C
102
}
330
C
100
AcDbDictionary
281
     1
  3
2dWireframe
350
2F
  3
3D Hidden
350
31
  3
3dWireframe
350
30
  3
Basic
350
32
  3
Brighten
350
36
  3
ColorChange
350
3A
  3
Conceptual
350
34
  3
Dim
350
35
  3
Facepattern
350
39
  3
Flat
350
2B
  3
FlatWithEdges
350
2C
  3
Gouraud
350
2D
  3
GouraudWithEdges
350
2E
  3
Linepattern
350
38
  3
Realistic
350
33
  3
Thicken
350
37
  0
LAYOUT
  5
1E
102
{ACAD_REACTORS
330
1A
102
}
330
1A
100
AcDbPlotSettings
  1

  2
none_device
  4

  6

 40
0.0
 41
0.0
 42
0.0
 43
0.0
 44
0.0
 45
0.0
 46
0.0
 47
0.0
 48
0.0
 49
0.0
140
0.0
141
0.0
142
1.0
143
1.0
 70
   688
 72
     0
 73
     0
 74
     5
  7

 75
    16
 76
     0
 77
     2
 78
   300
147
1.0
148
0.0
149
0.0
100
AcDbLayout
  1
Layout1
 70
     1
 71
     1
 10
0.0
 20
0.0
 11
12.0
 21
9.0
 12
0.0
 22
0.0
 32
0.0
 14
1.000000000000000E+20
 24
1.000000000000000E+20
 34
1.000000000000000E+20
 15
-1.000000000000000E+20
 25
-1.000000000000000E+20
 35
-1.000000000000000E+20
146
0.0
 13
0.0
 23
0.0
 33
0.0
 16
1.0
 26
0.0
 36
0.0
 17
0.0
 27
1.0
 37
0.0
 76
     0
330
1B
  0
LAYOUT
  5
26
102
{ACAD_REACTORS
330
1A
102
}
330
1A
100
AcDbPlotSettings
  1

  2
none_device
  4

  6

 40
0.0
 41
0.0
 42
0.0
 43
0.0
 44
0.0
 45
0.0
 46
0.0
 47
0.0
 48
0.0
 49
0.0
140
0.0
141
0.0
142
1.0
143
1.0
 70
   688
 72
     0
 73
     0
 74
     5
  7

 75
    16
 76
     0
 77
     2
 78
   300
147
1.0
148
0.0
149
0.0
100
AcDbLayout
  1
Layout2
 70
     1
 71
     2
 10
0.0
 20
0.0
 11
0.0
 21
0.0
 12
0.0
 22
0.0
 32
0.0
 14
0.0
 24
0.0
 34
0.0
 15
0.0
 25
0.0
 35
0.0
146
0.0
 13
0.0
 23
0.0
 33
0.0
 16
1.0
 26
0.0
 36
0.0
 17
0.0
 27
1.0
 37
0.0
 76
     0
330
23
  0
LAYOUT
  5
22
102
{ACAD_REACTORS
330
1A
102
}
330
1A
100
AcDbPlotSettings
  1

  2
none_device
  4

  6

 40
0.0
 41
0.0
 42
0.0
 43
0.0
 44
0.0
 45
0.0
 46
0.0
 47
0.0
 48
0.0
 49
0.0
140
0.0
141
0.0
142
1.0
143
1.0
 70
  1712
 72
     0
 73
     0
 74
     0
  7

 75
     0
 76
     0
 77
     2
 78
   300
147
1.0
148
0.0
149
0.0
100
AcDbLayout
  1
Model
 70
     1
 71
     0
 10
0.0
 20
0.0
 11
12.0
 21
9.0
 12
0.0
 22
0.0
 32
0.0
 14
1.000000000000000E+20
 24
1.000000000000000E+20
 34
1.000000000000000E+20
 15
-1.000000000000000E+20
 25
-1.000000000000000E+20
 35
-1.000000000000000E+20
146
0.0
 13
0.0
 23
0.0
 33
0.0
 16
1.0
 26
0.0
 36
0.0
 17
0.0
 27
1.0
 37
0.0
 76
     0
330
1F
331
29
  0
MATERIAL
  5
3D
102
{ACAD_REACTORS
330
3B
102
}
330
3B
100
AcDbMaterial
  1
ByBlock
 72
     1
 94
      127
  0
MATERIAL
  5
3C
102
{ACAD_REACTORS
330
3B
102
}
330
3B
100
AcDbMaterial
  1
ByLayer
 72
     1
 94
      127
  0
MATERIAL
  5
3E
102
{ACAD_REACTORS
330
3B
102
}
330
3B
100
AcDbMaterial
  1
Global
 72
     1
 94
      127
  0
MLINESTYLE
  5
18
102
{ACAD_REACTORS
330
17
102
}
330
17
100
AcDbMlineStyle
  2
Standard
 70
     0
  3

 62
   256
 51
90.0
 52
90.0
 71
     2
 49
0.5
 62
   256
  6
BYLAYER
 49
-0.5
 62
   256
  6
BYLAYER
  0
ACDBPLACEHOLDER
  5
F
102
{ACAD_REACTORS
330
E
102
}
330
E
  0
VISUALSTYLE
  5
2F
102
{ACAD_REACTORS
330
2A
102
}
330
2A
100
AcDbVisualStyle
  2
2dWireframe
 70
     4
177
     2
291
     0
 71
     0
176
     1
 72
     2
176
     1
 73
     0
176
     1
 90
        0
176
     1
 40
-0.6
176
     1
 41
-30.0
176
     1
 62
     5
 63
     7
421
 16777215
176
     1
 74
     1
176
     1
 91
        4
176
     1
 64
     7
176
     1
 65
   257
176
     1
 75
     1
176
     1
175
     1
176
     1
 42
1.0
176
     1
 92
        0
176
     1
 66
   257
176
     1
 43
1.0
176
     1
 76
     1
176
     1
 77
     6
176
     1
 78
     2
176
     1
 67
     7
176
     1
 79
     5
176
     1
170
     0
176
     1
171
     0
176
     1
290
     0
176
     1
 93
        1
176
     1
 44
0.0
176
     1
173
     0
176
     1
  0
VISUALSTYLE
  5
31
102
{ACAD_REACTORS
330
2A
102
}
330
2A
100
AcDbVisualStyle
  2
3D Hidden
 70
     6
177
     2
291
     0
 71
     1
176
     1
 72
     2
176
     1
 73
     2
176
     1
 90
        0
176
     1
 40
-0.6
176
     1
 41
-30.0
176
     1
 62
     5
 63
     7
421
 16777215
176
     1
 74
     2
176
     1
 91
        2
176
     1
 64
     7
176
     1
 65
   257
176
     1
 75
     2
176
     1
175
     1
176
     1
 42
40.0
176
     1
 92
        0
176
     1
 66
   257
176
     1
 43
1.0
176
     1
 76
     1
176
     1
 77
     6
176
     1
 78
     2
176
     1
 67
     7
176
     1
 79
     3
176
     1
170
     0
176
     1
171
     0
176
     1
290
     0
176
     1
 93
        1
176
     1
 44
0.0
176
     1
173
     0
176
     1
  0
VISUALSTYLE
  5
30
102
{ACAD_REACTORS
330
2A
102
}
330
2A
100
AcDbVisualStyle
  2
3dWireframe
 70
     5
177
     2
291
     0
 71
     0
176
     1
 72
     2
176
     1
 73
     0
176
     1
 90
        0
176
     1
 40
-0.6
176
     1
 41
-30.0
176
     1
 62
     5
 63
     7
421
 16777215
176
     1
 74
     1
176
     1
 91
        4
176
     1
 64
     7
176
     1
 65
   257
176
     1
 75
     1
176
     1
175
     1
176
     1
 42
1.0
176
     1
 92
        0
176
     1
 66
   257
176
     1
 43
1.0
176
     1
 76
     1
176
     1
 77
     6
176
     1
 78
     2
176
     1
 67
     7
176
     1
 79
     5
176
     1
170
     0
176
     1
171
     0
176
     1
290
     0
176
     1
 93
        1
176
     1
 44
0.0
176
     1
173
     0
176
     1
  0
VISUALSTYLE
  5
32
102
{ACAD_REACTORS
330
2A
102
}
330
2A
100
AcDbVisualStyle
  2
Basic
 70
     7
177
     2
291
     1
 71
     1
176
     1
 72
     0
176
     1
 73
     1
176
     1
 90
        0
176
     1
 40
-0.6
176
     1
 41
-30.0
176
     1
 62
     5
 63
     7
421
 16777215
176
     1
 74
     0
176
     1
 91
        4
176
     1
 64
     7
176
     1
 65
   257
176
     1
 75
     1
176
     1
175
     1
176
     1
 42
1.0
176
     1
 92
        8
176
     1
 66
     7
176
     1
 43
1.0
176
     1
 76
     1
176
     1
 77
     6
176
     1
 78
     2
176
     1
 67
     7
176
     1
 79
     5
176
     1
170
     0
176
     1
171
     0
176
     1
290
     0
176
     1
 93
        1
176
     1
 44
0.0
176
     1
173
     0
176
     1
  0
VISUALSTYLE
  5
36
102
{ACAD_REACTORS
330
2A
102
}
330
2A
100
AcDbVisualStyle
  2
Brighten
 70
    12
177
     2
291
     1
 71
     2
176
     1
 72
     2
176
     1
 73
     0
176
     1
 90
        0
176
     1
 40
-0.6
176
     1
 41
-30.0
176
     1
 62
     5
 63
     7
421
 16777215
176
     1
 74
     1
176
     1
 91
        4
176
     1
 64
     7
176
     1
 65
   257
176
     1
 75
     1
176
     1
175
     1
176
     1
 42
1.0
176
     1
 92
        8
176
     1
 66
     7
176
     1
 43
1.0
176
     1
 76
     1
176
     1
 77
     6
176
     1
 78
     2
176
     1
 67
     7
176
     1
 79
     5
176
     1
170
     0
176
     1
171
     0
176
     1
290
     0
176
     1
 93
        1
176
     1
 44
50.0
176
     1
173
     0
176
     1
  0
VISUALSTYLE
  5
3A
102
{ACAD_REACTORS
330
2A
102
}
330
2A
100
AcDbVisualStyle
  2
ColorChange
 70
    16
177
     2
291
     1
 71
     2
176
     1
 72
     2
176
     1
 73
     3
176
     1
 90
        0
176
     1
 40
-0.6
176
     1
 41
-30.0
176
     1
 62
     5
 63
     8
421
  8421504
176
     1
 74
     1
176
     1
 91
        4
176
     1
 64
     7
176
     1
 65
   257
176
     1
 75
     1
176
     1
175
     1
176
     1
 42
1.0
176
     1
 92
        8
176
     1
 66
     8
424
  8421504
176
     1
 43
1.0
176
     1
 76
     1
176
     1
 77
     6
176
     1
 78
     2
176
     1
 67
     7
176
     1
 79
     5
176
     1
170
     0
176
     1
171
     0
176
     1
290
     0
176
     1
 93
        1
176
     1
 44
0.0
176
     1
173
     0
176
     1
  0
VISUALSTYLE
  5
34
102
{ACAD_REACTORS
330
2A
102
}
330
2A
100
AcDbVisualStyle
  2
Conceptual
 70
     9
177
     2
291
     0
 71
     3
176
     1
 72
     2
176
     1
 73
     0
176
     1
 90
        0
176
     1
 40
-0.6
176
     1
 41
-30.0
176
     1
 62
     5
 63
     7
421
 16777215
176
     1
 74
     2
176
     1
 91
        2
176
     1
 64
     7
176
     1
 65
   257
176
     1
 75
     1
176
     1
175
     1
176
     1
 42
40.0
176
     1
 92
        8
176
     1
 66
     7
176
     1
 43
1.0
176
     1
 76
     1
176
     1
 77
     6
176
     1
 78
     2
176
     1
 67
     7
176
     1
 79
     3
176
     1
170
     0
176
     1
171
     0
176
     1
290
     0
176
     1
 93
        1
176
     1
 44
0.0
176
     1
173
     0
176
     1
  0
VISUALSTYLE
  5
35
102
{ACAD_REACTORS
330
2A
102
}
330
2A
100
AcDbVisualStyle
  2
Dim
 70
    11
177
     2
291
     1
 71
     2
176
     1
 72
     2
176
     1
 73
     0
176
     1
 90
        0
176
     1
 40
-0.6
176
     1
 41
-30.0
176
     1
 62
     5
 63
     7
421
 16777215
176
     1
 74
     1
176
     1
 91
        4
176
     1
 64
     7
176
     1
 65
   257
176
     1
 75
     1
176
     1
175
     1
176
     1
 42
1.0
176
     1
 92
        8
176
     1
 66
     7
176
     1
 43
1.0
176
     1
 76
     1
176
     1
 77
     6
176
     1
 78
     2
176
     1
 67
     7
176
     1
 79
     5
176
     1
170
     0
176
     1
171
     0
176
     1
290
     0
176
     1
 93
        1
176
     1
 44
-50.0
176
     1
173
     0
176
     1
  0
VISUALSTYLE
  5
39
102
{ACAD_REACTORS
330
2A
102
}
330
2A
100
AcDbVisualStyle
  2
Facepattern
 70
    15
177
     2
291
     1
 71
     2
176
     1
 72
     2
176
     1
 73
     0
176
     1
 90
        0
176
     1
 40
-0.6
176
     1
 41
-30.0
176
     1
 62
     5
 63
     7
421
 16777215
176
     1
 74
     1
176
     1
 91
        4
176
     1
 64
     7
176
     1
 65
   257
176
     1
 75
     1
176
     1
175
     1
176
     1
 42
1.0
176
     1
 92
        8
176
     1
 66
     7
176
     1
 43
1.0
176
     1
 76
     1
176
     1
 77
     6
176
     1
 78
     2
176
     1
 67
     7
176
     1
 79
     5
176
     1
170
     0
176
     1
171
     0
176
     1
290
     0
176
     1
 93
        1
176
     1
 44
0.0
176
     1
173
     0
176
     1
  0
VISUALSTYLE
  5
2B
102
{ACAD_REACTORS
330
2A
102
}
330
2A
100
AcDbVisualStyle
  2
Flat
 70
     0
177
     2
291
     1
 71
     2
176
     1
 72
     1
176
     1
 73
     1
176
     1
 90
        2
176
     1
 40
-0.6
176
     1
 41
30.0
176
     1
 62
     5
 63
     7
421
 16777215
176
     1
 74
     0
176
     1
 91
        4
176
     1
 64
     7
176
     1
 65
   257
176
     1
 75
     1
176
     1
175
     1
176
     1
 42
1.0
176
     1
 92
        8
176
     1
 66
     7
176
     1
 43
1.0
176
     1
 76
     1
176
     1
 77
     6
176
     1
 78
     2
176
     1
 67
     7
176
     1
 79
     5
176
     1
170
     0
176
     1
171
     0
176
     1
290
     0
176
     1
 93
       13
176
     1
 44
0.0
176
     1
173
     0
176
     1
  0
VISUALSTYLE
  5
2C
102
{ACAD_REACTORS
330
2A
102
}
330
2A
100
AcDbVisualStyle
  2
FlatWithEdges
 70
     1
177
     2
291
     1
 71
     2
176
     1
 72
     1
176
     1
 73
     1
176
     1
 90
        2
176
     1
 40
-0.6
176
     1
 41
30.0
176
     1
 62
     5
 63
     7
421
 16777215
176
     1
 74
     1
176
     1
 91
        4
176
     1
 64
     7
176
     1
 65
   257
176
     1
 75
     1
176
     1
175
     1
176
     1
 42
1.0
176
     1
 92
        0
176
     1
 66
   257
176
     1
 43
1.0
176
     1
 76
     1
176
     1
 77
     6
176
     1
 78
     2
176
     1
 67
     7
176
     1
 79
     5
176
     1
170
     0
176
     1
171
     0
176
     1
290
     0
176
     1
 93
       13
176
     1
 44
0.0
176
     1
173
     0
176
     1
  0
VISUALSTYLE
  5
2D
102
{ACAD_REACTORS
330
2A
102
}
330
2A
100
AcDbVisualStyle
  2
Gouraud
 70
     2
177
     2
291
     1
 71
     2
176
     1
 72
     2
176
     1
 73
     1
176
     1
 90
        2
176
     1
 40
-0.6
176
     1
 41
30.0
176
     1
 62
     5
 63
     7
421
 16777215
176
     1
 74
     0
176
     1
 91
        4
176
     1
 64
     7
176
     1
 65
   257
176
     1
 75
     1
176
     1
175
     1
176
     1
 42
1.0
176
     1
 92
        0
176
     1
 66
     7
176
     1
 43
1.0
176
     1
 76
     1
176
     1
 77
     6
176
     1
 78
     2
176
     1
 67
     7
176
     1
 79
     5
176
     1
170
     0
176
     1
171
     0
176
     1
290
     0
176
     1
 93
       13
176
     1
 44
0.0
176
     1
173
     0
176
     1
  0
VISUALSTYLE
  5
2E
102
{ACAD_REACTORS
330
2A
102
}
330
2A
100
AcDbVisualStyle
  2
GouraudWithEdges
 70
     3
177
     2
291
     1
 71
     2
176
     1
 72
     2
176
     1
 73
     1
176
     1
 90
        2
176
     1
 40
-0.6
176
     1
 41
30.0
176
     1
 62
     5
 63
     7
421
 16777215
176
     1
 74
     1
176
     1
 91
        4
176
     1
 64
     7
176
     1
 65
   257
176
     1
 75
     1
176
     1
175
     1
176
     1
 42
1.0
176
     1
 92
        0
176
     1
 66
   257
176
     1
 43
1.0
176
     1
 76
     1
176
     1
 77
     6
176
     1
 78
     2
176
     1
 67
     7
176
     1
 79
     5
176
     1
170
     0
176
     1
171
     0
176
     1
290
     0
176
     1
 93
       13
176
     1
 44
0.0
176
     1
173
     0
176
     1
  0
VISUALSTYLE
  5
38
102
{ACAD_REACTORS
330
2A
102
}
330
2A
100
AcDbVisualStyle
  2
Linepattern
 70
    14
177
     2
291
     1
 71
     2
176
     1
 72
     2
176
     1
 73
     0
176
     1
 90
        0
176
     1
 40
-0.6
176
     1
 41
-30.0
176
     1
 62
     5
 63
     7
421
 16777215
176
     1
 74
     1
176
     1
 91
        4
176
     1
 64
     7
176
     1
 65
   257
176
     1
 75
     7
176
     1
175
     7
176
     1
 42
1.0
176
     1
 92
        8
176
     1
 66
     7
176
     1
 43
1.0
176
     1
 76
     1
176
     1
 77
     6
176
     1
 78
     2
176
     1
 67
     7
176
     1
 79
     5
176
     1
170
     0
176
     1
171
     0
176
     1
290
     0
176
     1
 93
        1
176
     1
 44
0.0
176
     1
173
     0
176
     1
  0
VISUALSTYLE
  5
33
102
{ACAD_REACTORS
330
2A
102
}
330
2A
100
AcDbVisualStyle
  2
Realistic
 70
     8
177
     2
291
     0
 71
     2
176
     1
 72
     2
176
     1
 73
     0
176
     1
 90
        0
176
     1
 40
-0.6
176
     1
 41
-30.0
176
     1
 62
     5
 63
     7
421
 16777215
176
     1
 74
     1
176
     1
 91
        0
176
     1
 64
     7
176
     1
 65
   257
176
     1
 75
     1
176
     1
175
     1
176
     1
 42
1.0
176
     1
 92
        8
176
     1
 66
     8
424
  7895160
176
     1
 43
1.0
176
     1
 76
     1
176
     1
 77
     6
176
     1
 78
     2
176
     1
 67
     7
176
     1
 79
     5
176
     1
170
     0
176
     1
171
     0
176
     1
290
     0
176
     1
 93
       13
176
     1
 44
0.0
176
     1
173
     0
176
     1
  0
VISUALSTYLE
  5
37
102
{ACAD_REACTORS
330
2A
102
}
330
2A
100
AcDbVisualStyle
  2
Thicken
 70
    13
177
     2
291
     1
 71
     2
176
     1
 72
     2
176
     1
 73
     0
176
     1
 90
        0
176
     1
 40
-0.6
176
     1
 41
-30.0
176
     1
 62
     5
 63
     7
421
 16777215
176
     1
 74
     1
176
     1
 91
        4
176
     1
 64
     7
176
     1
 65
   257
176
     1
 75
     1
176
     1
175
     1
176
     1
 42
1.0
176
     1
 92
       12
176
     1
 66
     7
176
     1
 43
1.0
176
     1
 76
     1
176
     1
 77
     6
176
     1
 78
     2
176
     1
 67
     7
176
     1
 79
     5
176
     1
170
     0
176
     1
171
     0
176
     1
290
     0
176
     1
 93
        1
176
     1
 44
0.0
176
     1
173
     0
176
     1
  0
ENDSEC
  0
EOF
