  0
SECTION
  2
HEADER
  9
$ACADVER
  1
AC1024
  9
$ACADMAINTVER
 70
     6
  9
$DWGCODEPAGE
  3
UNDEFINED
  9
$INSBASE
 10
0.0
 20
0.0
 30
0.0
  9
$EXTMIN
 10
1.000000000000000E+20
 20
1.000000000000000E+20
 30
1.000000000000000E+20
  9
$EXTMAX
 10
-1.000000000000000E+20
 20
-1.000000000000000E+20
 30
-1.000000000000000E+20
  9
$LIMMIN
 10
0.0
 20
0.0
  9
$LIMMAX
 10
12.0
 20
9.0
  9
$ORTHOMODE
 70
     0
  9
$REGENMODE
 70
     1
  9
$FILLMODE
 70
     1
  9
$QTEXTMODE
 70
     0
  9
$MIRRTEXT
 70
     1
  9
$LTSCALE
 40
1.0
  9
$ATTMODE
 70
     1
  9
$TEXTSIZE
 40
0.2
  9
$TRACEWID
 40
0.05
  9
$TEXTSTYLE
  7
Standard
  9
$CLAYER
  8
0
  9
$CELTYPE
  6
ByLayer
  9
$CECOLOR
 62
   256
  9
$CELTSCALE
 40
1.0
  9
$DISPSILH
 70
     0
  9
$DIMSCALE
 40
1.0
  9
$DIMASZ
 40
0.18
  9
$DIMEXO
 40
0.0625
  9
$DIMDLI
 40
0.38
  9
$DIMRND
 40
0.0
  9
$DIMDLE
 40
0.0
  9
$DIMEXE
 40
0.18
  9
$DIMTP
 40
0.0
  9
$DIMTM
 40
0.0
  9
$DIMTXT
 40
0.18
  9
$DIMCEN
 40
0.09
  9
$DIMTSZ
 40
0.0
  9
$DIMTOL
 70
     0
  9
$DIMLIM
 70
     0
  9
$DIMTIH
 70
     1
  9
$DIMTOH
 70
     1
  9
$DIMSE1
 70
     0
  9
$DIMSE2
 70
     0
  9
$DIMTAD
 70
     0
  9
$DIMZIN
 70
     0
  9
$DIMBLK
  1

  9
$DIMASO
 70
     1
  9
$DIMSHO
 70
     1
  9
$DIMPOST
  1

  9
$DIMAPOST
  1

  9
$DIMALT
 70
     0
  9
$DIMALTD
 70
     2
  9
$DIMALTF
 40
25.4
  9
$DIMLFAC
 40
1.0
  9
$DIMTOFL
 70
     0
  9
$DIMTVP
 40
0.0
  9
$DIMTIX
 70
     0
  9
$DIMSOXD
 70
     0
  9
$DIMSAH
 70
     0
  9
$DIMBLK1
  1

  9
$DIMBLK2
  1

  9
$DIMSTYLE
  2
Standard
  9
$DIMCLRD
 70
     0
  9
$DIMCLRE
 70
     0
  9
$DIMCLRT
 70
     0
  9
$DIMTFAC
 40
1.0
  9
$DIMGAP
 40
0.09
  9
$DIMJUST
 70
     0
  9
$DIMSD1
 70
     0
  9
$DIMSD2
 70
     0
  9
$DIMTOLJ
 70
     1
  9
$DIMTZIN
 70
     0
  9
$DIMALTZ
 70
     0
  9
$DIMALTTZ
 70
     0
  9
$DIMUPT
 70
     0
  9
$DIMDEC
 70
     4
  9
$DIMTDEC
 70
     4
  9
$DIMALTU
 70
     2
  9
$DIMALTTD
 70
     2
  9
$DIMTXSTY
  7
Standard
  9
$DIMAUNIT
 70
     0
  9
$DIMADEC
 70
     0
  9
$DIMALTRND
 40
0.0
  9
$DIMAZIN
 70
     0
  9
$DIMDSEP
 70
    46
  9
$DIMATFIT
 70
     3
  9
$DIMFRAC
 70
     0
  9
$DIMLDRBLK
  1

  9
$DIMLUNIT
 70
     2
  9
$DIMLWD
 70
    -2
  9
$DIMLWE
 70
    -2
  9
$DIMTMOVE
 70
     0
  9
$DIMFXL
 40
1.0
  9
$DIMFXLON
 70
     0
  9
$DIMJOGANG
 40
0.7853981633974483
  9
$DIMTFILL
 70
     0
  9
$DIMTFILLCLR
 70
     0
  9
$DIMARCSYM
 70
     0
  9
$DIMLTYPE
  6

  9
$DIMLTEX1
  6

  9
$DIMLTEX2
  6

  9
$DIMTXTDIRECTION
 70
     0
  9
$LUNITS
 70
     2
  9
$LUPREC
 70
     4
  9
$SKETCHINC
 40
0.1
  9
$FILLETRAD
 40
0.5
  9
$AUNITS
 70
     0
  9
$AUPREC
 70
     0
  9
$MENU
  1
.
  9
$ELEVATION
 40
0.0
  9
$PELEVATION
 40
0.0
  9
$THICKNESS
 40
0.0
  9
$LIMCHECK
 70
     0
  9
$CHAMFERA
 40
0.5
  9
$CHAMFERB
 40
0.5
  9
$CHAMFERC
 40
1.0
  9
$CHAMFERD
 40
0.0
  9
$SKPOLY
 70
     0
  9
$TDCREATE
 40
2457917.646770834
  9
$TDUCREATE
 40
2457917.271770834
  9
$TDUPDATE
 40
2457917.646782408
  9
$TDUUPDATE
 40
2457917.271782408
  9
$TDINDWG
 40
0.0000000116
  9
$TDUSRTIMER
 40
0.0000000116
  9
$USRTIMER
 70
     1
  9
$ANGBASE
 50
0.0
  9
$ANGDIR
 70
     0
  9
$PDMODE
 70
     0
  9
$PDSIZE
 40
0.0
  9
$PLINEWID
 40
0.0
  9
$SPLFRAME
 70
     0
  9
$SPLINETYPE
 70
     6
  9
$SPLINESEGS
 70
     8
  9
$HANDSEED
  5
6E
  9
$SURFTAB1
 70
     6
  9
$SURFTAB2
 70
     6
  9
$SURFTYPE
 70
     6
  9
$SURFU
 70
     6
  9
$SURFV
 70
     6
  9
$UCSBASE
  2

  9
$UCSNAME
  2

  9
$UCSORG
 10
0.0
 20
0.0
 30
0.0
  9
$UCSXDIR
 10
1.0
 20
0.0
 30
0.0
  9
$UCSYDIR
 10
0.0
 20
1.0
 30
0.0
  9
$UCSORTHOREF
  2

  9
$UCSORTHOVIEW
 70
     0
  9
$UCSORGTOP
 10
0.0
 20
0.0
 30
0.0
  9
$UCSORGBOTTOM
 10
0.0
 20
0.0
 30
0.0
  9
$UCSORGLEFT
 10
0.0
 20
0.0
 30
0.0
  9
$UCSORGRIGHT
 10
0.0
 20
0.0
 30
0.0
  9
$UCSORGFRONT
 10
0.0
 20
0.0
 30
0.0
  9
$UCSORGBACK
 10
0.0
 20
0.0
 30
0.0
  9
$PUCSBASE
  2

  9
$PUCSNAME
  2

  9
$PUCSORG
 10
0.0
 20
0.0
 30
0.0
  9
$PUCSXDIR
 10
1.0
 20
0.0
 30
0.0
  9
$PUCSYDIR
 10
0.0
 20
1.0
 30
0.0
  9
$PUCSORTHOREF
  2

  9
$PUCSORTHOVIEW
 70
     0
  9
$PUCSORGTOP
 10
0.0
 20
0.0
 30
0.0
  9
$PUCSORGBOTTOM
 10
0.0
 20
0.0
 30
0.0
  9
$PUCSORGLEFT
 10
0.0
 20
0.0
 30
0.0
  9
$PUCSORGRIGHT
 10
0.0
 20
0.0
 30
0.0
  9
$PUCSORGFRONT
 10
0.0
 20
0.0
 30
0.0
  9
$PUCSORGBACK
 10
0.0
 20
0.0
 30
0.0
  9
$USERI1
 70
     0
  9
$USERI2
 70
     0
  9
$USERI3
 70
     0
  9
$USERI4
 70
     0
  9
$USERI5
 70
     0
  9
$USERR1
 40
0.0
  9
$USERR2
 40
0.0
  9
$USERR3
 40
0.0
  9
$USERR4
 40
0.0
  9
$USERR5
 40
0.0
  9
$WORLDVIEW
 70
     1
  9
$SHADEDGE
 70
     3
  9
$SHADEDIF
 70
    70
  9
$TILEMODE
 70
     1
  9
$MAXACTVP
 70
    64
  9
$PINSBASE
 10
0.0
 20
0.0
 30
0.0
  9
$PLIMCHECK
 70
     0
  9
$PEXTMIN
 10
1.000000000000000E+20
 20
1.000000000000000E+20
 30
1.000000000000000E+20
  9
$PEXTMAX
 10
-1.000000000000000E+20
 20
-1.000000000000000E+20
 30
-1.000000000000000E+20
  9
$PLIMMIN
 10
0.0
 20
0.0
  9
$PLIMMAX
 10
12.0
 20
9.0
  9
$UNITMODE
 70
     0
  9
$VISRETAIN
 70
     1
  9
$PLINEGEN
 70
     0
  9
$PSLTSCALE
 70
     1
  9
$TREEDEPTH
 70
  3020
  9
$CMLSTYLE
  2
Standard
  9
$CMLJUST
 70
     0
  9
$CMLSCALE
 40
1.0
  9
$PROXYGRAPHICS
 70
     1
  9
$MEASUREMENT
 70
     0
  9
$CELWEIGHT
370
    -1
  9
$ENDCAPS
280
     0
  9
$JOINSTYLE
280
     0
  9
$LWDISPLAY
290
     1
  9
$INSUNITS
 70
     1
  9
$HYPERLINKBASE
  1

  9
$STYLESHEET
  1

  9
$XEDIT
290
     1
  9
$CEPSNTYPE
380
     0
  9
$PSTYLEMODE
290
     1
  9
$FINGERPRINTGUID
  2
{FD087FBB-A5B2-95B8-8F1B-59C0AF719F12}
  9
$VERSIONGUID
  2
{FAEB1C32-E019-11D5-929B-00C0DF256EC4}
  9
$EXTNAMES
290
     1
  9
$PSVPSCALE
 40
0.0
  9
$OLESTARTUP
290
     0
  9
$SORTENTS
280
   127
  9
$INDEXCTL
280
     0
  9
$HIDETEXT
280
     1
  9
$XCLIPFRAME
280
     2
  9
$HALOGAP
280
     0
  9
$OBSCOLOR
 70
   257
  9
$OBSLTYPE
280
     0
  9
$INTERSECTIONDISPLAY
280
     0
  9
$INTERSECTIONCOLOR
 70
   257
  9
$DIMASSOC
280
     2
  9
$PROJECTNAME
  1

  9
$CAMERADISPLAY
290
     0
  9
$LENSLENGTH
 40
50.0
  9
$CAMERAHEIGHT
 40
0.0
  9
$STEPSPERSEC
 40
2.0
  9
$STEPSIZE
 40
6.0
  9
$3DDWFPREC
 40
2.0
  9
$PSOLWIDTH
 40
0.25
  9
$PSOLHEIGHT
 40
4.0
  9
$LOFTANG1
 40
1.570796326794897
  9
$LOFTANG2
 40
1.570796326794897
  9
$LOFTMAG1
 40
0.0
  9
$LOFTMAG2
 40
0.0
  9
$LOFTPARAM
 70
     7
  9
$LOFTNORMALS
280
     1
  9
$LATITUDE
 40
37.795
  9
$LONGITUDE
 40
-122.394
  9
$NORTHDIRECTION
 40
0.0
  9
$TIMEZONE
 70
 -8000
  9
$LIGHTGLYPHDISPLAY
280
     1
  9
$TILEMODELIGHTSYNCH
280
     1
  9
$CMATERIAL
347
3C
  9
$SOLIDHIST
280
     1
  9
$SHOWHIST
280
     1
  9
$DWFFRAME
280
     2
  9
$DGNFRAME
280
     2
  9
$REALWORLDSCALE
290
     1
  9
$INTERFERECOLOR
 62
   256
  9
$CSHADOW
280
     0
  9
$SHADOWPLANELOCATION
 40
0.0
  0
ENDSEC
  0
SECTION
  2
CLASSES
  0
CLASS
  1
ACDBDICTIONARYWDFLT
  2
AcDbDictionaryWithDefault
  3
ObjectDBX Classes
 90
        0
 91
        4
280
     0
281
     0
  0
CLASS
  1
VISUALSTYLE
  2
AcDbVisualStyle
  3
ObjectDBX Classes
 90
     4095
 91
        4
280
     0
281
     0
  0
CLASS
  1
MATERIAL
  2
AcDbMaterial
  3
ObjectDBX Classes
 90
     1153
 91
        4
280
     0
281
     0
  0
CLASS
  1
SUN
  2
AcDbSun
  3
SCENEOE
 90
     1024
 91
        4
280
     0
281
     0
  0
CLASS
  1
IMAGEDEF
  2
AcDbRasterImageDef
  3
ISM
 90
        0
 91
        4
280
     0
281
     0
  0
CLASS
  1
RASTERVARIABLES
  2
AcDbRasterVariables
  3
ISM
 90
        0
 91
        4
280
     0
281
     0
  0
CLASS
  1
IMAGE
  2
AcDbRasterImage
  3
ISM
 90
      127
 91
        5
280
     0
281
     1
  0
CLASS
  1
IMAGEDEF_REACTOR
  2
AcDbRasterImageDefReactor
  3
ISM
 90
        1
 91
        4
280
     0
281
     0
  0
ENDSEC
  0
SECTION
  2
TABLES
  0
TABLE
  2
VPORT
  5
8
330
0
100
AcDbSymbolTable
 70
     1
  0
VPORT
  5
29
330
8
100
AcDbSymbolTableRecord
100
AcDbViewportTableRecord
  2
*Active
 70
     0
 10
0.0
 20
0.0
 11
1.0
 21
1.0
 12
0.0
 22
0.0
 13
0.0
 23
0.0
 14
0.5
 24
0.5
 15
0.5
 25
0.5
 16
0.0
 26
0.0
 36
1.0
 17
91.00082462281999
 27
-128.4993055234307
 37
0.0
 40
256.9986110468615
 41
0.7081814508812795
 42
50.0
 43
0.0
 44
0.0
 50
0.0
 51
0.0
 71
     0
 72
   100
 73
     1
 74
     3
 75
     0
 76
     0
 77
     0
 78
     0
281
     0
 65
     1
110
0.0
120
0.0
130
0.0
111
1.0
121
0.0
131
0.0
112
0.0
122
1.0
132
0.0
 79
     0
146
0.0
 60
     3
 61
     5
292
     1
282
     1
141
0.0
142
0.0
 63
   250
361
3F
  0
ENDTAB
  0
TABLE
  2
LTYPE
  5
5
330
0
100
AcDbSymbolTable
 70
     1
  0
LTYPE
  5
14
330
5
100
AcDbSymbolTableRecord
100
AcDbLinetypeTableRecord
  2
ByBlock
 70
     0
  3

 72
    65
 73
     0
 40
0.0
  0
LTYPE
  5
15
330
5
100
AcDbSymbolTableRecord
100
AcDbLinetypeTableRecord
  2
ByLayer
 70
     0
  3

 72
    65
 73
     0
 40
0.0
  0
LTYPE
  5
16
330
5
100
AcDbSymbolTableRecord
100
AcDbLinetypeTableRecord
  2
Continuous
 70
     0
  3
Solid line
 72
    65
 73
     0
 40
0.0
  0
ENDTAB
  0
TABLE
  2
LAYER
  5
2
330
0
100
AcDbSymbolTable
 70
     2
  0
LAYER
  5
10
330
2
100
AcDbSymbolTableRecord
100
AcDbLayerTableRecord
  2
0
 70
     0
 62
     7
  6
Continuous
370
    -3
390
F
347
3E
  0
LAYER
  5
40
330
2
100
AcDbSymbolTableRecord
100
AcDbLayerTableRecord
  2
_U+30EC_U+30A4_U+30E4_U+30FC 1
 70
     0
 62
     7
  6
Continuous
370
    -3
390
F
347
3E
  0
ENDTAB
  0
TABLE
  2
STYLE
  5
3
330
0
100
AcDbSymbolTable
 70
     1
  0
STYLE
  5
11
330
3
100
AcDbSymbolTableRecord
100
AcDbTextStyleTableRecord
  2
Standard
 70
     0
 40
0.0
 41
1.0
 50
0.0
 71
     0
 42
0.2
  3
txt
  4

  0
ENDTAB
  0
TABLE
  2
VIEW
  5
6
330
0
100
AcDbSymbolTable
 70
     0
  0
ENDTAB
  0
TABLE
  2
UCS
  5
7
330
0
100
AcDbSymbolTable
 70
     0
  0
ENDTAB
  0
TABLE
  2
APPID
  5
9
330
0
100
AcDbSymbolTable
 70
     1
  0
APPID
  5
12
330
9
100
AcDbSymbolTableRecord
100
AcDbRegAppTableRecord
  2
ACAD
 70
     0
  0
ENDTAB
  0
TABLE
  2
DIMSTYLE
  5
A
330
0
100
AcDbSymbolTable
 70
     1
100
AcDbDimStyleTable
  0
DIMSTYLE
105
27
330
A
100
AcDbSymbolTableRecord
100
AcDbDimStyleTableRecord
  2
Standard
 70
     0
178
     0
340
11
  0
ENDTAB
  0
TABLE
  2
BLOCK_RECORD
  5
1
330
0
100
AcDbSymbolTable
 70
     5
  0
BLOCK_RECORD
  5
1F
330
1
100
AcDbSymbolTableRecord
100
AcDbBlockTableRecord
  2
*Model_Space
340
22
 70
     0
280
     1
281
     0
  0
BLOCK_RECORD
  5
1B
330
1
100
AcDbSymbolTableRecord
100
AcDbBlockTableRecord
  2
*Paper_Space
340
1E
 70
     0
280
     1
281
     0
  0
BLOCK_RECORD
  5
23
330
1
100
AcDbSymbolTableRecord
100
AcDbBlockTableRecord
  2
*Paper_Space0
340
26
 70
     0
280
     1
281
     0
  0
BLOCK_RECORD
  5
41
330
1
100
AcDbSymbolTableRecord
100
AcDbBlockTableRecord
  2
block 2
340
0
102
{BLKREFS
331
42
102
}
 70
     0
280
     1
281
     0
  0
BLOCK_RECORD
  5
45
330
1
100
AcDbSymbolTableRecord
100
AcDbBlockTableRecord
  2
block 3
340
0
102
{BLKREFS
331
46
102
}
 70
     0
280
     1
281
     0
  0
BLOCK_RECORD
  5
49
330
1
100
AcDbSymbolTableRecord
100
AcDbBlockTableRecord
  2
block 4
340
0
102
{BLKREFS
331
4A
102
}
 70
     0
280
     1
281
     0
  0
BLOCK_RECORD
  5
53
330
1
100
AcDbSymbolTableRecord
100
AcDbBlockTableRecord
  2
block 5
340
0
102
{BLKREFS
331
54
102
}
 70
     0
280
     1
281
     0
  0
ENDTAB
  0
ENDSEC
  0
SECTION
  2
BLOCKS
  0
BLOCK
  5
20
330
1F
100
AcDbEntity
  8
0
100
AcDbBlockBegin
  2
*Model_Space
 70
     0
 10
0.0
 20
0.0
 30
0.0
  3
*Model_Space
  1

  0
ENDBLK
  5
21
330
1F
100
AcDbEntity
  8
0
100
AcDbBlockEnd
  0
BLOCK
  5
1C
330
1B
100
AcDbEntity
 67
     1
  8
0
100
AcDbBlockBegin
  2
*Paper_Space
 70
     0
 10
0.0
 20
0.0
 30
0.0
  3
*Paper_Space
  1

  0
ENDBLK
  5
1D
330
1B
100
AcDbEntity
 67
     1
  8
0
100
AcDbBlockEnd
  0
BLOCK
  5
24
330
23
100
AcDbEntity
  8
0
100
AcDbBlockBegin
  2
*Paper_Space0
 70
     0
 10
0.0
 20
0.0
 30
0.0
  3
*Paper_Space0
  1

  0
ENDBLK
  5
25
330
23
100
AcDbEntity
  8
0
100
AcDbBlockEnd
  0
BLOCK
  5
43
330
41
100
AcDbEntity
  8
0
100
AcDbBlockBegin
  2
block 2
 70
     0
 10
0.0
 20
0.0
 30
0.0
  3
block 2
  1

  0
INSERT
  5
46
330
41
100
AcDbEntity
  8
_U+30EC_U+30A4_U+30E4_U+30FC 1
100
AcDbBlockReference
  2
block 3
 10
0.0
 20
0.0
 30
0.0
  0
INSERT
  5
54
330
41
100
AcDbEntity
  8
_U+30EC_U+30A4_U+30E4_U+30FC 1
100
AcDbBlockReference
  2
block 5
 10
0.0
 20
0.0
 30
0.0
  0
ENDBLK
  5
44
330
41
100
AcDbEntity
  8
0
100
AcDbBlockEnd
  0
BLOCK
  5
47
330
45
100
AcDbEntity
  8
0
100
AcDbBlockBegin
  2
block 3
 70
     0
 10
0.0
 20
0.0
 30
0.0
  3
block 3
  1

  0
INSERT
  5
4A
330
45
100
AcDbEntity
  8
_U+30EC_U+30A4_U+30E4_U+30FC 1
100
AcDbBlockReference
  2
block 4
 10
0.0
 20
0.0
 30
0.0
  0
ENDBLK
  5
48
330
45
100
AcDbEntity
  8
0
100
AcDbBlockEnd
  0
BLOCK
  5
4B
330
49
100
AcDbEntity
  8
0
100
AcDbBlockBegin
  2
block 4
 70
     0
 10
0.0
 20
0.0
 30
0.0
  3
block 4
  1

  0
IMAGE
  5
50
330
49
100
AcDbEntity
  8
_U+30EC_U+30A4_U+30E4_U+30FC 1
160
                 8
310
0800000000000000
100
AcDbRasterImage
 90
        0
 10
71.25902790425296
 20
-138.8270513541823
 30
0.0
 11
0.0725663888707473
 21
0.0
 31
0.0
 12
0.0
 22
0.0725663888707473
 32
0.0
 13
549.0
 23
330.0
340
4E
 70
     3
280
     0
281
    50
282
    50
283
     0
360
51
 71
     1
 91
        2
 14
-0.5
 24
-0.5
 14
548.5
 24
329.5
290
     0
  0
SPLINE
  5
52
330
49
100
AcDbEntity
  8
_U+30EC_U+30A4_U+30E4_U+30FC 1
370
     0
100
AcDbSpline
210
0.0
220
0.0
230
1.0
 70
    11
 71
     3
 72
    98
 73
    94
 74
     0
 42
0.0000000001
 43
0.0000000001
 12
1.0
 22
0.0
 32
0.0
 13
1.0
 23
0.0
 33
0.0
 40
0.0
 40
0.0
 40
0.0
 40
0.0
 40
1.0
 40
1.0
 40
1.0
 40
2.0
 40
2.0
 40
2.0
 40
3.0
 40
3.0
 40
3.0
 40
4.0
 40
4.0
 40
4.0
 40
5.0
 40
5.0
 40
5.0
 40
6.0
 40
6.0
 40
6.0
 40
7.0
 40
7.0
 40
7.0
 40
8.0
 40
8.0
 40
8.0
 40
9.0
 40
9.0
 40
9.0
 40
10.0
 40
10.0
 40
10.0
 40
11.0
 40
11.0
 40
11.0
 40
12.0
 40
12.0
 40
12.0
 40
13.0
 40
13.0
 40
13.0
 40
14.0
 40
14.0
 40
14.0
 40
15.0
 40
15.0
 40
15.0
 40
16.0
 40
16.0
 40
16.0
 40
17.0
 40
17.0
 40
17.0
 40
18.0
 40
18.0
 40
18.0
 40
19.0
 40
19.0
 40
19.0
 40
20.0
 40
20.0
 40
20.0
 40
21.0
 40
21.0
 40
21.0
 40
22.0
 40
22.0
 40
22.0
 40
23.0
 40
23.0
 40
23.0
 40
24.0
 40
24.0
 40
24.0
 40
25.0
 40
25.0
 40
25.0
 40
26.0
 40
26.0
 40
26.0
 40
27.0
 40
27.0
 40
27.0
 40
28.0
 40
28.0
 40
28.0
 40
29.0
 40
29.0
 40
29.0
 40
30.0
 40
30.0
 40
30.0
 40
31.0
 40
31.0
 40
31.0
 40
31.0
 10
84.83098839133675
 20
-119.382892747932
 30
0.0
 10
84.83098839133675
 20
-119.382892747932
 30
0.0
 10
84.8881736676556
 20
-119.2691924701827
 30
0.0
 10
84.8881736676556
 20
-119.2691924701827
 30
0.0
 10
84.8881736676556
 20
-119.2691924701827
 30
0.0
 10
85.00222672030142
 20
-119.2499308035207
 30
0.0
 10
85.00222672030142
 20
-119.2499308035207
 30
0.0
 10
85.00222672030142
 20
-119.2499308035207
 30
0.0
 10
85.00222672030142
 20
-119.1355249702162
 30
0.0
 10
85.00222672030142
 20
-119.1355249702162
 30
0.0
 10
85.00222672030142
 20
-119.1355249702162
 30
0.0
 10
85.09694755121822
 20
-119.0404513591288
 30
0.0
 10
85.09694755121822
 20
-119.0404513591288
 30
0.0
 10
85.09694755121822
 20
-119.0404513591288
 30
0.0
 10
85.07800553428612
 20
-118.5457510814748
 30
0.0
 10
85.07800553428612
 20
-118.5457510814748
 30
0.0
 10
85.07800553428612
 20
-118.5457510814748
 30
0.0
 10
85.02117088648478
 20
-118.4699391370493
 30
0.0
 10
85.02117088648478
 20
-118.4699391370493
 30
0.0
 10
85.02117088648478
 20
-118.4699391370493
 30
0.0
 10
84.98292977634928
 20
-118.3555685815223
 30
0.0
 10
84.98292977634928
 20
-118.3555685815223
 30
0.0
 10
84.98292977634928
 20
-118.3555685815223
 30
0.0
 10
84.73591478265116
 20
-118.3555685815223
 30
0.0
 10
84.73591478265116
 20
-118.3555685815223
 30
0.0
 10
84.73591478265116
 20
-118.3555685815223
 30
0.0
 10
84.24188479525492
 20
-118.3555685815223
 30
0.0
 10
84.24188479525492
 20
-118.3555685815223
 30
0.0
 10
84.24188479525492
 20
-118.3555685815223
 30
0.0
 10
84.24188479525492
 20
-118.2033096926715
 30
0.0
 10
84.24188479525492
 20
-118.2033096926715
 30
0.0
 10
84.24188479525492
 20
-118.2033096926715
 30
0.0
 10
84.73591478265116
 20
-118.1846830260094
 30
0.0
 10
84.73591478265116
 20
-118.1846830260094
 30
0.0
 10
84.73591478265116
 20
-118.1846830260094
 30
0.0
 10
84.67908228410107
 20
-116.2244380264995
 30
0.0
 10
84.67908228410107
 20
-116.2244380264995
 30
0.0
 10
84.67908228410107
 20
-116.2244380264995
 30
0.0
 10
84.86887672370347
 20
-115.9391819154596
 30
0.0
 10
82.47386845147187
 20
-115.7676260821693
 30
0.0
 10
80.07882490146342
 20
-115.5967405266564
 30
0.0
 10
76.92347470418534
 20
-115.3300758045008
 30
0.0
 10
75.06070225170862
 20
-115.5209285822309
 30
0.0
 10
75.06070225170862
 20
-115.5209285822309
 30
0.0
 10
74.69966948314155
 20
-115.7489994155072
 30
0.0
 10
74.69966948314155
 20
-115.7489994155072
 30
0.0
 10
74.69966948314155
 20
-115.7489994155072
 30
0.0
 10
74.64248609245051
 20
-117.7850563594425
 30
0.0
 10
74.64248609245051
 20
-117.7850563594425
 30
0.0
 10
74.64248609245051
 20
-117.7850563594425
 30
0.0
 10
75.1175347502587
 20
-117.8229446927667
 30
0.0
 10
75.1175347502587
 20
-117.8229446927667
 30
0.0
 10
75.1175347502587
 20
-117.8229446927667
 30
0.0
 10
75.13683169421084
 20
-118.0131271927191
 30
0.0
 10
75.13683169421084
 20
-118.0131271927191
 30
0.0
 10
75.13683169421084
 20
-118.0131271927191
 30
0.0
 10
74.47124587785801
 20
-117.975238859395
 30
0.0
 10
74.47124587785801
 20
-117.975238859395
 30
0.0
 10
74.47124587785801
 20
-117.975238859395
 30
0.0
 10
74.31930449284548
 20
-118.2797919148744
 30
0.0
 10
74.31930449284548
 20
-118.4506421926095
 30
0.0
 10
74.31930449284548
 20
-118.7173069147651
 30
0.0
 10
74.52843115417687
 20
-119.0597483035683
 30
0.0
 10
74.52843115417687
 20
-119.0597483035683
 30
0.0
 10
73.42600062674666
 20
-119.0597483035683
 30
0.0
 10
71.96218455298062
 20
-119.5351516367828
 30
0.0
 10
71.96218455298062
 20
-121.3431377474419
 30
0.0
 10
71.96218455298062
 20
-123.1504535803237
 30
0.0
 10
72.17131121431201
 20
-133.6724741332485
 30
0.0
 10
72.17131121431201
 20
-133.6724741332485
 30
0.0
 10
72.17131121431201
 20
-133.6724741332485
 30
0.0
 10
72.08516288317651
 20
-134.112740799805
 30
0.0
 10
72.1334228819453
 20
-134.4903188552666
 30
0.0
 10
72.34251426549982
 20
-136.1329580215221
 30
0.0
 10
73.91382172541242
 20
-137.7252557989019
 30
0.0
 10
77.60765190895273
 20
-137.7252557989019
 30
0.0
 10
81.29393264824121
 20
-137.7252557989019
 30
0.0
 10
84.51578145493389
 20
-137.363552743437
 30
0.0
 10
86.23761918878392
 20
-134.9471307995965
 30
0.0
 10
86.4798011270498
 20
-134.6067707996816
 30
0.0
 10
86.80777861868239
 20
-133.6910655221328
 30
0.0
 10
86.67481667763009
 20
-133.0633680222897
 30
0.0
 10
86.67481667763009
 20
-133.0633680222897
 30
0.0
 10
87.03584944619716
 20
-121.6663174695835
 30
0.0
 10
87.03584944619716
 20
-121.6663174695835
 30
0.0
 10
87.03584944619716
 20
-121.6663174695835
 30
0.0
 10
87.07409055633266
 20
-121.5333202473943
 30
0.0
 10
87.07409055633266
 20
-121.4189496918674
 30
0.0
 10
87.07409055633266
 20
-120.1380488588545
 30
0.0
 10
85.98407780636342
 20
-119.382892747932
 30
0.0
 10
84.83098839133675
 20
-119.382892747932
 30
0.0
 10
84.83098839133675
 20
-119.382892747932
 30
0.0
 10
84.83098839133675
 20
-119.382892747932
 30
0.0
 10
84.83098839133675
 20
-119.382892747932
 30
0.0
  0
ENDBLK
  5
4C
330
49
100
AcDbEntity
  8
0
100
AcDbBlockEnd
  0
BLOCK
  5
55
330
53
100
AcDbEntity
  8
0
100
AcDbBlockBegin
  2
block 5
 70
     0
 10
0.0
 20
0.0
 30
0.0
  3
block 5
  1

  0
SPLINE
  5
57
330
53
100
AcDbEntity
  8
_U+30EC_U+30A4_U+30E4_U+30FC 1
370
     0
100
AcDbSpline
210
0.0
220
0.0
230
1.0
 70
    11
 71
     3
 72
    59
 73
    55
 74
     0
 42
0.0000000001
 43
0.0000000001
 12
1.0
 22
0.0
 32
0.0
 13
1.0
 23
0.0
 33
0.0
 40
0.0
 40
0.0
 40
0.0
 40
0.0
 40
1.0
 40
1.0
 40
1.0
 40
2.0
 40
2.0
 40
2.0
 40
3.0
 40
3.0
 40
3.0
 40
4.0
 40
4.0
 40
4.0
 40
5.0
 40
5.0
 40
5.0
 40
6.0
 40
6.0
 40
6.0
 40
7.0
 40
7.0
 40
7.0
 40
8.0
 40
8.0
 40
8.0
 40
9.0
 40
9.0
 40
9.0
 40
10.0
 40
10.0
 40
10.0
 40
11.0
 40
11.0
 40
11.0
 40
12.0
 40
12.0
 40
12.0
 40
13.0
 40
13.0
 40
13.0
 40
14.0
 40
14.0
 40
14.0
 40
15.0
 40
15.0
 40
15.0
 40
16.0
 40
16.0
 40
16.0
 40
17.0
 40
17.0
 40
17.0
 40
18.0
 40
18.0
 40
18.0
 40
18.0
 10
77.36375323586739
 20
-140.9174967095623
 30
0.0
 10
77.35806882831673
 20
-141.134537725133
 30
0.0
 10
77.37546656051725
 20
-141.3205728813365
 30
0.0
 10
77.82505152134235
 20
-141.3205728813365
 30
0.0
 10
78.01108667754585
 20
-141.3205728813365
 30
0.0
 10
78.27653128468434
 20
-141.3167832763027
 30
0.0
 10
78.27653128468434
 20
-141.0008680203053
 30
0.0
 10
78.27653128468434
 20
-140.9350666965371
 30
0.0
 10
78.26877981984254
 20
-140.7858940620258
 30
0.0
 10
78.13700491753173
 20
-140.7314615533588
 30
0.0
 10
78.11375052300629
 20
-140.7218152860001
 30
0.0
 10
78.01883814238765
 20
-140.6832302165653
 30
0.0
 10
77.90635577479425
 20
-140.6832302165653
 30
0.0
 10
77.90635577479425
 20
-140.6832302165653
 30
0.0
 10
77.69517142154844
 20
-140.6832302165653
 30
0.0
 10
77.69517142154844
 20
-140.6832302165653
 30
0.0
 10
77.69517142154844
 20
-140.6832302165653
 30
0.0
 10
77.69517142154844
 20
-140.568853046455
 30
0.0
 10
77.69517142154844
 20
-140.568853046455
 30
0.0
 10
77.69517142154844
 20
-140.568853046455
 30
0.0
 10
77.91031763460228
 20
-140.568853046455
 30
0.0
 10
77.91031763460228
 20
-140.568853046455
 30
0.0
 10
78.02073294490454
 20
-140.568853046455
 30
0.0
 10
78.26102835500072
 20
-140.568853046455
 30
0.0
 10
78.26102835500072
 20
-140.2877332548586
 30
0.0
 10
78.26102835500072
 20
-140.0493326472793
 30
0.0
 10
78.09635279080578
 20
-139.9911105335786
 30
0.0
 10
77.84434405605975
 20
-139.9911105335786
 30
0.0
 10
77.56150171672074
 20
-139.9911105335786
 30
0.0
 10
77.40061575755958
 20
-140.0472655899882
 30
0.0
 10
77.39475909523465
 20
-140.3342420439095
 30
0.0
 10
77.39475909523465
 20
-140.3342420439095
 30
0.0
 10
77.26298419292384
 20
-140.3342420439095
 30
0.0
 10
77.26298419292384
 20
-140.3342420439095
 30
0.0
 10
77.2824489824155
 20
-139.9504584068527
 30
0.0
 10
77.51309812515298
 20
-139.8770778730168
 30
0.0
 10
77.84055445102598
 20
-139.8770778730168
 30
0.0
 10
77.9781860156617
 20
-139.8770778730168
 30
0.0
 10
78.38884139750348
 20
-139.8770778730168
 30
0.0
 10
78.38884139750348
 20
-140.2818765925337
 30
0.0
 10
78.38884139750348
 20
-140.5647189318727
 30
0.0
 10
78.21451956594984
 20
-140.609505173181
 30
0.0
 10
78.15061304469846
 20
-140.6267306506072
 30
0.0
 10
78.21451956594984
 20
-140.6463676948731
 30
0.0
 10
78.40641138447826
 20
-140.7083794136076
 30
0.0
 10
78.40641138447826
 20
-140.9988009630142
 30
0.0
 10
78.40641138447826
 20
-141.4328829941557
 30
0.0
 10
77.9974785503791
 20
-141.4349500514468
 30
0.0
 10
77.84623885857664
 20
-141.4349500514468
 30
0.0
 10
77.44712454661044
 20
-141.4349500514468
 30
0.0
 10
77.2319783335566
 20
-141.3264295436614
 30
0.0
 10
77.2319783335566
 20
-140.9174967095623
 30
0.0
 10
77.2319783335566
 20
-140.9174967095623
 30
0.0
 10
77.36375323586739
 20
-140.9174967095623
 30
0.0
 10
77.36375323586739
 20
-140.9174967095623
 30
0.0
  0
HATCH
  5
58
330
53
100
AcDbEntity
  8
_U+30EC_U+30A4_U+30E4_U+30FC 1
 62
   179
420
  2234388
100
AcDbHatch
 10
0.0
 20
0.0
 30
0.0
210
0.0
220
0.0
230
1.0
  2
SOLID
 70
     1
 71
     0
 91
        1
 92
        1
 93
        1
 72
     4
 94
        3
 73
     0
 74
     1
 95
       59
 96
       55
 40
0.0
 40
0.0
 40
0.0
 40
0.0
 40
1.0
 40
1.0
 40
1.0
 40
2.0
 40
2.0
 40
2.0
 40
3.0
 40
3.0
 40
3.0
 40
4.0
 40
4.0
 40
4.0
 40
5.0
 40
5.0
 40
5.0
 40
6.0
 40
6.0
 40
6.0
 40
7.0
 40
7.0
 40
7.0
 40
8.0
 40
8.0
 40
8.0
 40
9.0
 40
9.0
 40
9.0
 40
10.0
 40
10.0
 40
10.0
 40
11.0
 40
11.0
 40
11.0
 40
12.0
 40
12.0
 40
12.0
 40
13.0
 40
13.0
 40
13.0
 40
14.0
 40
14.0
 40
14.0
 40
15.0
 40
15.0
 40
15.0
 40
16.0
 40
16.0
 40
16.0
 40
17.0
 40
17.0
 40
17.0
 40
18.0
 40
18.0
 40
18.0
 40
18.0
 10
77.36375323586739
 20
-140.9174967095623
 10
77.35806882831673
 20
-141.134537725133
 10
77.37546656051725
 20
-141.3205728813365
 10
77.82505152134235
 20
-141.3205728813365
 10
78.01108667754585
 20
-141.3205728813365
 10
78.27653128468434
 20
-141.3167832763027
 10
78.27653128468434
 20
-141.0008680203053
 10
78.27653128468434
 20
-140.9350666965371
 10
78.26877981984254
 20
-140.7858940620258
 10
78.13700491753173
 20
-140.7314615533588
 10
78.11375052300629
 20
-140.7218152860001
 10
78.01883814238765
 20
-140.6832302165653
 10
77.90635577479425
 20
-140.6832302165653
 10
77.90635577479425
 20
-140.6832302165653
 10
77.69517142154844
 20
-140.6832302165653
 10
77.69517142154844
 20
-140.6832302165653
 10
77.69517142154844
 20
-140.6832302165653
 10
77.69517142154844
 20
-140.568853046455
 10
77.69517142154844
 20
-140.568853046455
 10
77.69517142154844
 20
-140.568853046455
 10
77.91031763460228
 20
-140.568853046455
 10
77.91031763460228
 20
-140.568853046455
 10
78.02073294490454
 20
-140.568853046455
 10
78.26102835500072
 20
-140.568853046455
 10
78.26102835500072
 20
-140.2877332548586
 10
78.26102835500072
 20
-140.0493326472793
 10
78.09635279080578
 20
-139.9911105335786
 10
77.84434405605975
 20
-139.9911105335786
 10
77.56150171672074
 20
-139.9911105335786
 10
77.40061575755958
 20
-140.0472655899882
 10
77.39475909523465
 20
-140.3342420439095
 10
77.39475909523465
 20
-140.3342420439095
 10
77.26298419292384
 20
-140.3342420439095
 10
77.26298419292384
 20
-140.3342420439095
 10
77.2824489824155
 20
-139.9504584068527
 10
77.51309812515298
 20
-139.8770778730168
 10
77.84055445102598
 20
-139.8770778730168
 10
77.9781860156617
 20
-139.8770778730168
 10
78.38884139750348
 20
-139.8770778730168
 10
78.38884139750348
 20
-140.2818765925337
 10
78.38884139750348
 20
-140.5647189318727
 10
78.21451956594984
 20
-140.609505173181
 10
78.15061304469846
 20
-140.6267306506072
 10
78.21451956594984
 20
-140.6463676948731
 10
78.40641138447826
 20
-140.7083794136076
 10
78.40641138447826
 20
-140.9988009630142
 10
78.40641138447826
 20
-141.4328829941557
 10
77.9974785503791
 20
-141.4349500514468
 10
77.84623885857664
 20
-141.4349500514468
 10
77.44712454661044
 20
-141.4349500514468
 10
77.2319783335566
 20
-141.3264295436614
 10
77.2319783335566
 20
-140.9174967095623
 10
77.2319783335566
 20
-140.9174967095623
 10
77.36375323586739
 20
-140.9174967095623
 10
77.36375323586739
 20
-140.9174967095623
 97
        0
 97
        0
 75
     2
 76
     1
 98
        0
  0
POLYLINE
  5
59
330
53
100
AcDbEntity
  8
_U+30EC_U+30A4_U+30E4_U+30FC 1
370
     0
100
AcDb2dPolyline
 66
     1
 10
0.0
 20
0.0
 30
0.0
  0
VERTEX
  5
5A
330
59
100
AcDbEntity
  8
_U+30EC_U+30A4_U+30E4_U+30FC 1
370
     0
100
AcDbVertex
100
AcDb2dVertex
 10
79.36552596757181
 20
-140.2780869874999
 30
0.0
  0
VERTEX
  5
5B
330
59
100
AcDbEntity
  8
_U+30EC_U+30A4_U+30E4_U+30FC 1
370
     0
100
AcDbVertex
100
AcDb2dVertex
 10
79.54174260164234
 20
-140.2780869874999
 30
0.0
  0
VERTEX
  5
5C
330
59
100
AcDbEntity
  8
_U+30EC_U+30A4_U+30E4_U+30FC 1
370
     0
100
AcDbVertex
100
AcDb2dVertex
 10
78.96434459831447
 20
-140.8089762017769
 30
0.0
  0
VERTEX
  5
5D
330
59
100
AcDbEntity
  8
_U+30EC_U+30A4_U+30E4_U+30FC 1
370
     0
100
AcDbVertex
100
AcDb2dVertex
 10
79.60185951785995
 20
-141.4194471217632
 30
0.0
  0
VERTEX
  5
5E
330
59
100
AcDbEntity
  8
_U+30EC_U+30A4_U+30E4_U+30FC 1
370
     0
100
AcDbVertex
100
AcDb2dVertex
 10
79.42357582649828
 20
-141.4194471217632
 30
0.0
  0
VERTEX
  5
5F
330
59
100
AcDbEntity
  8
_U+30EC_U+30A4_U+30E4_U+30FC 1
370
     0
100
AcDbVertex
100
AcDb2dVertex
 10
78.82671303367874
 20
-140.8244791314605
 30
0.0
  0
VERTEX
  5
60
330
59
100
AcDbEntity
  8
_U+30EC_U+30A4_U+30E4_U+30FC 1
370
     0
100
AcDbVertex
100
AcDb2dVertex
 10
78.82671303367874
 20
-141.4194471217632
 30
0.0
  0
VERTEX
  5
61
330
59
100
AcDbEntity
  8
_U+30EC_U+30A4_U+30E4_U+30FC 1
370
     0
100
AcDbVertex
100
AcDb2dVertex
 10
78.70458439872664
 20
-141.4194471217632
 30
0.0
  0
VERTEX
  5
62
330
59
100
AcDbEntity
  8
_U+30EC_U+30A4_U+30E4_U+30FC 1
370
     0
100
AcDbVertex
100
AcDb2dVertex
 10
78.70458439872664
 20
-139.8922362931519
 30
0.0
  0
VERTEX
  5
63
330
59
100
AcDbEntity
  8
_U+30EC_U+30A4_U+30E4_U+30FC 1
370
     0
100
AcDbVertex
100
AcDb2dVertex
 10
78.82671303367874
 20
-139.8922362931519
 30
0.0
  0
VERTEX
  5
64
330
59
100
AcDbEntity
  8
_U+30EC_U+30A4_U+30E4_U+30FC 1
370
     0
100
AcDbVertex
100
AcDb2dVertex
 10
78.82671303367874
 20
-140.7934732720933
 30
0.0
  0
VERTEX
  5
65
330
59
100
AcDbEntity
  8
_U+30EC_U+30A4_U+30E4_U+30FC 1
370
     0
100
AcDbVertex
100
AcDb2dVertex
 10
79.36552596757181
 20
-140.2780869874999
 30
0.0
  0
SEQEND
  5
66
330
59
100
AcDbEntity
  8
_U+30EC_U+30A4_U+30E4_U+30FC 1
370
     0
  0
HATCH
  5
67
330
53
100
AcDbEntity
  8
_U+30EC_U+30A4_U+30E4_U+30FC 1
 62
   179
420
  2234388
100
AcDbHatch
 10
0.0
 20
0.0
 30
0.0
210
0.0
220
0.0
230
1.0
  2
SOLID
 70
     1
 71
     0
 91
        1
 92
        1
 93
       11
 72
     1
 10
79.36552596757181
 20
-140.2780869874999
 11
79.54174260164234
 21
-140.2780869874999
 72
     1
 10
79.54174260164234
 20
-140.2780869874999
 11
78.96434459831447
 21
-140.8089762017769
 72
     1
 10
78.96434459831447
 20
-140.8089762017769
 11
79.60185951785995
 21
-141.4194471217632
 72
     1
 10
79.60185951785995
 20
-141.4194471217632
 11
79.42357582649828
 21
-141.4194471217632
 72
     1
 10
79.42357582649828
 20
-141.4194471217632
 11
78.82671303367874
 21
-140.8244791314605
 72
     1
 10
78.82671303367874
 20
-140.8244791314605
 11
78.82671303367874
 21
-141.4194471217632
 72
     1
 10
78.82671303367874
 20
-141.4194471217632
 11
78.70458439872664
 21
-141.4194471217632
 72
     1
 10
78.70458439872664
 20
-141.4194471217632
 11
78.70458439872664
 21
-139.8922362931519
 72
     1
 10
78.70458439872664
 20
-139.8922362931519
 11
78.82671303367874
 21
-139.8922362931519
 72
     1
 10
78.82671303367874
 20
-139.8922362931519
 11
78.82671303367874
 21
-140.7934732720933
 72
     1
 10
78.82671303367874
 20
-140.7934732720933
 11
79.36552596757181
 21
-140.2780869874999
 97
        0
 75
     2
 76
     1
 98
        0
  0
SPLINE
  5
68
330
53
100
AcDbEntity
  8
_U+30EC_U+30A4_U+30E4_U+30FC 1
370
     0
100
AcDbSpline
210
0.0
220
0.0
230
1.0
 70
    11
 71
     3
 72
    59
 73
    55
 74
     0
 42
0.0000000001
 43
0.0000000001
 12
1.0
 22
0.0
 32
0.0
 13
1.0
 23
0.0
 33
0.0
 40
0.0
 40
0.0
 40
0.0
 40
0.0
 40
1.0
 40
1.0
 40
1.0
 40
2.0
 40
2.0
 40
2.0
 40
3.0
 40
3.0
 40
3.0
 40
4.0
 40
4.0
 40
4.0
 40
5.0
 40
5.0
 40
5.0
 40
6.0
 40
6.0
 40
6.0
 40
7.0
 40
7.0
 40
7.0
 40
8.0
 40
8.0
 40
8.0
 40
9.0
 40
9.0
 40
9.0
 40
10.0
 40
10.0
 40
10.0
 40
11.0
 40
11.0
 40
11.0
 40
12.0
 40
12.0
 40
12.0
 40
13.0
 40
13.0
 40
13.0
 40
14.0
 40
14.0
 40
14.0
 40
15.0
 40
15.0
 40
15.0
 40
16.0
 40
16.0
 40
16.0
 40
17.0
 40
17.0
 40
17.0
 40
18.0
 40
18.0
 40
18.0
 40
18.0
 10
80.88998071979486
 20
-140.3459553685593
 30
0.0
 10
80.77956540949262
 20
-140.3518120308843
 30
0.0
 10
80.75234915515914
 20
-140.3631808459856
 30
0.0
 10
80.719448493275
 20
-140.4251925647201
 30
0.0
 10
80.74270288780043
 20
-140.4641221437034
 30
0.0
 10
80.76406247980898
 20
-140.4951280030707
 30
0.0
 10
80.76406247980898
 20
-140.5902126384636
 30
0.0
 10
80.76406247980898
 20
-140.9078504422036
 30
0.0
 10
80.52170001242166
 20
-140.9367892442797
 30
0.0
 10
80.30862085665896
 20
-140.9367892442797
 30
0.0
 10
80.1380886301391
 20
-140.9367892442797
 30
0.0
 10
80.02767331983684
 20
-140.9174967095623
 30
0.0
 10
79.95980493877741
 20
-140.8671983154777
 30
0.0
 10
79.89779322004291
 20
-140.9019937798787
 30
0.0
 10
79.87453882551748
 20
-140.9312770915033
 30
0.0
 10
79.87453882551748
 20
-140.975718823263
 30
0.0
 10
79.87453882551748
 20
-141.0494438666474
 30
0.0
 10
79.94051240406002
 20
-141.0725260063985
 30
0.0
 10
79.99856226298647
 20
-141.0763156114323
 30
0.0
 10
79.99856226298647
 20
-141.0763156114323
 30
0.0
 10
80.51015894254607
 20
-141.1073214707996
 30
0.0
 10
80.51015894254607
 20
-141.1073214707996
 30
0.0
 10
80.74666474760848
 20
-141.1211018527406
 30
0.0
 10
80.843471930744
 20
-141.2141194308423
 30
0.0
 10
80.843471930744
 20
-141.3787949950373
 30
0.0
 10
80.843471930744
 20
-141.6285644177179
 30
0.0
 10
80.63418238001506
 20
-141.679207321351
 30
0.0
 10
80.30465899685092
 20
-141.679207321351
 30
0.0
 10
79.9539482764525
 20
-141.679207321351
 30
0.0
 10
79.74655352824045
 20
-141.6247748126841
 30
0.0
 10
79.74655352824045
 20
-141.396364982012
 30
0.0
 10
79.74655352824045
 20
-141.2430582329184
 30
0.0
 10
79.84542776866712
 20
-141.1889702338
 30
0.0
 10
79.8822902903593
 20
-141.1693331895341
 30
0.0
 10
79.78341604993263
 20
-141.140394387458
 30
0.0
 10
79.76016165540719
 20
-141.05116641439
 30
0.0
 10
79.76016165540719
 20
-140.9970784152716
 30
0.0
 10
79.76016165540719
 20
-140.9040608371698
 30
0.0
 10
79.8106323042661
 20
-140.8282687364943
 30
0.0
 10
79.90743948740162
 20
-140.816899921393
 30
0.0
 10
79.84749482595826
 20
-140.7469644830424
 30
0.0
 10
79.8376763038253
 20
-140.6618706245568
 30
0.0
 10
79.8376763038253
 20
-140.59572479124
 30
0.0
 10
79.8376763038253
 20
-140.3400987062344
 30
0.0
 10
80.0140651926701
 20
-140.2625840578163
 30
0.0
 10
80.29311792697534
 20
-140.2625840578163
 30
0.0
 10
80.40749509708563
 20
-140.2625840578163
 30
0.0
 10
80.57217066128057
 20
-140.272230325175
 30
0.0
 10
80.65158011221558
 20
-140.3497449735931
 30
0.0
 10
80.67293970422413
 20
-140.3053032418334
 30
0.0
 10
80.70584036610826
 20
-140.2353678034828
 30
0.0
 10
80.88998071979486
 20
-140.2295111411579
 30
0.0
 10
80.88998071979486
 20
-140.2295111411579
 30
0.0
 10
80.88998071979486
 20
-140.3459553685593
 30
0.0
 10
80.88998071979486
 20
-140.3459553685593
 30
0.0
  0
SPLINE
  5
69
330
53
100
AcDbEntity
  8
_U+30EC_U+30A4_U+30E4_U+30FC 1
370
     0
100
AcDbSpline
210
0.0
220
0.0
230
1.0
 70
    11
 71
     3
 72
    20
 73
    16
 74
     0
 42
0.0000000001
 43
0.0000000001
 12
1.0
 22
0.0
 32
0.0
 13
1.0
 23
0.0
 33
0.0
 40
0.0
 40
0.0
 40
0.0
 40
0.0
 40
1.0
 40
1.0
 40
1.0
 40
2.0
 40
2.0
 40
2.0
 40
3.0
 40
3.0
 40
3.0
 40
4.0
 40
4.0
 40
4.0
 40
5.0
 40
5.0
 40
5.0
 40
5.0
 10
80.04317624952046
 20
-141.1889702338
 30
0.0
 10
80.03731958719554
 20
-141.1889702338
 30
0.0
 10
79.86093069835074
 20
-141.2061957112262
 30
0.0
 10
79.86093069835074
 20
-141.3750053900035
 30
0.0
 10
79.86093069835074
 20
-141.5124646998649
 30
0.0
 10
79.93069388192706
 20
-141.5665526989834
 30
0.0
 10
80.30465899685092
 20
-141.5665526989834
 30
0.0
 10
80.64003904233999
 20
-141.5665526989834
 30
0.0
 10
80.7213432957919
 20
-141.5028184325062
 30
0.0
 10
80.7213432957919
 20
-141.382584600071
 30
0.0
 10
80.7213432957919
 20
-141.2451252902096
 30
0.0
 10
80.61282278800653
 20
-141.223765698201
 30
0.0
 10
80.41317950463629
 20
-141.2120523735512
 30
0.0
 10
80.41317950463629
 20
-141.2120523735512
 30
0.0
 10
80.04317624952046
 20
-141.1889702338
 30
0.0
 10
80.04317624952046
 20
-141.1889702338
 30
0.0
  0
SPLINE
  5
6A
330
53
100
AcDbEntity
  8
_U+30EC_U+30A4_U+30E4_U+30FC 1
370
     0
100
AcDbSpline
210
0.0
220
0.0
230
1.0
 70
    11
 71
     3
 72
    17
 73
    13
 74
     0
 42
0.0000000001
 43
0.0000000001
 12
1.0
 22
0.0
 32
0.0
 13
1.0
 23
0.0
 33
0.0
 40
0.0
 40
0.0
 40
0.0
 40
0.0
 40
1.0
 40
1.0
 40
1.0
 40
2.0
 40
2.0
 40
2.0
 40
3.0
 40
3.0
 40
3.0
 40
4.0
 40
4.0
 40
4.0
 40
4.0
 10
79.95980493877741
 20
-140.6112277209236
 30
0.0
 10
79.95980493877741
 20
-140.7838270047346
 30
0.0
 10
80.07022024907967
 20
-140.8244791314605
 30
0.0
 10
80.30465899685092
 20
-140.8244791314605
 30
0.0
 10
80.54512666172135
 20
-140.8244791314605
 30
0.0
 10
80.64382864737377
 20
-140.7762477946671
 30
0.0
 10
80.64382864737377
 20
-140.5881455811724
 30
0.0
 10
80.64382864737377
 20
-140.4737684110621
 30
0.0
 10
80.595425055806
 20
-140.3731716228928
 30
0.0
 10
80.29897458930026
 20
-140.3731716228928
 30
0.0
 10
80.0664306440459
 20
-140.3731716228928
 30
0.0
 10
79.95980493877741
 20
-140.4138237496188
 30
0.0
 10
79.95980493877741
 20
-140.6112277209236
 30
0.0
  0
HATCH
  5
6B
330
53
100
AcDbEntity
  8
_U+30EC_U+30A4_U+30E4_U+30FC 1
 62
   179
420
  2234388
100
AcDbHatch
 10
0.0
 20
0.0
 30
0.0
210
0.0
220
0.0
230
1.0
  2
SOLID
 70
     1
 71
     0
 91
        3
 92
        1
 93
        1
 72
     4
 94
        3
 73
     0
 74
     1
 95
       59
 96
       55
 40
0.0
 40
0.0
 40
0.0
 40
0.0
 40
1.0
 40
1.0
 40
1.0
 40
2.0
 40
2.0
 40
2.0
 40
3.0
 40
3.0
 40
3.0
 40
4.0
 40
4.0
 40
4.0
 40
5.0
 40
5.0
 40
5.0
 40
6.0
 40
6.0
 40
6.0
 40
7.0
 40
7.0
 40
7.0
 40
8.0
 40
8.0
 40
8.0
 40
9.0
 40
9.0
 40
9.0
 40
10.0
 40
10.0
 40
10.0
 40
11.0
 40
11.0
 40
11.0
 40
12.0
 40
12.0
 40
12.0
 40
13.0
 40
13.0
 40
13.0
 40
14.0
 40
14.0
 40
14.0
 40
15.0
 40
15.0
 40
15.0
 40
16.0
 40
16.0
 40
16.0
 40
17.0
 40
17.0
 40
17.0
 40
18.0
 40
18.0
 40
18.0
 40
18.0
 10
80.88998071979486
 20
-140.3459553685593
 10
80.77956540949262
 20
-140.3518120308843
 10
80.75234915515914
 20
-140.3631808459856
 10
80.719448493275
 20
-140.4251925647201
 10
80.74270288780043
 20
-140.4641221437034
 10
80.76406247980898
 20
-140.4951280030707
 10
80.76406247980898
 20
-140.5902126384636
 10
80.76406247980898
 20
-140.9078504422036
 10
80.52170001242166
 20
-140.9367892442797
 10
80.30862085665896
 20
-140.9367892442797
 10
80.1380886301391
 20
-140.9367892442797
 10
80.02767331983684
 20
-140.9174967095623
 10
79.95980493877741
 20
-140.8671983154777
 10
79.89779322004291
 20
-140.9019937798787
 10
79.87453882551748
 20
-140.9312770915033
 10
79.87453882551748
 20
-140.975718823263
 10
79.87453882551748
 20
-141.0494438666474
 10
79.94051240406002
 20
-141.0725260063985
 10
79.99856226298647
 20
-141.0763156114323
 10
79.99856226298647
 20
-141.0763156114323
 10
80.51015894254607
 20
-141.1073214707996
 10
80.51015894254607
 20
-141.1073214707996
 10
80.74666474760848
 20
-141.1211018527406
 10
80.843471930744
 20
-141.2141194308423
 10
80.843471930744
 20
-141.3787949950373
 10
80.843471930744
 20
-141.6285644177179
 10
80.63418238001506
 20
-141.679207321351
 10
80.30465899685092
 20
-141.679207321351
 10
79.9539482764525
 20
-141.679207321351
 10
79.74655352824045
 20
-141.6247748126841
 10
79.74655352824045
 20
-141.396364982012
 10
79.74655352824045
 20
-141.2430582329184
 10
79.84542776866712
 20
-141.1889702338
 10
79.8822902903593
 20
-141.1693331895341
 10
79.78341604993263
 20
-141.140394387458
 10
79.76016165540719
 20
-141.05116641439
 10
79.76016165540719
 20
-140.9970784152716
 10
79.76016165540719
 20
-140.9040608371698
 10
79.8106323042661
 20
-140.8282687364943
 10
79.90743948740162
 20
-140.816899921393
 10
79.84749482595826
 20
-140.7469644830424
 10
79.8376763038253
 20
-140.6618706245568
 10
79.8376763038253
 20
-140.59572479124
 10
79.8376763038253
 20
-140.3400987062344
 10
80.0140651926701
 20
-140.2625840578163
 10
80.29311792697534
 20
-140.2625840578163
 10
80.40749509708563
 20
-140.2625840578163
 10
80.57217066128057
 20
-140.272230325175
 10
80.65158011221558
 20
-140.3497449735931
 10
80.67293970422413
 20
-140.3053032418334
 10
80.70584036610826
 20
-140.2353678034828
 10
80.88998071979486
 20
-140.2295111411579
 10
80.88998071979486
 20
-140.2295111411579
 10
80.88998071979486
 20
-140.3459553685593
 10
80.88998071979486
 20
-140.3459553685593
 97
        0
 97
        0
 92
        1
 93
        1
 72
     4
 94
        3
 73
     0
 74
     1
 95
       20
 96
       16
 40
0.0
 40
0.0
 40
0.0
 40
0.0
 40
1.0
 40
1.0
 40
1.0
 40
2.0
 40
2.0
 40
2.0
 40
3.0
 40
3.0
 40
3.0
 40
4.0
 40
4.0
 40
4.0
 40
5.0
 40
5.0
 40
5.0
 40
5.0
 10
80.04317624952046
 20
-141.1889702338
 10
80.03731958719554
 20
-141.1889702338
 10
79.86093069835074
 20
-141.2061957112262
 10
79.86093069835074
 20
-141.3750053900035
 10
79.86093069835074
 20
-141.5124646998649
 10
79.93069388192706
 20
-141.5665526989834
 10
80.30465899685092
 20
-141.5665526989834
 10
80.64003904233999
 20
-141.5665526989834
 10
80.7213432957919
 20
-141.5028184325062
 10
80.7213432957919
 20
-141.382584600071
 10
80.7213432957919
 20
-141.2451252902096
 10
80.61282278800653
 20
-141.223765698201
 10
80.41317950463629
 20
-141.2120523735512
 10
80.41317950463629
 20
-141.2120523735512
 10
80.04317624952046
 20
-141.1889702338
 10
80.04317624952046
 20
-141.1889702338
 97
        0
 97
        0
 92
        1
 93
        1
 72
     4
 94
        3
 73
     0
 74
     1
 95
       17
 96
       13
 40
0.0
 40
0.0
 40
0.0
 40
0.0
 40
1.0
 40
1.0
 40
1.0
 40
2.0
 40
2.0
 40
2.0
 40
3.0
 40
3.0
 40
3.0
 40
4.0
 40
4.0
 40
4.0
 40
4.0
 10
79.95980493877741
 20
-140.6112277209236
 10
79.95980493877741
 20
-140.7838270047346
 10
80.07022024907967
 20
-140.8244791314605
 10
80.30465899685092
 20
-140.8244791314605
 10
80.54512666172135
 20
-140.8244791314605
 10
80.64382864737377
 20
-140.7762477946671
 10
80.64382864737377
 20
-140.5881455811724
 10
80.64382864737377
 20
-140.4737684110621
 10
80.595425055806
 20
-140.3731716228928
 10
80.29897458930026
 20
-140.3731716228928
 10
80.0664306440459
 20
-140.3731716228928
 10
79.95980493877741
 20
-140.4138237496188
 10
79.95980493877741
 20
-140.6112277209236
 97
        0
 97
        0
 75
     2
 76
     1
 98
        0
  0
ENDBLK
  5
56
330
53
100
AcDbEntity
  8
0
100
AcDbBlockEnd
  0
ENDSEC
  0
SECTION
  2
ENTITIES
  0
INSERT
  5
42
330
1F
100
AcDbEntity
  8
_U+30EC_U+30A4_U+30E4_U+30FC 1
100
AcDbBlockReference
  2
block 2
 10
0.0
 20
0.0
 30
0.0
  0
ENDSEC
  0
SECTION
  2
OBJECTS
  0
DICTIONARY
  5
C
330
0
100
AcDbDictionary
281
     1
  3
ACAD_GROUP
350
D
  3
ACAD_IMAGE_DICT
350
4D
  3
ACAD_IMAGE_VARS
350
4F
  3
ACAD_LAYOUT
350
1A
  3
ACAD_MATERIAL
350
3B
  3
ACAD_MLEADERSTYLE
350
6D
  3
ACAD_MLINESTYLE
350
17
  3
ACAD_PLOTSETTINGS
350
19
  3
ACAD_PLOTSTYLENAME
350
E
  3
ACAD_TABLESTYLE
350
6C
  3
ACAD_VISUALSTYLE
350
2A
  0
SUN
  5
3F
330
29
100
AcDbSun
 90
        1
290
     0
 63
     7
421
 16777215
 40
1.0
291
     1
 91
  2455826
 92
 54000000
292
     0
 70
     2
 71
   256
280
     1
  0
IMAGEDEF_REACTOR
  5
51
330
50
100
AcDbRasterImageDefReactor
 90
        2
330
50
  0
DICTIONARY
  5
D
102
{ACAD_REACTORS
330
C
102
}
330
C
100
AcDbDictionary
281
     1
  0
DICTIONARY
  5
4D
102
{ACAD_REACTORS
330
C
102
}
330
C
100
AcDbDictionary
281
     1
  3
/Users/logox/Desktop/dxf0611/60-02_1.png
350
4E
  0
RASTERVARIABLES
  5
4F
102
{ACAD_REACTORS
330
C
102
}
330
C
100
AcDbRasterVariables
 90
        0
 70
     0
 71
     1
 72
     0
  0
DICTIONARY
  5
1A
102
{ACAD_REACTORS
330
C
102
}
330
C
100
AcDbDictionary
281
     1
  3
Layout1
350
1E
  3
Layout2
350
26
  3
Model
350
22
  0
DICTIONARY
  5
3B
102
{ACAD_REACTORS
330
C
102
}
330
C
100
AcDbDictionary
281
     1
  3
ByBlock
350
3D
  3
ByLayer
350
3C
  3
Global
350
3E
  0
DICTIONARY
  5
6D
102
{ACAD_REACTORS
330
C
102
}
330
C
100
AcDbDictionary
281
     1
  0
DICTIONARY
  5
17
102
{ACAD_REACTORS
330
C
102
}
330
C
100
AcDbDictionary
281
     1
  3
Standard
350
18
  0
DICTIONARY
  5
19
102
{ACAD_REACTORS
330
C
102
}
330
C
100
AcDbDictionary
281
     1
  0
ACDBDICTIONARYWDFLT
  5
E
102
{ACAD_REACTORS
330
C
102
}
330
C
100
AcDbDictionary
281
     1
  3
Normal
350
F
100
AcDbDictionaryWithDefault
340
F
  0
DICTIONARY
  5
6C
102
{ACAD_REACTORS
330
C
102
}
330
C
100
AcDbDictionary
281
     1
  0
DICTIONARY
  5
2A
102
{ACAD_REACTORS
330
C
102
}
330
C
100
AcDbDictionary
281
     1
  3
2dWireframe
350
2F
  3
3D Hidden
350
31
  3
3dWireframe
350
30
  3
Basic
350
32
  3
Brighten
350
36
  3
ColorChange
350
3A
  3
Conceptual
350
34
  3
Dim
350
35
  3
Facepattern
350
39
  3
Flat
350
2B
  3
FlatWithEdges
350
2C
  3
Gouraud
350
2D
  3
GouraudWithEdges
350
2E
  3
Linepattern
350
38
  3
Realistic
350
33
  3
Thicken
350
37
  0
IMAGEDEF
  5
4E
102
{ACAD_REACTORS
330
4D
330
51
102
}
330
4D
100
AcDbRasterImageDef
 90
        0
  1
/Users/logox/Desktop/dxf0611/60-02_1.png
 10
549.0
 20
330.0
 11
0.3527777777777777
 21
0.3527777777777777
280
     1
281
     5
  0
LAYOUT
  5
1E
102
{ACAD_REACTORS
330
1A
102
}
330
1A
100
AcDbPlotSettings
  1

  2
none_device
  4

  6

 40
0.0
 41
0.0
 42
0.0
 43
0.0
 44
0.0
 45
0.0
 46
0.0
 47
0.0
 48
0.0
 49
0.0
140
0.0
141
0.0
142
1.0
143
1.0
 70
   688
 72
     0
 73
     0
 74
     5
  7

 75
    16
 76
     0
 77
     2
 78
   300
147
1.0
148
0.0
149
0.0
100
AcDbLayout
  1
Layout1
 70
     1
 71
     1
 10
0.0
 20
0.0
 11
12.0
 21
9.0
 12
0.0
 22
0.0
 32
0.0
 14
1.000000000000000E+20
 24
1.000000000000000E+20
 34
1.000000000000000E+20
 15
-1.000000000000000E+20
 25
-1.000000000000000E+20
 35
-1.000000000000000E+20
146
0.0
 13
0.0
 23
0.0
 33
0.0
 16
1.0
 26
0.0
 36
0.0
 17
0.0
 27
1.0
 37
0.0
 76
     0
330
1B
  0
LAYOUT
  5
26
102
{ACAD_REACTORS
330
1A
102
}
330
1A
100
AcDbPlotSettings
  1

  2
none_device
  4

  6

 40
0.0
 41
0.0
 42
0.0
 43
0.0
 44
0.0
 45
0.0
 46
0.0
 47
0.0
 48
0.0
 49
0.0
140
0.0
141
0.0
142
1.0
143
1.0
 70
   688
 72
     0
 73
     0
 74
     5
  7

 75
    16
 76
     0
 77
     2
 78
   300
147
1.0
148
0.0
149
0.0
100
AcDbLayout
  1
Layout2
 70
     1
 71
     2
 10
0.0
 20
0.0
 11
0.0
 21
0.0
 12
0.0
 22
0.0
 32
0.0
 14
0.0
 24
0.0
 34
0.0
 15
0.0
 25
0.0
 35
0.0
146
0.0
 13
0.0
 23
0.0
 33
0.0
 16
1.0
 26
0.0
 36
0.0
 17
0.0
 27
1.0
 37
0.0
 76
     0
330
23
  0
LAYOUT
  5
22
102
{ACAD_REACTORS
330
1A
102
}
330
1A
100
AcDbPlotSettings
  1

  2
none_device
  4

  6

 40
0.0
 41
0.0
 42
0.0
 43
0.0
 44
0.0
 45
0.0
 46
0.0
 47
0.0
 48
0.0
 49
0.0
140
0.0
141
0.0
142
1.0
143
1.0
 70
  1712
 72
     0
 73
     0
 74
     0
  7

 75
     0
 76
     0
 77
     2
 78
   300
147
1.0
148
0.0
149
0.0
100
AcDbLayout
  1
Model
 70
     1
 71
     0
 10
0.0
 20
0.0
 11
12.0
 21
9.0
 12
0.0
 22
0.0
 32
0.0
 14
1.000000000000000E+20
 24
1.000000000000000E+20
 34
1.000000000000000E+20
 15
-1.000000000000000E+20
 25
-1.000000000000000E+20
 35
-1.000000000000000E+20
146
0.0
 13
0.0
 23
0.0
 33
0.0
 16
1.0
 26
0.0
 36
0.0
 17
0.0
 27
1.0
 37
0.0
 76
     0
330
1F
331
29
  0
MATERIAL
  5
3D
102
{ACAD_REACTORS
330
3B
102
}
330
3B
100
AcDbMaterial
  1
ByBlock
 72
     1
 94
      127
  0
MATERIAL
  5
3C
102
{ACAD_REACTORS
330
3B
102
}
330
3B
100
AcDbMaterial
  1
ByLayer
 72
     1
 94
      127
  0
MATERIAL
  5
3E
102
{ACAD_REACTORS
330
3B
102
}
330
3B
100
AcDbMaterial
  1
Global
 72
     1
 94
      127
  0
MLINESTYLE
  5
18
102
{ACAD_REACTORS
330
17
102
}
330
17
100
AcDbMlineStyle
  2
Standard
 70
     0
  3

 62
   256
 51
90.0
 52
90.0
 71
     2
 49
0.5
 62
   256
  6
BYLAYER
 49
-0.5
 62
   256
  6
BYLAYER
  0
ACDBPLACEHOLDER
  5
F
102
{ACAD_REACTORS
330
E
102
}
330
E
  0
VISUALSTYLE
  5
2F
102
{ACAD_REACTORS
330
2A
102
}
330
2A
100
AcDbVisualStyle
  2
2dWireframe
 70
     4
177
     2
291
     0
 71
     0
176
     1
 72
     2
176
     1
 73
     0
176
     1
 90
        0
176
     1
 40
-0.6
176
     1
 41
-30.0
176
     1
 62
     5
 63
     7
421
 16777215
176
     1
 74
     1
176
     1
 91
        4
176
     1
 64
     7
176
     1
 65
   257
176
     1
 75
     1
176
     1
175
     1
176
     1
 42
1.0
176
     1
 92
        0
176
     1
 66
   257
176
     1
 43
1.0
176
     1
 76
     1
176
     1
 77
     6
176
     1
 78
     2
176
     1
 67
     7
176
     1
 79
     5
176
     1
170
     0
176
     1
171
     0
176
     1
290
     0
176
     1
 93
        1
176
     1
 44
0.0
176
     1
173
     0
176
     1
  0
VISUALSTYLE
  5
31
102
{ACAD_REACTORS
330
2A
102
}
330
2A
100
AcDbVisualStyle
  2
3D Hidden
 70
     6
177
     2
291
     0
 71
     1
176
     1
 72
     2
176
     1
 73
     2
176
     1
 90
        0
176
     1
 40
-0.6
176
     1
 41
-30.0
176
     1
 62
     5
 63
     7
421
 16777215
176
     1
 74
     2
176
     1
 91
        2
176
     1
 64
     7
176
     1
 65
   257
176
     1
 75
     2
176
     1
175
     1
176
     1
 42
40.0
176
     1
 92
        0
176
     1
 66
   257
176
     1
 43
1.0
176
     1
 76
     1
176
     1
 77
     6
176
     1
 78
     2
176
     1
 67
     7
176
     1
 79
     3
176
     1
170
     0
176
     1
171
     0
176
     1
290
     0
176
     1
 93
        1
176
     1
 44
0.0
176
     1
173
     0
176
     1
  0
VISUALSTYLE
  5
30
102
{ACAD_REACTORS
330
2A
102
}
330
2A
100
AcDbVisualStyle
  2
3dWireframe
 70
     5
177
     2
291
     0
 71
     0
176
     1
 72
     2
176
     1
 73
     0
176
     1
 90
        0
176
     1
 40
-0.6
176
     1
 41
-30.0
176
     1
 62
     5
 63
     7
421
 16777215
176
     1
 74
     1
176
     1
 91
        4
176
     1
 64
     7
176
     1
 65
   257
176
     1
 75
     1
176
     1
175
     1
176
     1
 42
1.0
176
     1
 92
        0
176
     1
 66
   257
176
     1
 43
1.0
176
     1
 76
     1
176
     1
 77
     6
176
     1
 78
     2
176
     1
 67
     7
176
     1
 79
     5
176
     1
170
     0
176
     1
171
     0
176
     1
290
     0
176
     1
 93
        1
176
     1
 44
0.0
176
     1
173
     0
176
     1
  0
VISUALSTYLE
  5
32
102
{ACAD_REACTORS
330
2A
102
}
330
2A
100
AcDbVisualStyle
  2
Basic
 70
     7
177
     2
291
     1
 71
     1
176
     1
 72
     0
176
     1
 73
     1
176
     1
 90
        0
176
     1
 40
-0.6
176
     1
 41
-30.0
176
     1
 62
     5
 63
     7
421
 16777215
176
     1
 74
     0
176
     1
 91
        4
176
     1
 64
     7
176
     1
 65
   257
176
     1
 75
     1
176
     1
175
     1
176
     1
 42
1.0
176
     1
 92
        8
176
     1
 66
     7
176
     1
 43
1.0
176
     1
 76
     1
176
     1
 77
     6
176
     1
 78
     2
176
     1
 67
     7
176
     1
 79
     5
176
     1
170
     0
176
     1
171
     0
176
     1
290
     0
176
     1
 93
        1
176
     1
 44
0.0
176
     1
173
     0
176
     1
  0
VISUALSTYLE
  5
36
102
{ACAD_REACTORS
330
2A
102
}
330
2A
100
AcDbVisualStyle
  2
Brighten
 70
    12
177
     2
291
     1
 71
     2
176
     1
 72
     2
176
     1
 73
     0
176
     1
 90
        0
176
     1
 40
-0.6
176
     1
 41
-30.0
176
     1
 62
     5
 63
     7
421
 16777215
176
     1
 74
     1
176
     1
 91
        4
176
     1
 64
     7
176
     1
 65
   257
176
     1
 75
     1
176
     1
175
     1
176
     1
 42
1.0
176
     1
 92
        8
176
     1
 66
     7
176
     1
 43
1.0
176
     1
 76
     1
176
     1
 77
     6
176
     1
 78
     2
176
     1
 67
     7
176
     1
 79
     5
176
     1
170
     0
176
     1
171
     0
176
     1
290
     0
176
     1
 93
        1
176
     1
 44
50.0
176
     1
173
     0
176
     1
  0
VISUALSTYLE
  5
3A
102
{ACAD_REACTORS
330
2A
102
}
330
2A
100
AcDbVisualStyle
  2
ColorChange
 70
    16
177
     2
291
     1
 71
     2
176
     1
 72
     2
176
     1
 73
     3
176
     1
 90
        0
176
     1
 40
-0.6
176
     1
 41
-30.0
176
     1
 62
     5
 63
     8
421
  8421504
176
     1
 74
     1
176
     1
 91
        4
176
     1
 64
     7
176
     1
 65
   257
176
     1
 75
     1
176
     1
175
     1
176
     1
 42
1.0
176
     1
 92
        8
176
     1
 66
     8
424
  8421504
176
     1
 43
1.0
176
     1
 76
     1
176
     1
 77
     6
176
     1
 78
     2
176
     1
 67
     7
176
     1
 79
     5
176
     1
170
     0
176
     1
171
     0
176
     1
290
     0
176
     1
 93
        1
176
     1
 44
0.0
176
     1
173
     0
176
     1
  0
VISUALSTYLE
  5
34
102
{ACAD_REACTORS
330
2A
102
}
330
2A
100
AcDbVisualStyle
  2
Conceptual
 70
     9
177
     2
291
     0
 71
     3
176
     1
 72
     2
176
     1
 73
     0
176
     1
 90
        0
176
     1
 40
-0.6
176
     1
 41
-30.0
176
     1
 62
     5
 63
     7
421
 16777215
176
     1
 74
     2
176
     1
 91
        2
176
     1
 64
     7
176
     1
 65
   257
176
     1
 75
     1
176
     1
175
     1
176
     1
 42
40.0
176
     1
 92
        8
176
     1
 66
     7
176
     1
 43
1.0
176
     1
 76
     1
176
     1
 77
     6
176
     1
 78
     2
176
     1
 67
     7
176
     1
 79
     3
176
     1
170
     0
176
     1
171
     0
176
     1
290
     0
176
     1
 93
        1
176
     1
 44
0.0
176
     1
173
     0
176
     1
  0
VISUALSTYLE
  5
35
102
{ACAD_REACTORS
330
2A
102
}
330
2A
100
AcDbVisualStyle
  2
Dim
 70
    11
177
     2
291
     1
 71
     2
176
     1
 72
     2
176
     1
 73
     0
176
     1
 90
        0
176
     1
 40
-0.6
176
     1
 41
-30.0
176
     1
 62
     5
 63
     7
421
 16777215
176
     1
 74
     1
176
     1
 91
        4
176
     1
 64
     7
176
     1
 65
   257
176
     1
 75
     1
176
     1
175
     1
176
     1
 42
1.0
176
     1
 92
        8
176
     1
 66
     7
176
     1
 43
1.0
176
     1
 76
     1
176
     1
 77
     6
176
     1
 78
     2
176
     1
 67
     7
176
     1
 79
     5
176
     1
170
     0
176
     1
171
     0
176
     1
290
     0
176
     1
 93
        1
176
     1
 44
-50.0
176
     1
173
     0
176
     1
  0
VISUALSTYLE
  5
39
102
{ACAD_REACTORS
330
2A
102
}
330
2A
100
AcDbVisualStyle
  2
Facepattern
 70
    15
177
     2
291
     1
 71
     2
176
     1
 72
     2
176
     1
 73
     0
176
     1
 90
        0
176
     1
 40
-0.6
176
     1
 41
-30.0
176
     1
 62
     5
 63
     7
421
 16777215
176
     1
 74
     1
176
     1
 91
        4
176
     1
 64
     7
176
     1
 65
   257
176
     1
 75
     1
176
     1
175
     1
176
     1
 42
1.0
176
     1
 92
        8
176
     1
 66
     7
176
     1
 43
1.0
176
     1
 76
     1
176
     1
 77
     6
176
     1
 78
     2
176
     1
 67
     7
176
     1
 79
     5
176
     1
170
     0
176
     1
171
     0
176
     1
290
     0
176
     1
 93
        1
176
     1
 44
0.0
176
     1
173
     0
176
     1
  0
VISUALSTYLE
  5
2B
102
{ACAD_REACTORS
330
2A
102
}
330
2A
100
AcDbVisualStyle
  2
Flat
 70
     0
177
     2
291
     1
 71
     2
176
     1
 72
     1
176
     1
 73
     1
176
     1
 90
        2
176
     1
 40
-0.6
176
     1
 41
30.0
176
     1
 62
     5
 63
     7
421
 16777215
176
     1
 74
     0
176
     1
 91
        4
176
     1
 64
     7
176
     1
 65
   257
176
     1
 75
     1
176
     1
175
     1
176
     1
 42
1.0
176
     1
 92
        8
176
     1
 66
     7
176
     1
 43
1.0
176
     1
 76
     1
176
     1
 77
     6
176
     1
 78
     2
176
     1
 67
     7
176
     1
 79
     5
176
     1
170
     0
176
     1
171
     0
176
     1
290
     0
176
     1
 93
       13
176
     1
 44
0.0
176
     1
173
     0
176
     1
  0
VISUALSTYLE
  5
2C
102
{ACAD_REACTORS
330
2A
102
}
330
2A
100
AcDbVisualStyle
  2
FlatWithEdges
 70
     1
177
     2
291
     1
 71
     2
176
     1
 72
     1
176
     1
 73
     1
176
     1
 90
        2
176
     1
 40
-0.6
176
     1
 41
30.0
176
     1
 62
     5
 63
     7
421
 16777215
176
     1
 74
     1
176
     1
 91
        4
176
     1
 64
     7
176
     1
 65
   257
176
     1
 75
     1
176
     1
175
     1
176
     1
 42
1.0
176
     1
 92
        0
176
     1
 66
   257
176
     1
 43
1.0
176
     1
 76
     1
176
     1
 77
     6
176
     1
 78
     2
176
     1
 67
     7
176
     1
 79
     5
176
     1
170
     0
176
     1
171
     0
176
     1
290
     0
176
     1
 93
       13
176
     1
 44
0.0
176
     1
173
     0
176
     1
  0
VISUALSTYLE
  5
2D
102
{ACAD_REACTORS
330
2A
102
}
330
2A
100
AcDbVisualStyle
  2
Gouraud
 70
     2
177
     2
291
     1
 71
     2
176
     1
 72
     2
176
     1
 73
     1
176
     1
 90
        2
176
     1
 40
-0.6
176
     1
 41
30.0
176
     1
 62
     5
 63
     7
421
 16777215
176
     1
 74
     0
176
     1
 91
        4
176
     1
 64
     7
176
     1
 65
   257
176
     1
 75
     1
176
     1
175
     1
176
     1
 42
1.0
176
     1
 92
        0
176
     1
 66
     7
176
     1
 43
1.0
176
     1
 76
     1
176
     1
 77
     6
176
     1
 78
     2
176
     1
 67
     7
176
     1
 79
     5
176
     1
170
     0
176
     1
171
     0
176
     1
290
     0
176
     1
 93
       13
176
     1
 44
0.0
176
     1
173
     0
176
     1
  0
VISUALSTYLE
  5
2E
102
{ACAD_REACTORS
330
2A
102
}
330
2A
100
AcDbVisualStyle
  2
GouraudWithEdges
 70
     3
177
     2
291
     1
 71
     2
176
     1
 72
     2
176
     1
 73
     1
176
     1
 90
        2
176
     1
 40
-0.6
176
     1
 41
30.0
176
     1
 62
     5
 63
     7
421
 16777215
176
     1
 74
     1
176
     1
 91
        4
176
     1
 64
     7
176
     1
 65
   257
176
     1
 75
     1
176
     1
175
     1
176
     1
 42
1.0
176
     1
 92
        0
176
     1
 66
   257
176
     1
 43
1.0
176
     1
 76
     1
176
     1
 77
     6
176
     1
 78
     2
176
     1
 67
     7
176
     1
 79
     5
176
     1
170
     0
176
     1
171
     0
176
     1
290
     0
176
     1
 93
       13
176
     1
 44
0.0
176
     1
173
     0
176
     1
  0
VISUALSTYLE
  5
38
102
{ACAD_REACTORS
330
2A
102
}
330
2A
100
AcDbVisualStyle
  2
Linepattern
 70
    14
177
     2
291
     1
 71
     2
176
     1
 72
     2
176
     1
 73
     0
176
     1
 90
        0
176
     1
 40
-0.6
176
     1
 41
-30.0
176
     1
 62
     5
 63
     7
421
 16777215
176
     1
 74
     1
176
     1
 91
        4
176
     1
 64
     7
176
     1
 65
   257
176
     1
 75
     7
176
     1
175
     7
176
     1
 42
1.0
176
     1
 92
        8
176
     1
 66
     7
176
     1
 43
1.0
176
     1
 76
     1
176
     1
 77
     6
176
     1
 78
     2
176
     1
 67
     7
176
     1
 79
     5
176
     1
170
     0
176
     1
171
     0
176
     1
290
     0
176
     1
 93
        1
176
     1
 44
0.0
176
     1
173
     0
176
     1
  0
VISUALSTYLE
  5
33
102
{ACAD_REACTORS
330
2A
102
}
330
2A
100
AcDbVisualStyle
  2
Realistic
 70
     8
177
     2
291
     0
 71
     2
176
     1
 72
     2
176
     1
 73
     0
176
     1
 90
        0
176
     1
 40
-0.6
176
     1
 41
-30.0
176
     1
 62
     5
 63
     7
421
 16777215
176
     1
 74
     1
176
     1
 91
        0
176
     1
 64
     7
176
     1
 65
   257
176
     1
 75
     1
176
     1
175
     1
176
     1
 42
1.0
176
     1
 92
        8
176
     1
 66
     8
424
  7895160
176
     1
 43
1.0
176
     1
 76
     1
176
     1
 77
     6
176
     1
 78
     2
176
     1
 67
     7
176
     1
 79
     5
176
     1
170
     0
176
     1
171
     0
176
     1
290
     0
176
     1
 93
       13
176
     1
 44
0.0
176
     1
173
     0
176
     1
  0
VISUALSTYLE
  5
37
102
{ACAD_REACTORS
330
2A
102
}
330
2A
100
AcDbVisualStyle
  2
Thicken
 70
    13
177
     2
291
     1
 71
     2
176
     1
 72
     2
176
     1
 73
     0
176
     1
 90
        0
176
     1
 40
-0.6
176
     1
 41
-30.0
176
     1
 62
     5
 63
     7
421
 16777215
176
     1
 74
     1
176
     1
 91
        4
176
     1
 64
     7
176
     1
 65
   257
176
     1
 75
     1
176
     1
175
     1
176
     1
 42
1.0
176
     1
 92
       12
176
     1
 66
     7
176
     1
 43
1.0
176
     1
 76
     1
176
     1
 77
     6
176
     1
 78
     2
176
     1
 67
     7
176
     1
 79
     5
176
     1
170
     0
176
     1
171
     0
176
     1
290
     0
176
     1
 93
        1
176
     1
 44
0.0
176
     1
173
     0
176
     1
  0
ENDSEC
  0
EOF
