  0
SECTION
  2
HEADER
  9
$ACADVER
  1
AC1024
  9
$ACADMAINTVER
 70
   226
  9
$DWGCODEPAGE
  3
ANSI_932
  9
$INSBASE
 10
0.0
 20
0.0
 30
0.0
  9
$EXTMIN
 10
1.000000000000000E+20
 20
1.000000000000000E+20
 30
1.000000000000000E+20
  9
$EXTMAX
 10
-1.000000000000000E+20
 20
-1.000000000000000E+20
 30
-1.000000000000000E+20
  9
$LIMMIN
 10
0.0
 20
0.0
  9
$LIMMAX
 10
12.0
 20
9.0
  9
$ORTHOMODE
 70
     0
  9
$REGENMODE
 70
     1
  9
$FILLMODE
 70
     1
  9
$QTEXTMODE
 70
     0
  9
$MIRRTEXT
 70
     0
  9
$LTSCALE
 40
1.0
  9
$ATTMODE
 70
     1
  9
$TEXTSIZE
 40
0.2
  9
$TRACEWID
 40
0.05
  9
$TEXTSTYLE
  7
Standard
  9
$CLAYER
  8
0
  9
$CELTYPE
  6
ByLayer
  9
$CECOLOR
 62
   256
  9
$CELTSCALE
 40
1.0
  9
$DISPSILH
 70
     0
  9
$DIMSCALE
 40
1.0
  9
$DIMASZ
 40
0.18
  9
$DIMEXO
 40
0.0625
  9
$DIMDLI
 40
0.38
  9
$DIMRND
 40
0.0
  9
$DIMDLE
 40
0.0
  9
$DIMEXE
 40
0.18
  9
$DIMTP
 40
0.0
  9
$DIMTM
 40
0.0
  9
$DIMTXT
 40
0.18
  9
$DIMCEN
 40
0.09
  9
$DIMTSZ
 40
0.0
  9
$DIMTOL
 70
     0
  9
$DIMLIM
 70
     0
  9
$DIMTIH
 70
     1
  9
$DIMTOH
 70
     1
  9
$DIMSE1
 70
     0
  9
$DIMSE2
 70
     0
  9
$DIMTAD
 70
     0
  9
$DIMZIN
 70
     0
  9
$DIMBLK
  1

  9
$DIMASO
 70
     1
  9
$DIMSHO
 70
     1
  9
$DIMPOST
  1

  9
$DIMAPOST
  1

  9
$DIMALT
 70
     0
  9
$DIMALTD
 70
     2
  9
$DIMALTF
 40
25.4
  9
$DIMLFAC
 40
1.0
  9
$DIMTOFL
 70
     0
  9
$DIMTVP
 40
0.0
  9
$DIMTIX
 70
     0
  9
$DIMSOXD
 70
     0
  9
$DIMSAH
 70
     0
  9
$DIMBLK1
  1

  9
$DIMBLK2
  1

  9
$DIMSTYLE
  2
Standard
  9
$DIMCLRD
 70
     0
  9
$DIMCLRE
 70
     0
  9
$DIMCLRT
 70
     0
  9
$DIMTFAC
 40
1.0
  9
$DIMGAP
 40
0.09
  9
$DIMJUST
 70
     0
  9
$DIMSD1
 70
     0
  9
$DIMSD2
 70
     0
  9
$DIMTOLJ
 70
     1
  9
$DIMTZIN
 70
     0
  9
$DIMALTZ
 70
     0
  9
$DIMALTTZ
 70
     0
  9
$DIMUPT
 70
     0
  9
$DIMDEC
 70
     4
  9
$DIMTDEC
 70
     4
  9
$DIMALTU
 70
     2
  9
$DIMALTTD
 70
     2
  9
$DIMTXSTY
  7
Standard
  9
$DIMAUNIT
 70
     0
  9
$DIMADEC
 70
     0
  9
$DIMALTRND
 40
0.0
  9
$DIMAZIN
 70
     0
  9
$DIMDSEP
 70
    46
  9
$DIMATFIT
 70
     3
  9
$DIMFRAC
 70
     0
  9
$DIMLDRBLK
  1

  9
$DIMLUNIT
 70
     2
  9
$DIMLWD
 70
    -2
  9
$DIMLWE
 70
    -2
  9
$DIMTMOVE
 70
     0
  9
$DIMFXL
 40
1.0
  9
$DIMFXLON
 70
     0
  9
$DIMJOGANG
 40
0.7853981633974483
  9
$DIMTFILL
 70
     0
  9
$DIMTFILLCLR
 70
     0
  9
$DIMARCSYM
 70
     0
  9
$DIMLTYPE
  6

  9
$DIMLTEX1
  6

  9
$DIMLTEX2
  6

  9
$DIMTXTDIRECTION
 70
     0
  9
$LUNITS
 70
     2
  9
$LUPREC
 70
     4
  9
$SKETCHINC
 40
0.1
  9
$FILLETRAD
 40
0.0
  9
$AUNITS
 70
     0
  9
$AUPREC
 70
     0
  9
$MENU
  1
.
  9
$ELEVATION
 40
0.0
  9
$PELEVATION
 40
0.0
  9
$THICKNESS
 40
0.0
  9
$LIMCHECK
 70
     0
  9
$CHAMFERA
 40
0.0
  9
$CHAMFERB
 40
0.0
  9
$CHAMFERC
 40
0.0
  9
$CHAMFERD
 40
0.0
  9
$SKPOLY
 70
     0
  9
$TDCREATE
 40
2459569.488634260
  9
$TDUCREATE
 40
2459569.113634259
  9
$TDUPDATE
 40
2459569.488634260
  9
$TDUUPDATE
 40
2459569.113634259
  9
$TDINDWG
 40
0.0000115741
  9
$TDUSRTIMER
 40
0.0000115741
  9
$USRTIMER
 70
     1
  9
$ANGBASE
 50
0.0
  9
$ANGDIR
 70
     0
  9
$PDMODE
 70
     0
  9
$PDSIZE
 40
0.0
  9
$PLINEWID
 40
0.0
  9
$SPLFRAME
 70
     0
  9
$SPLINETYPE
 70
     6
  9
$SPLINESEGS
 70
     8
  9
$HANDSEED
  5
196
  9
$SURFTAB1
 70
     6
  9
$SURFTAB2
 70
     6
  9
$SURFTYPE
 70
     6
  9
$SURFU
 70
     6
  9
$SURFV
 70
     6
  9
$UCSBASE
  2

  9
$UCSNAME
  2

  9
$UCSORG
 10
0.0
 20
0.0
 30
0.0
  9
$UCSXDIR
 10
1.0
 20
0.0
 30
0.0
  9
$UCSYDIR
 10
0.0
 20
1.0
 30
0.0
  9
$UCSORTHOREF
  2

  9
$UCSORTHOVIEW
 70
     0
  9
$UCSORGTOP
 10
0.0
 20
0.0
 30
0.0
  9
$UCSORGBOTTOM
 10
0.0
 20
0.0
 30
0.0
  9
$UCSORGLEFT
 10
0.0
 20
0.0
 30
0.0
  9
$UCSORGRIGHT
 10
0.0
 20
0.0
 30
0.0
  9
$UCSORGFRONT
 10
0.0
 20
0.0
 30
0.0
  9
$UCSORGBACK
 10
0.0
 20
0.0
 30
0.0
  9
$PUCSBASE
  2

  9
$PUCSNAME
  2

  9
$PUCSORG
 10
0.0
 20
0.0
 30
0.0
  9
$PUCSXDIR
 10
1.0
 20
0.0
 30
0.0
  9
$PUCSYDIR
 10
0.0
 20
1.0
 30
0.0
  9
$PUCSORTHOREF
  2

  9
$PUCSORTHOVIEW
 70
     0
  9
$PUCSORGTOP
 10
0.0
 20
0.0
 30
0.0
  9
$PUCSORGBOTTOM
 10
0.0
 20
0.0
 30
0.0
  9
$PUCSORGLEFT
 10
0.0
 20
0.0
 30
0.0
  9
$PUCSORGRIGHT
 10
0.0
 20
0.0
 30
0.0
  9
$PUCSORGFRONT
 10
0.0
 20
0.0
 30
0.0
  9
$PUCSORGBACK
 10
0.0
 20
0.0
 30
0.0
  9
$USERI1
 70
     0
  9
$USERI2
 70
     0
  9
$USERI3
 70
     0
  9
$USERI4
 70
     0
  9
$USERI5
 70
     0
  9
$USERR1
 40
0.0
  9
$USERR2
 40
0.0
  9
$USERR3
 40
0.0
  9
$USERR4
 40
0.0
  9
$USERR5
 40
0.0
  9
$WORLDVIEW
 70
     1
  9
$SHADEDGE
 70
     3
  9
$SHADEDIF
 70
    70
  9
$TILEMODE
 70
     1
  9
$MAXACTVP
 70
    64
  9
$PINSBASE
 10
0.0
 20
0.0
 30
0.0
  9
$PLIMCHECK
 70
     0
  9
$PEXTMIN
 10
1.000000000000000E+20
 20
1.000000000000000E+20
 30
1.000000000000000E+20
  9
$PEXTMAX
 10
-1.000000000000000E+20
 20
-1.000000000000000E+20
 30
-1.000000000000000E+20
  9
$PLIMMIN
 10
0.0
 20
0.0
  9
$PLIMMAX
 10
12.0
 20
9.0
  9
$UNITMODE
 70
     0
  9
$VISRETAIN
 70
     1
  9
$PLINEGEN
 70
     0
  9
$PSLTSCALE
 70
     1
  9
$TREEDEPTH
 70
  3020
  9
$CMLSTYLE
  2
Standard
  9
$CMLJUST
 70
     0
  9
$CMLSCALE
 40
1.0
  9
$PROXYGRAPHICS
 70
     1
  9
$MEASUREMENT
 70
     0
  9
$CELWEIGHT
370
    -1
  9
$ENDCAPS
280
     0
  9
$JOINSTYLE
280
     0
  9
$LWDISPLAY
290
     1
  9
$INSUNITS
 70
     4
  9
$HYPERLINKBASE
  1

  9
$STYLESHEET
  1

  9
$XEDIT
290
     1
  9
$CEPSNTYPE
380
     0
  9
$PSTYLEMODE
290
     1
  9
$FINGERPRINTGUID
  2
{915E8A7B-D436-704B-ACA7-1055B013E406}
  9
$VERSIONGUID
  2
{C43F3F6B-2DF5-B849-95C2-F23FAAA30EEB}
  9
$EXTNAMES
290
     1
  9
$PSVPSCALE
 40
0.0
  9
$OLESTARTUP
290
     0
  9
$SORTENTS
280
   127
  9
$INDEXCTL
280
     0
  9
$HIDETEXT
280
     1
  9
$XCLIPFRAME
280
     2
  9
$HALOGAP
280
     0
  9
$OBSCOLOR
 70
   257
  9
$OBSLTYPE
280
     0
  9
$INTERSECTIONDISPLAY
280
     0
  9
$INTERSECTIONCOLOR
 70
   257
  9
$DIMASSOC
280
     2
  9
$PROJECTNAME
  1

  9
$CAMERADISPLAY
290
     0
  9
$LENSLENGTH
 40
50.0
  9
$CAMERAHEIGHT
 40
0.0
  9
$STEPSPERSEC
 40
2.0
  9
$STEPSIZE
 40
6.0
  9
$3DDWFPREC
 40
2.0
  9
$PSOLWIDTH
 40
0.25
  9
$PSOLHEIGHT
 40
4.0
  9
$LOFTANG1
 40
1.570796326794896
  9
$LOFTANG2
 40
1.570796326794896
  9
$LOFTMAG1
 40
0.0
  9
$LOFTMAG2
 40
0.0
  9
$LOFTPARAM
 70
     7
  9
$LOFTNORMALS
280
     1
  9
$LATITUDE
 40
37.795
  9
$LONGITUDE
 40
-122.394
  9
$NORTHDIRECTION
 40
0.0
  9
$TIMEZONE
 70
 -8000
  9
$LIGHTGLYPHDISPLAY
280
     1
  9
$TILEMODELIGHTSYNCH
280
     1
  9
$CMATERIAL
347
11
  9
$SOLIDHIST
280
     0
  9
$SHOWHIST
280
     1
  9
$DWFFRAME
280
     2
  9
$DGNFRAME
280
     0
  9
$REALWORLDSCALE
290
     1
  9
$INTERFERECOLOR
 62
     1
  9
$INTERFEREOBJVS
345
33
  9
$INTERFEREVPVS
346
30
  9
$CSHADOW
280
     0
  9
$SHADOWPLANELOCATION
 40
0.0
  0
ENDSEC
  0
SECTION
  2
CLASSES
  0
CLASS
  1
ACDBDICTIONARYWDFLT
  2
AcDbDictionaryWithDefault
  3
ObjectDBX Classes
 90
        0
 91
        1
280
     0
281
     0
  0
CLASS
  1
MATERIAL
  2
AcDbMaterial
  3
ObjectDBX Classes
 90
     1153
 91
        3
280
     0
281
     0
  0
CLASS
  1
VISUALSTYLE
  2
AcDbVisualStyle
  3
ObjectDBX Classes
 90
     4095
 91
       24
280
     0
281
     0
  0
CLASS
  1
SCALE
  2
AcDbScale
  3
ObjectDBX Classes
 90
     1153
 91
       17
280
     0
281
     0
  0
CLASS
  1
TABLESTYLE
  2
AcDbTableStyle
  3
ObjectDBX Classes
 90
     4095
 91
        1
280
     0
281
     0
  0
CLASS
  1
MLEADERSTYLE
  2
AcDbMLeaderStyle
  3
ACDB_MLEADERSTYLE_CLASS
 90
     4095
 91
        1
280
     0
281
     0
  0
CLASS
  1
ACDBSECTIONVIEWSTYLE
  2
AcDbSectionViewStyle
  3
ObjectDBX Classes
 90
     1025
 91
        1
280
     0
281
     0
  0
CLASS
  1
ACDBDETAILVIEWSTYLE
  2
AcDbDetailViewStyle
  3
ObjectDBX Classes
 90
     1025
 91
        1
280
     0
281
     0
  0
CLASS
  1
DICTIONARYVAR
  2
AcDbDictionaryVar
  3
ObjectDBX Classes
 90
        0
 91
        5
280
     0
281
     0
  0
CLASS
  1
CELLSTYLEMAP
  2
AcDbCellStyleMap
  3
ObjectDBX Classes
 90
     1152
 91
        1
280
     0
281
     0
  0
ENDSEC
  0
SECTION
  2
TABLES
  0
TABLE
  2
VPORT
  5
8
330
0
100
AcDbSymbolTable
 70
     1
  0
VPORT
  5
57
330
8
100
AcDbSymbolTableRecord
100
AcDbViewportTableRecord
  2
*Active
 70
     0
 10
0.0
 20
0.0
 11
1.0
 21
1.0
 12
0.0
 22
0.0
 13
0.0
 23
0.0
 14
1.0
 24
1.0
 15
0.0
 25
0.0
 16
0.0
 26
0.0
 36
1.0
 17
104.9999999737534
 27
-148.4999999628701
 37
0.0
 40
302.939999924255
 41
0.7070707070707534
 42
50.0
 43
0.0
 44
0.0
 50
0.0
 51
0.0
 71
     0
 72
   100
 73
     1
 74
     0
 75
     1
 76
     0
 77
     0
 78
     0
281
     0
 65
     1
110
0.0
120
0.0
130
0.0
111
1.0
121
0.0
131
0.0
112
0.0
122
1.0
132
0.0
 79
     0
146
0.0
 60
     3
 61
     5
292
     1
282
     1
141
0.0
142
0.0
 63
   250
421
  3355443
  0
ENDTAB
  0
TABLE
  2
LTYPE
  5
5
330
0
100
AcDbSymbolTable
 70
     3
  0
LTYPE
  5
5B
330
5
100
AcDbSymbolTableRecord
100
AcDbLinetypeTableRecord
  2
ByBlock
 70
     0
  3

 72
    65
 73
     0
 40
0.0
  0
LTYPE
  5
5C
330
5
100
AcDbSymbolTableRecord
100
AcDbLinetypeTableRecord
  2
ByLayer
 70
     0
  3

 72
    65
 73
     0
 40
0.0
  0
LTYPE
  5
5D
330
5
100
AcDbSymbolTableRecord
100
AcDbLinetypeTableRecord
  2
Continuous
 70
     0
  3
Solid line
 72
    65
 73
     0
 40
0.0
  0
LTYPE
  5
CF
330
5
100
AcDbSymbolTableRecord
100
AcDbLinetypeTableRecord
  2
AI-Linetype-0
 70
     0
  3
Adobe Illustrator Linetype No. 0
 72
    65
 73
     2
 40
1.411111110758333
 49
0.7055555553791667
 74
     0
 49
-0.7055555553791667
 74
     0
  0
LTYPE
  5
EE
330
5
100
AcDbSymbolTableRecord
100
AcDbLinetypeTableRecord
  2
AI-Linetype-1
 70
     0
  3
Adobe Illustrator Linetype No. 1
 72
    65
 73
     2
 40
1.411111110758333
 49
0.7055555553791667
 74
     0
 49
-0.7055555553791667
 74
     0
  0
ENDTAB
  0
TABLE
  2
LAYER
  5
2
330
0
100
AcDbSymbolTable
 70
     2
  0
LAYER
  5
54
330
2
100
AcDbSymbolTableRecord
100
AcDbLayerTableRecord
  2
0
 70
     0
 62
     7
  6
Continuous
370
    -3
390
F
347
21
  0
LAYER
  5
78
330
2
100
AcDbSymbolTableRecord
100
AcDbLayerTableRecord
  2
レイヤー 1
 70
     0
 62
     7
  6
Continuous
370
     0
390
F
347
21
  0
ENDTAB
  0
TABLE
  2
STYLE
  5
3
330
0
100
AcDbSymbolTable
 70
     2
  0
STYLE
  5
55
330
3
100
AcDbSymbolTableRecord
100
AcDbTextStyleTableRecord
  2
Standard
 70
     0
 40
0.0
 41
1.0
 50
0.0
 71
     0
 42
0.2
  3
txt
  4

  0
STYLE
  5
5A
330
3
100
AcDbSymbolTableRecord
100
AcDbTextStyleTableRecord
  2
Annotative
 70
     0
 40
0.0
 41
1.0
 50
0.0
 71
     0
 42
0.2
  3
txt
  4

1001
AcadAnnotative
1000
AnnotativeData
1002
{
1070
     1
1070
     1
1002
}
  0
ENDTAB
  0
TABLE
  2
VIEW
  5
6
330
0
100
AcDbSymbolTable
 70
     0
  0
ENDTAB
  0
TABLE
  2
UCS
  5
7
330
0
100
AcDbSymbolTable
 70
     0
  0
ENDTAB
  0
TABLE
  2
APPID
  5
9
330
0
100
AcDbSymbolTable
 70
     2
  0
APPID
  5
56
330
9
100
AcDbSymbolTableRecord
100
AcDbRegAppTableRecord
  2
ACAD
 70
     0
  0
APPID
  5
5E
330
9
100
AcDbSymbolTableRecord
100
AcDbRegAppTableRecord
  2
AcadAnnotative
 70
     0
  0
ENDTAB
  0
TABLE
  2
DIMSTYLE
  5
A
330
0
100
AcDbSymbolTable
 70
     2
100
AcDbDimStyleTable
 71
     0
  0
DIMSTYLE
105
58
330
A
100
AcDbSymbolTableRecord
100
AcDbDimStyleTableRecord
  2
Standard
 70
     0
340
55
  0
DIMSTYLE
105
59
330
A
100
AcDbSymbolTableRecord
100
AcDbDimStyleTableRecord
  2
Annotative
 70
     0
340
55
1001
AcadAnnotative
1000
AnnotativeData
1002
{
1070
     1
1070
     1
1002
}
  0
ENDTAB
  0
TABLE
  2
BLOCK_RECORD
  5
1
330
0
100
AcDbSymbolTable
 70
    24
  0
BLOCK_RECORD
  5
70
330
1
100
AcDbSymbolTableRecord
100
AcDbBlockTableRecord
  2
*Model_Space
340
73
 70
     0
280
     1
281
     0
  0
BLOCK_RECORD
  5
6C
330
1
100
AcDbSymbolTableRecord
100
AcDbBlockTableRecord
  2
*Paper_Space
340
6F
 70
     0
280
     1
281
     0
  0
BLOCK_RECORD
  5
74
330
1
100
AcDbSymbolTableRecord
100
AcDbBlockTableRecord
  2
*Paper_Space0
340
77
 70
     0
280
     1
281
     0
  0
BLOCK_RECORD
  5
86
330
1
100
AcDbSymbolTableRecord
100
AcDbBlockTableRecord
  2
Block_0
340
0
102
{BLKREFS
331
87
102
}
 70
     0
280
     1
281
     0
  0
BLOCK_RECORD
  5
8A
330
1
100
AcDbSymbolTableRecord
100
AcDbBlockTableRecord
  2
Block_1
340
0
102
{BLKREFS
331
8B
102
}
 70
     0
280
     1
281
     0
  0
BLOCK_RECORD
  5
98
330
1
100
AcDbSymbolTableRecord
100
AcDbBlockTableRecord
  2
Block_2
340
0
102
{BLKREFS
331
99
102
}
 70
     0
280
     1
281
     0
  0
BLOCK_RECORD
  5
9C
330
1
100
AcDbSymbolTableRecord
100
AcDbBlockTableRecord
  2
Block_3
340
0
102
{BLKREFS
331
9D
102
}
 70
     0
280
     1
281
     0
  0
BLOCK_RECORD
  5
A8
330
1
100
AcDbSymbolTableRecord
100
AcDbBlockTableRecord
  2
Block_4
340
0
102
{BLKREFS
331
A9
102
}
 70
     0
280
     1
281
     0
  0
BLOCK_RECORD
  5
AC
330
1
100
AcDbSymbolTableRecord
100
AcDbBlockTableRecord
  2
Block_5
340
0
102
{BLKREFS
331
AD
102
}
 70
     0
280
     1
281
     0
  0
BLOCK_RECORD
  5
B8
330
1
100
AcDbSymbolTableRecord
100
AcDbBlockTableRecord
  2
Block_6
340
0
102
{BLKREFS
331
B9
102
}
 70
     0
280
     1
281
     0
  0
BLOCK_RECORD
  5
BC
330
1
100
AcDbSymbolTableRecord
100
AcDbBlockTableRecord
  2
Block_7
340
0
102
{BLKREFS
331
BD
102
}
 70
     0
280
     1
281
     0
  0
BLOCK_RECORD
  5
D3
330
1
100
AcDbSymbolTableRecord
100
AcDbBlockTableRecord
  2
Block_8
340
0
102
{BLKREFS
331
D4
102
}
 70
     0
280
     1
281
     0
  0
BLOCK_RECORD
  5
D7
330
1
100
AcDbSymbolTableRecord
100
AcDbBlockTableRecord
  2
Block_9
340
0
102
{BLKREFS
331
D8
102
}
 70
     0
280
     1
281
     0
  0
BLOCK_RECORD
  5
F9
330
1
100
AcDbSymbolTableRecord
100
AcDbBlockTableRecord
  2
Block_10
340
0
102
{BLKREFS
331
FA
102
}
 70
     0
280
     1
281
     0
  0
BLOCK_RECORD
  5
100
330
1
100
AcDbSymbolTableRecord
100
AcDbBlockTableRecord
  2
Block_11
340
0
102
{BLKREFS
331
101
102
}
 70
     0
280
     1
281
     0
  0
BLOCK_RECORD
  5
107
330
1
100
AcDbSymbolTableRecord
100
AcDbBlockTableRecord
  2
Block_12
340
0
102
{BLKREFS
331
108
102
}
 70
     0
280
     1
281
     0
  0
BLOCK_RECORD
  5
10E
330
1
100
AcDbSymbolTableRecord
100
AcDbBlockTableRecord
  2
Block_13
340
0
102
{BLKREFS
331
10F
102
}
 70
     0
280
     1
281
     0
  0
BLOCK_RECORD
  5
115
330
1
100
AcDbSymbolTableRecord
100
AcDbBlockTableRecord
  2
Block_14
340
0
102
{BLKREFS
331
116
102
}
 70
     0
280
     1
281
     0
  0
BLOCK_RECORD
  5
11C
330
1
100
AcDbSymbolTableRecord
100
AcDbBlockTableRecord
  2
Block_15
340
0
102
{BLKREFS
331
11D
102
}
 70
     0
280
     1
281
     0
  0
BLOCK_RECORD
  5
123
330
1
100
AcDbSymbolTableRecord
100
AcDbBlockTableRecord
  2
Block_16
340
0
102
{BLKREFS
331
124
102
}
 70
     0
280
     1
281
     0
  0
BLOCK_RECORD
  5
129
330
1
100
AcDbSymbolTableRecord
100
AcDbBlockTableRecord
  2
Block_17
340
0
102
{BLKREFS
331
12A
102
}
 70
     0
280
     1
281
     0
  0
BLOCK_RECORD
  5
130
330
1
100
AcDbSymbolTableRecord
100
AcDbBlockTableRecord
  2
Block_18
340
0
102
{BLKREFS
331
131
102
}
 70
     0
280
     1
281
     0
  0
BLOCK_RECORD
  5
137
330
1
100
AcDbSymbolTableRecord
100
AcDbBlockTableRecord
  2
Block_19
340
0
102
{BLKREFS
331
138
102
}
 70
     0
280
     1
281
     0
  0
BLOCK_RECORD
  5
13E
330
1
100
AcDbSymbolTableRecord
100
AcDbBlockTableRecord
  2
Block_20
340
0
102
{BLKREFS
331
13F
102
}
 70
     0
280
     1
281
     0
  0
BLOCK_RECORD
  5
145
330
1
100
AcDbSymbolTableRecord
100
AcDbBlockTableRecord
  2
Block_21
340
0
102
{BLKREFS
331
146
102
}
 70
     0
280
     1
281
     0
  0
BLOCK_RECORD
  5
14C
330
1
100
AcDbSymbolTableRecord
100
AcDbBlockTableRecord
  2
Block_22
340
0
102
{BLKREFS
331
14D
102
}
 70
     0
280
     1
281
     0
  0
ENDTAB
  0
ENDSEC
  0
SECTION
  2
BLOCKS
  0
BLOCK
  5
71
330
70
100
AcDbEntity
  8
0
100
AcDbBlockBegin
  2
*Model_Space
 70
     0
 10
0.0
 20
0.0
 30
0.0
  3
*Model_Space
  1

  0
ENDBLK
  5
72
330
70
100
AcDbEntity
  8
0
100
AcDbBlockEnd
  0
BLOCK
  5
6D
330
6C
100
AcDbEntity
 67
     1
  8
0
100
AcDbBlockBegin
  2
*Paper_Space
 70
     0
 10
0.0
 20
0.0
 30
0.0
  3
*Paper_Space
  1

  0
ENDBLK
  5
6E
330
6C
100
AcDbEntity
 67
     1
  8
0
100
AcDbBlockEnd
  0
BLOCK
  5
75
330
74
100
AcDbEntity
 67
     1
  8
0
100
AcDbBlockBegin
  2
*Paper_Space0
 70
     0
 10
0.0
 20
0.0
 30
0.0
  3
*Paper_Space0
  1

  0
ENDBLK
  5
76
330
74
100
AcDbEntity
 67
     1
  8
0
100
AcDbBlockEnd
  0
BLOCK
  5
88
330
86
100
AcDbEntity
  8
0
100
AcDbBlockBegin
  2
Block_0
 70
     0
 10
0.0
 20
0.0
 30
0.0
  3
Block_0
  1

  0
INSERT
  5
8B
330
86
100
AcDbEntity
  8
レイヤー 1
100
AcDbBlockReference
  2
Block_1
 10
0.0
 20
0.0
 30
0.0
  0
ENDBLK
  5
89
330
86
100
AcDbEntity
  8
0
100
AcDbBlockEnd
  0
BLOCK
  5
8C
330
8A
100
AcDbEntity
  8
0
100
AcDbBlockBegin
  2
Block_1
 70
     0
 10
0.0
 20
0.0
 30
0.0
  3
Block_1
  1

  0
SPLINE
  5
8E
330
8A
100
AcDbEntity
  8
レイヤー 1
100
AcDbSpline
210
0.0
220
0.0
230
1.0
 70
     9
 71
     3
 72
    20
 73
    16
 74
     0
 42
0.0000000001
 43
0.0000000001
 40
0.0
 40
0.0
 40
0.0
 40
0.0
 40
1.0
 40
1.0
 40
1.0
 40
2.0
 40
2.0
 40
2.0
 40
3.0
 40
3.0
 40
3.0
 40
4.0
 40
4.0
 40
4.0
 40
5.0
 40
5.0
 40
5.0
 40
5.0
 10
72.89064125781901
 20
-169.6447699228666
 30
0.0
 10
72.89064125781901
 20
-169.6447699228666
 30
0.0
 10
72.44639619499604
 20
-169.6447699228666
 30
0.0
 10
72.44639619499604
 20
-169.6447699228666
 30
0.0
 10
72.44639619499604
 20
-169.6447699228666
 30
0.0
 10
72.44639619499604
 20
-170.1250162335104
 30
0.0
 10
72.44639619499604
 20
-170.1250162335104
 30
0.0
 10
72.44639619499604
 20
-170.1250162335104
 30
0.0
 10
72.88857420052785
 20
-170.1250162335104
 30
0.0
 10
72.88857420052785
 20
-170.1250162335104
 30
0.0
 10
72.98796520527732
 20
-170.1250162335104
 30
0.0
 10
73.12335745784763
 20
-170.0488796232864
 30
0.0
 10
73.12335745784763
 20
-169.8776583776695
 30
0.0
 10
73.12335745784763
 20
-169.7994547101543
 30
0.0
 10
73.08959552209218
 20
-169.6447699228666
 30
0.0
 10
72.89064125781901
 20
-169.6447699228666
 30
0.0
  0
SPLINE
  5
8F
330
8A
100
AcDbEntity
  8
レイヤー 1
100
AcDbSpline
210
0.0
220
0.0
230
1.0
 70
     9
 71
     3
 72
    44
 73
    40
 74
     0
 42
0.0000000001
 43
0.0000000001
 40
0.0
 40
0.0
 40
0.0
 40
0.0
 40
1.0
 40
1.0
 40
1.0
 40
2.0
 40
2.0
 40
2.0
 40
3.0
 40
3.0
 40
3.0
 40
4.0
 40
4.0
 40
4.0
 40
5.0
 40
5.0
 40
5.0
 40
6.0
 40
6.0
 40
6.0
 40
7.0
 40
7.0
 40
7.0
 40
8.0
 40
8.0
 40
8.0
 40
9.0
 40
9.0
 40
9.0
 40
10.0
 40
10.0
 40
10.0
 40
11.0
 40
11.0
 40
11.0
 40
12.0
 40
12.0
 40
12.0
 40
13.0
 40
13.0
 40
13.0
 40
13.0
 10
73.14247773779077
 20
-170.9776773661097
 30
0.0
 10
73.11905108849107
 20
-170.93323563435
 30
0.0
 10
73.09803600603105
 20
-170.8805256734257
 30
0.0
 10
73.09579669396564
 20
-170.6497042759139
 30
0.0
 10
73.09166257938334
 20
-170.4064805346553
 30
0.0
 10
73.03240693703703
 20
-170.3365450963047
 30
0.0
 10
72.85464000999815
 20
-170.3365450963047
 30
0.0
 10
72.85464000999815
 20
-170.3365450963047
 30
0.0
 10
72.44639619499604
 20
-170.3365450963047
 30
0.0
 10
72.44639619499604
 20
-170.3365450963047
 30
0.0
 10
72.44639619499604
 20
-170.3365450963047
 30
0.0
 10
72.44639619499604
 20
-170.9776773661097
 30
0.0
 10
72.44639619499604
 20
-170.9776773661097
 30
0.0
 10
72.44639619499604
 20
-170.9776773661097
 30
0.0
 10
72.21161293767626
 20
-170.9776773661097
 30
0.0
 10
72.21161293767626
 20
-170.9776773661097
 30
0.0
 10
72.21161293767626
 20
-170.9776773661097
 30
0.0
 10
72.21161293767626
 20
-169.4332410600722
 30
0.0
 10
72.21161293767626
 20
-169.4332410600722
 30
0.0
 10
72.21161293767626
 20
-169.4332410600722
 30
0.0
 10
72.88633488846244
 20
-169.4332410600722
 30
0.0
 10
72.88633488846244
 20
-169.4332410600722
 30
0.0
 10
73.19312064142394
 20
-169.4332410600722
 30
0.0
 10
73.36038002723282
 20
-169.6048068152377
 30
0.0
 10
73.36038002723282
 20
-169.8607774097917
 30
0.0
 10
73.36038002723282
 20
-169.9114203134249
 30
0.0
 10
73.35176728851969
 20
-169.9941026050709
 30
0.0
 10
73.30732555675997
 20
-170.0743733298772
 30
0.0
 10
73.24824216918795
 20
-170.1780707039833
 30
0.0
 10
73.18261310019393
 20
-170.1970187291521
 30
0.0
 10
73.12129040055649
 20
-170.2138996970298
 30
0.0
 10
73.25874971041796
 20
-170.2562743714984
 30
0.0
 10
73.32644583670312
 20
-170.3048502178404
 30
0.0
 10
73.33075220605967
 20
-170.6200764547408
 30
0.0
 10
73.33488632064197
 20
-170.8908609598814
 30
0.0
 10
73.37088756846283
 20
-170.9225558383457
 30
0.0
 10
73.43858369474799
 20
-170.9776773661097
 30
0.0
 10
73.43858369474799
 20
-170.9776773661097
 30
0.0
 10
73.14247773779077
 20
-170.9776773661097
 30
0.0
 10
73.14247773779077
 20
-170.9776773661097
 30
0.0
  0
HATCH
  5
90
330
8A
100
AcDbEntity
  8
レイヤー 1
 62
   250
420
  2299925
440
 33554687
100
AcDbHatch
 10
0.0
 20
0.0
 30
0.0
210
0.0
220
0.0
230
1.0
  2
SOLID
 70
     1
 71
     1
 91
        2
 92
        1
 93
        1
 72
     4
 94
        3
 73
     0
 74
     0
 95
       20
 96
       16
 40
0.0
 40
0.0
 40
0.0
 40
0.0
 40
1.0
 40
1.0
 40
1.0
 40
2.0
 40
2.0
 40
2.0
 40
3.0
 40
3.0
 40
3.0
 40
4.0
 40
4.0
 40
4.0
 40
5.0
 40
5.0
 40
5.0
 40
5.0
 10
72.89064125781901
 20
-169.6447699228666
 10
72.89064125781901
 20
-169.6447699228666
 10
72.44639619499604
 20
-169.6447699228666
 10
72.44639619499604
 20
-169.6447699228666
 10
72.44639619499604
 20
-169.6447699228666
 10
72.44639619499604
 20
-170.1250162335104
 10
72.44639619499604
 20
-170.1250162335104
 10
72.44639619499604
 20
-170.1250162335104
 10
72.88857420052785
 20
-170.1250162335104
 10
72.88857420052785
 20
-170.1250162335104
 10
72.98796520527732
 20
-170.1250162335104
 10
73.12335745784763
 20
-170.0488796232864
 10
73.12335745784763
 20
-169.8776583776695
 10
73.12335745784763
 20
-169.7994547101543
 10
73.08959552209218
 20
-169.6447699228666
 10
72.89064125781901
 20
-169.6447699228666
 97
        0
 97
        1
330
8E
 92
        1
 93
        1
 72
     4
 94
        3
 73
     0
 74
     0
 95
       44
 96
       40
 40
0.0
 40
0.0
 40
0.0
 40
0.0
 40
1.0
 40
1.0
 40
1.0
 40
2.0
 40
2.0
 40
2.0
 40
3.0
 40
3.0
 40
3.0
 40
4.0
 40
4.0
 40
4.0
 40
5.0
 40
5.0
 40
5.0
 40
6.0
 40
6.0
 40
6.0
 40
7.0
 40
7.0
 40
7.0
 40
8.0
 40
8.0
 40
8.0
 40
9.0
 40
9.0
 40
9.0
 40
10.0
 40
10.0
 40
10.0
 40
11.0
 40
11.0
 40
11.0
 40
12.0
 40
12.0
 40
12.0
 40
13.0
 40
13.0
 40
13.0
 40
13.0
 10
73.14247773779077
 20
-170.9776773661097
 10
73.11905108849107
 20
-170.93323563435
 10
73.09803600603105
 20
-170.8805256734257
 10
73.09579669396564
 20
-170.6497042759139
 10
73.09166257938334
 20
-170.4064805346553
 10
73.03240693703703
 20
-170.3365450963047
 10
72.85464000999815
 20
-170.3365450963047
 10
72.85464000999815
 20
-170.3365450963047
 10
72.44639619499604
 20
-170.3365450963047
 10
72.44639619499604
 20
-170.3365450963047
 10
72.44639619499604
 20
-170.3365450963047
 10
72.44639619499604
 20
-170.9776773661097
 10
72.44639619499604
 20
-170.9776773661097
 10
72.44639619499604
 20
-170.9776773661097
 10
72.21161293767626
 20
-170.9776773661097
 10
72.21161293767626
 20
-170.9776773661097
 10
72.21161293767626
 20
-170.9776773661097
 10
72.21161293767626
 20
-169.4332410600722
 10
72.21161293767626
 20
-169.4332410600722
 10
72.21161293767626
 20
-169.4332410600722
 10
72.88633488846244
 20
-169.4332410600722
 10
72.88633488846244
 20
-169.4332410600722
 10
73.19312064142394
 20
-169.4332410600722
 10
73.36038002723282
 20
-169.6048068152377
 10
73.36038002723282
 20
-169.8607774097917
 10
73.36038002723282
 20
-169.9114203134249
 10
73.35176728851969
 20
-169.9941026050709
 10
73.30732555675997
 20
-170.0743733298772
 10
73.24824216918795
 20
-170.1780707039833
 10
73.18261310019393
 20
-170.1970187291521
 10
73.12129040055649
 20
-170.2138996970298
 10
73.25874971041796
 20
-170.2562743714984
 10
73.32644583670312
 20
-170.3048502178404
 10
73.33075220605967
 20
-170.6200764547408
 10
73.33488632064197
 20
-170.8908609598814
 10
73.37088756846283
 20
-170.9225558383457
 10
73.43858369474799
 20
-170.9776773661097
 10
73.43858369474799
 20
-170.9776773661097
 10
73.14247773779077
 20
-170.9776773661097
 10
73.14247773779077
 20
-170.9776773661097
 97
        0
 97
        1
330
8F
 75
     2
 76
     1
 98
        1
 10
0.0
 20
0.0
450
        0
451
        0
460
0.0
461
0.0
452
        0
462
0.0
453
        0
470

  0
SPLINE
  5
91
330
8A
100
AcDbEntity
  8
レイヤー 1
100
AcDbSpline
210
0.0
220
0.0
230
1.0
 70
    11
 71
     3
 72
    26
 73
    22
 74
     0
 42
0.0000000001
 43
0.0000000001
 40
0.0
 40
0.0
 40
0.0
 40
0.0
 40
1.0
 40
1.0
 40
1.0
 40
2.0
 40
2.0
 40
2.0
 40
3.0
 40
3.0
 40
3.0
 40
4.0
 40
4.0
 40
4.0
 40
5.0
 40
5.0
 40
5.0
 40
6.0
 40
6.0
 40
6.0
 40
7.0
 40
7.0
 40
7.0
 40
7.0
 10
74.0295898252426
 20
-170.9776773661097
 30
0.0
 10
74.0295898252426
 20
-170.9776773661097
 30
0.0
 10
74.0295898252426
 20
-169.8735242630871
 30
0.0
 10
74.0295898252426
 20
-169.8735242630871
 30
0.0
 10
74.0295898252426
 20
-169.8735242630871
 30
0.0
 10
73.69954967775567
 20
-169.8735242630871
 30
0.0
 10
73.69954967775567
 20
-169.8735242630871
 30
0.0
 10
73.69954967775567
 20
-169.8735242630871
 30
0.0
 10
73.69954967775567
 20
-169.7253851572214
 30
0.0
 10
73.69954967775567
 20
-169.7253851572214
 30
0.0
 10
74.03165688253375
 20
-169.7105712466348
 30
0.0
 10
74.07816567158462
 20
-169.5476182301825
 30
0.0
 10
74.10779349275777
 20
-169.4332410600722
 30
0.0
 10
74.10779349275777
 20
-169.4332410600722
 30
0.0
 10
74.25386554133237
 20
-169.4332410600722
 30
0.0
 10
74.25386554133237
 20
-169.4332410600722
 30
0.0
 10
74.25386554133237
 20
-169.4332410600722
 30
0.0
 10
74.25386554133237
 20
-170.9776773661097
 30
0.0
 10
74.25386554133237
 20
-170.9776773661097
 30
0.0
 10
74.25386554133237
 20
-170.9776773661097
 30
0.0
 10
74.0295898252426
 20
-170.9776773661097
 30
0.0
 10
74.0295898252426
 20
-170.9776773661097
 30
0.0
  0
HATCH
  5
92
330
8A
100
AcDbEntity
  8
レイヤー 1
 62
   250
420
  2299925
440
 33554687
100
AcDbHatch
 10
0.0
 20
0.0
 30
0.0
210
0.0
220
0.0
230
1.0
  2
SOLID
 70
     1
 71
     1
 91
        1
 92
        1
 93
        1
 72
     4
 94
        3
 73
     0
 74
     0
 95
       26
 96
       22
 40
0.0
 40
0.0
 40
0.0
 40
0.0
 40
1.0
 40
1.0
 40
1.0
 40
2.0
 40
2.0
 40
2.0
 40
3.0
 40
3.0
 40
3.0
 40
4.0
 40
4.0
 40
4.0
 40
5.0
 40
5.0
 40
5.0
 40
6.0
 40
6.0
 40
6.0
 40
7.0
 40
7.0
 40
7.0
 40
7.0
 10
74.0295898252426
 20
-170.9776773661097
 10
74.0295898252426
 20
-170.9776773661097
 10
74.0295898252426
 20
-169.8735242630871
 10
74.0295898252426
 20
-169.8735242630871
 10
74.0295898252426
 20
-169.8735242630871
 10
73.69954967775567
 20
-169.8735242630871
 10
73.69954967775567
 20
-169.8735242630871
 10
73.69954967775567
 20
-169.8735242630871
 10
73.69954967775567
 20
-169.7253851572214
 10
73.69954967775567
 20
-169.7253851572214
 10
74.03165688253375
 20
-169.7105712466348
 10
74.07816567158462
 20
-169.5476182301825
 10
74.10779349275777
 20
-169.4332410600722
 10
74.10779349275777
 20
-169.4332410600722
 10
74.25386554133237
 20
-169.4332410600722
 10
74.25386554133237
 20
-169.4332410600722
 10
74.25386554133237
 20
-169.4332410600722
 10
74.25386554133237
 20
-170.9776773661097
 10
74.25386554133237
 20
-170.9776773661097
 10
74.25386554133237
 20
-170.9776773661097
 10
74.0295898252426
 20
-170.9776773661097
 10
74.0295898252426
 20
-170.9776773661097
 97
        0
 97
        1
330
91
 75
     2
 76
     1
 98
        1
 10
0.0
 20
0.0
450
        0
451
        0
460
0.0
461
0.0
452
        0
462
0.0
453
        0
470

  0
SPLINE
  5
93
330
8A
100
AcDbEntity
  8
レイヤー 1
100
AcDbSpline
210
0.0
220
0.0
230
1.0
 70
     9
 71
     3
 72
    53
 73
    49
 74
     0
 42
0.0000000001
 43
0.0000000001
 40
0.0
 40
0.0
 40
0.0
 40
0.0
 40
1.0
 40
1.0
 40
1.0
 40
2.0
 40
2.0
 40
2.0
 40
3.0
 40
3.0
 40
3.0
 40
4.0
 40
4.0
 40
4.0
 40
5.0
 40
5.0
 40
5.0
 40
6.0
 40
6.0
 40
6.0
 40
7.0
 40
7.0
 40
7.0
 40
8.0
 40
8.0
 40
8.0
 40
9.0
 40
9.0
 40
9.0
 40
10.0
 40
10.0
 40
10.0
 40
11.0
 40
11.0
 40
11.0
 40
12.0
 40
12.0
 40
12.0
 40
13.0
 40
13.0
 40
13.0
 40
14.0
 40
14.0
 40
14.0
 40
15.0
 40
15.0
 40
15.0
 40
16.0
 40
16.0
 40
16.0
 40
16.0
 10
75.23606226417709
 20
-171.0283202697429
 30
0.0
 10
75.15768634188766
 20
-171.0283202697429
 30
0.0
 10
75.05622827984706
 20
-171.0114393018652
 30
0.0
 10
74.95459796303219
 20
-170.9480495449366
 30
0.0
 10
74.78113740534985
 20
-170.8381509989571
 30
0.0
 10
74.75995006811557
 20
-170.7068928609691
 30
0.0
 10
74.7410020429467
 20
-170.5990613722808
 30
0.0
 10
74.7410020429467
 20
-170.5990613722808
 30
0.0
 10
74.96303844697106
 20
-170.5990613722808
 30
0.0
 10
74.96303844697106
 20
-170.5990613722808
 30
0.0
 10
75.01815997473504
 20
-170.7978433817797
 30
0.0
 10
75.1451117433665
 20
-170.8274712029528
 30
0.0
 10
75.23812932146825
 20
-170.8274712029528
 30
0.0
 10
75.37782794339513
 20
-170.8274712029528
 30
0.0
 10
75.53010116384317
 20
-170.7279079434291
 30
0.0
 10
75.53010116384317
 20
-170.4953639981748
 30
0.0
 10
75.53010116384317
 20
-170.2393934036207
 30
0.0
 10
75.35026717951312
 20
-170.1694579652701
 30
0.0
 10
75.22968883752938
 20
-170.1694579652701
 30
0.0
 10
75.19799395906509
 20
-170.1694579652701
 30
0.0
 10
75.05622827984706
 20
-170.1694579652701
 30
0.0
 10
74.96734481632761
 20
-170.298649045967
 30
0.0
 10
74.96734481632761
 20
-170.298649045967
 30
0.0
 10
74.79181720135414
 20
-170.2797010207981
 30
0.0
 10
74.79181720135414
 20
-170.2797010207981
 30
0.0
 10
74.79181720135414
 20
-170.2797010207981
 30
0.0
 10
74.91239554333787
 20
-169.4332410600722
 30
0.0
 10
74.91239554333787
 20
-169.4332410600722
 30
0.0
 10
74.91239554333787
 20
-169.4332410600722
 30
0.0
 10
75.69081486823008
 20
-169.4332410600722
 30
0.0
 10
75.69081486823008
 20
-169.4332410600722
 30
0.0
 10
75.69081486823008
 20
-169.4332410600722
 30
0.0
 10
75.69081486823008
 20
-169.6278889549888
 30
0.0
 10
75.69081486823008
 20
-169.6278889549888
 30
0.0
 10
75.69081486823008
 20
-169.6278889549888
 30
0.0
 10
75.07517630501593
 20
-169.6278889549888
 30
0.0
 10
75.07517630501593
 20
-169.6278889549888
 30
0.0
 10
75.07517630501593
 20
-169.6278889549888
 30
0.0
 10
75.00971949079619
 20
-170.0509466805775
 30
0.0
 10
75.00971949079619
 20
-170.0509466805775
 30
0.0
 10
75.07104219043363
 20
-170.0171847448221
 30
0.0
 10
75.15355222730537
 20
-169.9768771276447
 30
0.0
 10
75.2718912572237
 20
-169.9768771276447
 30
0.0
 10
75.52579479448661
 20
-169.9768771276447
 30
0.0
 10
75.7628173638718
 20
-170.1632567933967
 30
0.0
 10
75.7628173638718
 20
-170.4764159730059
 30
0.0
 10
75.7628173638718
 20
-170.7937092671974
 30
0.0
 10
75.53854164778204
 20
-171.0283202697429
 30
0.0
 10
75.23606226417709
 20
-171.0283202697429
 30
0.0
  0
HATCH
  5
94
330
8A
100
AcDbEntity
  8
レイヤー 1
 62
   250
420
  2299925
440
 33554687
100
AcDbHatch
 10
0.0
 20
0.0
 30
0.0
210
0.0
220
0.0
230
1.0
  2
SOLID
 70
     1
 71
     1
 91
        1
 92
        1
 93
        1
 72
     4
 94
        3
 73
     0
 74
     0
 95
       53
 96
       49
 40
0.0
 40
0.0
 40
0.0
 40
0.0
 40
1.0
 40
1.0
 40
1.0
 40
2.0
 40
2.0
 40
2.0
 40
3.0
 40
3.0
 40
3.0
 40
4.0
 40
4.0
 40
4.0
 40
5.0
 40
5.0
 40
5.0
 40
6.0
 40
6.0
 40
6.0
 40
7.0
 40
7.0
 40
7.0
 40
8.0
 40
8.0
 40
8.0
 40
9.0
 40
9.0
 40
9.0
 40
10.0
 40
10.0
 40
10.0
 40
11.0
 40
11.0
 40
11.0
 40
12.0
 40
12.0
 40
12.0
 40
13.0
 40
13.0
 40
13.0
 40
14.0
 40
14.0
 40
14.0
 40
15.0
 40
15.0
 40
15.0
 40
16.0
 40
16.0
 40
16.0
 40
16.0
 10
75.23606226417709
 20
-171.0283202697429
 10
75.15768634188766
 20
-171.0283202697429
 10
75.05622827984706
 20
-171.0114393018652
 10
74.95459796303219
 20
-170.9480495449366
 10
74.78113740534985
 20
-170.8381509989571
 10
74.75995006811557
 20
-170.7068928609691
 10
74.7410020429467
 20
-170.5990613722808
 10
74.7410020429467
 20
-170.5990613722808
 10
74.96303844697106
 20
-170.5990613722808
 10
74.96303844697106
 20
-170.5990613722808
 10
75.01815997473504
 20
-170.7978433817797
 10
75.1451117433665
 20
-170.8274712029528
 10
75.23812932146825
 20
-170.8274712029528
 10
75.37782794339513
 20
-170.8274712029528
 10
75.53010116384317
 20
-170.7279079434291
 10
75.53010116384317
 20
-170.4953639981748
 10
75.53010116384317
 20
-170.2393934036207
 10
75.35026717951312
 20
-170.1694579652701
 10
75.22968883752938
 20
-170.1694579652701
 10
75.19799395906509
 20
-170.1694579652701
 10
75.05622827984706
 20
-170.1694579652701
 10
74.96734481632761
 20
-170.298649045967
 10
74.96734481632761
 20
-170.298649045967
 10
74.79181720135414
 20
-170.2797010207981
 10
74.79181720135414
 20
-170.2797010207981
 10
74.79181720135414
 20
-170.2797010207981
 10
74.91239554333787
 20
-169.4332410600722
 10
74.91239554333787
 20
-169.4332410600722
 10
74.91239554333787
 20
-169.4332410600722
 10
75.69081486823008
 20
-169.4332410600722
 10
75.69081486823008
 20
-169.4332410600722
 10
75.69081486823008
 20
-169.4332410600722
 10
75.69081486823008
 20
-169.6278889549888
 10
75.69081486823008
 20
-169.6278889549888
 10
75.69081486823008
 20
-169.6278889549888
 10
75.07517630501593
 20
-169.6278889549888
 10
75.07517630501593
 20
-169.6278889549888
 10
75.07517630501593
 20
-169.6278889549888
 10
75.00971949079619
 20
-170.0509466805775
 10
75.00971949079619
 20
-170.0509466805775
 10
75.07104219043363
 20
-170.0171847448221
 10
75.15355222730537
 20
-169.9768771276447
 10
75.2718912572237
 20
-169.9768771276447
 10
75.52579479448661
 20
-169.9768771276447
 10
75.7628173638718
 20
-170.1632567933967
 10
75.7628173638718
 20
-170.4764159730059
 10
75.7628173638718
 20
-170.7937092671974
 10
75.53854164778204
 20
-171.0283202697429
 10
75.23606226417709
 20
-171.0283202697429
 97
        0
 97
        1
330
93
 75
     2
 76
     1
 98
        1
 10
0.0
 20
0.0
450
        0
451
        0
460
0.0
461
0.0
452
        0
462
0.0
453
        0
470

  0
ENDBLK
  5
8D
330
8A
100
AcDbEntity
  8
0
100
AcDbBlockEnd
  0
BLOCK
  5
9A
330
98
100
AcDbEntity
  8
0
100
AcDbBlockBegin
  2
Block_2
 70
     0
 10
0.0
 20
0.0
 30
0.0
  3
Block_2
  1

  0
INSERT
  5
9D
330
98
100
AcDbEntity
  8
レイヤー 1
100
AcDbBlockReference
  2
Block_3
 10
0.0
 20
0.0
 30
0.0
  0
ENDBLK
  5
9B
330
98
100
AcDbEntity
  8
0
100
AcDbBlockEnd
  0
BLOCK
  5
9E
330
9C
100
AcDbEntity
  8
0
100
AcDbBlockBegin
  2
Block_3
 70
     0
 10
0.0
 20
0.0
 30
0.0
  3
Block_3
  1

  0
SPLINE
  5
A0
330
9C
100
AcDbEntity
  8
レイヤー 1
100
AcDbSpline
210
0.0
220
0.0
230
1.0
 70
    11
 71
     3
 72
    14
 73
    10
 74
     0
 42
0.0000000001
 43
0.0000000001
 40
0.0
 40
0.0
 40
0.0
 40
0.0
 40
1.0
 40
1.0
 40
1.0
 40
2.0
 40
2.0
 40
2.0
 40
3.0
 40
3.0
 40
3.0
 40
3.0
 10
97.32050236282265
 20
-168.415904363278
 30
0.0
 10
97.32050236282265
 20
-168.415904363278
 30
0.0
 10
96.86333819193
 20
-169.0718505436695
 30
0.0
 10
96.86333819193
 20
-169.0718505436695
 30
0.0
 10
96.86333819193
 20
-169.0718505436695
 30
0.0
 10
97.32050236282265
 20
-169.0718505436695
 30
0.0
 10
97.32050236282265
 20
-169.0718505436695
 30
0.0
 10
97.32050236282265
 20
-169.0718505436695
 30
0.0
 10
97.32050236282265
 20
-168.415904363278
 30
0.0
 10
97.32050236282265
 20
-168.415904363278
 30
0.0
  0
SPLINE
  5
A1
330
9C
100
AcDbEntity
  8
レイヤー 1
100
AcDbSpline
210
0.0
220
0.0
230
1.0
 70
    11
 71
     3
 72
    38
 73
    34
 74
     0
 42
0.0000000001
 43
0.0000000001
 40
0.0
 40
0.0
 40
0.0
 40
0.0
 40
1.0
 40
1.0
 40
1.0
 40
2.0
 40
2.0
 40
2.0
 40
3.0
 40
3.0
 40
3.0
 40
4.0
 40
4.0
 40
4.0
 40
5.0
 40
5.0
 40
5.0
 40
6.0
 40
6.0
 40
6.0
 40
7.0
 40
7.0
 40
7.0
 40
8.0
 40
8.0
 40
8.0
 40
9.0
 40
9.0
 40
9.0
 40
10.0
 40
10.0
 40
10.0
 40
11.0
 40
11.0
 40
11.0
 40
11.0
 10
97.53823239749046
 20
-169.2706325531684
 30
0.0
 10
97.53823239749046
 20
-169.2706325531684
 30
0.0
 10
97.53823239749046
 20
-169.6175536685331
 30
0.0
 10
97.53823239749046
 20
-169.6175536685331
 30
0.0
 10
97.53823239749046
 20
-169.6175536685331
 30
0.0
 10
97.32050236282265
 20
-169.6175536685331
 30
0.0
 10
97.32050236282265
 20
-169.6175536685331
 30
0.0
 10
97.32050236282265
 20
-169.6175536685331
 30
0.0
 10
97.32050236282265
 20
-169.2706325531684
 30
0.0
 10
97.32050236282265
 20
-169.2706325531684
 30
0.0
 10
97.32050236282265
 20
-169.2706325531684
 30
0.0
 10
96.66455618243109
 20
-169.2706325531684
 30
0.0
 10
96.66455618243109
 20
-169.2706325531684
 30
0.0
 10
96.66455618243109
 20
-169.2706325531684
 30
0.0
 10
96.66455618243109
 20
-169.0463568370787
 30
0.0
 10
96.66455618243109
 20
-169.0463568370787
 30
0.0
 10
96.66455618243109
 20
-169.0463568370787
 30
0.0
 10
97.34358450257383
 20
-168.0731173624956
 30
0.0
 10
97.34358450257383
 20
-168.0731173624956
 30
0.0
 10
97.34358450257383
 20
-168.0731173624956
 30
0.0
 10
97.53823239749046
 20
-168.0731173624956
 30
0.0
 10
97.53823239749046
 20
-168.0731173624956
 30
0.0
 10
97.53823239749046
 20
-168.0731173624956
 30
0.0
 10
97.53823239749046
 20
-169.0718505436695
 30
0.0
 10
97.53823239749046
 20
-169.0718505436695
 30
0.0
 10
97.53823239749046
 20
-169.0718505436695
 30
0.0
 10
97.74562714570249
 20
-169.0718505436695
 30
0.0
 10
97.74562714570249
 20
-169.0718505436695
 30
0.0
 10
97.74562714570249
 20
-169.0718505436695
 30
0.0
 10
97.74562714570249
 20
-169.2706325531684
 30
0.0
 10
97.74562714570249
 20
-169.2706325531684
 30
0.0
 10
97.74562714570249
 20
-169.2706325531684
 30
0.0
 10
97.53823239749046
 20
-169.2706325531684
 30
0.0
 10
97.53823239749046
 20
-169.2706325531684
 30
0.0
  0
HATCH
  5
A2
330
9C
100
AcDbEntity
  8
レイヤー 1
 62
   250
420
  2299925
440
 33554687
100
AcDbHatch
 10
0.0
 20
0.0
 30
0.0
210
0.0
220
0.0
230
1.0
  2
SOLID
 70
     1
 71
     1
 91
        2
 92
        1
 93
        1
 72
     4
 94
        3
 73
     0
 74
     0
 95
       14
 96
       10
 40
0.0
 40
0.0
 40
0.0
 40
0.0
 40
1.0
 40
1.0
 40
1.0
 40
2.0
 40
2.0
 40
2.0
 40
3.0
 40
3.0
 40
3.0
 40
3.0
 10
97.32050236282265
 20
-168.415904363278
 10
97.32050236282265
 20
-168.415904363278
 10
96.86333819193
 20
-169.0718505436695
 10
96.86333819193
 20
-169.0718505436695
 10
96.86333819193
 20
-169.0718505436695
 10
97.32050236282265
 20
-169.0718505436695
 10
97.32050236282265
 20
-169.0718505436695
 10
97.32050236282265
 20
-169.0718505436695
 10
97.32050236282265
 20
-168.415904363278
 10
97.32050236282265
 20
-168.415904363278
 97
        0
 97
        1
330
A0
 92
        1
 93
        1
 72
     4
 94
        3
 73
     0
 74
     0
 95
       38
 96
       34
 40
0.0
 40
0.0
 40
0.0
 40
0.0
 40
1.0
 40
1.0
 40
1.0
 40
2.0
 40
2.0
 40
2.0
 40
3.0
 40
3.0
 40
3.0
 40
4.0
 40
4.0
 40
4.0
 40
5.0
 40
5.0
 40
5.0
 40
6.0
 40
6.0
 40
6.0
 40
7.0
 40
7.0
 40
7.0
 40
8.0
 40
8.0
 40
8.0
 40
9.0
 40
9.0
 40
9.0
 40
10.0
 40
10.0
 40
10.0
 40
11.0
 40
11.0
 40
11.0
 40
11.0
 10
97.53823239749046
 20
-169.2706325531684
 10
97.53823239749046
 20
-169.2706325531684
 10
97.53823239749046
 20
-169.6175536685331
 10
97.53823239749046
 20
-169.6175536685331
 10
97.53823239749046
 20
-169.6175536685331
 10
97.32050236282265
 20
-169.6175536685331
 10
97.32050236282265
 20
-169.6175536685331
 10
97.32050236282265
 20
-169.6175536685331
 10
97.32050236282265
 20
-169.2706325531684
 10
97.32050236282265
 20
-169.2706325531684
 10
97.32050236282265
 20
-169.2706325531684
 10
96.66455618243109
 20
-169.2706325531684
 10
96.66455618243109
 20
-169.2706325531684
 10
96.66455618243109
 20
-169.2706325531684
 10
96.66455618243109
 20
-169.0463568370787
 10
96.66455618243109
 20
-169.0463568370787
 10
96.66455618243109
 20
-169.0463568370787
 10
97.34358450257383
 20
-168.0731173624956
 10
97.34358450257383
 20
-168.0731173624956
 10
97.34358450257383
 20
-168.0731173624956
 10
97.53823239749046
 20
-168.0731173624956
 10
97.53823239749046
 20
-168.0731173624956
 10
97.53823239749046
 20
-168.0731173624956
 10
97.53823239749046
 20
-169.0718505436695
 10
97.53823239749046
 20
-169.0718505436695
 10
97.53823239749046
 20
-169.0718505436695
 10
97.74562714570249
 20
-169.0718505436695
 10
97.74562714570249
 20
-169.0718505436695
 10
97.74562714570249
 20
-169.0718505436695
 10
97.74562714570249
 20
-169.2706325531684
 10
97.74562714570249
 20
-169.2706325531684
 10
97.74562714570249
 20
-169.2706325531684
 10
97.53823239749046
 20
-169.2706325531684
 10
97.53823239749046
 20
-169.2706325531684
 97
        0
 97
        1
330
A1
 75
     2
 76
     1
 98
        1
 10
0.0
 20
0.0
450
        0
451
        0
460
0.0
461
0.0
452
        0
462
0.0
453
        0
470

  0
SPLINE
  5
A3
330
9C
100
AcDbEntity
  8
レイヤー 1
100
AcDbSpline
210
0.0
220
0.0
230
1.0
 70
    11
 71
     3
 72
    26
 73
    22
 74
     0
 42
0.0000000001
 43
0.0000000001
 40
0.0
 40
0.0
 40
0.0
 40
0.0
 40
1.0
 40
1.0
 40
1.0
 40
2.0
 40
2.0
 40
2.0
 40
3.0
 40
3.0
 40
3.0
 40
4.0
 40
4.0
 40
4.0
 40
5.0
 40
5.0
 40
5.0
 40
6.0
 40
6.0
 40
6.0
 40
7.0
 40
7.0
 40
7.0
 40
7.0
 10
98.33439396413169
 20
-169.6175536685331
 30
0.0
 10
98.33439396413169
 20
-169.6175536685331
 30
0.0
 10
98.33439396413169
 20
-168.5134005655105
 30
0.0
 10
98.33439396413169
 20
-168.5134005655105
 30
0.0
 10
98.33439396413169
 20
-168.5134005655105
 30
0.0
 10
98.00435381664476
 20
-168.5134005655105
 30
0.0
 10
98.00435381664476
 20
-168.5134005655105
 30
0.0
 10
98.00435381664476
 20
-168.5134005655105
 30
0.0
 10
98.00435381664476
 20
-168.3652614596448
 30
0.0
 10
98.00435381664476
 20
-168.3652614596448
 30
0.0
 10
98.33646102142283
 20
-168.3504475490582
 30
0.0
 10
98.38296981047371
 20
-168.1874945326059
 30
0.0
 10
98.41259763164686
 20
-168.0731173624956
 30
0.0
 10
98.41259763164686
 20
-168.0731173624956
 30
0.0
 10
98.55866968022144
 20
-168.0731173624956
 30
0.0
 10
98.55866968022144
 20
-168.0731173624956
 30
0.0
 10
98.55866968022144
 20
-168.0731173624956
 30
0.0
 10
98.55866968022144
 20
-169.6175536685331
 30
0.0
 10
98.55866968022144
 20
-169.6175536685331
 30
0.0
 10
98.55866968022144
 20
-169.6175536685331
 30
0.0
 10
98.33439396413169
 20
-169.6175536685331
 30
0.0
 10
98.33439396413169
 20
-169.6175536685331
 30
0.0
  0
HATCH
  5
A4
330
9C
100
AcDbEntity
  8
レイヤー 1
 62
   250
420
  2299925
440
 33554687
100
AcDbHatch
 10
0.0
 20
0.0
 30
0.0
210
0.0
220
0.0
230
1.0
  2
SOLID
 70
     1
 71
     1
 91
        1
 92
        1
 93
        1
 72
     4
 94
        3
 73
     0
 74
     0
 95
       26
 96
       22
 40
0.0
 40
0.0
 40
0.0
 40
0.0
 40
1.0
 40
1.0
 40
1.0
 40
2.0
 40
2.0
 40
2.0
 40
3.0
 40
3.0
 40
3.0
 40
4.0
 40
4.0
 40
4.0
 40
5.0
 40
5.0
 40
5.0
 40
6.0
 40
6.0
 40
6.0
 40
7.0
 40
7.0
 40
7.0
 40
7.0
 10
98.33439396413169
 20
-169.6175536685331
 10
98.33439396413169
 20
-169.6175536685331
 10
98.33439396413169
 20
-168.5134005655105
 10
98.33439396413169
 20
-168.5134005655105
 10
98.33439396413169
 20
-168.5134005655105
 10
98.00435381664476
 20
-168.5134005655105
 10
98.00435381664476
 20
-168.5134005655105
 10
98.00435381664476
 20
-168.5134005655105
 10
98.00435381664476
 20
-168.3652614596448
 10
98.00435381664476
 20
-168.3652614596448
 10
98.33646102142283
 20
-168.3504475490582
 10
98.38296981047371
 20
-168.1874945326059
 10
98.41259763164686
 20
-168.0731173624956
 10
98.41259763164686
 20
-168.0731173624956
 10
98.55866968022144
 20
-168.0731173624956
 10
98.55866968022144
 20
-168.0731173624956
 10
98.55866968022144
 20
-168.0731173624956
 10
98.55866968022144
 20
-169.6175536685331
 10
98.55866968022144
 20
-169.6175536685331
 10
98.55866968022144
 20
-169.6175536685331
 10
98.33439396413169
 20
-169.6175536685331
 10
98.33439396413169
 20
-169.6175536685331
 97
        0
 97
        1
330
A3
 75
     2
 76
     1
 98
        1
 10
0.0
 20
0.0
450
        0
451
        0
460
0.0
461
0.0
452
        0
462
0.0
453
        0
470

  0
ENDBLK
  5
9F
330
9C
100
AcDbEntity
  8
0
100
AcDbBlockEnd
  0
BLOCK
  5
AA
330
A8
100
AcDbEntity
  8
0
100
AcDbBlockBegin
  2
Block_4
 70
     0
 10
0.0
 20
0.0
 30
0.0
  3
Block_4
  1

  0
INSERT
  5
AD
330
A8
100
AcDbEntity
  8
レイヤー 1
100
AcDbBlockReference
  2
Block_5
 10
0.0
 20
0.0
 30
0.0
  0
ENDBLK
  5
AB
330
A8
100
AcDbEntity
  8
0
100
AcDbBlockEnd
  0
BLOCK
  5
AE
330
AC
100
AcDbEntity
  8
0
100
AcDbBlockBegin
  2
Block_5
 70
     0
 10
0.0
 20
0.0
 30
0.0
  3
Block_5
  1

  0
SPLINE
  5
B0
330
AC
100
AcDbEntity
  8
レイヤー 1
100
AcDbSpline
210
0.0
220
0.0
230
1.0
 70
    11
 71
     3
 72
    26
 73
    22
 74
     0
 42
0.0000000001
 43
0.0000000001
 40
0.0
 40
0.0
 40
0.0
 40
0.0
 40
1.0
 40
1.0
 40
1.0
 40
2.0
 40
2.0
 40
2.0
 40
3.0
 40
3.0
 40
3.0
 40
4.0
 40
4.0
 40
4.0
 40
5.0
 40
5.0
 40
5.0
 40
6.0
 40
6.0
 40
6.0
 40
7.0
 40
7.0
 40
7.0
 40
7.0
 10
72.8594631436775
 20
-159.4683023689871
 30
0.0
 10
72.8594631436775
 20
-159.4683023689871
 30
0.0
 10
71.75513778588066
 20
-159.4683023689871
 30
0.0
 10
71.75513778588066
 20
-159.4683023689871
 30
0.0
 10
71.75513778588066
 20
-159.4683023689871
 30
0.0
 10
71.75513778588066
 20
-159.798342516474
 30
0.0
 10
71.75513778588066
 20
-159.798342516474
 30
0.0
 10
71.75513778588066
 20
-159.798342516474
 30
0.0
 10
71.60717093478918
 20
-159.798342516474
 30
0.0
 10
71.60717093478918
 20
-159.798342516474
 30
0.0
 10
71.59235702420261
 20
-159.4662353116959
 30
0.0
 10
71.42940400775029
 20
-159.4197265226451
 30
0.0
 10
71.31519909241426
 20
-159.3900987014719
 30
0.0
 10
71.31519909241426
 20
-159.3900987014719
 30
0.0
 10
71.31519909241426
 20
-159.2440266528973
 30
0.0
 10
71.31519909241426
 20
-159.2440266528973
 30
0.0
 10
71.31519909241426
 20
-159.2440266528973
 30
0.0
 10
72.8594631436775
 20
-159.2440266528973
 30
0.0
 10
72.8594631436775
 20
-159.2440266528973
 30
0.0
 10
72.8594631436775
 20
-159.2440266528973
 30
0.0
 10
72.8594631436775
 20
-159.4683023689871
 30
0.0
 10
72.8594631436775
 20
-159.4683023689871
 30
0.0
  0
HATCH
  5
B1
330
AC
100
AcDbEntity
  8
レイヤー 1
 62
   250
420
  2299925
440
 33554687
100
AcDbHatch
 10
0.0
 20
0.0
 30
0.0
210
0.0
220
0.0
230
1.0
  2
SOLID
 70
     1
 71
     1
 91
        1
 92
        1
 93
        1
 72
     4
 94
        3
 73
     0
 74
     0
 95
       26
 96
       22
 40
0.0
 40
0.0
 40
0.0
 40
0.0
 40
1.0
 40
1.0
 40
1.0
 40
2.0
 40
2.0
 40
2.0
 40
3.0
 40
3.0
 40
3.0
 40
4.0
 40
4.0
 40
4.0
 40
5.0
 40
5.0
 40
5.0
 40
6.0
 40
6.0
 40
6.0
 40
7.0
 40
7.0
 40
7.0
 40
7.0
 10
72.8594631436775
 20
-159.4683023689871
 10
72.8594631436775
 20
-159.4683023689871
 10
71.75513778588066
 20
-159.4683023689871
 10
71.75513778588066
 20
-159.4683023689871
 10
71.75513778588066
 20
-159.4683023689871
 10
71.75513778588066
 20
-159.798342516474
 10
71.75513778588066
 20
-159.798342516474
 10
71.75513778588066
 20
-159.798342516474
 10
71.60717093478918
 20
-159.798342516474
 10
71.60717093478918
 20
-159.798342516474
 10
71.59235702420261
 20
-159.4662353116959
 10
71.42940400775029
 20
-159.4197265226451
 10
71.31519909241426
 20
-159.3900987014719
 10
71.31519909241426
 20
-159.3900987014719
 10
71.31519909241426
 20
-159.2440266528973
 10
71.31519909241426
 20
-159.2440266528973
 10
71.31519909241426
 20
-159.2440266528973
 10
72.8594631436775
 20
-159.2440266528973
 10
72.8594631436775
 20
-159.2440266528973
 10
72.8594631436775
 20
-159.2440266528973
 10
72.8594631436775
 20
-159.4683023689871
 10
72.8594631436775
 20
-159.4683023689871
 97
        0
 97
        1
330
B0
 75
     2
 76
     1
 98
        1
 10
0.0
 20
0.0
450
        0
451
        0
460
0.0
461
0.0
452
        0
462
0.0
453
        0
470

  0
SPLINE
  5
B2
330
AC
100
AcDbEntity
  8
レイヤー 1
100
AcDbSpline
210
0.0
220
0.0
230
1.0
 70
     9
 71
     3
 72
    53
 73
    49
 74
     0
 42
0.0000000001
 43
0.0000000001
 40
0.0
 40
0.0
 40
0.0
 40
0.0
 40
1.0
 40
1.0
 40
1.0
 40
2.0
 40
2.0
 40
2.0
 40
3.0
 40
3.0
 40
3.0
 40
4.0
 40
4.0
 40
4.0
 40
5.0
 40
5.0
 40
5.0
 40
6.0
 40
6.0
 40
6.0
 40
7.0
 40
7.0
 40
7.0
 40
8.0
 40
8.0
 40
8.0
 40
9.0
 40
9.0
 40
9.0
 40
10.0
 40
10.0
 40
10.0
 40
11.0
 40
11.0
 40
11.0
 40
12.0
 40
12.0
 40
12.0
 40
13.0
 40
13.0
 40
13.0
 40
14.0
 40
14.0
 40
14.0
 40
15.0
 40
15.0
 40
15.0
 40
16.0
 40
16.0
 40
16.0
 40
16.0
 10
72.91027830208493
 20
-158.2618299300526
 30
0.0
 10
72.91027830208493
 20
-158.3400335975678
 30
0.0
 10
72.89322507943295
 20
-158.4416639143826
 30
0.0
 10
72.82983532250435
 20
-158.5432942311975
 30
0.0
 10
72.71976452175062
 20
-158.7165825341056
 30
0.0
 10
72.58867863853686
 20
-158.7379421261141
 30
0.0
 10
72.48084714984854
 20
-158.756890151283
 30
0.0
 10
72.48084714984854
 20
-158.756890151283
 30
0.0
 10
72.48084714984854
 20
-158.5346814924844
 30
0.0
 10
72.48084714984854
 20
-158.5346814924844
 30
0.0
 10
72.67962915934745
 20
-158.4799044742689
 30
0.0
 10
72.7092569805206
 20
-158.3527804508632
 30
0.0
 10
72.7092569805206
 20
-158.2597628727614
 30
0.0
 10
72.7092569805206
 20
-158.1202365056088
 30
0.0
 10
72.60986597577114
 20
-157.9679632851608
 30
0.0
 10
72.37714977574253
 20
-157.9679632851608
 30
0.0
 10
72.12117918118845
 20
-157.9679632851608
 30
0.0
 10
72.05141599761216
 20
-158.1477972694908
 30
0.0
 10
72.05141599761216
 20
-158.2683756114746
 30
0.0
 10
72.05141599761216
 20
-158.3000704899388
 30
0.0
 10
72.05141599761216
 20
-158.4416639143826
 30
0.0
 10
72.18043482353476
 20
-158.5305473779021
 30
0.0
 10
72.18043482353476
 20
-158.5305473779021
 30
0.0
 10
72.16131454359161
 20
-158.7062472476498
 30
0.0
 10
72.16131454359161
 20
-158.7062472476498
 30
0.0
 10
72.16131454359161
 20
-158.7062472476498
 30
0.0
 10
71.31519909241426
 20
-158.5856689056661
 30
0.0
 10
71.31519909241426
 20
-158.5856689056661
 30
0.0
 10
71.31519909241426
 20
-158.5856689056661
 30
0.0
 10
71.31519909241426
 20
-157.8070773259996
 30
0.0
 10
71.31519909241426
 20
-157.8070773259996
 30
0.0
 10
71.31519909241426
 20
-157.8070773259996
 30
0.0
 10
71.50984698733087
 20
-157.8070773259996
 30
0.0
 10
71.50984698733087
 20
-157.8070773259996
 30
0.0
 10
71.50984698733087
 20
-157.8070773259996
 30
0.0
 10
71.50984698733087
 20
-158.4227158892137
 30
0.0
 10
71.50984698733087
 20
-158.4227158892137
 30
0.0
 10
71.50984698733087
 20
-158.4227158892137
 30
0.0
 10
71.93290471291955
 20
-158.4881727034335
 30
0.0
 10
71.93290471291955
 20
-158.4881727034335
 30
0.0
 10
71.89897052238984
 20
-158.426850003796
 30
0.0
 10
71.85883515998668
 20
-158.3445122216986
 30
0.0
 10
71.85883515998668
 20
-158.226000937006
 30
0.0
 10
71.85883515998668
 20
-157.9720973997431
 30
0.0
 10
72.04504257096444
 20
-157.7350748303579
 30
0.0
 10
72.35802949579938
 20
-157.7350748303579
 30
0.0
 10
72.67549504476516
 20
-157.7350748303579
 30
0.0
 10
72.91027830208493
 20
-157.9593505464476
 30
0.0
 10
72.91027830208493
 20
-158.2618299300526
 30
0.0
  0
HATCH
  5
B3
330
AC
100
AcDbEntity
  8
レイヤー 1
 62
   250
420
  2299925
440
 33554687
100
AcDbHatch
 10
0.0
 20
0.0
 30
0.0
210
0.0
220
0.0
230
1.0
  2
SOLID
 70
     1
 71
     1
 91
        1
 92
        1
 93
        1
 72
     4
 94
        3
 73
     0
 74
     0
 95
       53
 96
       49
 40
0.0
 40
0.0
 40
0.0
 40
0.0
 40
1.0
 40
1.0
 40
1.0
 40
2.0
 40
2.0
 40
2.0
 40
3.0
 40
3.0
 40
3.0
 40
4.0
 40
4.0
 40
4.0
 40
5.0
 40
5.0
 40
5.0
 40
6.0
 40
6.0
 40
6.0
 40
7.0
 40
7.0
 40
7.0
 40
8.0
 40
8.0
 40
8.0
 40
9.0
 40
9.0
 40
9.0
 40
10.0
 40
10.0
 40
10.0
 40
11.0
 40
11.0
 40
11.0
 40
12.0
 40
12.0
 40
12.0
 40
13.0
 40
13.0
 40
13.0
 40
14.0
 40
14.0
 40
14.0
 40
15.0
 40
15.0
 40
15.0
 40
16.0
 40
16.0
 40
16.0
 40
16.0
 10
72.91027830208493
 20
-158.2618299300526
 10
72.91027830208493
 20
-158.3400335975678
 10
72.89322507943295
 20
-158.4416639143826
 10
72.82983532250435
 20
-158.5432942311975
 10
72.71976452175062
 20
-158.7165825341056
 10
72.58867863853686
 20
-158.7379421261141
 10
72.48084714984854
 20
-158.756890151283
 10
72.48084714984854
 20
-158.756890151283
 10
72.48084714984854
 20
-158.5346814924844
 10
72.48084714984854
 20
-158.5346814924844
 10
72.67962915934745
 20
-158.4799044742689
 10
72.7092569805206
 20
-158.3527804508632
 10
72.7092569805206
 20
-158.2597628727614
 10
72.7092569805206
 20
-158.1202365056088
 10
72.60986597577114
 20
-157.9679632851608
 10
72.37714977574253
 20
-157.9679632851608
 10
72.12117918118845
 20
-157.9679632851608
 10
72.05141599761216
 20
-158.1477972694908
 10
72.05141599761216
 20
-158.2683756114746
 10
72.05141599761216
 20
-158.3000704899388
 10
72.05141599761216
 20
-158.4416639143826
 10
72.18043482353476
 20
-158.5305473779021
 10
72.18043482353476
 20
-158.5305473779021
 10
72.16131454359161
 20
-158.7062472476498
 10
72.16131454359161
 20
-158.7062472476498
 10
72.16131454359161
 20
-158.7062472476498
 10
71.31519909241426
 20
-158.5856689056661
 10
71.31519909241426
 20
-158.5856689056661
 10
71.31519909241426
 20
-158.5856689056661
 10
71.31519909241426
 20
-157.8070773259996
 10
71.31519909241426
 20
-157.8070773259996
 10
71.31519909241426
 20
-157.8070773259996
 10
71.50984698733087
 20
-157.8070773259996
 10
71.50984698733087
 20
-157.8070773259996
 10
71.50984698733087
 20
-157.8070773259996
 10
71.50984698733087
 20
-158.4227158892137
 10
71.50984698733087
 20
-158.4227158892137
 10
71.50984698733087
 20
-158.4227158892137
 10
71.93290471291955
 20
-158.4881727034335
 10
71.93290471291955
 20
-158.4881727034335
 10
71.89897052238984
 20
-158.426850003796
 10
71.85883515998668
 20
-158.3445122216986
 10
71.85883515998668
 20
-158.226000937006
 10
71.85883515998668
 20
-157.9720973997431
 10
72.04504257096444
 20
-157.7350748303579
 10
72.35802949579938
 20
-157.7350748303579
 10
72.67549504476516
 20
-157.7350748303579
 10
72.91027830208493
 20
-157.9593505464476
 10
72.91027830208493
 20
-158.2618299300526
 97
        0
 97
        1
330
B2
 75
     2
 76
     1
 98
        1
 10
0.0
 20
0.0
450
        0
451
        0
460
0.0
461
0.0
452
        0
462
0.0
453
        0
470

  0
ENDBLK
  5
AF
330
AC
100
AcDbEntity
  8
0
100
AcDbBlockEnd
  0
BLOCK
  5
BA
330
B8
100
AcDbEntity
  8
0
100
AcDbBlockBegin
  2
Block_6
 70
     0
 10
0.0
 20
0.0
 30
0.0
  3
Block_6
  1

  0
INSERT
  5
BD
330
B8
100
AcDbEntity
  8
レイヤー 1
100
AcDbBlockReference
  2
Block_7
 10
0.0
 20
0.0
 30
0.0
  0
ENDBLK
  5
BB
330
B8
100
AcDbEntity
  8
0
100
AcDbBlockEnd
  0
BLOCK
  5
BE
330
BC
100
AcDbEntity
  8
0
100
AcDbBlockBegin
  2
Block_7
 70
     0
 10
0.0
 20
0.0
 30
0.0
  3
Block_7
  1

  0
SPLINE
  5
C0
330
BC
100
AcDbEntity
  8
レイヤー 1
100
AcDbSpline
210
0.0
220
0.0
230
1.0
 70
     9
 71
     3
 72
    41
 73
    37
 74
     0
 42
0.0000000001
 43
0.0000000001
 40
0.0
 40
0.0
 40
0.0
 40
0.0
 40
1.0
 40
1.0
 40
1.0
 40
2.0
 40
2.0
 40
2.0
 40
3.0
 40
3.0
 40
3.0
 40
4.0
 40
4.0
 40
4.0
 40
5.0
 40
5.0
 40
5.0
 40
6.0
 40
6.0
 40
6.0
 40
7.0
 40
7.0
 40
7.0
 40
8.0
 40
8.0
 40
8.0
 40
9.0
 40
9.0
 40
9.0
 40
10.0
 40
10.0
 40
10.0
 40
11.0
 40
11.0
 40
11.0
 40
12.0
 40
12.0
 40
12.0
 40
12.0
 10
86.84913463540578
 20
-148.9824652405322
 30
0.0
 10
86.60797795143828
 20
-148.8470729879618
 30
0.0
 10
86.4302110243994
 20
-148.5511392857789
 30
0.0
 10
86.39007566199623
 20
-148.421948205082
 30
0.0
 10
86.26949732001248
 20
-148.6865315383492
 30
0.0
 10
86.10654430356017
 20
-148.8642984653881
 30
0.0
 10
85.92464326193898
 20
-148.9783311259498
 30
0.0
 10
85.92464326193898
 20
-148.9783311259498
 30
0.0
 10
85.72792830973121
 20
-148.8408718160884
 30
0.0
 10
85.72792830973121
 20
-148.8408718160884
 30
0.0
 10
85.79769149330752
 20
-148.8153781094975
 30
0.0
 10
85.94376354188211
 20
-148.7540554098601
 30
0.0
 10
86.06640894115701
 20
-148.5997151321209
 30
0.0
 10
86.19112139772305
 20
-148.4433077970905
 30
0.0
 10
86.2800048612425
 20
-148.2104193422877
 30
0.0
 10
86.2800048612425
 20
-147.9503146331513
 30
0.0
 10
86.2800048612425
 20
-147.8486843163364
 30
0.0
 10
86.26743026272135
 20
-147.7766818206947
 30
0.0
 10
86.25675046671707
 20
-147.7301730316438
 30
0.0
 10
86.25675046671707
 20
-147.7301730316438
 30
0.0
 10
86.46190590286369
 20
-147.7515326236524
 30
0.0
 10
86.46190590286369
 20
-147.7515326236524
 30
0.0
 10
86.48309324009799
 20
-147.7535996809435
 30
0.0
 10
86.50428057733227
 20
-147.7556667382347
 30
0.0
 10
86.50428057733227
 20
-147.7766818206947
 30
0.0
 10
86.50428057733227
 20
-147.7959743554121
 30
0.0
 10
86.49377303610226
 20
-147.8042425845767
 30
0.0
 10
86.45983884557255
 20
-147.8256021765853
 30
0.0
 10
86.45139836163368
 20
-148.0264512433753
 30
0.0
 10
86.50858694668881
 20
-148.269674984634
 30
0.0
 10
86.56990964632628
 20
-148.3902533266177
 30
0.0
 10
86.66086016713688
 20
-148.5659531963654
 30
0.0
 10
86.85550806205348
 20
-148.7457871806955
 30
0.0
 10
86.99090031462381
 20
-148.8026312562021
 30
0.0
 10
86.99090031462381
 20
-148.8026312562021
 30
0.0
 10
86.84913463540578
 20
-148.9824652405322
 30
0.0
 10
86.84913463540578
 20
-148.9824652405322
 30
0.0
  0
SPLINE
  5
C1
330
BC
100
AcDbEntity
  8
レイヤー 1
100
AcDbSpline
210
0.0
220
0.0
230
1.0
 70
    11
 71
     3
 72
    17
 73
    13
 74
     0
 42
0.0000000001
 43
0.0000000001
 40
0.0
 40
0.0
 40
0.0
 40
0.0
 40
1.0
 40
1.0
 40
1.0
 40
2.0
 40
2.0
 40
2.0
 40
3.0
 40
3.0
 40
3.0
 40
4.0
 40
4.0
 40
4.0
 40
4.0
 10
85.75962318819552
 20
-148.0243841860842
 30
0.0
 10
85.75962318819552
 20
-148.0243841860842
 30
0.0
 10
85.59890948380861
 20
-148.0243841860842
 30
0.0
 10
85.59890948380861
 20
-148.0243841860842
 30
0.0
 10
85.59890948380861
 20
-148.0243841860842
 30
0.0
 10
85.59890948380861
 20
-148.1532307572325
 30
0.0
 10
85.59890948380861
 20
-148.1532307572325
 30
0.0
 10
85.59890948380861
 20
-148.1532307572325
 30
0.0
 10
85.75962318819552
 20
-148.1532307572325
 30
0.0
 10
85.75962318819552
 20
-148.1532307572325
 30
0.0
 10
85.75962318819552
 20
-148.1532307572325
 30
0.0
 10
85.75962318819552
 20
-148.0243841860842
 30
0.0
 10
85.75962318819552
 20
-148.0243841860842
 30
0.0
  0
SPLINE
  5
C2
330
BC
100
AcDbEntity
  8
レイヤー 1
100
AcDbSpline
210
0.0
220
0.0
230
1.0
 70
    11
 71
     3
 72
    17
 73
    13
 74
     0
 42
0.0000000001
 43
0.0000000001
 40
0.0
 40
0.0
 40
0.0
 40
0.0
 40
1.0
 40
1.0
 40
1.0
 40
2.0
 40
2.0
 40
2.0
 40
3.0
 40
3.0
 40
3.0
 40
4.0
 40
4.0
 40
4.0
 40
4.0
 10
85.75962318819552
 20
-147.7515326236524
 30
0.0
 10
85.75962318819552
 20
-147.7515326236524
 30
0.0
 10
85.59890948380861
 20
-147.7515326236524
 30
0.0
 10
85.59890948380861
 20
-147.7515326236524
 30
0.0
 10
85.59890948380861
 20
-147.7515326236524
 30
0.0
 10
85.59890948380861
 20
-147.8803791948007
 30
0.0
 10
85.59890948380861
 20
-147.8803791948007
 30
0.0
 10
85.59890948380861
 20
-147.8803791948007
 30
0.0
 10
85.75962318819552
 20
-147.8803791948007
 30
0.0
 10
85.75962318819552
 20
-147.8803791948007
 30
0.0
 10
85.75962318819552
 20
-147.8803791948007
 30
0.0
 10
85.75962318819552
 20
-147.7515326236524
 30
0.0
 10
85.75962318819552
 20
-147.7515326236524
 30
0.0
  0
SPLINE
  5
C3
330
BC
100
AcDbEntity
  8
レイヤー 1
100
AcDbSpline
210
0.0
220
0.0
230
1.0
 70
    11
 71
     3
 72
    17
 73
    13
 74
     0
 42
0.0000000001
 43
0.0000000001
 40
0.0
 40
0.0
 40
0.0
 40
0.0
 40
1.0
 40
1.0
 40
1.0
 40
2.0
 40
2.0
 40
2.0
 40
3.0
 40
3.0
 40
3.0
 40
4.0
 40
4.0
 40
4.0
 40
4.0
 10
85.42751598341743
 20
-148.0243841860842
 30
0.0
 10
85.42751598341743
 20
-148.0243841860842
 30
0.0
 10
85.26886933632168
 20
-148.0243841860842
 30
0.0
 10
85.26886933632168
 20
-148.0243841860842
 30
0.0
 10
85.26886933632168
 20
-148.0243841860842
 30
0.0
 10
85.26886933632168
 20
-148.1532307572325
 30
0.0
 10
85.26886933632168
 20
-148.1532307572325
 30
0.0
 10
85.26886933632168
 20
-148.1532307572325
 30
0.0
 10
85.42751598341743
 20
-148.1532307572325
 30
0.0
 10
85.42751598341743
 20
-148.1532307572325
 30
0.0
 10
85.42751598341743
 20
-148.1532307572325
 30
0.0
 10
85.42751598341743
 20
-148.0243841860842
 30
0.0
 10
85.42751598341743
 20
-148.0243841860842
 30
0.0
  0
SPLINE
  5
C4
330
BC
100
AcDbEntity
  8
レイヤー 1
100
AcDbSpline
210
0.0
220
0.0
230
1.0
 70
    11
 71
     3
 72
    17
 73
    13
 74
     0
 42
0.0000000001
 43
0.0000000001
 40
0.0
 40
0.0
 40
0.0
 40
0.0
 40
1.0
 40
1.0
 40
1.0
 40
2.0
 40
2.0
 40
2.0
 40
3.0
 40
3.0
 40
3.0
 40
4.0
 40
4.0
 40
4.0
 40
4.0
 10
85.42751598341743
 20
-147.7515326236524
 30
0.0
 10
85.42751598341743
 20
-147.7515326236524
 30
0.0
 10
85.26886933632168
 20
-147.7515326236524
 30
0.0
 10
85.26886933632168
 20
-147.7515326236524
 30
0.0
 10
85.26886933632168
 20
-147.7515326236524
 30
0.0
 10
85.26886933632168
 20
-147.8803791948007
 30
0.0
 10
85.26886933632168
 20
-147.8803791948007
 30
0.0
 10
85.26886933632168
 20
-147.8803791948007
 30
0.0
 10
85.42751598341743
 20
-147.8803791948007
 30
0.0
 10
85.42751598341743
 20
-147.8803791948007
 30
0.0
 10
85.42751598341743
 20
-147.8803791948007
 30
0.0
 10
85.42751598341743
 20
-147.7515326236524
 30
0.0
 10
85.42751598341743
 20
-147.7515326236524
 30
0.0
  0
SPLINE
  5
C5
330
BC
100
AcDbEntity
  8
レイヤー 1
100
AcDbSpline
210
0.0
220
0.0
230
1.0
 70
     9
 71
     3
 72
   197
 73
   193
 74
     0
 42
0.0000000001
 43
0.0000000001
 40
0.0
 40
0.0
 40
0.0
 40
0.0
 40
1.0
 40
1.0
 40
1.0
 40
2.0
 40
2.0
 40
2.0
 40
3.0
 40
3.0
 40
3.0
 40
4.0
 40
4.0
 40
4.0
 40
5.0
 40
5.0
 40
5.0
 40
6.0
 40
6.0
 40
6.0
 40
7.0
 40
7.0
 40
7.0
 40
8.0
 40
8.0
 40
8.0
 40
9.0
 40
9.0
 40
9.0
 40
10.0
 40
10.0
 40
10.0
 40
11.0
 40
11.0
 40
11.0
 40
12.0
 40
12.0
 40
12.0
 40
13.0
 40
13.0
 40
13.0
 40
14.0
 40
14.0
 40
14.0
 40
15.0
 40
15.0
 40
15.0
 40
16.0
 40
16.0
 40
16.0
 40
17.0
 40
17.0
 40
17.0
 40
18.0
 40
18.0
 40
18.0
 40
19.0
 40
19.0
 40
19.0
 40
20.0
 40
20.0
 40
20.0
 40
21.0
 40
21.0
 40
21.0
 40
22.0
 40
22.0
 40
22.0
 40
23.0
 40
23.0
 40
23.0
 40
24.0
 40
24.0
 40
24.0
 40
25.0
 40
25.0
 40
25.0
 40
26.0
 40
26.0
 40
26.0
 40
27.0
 40
27.0
 40
27.0
 40
28.0
 40
28.0
 40
28.0
 40
29.0
 40
29.0
 40
29.0
 40
30.0
 40
30.0
 40
30.0
 40
31.0
 40
31.0
 40
31.0
 40
32.0
 40
32.0
 40
32.0
 40
33.0
 40
33.0
 40
33.0
 40
34.0
 40
34.0
 40
34.0
 40
35.0
 40
35.0
 40
35.0
 40
36.0
 40
36.0
 40
36.0
 40
37.0
 40
37.0
 40
37.0
 40
38.0
 40
38.0
 40
38.0
 40
39.0
 40
39.0
 40
39.0
 40
40.0
 40
40.0
 40
40.0
 40
41.0
 40
41.0
 40
41.0
 40
42.0
 40
42.0
 40
42.0
 40
43.0
 40
43.0
 40
43.0
 40
44.0
 40
44.0
 40
44.0
 40
45.0
 40
45.0
 40
45.0
 40
46.0
 40
46.0
 40
46.0
 40
47.0
 40
47.0
 40
47.0
 40
48.0
 40
48.0
 40
48.0
 40
49.0
 40
49.0
 40
49.0
 40
50.0
 40
50.0
 40
50.0
 40
51.0
 40
51.0
 40
51.0
 40
52.0
 40
52.0
 40
52.0
 40
53.0
 40
53.0
 40
53.0
 40
54.0
 40
54.0
 40
54.0
 40
55.0
 40
55.0
 40
55.0
 40
56.0
 40
56.0
 40
56.0
 40
57.0
 40
57.0
 40
57.0
 40
58.0
 40
58.0
 40
58.0
 40
59.0
 40
59.0
 40
59.0
 40
60.0
 40
60.0
 40
60.0
 40
61.0
 40
61.0
 40
61.0
 40
62.0
 40
62.0
 40
62.0
 40
63.0
 40
63.0
 40
63.0
 40
64.0
 40
64.0
 40
64.0
 40
64.0
 10
86.93371172956865
 20
-147.6264756575378
 30
0.0
 10
86.92320418833864
 20
-147.656103478711
 30
0.0
 10
86.89994979381321
 20
-147.7026122677618
 30
0.0
 10
86.88926999780894
 20
-147.7301730316438
 30
0.0
 10
86.88926999780894
 20
-147.7301730316438
 30
0.0
 10
86.8279472981715
 20
-147.8824462520918
 30
0.0
 10
86.8279472981715
 20
-147.8824462520918
 30
0.0
 10
86.81743975694148
 20
-147.9079399586827
 30
0.0
 10
86.7686916558252
 20
-148.0199055619533
 30
0.0
 10
86.75611705730402
 20
-148.043332211253
 30
0.0
 10
86.7538777452386
 20
-148.0495333831265
 30
0.0
 10
86.74974363065631
 20
-148.0581461218396
 30
0.0
 10
86.7475043185909
 20
-148.0643472937131
 30
0.0
 10
86.7475043185909
 20
-148.0643472937131
 30
0.0
 10
86.53821476786196
 20
-148.0116373327887
 30
0.0
 10
86.53821476786196
 20
-148.0116373327887
 30
0.0
 10
86.61641843537715
 20
-147.9017387868093
 30
0.0
 10
86.6777411350146
 20
-147.766346534239
 30
0.0
 10
86.70943601347889
 20
-147.656103478711
 30
0.0
 10
86.70943601347889
 20
-147.656103478711
 30
0.0
 10
86.24417586819591
 20
-147.656103478711
 30
0.0
 10
86.24417586819591
 20
-147.656103478711
 30
0.0
 10
86.16373288861531
 20
-147.8211235524544
 30
0.0
 10
86.09603676233016
 20
-147.8993272199696
 30
0.0
 10
86.06210257180045
 20
-147.939634837147
 30
0.0
 10
86.06210257180045
 20
-147.939634837147
 30
0.0
 10
85.93945717252555
 20
-147.8741780229273
 30
0.0
 10
85.93945717252555
 20
-147.8741780229273
 30
0.0
 10
85.93945717252555
 20
-147.8741780229273
 30
0.0
 10
85.93945717252555
 20
-148.0453992685442
 30
0.0
 10
85.93945717252555
 20
-148.0453992685442
 30
0.0
 10
85.93945717252555
 20
-148.1532307572325
 30
0.0
 10
85.9415242298167
 20
-148.2021511131231
 30
0.0
 10
85.95220402582098
 20
-148.3079155445202
 30
0.0
 10
85.88020153017927
 20
-148.3055039776806
 30
0.0
 10
85.85901419294497
 20
-148.3055039776806
 30
0.0
 10
85.65385875679835
 20
-148.3055039776806
 30
0.0
 10
85.65385875679835
 20
-148.3055039776806
 30
0.0
 10
85.59890948380861
 20
-148.3055039776806
 30
0.0
 10
85.59890948380861
 20
-148.3055039776806
 30
0.0
 10
85.59890948380861
 20
-148.3055039776806
 30
0.0
 10
85.59890948380861
 20
-148.4408962302509
 30
0.0
 10
85.59890948380861
 20
-148.4408962302509
 30
0.0
 10
85.59890948380861
 20
-148.4408962302509
 30
0.0
 10
85.67073972467607
 20
-148.4408962302509
 30
0.0
 10
85.67073972467607
 20
-148.4408962302509
 30
0.0
 10
85.73636879367008
 20
-148.4408962302509
 30
0.0
 10
85.8822685874704
 20
-148.4367621156686
 30
0.0
 10
85.98820527364184
 20
-148.428493886504
 30
0.0
 10
85.98820527364184
 20
-148.428493886504
 30
0.0
 10
85.98820527364184
 20
-148.6059163039943
 30
0.0
 10
85.98820527364184
 20
-148.6059163039943
 30
0.0
 10
85.89088132618353
 20
-148.5997151321209
 30
0.0
 10
85.73206242431352
 20
-148.5955810175386
 30
0.0
 10
85.67073972467607
 20
-148.5955810175386
 30
0.0
 10
85.67073972467607
 20
-148.5955810175386
 30
0.0
 10
85.59890948380861
 20
-148.5955810175386
 30
0.0
 10
85.59890948380861
 20
-148.5955810175386
 30
0.0
 10
85.60097654109975
 20
-148.684464481058
 30
0.0
 10
85.60528291045633
 20
-148.9232095981859
 30
0.0
 10
85.60734996774746
 20
-148.9972791511187
 30
0.0
 10
85.60734996774746
 20
-148.9972791511187
 30
0.0
 10
85.40632864618315
 20
-148.9972791511187
 30
0.0
 10
85.40632864618315
 20
-148.9972791511187
 30
0.0
 10
85.41907549947856
 20
-148.7836832310332
 30
0.0
 10
85.41907549947856
 20
-148.7540554098601
 30
0.0
 10
85.42320961406087
 20
-148.5955810175386
 30
0.0
 10
85.42320961406087
 20
-148.5955810175386
 30
0.0
 10
85.35344643048455
 20
-148.5955810175386
 30
0.0
 10
85.35344643048455
 20
-148.5955810175386
 30
0.0
 10
85.29643010020368
 20
-148.5955810175386
 30
0.0
 10
85.14398462498137
 20
-148.5997151321209
 30
0.0
 10
85.03408607900189
 20
-148.6059163039943
 30
0.0
 10
85.03408607900189
 20
-148.6059163039943
 30
0.0
 10
85.03408607900189
 20
-148.428493886504
 30
0.0
 10
85.03408607900189
 20
-148.428493886504
 30
0.0
 10
85.13985051039908
 20
-148.4367621156686
 30
0.0
 10
85.28368324690825
 20
-148.4408962302509
 30
0.0
 10
85.35344643048455
 20
-148.4408962302509
 30
0.0
 10
85.35344643048455
 20
-148.4408962302509
 30
0.0
 10
85.42751598341743
 20
-148.4408962302509
 30
0.0
 10
85.42751598341743
 20
-148.4408962302509
 30
0.0
 10
85.42751598341743
 20
-148.4408962302509
 30
0.0
 10
85.42751598341743
 20
-148.3055039776806
 30
0.0
 10
85.42751598341743
 20
-148.3055039776806
 30
0.0
 10
85.42751598341743
 20
-148.3055039776806
 30
0.0
 10
85.3830742516577
 20
-148.3055039776806
 30
0.0
 10
85.3830742516577
 20
-148.3055039776806
 30
0.0
 10
85.3069376414337
 20
-148.3055039776806
 30
0.0
 10
85.11435680380822
 20
-148.3079155445202
 30
0.0
 10
85.08059486805278
 20
-148.3079155445202
 30
0.0
 10
85.08696829470048
 20
-148.2359130488785
 30
0.0
 10
85.09540877863935
 20
-148.1552978145237
 30
0.0
 10
85.09540877863935
 20
-148.0347194725399
 30
0.0
 10
85.09540877863935
 20
-148.0347194725399
 30
0.0
 10
85.09540877863935
 20
-147.8614311696319
 30
0.0
 10
85.09540877863935
 20
-147.8614311696319
 30
0.0
 10
85.09540877863935
 20
-147.7894286739901
 30
0.0
 10
85.08696829470048
 20
-147.6688503320064
 30
0.0
 10
85.08059486805278
 20
-147.5885796072001
 30
0.0
 10
85.15879853556794
 20
-147.5927137217824
 30
0.0
 10
85.19686684067997
 20
-147.5947807790735
 30
0.0
 10
85.32381860931142
 20
-147.5947807790735
 30
0.0
 10
85.32381860931142
 20
-147.5947807790735
 30
0.0
 10
85.42751598341743
 20
-147.5947807790735
 30
0.0
 10
85.42751598341743
 20
-147.5947807790735
 30
0.0
 10
85.42751598341743
 20
-147.5947807790735
 30
0.0
 10
85.42751598341743
 20
-147.4487087304989
 30
0.0
 10
85.42751598341743
 20
-147.4487087304989
 30
0.0
 10
85.42751598341743
 20
-147.4487087304989
 30
0.0
 10
85.34931231590226
 20
-147.4487087304989
 30
0.0
 10
85.34931231590226
 20
-147.4487087304989
 30
0.0
 10
85.29419078813827
 20
-147.4487087304989
 30
0.0
 10
85.12279728774707
 20
-147.4531873546297
 30
0.0
 10
85.0382201935842
 20
-147.4593885265032
 30
0.0
 10
85.0382201935842
 20
-147.4593885265032
 30
0.0
 10
85.0382201935842
 20
-147.2816215994643
 30
0.0
 10
85.0382201935842
 20
-147.2816215994643
 30
0.0
 10
85.12073023045592
 20
-147.2881672808863
 30
0.0
 10
85.28368324690825
 20
-147.2923013954686
 30
0.0
 10
85.34931231590226
 20
-147.2923013954686
 30
0.0
 10
85.34931231590226
 20
-147.2923013954686
 30
0.0
 10
85.42751598341743
 20
-147.2923013954686
 30
0.0
 10
85.42751598341743
 20
-147.2923013954686
 30
0.0
 10
85.42751598341743
 20
-147.2585394597131
 30
0.0
 10
85.42320961406087
 20
-147.1041991819739
 30
0.0
 10
85.42320961406087
 20
-147.0721597939611
 30
0.0
 10
85.42320961406087
 20
-147.0721597939611
 30
0.0
 10
85.62009682104289
 20
-147.0893852713874
 30
0.0
 10
85.62009682104289
 20
-147.0893852713874
 30
0.0
 10
85.63697778892061
 20
-147.0914523286785
 30
0.0
 10
85.65816512615491
 20
-147.0935193859697
 30
0.0
 10
85.65816512615491
 20
-147.1145344684297
 30
0.0
 10
85.65816512615491
 20
-147.1379611177294
 30
0.0
 10
85.63697778892061
 20
-147.146229346894
 30
0.0
 10
85.60941702503862
 20
-147.1589762001894
 30
0.0
 10
85.60941702503862
 20
-147.180335792198
 30
0.0
 10
85.60734996774746
 20
-147.2754204275909
 30
0.0
 10
85.60734996774746
 20
-147.2923013954686
 30
0.0
 10
85.60734996774746
 20
-147.2923013954686
 30
0.0
 10
85.66660561009376
 20
-147.2923013954686
 30
0.0
 10
85.66660561009376
 20
-147.2923013954686
 30
0.0
 10
85.73430173637893
 20
-147.2923013954686
 30
0.0
 10
85.87813447288811
 20
-147.2881672808863
 30
0.0
 10
85.98389890428528
 20
-147.2816215994643
 30
0.0
 10
85.98389890428528
 20
-147.2816215994643
 30
0.0
 10
85.98389890428528
 20
-147.4593885265032
 30
0.0
 10
85.98389890428528
 20
-147.4593885265032
 30
0.0
 10
85.88657495682697
 20
-147.4531873546297
 30
0.0
 10
85.72999536702237
 20
-147.4487087304989
 30
0.0
 10
85.66660561009376
 20
-147.4487087304989
 30
0.0
 10
85.66660561009376
 20
-147.4487087304989
 30
0.0
 10
85.59890948380861
 20
-147.4487087304989
 30
0.0
 10
85.59890948380861
 20
-147.4487087304989
 30
0.0
 10
85.59890948380861
 20
-147.4487087304989
 30
0.0
 10
85.59890948380861
 20
-147.5947807790735
 30
0.0
 10
85.59890948380861
 20
-147.5947807790735
 30
0.0
 10
85.59890948380861
 20
-147.5947807790735
 30
0.0
 10
85.66867266738492
 20
-147.5947807790735
 30
0.0
 10
85.66867266738492
 20
-147.5947807790735
 30
0.0
 10
85.8188788305418
 20
-147.5947807790735
 30
0.0
 10
85.89088132618353
 20
-147.5906466644912
 30
0.0
 10
85.95220402582098
 20
-147.5885796072001
 30
0.0
 10
85.94376354188211
 20
-147.683664242593
 30
0.0
 10
85.9415242298167
 20
-147.7618679101081
 30
0.0
 10
85.93945717252555
 20
-147.8001084699944
 30
0.0
 10
86.09396970503901
 20
-147.5885796072001
 30
0.0
 10
86.19973413643618
 20
-147.3408772418106
 30
0.0
 10
86.2166151043139
 20
-147.0787054753831
 30
0.0
 10
86.2166151043139
 20
-147.0787054753831
 30
0.0
 10
86.43245033646481
 20
-147.1293483790162
 30
0.0
 10
86.43245033646481
 20
-147.1293483790162
 30
0.0
 10
86.44726424705138
 20
-147.1338270031471
 30
0.0
 10
86.46190590286369
 20
-147.1400281750205
 30
0.0
 10
86.46190590286369
 20
-147.1569091428983
 30
0.0
 10
86.46190590286369
 20
-147.173790110776
 30
0.0
 10
86.45777178828138
 20
-147.1758571680671
 30
0.0
 10
86.40695662987395
 20
-147.1972167600757
 30
0.0
 10
86.39007566199623
 20
-147.2733533702997
 30
0.0
 10
86.36475421017966
 20
-147.3643038911103
 30
0.0
 10
86.31600610906337
 20
-147.4910834049675
 30
0.0
 10
86.31600610906337
 20
-147.4910834049675
 30
0.0
 10
86.65448674048915
 20
-147.4910834049675
 30
0.0
 10
86.65448674048915
 20
-147.4910834049675
 30
0.0
 10
86.69255504560117
 20
-147.4910834049675
 30
0.0
 10
86.82157387152377
 20
-147.4869492903852
 30
0.0
 10
86.87032197264006
 20
-147.4807481185117
 30
0.0
 10
86.87032197264006
 20
-147.4807481185117
 30
0.0
 10
86.9633395507418
 20
-147.5503390473138
 30
0.0
 10
86.9633395507418
 20
-147.5503390473138
 30
0.0
 10
86.95489906680295
 20
-147.5716986393223
 30
0.0
 10
86.94852564015524
 20
-147.5906466644912
 30
0.0
 10
86.93371172956865
 20
-147.6264756575378
 30
0.0
  0
HATCH
  5
C6
330
BC
100
AcDbEntity
  8
レイヤー 1
 62
   250
420
  2299925
440
 33554687
100
AcDbHatch
 10
0.0
 20
0.0
 30
0.0
210
0.0
220
0.0
230
1.0
  2
SOLID
 70
     1
 71
     1
 91
        6
 92
        1
 93
        1
 72
     4
 94
        3
 73
     0
 74
     0
 95
       41
 96
       37
 40
0.0
 40
0.0
 40
0.0
 40
0.0
 40
1.0
 40
1.0
 40
1.0
 40
2.0
 40
2.0
 40
2.0
 40
3.0
 40
3.0
 40
3.0
 40
4.0
 40
4.0
 40
4.0
 40
5.0
 40
5.0
 40
5.0
 40
6.0
 40
6.0
 40
6.0
 40
7.0
 40
7.0
 40
7.0
 40
8.0
 40
8.0
 40
8.0
 40
9.0
 40
9.0
 40
9.0
 40
10.0
 40
10.0
 40
10.0
 40
11.0
 40
11.0
 40
11.0
 40
12.0
 40
12.0
 40
12.0
 40
12.0
 10
86.84913463540578
 20
-148.9824652405322
 10
86.60797795143828
 20
-148.8470729879618
 10
86.4302110243994
 20
-148.5511392857789
 10
86.39007566199623
 20
-148.421948205082
 10
86.26949732001248
 20
-148.6865315383492
 10
86.10654430356017
 20
-148.8642984653881
 10
85.92464326193898
 20
-148.9783311259498
 10
85.92464326193898
 20
-148.9783311259498
 10
85.72792830973121
 20
-148.8408718160884
 10
85.72792830973121
 20
-148.8408718160884
 10
85.79769149330752
 20
-148.8153781094975
 10
85.94376354188211
 20
-148.7540554098601
 10
86.06640894115701
 20
-148.5997151321209
 10
86.19112139772305
 20
-148.4433077970905
 10
86.2800048612425
 20
-148.2104193422877
 10
86.2800048612425
 20
-147.9503146331513
 10
86.2800048612425
 20
-147.8486843163364
 10
86.26743026272135
 20
-147.7766818206947
 10
86.25675046671707
 20
-147.7301730316438
 10
86.25675046671707
 20
-147.7301730316438
 10
86.46190590286369
 20
-147.7515326236524
 10
86.46190590286369
 20
-147.7515326236524
 10
86.48309324009799
 20
-147.7535996809435
 10
86.50428057733227
 20
-147.7556667382347
 10
86.50428057733227
 20
-147.7766818206947
 10
86.50428057733227
 20
-147.7959743554121
 10
86.49377303610226
 20
-147.8042425845767
 10
86.45983884557255
 20
-147.8256021765853
 10
86.45139836163368
 20
-148.0264512433753
 10
86.50858694668881
 20
-148.269674984634
 10
86.56990964632628
 20
-148.3902533266177
 10
86.66086016713688
 20
-148.5659531963654
 10
86.85550806205348
 20
-148.7457871806955
 10
86.99090031462381
 20
-148.8026312562021
 10
86.99090031462381
 20
-148.8026312562021
 10
86.84913463540578
 20
-148.9824652405322
 10
86.84913463540578
 20
-148.9824652405322
 97
        0
 97
        1
330
C0
 92
        1
 93
        1
 72
     4
 94
        3
 73
     0
 74
     0
 95
       17
 96
       13
 40
0.0
 40
0.0
 40
0.0
 40
0.0
 40
1.0
 40
1.0
 40
1.0
 40
2.0
 40
2.0
 40
2.0
 40
3.0
 40
3.0
 40
3.0
 40
4.0
 40
4.0
 40
4.0
 40
4.0
 10
85.75962318819552
 20
-148.0243841860842
 10
85.75962318819552
 20
-148.0243841860842
 10
85.59890948380861
 20
-148.0243841860842
 10
85.59890948380861
 20
-148.0243841860842
 10
85.59890948380861
 20
-148.0243841860842
 10
85.59890948380861
 20
-148.1532307572325
 10
85.59890948380861
 20
-148.1532307572325
 10
85.59890948380861
 20
-148.1532307572325
 10
85.75962318819552
 20
-148.1532307572325
 10
85.75962318819552
 20
-148.1532307572325
 10
85.75962318819552
 20
-148.1532307572325
 10
85.75962318819552
 20
-148.0243841860842
 10
85.75962318819552
 20
-148.0243841860842
 97
        0
 97
        1
330
C1
 92
        1
 93
        1
 72
     4
 94
        3
 73
     0
 74
     0
 95
       17
 96
       13
 40
0.0
 40
0.0
 40
0.0
 40
0.0
 40
1.0
 40
1.0
 40
1.0
 40
2.0
 40
2.0
 40
2.0
 40
3.0
 40
3.0
 40
3.0
 40
4.0
 40
4.0
 40
4.0
 40
4.0
 10
85.75962318819552
 20
-147.7515326236524
 10
85.75962318819552
 20
-147.7515326236524
 10
85.59890948380861
 20
-147.7515326236524
 10
85.59890948380861
 20
-147.7515326236524
 10
85.59890948380861
 20
-147.7515326236524
 10
85.59890948380861
 20
-147.8803791948007
 10
85.59890948380861
 20
-147.8803791948007
 10
85.59890948380861
 20
-147.8803791948007
 10
85.75962318819552
 20
-147.8803791948007
 10
85.75962318819552
 20
-147.8803791948007
 10
85.75962318819552
 20
-147.8803791948007
 10
85.75962318819552
 20
-147.7515326236524
 10
85.75962318819552
 20
-147.7515326236524
 97
        0
 97
        1
330
C2
 92
        1
 93
        1
 72
     4
 94
        3
 73
     0
 74
     0
 95
       17
 96
       13
 40
0.0
 40
0.0
 40
0.0
 40
0.0
 40
1.0
 40
1.0
 40
1.0
 40
2.0
 40
2.0
 40
2.0
 40
3.0
 40
3.0
 40
3.0
 40
4.0
 40
4.0
 40
4.0
 40
4.0
 10
85.42751598341743
 20
-148.0243841860842
 10
85.42751598341743
 20
-148.0243841860842
 10
85.26886933632168
 20
-148.0243841860842
 10
85.26886933632168
 20
-148.0243841860842
 10
85.26886933632168
 20
-148.0243841860842
 10
85.26886933632168
 20
-148.1532307572325
 10
85.26886933632168
 20
-148.1532307572325
 10
85.26886933632168
 20
-148.1532307572325
 10
85.42751598341743
 20
-148.1532307572325
 10
85.42751598341743
 20
-148.1532307572325
 10
85.42751598341743
 20
-148.1532307572325
 10
85.42751598341743
 20
-148.0243841860842
 10
85.42751598341743
 20
-148.0243841860842
 97
        0
 97
        1
330
C3
 92
        1
 93
        1
 72
     4
 94
        3
 73
     0
 74
     0
 95
       17
 96
       13
 40
0.0
 40
0.0
 40
0.0
 40
0.0
 40
1.0
 40
1.0
 40
1.0
 40
2.0
 40
2.0
 40
2.0
 40
3.0
 40
3.0
 40
3.0
 40
4.0
 40
4.0
 40
4.0
 40
4.0
 10
85.42751598341743
 20
-147.7515326236524
 10
85.42751598341743
 20
-147.7515326236524
 10
85.26886933632168
 20
-147.7515326236524
 10
85.26886933632168
 20
-147.7515326236524
 10
85.26886933632168
 20
-147.7515326236524
 10
85.26886933632168
 20
-147.8803791948007
 10
85.26886933632168
 20
-147.8803791948007
 10
85.26886933632168
 20
-147.8803791948007
 10
85.42751598341743
 20
-147.8803791948007
 10
85.42751598341743
 20
-147.8803791948007
 10
85.42751598341743
 20
-147.8803791948007
 10
85.42751598341743
 20
-147.7515326236524
 10
85.42751598341743
 20
-147.7515326236524
 97
        0
 97
        1
330
C4
 92
        1
 93
        1
 72
     4
 94
        3
 73
     0
 74
     0
 95
      197
 96
      193
 40
0.0
 40
0.0
 40
0.0
 40
0.0
 40
1.0
 40
1.0
 40
1.0
 40
2.0
 40
2.0
 40
2.0
 40
3.0
 40
3.0
 40
3.0
 40
4.0
 40
4.0
 40
4.0
 40
5.0
 40
5.0
 40
5.0
 40
6.0
 40
6.0
 40
6.0
 40
7.0
 40
7.0
 40
7.0
 40
8.0
 40
8.0
 40
8.0
 40
9.0
 40
9.0
 40
9.0
 40
10.0
 40
10.0
 40
10.0
 40
11.0
 40
11.0
 40
11.0
 40
12.0
 40
12.0
 40
12.0
 40
13.0
 40
13.0
 40
13.0
 40
14.0
 40
14.0
 40
14.0
 40
15.0
 40
15.0
 40
15.0
 40
16.0
 40
16.0
 40
16.0
 40
17.0
 40
17.0
 40
17.0
 40
18.0
 40
18.0
 40
18.0
 40
19.0
 40
19.0
 40
19.0
 40
20.0
 40
20.0
 40
20.0
 40
21.0
 40
21.0
 40
21.0
 40
22.0
 40
22.0
 40
22.0
 40
23.0
 40
23.0
 40
23.0
 40
24.0
 40
24.0
 40
24.0
 40
25.0
 40
25.0
 40
25.0
 40
26.0
 40
26.0
 40
26.0
 40
27.0
 40
27.0
 40
27.0
 40
28.0
 40
28.0
 40
28.0
 40
29.0
 40
29.0
 40
29.0
 40
30.0
 40
30.0
 40
30.0
 40
31.0
 40
31.0
 40
31.0
 40
32.0
 40
32.0
 40
32.0
 40
33.0
 40
33.0
 40
33.0
 40
34.0
 40
34.0
 40
34.0
 40
35.0
 40
35.0
 40
35.0
 40
36.0
 40
36.0
 40
36.0
 40
37.0
 40
37.0
 40
37.0
 40
38.0
 40
38.0
 40
38.0
 40
39.0
 40
39.0
 40
39.0
 40
40.0
 40
40.0
 40
40.0
 40
41.0
 40
41.0
 40
41.0
 40
42.0
 40
42.0
 40
42.0
 40
43.0
 40
43.0
 40
43.0
 40
44.0
 40
44.0
 40
44.0
 40
45.0
 40
45.0
 40
45.0
 40
46.0
 40
46.0
 40
46.0
 40
47.0
 40
47.0
 40
47.0
 40
48.0
 40
48.0
 40
48.0
 40
49.0
 40
49.0
 40
49.0
 40
50.0
 40
50.0
 40
50.0
 40
51.0
 40
51.0
 40
51.0
 40
52.0
 40
52.0
 40
52.0
 40
53.0
 40
53.0
 40
53.0
 40
54.0
 40
54.0
 40
54.0
 40
55.0
 40
55.0
 40
55.0
 40
56.0
 40
56.0
 40
56.0
 40
57.0
 40
57.0
 40
57.0
 40
58.0
 40
58.0
 40
58.0
 40
59.0
 40
59.0
 40
59.0
 40
60.0
 40
60.0
 40
60.0
 40
61.0
 40
61.0
 40
61.0
 40
62.0
 40
62.0
 40
62.0
 40
63.0
 40
63.0
 40
63.0
 40
64.0
 40
64.0
 40
64.0
 40
64.0
 10
86.93371172956865
 20
-147.6264756575378
 10
86.92320418833864
 20
-147.656103478711
 10
86.89994979381321
 20
-147.7026122677618
 10
86.88926999780894
 20
-147.7301730316438
 10
86.88926999780894
 20
-147.7301730316438
 10
86.8279472981715
 20
-147.8824462520918
 10
86.8279472981715
 20
-147.8824462520918
 10
86.81743975694148
 20
-147.9079399586827
 10
86.7686916558252
 20
-148.0199055619533
 10
86.75611705730402
 20
-148.043332211253
 10
86.7538777452386
 20
-148.0495333831265
 10
86.74974363065631
 20
-148.0581461218396
 10
86.7475043185909
 20
-148.0643472937131
 10
86.7475043185909
 20
-148.0643472937131
 10
86.53821476786196
 20
-148.0116373327887
 10
86.53821476786196
 20
-148.0116373327887
 10
86.61641843537715
 20
-147.9017387868093
 10
86.6777411350146
 20
-147.766346534239
 10
86.70943601347889
 20
-147.656103478711
 10
86.70943601347889
 20
-147.656103478711
 10
86.24417586819591
 20
-147.656103478711
 10
86.24417586819591
 20
-147.656103478711
 10
86.16373288861531
 20
-147.8211235524544
 10
86.09603676233016
 20
-147.8993272199696
 10
86.06210257180045
 20
-147.939634837147
 10
86.06210257180045
 20
-147.939634837147
 10
85.93945717252555
 20
-147.8741780229273
 10
85.93945717252555
 20
-147.8741780229273
 10
85.93945717252555
 20
-147.8741780229273
 10
85.93945717252555
 20
-148.0453992685442
 10
85.93945717252555
 20
-148.0453992685442
 10
85.93945717252555
 20
-148.1532307572325
 10
85.9415242298167
 20
-148.2021511131231
 10
85.95220402582098
 20
-148.3079155445202
 10
85.88020153017927
 20
-148.3055039776806
 10
85.85901419294497
 20
-148.3055039776806
 10
85.65385875679835
 20
-148.3055039776806
 10
85.65385875679835
 20
-148.3055039776806
 10
85.59890948380861
 20
-148.3055039776806
 10
85.59890948380861
 20
-148.3055039776806
 10
85.59890948380861
 20
-148.3055039776806
 10
85.59890948380861
 20
-148.4408962302509
 10
85.59890948380861
 20
-148.4408962302509
 10
85.59890948380861
 20
-148.4408962302509
 10
85.67073972467607
 20
-148.4408962302509
 10
85.67073972467607
 20
-148.4408962302509
 10
85.73636879367008
 20
-148.4408962302509
 10
85.8822685874704
 20
-148.4367621156686
 10
85.98820527364184
 20
-148.428493886504
 10
85.98820527364184
 20
-148.428493886504
 10
85.98820527364184
 20
-148.6059163039943
 10
85.98820527364184
 20
-148.6059163039943
 10
85.89088132618353
 20
-148.5997151321209
 10
85.73206242431352
 20
-148.5955810175386
 10
85.67073972467607
 20
-148.5955810175386
 10
85.67073972467607
 20
-148.5955810175386
 10
85.59890948380861
 20
-148.5955810175386
 10
85.59890948380861
 20
-148.5955810175386
 10
85.60097654109975
 20
-148.684464481058
 10
85.60528291045633
 20
-148.9232095981859
 10
85.60734996774746
 20
-148.9972791511187
 10
85.60734996774746
 20
-148.9972791511187
 10
85.40632864618315
 20
-148.9972791511187
 10
85.40632864618315
 20
-148.9972791511187
 10
85.41907549947856
 20
-148.7836832310332
 10
85.41907549947856
 20
-148.7540554098601
 10
85.42320961406087
 20
-148.5955810175386
 10
85.42320961406087
 20
-148.5955810175386
 10
85.35344643048455
 20
-148.5955810175386
 10
85.35344643048455
 20
-148.5955810175386
 10
85.29643010020368
 20
-148.5955810175386
 10
85.14398462498137
 20
-148.5997151321209
 10
85.03408607900189
 20
-148.6059163039943
 10
85.03408607900189
 20
-148.6059163039943
 10
85.03408607900189
 20
-148.428493886504
 10
85.03408607900189
 20
-148.428493886504
 10
85.13985051039908
 20
-148.4367621156686
 10
85.28368324690825
 20
-148.4408962302509
 10
85.35344643048455
 20
-148.4408962302509
 10
85.35344643048455
 20
-148.4408962302509
 10
85.42751598341743
 20
-148.4408962302509
 10
85.42751598341743
 20
-148.4408962302509
 10
85.42751598341743
 20
-148.4408962302509
 10
85.42751598341743
 20
-148.3055039776806
 10
85.42751598341743
 20
-148.3055039776806
 10
85.42751598341743
 20
-148.3055039776806
 10
85.3830742516577
 20
-148.3055039776806
 10
85.3830742516577
 20
-148.3055039776806
 10
85.3069376414337
 20
-148.3055039776806
 10
85.11435680380822
 20
-148.3079155445202
 10
85.08059486805278
 20
-148.3079155445202
 10
85.08696829470048
 20
-148.2359130488785
 10
85.09540877863935
 20
-148.1552978145237
 10
85.09540877863935
 20
-148.0347194725399
 10
85.09540877863935
 20
-148.0347194725399
 10
85.09540877863935
 20
-147.8614311696319
 10
85.09540877863935
 20
-147.8614311696319
 10
85.09540877863935
 20
-147.7894286739901
 10
85.08696829470048
 20
-147.6688503320064
 10
85.08059486805278
 20
-147.5885796072001
 10
85.15879853556794
 20
-147.5927137217824
 10
85.19686684067997
 20
-147.5947807790735
 10
85.32381860931142
 20
-147.5947807790735
 10
85.32381860931142
 20
-147.5947807790735
 10
85.42751598341743
 20
-147.5947807790735
 10
85.42751598341743
 20
-147.5947807790735
 10
85.42751598341743
 20
-147.5947807790735
 10
85.42751598341743
 20
-147.4487087304989
 10
85.42751598341743
 20
-147.4487087304989
 10
85.42751598341743
 20
-147.4487087304989
 10
85.34931231590226
 20
-147.4487087304989
 10
85.34931231590226
 20
-147.4487087304989
 10
85.29419078813827
 20
-147.4487087304989
 10
85.12279728774707
 20
-147.4531873546297
 10
85.0382201935842
 20
-147.4593885265032
 10
85.0382201935842
 20
-147.4593885265032
 10
85.0382201935842
 20
-147.2816215994643
 10
85.0382201935842
 20
-147.2816215994643
 10
85.12073023045592
 20
-147.2881672808863
 10
85.28368324690825
 20
-147.2923013954686
 10
85.34931231590226
 20
-147.2923013954686
 10
85.34931231590226
 20
-147.2923013954686
 10
85.42751598341743
 20
-147.2923013954686
 10
85.42751598341743
 20
-147.2923013954686
 10
85.42751598341743
 20
-147.2585394597131
 10
85.42320961406087
 20
-147.1041991819739
 10
85.42320961406087
 20
-147.0721597939611
 10
85.42320961406087
 20
-147.0721597939611
 10
85.62009682104289
 20
-147.0893852713874
 10
85.62009682104289
 20
-147.0893852713874
 10
85.63697778892061
 20
-147.0914523286785
 10
85.65816512615491
 20
-147.0935193859697
 10
85.65816512615491
 20
-147.1145344684297
 10
85.65816512615491
 20
-147.1379611177294
 10
85.63697778892061
 20
-147.146229346894
 10
85.60941702503862
 20
-147.1589762001894
 10
85.60941702503862
 20
-147.180335792198
 10
85.60734996774746
 20
-147.2754204275909
 10
85.60734996774746
 20
-147.2923013954686
 10
85.60734996774746
 20
-147.2923013954686
 10
85.66660561009376
 20
-147.2923013954686
 10
85.66660561009376
 20
-147.2923013954686
 10
85.73430173637893
 20
-147.2923013954686
 10
85.87813447288811
 20
-147.2881672808863
 10
85.98389890428528
 20
-147.2816215994643
 10
85.98389890428528
 20
-147.2816215994643
 10
85.98389890428528
 20
-147.4593885265032
 10
85.98389890428528
 20
-147.4593885265032
 10
85.88657495682697
 20
-147.4531873546297
 10
85.72999536702237
 20
-147.4487087304989
 10
85.66660561009376
 20
-147.4487087304989
 10
85.66660561009376
 20
-147.4487087304989
 10
85.59890948380861
 20
-147.4487087304989
 10
85.59890948380861
 20
-147.4487087304989
 10
85.59890948380861
 20
-147.4487087304989
 10
85.59890948380861
 20
-147.5947807790735
 10
85.59890948380861
 20
-147.5947807790735
 10
85.59890948380861
 20
-147.5947807790735
 10
85.66867266738492
 20
-147.5947807790735
 10
85.66867266738492
 20
-147.5947807790735
 10
85.8188788305418
 20
-147.5947807790735
 10
85.89088132618353
 20
-147.5906466644912
 10
85.95220402582098
 20
-147.5885796072001
 10
85.94376354188211
 20
-147.683664242593
 10
85.9415242298167
 20
-147.7618679101081
 10
85.93945717252555
 20
-147.8001084699944
 10
86.09396970503901
 20
-147.5885796072001
 10
86.19973413643618
 20
-147.3408772418106
 10
86.2166151043139
 20
-147.0787054753831
 10
86.2166151043139
 20
-147.0787054753831
 10
86.43245033646481
 20
-147.1293483790162
 10
86.43245033646481
 20
-147.1293483790162
 10
86.44726424705138
 20
-147.1338270031471
 10
86.46190590286369
 20
-147.1400281750205
 10
86.46190590286369
 20
-147.1569091428983
 10
86.46190590286369
 20
-147.173790110776
 10
86.45777178828138
 20
-147.1758571680671
 10
86.40695662987395
 20
-147.1972167600757
 10
86.39007566199623
 20
-147.2733533702997
 10
86.36475421017966
 20
-147.3643038911103
 10
86.31600610906337
 20
-147.4910834049675
 10
86.31600610906337
 20
-147.4910834049675
 10
86.65448674048915
 20
-147.4910834049675
 10
86.65448674048915
 20
-147.4910834049675
 10
86.69255504560117
 20
-147.4910834049675
 10
86.82157387152377
 20
-147.4869492903852
 10
86.87032197264006
 20
-147.4807481185117
 10
86.87032197264006
 20
-147.4807481185117
 10
86.9633395507418
 20
-147.5503390473138
 10
86.9633395507418
 20
-147.5503390473138
 10
86.95489906680295
 20
-147.5716986393223
 10
86.94852564015524
 20
-147.5906466644912
 10
86.93371172956865
 20
-147.6264756575378
 97
        0
 97
        1
330
C5
 75
     2
 76
     1
 98
        1
 10
0.0
 20
0.0
450
        0
451
        0
460
0.0
461
0.0
452
        0
462
0.0
453
        0
470

  0
SPLINE
  5
C7
330
BC
100
AcDbEntity
  8
レイヤー 1
100
AcDbSpline
210
0.0
220
0.0
230
1.0
 70
     9
 71
     3
 72
    74
 73
    70
 74
     0
 42
0.0000000001
 43
0.0000000001
 40
0.0
 40
0.0
 40
0.0
 40
0.0
 40
1.0
 40
1.0
 40
1.0
 40
2.0
 40
2.0
 40
2.0
 40
3.0
 40
3.0
 40
3.0
 40
4.0
 40
4.0
 40
4.0
 40
5.0
 40
5.0
 40
5.0
 40
6.0
 40
6.0
 40
6.0
 40
7.0
 40
7.0
 40
7.0
 40
8.0
 40
8.0
 40
8.0
 40
9.0
 40
9.0
 40
9.0
 40
10.0
 40
10.0
 40
10.0
 40
11.0
 40
11.0
 40
11.0
 40
12.0
 40
12.0
 40
12.0
 40
13.0
 40
13.0
 40
13.0
 40
14.0
 40
14.0
 40
14.0
 40
15.0
 40
15.0
 40
15.0
 40
16.0
 40
16.0
 40
16.0
 40
17.0
 40
17.0
 40
17.0
 40
18.0
 40
18.0
 40
18.0
 40
19.0
 40
19.0
 40
19.0
 40
20.0
 40
20.0
 40
20.0
 40
21.0
 40
21.0
 40
21.0
 40
22.0
 40
22.0
 40
22.0
 40
23.0
 40
23.0
 40
23.0
 40
23.0
 10
88.89379880590155
 20
-147.5293239648538
 30
0.0
 10
88.89379880590155
 20
-147.5293239648538
 30
0.0
 10
88.73308510151465
 20
-147.5293239648538
 30
0.0
 10
88.73308510151465
 20
-147.5293239648538
 30
0.0
 10
88.73308510151465
 20
-147.5293239648538
 30
0.0
 10
88.73308510151465
 20
-147.6433566254155
 30
0.0
 10
88.73308510151465
 20
-147.6433566254155
 30
0.0
 10
88.73308510151465
 20
-147.683664242593
 30
0.0
 10
88.73945852816236
 20
-147.7577337955258
 30
0.0
 10
88.74359264274465
 20
-147.7832275021167
 30
0.0
 10
88.74359264274465
 20
-147.7832275021167
 30
0.0
 10
88.53206377995032
 20
-147.7832275021167
 30
0.0
 10
88.53206377995032
 20
-147.7832275021167
 30
0.0
 10
88.5427435759546
 20
-147.7174261783484
 30
0.0
 10
88.54481063324575
 20
-147.6581705360021
 30
0.0
 10
88.54481063324575
 20
-147.656103478711
 30
0.0
 10
88.54481063324575
 20
-147.656103478711
 30
0.0
 10
88.54481063324575
 20
-147.5334580794361
 30
0.0
 10
88.54481063324575
 20
-147.5334580794361
 30
0.0
 10
88.54481063324575
 20
-147.5334580794361
 30
0.0
 10
88.3649766489157
 20
-147.5334580794361
 30
0.0
 10
88.3649766489157
 20
-147.5334580794361
 30
0.0
 10
88.34602862374683
 20
-147.5927137217824
 30
0.0
 10
88.2993475799217
 20
-147.7387857703569
 30
0.0
 10
88.18514266458567
 20
-147.8211235524544
 30
0.0
 10
88.18514266458567
 20
-147.8211235524544
 30
0.0
 10
88.02856307478107
 20
-147.7153591210573
 30
0.0
 10
88.02856307478107
 20
-147.7153591210573
 30
0.0
 10
88.10263262771393
 20
-147.6688503320064
 30
0.0
 10
88.21907685511538
 20
-147.5947807790735
 30
0.0
 10
88.21907685511538
 20
-147.2733533702997
 30
0.0
 10
88.21907685511538
 20
-147.2182318425357
 30
0.0
 10
88.2147704857588
 20
-147.173790110776
 30
0.0
 10
88.21270342846766
 20
-147.1358940604382
 30
0.0
 10
88.28884003869168
 20
-147.1441622896028
 30
0.0
 10
88.36290959162456
 20
-147.1507079710248
 30
0.0
 10
88.42629934855315
 20
-147.1507079710248
 30
0.0
 10
88.60406627559205
 20
-147.1507079710248
 30
0.0
 10
88.80284828509095
 20
-147.0914523286785
 30
0.0
 10
88.8641709847284
 20
-147.0618245075054
 30
0.0
 10
88.8641709847284
 20
-147.0618245075054
 30
0.0
 10
88.99112275335985
 20
-147.1972167600757
 30
0.0
 10
88.99112275335985
 20
-147.1972167600757
 30
0.0
 10
88.99542912271643
 20
-147.201350874658
 30
0.0
 10
88.99749618000758
 20
-147.2099636133711
 30
0.0
 10
88.99749618000758
 20
-147.2161647852446
 30
0.0
 10
88.99749618000758
 20
-147.2371798677046
 30
0.0
 10
88.982682269421
 20
-147.2437255491265
 30
0.0
 10
88.96580130154328
 20
-147.2437255491265
 30
0.0
 10
88.94461396430898
 20
-147.2437255491265
 30
0.0
 10
88.92980005372242
 20
-147.2351128104134
 30
0.0
 10
88.91085202855354
 20
-147.2247775239577
 30
0.0
 10
88.73739147087121
 20
-147.2816215994643
 30
0.0
 10
88.51948918142916
 20
-147.3071153060551
 30
0.0
 10
88.38616398615
 20
-147.3091823633463
 30
0.0
 10
88.38616398615
 20
-147.3091823633463
 30
0.0
 10
88.38185761679342
 20
-147.3918646549923
 30
0.0
 10
88.38185761679342
 20
-147.3918646549923
 30
0.0
 10
88.38185761679342
 20
-147.3918646549923
 30
0.0
 10
88.65488143399948
 20
-147.3918646549923
 30
0.0
 10
88.65488143399948
 20
-147.3918646549923
 30
0.0
 10
88.71189776428037
 20
-147.3918646549923
 30
0.0
 10
88.97424178548213
 20
-147.3725721202749
 30
0.0
 10
89.01868351724186
 20
-147.3663709484014
 30
0.0
 10
89.01868351724186
 20
-147.3663709484014
 30
0.0
 10
89.01868351724186
 20
-147.5355251367272
 30
0.0
 10
89.01868351724186
 20
-147.5355251367272
 30
0.0
 10
88.98474932671215
 20
-147.5313910221449
 30
0.0
 10
88.97217472819098
 20
-147.5293239648538
 30
0.0
 10
88.89379880590155
 20
-147.5293239648538
 30
0.0
  0
SPLINE
  5
C8
330
BC
100
AcDbEntity
  8
レイヤー 1
100
AcDbSpline
210
0.0
220
0.0
230
1.0
 70
    11
 71
     3
 72
    17
 73
    13
 74
     0
 42
0.0000000001
 43
0.0000000001
 40
0.0
 40
0.0
 40
0.0
 40
0.0
 40
1.0
 40
1.0
 40
1.0
 40
2.0
 40
2.0
 40
2.0
 40
3.0
 40
3.0
 40
3.0
 40
4.0
 40
4.0
 40
4.0
 40
4.0
 10
88.57650551171003
 20
-148.4729356182637
 30
0.0
 10
88.57650551171003
 20
-148.4729356182637
 30
0.0
 10
87.66476099153868
 20
-148.4729356182637
 30
0.0
 10
87.66476099153868
 20
-148.4729356182637
 30
0.0
 10
87.66476099153868
 20
-148.4729356182637
 30
0.0
 10
87.66476099153868
 20
-148.580767106952
 30
0.0
 10
87.66476099153868
 20
-148.580767106952
 30
0.0
 10
87.66476099153868
 20
-148.580767106952
 30
0.0
 10
88.57650551171003
 20
-148.580767106952
 30
0.0
 10
88.57650551171003
 20
-148.580767106952
 30
0.0
 10
88.57650551171003
 20
-148.580767106952
 30
0.0
 10
88.57650551171003
 20
-148.4729356182637
 30
0.0
 10
88.57650551171003
 20
-148.4729356182637
 30
0.0
  0
SPLINE
  5
C9
330
BC
100
AcDbEntity
  8
レイヤー 1
100
AcDbSpline
210
0.0
220
0.0
230
1.0
 70
    11
 71
     3
 72
    17
 73
    13
 74
     0
 42
0.0000000001
 43
0.0000000001
 40
0.0
 40
0.0
 40
0.0
 40
0.0
 40
1.0
 40
1.0
 40
1.0
 40
2.0
 40
2.0
 40
2.0
 40
3.0
 40
3.0
 40
3.0
 40
4.0
 40
4.0
 40
4.0
 40
4.0
 10
88.57650551171003
 20
-148.2273003101654
 30
0.0
 10
88.57650551171003
 20
-148.2273003101654
 30
0.0
 10
87.66476099153868
 20
-148.2273003101654
 30
0.0
 10
87.66476099153868
 20
-148.2273003101654
 30
0.0
 10
87.66476099153868
 20
-148.2273003101654
 30
0.0
 10
87.66476099153868
 20
-148.3375433656934
 30
0.0
 10
87.66476099153868
 20
-148.3375433656934
 30
0.0
 10
87.66476099153868
 20
-148.3375433656934
 30
0.0
 10
88.57650551171003
 20
-148.3375433656934
 30
0.0
 10
88.57650551171003
 20
-148.3375433656934
 30
0.0
 10
88.57650551171003
 20
-148.3375433656934
 30
0.0
 10
88.57650551171003
 20
-148.2273003101654
 30
0.0
 10
88.57650551171003
 20
-148.2273003101654
 30
0.0
  0
SPLINE
  5
CA
330
BC
100
AcDbEntity
  8
レイヤー 1
100
AcDbSpline
210
0.0
220
0.0
230
1.0
 70
    11
 71
     3
 72
    17
 73
    13
 74
     0
 42
0.0000000001
 43
0.0000000001
 40
0.0
 40
0.0
 40
0.0
 40
0.0
 40
1.0
 40
1.0
 40
1.0
 40
2.0
 40
2.0
 40
2.0
 40
3.0
 40
3.0
 40
3.0
 40
4.0
 40
4.0
 40
4.0
 40
4.0
 10
88.57650551171003
 20
-147.9820095116156
 30
0.0
 10
88.57650551171003
 20
-147.9820095116156
 30
0.0
 10
87.66476099153868
 20
-147.9820095116156
 30
0.0
 10
87.66476099153868
 20
-147.9820095116156
 30
0.0
 10
87.66476099153868
 20
-147.9820095116156
 30
0.0
 10
87.66476099153868
 20
-148.0939751148862
 30
0.0
 10
87.66476099153868
 20
-148.0939751148862
 30
0.0
 10
87.66476099153868
 20
-148.0939751148862
 30
0.0
 10
88.57650551171003
 20
-148.0939751148862
 30
0.0
 10
88.57650551171003
 20
-148.0939751148862
 30
0.0
 10
88.57650551171003
 20
-148.0939751148862
 30
0.0
 10
88.57650551171003
 20
-147.9820095116156
 30
0.0
 10
88.57650551171003
 20
-147.9820095116156
 30
0.0
  0
SPLINE
  5
CB
330
BC
100
AcDbEntity
  8
レイヤー 1
100
AcDbSpline
210
0.0
220
0.0
230
1.0
 70
     9
 71
     3
 72
    74
 73
    70
 74
     0
 42
0.0000000001
 43
0.0000000001
 40
0.0
 40
0.0
 40
0.0
 40
0.0
 40
1.0
 40
1.0
 40
1.0
 40
2.0
 40
2.0
 40
2.0
 40
3.0
 40
3.0
 40
3.0
 40
4.0
 40
4.0
 40
4.0
 40
5.0
 40
5.0
 40
5.0
 40
6.0
 40
6.0
 40
6.0
 40
7.0
 40
7.0
 40
7.0
 40
8.0
 40
8.0
 40
8.0
 40
9.0
 40
9.0
 40
9.0
 40
10.0
 40
10.0
 40
10.0
 40
11.0
 40
11.0
 40
11.0
 40
12.0
 40
12.0
 40
12.0
 40
13.0
 40
13.0
 40
13.0
 40
14.0
 40
14.0
 40
14.0
 40
15.0
 40
15.0
 40
15.0
 40
16.0
 40
16.0
 40
16.0
 40
17.0
 40
17.0
 40
17.0
 40
18.0
 40
18.0
 40
18.0
 40
19.0
 40
19.0
 40
19.0
 40
20.0
 40
20.0
 40
20.0
 40
21.0
 40
21.0
 40
21.0
 40
22.0
 40
22.0
 40
22.0
 40
23.0
 40
23.0
 40
23.0
 40
23.0
 10
88.8812242073804
 20
-149.0165716858361
 30
0.0
 10
88.66745603252065
 20
-149.0058918898318
 30
0.0
 10
88.46660696573058
 20
-148.9190754836035
 30
0.0
 10
88.29090709598283
 20
-148.7984971416198
 30
0.0
 10
88.29090709598283
 20
-148.7984971416198
 30
0.0
 10
88.38823104344113
 20
-148.7116807353915
 30
0.0
 10
88.38823104344113
 20
-148.7116807353915
 30
0.0
 10
88.38823104344113
 20
-148.7116807353915
 30
0.0
 10
87.83615449192986
 20
-148.7116807353915
 30
0.0
 10
87.83615449192986
 20
-148.7116807353915
 30
0.0
 10
87.83615449192986
 20
-148.7116807353915
 30
0.0
 10
87.91642521673617
 20
-148.7754150018686
 30
0.0
 10
87.91642521673617
 20
-148.7754150018686
 30
0.0
 10
87.92279864338388
 20
-148.7795491164509
 30
0.0
 10
87.93347843938816
 20
-148.7902289124552
 30
0.0
 10
87.93347843938816
 20
-148.8050428230418
 30
0.0
 10
87.93347843938816
 20
-148.8450059306707
 30
0.0
 10
87.85940888645528
 20
-148.8388047587972
 30
0.0
 10
87.84459497586871
 20
-148.8367377015061
 30
0.0
 10
87.61394583313125
 20
-148.9762640686587
 30
0.0
 10
87.47011309662205
 20
-149.007958947123
 30
0.0
 10
87.36641572251604
 20
-149.0248399150007
 30
0.0
 10
87.36641572251604
 20
-149.0248399150007
 30
0.0
 10
87.23739689659344
 20
-148.8470729879618
 30
0.0
 10
87.23739689659344
 20
-148.8470729879618
 30
0.0
 10
87.48492700720865
 20
-148.8153781094975
 30
0.0
 10
87.58655732402351
 20
-148.7688693204466
 30
0.0
 10
87.67526853276867
 20
-148.7161593595223
 30
0.0
 10
87.60137123461008
 20
-148.7182264168135
 30
0.0
 10
87.48699406449977
 20
-148.7202934741046
 30
0.0
 10
87.4552991860355
 20
-148.7223605313958
 30
0.0
 10
87.47011309662205
 20
-148.6334770678763
 30
0.0
 10
87.47218015391322
 20
-148.504630496728
 30
0.0
 10
87.47218015391322
 20
-148.4305609437951
 30
0.0
 10
87.47218015391322
 20
-148.4305609437951
 30
0.0
 10
87.47218015391322
 20
-148.1301486174813
 30
0.0
 10
87.47218015391322
 20
-148.1301486174813
 30
0.0
 10
87.47218015391322
 20
-148.0305853579576
 30
0.0
 10
87.46597898203976
 20
-147.9313666079824
 30
0.0
 10
87.4552991860355
 20
-147.8338704057499
 30
0.0
 10
87.55692950285036
 20
-147.8400715776233
 30
0.0
 10
87.78740639081357
 20
-147.8466172590453
 30
0.0
 10
87.89541013427614
 20
-147.8466172590453
 30
0.0
 10
87.89541013427614
 20
-147.8466172590453
 30
0.0
 10
88.31846785986483
 20
-147.8466172590453
 30
0.0
 10
88.31846785986483
 20
-147.8466172590453
 30
0.0
 10
88.43697914455743
 20
-147.8466172590453
 30
0.0
 10
88.47918156425173
 20
-147.8466172590453
 30
0.0
 10
88.56169160112347
 20
-147.842483144463
 30
0.0
 10
88.70983070698921
 20
-147.835937463041
 30
0.0
 10
88.72671167486693
 20
-147.835937463041
 30
0.0
 10
88.7732204639178
 20
-147.8338704057499
 30
0.0
 10
88.76477997997895
 20
-147.9141411305562
 30
0.0
 10
88.76064586539666
 20
-148.0729600324262
 30
0.0
 10
88.76064586539666
 20
-148.1552978145237
 30
0.0
 10
88.76064586539666
 20
-148.1552978145237
 30
0.0
 10
88.76064586539666
 20
-148.4408962302509
 30
0.0
 10
88.76064586539666
 20
-148.4408962302509
 30
0.0
 10
88.76064586539666
 20
-148.5128987258926
 30
0.0
 10
88.7627129226878
 20
-148.6441568638806
 30
0.0
 10
88.7732204639178
 20
-148.7223605313958
 30
0.0
 10
88.70139022305036
 20
-148.7182264168135
 30
0.0
 10
88.57857256900119
 20
-148.7161593595223
 30
0.0
 10
88.50036890148603
 20
-148.7140923022312
 30
0.0
 10
88.61043970223976
 20
-148.7816161737421
 30
0.0
 10
88.7627129226878
 20
-148.8322590773753
 30
0.0
 10
88.97424178548213
 20
-148.8367377015061
 30
0.0
 10
88.97424178548213
 20
-148.8367377015061
 30
0.0
 10
88.8812242073804
 20
-149.0165716858361
 30
0.0
 10
88.8812242073804
 20
-149.0165716858361
 30
0.0
  0
SPLINE
  5
CC
330
BC
100
AcDbEntity
  8
レイヤー 1
100
AcDbSpline
210
0.0
220
0.0
230
1.0
 70
    11
 71
     3
 72
    71
 73
    67
 74
     0
 42
0.0000000001
 43
0.0000000001
 40
0.0
 40
0.0
 40
0.0
 40
0.0
 40
1.0
 40
1.0
 40
1.0
 40
2.0
 40
2.0
 40
2.0
 40
3.0
 40
3.0
 40
3.0
 40
4.0
 40
4.0
 40
4.0
 40
5.0
 40
5.0
 40
5.0
 40
6.0
 40
6.0
 40
6.0
 40
7.0
 40
7.0
 40
7.0
 40
8.0
 40
8.0
 40
8.0
 40
9.0
 40
9.0
 40
9.0
 40
10.0
 40
10.0
 40
10.0
 40
11.0
 40
11.0
 40
11.0
 40
12.0
 40
12.0
 40
12.0
 40
13.0
 40
13.0
 40
13.0
 40
14.0
 40
14.0
 40
14.0
 40
15.0
 40
15.0
 40
15.0
 40
16.0
 40
16.0
 40
16.0
 40
17.0
 40
17.0
 40
17.0
 40
18.0
 40
18.0
 40
18.0
 40
19.0
 40
19.0
 40
19.0
 40
20.0
 40
20.0
 40
20.0
 40
21.0
 40
21.0
 40
21.0
 40
22.0
 40
22.0
 40
22.0
 40
22.0
 10
88.04337698536762
 20
-147.249926721
 30
0.0
 10
88.02856307478107
 20
-147.249926721
 30
0.0
 10
88.01598847625989
 20
-147.2457926064177
 30
0.0
 10
87.99049476966905
 20
-147.2371798677046
 30
0.0
 10
87.84872909045102
 20
-147.284033166304
 30
0.0
 10
87.67526853276867
 20
-147.3009141341817
 30
0.0
 10
87.53574216561608
 20
-147.305048248764
 30
0.0
 10
87.53574216561608
 20
-147.305048248764
 30
0.0
 10
87.53367510832491
 20
-147.3939317122834
 30
0.0
 10
87.53367510832491
 20
-147.3939317122834
 30
0.0
 10
87.53367510832491
 20
-147.3939317122834
 30
0.0
 10
87.79377981746128
 20
-147.3939317122834
 30
0.0
 10
87.79377981746128
 20
-147.3939317122834
 30
0.0
 10
87.84666203315987
 20
-147.3939317122834
 30
0.0
 10
88.02856307478107
 20
-147.3853189735703
 30
0.0
 10
88.07300480654078
 20
-147.3791178016969
 30
0.0
 10
88.07300480654078
 20
-147.3791178016969
 30
0.0
 10
88.07300480654078
 20
-147.540003760858
 30
0.0
 10
88.07300480654078
 20
-147.540003760858
 30
0.0
 10
88.01805553355105
 20
-147.5334580794361
 30
0.0
 10
87.89317082221073
 20
-147.5313910221449
 30
0.0
 10
87.85510251709872
 20
-147.5334580794361
 30
0.0
 10
87.85510251709872
 20
-147.5334580794361
 30
0.0
 10
87.85510251709872
 20
-147.6433566254155
 30
0.0
 10
87.85510251709872
 20
-147.6433566254155
 30
0.0
 10
87.85510251709872
 20
-147.6898654144664
 30
0.0
 10
87.85734182916414
 20
-147.7535996809435
 30
0.0
 10
87.86354300103758
 20
-147.7914957312813
 30
0.0
 10
87.86354300103758
 20
-147.7914957312813
 30
0.0
 10
87.67113441818638
 20
-147.7914957312813
 30
0.0
 10
87.67113441818638
 20
-147.7914957312813
 30
0.0
 10
87.67750784483409
 20
-147.7515326236524
 30
0.0
 10
87.68388127148181
 20
-147.6688503320064
 30
0.0
 10
87.68388127148181
 20
-147.6540364214198
 30
0.0
 10
87.68388127148181
 20
-147.6540364214198
 30
0.0
 10
87.68388127148181
 20
-147.5334580794361
 30
0.0
 10
87.68388127148181
 20
-147.5334580794361
 30
0.0
 10
87.68388127148181
 20
-147.5334580794361
 30
0.0
 10
87.51886119773834
 20
-147.5334580794361
 30
0.0
 10
87.51886119773834
 20
-147.5334580794361
 30
0.0
 10
87.47648652326978
 20
-147.7535996809435
 30
0.0
 10
87.42153725028003
 20
-147.8338704057499
 30
0.0
 10
87.31577281888286
 20
-147.9334336652736
 30
0.0
 10
87.31577281888286
 20
-147.9334336652736
 30
0.0
 10
87.14851343307399
 20
-147.8190564951633
 30
0.0
 10
87.14851343307399
 20
-147.8190564951633
 30
0.0
 10
87.21207544477683
 20
-147.7704806488212
 30
0.0
 10
87.36228160793373
 20
-147.6581705360021
 30
0.0
 10
87.36228160793373
 20
-147.3091823633463
 30
0.0
 10
87.36228160793373
 20
-147.2268445812488
 30
0.0
 10
87.35384112399488
 20
-147.180335792198
 30
0.0
 10
87.34540064005601
 20
-147.1314154363074
 30
0.0
 10
87.49130043385635
 20
-147.146229346894
 30
0.0
 10
87.50611434444293
 20
-147.146229346894
 30
0.0
 10
87.54211559226378
 20
-147.146229346894
 30
0.0
 10
87.6499470809521
 20
-147.146229346894
 30
0.0
 10
87.79171276017013
 20
-147.1293483790162
 30
0.0
 10
87.95242646455703
 20
-147.0680256793788
 30
0.0
 10
87.95242646455703
 20
-147.0680256793788
 30
0.0
 10
88.06663137989307
 20
-147.1992838173668
 30
0.0
 10
88.06663137989307
 20
-147.1992838173668
 30
0.0
 10
88.07300480654078
 20
-147.2054849892403
 30
0.0
 10
88.07731117589735
 20
-147.2140977279534
 30
0.0
 10
88.07731117589735
 20
-147.222365957118
 30
0.0
 10
88.07731117589735
 20
-147.2457926064177
 30
0.0
 10
88.05819089595422
 20
-147.249926721
 30
0.0
 10
88.04337698536762
 20
-147.249926721
 30
0.0
  0
HATCH
  5
CD
330
BC
100
AcDbEntity
  8
レイヤー 1
 62
   250
420
  2299925
440
 33554687
100
AcDbHatch
 10
0.0
 20
0.0
 30
0.0
210
0.0
220
0.0
230
1.0
  2
SOLID
 70
     1
 71
     1
 91
        6
 92
        1
 93
        1
 72
     4
 94
        3
 73
     0
 74
     0
 95
       74
 96
       70
 40
0.0
 40
0.0
 40
0.0
 40
0.0
 40
1.0
 40
1.0
 40
1.0
 40
2.0
 40
2.0
 40
2.0
 40
3.0
 40
3.0
 40
3.0
 40
4.0
 40
4.0
 40
4.0
 40
5.0
 40
5.0
 40
5.0
 40
6.0
 40
6.0
 40
6.0
 40
7.0
 40
7.0
 40
7.0
 40
8.0
 40
8.0
 40
8.0
 40
9.0
 40
9.0
 40
9.0
 40
10.0
 40
10.0
 40
10.0
 40
11.0
 40
11.0
 40
11.0
 40
12.0
 40
12.0
 40
12.0
 40
13.0
 40
13.0
 40
13.0
 40
14.0
 40
14.0
 40
14.0
 40
15.0
 40
15.0
 40
15.0
 40
16.0
 40
16.0
 40
16.0
 40
17.0
 40
17.0
 40
17.0
 40
18.0
 40
18.0
 40
18.0
 40
19.0
 40
19.0
 40
19.0
 40
20.0
 40
20.0
 40
20.0
 40
21.0
 40
21.0
 40
21.0
 40
22.0
 40
22.0
 40
22.0
 40
23.0
 40
23.0
 40
23.0
 40
23.0
 10
88.89379880590155
 20
-147.5293239648538
 10
88.89379880590155
 20
-147.5293239648538
 10
88.73308510151465
 20
-147.5293239648538
 10
88.73308510151465
 20
-147.5293239648538
 10
88.73308510151465
 20
-147.5293239648538
 10
88.73308510151465
 20
-147.6433566254155
 10
88.73308510151465
 20
-147.6433566254155
 10
88.73308510151465
 20
-147.683664242593
 10
88.73945852816236
 20
-147.7577337955258
 10
88.74359264274465
 20
-147.7832275021167
 10
88.74359264274465
 20
-147.7832275021167
 10
88.53206377995032
 20
-147.7832275021167
 10
88.53206377995032
 20
-147.7832275021167
 10
88.5427435759546
 20
-147.7174261783484
 10
88.54481063324575
 20
-147.6581705360021
 10
88.54481063324575
 20
-147.656103478711
 10
88.54481063324575
 20
-147.656103478711
 10
88.54481063324575
 20
-147.5334580794361
 10
88.54481063324575
 20
-147.5334580794361
 10
88.54481063324575
 20
-147.5334580794361
 10
88.3649766489157
 20
-147.5334580794361
 10
88.3649766489157
 20
-147.5334580794361
 10
88.34602862374683
 20
-147.5927137217824
 10
88.2993475799217
 20
-147.7387857703569
 10
88.18514266458567
 20
-147.8211235524544
 10
88.18514266458567
 20
-147.8211235524544
 10
88.02856307478107
 20
-147.7153591210573
 10
88.02856307478107
 20
-147.7153591210573
 10
88.10263262771393
 20
-147.6688503320064
 10
88.21907685511538
 20
-147.5947807790735
 10
88.21907685511538
 20
-147.2733533702997
 10
88.21907685511538
 20
-147.2182318425357
 10
88.2147704857588
 20
-147.173790110776
 10
88.21270342846766
 20
-147.1358940604382
 10
88.28884003869168
 20
-147.1441622896028
 10
88.36290959162456
 20
-147.1507079710248
 10
88.42629934855315
 20
-147.1507079710248
 10
88.60406627559205
 20
-147.1507079710248
 10
88.80284828509095
 20
-147.0914523286785
 10
88.8641709847284
 20
-147.0618245075054
 10
88.8641709847284
 20
-147.0618245075054
 10
88.99112275335985
 20
-147.1972167600757
 10
88.99112275335985
 20
-147.1972167600757
 10
88.99542912271643
 20
-147.201350874658
 10
88.99749618000758
 20
-147.2099636133711
 10
88.99749618000758
 20
-147.2161647852446
 10
88.99749618000758
 20
-147.2371798677046
 10
88.982682269421
 20
-147.2437255491265
 10
88.96580130154328
 20
-147.2437255491265
 10
88.94461396430898
 20
-147.2437255491265
 10
88.92980005372242
 20
-147.2351128104134
 10
88.91085202855354
 20
-147.2247775239577
 10
88.73739147087121
 20
-147.2816215994643
 10
88.51948918142916
 20
-147.3071153060551
 10
88.38616398615
 20
-147.3091823633463
 10
88.38616398615
 20
-147.3091823633463
 10
88.38185761679342
 20
-147.3918646549923
 10
88.38185761679342
 20
-147.3918646549923
 10
88.38185761679342
 20
-147.3918646549923
 10
88.65488143399948
 20
-147.3918646549923
 10
88.65488143399948
 20
-147.3918646549923
 10
88.71189776428037
 20
-147.3918646549923
 10
88.97424178548213
 20
-147.3725721202749
 10
89.01868351724186
 20
-147.3663709484014
 10
89.01868351724186
 20
-147.3663709484014
 10
89.01868351724186
 20
-147.5355251367272
 10
89.01868351724186
 20
-147.5355251367272
 10
88.98474932671215
 20
-147.5313910221449
 10
88.97217472819098
 20
-147.5293239648538
 10
88.89379880590155
 20
-147.5293239648538
 97
        0
 97
        1
330
C7
 92
        1
 93
        1
 72
     4
 94
        3
 73
     0
 74
     0
 95
       17
 96
       13
 40
0.0
 40
0.0
 40
0.0
 40
0.0
 40
1.0
 40
1.0
 40
1.0
 40
2.0
 40
2.0
 40
2.0
 40
3.0
 40
3.0
 40
3.0
 40
4.0
 40
4.0
 40
4.0
 40
4.0
 10
88.57650551171003
 20
-148.4729356182637
 10
88.57650551171003
 20
-148.4729356182637
 10
87.66476099153868
 20
-148.4729356182637
 10
87.66476099153868
 20
-148.4729356182637
 10
87.66476099153868
 20
-148.4729356182637
 10
87.66476099153868
 20
-148.580767106952
 10
87.66476099153868
 20
-148.580767106952
 10
87.66476099153868
 20
-148.580767106952
 10
88.57650551171003
 20
-148.580767106952
 10
88.57650551171003
 20
-148.580767106952
 10
88.57650551171003
 20
-148.580767106952
 10
88.57650551171003
 20
-148.4729356182637
 10
88.57650551171003
 20
-148.4729356182637
 97
        0
 97
        1
330
C8
 92
        1
 93
        1
 72
     4
 94
        3
 73
     0
 74
     0
 95
       17
 96
       13
 40
0.0
 40
0.0
 40
0.0
 40
0.0
 40
1.0
 40
1.0
 40
1.0
 40
2.0
 40
2.0
 40
2.0
 40
3.0
 40
3.0
 40
3.0
 40
4.0
 40
4.0
 40
4.0
 40
4.0
 10
88.57650551171003
 20
-148.2273003101654
 10
88.57650551171003
 20
-148.2273003101654
 10
87.66476099153868
 20
-148.2273003101654
 10
87.66476099153868
 20
-148.2273003101654
 10
87.66476099153868
 20
-148.2273003101654
 10
87.66476099153868
 20
-148.3375433656934
 10
87.66476099153868
 20
-148.3375433656934
 10
87.66476099153868
 20
-148.3375433656934
 10
88.57650551171003
 20
-148.3375433656934
 10
88.57650551171003
 20
-148.3375433656934
 10
88.57650551171003
 20
-148.3375433656934
 10
88.57650551171003
 20
-148.2273003101654
 10
88.57650551171003
 20
-148.2273003101654
 97
        0
 97
        1
330
C9
 92
        1
 93
        1
 72
     4
 94
        3
 73
     0
 74
     0
 95
       17
 96
       13
 40
0.0
 40
0.0
 40
0.0
 40
0.0
 40
1.0
 40
1.0
 40
1.0
 40
2.0
 40
2.0
 40
2.0
 40
3.0
 40
3.0
 40
3.0
 40
4.0
 40
4.0
 40
4.0
 40
4.0
 10
88.57650551171003
 20
-147.9820095116156
 10
88.57650551171003
 20
-147.9820095116156
 10
87.66476099153868
 20
-147.9820095116156
 10
87.66476099153868
 20
-147.9820095116156
 10
87.66476099153868
 20
-147.9820095116156
 10
87.66476099153868
 20
-148.0939751148862
 10
87.66476099153868
 20
-148.0939751148862
 10
87.66476099153868
 20
-148.0939751148862
 10
88.57650551171003
 20
-148.0939751148862
 10
88.57650551171003
 20
-148.0939751148862
 10
88.57650551171003
 20
-148.0939751148862
 10
88.57650551171003
 20
-147.9820095116156
 10
88.57650551171003
 20
-147.9820095116156
 97
        0
 97
        1
330
CA
 92
        1
 93
        1
 72
     4
 94
        3
 73
     0
 74
     0
 95
       74
 96
       70
 40
0.0
 40
0.0
 40
0.0
 40
0.0
 40
1.0
 40
1.0
 40
1.0
 40
2.0
 40
2.0
 40
2.0
 40
3.0
 40
3.0
 40
3.0
 40
4.0
 40
4.0
 40
4.0
 40
5.0
 40
5.0
 40
5.0
 40
6.0
 40
6.0
 40
6.0
 40
7.0
 40
7.0
 40
7.0
 40
8.0
 40
8.0
 40
8.0
 40
9.0
 40
9.0
 40
9.0
 40
10.0
 40
10.0
 40
10.0
 40
11.0
 40
11.0
 40
11.0
 40
12.0
 40
12.0
 40
12.0
 40
13.0
 40
13.0
 40
13.0
 40
14.0
 40
14.0
 40
14.0
 40
15.0
 40
15.0
 40
15.0
 40
16.0
 40
16.0
 40
16.0
 40
17.0
 40
17.0
 40
17.0
 40
18.0
 40
18.0
 40
18.0
 40
19.0
 40
19.0
 40
19.0
 40
20.0
 40
20.0
 40
20.0
 40
21.0
 40
21.0
 40
21.0
 40
22.0
 40
22.0
 40
22.0
 40
23.0
 40
23.0
 40
23.0
 40
23.0
 10
88.8812242073804
 20
-149.0165716858361
 10
88.66745603252065
 20
-149.0058918898318
 10
88.46660696573058
 20
-148.9190754836035
 10
88.29090709598283
 20
-148.7984971416198
 10
88.29090709598283
 20
-148.7984971416198
 10
88.38823104344113
 20
-148.7116807353915
 10
88.38823104344113
 20
-148.7116807353915
 10
88.38823104344113
 20
-148.7116807353915
 10
87.83615449192986
 20
-148.7116807353915
 10
87.83615449192986
 20
-148.7116807353915
 10
87.83615449192986
 20
-148.7116807353915
 10
87.91642521673617
 20
-148.7754150018686
 10
87.91642521673617
 20
-148.7754150018686
 10
87.92279864338388
 20
-148.7795491164509
 10
87.93347843938816
 20
-148.7902289124552
 10
87.93347843938816
 20
-148.8050428230418
 10
87.93347843938816
 20
-148.8450059306707
 10
87.85940888645528
 20
-148.8388047587972
 10
87.84459497586871
 20
-148.8367377015061
 10
87.61394583313125
 20
-148.9762640686587
 10
87.47011309662205
 20
-149.007958947123
 10
87.36641572251604
 20
-149.0248399150007
 10
87.36641572251604
 20
-149.0248399150007
 10
87.23739689659344
 20
-148.8470729879618
 10
87.23739689659344
 20
-148.8470729879618
 10
87.48492700720865
 20
-148.8153781094975
 10
87.58655732402351
 20
-148.7688693204466
 10
87.67526853276867
 20
-148.7161593595223
 10
87.60137123461008
 20
-148.7182264168135
 10
87.48699406449977
 20
-148.7202934741046
 10
87.4552991860355
 20
-148.7223605313958
 10
87.47011309662205
 20
-148.6334770678763
 10
87.47218015391322
 20
-148.504630496728
 10
87.47218015391322
 20
-148.4305609437951
 10
87.47218015391322
 20
-148.4305609437951
 10
87.47218015391322
 20
-148.1301486174813
 10
87.47218015391322
 20
-148.1301486174813
 10
87.47218015391322
 20
-148.0305853579576
 10
87.46597898203976
 20
-147.9313666079824
 10
87.4552991860355
 20
-147.8338704057499
 10
87.55692950285036
 20
-147.8400715776233
 10
87.78740639081357
 20
-147.8466172590453
 10
87.89541013427614
 20
-147.8466172590453
 10
87.89541013427614
 20
-147.8466172590453
 10
88.31846785986483
 20
-147.8466172590453
 10
88.31846785986483
 20
-147.8466172590453
 10
88.43697914455743
 20
-147.8466172590453
 10
88.47918156425173
 20
-147.8466172590453
 10
88.56169160112347
 20
-147.842483144463
 10
88.70983070698921
 20
-147.835937463041
 10
88.72671167486693
 20
-147.835937463041
 10
88.7732204639178
 20
-147.8338704057499
 10
88.76477997997895
 20
-147.9141411305562
 10
88.76064586539666
 20
-148.0729600324262
 10
88.76064586539666
 20
-148.1552978145237
 10
88.76064586539666
 20
-148.1552978145237
 10
88.76064586539666
 20
-148.4408962302509
 10
88.76064586539666
 20
-148.4408962302509
 10
88.76064586539666
 20
-148.5128987258926
 10
88.7627129226878
 20
-148.6441568638806
 10
88.7732204639178
 20
-148.7223605313958
 10
88.70139022305036
 20
-148.7182264168135
 10
88.57857256900119
 20
-148.7161593595223
 10
88.50036890148603
 20
-148.7140923022312
 10
88.61043970223976
 20
-148.7816161737421
 10
88.7627129226878
 20
-148.8322590773753
 10
88.97424178548213
 20
-148.8367377015061
 10
88.97424178548213
 20
-148.8367377015061
 10
88.8812242073804
 20
-149.0165716858361
 10
88.8812242073804
 20
-149.0165716858361
 97
        0
 97
        1
330
CB
 92
        1
 93
        1
 72
     4
 94
        3
 73
     0
 74
     0
 95
       71
 96
       67
 40
0.0
 40
0.0
 40
0.0
 40
0.0
 40
1.0
 40
1.0
 40
1.0
 40
2.0
 40
2.0
 40
2.0
 40
3.0
 40
3.0
 40
3.0
 40
4.0
 40
4.0
 40
4.0
 40
5.0
 40
5.0
 40
5.0
 40
6.0
 40
6.0
 40
6.0
 40
7.0
 40
7.0
 40
7.0
 40
8.0
 40
8.0
 40
8.0
 40
9.0
 40
9.0
 40
9.0
 40
10.0
 40
10.0
 40
10.0
 40
11.0
 40
11.0
 40
11.0
 40
12.0
 40
12.0
 40
12.0
 40
13.0
 40
13.0
 40
13.0
 40
14.0
 40
14.0
 40
14.0
 40
15.0
 40
15.0
 40
15.0
 40
16.0
 40
16.0
 40
16.0
 40
17.0
 40
17.0
 40
17.0
 40
18.0
 40
18.0
 40
18.0
 40
19.0
 40
19.0
 40
19.0
 40
20.0
 40
20.0
 40
20.0
 40
21.0
 40
21.0
 40
21.0
 40
22.0
 40
22.0
 40
22.0
 40
22.0
 10
88.04337698536762
 20
-147.249926721
 10
88.02856307478107
 20
-147.249926721
 10
88.01598847625989
 20
-147.2457926064177
 10
87.99049476966905
 20
-147.2371798677046
 10
87.84872909045102
 20
-147.284033166304
 10
87.67526853276867
 20
-147.3009141341817
 10
87.53574216561608
 20
-147.305048248764
 10
87.53574216561608
 20
-147.305048248764
 10
87.53367510832491
 20
-147.3939317122834
 10
87.53367510832491
 20
-147.3939317122834
 10
87.53367510832491
 20
-147.3939317122834
 10
87.79377981746128
 20
-147.3939317122834
 10
87.79377981746128
 20
-147.3939317122834
 10
87.84666203315987
 20
-147.3939317122834
 10
88.02856307478107
 20
-147.3853189735703
 10
88.07300480654078
 20
-147.3791178016969
 10
88.07300480654078
 20
-147.3791178016969
 10
88.07300480654078
 20
-147.540003760858
 10
88.07300480654078
 20
-147.540003760858
 10
88.01805553355105
 20
-147.5334580794361
 10
87.89317082221073
 20
-147.5313910221449
 10
87.85510251709872
 20
-147.5334580794361
 10
87.85510251709872
 20
-147.5334580794361
 10
87.85510251709872
 20
-147.6433566254155
 10
87.85510251709872
 20
-147.6433566254155
 10
87.85510251709872
 20
-147.6898654144664
 10
87.85734182916414
 20
-147.7535996809435
 10
87.86354300103758
 20
-147.7914957312813
 10
87.86354300103758
 20
-147.7914957312813
 10
87.67113441818638
 20
-147.7914957312813
 10
87.67113441818638
 20
-147.7914957312813
 10
87.67750784483409
 20
-147.7515326236524
 10
87.68388127148181
 20
-147.6688503320064
 10
87.68388127148181
 20
-147.6540364214198
 10
87.68388127148181
 20
-147.6540364214198
 10
87.68388127148181
 20
-147.5334580794361
 10
87.68388127148181
 20
-147.5334580794361
 10
87.68388127148181
 20
-147.5334580794361
 10
87.51886119773834
 20
-147.5334580794361
 10
87.51886119773834
 20
-147.5334580794361
 10
87.47648652326978
 20
-147.7535996809435
 10
87.42153725028003
 20
-147.8338704057499
 10
87.31577281888286
 20
-147.9334336652736
 10
87.31577281888286
 20
-147.9334336652736
 10
87.14851343307399
 20
-147.8190564951633
 10
87.14851343307399
 20
-147.8190564951633
 10
87.21207544477683
 20
-147.7704806488212
 10
87.36228160793373
 20
-147.6581705360021
 10
87.36228160793373
 20
-147.3091823633463
 10
87.36228160793373
 20
-147.2268445812488
 10
87.35384112399488
 20
-147.180335792198
 10
87.34540064005601
 20
-147.1314154363074
 10
87.49130043385635
 20
-147.146229346894
 10
87.50611434444293
 20
-147.146229346894
 10
87.54211559226378
 20
-147.146229346894
 10
87.6499470809521
 20
-147.146229346894
 10
87.79171276017013
 20
-147.1293483790162
 10
87.95242646455703
 20
-147.0680256793788
 10
87.95242646455703
 20
-147.0680256793788
 10
88.06663137989307
 20
-147.1992838173668
 10
88.06663137989307
 20
-147.1992838173668
 10
88.07300480654078
 20
-147.2054849892403
 10
88.07731117589735
 20
-147.2140977279534
 10
88.07731117589735
 20
-147.222365957118
 10
88.07731117589735
 20
-147.2457926064177
 10
88.05819089595422
 20
-147.249926721
 10
88.04337698536762
 20
-147.249926721
 97
        0
 97
        1
330
CC
 75
     2
 76
     1
 98
        1
 10
0.0
 20
0.0
450
        0
451
        0
460
0.0
461
0.0
452
        0
462
0.0
453
        0
470

  0
ENDBLK
  5
BF
330
BC
100
AcDbEntity
  8
0
100
AcDbBlockEnd
  0
BLOCK
  5
D5
330
D3
100
AcDbEntity
  8
0
100
AcDbBlockBegin
  2
Block_8
 70
     0
 10
0.0
 20
0.0
 30
0.0
  3
Block_8
  1

  0
INSERT
  5
D8
330
D3
100
AcDbEntity
  8
レイヤー 1
100
AcDbBlockReference
  2
Block_9
 10
0.0
 20
0.0
 30
0.0
  0
ENDBLK
  5
D6
330
D3
100
AcDbEntity
  8
0
100
AcDbBlockEnd
  0
BLOCK
  5
D9
330
D7
100
AcDbEntity
  8
0
100
AcDbBlockBegin
  2
Block_9
 70
     0
 10
0.0
 20
0.0
 30
0.0
  3
Block_9
  1

  0
SPLINE
  5
DB
330
D7
100
AcDbEntity
  8
レイヤー 1
100
AcDbSpline
210
0.0
220
0.0
230
1.0
 70
     9
 71
     3
 72
    17
 73
    13
 74
     0
 42
0.0000000001
 43
0.0000000001
 40
0.0
 40
0.0
 40
0.0
 40
0.0
 40
1.0
 40
1.0
 40
1.0
 40
2.0
 40
2.0
 40
2.0
 40
3.0
 40
3.0
 40
3.0
 40
4.0
 40
4.0
 40
4.0
 40
4.0
 10
107.1304117570715
 20
-133.3170993047783
 30
0.0
 10
107.115597846485
 20
-133.3465548711772
 30
0.0
 10
107.0711561147252
 20
-133.4397447040532
 30
0.0
 10
107.0618543569151
 20
-133.4586927292221
 30
0.0
 10
107.2285969784012
 20
-133.5179483715684
 30
0.0
 10
107.2472004940215
 20
-133.5243217982161
 30
0.0
 10
107.3102457414016
 20
-133.5518825620981
 30
0.0
 10
107.3581325686466
 20
-133.4650661558698
 30
0.0
 10
107.378803141558
 20
-133.390996602937
 30
0.0
 10
107.3915499948535
 20
-133.3170993047783
 30
0.0
 10
107.3915499948535
 20
-133.3170993047783
 30
0.0
 10
107.1304117570715
 20
-133.3170993047783
 30
0.0
 10
107.1304117570715
 20
-133.3170993047783
 30
0.0
  0
SPLINE
  5
DC
330
D7
100
AcDbEntity
  8
レイヤー 1
100
AcDbSpline
210
0.0
220
0.0
230
1.0
 70
    11
 71
     3
 72
    20
 73
    16
 74
     0
 42
0.0000000001
 43
0.0000000001
 40
0.0
 40
0.0
 40
0.0
 40
0.0
 40
1.0
 40
1.0
 40
1.0
 40
2.0
 40
2.0
 40
2.0
 40
3.0
 40
3.0
 40
3.0
 40
4.0
 40
4.0
 40
4.0
 40
5.0
 40
5.0
 40
5.0
 40
5.0
 10
107.074945719759
 20
-132.4666774842444
 30
0.0
 10
107.074945719759
 20
-132.4666774842444
 30
0.0
 10
107.047384955877
 20
-132.4666774842444
 30
0.0
 10
107.047384955877
 20
-132.4666774842444
 30
0.0
 10
107.088037082603
 20
-132.5660684889939
 30
0.0
 10
107.115597846485
 20
-132.6463392138002
 30
0.0
 10
107.1452256676581
 20
-132.7732909824317
 30
0.0
 10
107.1452256676581
 20
-132.7732909824317
 30
0.0
 10
107.3267821997308
 20
-132.7732909824317
 30
0.0
 10
107.3267821997308
 20
-132.7732909824317
 30
0.0
 10
107.3546874731613
 20
-132.6802734043299
 30
0.0
 10
107.3750135365243
 20
-132.595696310167
 30
0.0
 10
107.3953395998872
 20
-132.4666774842444
 30
0.0
 10
107.3953395998872
 20
-132.4666774842444
 30
0.0
 10
107.074945719759
 20
-132.4666774842444
 30
0.0
 10
107.074945719759
 20
-132.4666774842444
 30
0.0
  0
SPLINE
  5
DD
330
D7
100
AcDbEntity
  8
レイヤー 1
100
AcDbSpline
210
0.0
220
0.0
230
1.0
 70
     9
 71
     3
 72
   242
 73
   238
 74
     0
 42
0.0000000001
 43
0.0000000001
 40
0.0
 40
0.0
 40
0.0
 40
0.0
 40
1.0
 40
1.0
 40
1.0
 40
2.0
 40
2.0
 40
2.0
 40
3.0
 40
3.0
 40
3.0
 40
4.0
 40
4.0
 40
4.0
 40
5.0
 40
5.0
 40
5.0
 40
6.0
 40
6.0
 40
6.0
 40
7.0
 40
7.0
 40
7.0
 40
8.0
 40
8.0
 40
8.0
 40
9.0
 40
9.0
 40
9.0
 40
10.0
 40
10.0
 40
10.0
 40
11.0
 40
11.0
 40
11.0
 40
12.0
 40
12.0
 40
12.0
 40
13.0
 40
13.0
 40
13.0
 40
14.0
 40
14.0
 40
14.0
 40
15.0
 40
15.0
 40
15.0
 40
16.0
 40
16.0
 40
16.0
 40
17.0
 40
17.0
 40
17.0
 40
18.0
 40
18.0
 40
18.0
 40
19.0
 40
19.0
 40
19.0
 40
20.0
 40
20.0
 40
20.0
 40
21.0
 40
21.0
 40
21.0
 40
22.0
 40
22.0
 40
22.0
 40
23.0
 40
23.0
 40
23.0
 40
24.0
 40
24.0
 40
24.0
 40
25.0
 40
25.0
 40
25.0
 40
26.0
 40
26.0
 40
26.0
 40
27.0
 40
27.0
 40
27.0
 40
28.0
 40
28.0
 40
28.0
 40
29.0
 40
29.0
 40
29.0
 40
30.0
 40
30.0
 40
30.0
 40
31.0
 40
31.0
 40
31.0
 40
32.0
 40
32.0
 40
32.0
 40
33.0
 40
33.0
 40
33.0
 40
34.0
 40
34.0
 40
34.0
 40
35.0
 40
35.0
 40
35.0
 40
36.0
 40
36.0
 40
36.0
 40
37.0
 40
37.0
 40
37.0
 40
38.0
 40
38.0
 40
38.0
 40
39.0
 40
39.0
 40
39.0
 40
40.0
 40
40.0
 40
40.0
 40
41.0
 40
41.0
 40
41.0
 40
42.0
 40
42.0
 40
42.0
 40
43.0
 40
43.0
 40
43.0
 40
44.0
 40
44.0
 40
44.0
 40
45.0
 40
45.0
 40
45.0
 40
46.0
 40
46.0
 40
46.0
 40
47.0
 40
47.0
 40
47.0
 40
48.0
 40
48.0
 40
48.0
 40
49.0
 40
49.0
 40
49.0
 40
50.0
 40
50.0
 40
50.0
 40
51.0
 40
51.0
 40
51.0
 40
52.0
 40
52.0
 40
52.0
 40
53.0
 40
53.0
 40
53.0
 40
54.0
 40
54.0
 40
54.0
 40
55.0
 40
55.0
 40
55.0
 40
56.0
 40
56.0
 40
56.0
 40
57.0
 40
57.0
 40
57.0
 40
58.0
 40
58.0
 40
58.0
 40
59.0
 40
59.0
 40
59.0
 40
60.0
 40
60.0
 40
60.0
 40
61.0
 40
61.0
 40
61.0
 40
62.0
 40
62.0
 40
62.0
 40
63.0
 40
63.0
 40
63.0
 40
64.0
 40
64.0
 40
64.0
 40
65.0
 40
65.0
 40
65.0
 40
66.0
 40
66.0
 40
66.0
 40
67.0
 40
67.0
 40
67.0
 40
68.0
 40
68.0
 40
68.0
 40
69.0
 40
69.0
 40
69.0
 40
70.0
 40
70.0
 40
70.0
 40
71.0
 40
71.0
 40
71.0
 40
72.0
 40
72.0
 40
72.0
 40
73.0
 40
73.0
 40
73.0
 40
74.0
 40
74.0
 40
74.0
 40
75.0
 40
75.0
 40
75.0
 40
76.0
 40
76.0
 40
76.0
 40
77.0
 40
77.0
 40
77.0
 40
78.0
 40
78.0
 40
78.0
 40
79.0
 40
79.0
 40
79.0
 40
79.0
 10
107.6247829592049
 20
-132.9319376295274
 30
0.0
 10
107.6247829592049
 20
-132.9319376295274
 30
0.0
 10
107.4029188099548
 20
-132.9319376295274
 30
0.0
 10
107.4029188099548
 20
-132.9319376295274
 30
0.0
 10
107.4029188099548
 20
-132.9319376295274
 30
0.0
 10
107.1600395782447
 20
-132.9319376295274
 30
0.0
 10
107.1600395782447
 20
-132.9319376295274
 30
0.0
 10
107.1600395782447
 20
-132.9319376295274
 30
0.0
 10
107.2713161624183
 20
-132.974312303996
 30
0.0
 10
107.2713161624183
 20
-132.974312303996
 30
0.0
 10
107.2806179202284
 20
-132.9786186733525
 30
0.0
 10
107.2916422257812
 20
-132.984819845226
 30
0.0
 10
107.2916422257812
 20
-132.9975666985214
 30
0.0
 10
107.2916422257812
 20
-133.0187540357557
 30
0.0
 10
107.2637369523507
 20
-133.0251274624034
 30
0.0
 10
107.2454779462789
 20
-133.0292615769857
 30
0.0
 10
107.2361761884687
 20
-133.0525159715111
 30
0.0
 10
107.2099934627808
 20
-133.1181450405052
 30
0.0
 10
107.1934570044516
 20
-133.1625867722649
 30
0.0
 10
107.1934570044516
 20
-133.1625867722649
 30
0.0
 10
107.4304795738368
 20
-133.1625867722649
 30
0.0
 10
107.4304795738368
 20
-133.1625867722649
 30
0.0
 10
107.5100612795461
 20
-133.1625867722649
 30
0.0
 10
107.6823160538086
 20
-133.1582804029083
 30
0.0
 10
107.8063394912776
 20
-133.1498399189695
 30
0.0
 10
107.8063394912776
 20
-133.1498399189695
 30
0.0
 10
107.8063394912776
 20
-133.3276068460084
 30
0.0
 10
107.8063394912776
 20
-133.3276068460084
 30
0.0
 10
107.7343369956359
 20
-133.3233004766518
 30
0.0
 10
107.7157334800155
 20
-133.3233004766518
 30
0.0
 10
107.5582926163396
 20
-133.3191663620695
 30
0.0
 10
107.530387342909
 20
-133.4735066398087
 30
0.0
 10
107.4918022734743
 20
-133.5539496193893
 30
0.0
 10
107.4528726944909
 20
-133.6237128029656
 30
0.0
 10
107.5582926163396
 20
-133.6829684453119
 30
0.0
 10
107.6509656848928
 20
-133.750664571597
 30
0.0
 10
107.7415716961549
 20
-133.8331746084688
 30
0.0
 10
107.7415716961549
 20
-133.8331746084688
 30
0.0
 10
107.6378743220488
 20
-134.0002617395034
 30
0.0
 10
107.6378743220488
 20
-134.0002617395034
 30
0.0
 10
107.6175482586859
 20
-133.9813137143345
 30
0.0
 10
107.6065239531331
 20
-133.9728732303956
 30
0.0
 10
107.5083387318034
 20
-133.8881238814585
 30
0.0
 10
107.4656195477863
 20
-133.8500555763465
 30
0.0
 10
107.4139431155076
 20
-133.8142265832999
 30
0.0
 10
107.3436631676085
 20
-133.7697848515402
 30
0.0
 10
107.1583170305021
 20
-133.9559922625179
 30
0.0
 10
106.9788275557205
 20
-133.9792466570433
 30
0.0
 10
106.7249240184576
 20
-134.0088744782165
 30
0.0
 10
106.7249240184576
 20
-134.0088744782165
 30
0.0
 10
106.6343180071956
 20
-133.8290404938865
 30
0.0
 10
106.6343180071956
 20
-133.8290404938865
 30
0.0
 10
106.9119927033067
 20
-133.8247341245299
 30
0.0
 10
107.0656439619488
 20
-133.7994126727133
 30
0.0
 10
107.198969157228
 20
-133.6893418719596
 30
0.0
 10
107.095271783122
 20
-133.6385267135522
 30
0.0
 10
107.0177571347039
 20
-133.6111382044444
 30
0.0
 10
106.9860622562396
 20
-133.598391351149
 30
0.0
 10
106.9695257979104
 20
-133.625952115031
 30
0.0
 10
106.9564344350664
 20
-133.6449001401999
 30
0.0
 10
106.9323187666697
 20
-133.6788343307296
 30
0.0
 10
106.9323187666697
 20
-133.6788343307296
 30
0.0
 10
106.7600639924072
 20
-133.5963242938578
 30
0.0
 10
106.7600639924072
 20
-133.5963242938578
 30
0.0
 10
106.8324109975974
 20
-133.5158813142773
 30
0.0
 10
106.8861544871673
 20
-133.4206244241101
 30
0.0
 10
106.9361083717035
 20
-133.3191663620695
 30
0.0
 10
106.7693657502174
 20
-133.3233004766518
 30
0.0
 10
106.7511067441455
 20
-133.3233004766518
 30
0.0
 10
106.6787597389553
 20
-133.3276068460084
 30
0.0
 10
106.6787597389553
 20
-133.3276068460084
 30
0.0
 10
106.6787597389553
 20
-133.1498399189695
 30
0.0
 10
106.6787597389553
 20
-133.1498399189695
 30
0.0
 10
106.8010606286817
 20
-133.1562133456172
 30
0.0
 10
106.9843397084969
 20
-133.1605197149737
 30
0.0
 10
107.0063883196026
 20
-133.1605197149737
 30
0.0
 10
107.0212022301891
 20
-133.126585524444
 30
0.0
 10
107.0694335669826
 20
-133.0060071824603
 30
0.0
 10
107.0859700253118
 20
-132.9319376295274
 30
0.0
 10
107.0694335669826
 20
-132.9319376295274
 30
0.0
 10
106.9137152510493
 20
-132.9383110561751
 30
0.0
 10
106.743527534078
 20
-132.9510579094705
 30
0.0
 10
106.743527534078
 20
-132.9510579094705
 30
0.0
 10
106.743527534078
 20
-133.0843831047497
 30
0.0
 10
106.743527534078
 20
-133.0843831047497
 30
0.0
 10
106.7008083500609
 20
-133.1097045565663
 30
0.0
 10
106.6491319177822
 20
-133.1413994350306
 30
0.0
 10
106.5323431808322
 20
-133.2070285040246
 30
0.0
 10
106.5323431808322
 20
-133.2070285040246
 30
0.0
 10
106.5323431808322
 20
-133.3529282978249
 30
0.0
 10
106.5323431808322
 20
-133.3529282978249
 30
0.0
 10
106.5323431808322
 20
-133.3529282978249
 30
0.0
 10
106.5323431808322
 20
-133.8206000099476
 30
0.0
 10
106.5323431808322
 20
-133.8206000099476
 30
0.0
 10
106.5323431808322
 20
-133.9473795238048
 30
0.0
 10
106.5009928119164
 20
-134.0066351661511
 30
0.0
 10
106.2529459369784
 20
-133.9981946822123
 30
0.0
 10
106.2529459369784
 20
-133.9981946822123
 30
0.0
 10
106.1619954161678
 20
-133.7909721887744
 30
0.0
 10
106.1619954161678
 20
-133.7909721887744
 30
0.0
 10
106.2178059630288
 20
-133.8035467872956
 30
0.0
 10
106.2601806374974
 20
-133.8078531566522
 30
0.0
 10
106.295320611447
 20
-133.8078531566522
 30
0.0
 10
106.3621554638608
 20
-133.8078531566522
 30
0.0
 10
106.371457221671
 20
-133.7845987621267
 30
0.0
 10
106.371457221671
 20
-133.7189696931327
 30
0.0
 10
106.371457221671
 20
-133.7189696931327
 30
0.0
 10
106.371457221671
 20
-133.2895385408963
 30
0.0
 10
106.371457221671
 20
-133.2895385408963
 30
0.0
 10
106.2860188536368
 20
-133.3296739032995
 30
0.0
 10
106.2712049430502
 20
-133.3360473299472
 30
0.0
 10
106.2305528163243
 20
-133.3551676098903
 30
0.0
 10
106.2267632112905
 20
-133.3761826923504
 30
0.0
 10
106.2233181158052
 20
-133.4058105135235
 30
0.0
 10
106.2064371479275
 20
-133.4058105135235
 30
0.0
 10
106.1992024474085
 20
-133.4058105135235
 30
0.0
 10
106.1899006895983
 20
-133.4016763989412
 30
0.0
 10
106.1843885368219
 20
-133.3784220044158
 30
0.0
 10
106.1843885368219
 20
-133.3784220044158
 30
0.0
 10
106.1378797477711
 20
-133.1858411667903
 30
0.0
 10
106.1378797477711
 20
-133.1858411667903
 30
0.0
 10
106.2656927902738
 20
-133.1393323777395
 30
0.0
 10
106.3232258848775
 20
-133.116077983214
 30
0.0
 10
106.371457221671
 20
-133.0948906459797
 30
0.0
 10
106.371457221671
 20
-133.0948906459797
 30
0.0
 10
106.371457221671
 20
-132.6823404616211
 30
0.0
 10
106.371457221671
 20
-132.6823404616211
 30
0.0
 10
106.371457221671
 20
-132.6823404616211
 30
0.0
 10
106.3249484326201
 20
-132.6823404616211
 30
0.0
 10
106.3249484326201
 20
-132.6823404616211
 30
0.0
 10
106.3249484326201
 20
-132.6823404616211
 30
0.0
 10
106.2563910324637
 20
-132.6823404616211
 30
0.0
 10
106.2563910324637
 20
-132.6823404616211
 30
0.0
 10
106.1971353901174
 20
-132.6823404616211
 30
0.0
 10
106.1899006895983
 20
-132.6823404616211
 30
0.0
 10
106.1585503206826
 20
-132.6887138882688
 30
0.0
 10
106.1585503206826
 20
-132.6887138882688
 30
0.0
 10
106.1585503206826
 20
-132.4940659933522
 30
0.0
 10
106.1585503206826
 20
-132.4940659933522
 30
0.0
 10
106.1823214795308
 20
-132.5004394199999
 30
0.0
 10
106.1899006895983
 20
-132.5004394199999
 30
0.0
 10
106.2508788796873
 20
-132.5004394199999
 30
0.0
 10
106.2508788796873
 20
-132.5004394199999
 30
0.0
 10
106.3676676166372
 20
-132.5004394199999
 30
0.0
 10
106.3676676166372
 20
-132.5004394199999
 30
0.0
 10
106.3676676166372
 20
-132.4306762364235
 30
0.0
 10
106.3676676166372
 20
-132.3481661995518
 30
0.0
 10
106.3659450688946
 20
-132.3438598301953
 30
0.0
 10
106.3583658588271
 20
-132.1640258458652
 30
0.0
 10
106.3583658588271
 20
-132.1450778206963
 30
0.0
 10
106.3566433110844
 20
-132.0985690316455
 30
0.0
 10
106.3566433110844
 20
-132.0985690316455
 30
0.0
 10
106.5454345436761
 20
-132.1070095155843
 30
0.0
 10
106.5454345436761
 20
-132.1070095155843
 30
0.0
 10
106.5547363014863
 20
-132.1070095155843
 30
0.0
 10
106.5733398171067
 20
-132.1090765728755
 30
0.0
 10
106.5733398171067
 20
-132.1259575407532
 30
0.0
 10
106.5733398171067
 20
-132.1450778206963
 30
0.0
 10
106.5602484542627
 20
-132.1555853619264
 30
0.0
 10
106.5378553336086
 20
-132.1747056418695
 30
0.0
 10
106.5378553336086
 20
-132.2253485455027
 30
0.0
 10
106.5323431808322
 20
-132.453930630949
 30
0.0
 10
106.5344102381233
 20
-132.5004394199999
 30
0.0
 10
106.647064860491
 20
-132.5004394199999
 30
0.0
 10
106.6584336755923
 20
-132.5004394199999
 30
0.0
 10
106.743527534078
 20
-132.491998936061
 30
0.0
 10
106.743527534078
 20
-132.491998936061
 30
0.0
 10
106.743527534078
 20
-132.6866468309776
 30
0.0
 10
106.743527534078
 20
-132.6866468309776
 30
0.0
 10
106.7101101078711
 20
-132.6844075189122
 30
0.0
 10
106.6508544655248
 20
-132.6802734043299
 30
0.0
 10
106.5323431808322
 20
-132.6823404616211
 30
0.0
 10
106.5323431808322
 20
-132.6823404616211
 30
0.0
 10
106.5323431808322
 20
-133.0208210930469
 30
0.0
 10
106.5323431808322
 20
-133.0208210930469
 30
0.0
 10
106.5805745176257
 20
-132.9975666985214
 30
0.0
 10
106.6381076122293
 20
-132.9700059346394
 30
0.0
 10
106.6804822866979
 20
-132.946751540114
 30
0.0
 10
106.6804822866979
 20
-132.946751540114
 30
0.0
 10
106.6804822866979
 20
-132.7691568678494
 30
0.0
 10
106.6804822866979
 20
-132.7691568678494
 30
0.0
 10
106.7807345653187
 20
-132.7817314663705
 30
0.0
 10
106.8840874298762
 20
-132.7817314663705
 30
0.0
 10
106.9860622562396
 20
-132.7817314663705
 30
0.0
 10
106.9657361928766
 20
-132.6866468309776
 30
0.0
 10
106.9416205244799
 20
-132.6041367941059
 30
0.0
 10
106.8861544871673
 20
-132.4708115988267
 30
0.0
 10
106.847224908184
 20
-132.4728786561179
 30
0.0
 10
106.7748779029938
 20
-132.4771850254744
 30
0.0
 10
106.7418049863354
 20
-132.4792520827656
 30
0.0
 10
106.7418049863354
 20
-132.4792520827656
 30
0.0
 10
106.7418049863354
 20
-132.2994180984355
 30
0.0
 10
106.7418049863354
 20
-132.2994180984355
 30
0.0
 10
106.8510145132178
 20
-132.3078585823744
 30
0.0
 10
107.0025987145688
 20
-132.312164951731
 30
0.0
 10
107.074945719759
 20
-132.312164951731
 30
0.0
 10
107.074945719759
 20
-132.312164951731
 30
0.0
 10
107.1472927249493
 20
-132.312164951731
 30
0.0
 10
107.1472927249493
 20
-132.312164951731
 30
0.0
 10
107.1472927249493
 20
-132.1492119352787
 30
0.0
 10
107.1472927249493
 20
-132.1387043940486
 30
0.0
 10
107.1452256676581
 20
-132.0837551210589
 30
0.0
 10
107.1452256676581
 20
-132.0837551210589
 30
0.0
 10
107.3415961103174
 20
-132.1090765728755
 30
0.0
 10
107.3415961103174
 20
-132.1090765728755
 30
0.0
 10
107.3453857153511
 20
-132.1090765728755
 30
0.0
 10
107.3639892309715
 20
-132.1111436301666
 30
0.0
 10
107.3639892309715
 20
-132.1280245980444
 30
0.0
 10
107.3639892309715
 20
-132.1428385086309
 30
0.0
 10
107.3546874731613
 20
-132.1514512473441
 30
0.0
 10
107.3305718047646
 20
-132.1662651579306
 30
0.0
 10
107.3250596519882
 20
-132.2317219721504
 30
0.0
 10
107.322992594697
 20
-132.2529093093847
 30
0.0
 10
107.322992594697
 20
-132.312164951731
 30
0.0
 10
107.322992594697
 20
-132.312164951731
 30
0.0
 10
107.40636390544
 20
-132.312164951731
 30
0.0
 10
107.40636390544
 20
-132.312164951731
 30
0.0
 10
107.4787109106303
 20
-132.312164951731
 30
0.0
 10
107.6306396215298
 20
-132.3078585823744
 30
0.0
 10
107.7398491484122
 20
-132.2994180984355
 30
0.0
 10
107.7398491484122
 20
-132.2994180984355
 30
0.0
 10
107.7398491484122
 20
-132.4792520827656
 30
0.0
 10
107.7398491484122
 20
-132.4792520827656
 30
0.0
 10
107.7136664227243
 20
-132.4771850254744
 30
0.0
 10
107.6103135581668
 20
-132.4728786561179
 30
0.0
 10
107.5748290746688
 20
-132.4708115988267
 30
0.0
 10
107.5620822213734
 20
-132.5216267572342
 30
0.0
 10
107.5324544002002
 20
-132.633764615279
 30
0.0
 10
107.4749213055965
 20
-132.7732909824317
 30
0.0
 10
107.5121283368372
 20
-132.7732909824317
 30
0.0
 10
107.7546630589988
 20
-132.7543429572628
 30
0.0
 10
107.8084065485687
 20
-132.7521036451974
 30
0.0
 10
107.8084065485687
 20
-132.7521036451974
 30
0.0
 10
107.8084065485687
 20
-132.936243998884
 30
0.0
 10
107.8084065485687
 20
-132.936243998884
 30
0.0
 10
107.7822238228808
 20
-132.936243998884
 30
0.0
 10
107.7674099122942
 20
-132.9319376295274
 30
0.0
 10
107.6247829592049
 20
-132.9319376295274
 30
0.0
  0
HATCH
  5
DE
330
D7
100
AcDbEntity
  8
レイヤー 1
 62
   250
420
  2299925
440
 33554687
100
AcDbHatch
 10
0.0
 20
0.0
 30
0.0
210
0.0
220
0.0
230
1.0
  2
SOLID
 70
     1
 71
     1
 91
        3
 92
        1
 93
        1
 72
     4
 94
        3
 73
     0
 74
     0
 95
       17
 96
       13
 40
0.0
 40
0.0
 40
0.0
 40
0.0
 40
1.0
 40
1.0
 40
1.0
 40
2.0
 40
2.0
 40
2.0
 40
3.0
 40
3.0
 40
3.0
 40
4.0
 40
4.0
 40
4.0
 40
4.0
 10
107.1304117570715
 20
-133.3170993047783
 10
107.115597846485
 20
-133.3465548711772
 10
107.0711561147252
 20
-133.4397447040532
 10
107.0618543569151
 20
-133.4586927292221
 10
107.2285969784012
 20
-133.5179483715684
 10
107.2472004940215
 20
-133.5243217982161
 10
107.3102457414016
 20
-133.5518825620981
 10
107.3581325686466
 20
-133.4650661558698
 10
107.378803141558
 20
-133.390996602937
 10
107.3915499948535
 20
-133.3170993047783
 10
107.3915499948535
 20
-133.3170993047783
 10
107.1304117570715
 20
-133.3170993047783
 10
107.1304117570715
 20
-133.3170993047783
 97
        0
 97
        1
330
DB
 92
        1
 93
        1
 72
     4
 94
        3
 73
     0
 74
     0
 95
       20
 96
       16
 40
0.0
 40
0.0
 40
0.0
 40
0.0
 40
1.0
 40
1.0
 40
1.0
 40
2.0
 40
2.0
 40
2.0
 40
3.0
 40
3.0
 40
3.0
 40
4.0
 40
4.0
 40
4.0
 40
5.0
 40
5.0
 40
5.0
 40
5.0
 10
107.074945719759
 20
-132.4666774842444
 10
107.074945719759
 20
-132.4666774842444
 10
107.047384955877
 20
-132.4666774842444
 10
107.047384955877
 20
-132.4666774842444
 10
107.088037082603
 20
-132.5660684889939
 10
107.115597846485
 20
-132.6463392138002
 10
107.1452256676581
 20
-132.7732909824317
 10
107.1452256676581
 20
-132.7732909824317
 10
107.3267821997308
 20
-132.7732909824317
 10
107.3267821997308
 20
-132.7732909824317
 10
107.3546874731613
 20
-132.6802734043299
 10
107.3750135365243
 20
-132.595696310167
 10
107.3953395998872
 20
-132.4666774842444
 10
107.3953395998872
 20
-132.4666774842444
 10
107.074945719759
 20
-132.4666774842444
 10
107.074945719759
 20
-132.4666774842444
 97
        0
 97
        1
330
DC
 92
        1
 93
        1
 72
     4
 94
        3
 73
     0
 74
     0
 95
      242
 96
      238
 40
0.0
 40
0.0
 40
0.0
 40
0.0
 40
1.0
 40
1.0
 40
1.0
 40
2.0
 40
2.0
 40
2.0
 40
3.0
 40
3.0
 40
3.0
 40
4.0
 40
4.0
 40
4.0
 40
5.0
 40
5.0
 40
5.0
 40
6.0
 40
6.0
 40
6.0
 40
7.0
 40
7.0
 40
7.0
 40
8.0
 40
8.0
 40
8.0
 40
9.0
 40
9.0
 40
9.0
 40
10.0
 40
10.0
 40
10.0
 40
11.0
 40
11.0
 40
11.0
 40
12.0
 40
12.0
 40
12.0
 40
13.0
 40
13.0
 40
13.0
 40
14.0
 40
14.0
 40
14.0
 40
15.0
 40
15.0
 40
15.0
 40
16.0
 40
16.0
 40
16.0
 40
17.0
 40
17.0
 40
17.0
 40
18.0
 40
18.0
 40
18.0
 40
19.0
 40
19.0
 40
19.0
 40
20.0
 40
20.0
 40
20.0
 40
21.0
 40
21.0
 40
21.0
 40
22.0
 40
22.0
 40
22.0
 40
23.0
 40
23.0
 40
23.0
 40
24.0
 40
24.0
 40
24.0
 40
25.0
 40
25.0
 40
25.0
 40
26.0
 40
26.0
 40
26.0
 40
27.0
 40
27.0
 40
27.0
 40
28.0
 40
28.0
 40
28.0
 40
29.0
 40
29.0
 40
29.0
 40
30.0
 40
30.0
 40
30.0
 40
31.0
 40
31.0
 40
31.0
 40
32.0
 40
32.0
 40
32.0
 40
33.0
 40
33.0
 40
33.0
 40
34.0
 40
34.0
 40
34.0
 40
35.0
 40
35.0
 40
35.0
 40
36.0
 40
36.0
 40
36.0
 40
37.0
 40
37.0
 40
37.0
 40
38.0
 40
38.0
 40
38.0
 40
39.0
 40
39.0
 40
39.0
 40
40.0
 40
40.0
 40
40.0
 40
41.0
 40
41.0
 40
41.0
 40
42.0
 40
42.0
 40
42.0
 40
43.0
 40
43.0
 40
43.0
 40
44.0
 40
44.0
 40
44.0
 40
45.0
 40
45.0
 40
45.0
 40
46.0
 40
46.0
 40
46.0
 40
47.0
 40
47.0
 40
47.0
 40
48.0
 40
48.0
 40
48.0
 40
49.0
 40
49.0
 40
49.0
 40
50.0
 40
50.0
 40
50.0
 40
51.0
 40
51.0
 40
51.0
 40
52.0
 40
52.0
 40
52.0
 40
53.0
 40
53.0
 40
53.0
 40
54.0
 40
54.0
 40
54.0
 40
55.0
 40
55.0
 40
55.0
 40
56.0
 40
56.0
 40
56.0
 40
57.0
 40
57.0
 40
57.0
 40
58.0
 40
58.0
 40
58.0
 40
59.0
 40
59.0
 40
59.0
 40
60.0
 40
60.0
 40
60.0
 40
61.0
 40
61.0
 40
61.0
 40
62.0
 40
62.0
 40
62.0
 40
63.0
 40
63.0
 40
63.0
 40
64.0
 40
64.0
 40
64.0
 40
65.0
 40
65.0
 40
65.0
 40
66.0
 40
66.0
 40
66.0
 40
67.0
 40
67.0
 40
67.0
 40
68.0
 40
68.0
 40
68.0
 40
69.0
 40
69.0
 40
69.0
 40
70.0
 40
70.0
 40
70.0
 40
71.0
 40
71.0
 40
71.0
 40
72.0
 40
72.0
 40
72.0
 40
73.0
 40
73.0
 40
73.0
 40
74.0
 40
74.0
 40
74.0
 40
75.0
 40
75.0
 40
75.0
 40
76.0
 40
76.0
 40
76.0
 40
77.0
 40
77.0
 40
77.0
 40
78.0
 40
78.0
 40
78.0
 40
79.0
 40
79.0
 40
79.0
 40
79.0
 10
107.6247829592049
 20
-132.9319376295274
 10
107.6247829592049
 20
-132.9319376295274
 10
107.4029188099548
 20
-132.9319376295274
 10
107.4029188099548
 20
-132.9319376295274
 10
107.4029188099548
 20
-132.9319376295274
 10
107.1600395782447
 20
-132.9319376295274
 10
107.1600395782447
 20
-132.9319376295274
 10
107.1600395782447
 20
-132.9319376295274
 10
107.2713161624183
 20
-132.974312303996
 10
107.2713161624183
 20
-132.974312303996
 10
107.2806179202284
 20
-132.9786186733525
 10
107.2916422257812
 20
-132.984819845226
 10
107.2916422257812
 20
-132.9975666985214
 10
107.2916422257812
 20
-133.0187540357557
 10
107.2637369523507
 20
-133.0251274624034
 10
107.2454779462789
 20
-133.0292615769857
 10
107.2361761884687
 20
-133.0525159715111
 10
107.2099934627808
 20
-133.1181450405052
 10
107.1934570044516
 20
-133.1625867722649
 10
107.1934570044516
 20
-133.1625867722649
 10
107.4304795738368
 20
-133.1625867722649
 10
107.4304795738368
 20
-133.1625867722649
 10
107.5100612795461
 20
-133.1625867722649
 10
107.6823160538086
 20
-133.1582804029083
 10
107.8063394912776
 20
-133.1498399189695
 10
107.8063394912776
 20
-133.1498399189695
 10
107.8063394912776
 20
-133.3276068460084
 10
107.8063394912776
 20
-133.3276068460084
 10
107.7343369956359
 20
-133.3233004766518
 10
107.7157334800155
 20
-133.3233004766518
 10
107.5582926163396
 20
-133.3191663620695
 10
107.530387342909
 20
-133.4735066398087
 10
107.4918022734743
 20
-133.5539496193893
 10
107.4528726944909
 20
-133.6237128029656
 10
107.5582926163396
 20
-133.6829684453119
 10
107.6509656848928
 20
-133.750664571597
 10
107.7415716961549
 20
-133.8331746084688
 10
107.7415716961549
 20
-133.8331746084688
 10
107.6378743220488
 20
-134.0002617395034
 10
107.6378743220488
 20
-134.0002617395034
 10
107.6175482586859
 20
-133.9813137143345
 10
107.6065239531331
 20
-133.9728732303956
 10
107.5083387318034
 20
-133.8881238814585
 10
107.4656195477863
 20
-133.8500555763465
 10
107.4139431155076
 20
-133.8142265832999
 10
107.3436631676085
 20
-133.7697848515402
 10
107.1583170305021
 20
-133.9559922625179
 10
106.9788275557205
 20
-133.9792466570433
 10
106.7249240184576
 20
-134.0088744782165
 10
106.7249240184576
 20
-134.0088744782165
 10
106.6343180071956
 20
-133.8290404938865
 10
106.6343180071956
 20
-133.8290404938865
 10
106.9119927033067
 20
-133.8247341245299
 10
107.0656439619488
 20
-133.7994126727133
 10
107.198969157228
 20
-133.6893418719596
 10
107.095271783122
 20
-133.6385267135522
 10
107.0177571347039
 20
-133.6111382044444
 10
106.9860622562396
 20
-133.598391351149
 10
106.9695257979104
 20
-133.625952115031
 10
106.9564344350664
 20
-133.6449001401999
 10
106.9323187666697
 20
-133.6788343307296
 10
106.9323187666697
 20
-133.6788343307296
 10
106.7600639924072
 20
-133.5963242938578
 10
106.7600639924072
 20
-133.5963242938578
 10
106.8324109975974
 20
-133.5158813142773
 10
106.8861544871673
 20
-133.4206244241101
 10
106.9361083717035
 20
-133.3191663620695
 10
106.7693657502174
 20
-133.3233004766518
 10
106.7511067441455
 20
-133.3233004766518
 10
106.6787597389553
 20
-133.3276068460084
 10
106.6787597389553
 20
-133.3276068460084
 10
106.6787597389553
 20
-133.1498399189695
 10
106.6787597389553
 20
-133.1498399189695
 10
106.8010606286817
 20
-133.1562133456172
 10
106.9843397084969
 20
-133.1605197149737
 10
107.0063883196026
 20
-133.1605197149737
 10
107.0212022301891
 20
-133.126585524444
 10
107.0694335669826
 20
-133.0060071824603
 10
107.0859700253118
 20
-132.9319376295274
 10
107.0694335669826
 20
-132.9319376295274
 10
106.9137152510493
 20
-132.9383110561751
 10
106.743527534078
 20
-132.9510579094705
 10
106.743527534078
 20
-132.9510579094705
 10
106.743527534078
 20
-133.0843831047497
 10
106.743527534078
 20
-133.0843831047497
 10
106.7008083500609
 20
-133.1097045565663
 10
106.6491319177822
 20
-133.1413994350306
 10
106.5323431808322
 20
-133.2070285040246
 10
106.5323431808322
 20
-133.2070285040246
 10
106.5323431808322
 20
-133.3529282978249
 10
106.5323431808322
 20
-133.3529282978249
 10
106.5323431808322
 20
-133.3529282978249
 10
106.5323431808322
 20
-133.8206000099476
 10
106.5323431808322
 20
-133.8206000099476
 10
106.5323431808322
 20
-133.9473795238048
 10
106.5009928119164
 20
-134.0066351661511
 10
106.2529459369784
 20
-133.9981946822123
 10
106.2529459369784
 20
-133.9981946822123
 10
106.1619954161678
 20
-133.7909721887744
 10
106.1619954161678
 20
-133.7909721887744
 10
106.2178059630288
 20
-133.8035467872956
 10
106.2601806374974
 20
-133.8078531566522
 10
106.295320611447
 20
-133.8078531566522
 10
106.3621554638608
 20
-133.8078531566522
 10
106.371457221671
 20
-133.7845987621267
 10
106.371457221671
 20
-133.7189696931327
 10
106.371457221671
 20
-133.7189696931327
 10
106.371457221671
 20
-133.2895385408963
 10
106.371457221671
 20
-133.2895385408963
 10
106.2860188536368
 20
-133.3296739032995
 10
106.2712049430502
 20
-133.3360473299472
 10
106.2305528163243
 20
-133.3551676098903
 10
106.2267632112905
 20
-133.3761826923504
 10
106.2233181158052
 20
-133.4058105135235
 10
106.2064371479275
 20
-133.4058105135235
 10
106.1992024474085
 20
-133.4058105135235
 10
106.1899006895983
 20
-133.4016763989412
 10
106.1843885368219
 20
-133.3784220044158
 10
106.1843885368219
 20
-133.3784220044158
 10
106.1378797477711
 20
-133.1858411667903
 10
106.1378797477711
 20
-133.1858411667903
 10
106.2656927902738
 20
-133.1393323777395
 10
106.3232258848775
 20
-133.116077983214
 10
106.371457221671
 20
-133.0948906459797
 10
106.371457221671
 20
-133.0948906459797
 10
106.371457221671
 20
-132.6823404616211
 10
106.371457221671
 20
-132.6823404616211
 10
106.371457221671
 20
-132.6823404616211
 10
106.3249484326201
 20
-132.6823404616211
 10
106.3249484326201
 20
-132.6823404616211
 10
106.3249484326201
 20
-132.6823404616211
 10
106.2563910324637
 20
-132.6823404616211
 10
106.2563910324637
 20
-132.6823404616211
 10
106.1971353901174
 20
-132.6823404616211
 10
106.1899006895983
 20
-132.6823404616211
 10
106.1585503206826
 20
-132.6887138882688
 10
106.1585503206826
 20
-132.6887138882688
 10
106.1585503206826
 20
-132.4940659933522
 10
106.1585503206826
 20
-132.4940659933522
 10
106.1823214795308
 20
-132.5004394199999
 10
106.1899006895983
 20
-132.5004394199999
 10
106.2508788796873
 20
-132.5004394199999
 10
106.2508788796873
 20
-132.5004394199999
 10
106.3676676166372
 20
-132.5004394199999
 10
106.3676676166372
 20
-132.5004394199999
 10
106.3676676166372
 20
-132.4306762364235
 10
106.3676676166372
 20
-132.3481661995518
 10
106.3659450688946
 20
-132.3438598301953
 10
106.3583658588271
 20
-132.1640258458652
 10
106.3583658588271
 20
-132.1450778206963
 10
106.3566433110844
 20
-132.0985690316455
 10
106.3566433110844
 20
-132.0985690316455
 10
106.5454345436761
 20
-132.1070095155843
 10
106.5454345436761
 20
-132.1070095155843
 10
106.5547363014863
 20
-132.1070095155843
 10
106.5733398171067
 20
-132.1090765728755
 10
106.5733398171067
 20
-132.1259575407532
 10
106.5733398171067
 20
-132.1450778206963
 10
106.5602484542627
 20
-132.1555853619264
 10
106.5378553336086
 20
-132.1747056418695
 10
106.5378553336086
 20
-132.2253485455027
 10
106.5323431808322
 20
-132.453930630949
 10
106.5344102381233
 20
-132.5004394199999
 10
106.647064860491
 20
-132.5004394199999
 10
106.6584336755923
 20
-132.5004394199999
 10
106.743527534078
 20
-132.491998936061
 10
106.743527534078
 20
-132.491998936061
 10
106.743527534078
 20
-132.6866468309776
 10
106.743527534078
 20
-132.6866468309776
 10
106.7101101078711
 20
-132.6844075189122
 10
106.6508544655248
 20
-132.6802734043299
 10
106.5323431808322
 20
-132.6823404616211
 10
106.5323431808322
 20
-132.6823404616211
 10
106.5323431808322
 20
-133.0208210930469
 10
106.5323431808322
 20
-133.0208210930469
 10
106.5805745176257
 20
-132.9975666985214
 10
106.6381076122293
 20
-132.9700059346394
 10
106.6804822866979
 20
-132.946751540114
 10
106.6804822866979
 20
-132.946751540114
 10
106.6804822866979
 20
-132.7691568678494
 10
106.6804822866979
 20
-132.7691568678494
 10
106.7807345653187
 20
-132.7817314663705
 10
106.8840874298762
 20
-132.7817314663705
 10
106.9860622562396
 20
-132.7817314663705
 10
106.9657361928766
 20
-132.6866468309776
 10
106.9416205244799
 20
-132.6041367941059
 10
106.8861544871673
 20
-132.4708115988267
 10
106.847224908184
 20
-132.4728786561179
 10
106.7748779029938
 20
-132.4771850254744
 10
106.7418049863354
 20
-132.4792520827656
 10
106.7418049863354
 20
-132.4792520827656
 10
106.7418049863354
 20
-132.2994180984355
 10
106.7418049863354
 20
-132.2994180984355
 10
106.8510145132178
 20
-132.3078585823744
 10
107.0025987145688
 20
-132.312164951731
 10
107.074945719759
 20
-132.312164951731
 10
107.074945719759
 20
-132.312164951731
 10
107.1472927249493
 20
-132.312164951731
 10
107.1472927249493
 20
-132.312164951731
 10
107.1472927249493
 20
-132.1492119352787
 10
107.1472927249493
 20
-132.1387043940486
 10
107.1452256676581
 20
-132.0837551210589
 10
107.1452256676581
 20
-132.0837551210589
 10
107.3415961103174
 20
-132.1090765728755
 10
107.3415961103174
 20
-132.1090765728755
 10
107.3453857153511
 20
-132.1090765728755
 10
107.3639892309715
 20
-132.1111436301666
 10
107.3639892309715
 20
-132.1280245980444
 10
107.3639892309715
 20
-132.1428385086309
 10
107.3546874731613
 20
-132.1514512473441
 10
107.3305718047646
 20
-132.1662651579306
 10
107.3250596519882
 20
-132.2317219721504
 10
107.322992594697
 20
-132.2529093093847
 10
107.322992594697
 20
-132.312164951731
 10
107.322992594697
 20
-132.312164951731
 10
107.40636390544
 20
-132.312164951731
 10
107.40636390544
 20
-132.312164951731
 10
107.4787109106303
 20
-132.312164951731
 10
107.6306396215298
 20
-132.3078585823744
 10
107.7398491484122
 20
-132.2994180984355
 10
107.7398491484122
 20
-132.2994180984355
 10
107.7398491484122
 20
-132.4792520827656
 10
107.7398491484122
 20
-132.4792520827656
 10
107.7136664227243
 20
-132.4771850254744
 10
107.6103135581668
 20
-132.4728786561179
 10
107.5748290746688
 20
-132.4708115988267
 10
107.5620822213734
 20
-132.5216267572342
 10
107.5324544002002
 20
-132.633764615279
 10
107.4749213055965
 20
-132.7732909824317
 10
107.5121283368372
 20
-132.7732909824317
 10
107.7546630589988
 20
-132.7543429572628
 10
107.8084065485687
 20
-132.7521036451974
 10
107.8084065485687
 20
-132.7521036451974
 10
107.8084065485687
 20
-132.936243998884
 10
107.8084065485687
 20
-132.936243998884
 10
107.7822238228808
 20
-132.936243998884
 10
107.7674099122942
 20
-132.9319376295274
 10
107.6247829592049
 20
-132.9319376295274
 97
        0
 97
        1
330
DD
 75
     2
 76
     1
 98
        1
 10
0.0
 20
0.0
450
        0
451
        0
460
0.0
461
0.0
452
        0
462
0.0
453
        0
470

  0
SPLINE
  5
DF
330
D7
100
AcDbEntity
  8
レイヤー 1
100
AcDbSpline
210
0.0
220
0.0
230
1.0
 70
    11
 71
     3
 72
    17
 73
    13
 74
     0
 42
0.0000000001
 43
0.0000000001
 40
0.0
 40
0.0
 40
0.0
 40
0.0
 40
1.0
 40
1.0
 40
1.0
 40
2.0
 40
2.0
 40
2.0
 40
3.0
 40
3.0
 40
3.0
 40
4.0
 40
4.0
 40
4.0
 40
4.0
 10
109.2512125377913
 20
-133.7317165464281
 30
0.0
 10
109.2512125377913
 20
-133.7317165464281
 30
0.0
 10
108.632817898189
 20
-133.7317165464281
 30
0.0
 10
108.632817898189
 20
-133.7317165464281
 30
0.0
 10
108.632817898189
 20
-133.7317165464281
 30
0.0
 10
108.632817898189
 20
-133.8459214617642
 30
0.0
 10
108.632817898189
 20
-133.8459214617642
 30
0.0
 10
108.632817898189
 20
-133.8459214617642
 30
0.0
 10
109.2512125377913
 20
-133.8459214617642
 30
0.0
 10
109.2512125377913
 20
-133.8459214617642
 30
0.0
 10
109.2512125377913
 20
-133.8459214617642
 30
0.0
 10
109.2512125377913
 20
-133.7317165464281
 30
0.0
 10
109.2512125377913
 20
-133.7317165464281
 30
0.0
  0
SPLINE
  5
E0
330
D7
100
AcDbEntity
  8
レイヤー 1
100
AcDbSpline
210
0.0
220
0.0
230
1.0
 70
    11
 71
     3
 72
    17
 73
    13
 74
     0
 42
0.0000000001
 43
0.0000000001
 40
0.0
 40
0.0
 40
0.0
 40
0.0
 40
1.0
 40
1.0
 40
1.0
 40
2.0
 40
2.0
 40
2.0
 40
3.0
 40
3.0
 40
3.0
 40
4.0
 40
4.0
 40
4.0
 40
4.0
 10
109.2512125377913
 20
-133.4883205503953
 30
0.0
 10
109.2512125377913
 20
-133.4883205503953
 30
0.0
 10
108.632817898189
 20
-133.4883205503953
 30
0.0
 10
108.632817898189
 20
-133.4883205503953
 30
0.0
 10
108.632817898189
 20
-133.4883205503953
 30
0.0
 10
108.632817898189
 20
-133.6026977205055
 30
0.0
 10
108.632817898189
 20
-133.6026977205055
 30
0.0
 10
108.632817898189
 20
-133.6026977205055
 30
0.0
 10
109.2512125377913
 20
-133.6026977205055
 30
0.0
 10
109.2512125377913
 20
-133.6026977205055
 30
0.0
 10
109.2512125377913
 20
-133.6026977205055
 30
0.0
 10
109.2512125377913
 20
-133.4883205503953
 30
0.0
 10
109.2512125377913
 20
-133.4883205503953
 30
0.0
  0
SPLINE
  5
E1
330
D7
100
AcDbEntity
  8
レイヤー 1
100
AcDbSpline
210
0.0
220
0.0
230
1.0
 70
    11
 71
     3
 72
    17
 73
    13
 74
     0
 42
0.0000000001
 43
0.0000000001
 40
0.0
 40
0.0
 40
0.0
 40
0.0
 40
1.0
 40
1.0
 40
1.0
 40
2.0
 40
2.0
 40
2.0
 40
3.0
 40
3.0
 40
3.0
 40
4.0
 40
4.0
 40
4.0
 40
4.0
 10
109.2512125377913
 20
-133.2556043503666
 30
0.0
 10
109.2512125377913
 20
-133.2556043503666
 30
0.0
 10
108.632817898189
 20
-133.2556043503666
 30
0.0
 10
108.632817898189
 20
-133.2556043503666
 30
0.0
 10
108.632817898189
 20
-133.2556043503666
 30
0.0
 10
108.632817898189
 20
-133.3636080938292
 30
0.0
 10
108.632817898189
 20
-133.3636080938292
 30
0.0
 10
108.632817898189
 20
-133.3636080938292
 30
0.0
 10
109.2512125377913
 20
-133.3636080938292
 30
0.0
 10
109.2512125377913
 20
-133.3636080938292
 30
0.0
 10
109.2512125377913
 20
-133.3636080938292
 30
0.0
 10
109.2512125377913
 20
-133.2556043503666
 30
0.0
 10
109.2512125377913
 20
-133.2556043503666
 30
0.0
  0
SPLINE
  5
E2
330
D7
100
AcDbEntity
  8
レイヤー 1
100
AcDbSpline
210
0.0
220
0.0
230
1.0
 70
     9
 71
     3
 72
   203
 73
   199
 74
     0
 42
0.0000000001
 43
0.0000000001
 40
0.0
 40
0.0
 40
0.0
 40
0.0
 40
1.0
 40
1.0
 40
1.0
 40
2.0
 40
2.0
 40
2.0
 40
3.0
 40
3.0
 40
3.0
 40
4.0
 40
4.0
 40
4.0
 40
5.0
 40
5.0
 40
5.0
 40
6.0
 40
6.0
 40
6.0
 40
7.0
 40
7.0
 40
7.0
 40
8.0
 40
8.0
 40
8.0
 40
9.0
 40
9.0
 40
9.0
 40
10.0
 40
10.0
 40
10.0
 40
11.0
 40
11.0
 40
11.0
 40
12.0
 40
12.0
 40
12.0
 40
13.0
 40
13.0
 40
13.0
 40
14.0
 40
14.0
 40
14.0
 40
15.0
 40
15.0
 40
15.0
 40
16.0
 40
16.0
 40
16.0
 40
17.0
 40
17.0
 40
17.0
 40
18.0
 40
18.0
 40
18.0
 40
19.0
 40
19.0
 40
19.0
 40
20.0
 40
20.0
 40
20.0
 40
21.0
 40
21.0
 40
21.0
 40
22.0
 40
22.0
 40
22.0
 40
23.0
 40
23.0
 40
23.0
 40
24.0
 40
24.0
 40
24.0
 40
25.0
 40
25.0
 40
25.0
 40
26.0
 40
26.0
 40
26.0
 40
27.0
 40
27.0
 40
27.0
 40
28.0
 40
28.0
 40
28.0
 40
29.0
 40
29.0
 40
29.0
 40
30.0
 40
30.0
 40
30.0
 40
31.0
 40
31.0
 40
31.0
 40
32.0
 40
32.0
 40
32.0
 40
33.0
 40
33.0
 40
33.0
 40
34.0
 40
34.0
 40
34.0
 40
35.0
 40
35.0
 40
35.0
 40
36.0
 40
36.0
 40
36.0
 40
37.0
 40
37.0
 40
37.0
 40
38.0
 40
38.0
 40
38.0
 40
39.0
 40
39.0
 40
39.0
 40
40.0
 40
40.0
 40
40.0
 40
41.0
 40
41.0
 40
41.0
 40
42.0
 40
42.0
 40
42.0
 40
43.0
 40
43.0
 40
43.0
 40
44.0
 40
44.0
 40
44.0
 40
45.0
 40
45.0
 40
45.0
 40
46.0
 40
46.0
 40
46.0
 40
47.0
 40
47.0
 40
47.0
 40
48.0
 40
48.0
 40
48.0
 40
49.0
 40
49.0
 40
49.0
 40
50.0
 40
50.0
 40
50.0
 40
51.0
 40
51.0
 40
51.0
 40
52.0
 40
52.0
 40
52.0
 40
53.0
 40
53.0
 40
53.0
 40
54.0
 40
54.0
 40
54.0
 40
55.0
 40
55.0
 40
55.0
 40
56.0
 40
56.0
 40
56.0
 40
57.0
 40
57.0
 40
57.0
 40
58.0
 40
58.0
 40
58.0
 40
59.0
 40
59.0
 40
59.0
 40
60.0
 40
60.0
 40
60.0
 40
61.0
 40
61.0
 40
61.0
 40
62.0
 40
62.0
 40
62.0
 40
63.0
 40
63.0
 40
63.0
 40
64.0
 40
64.0
 40
64.0
 40
65.0
 40
65.0
 40
65.0
 40
66.0
 40
66.0
 40
66.0
 40
66.0
 10
109.1068630369594
 20
-132.9996337558126
 30
0.0
 10
109.1068630369594
 20
-132.9996337558126
 30
0.0
 10
108.6180039876024
 20
-132.9996337558126
 30
0.0
 10
108.6180039876024
 20
-132.9996337558126
 30
0.0
 10
108.6087022297922
 20
-133.0440754875723
 30
0.0
 10
108.6014675292732
 20
-133.0757703660366
 30
0.0
 10
108.5900987141719
 20
-133.1140109259228
 30
0.0
 10
108.612491834826
 20
-133.1140109259228
 30
0.0
 10
108.62558319767
 20
-133.116077983214
 30
0.0
 10
108.6310953504464
 20
-133.116077983214
 30
0.0
 10
108.6310953504464
 20
-133.116077983214
 30
0.0
 10
108.7957709146413
 20
-133.116077983214
 30
0.0
 10
108.7957709146413
 20
-133.116077983214
 30
0.0
 10
108.7957709146413
 20
-133.116077983214
 30
0.0
 10
109.1233994952886
 20
-133.116077983214
 30
0.0
 10
109.1233994952886
 20
-133.116077983214
 30
0.0
 10
109.1681857365968
 20
-133.116077983214
 30
0.0
 10
109.4162326115348
 20
-133.1033311299186
 30
0.0
 10
109.4437933754168
 20
-133.1033311299186
 30
0.0
 10
109.4420708276742
 20
-133.1308918938006
 30
0.0
 10
109.4403482799316
 20
-133.1498399189695
 30
0.0
 10
109.4403482799316
 20
-133.1794677401426
 30
0.0
 10
109.4382812226404
 20
-133.2111626186069
 30
0.0
 10
109.4382812226404
 20
-133.3465548711772
 30
0.0
 10
109.4382812226404
 20
-133.3741156350592
 30
0.0
 10
109.4382812226404
 20
-133.3741156350592
 30
0.0
 10
109.4382812226404
 20
-133.6195786883833
 30
0.0
 10
109.4382812226404
 20
-133.6195786883833
 30
0.0
 10
109.4382812226404
 20
-133.664020420143
 30
0.0
 10
109.4420708276742
 20
-133.8607353723508
 30
0.0
 10
109.445860432708
 20
-134.0130085927988
 30
0.0
 10
109.445860432708
 20
-134.0130085927988
 30
0.0
 10
109.2477674423061
 20
-134.0130085927988
 30
0.0
 10
109.2477674423061
 20
-134.0130085927988
 30
0.0
 10
109.2477674423061
 20
-134.0130085927988
 30
0.0
 10
109.2494899900487
 20
-133.9792466570433
 30
0.0
 10
109.2494899900487
 20
-133.9792466570433
 30
0.0
 10
109.2494899900487
 20
-133.9792466570433
 30
0.0
 10
108.6348849554801
 20
-133.9792466570433
 30
0.0
 10
108.6348849554801
 20
-133.9792466570433
 30
0.0
 10
108.6348849554801
 20
-133.9792466570433
 30
0.0
 10
108.6366075032228
 20
-134.0130085927988
 30
0.0
 10
108.6366075032228
 20
-134.0130085927988
 30
0.0
 10
108.6366075032228
 20
-134.0130085927988
 30
0.0
 10
108.4457492133399
 20
-134.0130085927988
 30
0.0
 10
108.4457492133399
 20
-134.0130085927988
 30
0.0
 10
108.4495388183737
 20
-133.9580593198091
 30
0.0
 10
108.4495388183737
 20
-133.9453124665137
 30
0.0
 10
108.4550509711501
 20
-133.8311075511776
 30
0.0
 10
108.4571180284413
 20
-133.8035467872956
 30
0.0
 10
108.4588405761839
 20
-133.6703938467907
 30
0.0
 10
108.4588405761839
 20
-133.6512735668476
 30
0.0
 10
108.4588405761839
 20
-133.6512735668476
 30
0.0
 10
108.4588405761839
 20
-133.4481851879921
 30
0.0
 10
108.4588405761839
 20
-133.4481851879921
 30
0.0
 10
108.3365396864575
 20
-133.6977823558985
 30
0.0
 10
108.1884005805918
 20
-133.8290404938865
 30
0.0
 10
108.0957275120385
 20
-133.8944973081062
 30
0.0
 10
108.0957275120385
 20
-133.8944973081062
 30
0.0
 10
107.9441433106876
 20
-133.7549709409536
 30
0.0
 10
107.9441433106876
 20
-133.7549709409536
 30
0.0
 10
108.0216579591057
 20
-133.7041557825462
 30
0.0
 10
108.1477484538658
 20
-133.6173393763179
 30
0.0
 10
108.267982286301
 20
-133.4228637361755
 30
0.0
 10
108.3475639920103
 20
-133.295911967544
 30
0.0
 10
108.405097086614
 20
-133.1520792310349
 30
0.0
 10
108.4347249077871
 20
-132.9996337558126
 30
0.0
 10
108.2345648600941
 20
-133.001873067878
 30
0.0
 10
108.0774685059667
 20
-133.0082464945257
 30
0.0
 10
107.9940971952237
 20
-133.0103135518168
 30
0.0
 10
107.9940971952237
 20
-133.0103135518168
 30
0.0
 10
107.9940971952237
 20
-132.832546624778
 30
0.0
 10
107.9940971952237
 20
-132.832546624778
 30
0.0
 10
108.1663519694862
 20
-132.8389200514257
 30
0.0
 10
108.4143988444242
 20
-132.8432264207822
 30
0.0
 10
108.5460014919607
 20
-132.8432264207822
 30
0.0
 10
108.5460014919607
 20
-132.8432264207822
 30
0.0
 10
108.7327256672612
 20
-132.8432264207822
 30
0.0
 10
108.7327256672612
 20
-132.8432264207822
 30
0.0
 10
108.7327256672612
 20
-132.8432264207822
 30
0.0
 10
108.7327256672612
 20
-132.7352226773196
 30
0.0
 10
108.7327256672612
 20
-132.7352226773196
 30
0.0
 10
108.7327256672612
 20
-132.7352226773196
 30
0.0
 10
108.605257134307
 20
-132.7352226773196
 30
0.0
 10
108.605257134307
 20
-132.7352226773196
 30
0.0
 10
108.4571180284413
 20
-132.7352226773196
 30
0.0
 10
108.3089789225755
 20
-132.7395290466762
 30
0.0
 10
108.1625623644524
 20
-132.7459024733239
 30
0.0
 10
108.1625623644524
 20
-132.7459024733239
 30
0.0
 10
108.1625623644524
 20
-132.5745089729327
 30
0.0
 10
108.1625623644524
 20
-132.5745089729327
 30
0.0
 10
108.2976101074742
 20
-132.5850165141628
 30
0.0
 10
108.4605631239265
 20
-132.5850165141628
 30
0.0
 10
108.605257134307
 20
-132.5850165141628
 30
0.0
 10
108.605257134307
 20
-132.5850165141628
 30
0.0
 10
108.7327256672612
 20
-132.5850165141628
 30
0.0
 10
108.7327256672612
 20
-132.5850165141628
 30
0.0
 10
108.7327256672612
 20
-132.5850165141628
 30
0.0
 10
108.7327256672612
 20
-132.4666774842444
 30
0.0
 10
108.7327256672612
 20
-132.4666774842444
 30
0.0
 10
108.7327256672612
 20
-132.4666774842444
 30
0.0
 10
108.6180039876024
 20
-132.4666774842444
 30
0.0
 10
108.6180039876024
 20
-132.4666774842444
 30
0.0
 10
108.5773518608765
 20
-132.4666774842444
 30
0.0
 10
108.3995849338376
 20
-132.4751179681833
 30
0.0
 10
108.3623779025969
 20
-132.4751179681833
 30
0.0
 10
108.184610975558
 20
-132.4792520827656
 30
0.0
 10
108.1181206326927
 20
-132.4813191400567
 30
0.0
 10
108.0495632325362
 20
-132.4835584521221
 30
0.0
 10
108.0495632325362
 20
-132.4835584521221
 30
0.0
 10
108.0495632325362
 20
-132.2994180984355
 30
0.0
 10
108.0495632325362
 20
-132.2994180984355
 30
0.0
 10
108.1494710016085
 20
-132.3078585823744
 30
0.0
 10
108.1884005805918
 20
-132.3078585823744
 30
0.0
 10
108.5236083713066
 20
-132.3164713210875
 30
0.0
 10
108.4681423339941
 20
-132.2212144309204
 30
0.0
 10
108.4440266655973
 20
-132.1936536670384
 30
0.0
 10
108.412331787133
 20
-132.1576524192175
 30
0.0
 10
108.412331787133
 20
-132.1576524192175
 30
0.0
 10
108.5663275553237
 20
-132.0751423823458
 30
0.0
 10
108.5663275553237
 20
-132.0751423823458
 30
0.0
 10
108.6014675292732
 20
-132.1111436301666
 30
0.0
 10
108.6403971082566
 20
-132.1535183046352
 30
0.0
 10
108.7051649033792
 20
-132.2634168506147
 30
0.0
 10
108.7051649033792
 20
-132.2634168506147
 30
0.0
 10
108.605257134307
 20
-132.3185383783787
 30
0.0
 10
108.605257134307
 20
-132.3185383783787
 30
0.0
 10
108.605257134307
 20
-132.3185383783787
 30
0.0
 10
108.6142143825687
 20
-132.3185383783787
 30
0.0
 10
108.6142143825687
 20
-132.3185383783787
 30
0.0
 10
108.6142143825687
 20
-132.3185383783787
 30
0.0
 10
109.0717230630098
 20
-132.3185383783787
 30
0.0
 10
109.0717230630098
 20
-132.3185383783787
 30
0.0
 10
109.0717230630098
 20
-132.3185383783787
 30
0.0
 10
108.9883517522668
 20
-132.2740966466189
 30
0.0
 10
108.9883517522668
 20
-132.2740966466189
 30
0.0
 10
109.0124674206635
 20
-132.2360283415069
 30
0.0
 10
109.0624213051996
 20
-132.1555853619264
 30
0.0
 10
109.0755126680436
 20
-132.0815158089935
 30
0.0
 10
109.0755126680436
 20
-132.0815158089935
 30
0.0
 10
109.2625813528927
 20
-132.1450778206963
 30
0.0
 10
109.2625813528927
 20
-132.1450778206963
 30
0.0
 10
109.2698160534117
 20
-132.1471448779875
 30
0.0
 10
109.2884195690321
 20
-132.1576524192175
 30
0.0
 10
109.2884195690321
 20
-132.1788397564518
 30
0.0
 10
109.2884195690321
 20
-132.2169080615638
 30
0.0
 10
109.2308864744284
 20
-132.2169080615638
 30
0.0
 10
109.2143500160992
 20
-132.2169080615638
 30
0.0
 10
109.205048258289
 20
-132.2360283415069
 30
0.0
 10
109.184722194926
 20
-132.2761637039101
 30
0.0
 10
109.1588839787867
 20
-132.3164713210875
 30
0.0
 10
109.5085611705395
 20
-132.3100978944398
 30
0.0
 10
109.5347438962274
 20
-132.3078585823744
 30
0.0
 10
109.6012342390927
 20
-132.3016574105009
 30
0.0
 10
109.6012342390927
 20
-132.3016574105009
 30
0.0
 10
109.6012342390927
 20
-132.4835584521221
 30
0.0
 10
109.6012342390927
 20
-132.4835584521221
 30
0.0
 10
109.5846977807635
 20
-132.4835584521221
 30
0.0
 10
109.5623046601094
 20
-132.4813191400567
 30
0.0
 10
109.3697238224839
 20
-132.4728786561179
 30
0.0
 10
109.3252820907242
 20
-132.4708115988267
 30
0.0
 10
109.1327012530987
 20
-132.4666774842444
 30
0.0
 10
109.0937716741154
 20
-132.4666774842444
 30
0.0
 10
109.0937716741154
 20
-132.4666774842444
 30
0.0
 10
108.9049804415237
 20
-132.4666774842444
 30
0.0
 10
108.9049804415237
 20
-132.4666774842444
 30
0.0
 10
108.9049804415237
 20
-132.4666774842444
 30
0.0
 10
108.9049804415237
 20
-132.5850165141628
 30
0.0
 10
108.9049804415237
 20
-132.5850165141628
 30
0.0
 10
108.9049804415237
 20
-132.5850165141628
 30
0.0
 10
109.0569091524232
 20
-132.5850165141628
 30
0.0
 10
109.0569091524232
 20
-132.5850165141628
 30
0.0
 10
109.1995361055126
 20
-132.5850165141628
 30
0.0
 10
109.3662787269987
 20
-132.5850165141628
 30
0.0
 10
109.5030490177631
 20
-132.5745089729327
 30
0.0
 10
109.5030490177631
 20
-132.5745089729327
 30
0.0
 10
109.5030490177631
 20
-132.7459024733239
 30
0.0
 10
109.5030490177631
 20
-132.7459024733239
 30
0.0
 10
109.3197699379478
 20
-132.737461989385
 30
0.0
 10
109.1475151636853
 20
-132.7352226773196
 30
0.0
 10
109.0569091524232
 20
-132.7352226773196
 30
0.0
 10
109.0569091524232
 20
-132.7352226773196
 30
0.0
 10
108.9049804415237
 20
-132.7352226773196
 30
0.0
 10
108.9049804415237
 20
-132.7352226773196
 30
0.0
 10
108.9049804415237
 20
-132.7352226773196
 30
0.0
 10
108.9049804415237
 20
-132.8432264207822
 30
0.0
 10
108.9049804415237
 20
-132.8432264207822
 30
0.0
 10
108.9049804415237
 20
-132.8432264207822
 30
0.0
 10
109.1068630369594
 20
-132.8432264207822
 30
0.0
 10
109.1068630369594
 20
-132.8432264207822
 30
0.0
 10
109.2236517739094
 20
-132.8432264207822
 30
0.0
 10
109.4754882538811
 20
-132.8389200514257
 30
0.0
 10
109.6587673336964
 20
-132.832546624778
 30
0.0
 10
109.6587673336964
 20
-132.832546624778
 30
0.0
 10
109.6587673336964
 20
-133.0103135518168
 30
0.0
 10
109.6587673336964
 20
-133.0103135518168
 30
0.0
 10
109.4903021644677
 20
-133.0039401251691
 30
0.0
 10
109.2160725638418
 20
-132.9996337558126
 30
0.0
 10
109.1068630369594
 20
-132.9996337558126
 30
0.0
  0
HATCH
  5
E3
330
D7
100
AcDbEntity
  8
レイヤー 1
 62
   250
420
  2299925
440
 33554687
100
AcDbHatch
 10
0.0
 20
0.0
 30
0.0
210
0.0
220
0.0
230
1.0
  2
SOLID
 70
     1
 71
     1
 91
        4
 92
        1
 93
        1
 72
     4
 94
        3
 73
     0
 74
     0
 95
       17
 96
       13
 40
0.0
 40
0.0
 40
0.0
 40
0.0
 40
1.0
 40
1.0
 40
1.0
 40
2.0
 40
2.0
 40
2.0
 40
3.0
 40
3.0
 40
3.0
 40
4.0
 40
4.0
 40
4.0
 40
4.0
 10
109.2512125377913
 20
-133.7317165464281
 10
109.2512125377913
 20
-133.7317165464281
 10
108.632817898189
 20
-133.7317165464281
 10
108.632817898189
 20
-133.7317165464281
 10
108.632817898189
 20
-133.7317165464281
 10
108.632817898189
 20
-133.8459214617642
 10
108.632817898189
 20
-133.8459214617642
 10
108.632817898189
 20
-133.8459214617642
 10
109.2512125377913
 20
-133.8459214617642
 10
109.2512125377913
 20
-133.8459214617642
 10
109.2512125377913
 20
-133.8459214617642
 10
109.2512125377913
 20
-133.7317165464281
 10
109.2512125377913
 20
-133.7317165464281
 97
        0
 97
        1
330
DF
 92
        1
 93
        1
 72
     4
 94
        3
 73
     0
 74
     0
 95
       17
 96
       13
 40
0.0
 40
0.0
 40
0.0
 40
0.0
 40
1.0
 40
1.0
 40
1.0
 40
2.0
 40
2.0
 40
2.0
 40
3.0
 40
3.0
 40
3.0
 40
4.0
 40
4.0
 40
4.0
 40
4.0
 10
109.2512125377913
 20
-133.4883205503953
 10
109.2512125377913
 20
-133.4883205503953
 10
108.632817898189
 20
-133.4883205503953
 10
108.632817898189
 20
-133.4883205503953
 10
108.632817898189
 20
-133.4883205503953
 10
108.632817898189
 20
-133.6026977205055
 10
108.632817898189
 20
-133.6026977205055
 10
108.632817898189
 20
-133.6026977205055
 10
109.2512125377913
 20
-133.6026977205055
 10
109.2512125377913
 20
-133.6026977205055
 10
109.2512125377913
 20
-133.6026977205055
 10
109.2512125377913
 20
-133.4883205503953
 10
109.2512125377913
 20
-133.4883205503953
 97
        0
 97
        1
330
E0
 92
        1
 93
        1
 72
     4
 94
        3
 73
     0
 74
     0
 95
       17
 96
       13
 40
0.0
 40
0.0
 40
0.0
 40
0.0
 40
1.0
 40
1.0
 40
1.0
 40
2.0
 40
2.0
 40
2.0
 40
3.0
 40
3.0
 40
3.0
 40
4.0
 40
4.0
 40
4.0
 40
4.0
 10
109.2512125377913
 20
-133.2556043503666
 10
109.2512125377913
 20
-133.2556043503666
 10
108.632817898189
 20
-133.2556043503666
 10
108.632817898189
 20
-133.2556043503666
 10
108.632817898189
 20
-133.2556043503666
 10
108.632817898189
 20
-133.3636080938292
 10
108.632817898189
 20
-133.3636080938292
 10
108.632817898189
 20
-133.3636080938292
 10
109.2512125377913
 20
-133.3636080938292
 10
109.2512125377913
 20
-133.3636080938292
 10
109.2512125377913
 20
-133.3636080938292
 10
109.2512125377913
 20
-133.2556043503666
 10
109.2512125377913
 20
-133.2556043503666
 97
        0
 97
        1
330
E1
 92
        1
 93
        1
 72
     4
 94
        3
 73
     0
 74
     0
 95
      203
 96
      199
 40
0.0
 40
0.0
 40
0.0
 40
0.0
 40
1.0
 40
1.0
 40
1.0
 40
2.0
 40
2.0
 40
2.0
 40
3.0
 40
3.0
 40
3.0
 40
4.0
 40
4.0
 40
4.0
 40
5.0
 40
5.0
 40
5.0
 40
6.0
 40
6.0
 40
6.0
 40
7.0
 40
7.0
 40
7.0
 40
8.0
 40
8.0
 40
8.0
 40
9.0
 40
9.0
 40
9.0
 40
10.0
 40
10.0
 40
10.0
 40
11.0
 40
11.0
 40
11.0
 40
12.0
 40
12.0
 40
12.0
 40
13.0
 40
13.0
 40
13.0
 40
14.0
 40
14.0
 40
14.0
 40
15.0
 40
15.0
 40
15.0
 40
16.0
 40
16.0
 40
16.0
 40
17.0
 40
17.0
 40
17.0
 40
18.0
 40
18.0
 40
18.0
 40
19.0
 40
19.0
 40
19.0
 40
20.0
 40
20.0
 40
20.0
 40
21.0
 40
21.0
 40
21.0
 40
22.0
 40
22.0
 40
22.0
 40
23.0
 40
23.0
 40
23.0
 40
24.0
 40
24.0
 40
24.0
 40
25.0
 40
25.0
 40
25.0
 40
26.0
 40
26.0
 40
26.0
 40
27.0
 40
27.0
 40
27.0
 40
28.0
 40
28.0
 40
28.0
 40
29.0
 40
29.0
 40
29.0
 40
30.0
 40
30.0
 40
30.0
 40
31.0
 40
31.0
 40
31.0
 40
32.0
 40
32.0
 40
32.0
 40
33.0
 40
33.0
 40
33.0
 40
34.0
 40
34.0
 40
34.0
 40
35.0
 40
35.0
 40
35.0
 40
36.0
 40
36.0
 40
36.0
 40
37.0
 40
37.0
 40
37.0
 40
38.0
 40
38.0
 40
38.0
 40
39.0
 40
39.0
 40
39.0
 40
40.0
 40
40.0
 40
40.0
 40
41.0
 40
41.0
 40
41.0
 40
42.0
 40
42.0
 40
42.0
 40
43.0
 40
43.0
 40
43.0
 40
44.0
 40
44.0
 40
44.0
 40
45.0
 40
45.0
 40
45.0
 40
46.0
 40
46.0
 40
46.0
 40
47.0
 40
47.0
 40
47.0
 40
48.0
 40
48.0
 40
48.0
 40
49.0
 40
49.0
 40
49.0
 40
50.0
 40
50.0
 40
50.0
 40
51.0
 40
51.0
 40
51.0
 40
52.0
 40
52.0
 40
52.0
 40
53.0
 40
53.0
 40
53.0
 40
54.0
 40
54.0
 40
54.0
 40
55.0
 40
55.0
 40
55.0
 40
56.0
 40
56.0
 40
56.0
 40
57.0
 40
57.0
 40
57.0
 40
58.0
 40
58.0
 40
58.0
 40
59.0
 40
59.0
 40
59.0
 40
60.0
 40
60.0
 40
60.0
 40
61.0
 40
61.0
 40
61.0
 40
62.0
 40
62.0
 40
62.0
 40
63.0
 40
63.0
 40
63.0
 40
64.0
 40
64.0
 40
64.0
 40
65.0
 40
65.0
 40
65.0
 40
66.0
 40
66.0
 40
66.0
 40
66.0
 10
109.1068630369594
 20
-132.9996337558126
 10
109.1068630369594
 20
-132.9996337558126
 10
108.6180039876024
 20
-132.9996337558126
 10
108.6180039876024
 20
-132.9996337558126
 10
108.6087022297922
 20
-133.0440754875723
 10
108.6014675292732
 20
-133.0757703660366
 10
108.5900987141719
 20
-133.1140109259228
 10
108.612491834826
 20
-133.1140109259228
 10
108.62558319767
 20
-133.116077983214
 10
108.6310953504464
 20
-133.116077983214
 10
108.6310953504464
 20
-133.116077983214
 10
108.7957709146413
 20
-133.116077983214
 10
108.7957709146413
 20
-133.116077983214
 10
108.7957709146413
 20
-133.116077983214
 10
109.1233994952886
 20
-133.116077983214
 10
109.1233994952886
 20
-133.116077983214
 10
109.1681857365968
 20
-133.116077983214
 10
109.4162326115348
 20
-133.1033311299186
 10
109.4437933754168
 20
-133.1033311299186
 10
109.4420708276742
 20
-133.1308918938006
 10
109.4403482799316
 20
-133.1498399189695
 10
109.4403482799316
 20
-133.1794677401426
 10
109.4382812226404
 20
-133.2111626186069
 10
109.4382812226404
 20
-133.3465548711772
 10
109.4382812226404
 20
-133.3741156350592
 10
109.4382812226404
 20
-133.3741156350592
 10
109.4382812226404
 20
-133.6195786883833
 10
109.4382812226404
 20
-133.6195786883833
 10
109.4382812226404
 20
-133.664020420143
 10
109.4420708276742
 20
-133.8607353723508
 10
109.445860432708
 20
-134.0130085927988
 10
109.445860432708
 20
-134.0130085927988
 10
109.2477674423061
 20
-134.0130085927988
 10
109.2477674423061
 20
-134.0130085927988
 10
109.2477674423061
 20
-134.0130085927988
 10
109.2494899900487
 20
-133.9792466570433
 10
109.2494899900487
 20
-133.9792466570433
 10
109.2494899900487
 20
-133.9792466570433
 10
108.6348849554801
 20
-133.9792466570433
 10
108.6348849554801
 20
-133.9792466570433
 10
108.6348849554801
 20
-133.9792466570433
 10
108.6366075032228
 20
-134.0130085927988
 10
108.6366075032228
 20
-134.0130085927988
 10
108.6366075032228
 20
-134.0130085927988
 10
108.4457492133399
 20
-134.0130085927988
 10
108.4457492133399
 20
-134.0130085927988
 10
108.4495388183737
 20
-133.9580593198091
 10
108.4495388183737
 20
-133.9453124665137
 10
108.4550509711501
 20
-133.8311075511776
 10
108.4571180284413
 20
-133.8035467872956
 10
108.4588405761839
 20
-133.6703938467907
 10
108.4588405761839
 20
-133.6512735668476
 10
108.4588405761839
 20
-133.6512735668476
 10
108.4588405761839
 20
-133.4481851879921
 10
108.4588405761839
 20
-133.4481851879921
 10
108.3365396864575
 20
-133.6977823558985
 10
108.1884005805918
 20
-133.8290404938865
 10
108.0957275120385
 20
-133.8944973081062
 10
108.0957275120385
 20
-133.8944973081062
 10
107.9441433106876
 20
-133.7549709409536
 10
107.9441433106876
 20
-133.7549709409536
 10
108.0216579591057
 20
-133.7041557825462
 10
108.1477484538658
 20
-133.6173393763179
 10
108.267982286301
 20
-133.4228637361755
 10
108.3475639920103
 20
-133.295911967544
 10
108.405097086614
 20
-133.1520792310349
 10
108.4347249077871
 20
-132.9996337558126
 10
108.2345648600941
 20
-133.001873067878
 10
108.0774685059667
 20
-133.0082464945257
 10
107.9940971952237
 20
-133.0103135518168
 10
107.9940971952237
 20
-133.0103135518168
 10
107.9940971952237
 20
-132.832546624778
 10
107.9940971952237
 20
-132.832546624778
 10
108.1663519694862
 20
-132.8389200514257
 10
108.4143988444242
 20
-132.8432264207822
 10
108.5460014919607
 20
-132.8432264207822
 10
108.5460014919607
 20
-132.8432264207822
 10
108.7327256672612
 20
-132.8432264207822
 10
108.7327256672612
 20
-132.8432264207822
 10
108.7327256672612
 20
-132.8432264207822
 10
108.7327256672612
 20
-132.7352226773196
 10
108.7327256672612
 20
-132.7352226773196
 10
108.7327256672612
 20
-132.7352226773196
 10
108.605257134307
 20
-132.7352226773196
 10
108.605257134307
 20
-132.7352226773196
 10
108.4571180284413
 20
-132.7352226773196
 10
108.3089789225755
 20
-132.7395290466762
 10
108.1625623644524
 20
-132.7459024733239
 10
108.1625623644524
 20
-132.7459024733239
 10
108.1625623644524
 20
-132.5745089729327
 10
108.1625623644524
 20
-132.5745089729327
 10
108.2976101074742
 20
-132.5850165141628
 10
108.4605631239265
 20
-132.5850165141628
 10
108.605257134307
 20
-132.5850165141628
 10
108.605257134307
 20
-132.5850165141628
 10
108.7327256672612
 20
-132.5850165141628
 10
108.7327256672612
 20
-132.5850165141628
 10
108.7327256672612
 20
-132.5850165141628
 10
108.7327256672612
 20
-132.4666774842444
 10
108.7327256672612
 20
-132.4666774842444
 10
108.7327256672612
 20
-132.4666774842444
 10
108.6180039876024
 20
-132.4666774842444
 10
108.6180039876024
 20
-132.4666774842444
 10
108.5773518608765
 20
-132.4666774842444
 10
108.3995849338376
 20
-132.4751179681833
 10
108.3623779025969
 20
-132.4751179681833
 10
108.184610975558
 20
-132.4792520827656
 10
108.1181206326927
 20
-132.4813191400567
 10
108.0495632325362
 20
-132.4835584521221
 10
108.0495632325362
 20
-132.4835584521221
 10
108.0495632325362
 20
-132.2994180984355
 10
108.0495632325362
 20
-132.2994180984355
 10
108.1494710016085
 20
-132.3078585823744
 10
108.1884005805918
 20
-132.3078585823744
 10
108.5236083713066
 20
-132.3164713210875
 10
108.4681423339941
 20
-132.2212144309204
 10
108.4440266655973
 20
-132.1936536670384
 10
108.412331787133
 20
-132.1576524192175
 10
108.412331787133
 20
-132.1576524192175
 10
108.5663275553237
 20
-132.0751423823458
 10
108.5663275553237
 20
-132.0751423823458
 10
108.6014675292732
 20
-132.1111436301666
 10
108.6403971082566
 20
-132.1535183046352
 10
108.7051649033792
 20
-132.2634168506147
 10
108.7051649033792
 20
-132.2634168506147
 10
108.605257134307
 20
-132.3185383783787
 10
108.605257134307
 20
-132.3185383783787
 10
108.605257134307
 20
-132.3185383783787
 10
108.6142143825687
 20
-132.3185383783787
 10
108.6142143825687
 20
-132.3185383783787
 10
108.6142143825687
 20
-132.3185383783787
 10
109.0717230630098
 20
-132.3185383783787
 10
109.0717230630098
 20
-132.3185383783787
 10
109.0717230630098
 20
-132.3185383783787
 10
108.9883517522668
 20
-132.2740966466189
 10
108.9883517522668
 20
-132.2740966466189
 10
109.0124674206635
 20
-132.2360283415069
 10
109.0624213051996
 20
-132.1555853619264
 10
109.0755126680436
 20
-132.0815158089935
 10
109.0755126680436
 20
-132.0815158089935
 10
109.2625813528927
 20
-132.1450778206963
 10
109.2625813528927
 20
-132.1450778206963
 10
109.2698160534117
 20
-132.1471448779875
 10
109.2884195690321
 20
-132.1576524192175
 10
109.2884195690321
 20
-132.1788397564518
 10
109.2884195690321
 20
-132.2169080615638
 10
109.2308864744284
 20
-132.2169080615638
 10
109.2143500160992
 20
-132.2169080615638
 10
109.205048258289
 20
-132.2360283415069
 10
109.184722194926
 20
-132.2761637039101
 10
109.1588839787867
 20
-132.3164713210875
 10
109.5085611705395
 20
-132.3100978944398
 10
109.5347438962274
 20
-132.3078585823744
 10
109.6012342390927
 20
-132.3016574105009
 10
109.6012342390927
 20
-132.3016574105009
 10
109.6012342390927
 20
-132.4835584521221
 10
109.6012342390927
 20
-132.4835584521221
 10
109.5846977807635
 20
-132.4835584521221
 10
109.5623046601094
 20
-132.4813191400567
 10
109.3697238224839
 20
-132.4728786561179
 10
109.3252820907242
 20
-132.4708115988267
 10
109.1327012530987
 20
-132.4666774842444
 10
109.0937716741154
 20
-132.4666774842444
 10
109.0937716741154
 20
-132.4666774842444
 10
108.9049804415237
 20
-132.4666774842444
 10
108.9049804415237
 20
-132.4666774842444
 10
108.9049804415237
 20
-132.4666774842444
 10
108.9049804415237
 20
-132.5850165141628
 10
108.9049804415237
 20
-132.5850165141628
 10
108.9049804415237
 20
-132.5850165141628
 10
109.0569091524232
 20
-132.5850165141628
 10
109.0569091524232
 20
-132.5850165141628
 10
109.1995361055126
 20
-132.5850165141628
 10
109.3662787269987
 20
-132.5850165141628
 10
109.5030490177631
 20
-132.5745089729327
 10
109.5030490177631
 20
-132.5745089729327
 10
109.5030490177631
 20
-132.7459024733239
 10
109.5030490177631
 20
-132.7459024733239
 10
109.3197699379478
 20
-132.737461989385
 10
109.1475151636853
 20
-132.7352226773196
 10
109.0569091524232
 20
-132.7352226773196
 10
109.0569091524232
 20
-132.7352226773196
 10
108.9049804415237
 20
-132.7352226773196
 10
108.9049804415237
 20
-132.7352226773196
 10
108.9049804415237
 20
-132.7352226773196
 10
108.9049804415237
 20
-132.8432264207822
 10
108.9049804415237
 20
-132.8432264207822
 10
108.9049804415237
 20
-132.8432264207822
 10
109.1068630369594
 20
-132.8432264207822
 10
109.1068630369594
 20
-132.8432264207822
 10
109.2236517739094
 20
-132.8432264207822
 10
109.4754882538811
 20
-132.8389200514257
 10
109.6587673336964
 20
-132.832546624778
 10
109.6587673336964
 20
-132.832546624778
 10
109.6587673336964
 20
-133.0103135518168
 10
109.6587673336964
 20
-133.0103135518168
 10
109.4903021644677
 20
-133.0039401251691
 10
109.2160725638418
 20
-132.9996337558126
 10
109.1068630369594
 20
-132.9996337558126
 97
        0
 97
        1
330
E2
 75
     2
 76
     1
 98
        1
 10
0.0
 20
0.0
450
        0
451
        0
460
0.0
461
0.0
452
        0
462
0.0
453
        0
470

  0
SPLINE
  5
E4
330
D7
100
AcDbEntity
  8
レイヤー 1
100
AcDbSpline
210
0.0
220
0.0
230
1.0
 70
     9
 71
     3
 72
    29
 73
    25
 74
     0
 42
0.0000000001
 43
0.0000000001
 40
0.0
 40
0.0
 40
0.0
 40
0.0
 40
1.0
 40
1.0
 40
1.0
 40
2.0
 40
2.0
 40
2.0
 40
3.0
 40
3.0
 40
3.0
 40
4.0
 40
4.0
 40
4.0
 40
5.0
 40
5.0
 40
5.0
 40
6.0
 40
6.0
 40
6.0
 40
7.0
 40
7.0
 40
7.0
 40
8.0
 40
8.0
 40
8.0
 40
8.0
 10
110.749829073875
 20
-132.4475572043013
 30
0.0
 10
110.749829073875
 20
-132.4475572043013
 30
0.0
 10
110.4404594992996
 20
-132.4475572043013
 30
0.0
 10
110.4404594992996
 20
-132.4475572043013
 30
0.0
 10
110.34227427797
 20
-132.4475572043013
 30
0.0
 10
110.2199733882436
 20
-132.453930630949
 30
0.0
 10
110.1255777719478
 20
-132.4666774842444
 30
0.0
 10
110.1255777719478
 20
-132.4666774842444
 30
0.0
 10
110.1255777719478
 20
-132.2317219721504
 30
0.0
 10
110.1255777719478
 20
-132.2317219721504
 30
0.0
 10
110.2292751460538
 20
-132.246535882737
 30
0.0
 10
110.3905056147635
 20
-132.2508422520935
 30
0.0
 10
110.4404594992996
 20
-132.2508422520935
 30
0.0
 10
110.4404594992996
 20
-132.2508422520935
 30
0.0
 10
110.749829073875
 20
-132.2508422520935
 30
0.0
 10
110.749829073875
 20
-132.2508422520935
 30
0.0
 10
110.7663655322042
 20
-132.2508422520935
 30
0.0
 10
110.9441324592431
 20
-132.2508422520935
 30
0.0
 10
111.0681558967121
 20
-132.2317219721504
 30
0.0
 10
111.0681558967121
 20
-132.2317219721504
 30
0.0
 10
111.0681558967121
 20
-132.4666774842444
 30
0.0
 10
111.0681558967121
 20
-132.4666774842444
 30
0.0
 10
110.9310410963992
 20
-132.4475572043013
 30
0.0
 10
110.7646429844616
 20
-132.4475572043013
 30
0.0
 10
110.749829073875
 20
-132.4475572043013
 30
0.0
  0
SPLINE
  5
E5
330
D7
100
AcDbEntity
  8
レイヤー 1
100
AcDbSpline
210
0.0
220
0.0
230
1.0
 70
     9
 71
     3
 72
    47
 73
    43
 74
     0
 42
0.0000000001
 43
0.0000000001
 40
0.0
 40
0.0
 40
0.0
 40
0.0
 40
1.0
 40
1.0
 40
1.0
 40
2.0
 40
2.0
 40
2.0
 40
3.0
 40
3.0
 40
3.0
 40
4.0
 40
4.0
 40
4.0
 40
5.0
 40
5.0
 40
5.0
 40
6.0
 40
6.0
 40
6.0
 40
7.0
 40
7.0
 40
7.0
 40
8.0
 40
8.0
 40
8.0
 40
9.0
 40
9.0
 40
9.0
 40
10.0
 40
10.0
 40
10.0
 40
11.0
 40
11.0
 40
11.0
 40
12.0
 40
12.0
 40
12.0
 40
13.0
 40
13.0
 40
13.0
 40
14.0
 40
14.0
 40
14.0
 40
14.0
 10
110.8387125373945
 20
-132.9763793612871
 30
0.0
 10
110.8387125373945
 20
-132.9763793612871
 30
0.0
 10
110.749829073875
 20
-132.9763793612871
 30
0.0
 10
110.749829073875
 20
-132.9763793612871
 30
0.0
 10
110.749829073875
 20
-133.0631957675154
 30
0.0
 10
110.7312255582547
 20
-133.4524915573487
 30
0.0
 10
110.5589707839922
 20
-133.6724609040819
 30
0.0
 10
110.425645588713
 20
-133.8416150924076
 30
0.0
 10
110.2440890566404
 20
-133.9115505307582
 30
0.0
 10
110.1700195037075
 20
-133.938939039866
 30
0.0
 10
110.1700195037075
 20
-133.938939039866
 30
0.0
 10
109.9998317867361
 20
-133.7718519088313
 30
0.0
 10
109.9998317867361
 20
-133.7718519088313
 30
0.0
 10
110.0849256452218
 20
-133.7591050555359
 30
0.0
 10
110.238576903864
 20
-133.7358506610105
 30
0.0
 10
110.4035969776074
 20
-133.5475761927416
 30
0.0
 10
110.4683647727301
 20
-133.4757459518741
 30
0.0
 10
110.5589707839922
 20
-133.3360473299472
 30
0.0
 10
110.5589707839922
 20
-132.9763793612871
 30
0.0
 10
110.5589707839922
 20
-132.9763793612871
 30
0.0
 10
110.3570881885565
 20
-132.9763793612871
 30
0.0
 10
110.3570881885565
 20
-132.9763793612871
 30
0.0
 10
110.1941351721042
 20
-132.9763793612871
 30
0.0
 10
110.0311821556519
 20
-132.9806857306437
 30
0.0
 10
109.8682291391996
 20
-132.9954996412303
 30
0.0
 10
109.8682291391996
 20
-132.9954996412303
 30
0.0
 10
109.8682291391996
 20
-132.7755302944971
 30
0.0
 10
109.8682291391996
 20
-132.7755302944971
 30
0.0
 10
110.0329047033945
 20
-132.7903442050836
 30
0.0
 10
110.2830186356237
 20
-132.7944783196659
 30
0.0
 10
110.3570881885565
 20
-132.7944783196659
 30
0.0
 10
110.3570881885565
 20
-132.7944783196659
 30
0.0
 10
110.8387125373945
 20
-132.7944783196659
 30
0.0
 10
110.8387125373945
 20
-132.7944783196659
 30
0.0
 10
110.8552489957237
 20
-132.7944783196659
 30
0.0
 10
111.1329236918348
 20
-132.7944783196659
 30
0.0
 10
111.3330837395278
 20
-132.7755302944971
 30
0.0
 10
111.3330837395278
 20
-132.7755302944971
 30
0.0
 10
111.3330837395278
 20
-132.9954996412303
 30
0.0
 10
111.3330837395278
 20
-132.9954996412303
 30
0.0
 10
111.1680636657844
 20
-132.9806857306437
 30
0.0
 10
111.0033881015894
 20
-132.9763793612871
 30
0.0
 10
110.8387125373945
 20
-132.9763793612871
 30
0.0
  0
HATCH
  5
E6
330
D7
100
AcDbEntity
  8
レイヤー 1
 62
   250
420
  2299925
440
 33554687
100
AcDbHatch
 10
0.0
 20
0.0
 30
0.0
210
0.0
220
0.0
230
1.0
  2
SOLID
 70
     1
 71
     1
 91
        2
 92
        1
 93
        1
 72
     4
 94
        3
 73
     0
 74
     0
 95
       29
 96
       25
 40
0.0
 40
0.0
 40
0.0
 40
0.0
 40
1.0
 40
1.0
 40
1.0
 40
2.0
 40
2.0
 40
2.0
 40
3.0
 40
3.0
 40
3.0
 40
4.0
 40
4.0
 40
4.0
 40
5.0
 40
5.0
 40
5.0
 40
6.0
 40
6.0
 40
6.0
 40
7.0
 40
7.0
 40
7.0
 40
8.0
 40
8.0
 40
8.0
 40
8.0
 10
110.749829073875
 20
-132.4475572043013
 10
110.749829073875
 20
-132.4475572043013
 10
110.4404594992996
 20
-132.4475572043013
 10
110.4404594992996
 20
-132.4475572043013
 10
110.34227427797
 20
-132.4475572043013
 10
110.2199733882436
 20
-132.453930630949
 10
110.1255777719478
 20
-132.4666774842444
 10
110.1255777719478
 20
-132.4666774842444
 10
110.1255777719478
 20
-132.2317219721504
 10
110.1255777719478
 20
-132.2317219721504
 10
110.2292751460538
 20
-132.246535882737
 10
110.3905056147635
 20
-132.2508422520935
 10
110.4404594992996
 20
-132.2508422520935
 10
110.4404594992996
 20
-132.2508422520935
 10
110.749829073875
 20
-132.2508422520935
 10
110.749829073875
 20
-132.2508422520935
 10
110.7663655322042
 20
-132.2508422520935
 10
110.9441324592431
 20
-132.2508422520935
 10
111.0681558967121
 20
-132.2317219721504
 10
111.0681558967121
 20
-132.2317219721504
 10
111.0681558967121
 20
-132.4666774842444
 10
111.0681558967121
 20
-132.4666774842444
 10
110.9310410963992
 20
-132.4475572043013
 10
110.7646429844616
 20
-132.4475572043013
 10
110.749829073875
 20
-132.4475572043013
 97
        0
 97
        1
330
E4
 92
        1
 93
        1
 72
     4
 94
        3
 73
     0
 74
     0
 95
       47
 96
       43
 40
0.0
 40
0.0
 40
0.0
 40
0.0
 40
1.0
 40
1.0
 40
1.0
 40
2.0
 40
2.0
 40
2.0
 40
3.0
 40
3.0
 40
3.0
 40
4.0
 40
4.0
 40
4.0
 40
5.0
 40
5.0
 40
5.0
 40
6.0
 40
6.0
 40
6.0
 40
7.0
 40
7.0
 40
7.0
 40
8.0
 40
8.0
 40
8.0
 40
9.0
 40
9.0
 40
9.0
 40
10.0
 40
10.0
 40
10.0
 40
11.0
 40
11.0
 40
11.0
 40
12.0
 40
12.0
 40
12.0
 40
13.0
 40
13.0
 40
13.0
 40
14.0
 40
14.0
 40
14.0
 40
14.0
 10
110.8387125373945
 20
-132.9763793612871
 10
110.8387125373945
 20
-132.9763793612871
 10
110.749829073875
 20
-132.9763793612871
 10
110.749829073875
 20
-132.9763793612871
 10
110.749829073875
 20
-133.0631957675154
 10
110.7312255582547
 20
-133.4524915573487
 10
110.5589707839922
 20
-133.6724609040819
 10
110.425645588713
 20
-133.8416150924076
 10
110.2440890566404
 20
-133.9115505307582
 10
110.1700195037075
 20
-133.938939039866
 10
110.1700195037075
 20
-133.938939039866
 10
109.9998317867361
 20
-133.7718519088313
 10
109.9998317867361
 20
-133.7718519088313
 10
110.0849256452218
 20
-133.7591050555359
 10
110.238576903864
 20
-133.7358506610105
 10
110.4035969776074
 20
-133.5475761927416
 10
110.4683647727301
 20
-133.4757459518741
 10
110.5589707839922
 20
-133.3360473299472
 10
110.5589707839922
 20
-132.9763793612871
 10
110.5589707839922
 20
-132.9763793612871
 10
110.3570881885565
 20
-132.9763793612871
 10
110.3570881885565
 20
-132.9763793612871
 10
110.1941351721042
 20
-132.9763793612871
 10
110.0311821556519
 20
-132.9806857306437
 10
109.8682291391996
 20
-132.9954996412303
 10
109.8682291391996
 20
-132.9954996412303
 10
109.8682291391996
 20
-132.7755302944971
 10
109.8682291391996
 20
-132.7755302944971
 10
110.0329047033945
 20
-132.7903442050836
 10
110.2830186356237
 20
-132.7944783196659
 10
110.3570881885565
 20
-132.7944783196659
 10
110.3570881885565
 20
-132.7944783196659
 10
110.8387125373945
 20
-132.7944783196659
 10
110.8387125373945
 20
-132.7944783196659
 10
110.8552489957237
 20
-132.7944783196659
 10
111.1329236918348
 20
-132.7944783196659
 10
111.3330837395278
 20
-132.7755302944971
 10
111.3330837395278
 20
-132.7755302944971
 10
111.3330837395278
 20
-132.9954996412303
 10
111.3330837395278
 20
-132.9954996412303
 10
111.1680636657844
 20
-132.9806857306437
 10
111.0033881015894
 20
-132.9763793612871
 10
110.8387125373945
 20
-132.9763793612871
 97
        0
 97
        1
330
E5
 75
     2
 76
     1
 98
        1
 10
0.0
 20
0.0
450
        0
451
        0
460
0.0
461
0.0
452
        0
462
0.0
453
        0
470

  0
SPLINE
  5
E7
330
D7
100
AcDbEntity
  8
レイヤー 1
100
AcDbSpline
210
0.0
220
0.0
230
1.0
 70
     9
 71
     3
 72
    29
 73
    25
 74
     0
 42
0.0000000001
 43
0.0000000001
 40
0.0
 40
0.0
 40
0.0
 40
0.0
 40
1.0
 40
1.0
 40
1.0
 40
2.0
 40
2.0
 40
2.0
 40
3.0
 40
3.0
 40
3.0
 40
4.0
 40
4.0
 40
4.0
 40
5.0
 40
5.0
 40
5.0
 40
6.0
 40
6.0
 40
6.0
 40
7.0
 40
7.0
 40
7.0
 40
8.0
 40
8.0
 40
8.0
 40
8.0
 10
112.4554958486222
 20
-133.1393323777395
 30
0.0
 10
112.4554958486222
 20
-133.1393323777395
 30
0.0
 10
112.031404594388
 20
-133.1393323777395
 30
0.0
 10
112.031404594388
 20
-133.1393323777395
 30
0.0
 10
112.0072889259912
 20
-133.1393323777395
 30
0.0
 10
111.7292697203315
 20
-133.1393323777395
 30
0.0
 10
111.5442680927736
 20
-133.164653829556
 30
0.0
 10
111.5442680927736
 20
-133.164653829556
 30
0.0
 10
111.5442680927736
 20
-132.9341769415928
 30
0.0
 10
111.5442680927736
 20
-132.9341769415928
 30
0.0
 10
111.6831054408292
 20
-132.9574313361183
 30
0.0
 10
111.8498480623153
 20
-132.9594983934094
 30
0.0
 10
112.031404594388
 20
-132.9594983934094
 30
0.0
 10
112.031404594388
 20
-132.9594983934094
 30
0.0
 10
112.4554958486222
 20
-132.9594983934094
 30
0.0
 10
112.4554958486222
 20
-132.9594983934094
 30
0.0
 10
112.618104355526
 20
-132.9594983934094
 30
0.0
 10
112.7814018815268
 20
-132.9574313361183
 30
0.0
 10
112.942287840688
 20
-132.9341769415928
 30
0.0
 10
112.942287840688
 20
-132.9341769415928
 30
0.0
 10
112.942287840688
 20
-133.164653829556
 30
0.0
 10
112.942287840688
 20
-133.164653829556
 30
0.0
 10
112.7814018815268
 20
-133.1413994350306
 30
0.0
 10
112.5647053755046
 20
-133.1393323777395
 30
0.0
 10
112.4554958486222
 20
-133.1393323777395
 30
0.0
  0
HATCH
  5
E8
330
D7
100
AcDbEntity
  8
レイヤー 1
 62
   250
420
  2299925
440
 33554687
100
AcDbHatch
 10
0.0
 20
0.0
 30
0.0
210
0.0
220
0.0
230
1.0
  2
SOLID
 70
     1
 71
     1
 91
        1
 92
        1
 93
        1
 72
     4
 94
        3
 73
     0
 74
     0
 95
       29
 96
       25
 40
0.0
 40
0.0
 40
0.0
 40
0.0
 40
1.0
 40
1.0
 40
1.0
 40
2.0
 40
2.0
 40
2.0
 40
3.0
 40
3.0
 40
3.0
 40
4.0
 40
4.0
 40
4.0
 40
5.0
 40
5.0
 40
5.0
 40
6.0
 40
6.0
 40
6.0
 40
7.0
 40
7.0
 40
7.0
 40
8.0
 40
8.0
 40
8.0
 40
8.0
 10
112.4554958486222
 20
-133.1393323777395
 10
112.4554958486222
 20
-133.1393323777395
 10
112.031404594388
 20
-133.1393323777395
 10
112.031404594388
 20
-133.1393323777395
 10
112.0072889259912
 20
-133.1393323777395
 10
111.7292697203315
 20
-133.1393323777395
 10
111.5442680927736
 20
-133.164653829556
 10
111.5442680927736
 20
-133.164653829556
 10
111.5442680927736
 20
-132.9341769415928
 10
111.5442680927736
 20
-132.9341769415928
 10
111.6831054408292
 20
-132.9574313361183
 10
111.8498480623153
 20
-132.9594983934094
 10
112.031404594388
 20
-132.9594983934094
 10
112.031404594388
 20
-132.9594983934094
 10
112.4554958486222
 20
-132.9594983934094
 10
112.4554958486222
 20
-132.9594983934094
 10
112.618104355526
 20
-132.9594983934094
 10
112.7814018815268
 20
-132.9574313361183
 10
112.942287840688
 20
-132.9341769415928
 10
112.942287840688
 20
-132.9341769415928
 10
112.942287840688
 20
-133.164653829556
 10
112.942287840688
 20
-133.164653829556
 10
112.7814018815268
 20
-133.1413994350306
 10
112.5647053755046
 20
-133.1393323777395
 10
112.4554958486222
 20
-133.1393323777395
 97
        0
 97
        1
330
E7
 75
     2
 76
     1
 98
        1
 10
0.0
 20
0.0
450
        0
451
        0
460
0.0
461
0.0
452
        0
462
0.0
453
        0
470

  0
SPLINE
  5
E9
330
D7
100
AcDbEntity
  8
レイヤー 1
100
AcDbSpline
210
0.0
220
0.0
230
1.0
 70
     9
 71
     3
 72
    17
 73
    13
 74
     0
 42
0.0000000001
 43
0.0000000001
 40
0.0
 40
0.0
 40
0.0
 40
0.0
 40
1.0
 40
1.0
 40
1.0
 40
2.0
 40
2.0
 40
2.0
 40
3.0
 40
3.0
 40
3.0
 40
4.0
 40
4.0
 40
4.0
 40
4.0
 10
114.5738850625023
 20
-132.1724663298041
 30
0.0
 10
114.5256537257088
 20
-132.1724663298041
 30
0.0
 10
114.4867241467255
 20
-132.2169080615638
 30
0.0
 10
114.4867241467255
 20
-132.2720295893278
 30
0.0
 10
114.4867241467255
 20
-132.3290459196087
 30
0.0
 10
114.5256537257088
 20
-132.377794020725
 30
0.0
 10
114.5776746675361
 20
-132.377794020725
 30
0.0
 10
114.6293510998149
 20
-132.377794020725
 30
0.0
 10
114.6644910737644
 20
-132.3269788623175
 30
0.0
 10
114.6644910737644
 20
-132.2740966466189
 30
0.0
 10
114.6644910737644
 20
-132.2169080615638
 30
0.0
 10
114.6238389470385
 20
-132.1724663298041
 30
0.0
 10
114.5738850625023
 20
-132.1724663298041
 30
0.0
  0
SPLINE
  5
EA
330
D7
100
AcDbEntity
  8
レイヤー 1
100
AcDbSpline
210
0.0
220
0.0
230
1.0
 70
     9
 71
     3
 72
    17
 73
    13
 74
     0
 42
0.0000000001
 43
0.0000000001
 40
0.0
 40
0.0
 40
0.0
 40
0.0
 40
1.0
 40
1.0
 40
1.0
 40
2.0
 40
2.0
 40
2.0
 40
3.0
 40
3.0
 40
3.0
 40
4.0
 40
4.0
 40
4.0
 40
4.0
 10
114.575607610245
 20
-132.502506477291
 30
0.0
 10
114.4646755356199
 20
-132.502506477291
 30
0.0
 10
114.3757920721005
 20
-132.4010484152504
 30
0.0
 10
114.3757920721005
 20
-132.2740966466189
 30
0.0
 10
114.3757920721005
 20
-132.1471448779875
 30
0.0
 10
114.4646755356199
 20
-132.0434475038815
 30
0.0
 10
114.575607610245
 20
-132.0434475038815
 30
0.0
 10
114.6868841944185
 20
-132.0434475038815
 30
0.0
 10
114.7774902056806
 20
-132.1471448779875
 30
0.0
 10
114.7774902056806
 20
-132.2740966466189
 30
0.0
 10
114.7774902056806
 20
-132.4010484152504
 30
0.0
 10
114.6868841944185
 20
-132.502506477291
 30
0.0
 10
114.575607610245
 20
-132.502506477291
 30
0.0
  0
SPLINE
  5
EB
330
D7
100
AcDbEntity
  8
レイヤー 1
100
AcDbSpline
210
0.0
220
0.0
230
1.0
 70
     9
 71
     3
 72
    44
 73
    40
 74
     0
 42
0.0000000001
 43
0.0000000001
 40
0.0
 40
0.0
 40
0.0
 40
0.0
 40
1.0
 40
1.0
 40
1.0
 40
2.0
 40
2.0
 40
2.0
 40
3.0
 40
3.0
 40
3.0
 40
4.0
 40
4.0
 40
4.0
 40
5.0
 40
5.0
 40
5.0
 40
6.0
 40
6.0
 40
6.0
 40
7.0
 40
7.0
 40
7.0
 40
8.0
 40
8.0
 40
8.0
 40
9.0
 40
9.0
 40
9.0
 40
10.0
 40
10.0
 40
10.0
 40
11.0
 40
11.0
 40
11.0
 40
12.0
 40
12.0
 40
12.0
 40
13.0
 40
13.0
 40
13.0
 40
13.0
 10
114.3923285304297
 20
-132.7014607415642
 30
0.0
 10
114.2941433091001
 20
-133.0695691941631
 30
0.0
 10
114.2497015773403
 20
-133.2282158412589
 30
0.0
 10
114.0774468030778
 20
-133.4778130091653
 30
0.0
 10
113.9165608439167
 20
-133.7084621519027
 30
0.0
 10
113.7091660957046
 20
-133.8944973081062
 30
0.0
 10
113.4645643162519
 20
-133.9876871409822
 30
0.0
 10
113.4645643162519
 20
-133.9876871409822
 30
0.0
 10
113.2960991470232
 20
-133.8078531566522
 30
0.0
 10
113.2960991470232
 20
-133.8078531566522
 30
0.0
 10
113.8573052015704
 20
-133.6555799362041
 30
0.0
 10
114.1460042032343
 20
-133.0991970153363
 30
0.0
 10
114.2014702405468
 20
-132.6590860670956
 30
0.0
 10
114.2014702405468
 20
-132.6590860670956
 30
0.0
 10
113.5313991686657
 20
-132.6590860670956
 30
0.0
 10
113.5313991686657
 20
-132.6590860670956
 30
0.0
 10
113.4497504056653
 20
-132.6590860670956
 30
0.0
 10
113.2888644465042
 20
-132.6633924364522
 30
0.0
 10
113.1517496461912
 20
-132.6823404616211
 30
0.0
 10
113.1517496461912
 20
-132.6823404616211
 30
0.0
 10
113.1517496461912
 20
-132.4623711148879
 30
0.0
 10
113.1517496461912
 20
-132.4623711148879
 30
0.0
 10
113.2275417468667
 20
-132.4835584521221
 30
0.0
 10
113.4480278579227
 20
-132.4835584521221
 30
0.0
 10
113.5351887736995
 20
-132.4835584521221
 30
0.0
 10
113.5351887736995
 20
-132.4835584521221
 30
0.0
 10
113.9127712388829
 20
-132.4835584521221
 30
0.0
 10
113.9127712388829
 20
-132.4835584521221
 30
0.0
 10
113.9499782701236
 20
-132.4835584521221
 30
0.0
 10
114.1553059610445
 20
-132.4813191400567
 30
0.0
 10
114.1887233872514
 20
-132.4751179681833
 30
0.0
 10
114.2255859089436
 20
-132.4687445415356
 30
0.0
 10
114.2276529662347
 20
-132.4666774842444
 30
0.0
 10
114.2813964558046
 20
-132.426369867067
 30
0.0
 10
114.2813964558046
 20
-132.426369867067
 30
0.0
 10
114.4460720199996
 20
-132.5808823995805
 30
0.0
 10
114.4460720199996
 20
-132.5808823995805
 30
0.0
 10
114.4202338038602
 20
-132.6105102207536
 30
0.0
 10
114.4071424410163
 20
-132.6422050992179
 30
0.0
 10
114.3923285304297
 20
-132.7014607415642
 30
0.0
  0
HATCH
  5
EC
330
D7
100
AcDbEntity
  8
レイヤー 1
 62
   250
420
  2299925
440
 33554687
100
AcDbHatch
 10
0.0
 20
0.0
 30
0.0
210
0.0
220
0.0
230
1.0
  2
SOLID
 70
     1
 71
     1
 91
        3
 92
        1
 93
        1
 72
     4
 94
        3
 73
     0
 74
     0
 95
       17
 96
       13
 40
0.0
 40
0.0
 40
0.0
 40
0.0
 40
1.0
 40
1.0
 40
1.0
 40
2.0
 40
2.0
 40
2.0
 40
3.0
 40
3.0
 40
3.0
 40
4.0
 40
4.0
 40
4.0
 40
4.0
 10
114.5738850625023
 20
-132.1724663298041
 10
114.5256537257088
 20
-132.1724663298041
 10
114.4867241467255
 20
-132.2169080615638
 10
114.4867241467255
 20
-132.2720295893278
 10
114.4867241467255
 20
-132.3290459196087
 10
114.5256537257088
 20
-132.377794020725
 10
114.5776746675361
 20
-132.377794020725
 10
114.6293510998149
 20
-132.377794020725
 10
114.6644910737644
 20
-132.3269788623175
 10
114.6644910737644
 20
-132.2740966466189
 10
114.6644910737644
 20
-132.2169080615638
 10
114.6238389470385
 20
-132.1724663298041
 10
114.5738850625023
 20
-132.1724663298041
 97
        0
 97
        1
330
E9
 92
        1
 93
        1
 72
     4
 94
        3
 73
     0
 74
     0
 95
       17
 96
       13
 40
0.0
 40
0.0
 40
0.0
 40
0.0
 40
1.0
 40
1.0
 40
1.0
 40
2.0
 40
2.0
 40
2.0
 40
3.0
 40
3.0
 40
3.0
 40
4.0
 40
4.0
 40
4.0
 40
4.0
 10
114.575607610245
 20
-132.502506477291
 10
114.4646755356199
 20
-132.502506477291
 10
114.3757920721005
 20
-132.4010484152504
 10
114.3757920721005
 20
-132.2740966466189
 10
114.3757920721005
 20
-132.1471448779875
 10
114.4646755356199
 20
-132.0434475038815
 10
114.575607610245
 20
-132.0434475038815
 10
114.6868841944185
 20
-132.0434475038815
 10
114.7774902056806
 20
-132.1471448779875
 10
114.7774902056806
 20
-132.2740966466189
 10
114.7774902056806
 20
-132.4010484152504
 10
114.6868841944185
 20
-132.502506477291
 10
114.575607610245
 20
-132.502506477291
 97
        0
 97
        1
330
EA
 92
        1
 93
        1
 72
     4
 94
        3
 73
     0
 74
     0
 95
       44
 96
       40
 40
0.0
 40
0.0
 40
0.0
 40
0.0
 40
1.0
 40
1.0
 40
1.0
 40
2.0
 40
2.0
 40
2.0
 40
3.0
 40
3.0
 40
3.0
 40
4.0
 40
4.0
 40
4.0
 40
5.0
 40
5.0
 40
5.0
 40
6.0
 40
6.0
 40
6.0
 40
7.0
 40
7.0
 40
7.0
 40
8.0
 40
8.0
 40
8.0
 40
9.0
 40
9.0
 40
9.0
 40
10.0
 40
10.0
 40
10.0
 40
11.0
 40
11.0
 40
11.0
 40
12.0
 40
12.0
 40
12.0
 40
13.0
 40
13.0
 40
13.0
 40
13.0
 10
114.3923285304297
 20
-132.7014607415642
 10
114.2941433091001
 20
-133.0695691941631
 10
114.2497015773403
 20
-133.2282158412589
 10
114.0774468030778
 20
-133.4778130091653
 10
113.9165608439167
 20
-133.7084621519027
 10
113.7091660957046
 20
-133.8944973081062
 10
113.4645643162519
 20
-133.9876871409822
 10
113.4645643162519
 20
-133.9876871409822
 10
113.2960991470232
 20
-133.8078531566522
 10
113.2960991470232
 20
-133.8078531566522
 10
113.8573052015704
 20
-133.6555799362041
 10
114.1460042032343
 20
-133.0991970153363
 10
114.2014702405468
 20
-132.6590860670956
 10
114.2014702405468
 20
-132.6590860670956
 10
113.5313991686657
 20
-132.6590860670956
 10
113.5313991686657
 20
-132.6590860670956
 10
113.4497504056653
 20
-132.6590860670956
 10
113.2888644465042
 20
-132.6633924364522
 10
113.1517496461912
 20
-132.6823404616211
 10
113.1517496461912
 20
-132.6823404616211
 10
113.1517496461912
 20
-132.4623711148879
 10
113.1517496461912
 20
-132.4623711148879
 10
113.2275417468667
 20
-132.4835584521221
 10
113.4480278579227
 20
-132.4835584521221
 10
113.5351887736995
 20
-132.4835584521221
 10
113.5351887736995
 20
-132.4835584521221
 10
113.9127712388829
 20
-132.4835584521221
 10
113.9127712388829
 20
-132.4835584521221
 10
113.9499782701236
 20
-132.4835584521221
 10
114.1553059610445
 20
-132.4813191400567
 10
114.1887233872514
 20
-132.4751179681833
 10
114.2255859089436
 20
-132.4687445415356
 10
114.2276529662347
 20
-132.4666774842444
 10
114.2813964558046
 20
-132.426369867067
 10
114.2813964558046
 20
-132.426369867067
 10
114.4460720199996
 20
-132.5808823995805
 10
114.4460720199996
 20
-132.5808823995805
 10
114.4202338038602
 20
-132.6105102207536
 10
114.4071424410163
 20
-132.6422050992179
 10
114.3923285304297
 20
-132.7014607415642
 97
        0
 97
        1
330
EB
 75
     2
 76
     1
 98
        1
 10
0.0
 20
0.0
450
        0
451
        0
460
0.0
461
0.0
452
        0
462
0.0
453
        0
470

  0
ENDBLK
  5
DA
330
D7
100
AcDbEntity
  8
0
100
AcDbBlockEnd
  0
BLOCK
  5
FB
330
F9
100
AcDbEntity
  8
0
100
AcDbBlockBegin
  2
Block_10
 70
     0
 10
0.0
 20
0.0
 30
0.0
  3
Block_10
  1

  0
ELLIPSE
  5
FD
330
F9
100
AcDbEntity
  8
レイヤー 1
 62
   250
420
  2299925
370
     9
100
AcDbEllipse
 10
133.5010145904692
 20
-157.9084309125557
 30
0.0
 11
0.6249186177970502
 21
0.0
 31
0.0
210
0.0
220
0.0
230
1.0
 40
0.4451720467923725
 41
0.0
 42
6.283185307179585
  0
ELLIPSE
  5
FE
330
F9
100
AcDbEntity
  8
レイヤー 1
 62
   250
420
  2299925
370
     9
100
AcDbEllipse
 10
131.0731136848653
 20
-157.9084309104834
 30
0.0
 11
0.654460787293335
 21
0.0
 31
0.0
210
0.0
220
0.0
230
1.0
 40
0.4250771101414263
 41
0.0
 42
6.283185307179585
  0
ELLIPSE
  5
FF
330
F9
100
AcDbEntity
  8
レイヤー 1
 62
   250
420
  2299925
370
     9
100
AcDbEllipse
 10
135.8012259947095
 20
-157.9084309146269
 30
0.0
 11
0.5874468858580412
 21
0.0
 31
0.0
210
0.0
220
0.0
230
1.0
 40
0.4735684312256316
 41
0.0
 42
6.283185307179585
  0
ENDBLK
  5
FC
330
F9
100
AcDbEntity
  8
0
100
AcDbBlockEnd
  0
BLOCK
  5
102
330
100
100
AcDbEntity
  8
0
100
AcDbBlockBegin
  2
Block_11
 70
     0
 10
0.0
 20
0.0
 30
0.0
  3
Block_11
  1

  0
ELLIPSE
  5
104
330
100
100
AcDbEntity
  8
レイヤー 1
 62
   250
420
  2299925
370
     9
100
AcDbEllipse
 10
134.1627054810332
 20
-156.8789351372415
 30
0.0
 11
0.6249186177975315
 21
0.0
 31
0.0
210
0.0
220
0.0
230
1.0
 40
0.4451720467912595
 41
0.0
 42
6.283185307179585
  0
ELLIPSE
  5
105
330
100
100
AcDbEntity
  8
レイヤー 1
 62
   250
420
  2299925
370
     9
100
AcDbEllipse
 10
131.9800167096498
 20
-156.8789351351701
 30
0.0
 11
0.6544607872942977
 21
0.0
 31
0.0
210
0.0
220
0.0
230
1.0
 40
0.4250771101408012
 41
0.0
 42
6.283185307179585
  0
ELLIPSE
  5
106
330
100
100
AcDbEntity
  8
レイヤー 1
 62
   250
420
  2299925
370
     9
100
AcDbEllipse
 10
136.5794681794038
 20
-156.8789351393129
 30
0.0
 11
0.5874468858580412
 21
0.0
 31
0.0
210
0.0
220
0.0
230
1.0
 40
0.4735684312245393
 41
0.0
 42
6.283185307179585
  0
ENDBLK
  5
103
330
100
100
AcDbEntity
  8
0
100
AcDbBlockEnd
  0
BLOCK
  5
109
330
107
100
AcDbEntity
  8
0
100
AcDbBlockBegin
  2
Block_12
 70
     0
 10
0.0
 20
0.0
 30
0.0
  3
Block_12
  1

  0
ELLIPSE
  5
10B
330
107
100
AcDbEntity
  8
レイヤー 1
 62
   250
420
  2299925
370
     9
100
AcDbEllipse
 10
135.0038374524577
 20
-155.9098452332511
 30
0.0
 11
0.6249186177968898
 21
0.0
 31
0.0
210
0.0
220
0.0
230
1.0
 40
0.4451720467930003
 41
0.0
 42
6.283185307179585
  0
ELLIPSE
  5
10C
330
107
100
AcDbEntity
  8
レイヤー 1
 62
   250
420
  2299925
370
     9
100
AcDbEllipse
 10
132.9068583118109
 20
-155.9098452311794
 30
0.0
 11
0.6544607872934955
 21
0.0
 31
0.0
210
0.0
220
0.0
230
1.0
 40
0.425077110141077
 41
0.0
 42
6.283185307179585
  0
ELLIPSE
  5
10D
330
107
100
AcDbEntity
  8
レイヤー 1
 62
   250
420
  2299925
370
     9
100
AcDbEllipse
 10
137.263013871977
 20
-155.9098452353227
 30
0.0
 11
0.5874468858586829
 21
0.0
 31
0.0
210
0.0
220
0.0
230
1.0
 40
0.4735684312229296
 41
0.0
 42
6.283185307179585
  0
ENDBLK
  5
10A
330
107
100
AcDbEntity
  8
0
100
AcDbBlockEnd
  0
BLOCK
  5
110
330
10E
100
AcDbEntity
  8
0
100
AcDbBlockBegin
  2
Block_13
 70
     0
 10
0.0
 20
0.0
 30
0.0
  3
Block_13
  1

  0
ELLIPSE
  5
112
330
10E
100
AcDbEntity
  8
レイヤー 1
 62
   250
420
  2299925
370
     9
100
AcDbEllipse
 10
135.7916528134657
 20
-155.0150743520098
 30
0.0
 11
0.6249186177964085
 21
0.0
 31
0.0
210
0.0
220
0.0
230
1.0
 40
0.4451720467930864
 41
0.0
 42
6.283185307179585
  0
ELLIPSE
  5
113
330
10E
100
AcDbEntity
  8
レイヤー 1
 62
   250
420
  2299925
370
     9
100
AcDbEllipse
 10
133.82211438835
 20
-155.0150743499384
 30
0.0
 11
0.6544607872934955
 21
0.0
 31
0.0
210
0.0
220
0.0
230
1.0
 40
0.4250771101423026
 41
0.0
 42
6.283185307179585
  0
ELLIPSE
  5
114
330
10E
100
AcDbEntity
  8
レイヤー 1
 62
   250
420
  2299925
370
     9
100
AcDbEllipse
 10
137.9002174827843
 20
-155.0150743540818
 30
0.0
 11
0.5874468858582017
 21
0.0
 31
0.0
210
0.0
220
0.0
230
1.0
 40
0.47356843122441
 41
0.0
 42
6.283185307179585
  0
ENDBLK
  5
111
330
10E
100
AcDbEntity
  8
0
100
AcDbBlockEnd
  0
BLOCK
  5
117
330
115
100
AcDbEntity
  8
0
100
AcDbBlockBegin
  2
Block_14
 70
     0
 10
0.0
 20
0.0
 30
0.0
  3
Block_14
  1

  0
ELLIPSE
  5
119
330
115
100
AcDbEntity
  8
レイヤー 1
 62
   250
420
  2299925
370
     9
100
AcDbEllipse
 10
136.5331261154967
 20
-154.1167135125605
 30
0.0
 11
0.6249186177970502
 21
0.0
 31
0.0
210
0.0
220
0.0
230
1.0
 40
0.4451720467944263
 41
0.0
 42
6.283185307179585
  0
ELLIPSE
  5
11A
330
115
100
AcDbEntity
  8
レイヤー 1
 62
   250
420
  2299925
370
     9
100
AcDbEllipse
 10
134.6331007943848
 20
-154.1167135104892
 30
0.0
 11
0.654460787293335
 21
0.0
 31
0.0
210
0.0
220
0.0
230
1.0
 40
0.4250771101419166
 41
0.0
 42
6.283185307179585
  0
ELLIPSE
  5
11B
330
115
100
AcDbEntity
  8
レイヤー 1
 62
   250
420
  2299925
370
     9
100
AcDbEllipse
 10
138.5374210625179
 20
-154.116713514632
 30
0.0
 11
0.5874468858577204
 21
0.0
 31
0.0
210
0.0
220
0.0
230
1.0
 40
0.4735684312242518
 41
0.0
 42
6.283185307179585
  0
ENDBLK
  5
118
330
115
100
AcDbEntity
  8
0
100
AcDbBlockEnd
  0
BLOCK
  5
11E
330
11C
100
AcDbEntity
  8
0
100
AcDbBlockBegin
  2
Block_15
 70
     0
 10
0.0
 20
0.0
 30
0.0
  3
Block_15
  1

  0
ELLIPSE
  5
120
330
11C
100
AcDbEntity
  8
レイヤー 1
 62
   250
420
  2299925
370
     9
100
AcDbEllipse
 10
137.4020401195939
 20
-153.1670033255927
 30
0.0
 11
0.6249186177967293
 21
0.0
 31
0.0
210
0.0
220
0.0
230
1.0
 40
0.4451720467946548
 41
0.0
 42
6.283185307179585
  0
ELLIPSE
  5
121
330
11C
100
AcDbEntity
  8
レイヤー 1
 62
   250
420
  2299925
370
     9
100
AcDbEllipse
 10
135.6178700049664
 20
-153.1670033235208
 30
0.0
 11
0.654460787293335
 21
0.0
 31
0.0
210
0.0
220
0.0
230
1.0
 40
0.4250771101419166
 41
0.0
 42
6.283185307179585
  0
ELLIPSE
  5
122
330
11C
100
AcDbEntity
  8
レイヤー 1
 62
   250
420
  2299925
370
     9
100
AcDbEllipse
 10
139.2209667395538
 20
-153.1670033269666
 30
0.0
 11
0.5874468858585225
 21
0.0
 31
0.0
210
0.0
220
0.0
230
1.0
 40
0.4735684312238783
 41
0.0
 42
6.283185307179585
  0
ENDBLK
  5
11F
330
11C
100
AcDbEntity
  8
0
100
AcDbBlockEnd
  0
BLOCK
  5
125
330
123
100
AcDbEntity
  8
0
100
AcDbBlockBegin
  2
Block_16
 70
     0
 10
0.0
 20
0.0
 30
0.0
  3
Block_16
  1

  0
ELLIPSE
  5
127
330
123
100
AcDbEntity
  8
レイヤー 1
 62
   250
420
  2299925
370
     9
100
AcDbEllipse
 10
138.1898554184514
 20
-152.2256177569509
 30
0.0
 11
0.6249186177968898
 21
0.0
 31
0.0
210
0.0
220
0.0
230
1.0
 40
0.4451720467922301
 41
0.0
 42
6.283185307179585
  0
ELLIPSE
  5
128
330
123
100
AcDbEntity
  8
レイヤー 1
 62
   250
420
  2299925
370
     9
100
AcDbEllipse
 10
136.6258103237598
 20
-152.2256177548792
 30
0.0
 11
0.6544607872931748
 21
0.0
 31
0.0
210
0.0
220
0.0
230
1.0
 40
0.4250771101415305
 41
0.0
 42
6.283185307179585
  0
ENDBLK
  5
126
330
123
100
AcDbEntity
  8
0
100
AcDbBlockEnd
  0
BLOCK
  5
12B
330
129
100
AcDbEntity
  8
0
100
AcDbBlockBegin
  2
Block_17
 70
     0
 10
0.0
 20
0.0
 30
0.0
  3
Block_17
  1

  0
ELLIPSE
  5
12D
330
129
100
AcDbEntity
  8
レイヤー 1
 62
   250
420
  2299925
370
    13
100
AcDbEllipse
 10
125.0821063914251
 20
-151.4572588781051
 30
0.0
 11
0.0
 21
0.5594911725903886
 31
0.0
210
0.0
220
0.0
230
1.0
 40
0.7043723628623627
 41
0.0
 42
6.283185307179586
  0
ELLIPSE
  5
12E
330
129
100
AcDbEntity
  8
レイヤー 1
 62
   250
420
  2299925
370
    13
100
AcDbEllipse
 10
125.0595623192294
 20
-149.2474329914065
 30
0.0
 11
0.0
 21
0.5448306737279147
 31
0.0
210
0.0
220
0.0
230
1.0
 40
0.7233258666264711
 41
0.0
 42
6.283185307179586
  0
ELLIPSE
  5
12F
330
129
100
AcDbEntity
  8
レイヤー 1
 62
   250
420
  2299925
370
    13
100
AcDbEllipse
 10
125.039197821345
 20
-147.1826443299747
 30
0.0
 11
0.0
 21
0.5571384005767143
 31
0.0
210
0.0
220
0.0
230
1.0
 40
0.7073468977028893
 41
0.0
 42
6.283185307179586
  0
ENDBLK
  5
12C
330
129
100
AcDbEntity
  8
0
100
AcDbBlockEnd
  0
BLOCK
  5
132
330
130
100
AcDbEntity
  8
0
100
AcDbBlockBegin
  2
Block_18
 70
     0
 10
0.0
 20
0.0
 30
0.0
  3
Block_18
  1

  0
ELLIPSE
  5
134
330
130
100
AcDbEntity
  8
レイヤー 1
 62
   250
420
  2299925
370
    13
100
AcDbEllipse
 10
126.1458474763542
 20
-150.3935177931765
 30
0.0
 11
0.0
 21
0.5594911725910303
 31
0.0
210
0.0
220
0.0
230
1.0
 40
0.7043723628635619
 41
0.0
 42
6.283185307179586
  0
ELLIPSE
  5
135
330
130
100
AcDbEntity
  8
レイヤー 1
 62
   250
420
  2299925
370
    13
100
AcDbEllipse
 10
126.1233034041584
 20
-148.1836919064777
 30
0.0
 11
0.0
 21
0.5448306737274335
 31
0.0
210
0.0
220
0.0
230
1.0
 40
0.7233258666268156
 41
0.0
 42
6.283185307179586
  0
ELLIPSE
  5
136
330
130
100
AcDbEntity
  8
レイヤー 1
 62
   250
420
  2299925
370
    13
100
AcDbEllipse
 10
126.1029389062742
 20
-146.1189032450459
 30
0.0
 11
0.0
 21
0.5571384005768749
 31
0.0
210
0.0
220
0.0
230
1.0
 40
0.7073468977038372
 41
0.0
 42
6.283185307179586
  0
ENDBLK
  5
133
330
130
100
AcDbEntity
  8
0
100
AcDbBlockEnd
  0
BLOCK
  5
139
330
137
100
AcDbEntity
  8
0
100
AcDbBlockBegin
  2
Block_19
 70
     0
 10
0.0
 20
0.0
 30
0.0
  3
Block_19
  1

  0
ELLIPSE
  5
13B
330
137
100
AcDbEntity
  8
レイヤー 1
 62
   250
420
  2299925
370
    13
100
AcDbEllipse
 10
127.2525014657851
 20
-149.4247953495721
 30
0.0
 11
0.0
 21
0.5594911725895864
 31
0.0
210
0.0
220
0.0
230
1.0
 40
0.7043723628659531
 41
0.0
 42
6.283185307179586
  0
ELLIPSE
  5
13C
330
137
100
AcDbEntity
  8
レイヤー 1
 62
   250
420
  2299925
370
    13
100
AcDbEllipse
 10
127.2299573935888
 20
-147.2149694628737
 30
0.0
 11
0.0
 21
0.5448306737269521
 31
0.0
210
0.0
220
0.0
230
1.0
 40
0.7233258666280435
 41
0.0
 42
6.283185307179586
  0
ELLIPSE
  5
13D
330
137
100
AcDbEntity
  8
レイヤー 1
 62
   250
420
  2299925
370
    13
100
AcDbEllipse
 10
127.2095928957053
 20
-145.1501808014413
 30
0.0
 11
0.0
 21
0.5571384005781583
 31
0.0
210
0.0
220
0.0
230
1.0
 40
0.7073468977007681
 41
0.0
 42
6.283185307179586
  0
ENDBLK
  5
13A
330
137
100
AcDbEntity
  8
0
100
AcDbBlockEnd
  0
BLOCK
  5
140
330
13E
100
AcDbEntity
  8
0
100
AcDbBlockBegin
  2
Block_20
 70
     0
 10
0.0
 20
0.0
 30
0.0
  3
Block_20
  1

  0
ELLIPSE
  5
142
330
13E
100
AcDbEntity
  8
レイヤー 1
 62
   250
420
  2299925
370
    13
100
AcDbEllipse
 10
128.42675834652
 20
-148.5609205302123
 30
0.0
 11
0.0
 21
0.5594911725908699
 31
0.0
210
0.0
220
0.0
230
1.0
 40
0.7043723628634772
 41
0.0
 42
6.283185307179586
  0
ELLIPSE
  5
143
330
13E
100
AcDbEntity
  8
レイヤー 1
 62
   250
420
  2299925
370
    13
100
AcDbEllipse
 10
128.4042142743237
 20
-146.3510946435139
 30
0.0
 11
0.0
 21
0.5448306737269521
 31
0.0
210
0.0
220
0.0
230
1.0
 40
0.7233258666271602
 41
0.0
 42
6.283185307179586
  0
ELLIPSE
  5
144
330
13E
100
AcDbEntity
  8
レイヤー 1
 62
   250
420
  2299925
370
    13
100
AcDbEllipse
 10
128.3838497764397
 20
-144.2863059820816
 30
0.0
 11
0.0
 21
0.5571384005775166
 31
0.0
210
0.0
220
0.0
230
1.0
 40
0.707346897701007
 41
0.0
 42
6.283185307179586
  0
ENDBLK
  5
141
330
13E
100
AcDbEntity
  8
0
100
AcDbBlockEnd
  0
BLOCK
  5
147
330
145
100
AcDbEntity
  8
0
100
AcDbBlockBegin
  2
Block_21
 70
     0
 10
0.0
 20
0.0
 30
0.0
  3
Block_21
  1

  0
ELLIPSE
  5
149
330
145
100
AcDbEntity
  8
レイヤー 1
 62
   250
420
  2299925
370
    13
100
AcDbEllipse
 10
129.5370721005595
 20
-147.4419383857709
 30
0.0
 11
0.0
 21
0.5594911725910303
 31
0.0
210
0.0
220
0.0
230
1.0
 40
0.7043723628632752
 41
0.0
 42
6.283185307179586
  0
ELLIPSE
  5
14A
330
145
100
AcDbEntity
  8
レイヤー 1
 62
   250
420
  2299925
370
    13
100
AcDbEllipse
 10
129.514528028364
 20
-145.232112499073
 30
0.0
 11
0.0
 21
0.5448306737285565
 31
0.0
210
0.0
220
0.0
230
1.0
 40
0.7233258666265025
 41
0.0
 42
6.283185307179586
  0
ELLIPSE
  5
14B
330
145
100
AcDbEntity
  8
レイヤー 1
 62
   250
420
  2299925
370
    13
100
AcDbEllipse
 10
129.4941635304797
 20
-143.1673238376408
 30
0.0
 11
0.0
 21
0.5571384005770352
 31
0.0
210
0.0
220
0.0
230
1.0
 40
0.7073468977001785
 41
0.0
 42
6.283185307179586
  0
ENDBLK
  5
148
330
145
100
AcDbEntity
  8
0
100
AcDbBlockEnd
  0
BLOCK
  5
14E
330
14C
100
AcDbEntity
  8
0
100
AcDbBlockBegin
  2
Block_22
 70
     0
 10
0.0
 20
0.0
 30
0.0
  3
Block_22
  1

  0
ELLIPSE
  5
150
330
14C
100
AcDbEntity
  8
レイヤー 1
 62
   250
420
  2299925
370
    13
100
AcDbEllipse
 10
130.6277918013092
 20
-146.5175469849454
 30
0.0
 11
0.0
 21
0.5594911725904688
 31
0.0
210
0.0
220
0.0
230
1.0
 40
0.7043723628636953
 41
0.0
 42
6.283185307179586
  0
ELLIPSE
  5
151
330
14C
100
AcDbEntity
  8
レイヤー 1
 62
   250
420
  2299925
370
    13
100
AcDbEllipse
 10
130.6052477291135
 20
-144.307721098247
 30
0.0
 11
0.0
 21
0.5448306737271126
 31
0.0
210
0.0
220
0.0
230
1.0
 40
0.7233258666278304
 41
0.0
 42
6.283185307179586
  0
ELLIPSE
  5
152
330
14C
100
AcDbEntity
  8
レイヤー 1
 62
   250
420
  2299925
370
    13
100
AcDbEllipse
 10
130.5848832312292
 20
-142.2429324368145
 30
0.0
 11
0.0
 21
0.5571384005771956
 31
0.0
210
0.0
220
0.0
230
1.0
 40
0.7073468977017024
 41
0.0
 42
6.283185307179586
  0
ENDBLK
  5
14F
330
14C
100
AcDbEntity
  8
0
100
AcDbBlockEnd
  0
ENDSEC
  0
SECTION
  2
ENTITIES
  0
LINE
  5
79
330
70
100
AcDbEntity
  8
レイヤー 1
 62
   250
420
  2299925
370
     9
100
AcDbLine
 10
81.46492950549479
 20
-162.803233422319
 30
0.0
 11
81.96516839425882
 21
-161.9378342558685
 31
0.0
  0
LINE
  5
7A
330
70
100
AcDbEntity
  8
レイヤー 1
 62
   250
420
  2299925
370
     9
100
AcDbLine
 10
81.0990636722534
 20
-162.4373675890773
 30
0.0
 11
81.96516839425882
 21
-161.9378342558685
 31
0.0
  0
LINE
  5
7B
330
70
100
AcDbEntity
  8
レイヤー 1
 62
   250
420
  2299925
370
     9
100
AcDbLine
 10
75.03747714420734
 20
-168.8653799480258
 30
0.0
 11
81.96516839425882
 21
-161.937834289704
 31
0.0
  0
LWPOLYLINE
  5
7C
330
70
100
AcDbEntity
  8
レイヤー 1
 62
   250
420
  2299925
370
     9
100
AcDbPolyline
 90
        1
 70
     0
 43
0.0
 10
73.57205589635701
 20
-170.3307703648818
  0
LWPOLYLINE
  5
7D
330
70
100
AcDbEntity
  8
レイヤー 1
 62
   250
420
  2299925
370
     9
100
AcDbPolyline
 90
        1
 70
     0
 43
0.0
 10
68.40682478653691
 20
-170.3307703648818
  0
SPLINE
  5
7E
330
70
100
AcDbEntity
  8
レイヤー 1
 62
   250
420
  2299925
370
     9
100
AcDbSpline
210
0.0
220
0.0
230
1.0
 70
     9
 71
     3
 72
    17
 73
    13
 74
     0
 42
0.0000000001
 43
0.0000000001
 40
0.0
 40
0.0
 40
0.0
 40
0.0
 40
1.0
 40
1.0
 40
1.0
 40
2.0
 40
2.0
 40
2.0
 40
3.0
 40
3.0
 40
3.0
 40
4.0
 40
4.0
 40
4.0
 40
4.0
 10
118.5719736666597
 20
-170.3307703648818
 30
0.0
 10
118.5719736666597
 20
-170.2756664760062
 30
0.0
 10
118.5272061678019
 20
-170.2308636982401
 30
0.0
 10
118.4713967247812
 20
-170.2308636982401
 30
0.0
 10
118.4162575595213
 20
-170.2308636982401
 30
0.0
 10
118.3714900606634
 20
-170.2756664760062
 30
0.0
 10
118.3714900606634
 20
-170.3307703648818
 30
0.0
 10
118.3714900606634
 20
-170.3859095315342
 30
0.0
 10
118.4162575595213
 20
-170.4306770315234
 30
0.0
 10
118.4713967247812
 20
-170.4306770315234
 30
0.0
 10
118.5272061678019
 20
-170.4306770315234
 30
0.0
 10
118.5719736666597
 20
-170.3859095315342
 30
0.0
 10
118.5719736666597
 20
-170.3307703648818
 30
0.0
  0
SPLINE
  5
7F
330
70
100
AcDbEntity
  8
レイヤー 1
 62
   250
420
  2299925
370
     9
100
AcDbSpline
210
0.0
220
0.0
230
1.0
 70
     9
 71
     3
 72
    17
 73
    13
 74
     0
 42
0.0000000001
 43
0.0000000001
 40
0.0
 40
0.0
 40
0.0
 40
0.0
 40
1.0
 40
1.0
 40
1.0
 40
2.0
 40
2.0
 40
2.0
 40
3.0
 40
3.0
 40
3.0
 40
4.0
 40
4.0
 40
4.0
 40
4.0
 10
77.67225089533153
 20
-170.3307703648818
 30
0.0
 10
77.67225089533153
 20
-170.2756664760062
 30
0.0
 10
77.62744811756546
 20
-170.2308636982401
 30
0.0
 10
77.57163867313501
 20
-170.2308636982401
 30
0.0
 10
77.51653478425978
 20
-170.2308636982401
 30
0.0
 10
77.47173200649306
 20
-170.2756664760062
 30
0.0
 10
77.47173200649306
 20
-170.3307703648818
 30
0.0
 10
77.47173200649306
 20
-170.3859095315342
 30
0.0
 10
77.51653478425978
 20
-170.4306770315234
 30
0.0
 10
77.57163867313501
 20
-170.4306770315234
 30
0.0
 10
77.62744811756546
 20
-170.4306770315234
 30
0.0
 10
77.67225089533153
 20
-170.3859095315342
 30
0.0
 10
77.67225089533153
 20
-170.3307703648818
 30
0.0
  0
SPLINE
  5
80
330
70
100
AcDbEntity
  8
レイヤー 1
 62
   250
420
  2299925
370
     9
100
AcDbSpline
210
0.0
220
0.0
230
1.0
 70
     9
 71
     3
 72
    17
 73
    13
 74
     0
 42
0.0000000001
 43
0.0000000001
 40
0.0
 40
0.0
 40
0.0
 40
0.0
 40
1.0
 40
1.0
 40
1.0
 40
2.0
 40
2.0
 40
2.0
 40
3.0
 40
3.0
 40
3.0
 40
4.0
 40
4.0
 40
4.0
 40
4.0
 10
73.67196256299866
 20
-151.3309186070892
 30
0.0
 10
73.67196256299866
 20
-151.2757794404362
 30
0.0
 10
73.62719506300976
 20
-151.231011940447
 30
0.0
 10
73.57205589635701
 20
-151.231011940447
 30
0.0
 10
73.51695200748178
 20
-151.231011940447
 30
0.0
 10
73.4721492297157
 20
-151.2757794404362
 30
0.0
 10
73.4721492297157
 20
-151.3309186070892
 30
0.0
 10
73.4721492297157
 20
-151.3863752737419
 30
0.0
 10
73.51695200748178
 20
-151.4311427737305
 30
0.0
 10
73.57205589635701
 20
-151.4311427737305
 30
0.0
 10
73.62719506300976
 20
-151.4311427737305
 30
0.0
 10
73.67196256299866
 20
-151.3863752737419
 30
0.0
 10
73.67196256299866
 20
-151.3309186070892
 30
0.0
  0
CIRCLE
  5
81
330
70
100
AcDbEntity
  8
レイヤー 1
 62
   250
420
  2299925
370
     9
100
AcDbCircle
 10
73.5720558963571
 20
-166.3310111992149
 30
0.0
 40
0.0999066666415173
  0
SPLINE
  5
82
330
70
100
AcDbEntity
  8
レイヤー 1
 62
   250
420
  2299925
370
    25
100
AcDbSpline
210
0.0
220
0.0
230
1.0
 70
     8
 71
     3
 72
    20
 73
    16
 74
     0
 42
0.0000000001
 43
0.0000000001
 40
0.0
 40
0.0
 40
0.0
 40
0.0
 40
1.0
 40
1.0
 40
1.0
 40
2.0
 40
2.0
 40
2.0
 40
3.0
 40
3.0
 40
3.0
 40
4.0
 40
4.0
 40
4.0
 40
5.0
 40
5.0
 40
5.0
 40
5.0
 10
77.571878939195
 20
-151.3308776121917
 30
0.0
 10
77.56713547335491
 20
-159.3852683732792
 30
0.0
 10
83.95405822842363
 20
-166.048061001472
 30
0.0
 10
92.06413680535046
 20
-166.3220506436614
 30
0.0
 10
92.40174513007067
 20
-166.3337628658813
 30
0.0
 10
92.74005901032847
 20
-166.3337628658813
 30
0.0
 10
93.07766733504868
 20
-166.3220506436614
 30
0.0
 10
93.07766733504868
 20
-166.3220506436614
 30
0.0
 10
118.5097664122271
 20
-165.7308656438095
 30
0.0
 10
118.5097664122271
 20
-165.7308656438095
 30
0.0
 10
118.5097664122271
 20
-165.7308656438095
 30
0.0
 10
118.5097664126666
 20
-165.1018334635802
 30
0.0
 10
118.5097664126666
 20
-165.1018334635802
 30
0.0
 10
118.5097664126666
 20
-165.1018334635802
 30
0.0
 10
92.5705503360516
 20
-165.3312389772423
 30
0.0
 10
92.5705503360516
 20
-165.3312389772423
 30
0.0
  0
LWPOLYLINE
  5
83
330
70
100
AcDbEntity
  8
レイヤー 1
 62
   250
420
  2299925
370
    25
100
AcDbPolyline
 90
        1
 70
     0
 43
0.0
 10
78.57208117288492
 20
-151.3310764807425
  0
SPLINE
  5
84
330
70
100
AcDbEntity
  8
レイヤー 1
 62
   250
420
  2299925
370
    25
100
AcDbSpline
210
0.0
220
0.0
230
1.0
 70
     8
 71
     3
 72
     8
 73
     4
 74
     0
 42
0.0000000001
 43
0.0000000001
 40
0.0
 40
0.0
 40
0.0
 40
0.0
 40
1.0
 40
1.0
 40
1.0
 40
1.0
 10
91.54783198916623
 20
-165.2944449198594
 30
0.0
 10
84.65246161527161
 20
-164.7965076158798
 30
0.0
 10
79.14107931465045
 20
-159.3035410428122
 30
0.0
 10
78.613456022544
 20
-152.415554069113
 30
0.0
  0
LWPOLYLINE
  5
85
330
70
100
AcDbEntity
  8
レイヤー 1
 62
   250
420
  2299925
370
     9
100
AcDbPolyline
 90
        1
 70
     0
 43
0.0
 10
92.5705503360516
 20
-165.3312389772423
  0
INSERT
  5
87
330
70
100
AcDbEntity
  8
レイヤー 1
100
AcDbBlockReference
  2
Block_0
 10
0.0
 20
0.0
 30
0.0
  0
LINE
  5
95
330
70
100
AcDbEntity
  8
レイヤー 1
 62
   250
420
  2299925
370
     9
100
AcDbLine
 10
118.4717320268501
 20
-170.3307703648818
 30
0.0
 11
77.47173203709985
 21
-170.3307703648818
 31
0.0
  0
LINE
  5
96
330
70
100
AcDbEntity
  8
レイヤー 1
 62
   250
420
  2299925
370
     9
100
AcDbLine
 10
118.4713967247812
 20
-168.2706186987302
 30
0.0
 11
118.4713967247812
 21
-171.3305425868537
 31
0.0
  0
LINE
  5
97
330
70
100
AcDbEntity
  8
レイヤー 1
 62
   250
420
  2299925
370
     9
100
AcDbLine
 10
77.57163867313501
 20
-166.8580513041855
 30
0.0
 11
77.57163867313501
 21
-171.3305427309998
 31
0.0
  0
INSERT
  5
99
330
70
100
AcDbEntity
  8
レイヤー 1
100
AcDbBlockReference
  2
Block_2
 10
0.0
 20
0.0
 30
0.0
  0
LINE
  5
A5
330
70
100
AcDbEntity
  8
レイヤー 1
 62
   250
420
  2299925
370
     9
100
AcDbLine
 10
73.57205589635701
 20
-151.3310766082622
 30
0.0
 11
73.57205589635701
 21
-166.331076604512
 31
0.0
  0
LINE
  5
A6
330
70
100
AcDbEntity
  8
レイヤー 1
 62
   250
420
  2299925
370
     9
100
AcDbLine
 10
75.63220756250855
 20
-151.3309186070892
 30
0.0
 11
72.57246006327368
 21
-151.3309186070892
 31
0.0
  0
LINE
  5
A7
330
70
100
AcDbEntity
  8
レイヤー 1
 62
   250
420
  2299925
370
     9
100
AcDbLine
 10
77.02481835122111
 20
-166.3310111992149
 30
0.0
 11
72.57246006327368
 21
-166.3310111992149
 31
0.0
  0
INSERT
  5
A9
330
70
100
AcDbEntity
  8
レイヤー 1
100
AcDbBlockReference
  2
Block_4
 10
0.0
 20
0.0
 30
0.0
  0
LWPOLYLINE
  5
B4
330
70
100
AcDbEntity
  8
レイヤー 1
 62
   250
420
  2299925
370
    25
100
AcDbPolyline
 90
        6
 70
     0
 43
0.0
 10
92.5705503360516
 20
-166.3220506436614
 10
77.57187629874495
 20
-151.3310766745292
 10
78.171784222116
 20
-125.4900974414898
 10
78.77178422196554
 20
-125.4900974414898
 10
78.57208117288492
 20
-151.3310764807425
 10
92.5705503360516
 20
-165.3312389772423
  0
LINE
  5
B5
330
70
100
AcDbEntity
  8
レイヤー 1
 62
   250
420
  2299925
370
     9
100
AcDbLine
 10
80.58563263320033
 20
-155.4042109143557
 30
0.0
 11
80.08539374435832
 21
-156.2696100807613
 31
0.0
  0
LINE
  5
B6
330
70
100
AcDbEntity
  8
レイヤー 1
 62
   250
420
  2299925
370
     9
100
AcDbLine
 10
80.95149846640898
 20
-155.7700767476302
 30
0.0
 11
80.08539374435832
 21
-156.2696100807613
 31
0.0
  0
LINE
  5
B7
330
70
100
AcDbEntity
  8
レイヤー 1
 62
   250
420
  2299925
370
     9
100
AcDbLine
 10
87.01308499503195
 20
-149.3420643892265
 30
0.0
 11
80.08539374435832
 21
-156.2696100469265
 31
0.0
  0
INSERT
  5
B9
330
70
100
AcDbEntity
  8
レイヤー 1
100
AcDbBlockReference
  2
Block_6
 10
0.0
 20
0.0
 30
0.0
  0
LINE
  5
CE
330
70
100
AcDbEntity
  8
レイヤー 1
  6
AI-Linetype-0
 62
   154
420
    23468
370
    25
100
AcDbLine
 10
103.3721112301676
 20
-164.4897074243781
 30
0.0
 11
118.3714912515901
 21
-164.4897074243781
 31
0.0
  0
LINE
  5
D0
330
70
100
AcDbEntity
  8
レイヤー 1
 62
   250
420
  2299925
370
     9
100
AcDbLine
 10
110.4160703434387
 20
-163.1610151608177
 30
0.0
 11
110.6744447812914
 21
-162.1950037965738
 31
0.0
  0
LINE
  5
D1
330
70
100
AcDbEntity
  8
レイヤー 1
 62
   250
420
  2299925
370
     9
100
AcDbLine
 10
110.4160703434387
 20
-162.9454606203449
 30
0.0
 11
110.4160703434387
 21
-134.5823281678313
 31
0.0
  0
LINE
  5
D2
330
70
100
AcDbEntity
  8
レイヤー 1
 62
   250
420
  2299925
370
     9
100
AcDbLine
 10
110.4160703434387
 20
-163.1610151608177
 30
0.0
 11
110.1569903500484
 21
-162.1950037965738
 31
0.0
  0
INSERT
  5
D4
330
70
100
AcDbEntity
  8
レイヤー 1
100
AcDbBlockReference
  2
Block_8
 10
0.0
 20
0.0
 30
0.0
  0
LINE
  5
ED
330
70
100
AcDbEntity
  8
レイヤー 1
  6
AI-Linetype-1
 62
   154
420
    23468
370
    25
100
AcDbLine
 10
79.15110462919631
 20
-140.2855525557663
 30
0.0
 11
79.1511046296455
 21
-125.2861725343439
 31
0.0
  0
LINE
  5
EF
330
70
100
AcDbEntity
  8
レイヤー 1
 62
   250
420
  2299925
370
     9
100
AcDbLine
 10
80.33551432445122
 20
-133.1839668430934
 30
0.0
 11
81.23897092592274
 21
-133.4423412809031
 31
0.0
  0
LINE
  5
F0
330
70
100
AcDbEntity
  8
レイヤー 1
 62
   250
420
  2299925
370
     9
100
AcDbLine
 10
80.33553001328817
 20
-133.1839702786984
 30
0.0
 11
104.5916638290205
 21
-133.1839702776222
 31
0.0
  0
LINE
  5
F1
330
70
100
AcDbEntity
  8
レイヤー 1
 62
   250
420
  2299925
370
     9
100
AcDbLine
 10
80.33551432445122
 20
-133.1839668430934
 30
0.0
 11
81.23897092590061
 21
-132.9248868496601
 31
0.0
  0
SPLINE
  5
F2
330
70
100
AcDbEntity
  8
レイヤー 1
 62
   250
420
  2299925
370
     9
100
AcDbSpline
210
0.0
220
0.0
230
1.0
 70
     8
 71
     3
 72
    20
 73
    16
 74
     0
 42
0.0000000001
 43
0.0000000001
 40
0.0
 40
0.0
 40
0.0
 40
0.0
 40
1.0
 40
1.0
 40
1.0
 40
2.0
 40
2.0
 40
2.0
 40
3.0
 40
3.0
 40
3.0
 40
4.0
 40
4.0
 40
4.0
 40
5.0
 40
5.0
 40
5.0
 40
5.0
 10
123.845169072606
 20
-154.3949098018618
 30
0.0
 10
123.8436735901417
 20
-156.9342345396569
 30
0.0
 10
125.8572921779904
 20
-159.0348272033885
 30
0.0
 10
128.4141737307652
 20
-159.1212084949039
 30
0.0
 10
128.5206122183021
 20
-159.1249010318694
 30
0.0
 10
128.6272731478202
 20
-159.1249010318694
 30
0.0
 10
128.7337116353578
 20
-159.1212084949039
 30
0.0
 10
128.7337116353578
 20
-159.1212084949039
 30
0.0
 10
136.7517430714207
 20
-158.934824354965
 30
0.0
 10
136.7517430714207
 20
-158.934824354965
 30
0.0
 10
136.7517430714207
 20
-158.934824354965
 30
0.0
 10
136.7517430715593
 20
-158.7365080547612
 30
0.0
 10
136.7517430715593
 20
-158.7365080547612
 30
0.0
 10
136.7517430715593
 20
-158.7365080547612
 30
0.0
 10
128.573831791096
 20
-158.8088332141822
 30
0.0
 10
128.573831791096
 20
-158.8088332141822
 30
0.0
  0
SPLINE
  5
F3
330
70
100
AcDbEntity
  8
レイヤー 1
 62
   250
420
  2299925
370
     9
100
AcDbSpline
210
0.0
220
0.0
230
1.0
 70
     8
 71
     3
 72
     8
 73
     4
 74
     0
 42
0.0000000001
 43
0.0000000001
 40
0.0
 40
0.0
 40
0.0
 40
0.0
 40
1.0
 40
1.0
 40
1.0
 40
1.0
 10
128.2513972240279
 20
-158.7972330742224
 30
0.0
 10
126.0774792846002
 20
-158.6402473317419
 30
0.0
 10
124.3398941797122
 20
-156.9084681920632
 30
0.0
 10
124.1735492732347
 20
-154.7368780327643
 30
0.0
  0
LWPOLYLINE
  5
F4
330
70
100
AcDbEntity
  8
レイヤー 1
 62
   250
420
  2299925
370
     9
100
AcDbPolyline
 90
        6
 70
     0
 43
0.0
 10
128.573831791096
 20
-159.1212084949039
 10
123.8451682401459
 20
-154.3949725606644
 10
124.0343024745533
 20
-146.2480326167623
 10
124.2234657381059
 20
-146.2480326167623
 10
124.1605049372477
 20
-154.3949724995683
 10
128.573831791096
 20
-158.8088332141822
  0
LINE
  5
F5
330
70
100
AcDbEntity
  8
レイヤー 1
 62
   250
420
  2299925
370
     9
100
AcDbLine
 10
128.5804331487555
 20
-158.792552129302
 30
0.0
 11
136.8301804500581
 21
-150.5210547368128
 31
0.0
  0
LINE
  5
F6
330
70
100
AcDbEntity
  8
レイヤー 1
 62
   250
420
  2299925
370
    13
100
AcDbLine
 10
124.0343024804704
 20
-146.2480327020791
 30
0.0
 11
131.8461899398631
 21
-139.5166992757882
 31
0.0
  0
LINE
  5
F7
330
70
100
AcDbEntity
  8
レイヤー 1
 62
   250
420
  2299925
370
    13
100
AcDbLine
 10
136.7517430714207
 20
-158.934824354965
 30
0.0
 11
141.4970120483733
 21
-152.0096006904087
 31
0.0
  0
LINE
  5
F8
330
70
100
AcDbEntity
  8
レイヤー 1
 62
   250
420
  2299925
370
    13
100
AcDbLine
 10
136.7517430714207
 20
-158.934824354965
 30
0.0
 11
141.4970120483733
 21
-152.0096006904087
 31
0.0
  0
INSERT
  5
FA
330
70
100
AcDbEntity
  8
レイヤー 1
100
AcDbBlockReference
  2
Block_10
 10
0.0
 20
0.0
 30
0.0
  0
INSERT
  5
101
330
70
100
AcDbEntity
  8
レイヤー 1
100
AcDbBlockReference
  2
Block_11
 10
0.0
 20
0.0
 30
0.0
  0
INSERT
  5
108
330
70
100
AcDbEntity
  8
レイヤー 1
100
AcDbBlockReference
  2
Block_12
 10
0.0
 20
0.0
 30
0.0
  0
INSERT
  5
10F
330
70
100
AcDbEntity
  8
レイヤー 1
100
AcDbBlockReference
  2
Block_13
 10
0.0
 20
0.0
 30
0.0
  0
INSERT
  5
116
330
70
100
AcDbEntity
  8
レイヤー 1
100
AcDbBlockReference
  2
Block_14
 10
0.0
 20
0.0
 30
0.0
  0
INSERT
  5
11D
330
70
100
AcDbEntity
  8
レイヤー 1
100
AcDbBlockReference
  2
Block_15
 10
0.0
 20
0.0
 30
0.0
  0
INSERT
  5
124
330
70
100
AcDbEntity
  8
レイヤー 1
100
AcDbBlockReference
  2
Block_16
 10
0.0
 20
0.0
 30
0.0
  0
INSERT
  5
12A
330
70
100
AcDbEntity
  8
レイヤー 1
100
AcDbBlockReference
  2
Block_17
 10
0.0
 20
0.0
 30
0.0
  0
INSERT
  5
131
330
70
100
AcDbEntity
  8
レイヤー 1
100
AcDbBlockReference
  2
Block_18
 10
0.0
 20
0.0
 30
0.0
  0
INSERT
  5
138
330
70
100
AcDbEntity
  8
レイヤー 1
100
AcDbBlockReference
  2
Block_19
 10
0.0
 20
0.0
 30
0.0
  0
INSERT
  5
13F
330
70
100
AcDbEntity
  8
レイヤー 1
100
AcDbBlockReference
  2
Block_20
 10
0.0
 20
0.0
 30
0.0
  0
INSERT
  5
146
330
70
100
AcDbEntity
  8
レイヤー 1
100
AcDbBlockReference
  2
Block_21
 10
0.0
 20
0.0
 30
0.0
  0
INSERT
  5
14D
330
70
100
AcDbEntity
  8
レイヤー 1
100
AcDbBlockReference
  2
Block_22
 10
0.0
 20
0.0
 30
0.0
  0
ELLIPSE
  5
153
330
70
100
AcDbEntity
  8
レイヤー 1
 62
   250
420
  2299925
370
    13
100
AcDbEllipse
 10
131.7919737556559
 20
-145.4796736460846
 30
0.0
 11
0.0
 21
0.5594911725903886
 31
0.0
210
0.0
220
0.0
230
1.0
 40
0.7043723628637963
 41
0.0
 42
6.283185307179586
  0
LWPOLYLINE
  5
154
330
70
100
AcDbEntity
  8
レイヤー 1
 62
   250
420
  2299925
370
    13
100
AcDbPolyline
 90
        1
 70
     0
 43
0.0
 10
132.3869417521846
 20
-151.336246169105
  0
LWPOLYLINE
  5
155
330
70
100
AcDbEntity
  8
レイヤー 1
 62
   250
420
  2299925
370
    13
100
AcDbPolyline
 90
        1
 70
     0
 43
0.0
 10
128.6187079639842
 20
-158.8138116459633
  0
LINE
  5
156
330
70
100
AcDbEntity
  8
レイヤー 1
 62
   250
420
  2299925
370
     9
100
AcDbLine
 10
124.1926579075531
 20
-154.420235940849
 30
0.0
 11
132.6193016812306
 21
-146.0456181395765
 31
0.0
  0
ENDSEC
  0
SECTION
  2
OBJECTS
  0
DICTIONARY
  5
C
330
0
100
AcDbDictionary
281
     1
  3
ACAD_COLOR
350
63
  3
ACAD_DETAILVIEWSTYLE
350
6A
  3
ACAD_GROUP
350
D
  3
ACAD_LAYOUT
350
62
  3
ACAD_MATERIAL
350
10
  3
ACAD_MLEADERSTYLE
350
66
  3
ACAD_MLINESTYLE
350
5F
  3
ACAD_PLOTSETTINGS
350
61
  3
ACAD_PLOTSTYLENAME
350
E
  3
ACAD_SCALELIST
350
42
  3
ACAD_SECTIONVIEWSTYLE
350
68
  3
ACAD_TABLESTYLE
350
64
  3
ACAD_VISUALSTYLE
350
29
  3
ACDB_RECOMPOSE_DATA
350
15F
  3
AcDbVariableDictionary
350
157
  0
DICTIONARY
  5
63
102
{ACAD_REACTORS
330
C
102
}
330
C
100
AcDbDictionary
281
     1
  0
DICTIONARY
  5
6A
102
{ACAD_REACTORS
330
C
102
}
330
C
100
AcDbDictionary
281
     1
  3
Imperial24
350
6B
  0
DICTIONARY
  5
D
102
{ACAD_REACTORS
330
C
102
}
330
C
100
AcDbDictionary
281
     1
  0
DICTIONARY
  5
62
102
{ACAD_REACTORS
330
C
102
}
330
C
100
AcDbDictionary
281
     1
  3
Layout1
350
6F
  3
Layout2
350
77
  3
Model
350
73
  0
DICTIONARY
  5
10
102
{ACAD_REACTORS
330
C
102
}
330
C
100
AcDbDictionary
281
     1
  3
ByBlock
350
19
  3
ByLayer
350
11
  3
Global
350
21
  0
DICTIONARY
  5
66
102
{ACAD_REACTORS
330
C
102
}
330
C
100
AcDbDictionary
281
     1
  3
Standard
350
67
  0
DICTIONARY
  5
5F
102
{ACAD_REACTORS
330
C
102
}
330
C
100
AcDbDictionary
281
     1
  3
Standard
350
60
  0
DICTIONARY
  5
61
102
{ACAD_REACTORS
330
C
102
}
330
C
100
AcDbDictionary
281
     1
  0
ACDBDICTIONARYWDFLT
  5
E
102
{ACAD_REACTORS
330
C
102
}
330
C
100
AcDbDictionary
281
     1
  3
Normal
350
F
100
AcDbDictionaryWithDefault
340
F
  0
DICTIONARY
  5
42
102
{ACAD_REACTORS
330
C
102
}
330
C
100
AcDbDictionary
281
     1
  3
A0
350
43
  3
A1
350
44
  3
A2
350
45
  3
A3
350
46
  3
A4
350
47
  3
A5
350
48
  3
A6
350
49
  3
A7
350
4A
  3
A8
350
4B
  3
A9
350
4C
  3
B0
350
4D
  3
B1
350
4E
  3
B2
350
4F
  3
B3
350
50
  3
B4
350
51
  3
B5
350
52
  3
B6
350
53
  0
DICTIONARY
  5
68
102
{ACAD_REACTORS
330
C
102
}
330
C
100
AcDbDictionary
281
     1
  3
Imperial24
350
69
  0
DICTIONARY
  5
64
102
{ACAD_REACTORS
330
C
102
}
330
C
100
AcDbDictionary
281
     1
  3
Standard
350
65
  0
DICTIONARY
  5
29
102
{ACAD_REACTORS
330
C
102
}
330
C
100
AcDbDictionary
281
     1
  3
2dWireframe
350
2F
  3
Basic
350
2E
  3
Brighten
350
35
  3
ColorChange
350
39
  3
Conceptual
350
32
  3
Dim
350
34
  3
EdgeColorOff
350
41
  3
Facepattern
350
38
  3
Flat
350
2A
  3
FlatWithEdges
350
2B
  3
Gouraud
350
2C
  3
GouraudWithEdges
350
2D
  3
Hidden
350
31
  3
JitterOff
350
3F
  3
Linepattern
350
37
  3
OverhangOff
350
40
  3
Realistic
350
33
  3
Shaded
350
3E
  3
Shaded with edges
350
3D
  3
Shades of Gray
350
3A
  3
Sketchy
350
3B
  3
Thicken
350
36
  3
Wireframe
350
30
  3
X-Ray
350
3C
  0
XRECORD
  5
15F
102
{ACAD_REACTORS
330
C
102
}
330
C
100
AcDbXrecord
280
     1
 90
        1
330
65
  0
DICTIONARY
  5
157
102
{ACAD_REACTORS
330
C
102
}
330
C
100
AcDbDictionary
281
     1
  3
CANNOSCALE
350
15C
  3
CMLEADERSTYLE
350
159
  3
CTABLESTYLE
350
158
  3
CVIEWDETAILSTYLE
350
15A
  3
CVIEWSECTIONSTYLE
350
15B
  0
ACDBDETAILVIEWSTYLE
  5
6B
102
{ACAD_XDICTIONARY
360
194
102
}
102
{ACAD_REACTORS
330
6A
102
}
330
6A
100
AcDbModelDocViewStyle
 70
     0
  3
Imperial24
290
     0
100
AcDbDetailViewStyle
 70
     0
 71
     0
 90
        3
 71
     1
340
55
 62
   256
 40
0.24
340
0
 62
   256
 40
0.24
300

 40
0.36
280
     3
 71
     2
340
5D
 90
       25
 62
   256
 71
     3
340
55
 62
   256
 40
0.24
 90
        1
 40
0.75
 90
        1
300
%<\AcVar ViewType \f "%tc1">% %<\AcVar ViewDetailId>%\PSCALE %<\AcVar ViewScale \f "%sn">%
 71
     4
340
5D
 90
       25
 62
   256
340
5D
 90
       25
 62
   256
280
     0
  0
LAYOUT
  5
6F
102
{ACAD_REACTORS
330
62
102
}
330
62
100
AcDbPlotSettings
  1

  2

  4

  6

 40
0.0
 41
0.0
 42
0.0
 43
0.0
 44
0.0
 45
0.0
 46
0.0
 47
0.0
 48
0.0
 49
0.0
140
0.0
141
0.0
142
1.0
143
1.0
 70
   688
 72
     0
 73
     0
 74
     5
  7

 75
    16
147
1.0
 76
     0
 77
     2
 78
   300
148
0.0
149
0.0
100
AcDbLayout
  1
Layout1
 70
     1
 71
     1
 10
0.0
 20
0.0
 11
12.0
 21
9.0
 12
0.0
 22
0.0
 32
0.0
 14
0.0
 24
0.0
 34
0.0
 15
0.0
 25
0.0
 35
0.0
146
0.0
 13
0.0
 23
0.0
 33
0.0
 16
1.0
 26
0.0
 36
0.0
 17
0.0
 27
1.0
 37
0.0
 76
     0
330
6C
  0
LAYOUT
  5
77
102
{ACAD_REACTORS
330
62
102
}
330
62
100
AcDbPlotSettings
  1

  2

  4

  6

 40
0.0
 41
0.0
 42
0.0
 43
0.0
 44
0.0
 45
0.0
 46
0.0
 47
0.0
 48
0.0
 49
0.0
140
0.0
141
0.0
142
1.0
143
1.0
 70
   688
 72
     0
 73
     0
 74
     5
  7

 75
    16
147
1.0
 76
     0
 77
     2
 78
   300
148
0.0
149
0.0
100
AcDbLayout
  1
Layout2
 70
     1
 71
     2
 10
0.0
 20
0.0
 11
12.0
 21
9.0
 12
0.0
 22
0.0
 32
0.0
 14
0.0
 24
0.0
 34
0.0
 15
0.0
 25
0.0
 35
0.0
146
0.0
 13
0.0
 23
0.0
 33
0.0
 16
1.0
 26
0.0
 36
0.0
 17
0.0
 27
1.0
 37
0.0
 76
     0
330
74
  0
LAYOUT
  5
73
102
{ACAD_REACTORS
330
62
102
}
330
62
100
AcDbPlotSettings
  1

  2

  4

  6

 40
0.0
 41
0.0
 42
0.0
 43
0.0
 44
0.0
 45
0.0
 46
0.0
 47
0.0
 48
0.0
 49
0.0
140
0.0
141
0.0
142
1.0
143
1.0
 70
  1712
 72
     0
 73
     0
 74
     0
  7

 75
     0
147
1.0
 76
     0
 77
     2
 78
   300
148
0.0
149
0.0
100
AcDbLayout
  1
Model
 70
     1
 71
     0
 10
0.0
 20
0.0
 11
12.0
 21
9.0
 12
0.0
 22
0.0
 32
0.0
 14
0.0
 24
0.0
 34
0.0
 15
0.0
 25
0.0
 35
0.0
146
0.0
 13
0.0
 23
0.0
 33
0.0
 16
1.0
 26
0.0
 36
0.0
 17
0.0
 27
1.0
 37
0.0
 76
     0
330
70
  0
MATERIAL
  5
19
102
{ACAD_XDICTIONARY
360
1A
102
}
102
{ACAD_REACTORS
330
10
102
}
330
10
100
AcDbMaterial
  1
ByBlock
 72
     0
 43
0.0208333333333333
 43
0.0
 43
0.0
 43
0.0
 43
0.0
 43
0.0208333333333333
 43
0.0
 43
0.0
 43
0.0
 43
0.0
 43
1.0
 43
0.0
 43
0.0
 43
0.0
 43
0.0
 43
1.0
 77
     0
 47
0.0208333333333333
 47
0.0
 47
0.0
 47
0.0
 47
0.0
 47
0.0208333333333333
 47
0.0
 47
0.0
 47
0.0
 47
0.0
 47
1.0
 47
0.0
 47
0.0
 47
0.0
 47
0.0
 47
1.0
171
     0
 49
0.0208333333333333
 49
0.0
 49
0.0
 49
0.0
 49
0.0
 49
0.0208333333333333
 49
0.0
 49
0.0
 49
0.0
 49
0.0
 49
1.0
 49
0.0
 49
0.0
 49
0.0
 49
0.0
 49
1.0
175
     0
142
0.0208333333333333
142
0.0
142
0.0
142
0.0
142
0.0
142
0.0208333333333333
142
0.0
142
0.0
142
0.0
142
0.0
142
1.0
142
0.0
142
0.0
142
0.0
142
0.0
142
1.0
179
     0
144
0.0208333333333333
144
0.0
144
0.0
144
0.0
144
0.0
144
0.0208333333333333
144
0.0
144
0.0
144
0.0
144
0.0
144
1.0
144
0.0
144
0.0
144
0.0
144
0.0
144
1.0
147
0.0208333333333333
147
0.0
147
0.0
147
0.0
147
0.0
147
0.0208333333333333
147
0.0
147
0.0
147
0.0
147
0.0
147
1.0
147
0.0
147
0.0
147
0.0
147
0.0
147
1.0
  0
MATERIAL
  5
11
102
{ACAD_XDICTIONARY
360
12
102
}
102
{ACAD_REACTORS
330
10
102
}
330
10
100
AcDbMaterial
  1
ByLayer
 72
     0
 43
0.0208333333333333
 43
0.0
 43
0.0
 43
0.0
 43
0.0
 43
0.0208333333333333
 43
0.0
 43
0.0
 43
0.0
 43
0.0
 43
1.0
 43
0.0
 43
0.0
 43
0.0
 43
0.0
 43
1.0
 77
     0
 47
0.0208333333333333
 47
0.0
 47
0.0
 47
0.0
 47
0.0
 47
0.0208333333333333
 47
0.0
 47
0.0
 47
0.0
 47
0.0
 47
1.0
 47
0.0
 47
0.0
 47
0.0
 47
0.0
 47
1.0
171
     0
 49
0.0208333333333333
 49
0.0
 49
0.0
 49
0.0
 49
0.0
 49
0.0208333333333333
 49
0.0
 49
0.0
 49
0.0
 49
0.0
 49
1.0
 49
0.0
 49
0.0
 49
0.0
 49
0.0
 49
1.0
175
     0
142
0.0208333333333333
142
0.0
142
0.0
142
0.0
142
0.0
142
0.0208333333333333
142
0.0
142
0.0
142
0.0
142
0.0
142
1.0
142
0.0
142
0.0
142
0.0
142
0.0
142
1.0
179
     0
144
0.0208333333333333
144
0.0
144
0.0
144
0.0
144
0.0
144
0.0208333333333333
144
0.0
144
0.0
144
0.0
144
0.0
144
1.0
144
0.0
144
0.0
144
0.0
144
0.0
144
1.0
147
0.0208333333333333
147
0.0
147
0.0
147
0.0
147
0.0
147
0.0208333333333333
147
0.0
147
0.0
147
0.0
147
0.0
147
1.0
147
0.0
147
0.0
147
0.0
147
0.0
147
1.0
  0
MATERIAL
  5
21
102
{ACAD_XDICTIONARY
360
22
102
}
102
{ACAD_REACTORS
330
10
102
}
330
10
100
AcDbMaterial
  1
Global
 72
     0
 43
0.0208333333333333
 43
0.0
 43
0.0
 43
0.0
 43
0.0
 43
0.0208333333333333
 43
0.0
 43
0.0
 43
0.0
 43
0.0
 43
1.0
 43
0.0
 43
0.0
 43
0.0
 43
0.0
 43
1.0
 77
     0
 47
0.0208333333333333
 47
0.0
 47
0.0
 47
0.0
 47
0.0
 47
0.0208333333333333
 47
0.0
 47
0.0
 47
0.0
 47
0.0
 47
1.0
 47
0.0
 47
0.0
 47
0.0
 47
0.0
 47
1.0
171
     0
 49
0.0208333333333333
 49
0.0
 49
0.0
 49
0.0
 49
0.0
 49
0.0208333333333333
 49
0.0
 49
0.0
 49
0.0
 49
0.0
 49
1.0
 49
0.0
 49
0.0
 49
0.0
 49
0.0
 49
1.0
175
     0
142
0.0208333333333333
142
0.0
142
0.0
142
0.0
142
0.0
142
0.0208333333333333
142
0.0
142
0.0
142
0.0
142
0.0
142
1.0
142
0.0
142
0.0
142
0.0
142
0.0
142
1.0
179
     0
144
0.0208333333333333
144
0.0
144
0.0
144
0.0
144
0.0
144
0.0208333333333333
144
0.0
144
0.0
144
0.0
144
0.0
144
1.0
144
0.0
144
0.0
144
0.0
144
0.0
144
1.0
147
0.0208333333333333
147
0.0
147
0.0
147
0.0
147
0.0
147
0.0208333333333333
147
0.0
147
0.0
147
0.0
147
0.0
147
1.0
147
0.0
147
0.0
147
0.0
147
0.0
147
1.0
  0
MLEADERSTYLE
  5
67
102
{ACAD_XDICTIONARY
360
190
102
}
102
{ACAD_REACTORS
330
66
102
}
330
66
100
AcDbMLeaderStyle
179
     2
170
     2
171
     1
172
     0
 90
        2
 40
0.0
 41
0.0
173
     1
 91
-1056964608
340
5B
 92
       -2
290
     1
 42
0.09
291
     1
 43
0.36
  3
Standard
 44
0.18
300

342
55
174
     1
178
     6
175
     1
176
     0
 93
-1056964608
 45
0.18
292
     0
297
     0
 46
0.18
 94
-1056964608
 47
1.0
 49
1.0
140
1.0
293
     1
141
0.0
294
     1
177
     0
142
1.0
295
     0
296
     0
143
0.125
271
     0
272
     9
273
     9
  0
MLINESTYLE
  5
60
102
{ACAD_REACTORS
330
5F
102
}
330
5F
100
AcDbMlineStyle
  2
STANDARD
 70
     0
  3

 62
   256
 51
90.0
 52
90.0
 71
     2
 49
0.5
 62
   256
  6
BYLAYER
 49
-0.5
 62
   256
  6
BYLAYER
  0
ACDBPLACEHOLDER
  5
F
102
{ACAD_REACTORS
330
E
102
}
330
E
  0
SCALE
  5
43
102
{ACAD_REACTORS
330
42
102
}
330
42
100
AcDbScale
 70
     0
300
1:1
140
1.0
141
1.0
290
     1
  0
SCALE
  5
44
102
{ACAD_REACTORS
330
42
102
}
330
42
100
AcDbScale
 70
     0
300
1/128" = 1'-0"
140
0.0078125
141
12.0
290
     0
  0
SCALE
  5
45
102
{ACAD_REACTORS
330
42
102
}
330
42
100
AcDbScale
 70
     0
300
1/64" = 1'-0"
140
0.015625
141
12.0
290
     0
  0
SCALE
  5
46
102
{ACAD_REACTORS
330
42
102
}
330
42
100
AcDbScale
 70
     0
300
1/32" = 1'-0"
140
0.03125
141
12.0
290
     0
  0
SCALE
  5
47
102
{ACAD_REACTORS
330
42
102
}
330
42
100
AcDbScale
 70
     0
300
1/16" = 1'-0"
140
0.0625
141
12.0
290
     0
  0
SCALE
  5
48
102
{ACAD_REACTORS
330
42
102
}
330
42
100
AcDbScale
 70
     0
300
3/32" = 1'-0"
140
0.09375
141
12.0
290
     0
  0
SCALE
  5
49
102
{ACAD_REACTORS
330
42
102
}
330
42
100
AcDbScale
 70
     0
300
1/8" = 1'-0"
140
0.125
141
12.0
290
     0
  0
SCALE
  5
4A
102
{ACAD_REACTORS
330
42
102
}
330
42
100
AcDbScale
 70
     0
300
3/16" = 1'-0"
140
0.1875
141
12.0
290
     0
  0
SCALE
  5
4B
102
{ACAD_REACTORS
330
42
102
}
330
42
100
AcDbScale
 70
     0
300
1/4" = 1'-0"
140
0.25
141
12.0
290
     0
  0
SCALE
  5
4C
102
{ACAD_REACTORS
330
42
102
}
330
42
100
AcDbScale
 70
     0
300
3/8" = 1'-0"
140
0.375
141
12.0
290
     0
  0
SCALE
  5
4D
102
{ACAD_REACTORS
330
42
102
}
330
42
100
AcDbScale
 70
     0
300
1/2" = 1'-0"
140
0.5
141
12.0
290
     0
  0
SCALE
  5
4E
102
{ACAD_REACTORS
330
42
102
}
330
42
100
AcDbScale
 70
     0
300
3/4" = 1'-0"
140
0.75
141
12.0
290
     0
  0
SCALE
  5
4F
102
{ACAD_REACTORS
330
42
102
}
330
42
100
AcDbScale
 70
     0
300
1" = 1'-0"
140
1.0
141
12.0
290
     0
  0
SCALE
  5
50
102
{ACAD_REACTORS
330
42
102
}
330
42
100
AcDbScale
 70
     0
300
1-1/2" = 1'-0"
140
1.5
141
12.0
290
     0
  0
SCALE
  5
51
102
{ACAD_REACTORS
330
42
102
}
330
42
100
AcDbScale
 70
     0
300
3" = 1'-0"
140
3.0
141
12.0
290
     0
  0
SCALE
  5
52
102
{ACAD_REACTORS
330
42
102
}
330
42
100
AcDbScale
 70
     0
300
6" = 1'-0"
140
6.0
141
12.0
290
     0
  0
SCALE
  5
53
102
{ACAD_REACTORS
330
42
102
}
330
42
100
AcDbScale
 70
     0
300
1'-0" = 1'-0"
140
12.0
141
12.0
290
     0
  0
ACDBSECTIONVIEWSTYLE
  5
69
102
{ACAD_XDICTIONARY
360
192
102
}
102
{ACAD_REACTORS
330
68
102
}
330
68
100
AcDbModelDocViewStyle
 70
     0
  3
Imperial24
290
     0
100
AcDbSectionViewStyle
 70
     0
 71
     0
 90
       78
 71
     1
340
55
 62
   256
 40
0.24
340
0
340
0
 62
   256
 40
0.24
300
I, O, Q, S, X, Z
 40
0.48
 90
        3
 40
0.18
 90
        1
 71
     2
340
5D
 90
       25
 62
   256
340
5D
 90
       50
 62
   256
 40
0.24
 40
0.0
 40
0.24
 71
     3
340
55
 62
   256
 40
0.24
 90
        1
 40
0.75
 90
        1
300
%<\AcVar ViewType \f "%tc1">% %<\AcVar ViewSectionStartId>%-%<\AcVar ViewSectionEndId>%\PSCALE %<\AcVar ViewScale \f "%sn">%
 71
     4
 62
   256
 62
   257
300
ANSI31
 40
1.0
 90
        0
290
     0
290
     0
 90
        6
 40
0.0
 40
1.570796326794896
 40
0.2617993877991494
 40
1.308996938995747
 40
-0.2617993877991494
 40
1.832595714594046
  0
TABLESTYLE
  5
65
102
{ACAD_XDICTIONARY
360
15D
102
}
102
{ACAD_REACTORS
330
64
102
}
330
64
100
AcDbTableStyle
280
     0
  3
Standard
 70
     0
 71
     0
 40
0.06
 41
0.06
280
     0
281
     0
  7
Standard
140
0.18
170
     2
 62
     0
 63
     7
283
     0
 90
      512
 91
        0
  1

274
    -2
284
     1
 64
     0
275
    -2
285
     1
 65
     0
276
    -2
286
     1
 66
     0
277
    -2
287
     1
 67
     0
278
    -2
288
     1
 68
     0
279
    -2
289
     1
 69
     0
  7
Standard
140
0.25
170
     5
 62
     0
 63
     7
283
     0
 90
      512
 91
        0
  1

274
    -2
284
     1
 64
     0
275
    -2
285
     1
 65
     0
276
    -2
286
     1
 66
     0
277
    -2
287
     1
 67
     0
278
    -2
288
     1
 68
     0
279
    -2
289
     1
 69
     0
  7
Standard
140
0.18
170
     5
 62
     0
 63
     7
283
     0
 90
      512
 91
        0
  1

274
    -2
284
     1
 64
     0
275
    -2
285
     1
 65
     0
276
    -2
286
     1
 66
     0
277
    -2
287
     1
 67
     0
278
    -2
288
     1
 68
     0
279
    -2
289
     1
 69
     0
  0
VISUALSTYLE
  5
2F
102
{ACAD_XDICTIONARY
360
16A
102
}
102
{ACAD_REACTORS
330
29
102
}
330
29
100
AcDbVisualStyle
  2
2dWireframe
 70
     4
177
     2
291
     0
 71
     0
176
     1
 72
     2
176
     1
 73
     0
176
     1
 90
        0
176
     1
 40
0.6
176
     1
 41
30.0
176
     1
 63
     7
421
 16777215
176
     1
 74
     1
176
     1
 91
        4
176
     1
 64
     7
176
     1
 65
   257
176
     1
 75
     1
176
     1
175
     1
176
     1
 42
1.0
176
     1
 92
        0
176
     1
 66
   257
176
     1
 43
1.0
176
     1
 76
     1
176
     1
 77
     6
176
     1
 78
     2
176
     1
 67
     7
176
     1
 79
     5
176
     1
170
     0
176
     1
171
     0
176
     1
290
     0
176
     1
 93
        1
176
     1
 44
0.0
176
     1
173
     0
176
     1
1001
ACAD
1000
AcDbSavedByObjectVersion
1070
     0
  0
VISUALSTYLE
  5
2E
102
{ACAD_XDICTIONARY
360
168
102
}
102
{ACAD_REACTORS
330
29
102
}
330
29
100
AcDbVisualStyle
  2
Basic
 70
     7
177
     2
291
     1
 71
     1
176
     1
 72
     0
176
     1
 73
     1
176
     1
 90
        0
176
     1
 40
0.6
176
     1
 41
30.0
176
     1
 63
     7
421
 16777215
176
     1
 74
     0
176
     1
 91
        4
176
     1
 64
     7
176
     1
 65
   257
176
     1
 75
     1
176
     1
175
     1
176
     1
 42
1.0
176
     1
 92
        8
176
     1
 66
     7
176
     1
 43
1.0
176
     1
 76
     1
176
     1
 77
     6
176
     1
 78
     2
176
     1
 67
     7
176
     1
 79
     5
176
     1
170
     0
176
     1
171
     0
176
     1
290
     0
176
     1
 93
        1
176
     1
 44
0.0
176
     1
173
     0
176
     1
1001
ACAD
1000
AcDbSavedByObjectVersion
1070
     0
  0
VISUALSTYLE
  5
35
102
{ACAD_XDICTIONARY
360
176
102
}
102
{ACAD_REACTORS
330
29
102
}
330
29
100
AcDbVisualStyle
  2
Brighten
 70
    12
177
     2
291
     1
 71
     2
176
     1
 72
     2
176
     1
 73
     0
176
     1
 90
        0
176
     1
 40
0.6
176
     1
 41
30.0
176
     1
 63
     7
421
 16777215
176
     1
 74
     1
176
     1
 91
        4
176
     1
 64
     7
176
     1
 65
   257
176
     1
 75
     1
176
     1
175
     1
176
     1
 42
1.0
176
     1
 92
        8
176
     1
 66
     7
176
     1
 43
1.0
176
     1
 76
     1
176
     1
 77
     6
176
     1
 78
     2
176
     1
 67
     7
176
     1
 79
     5
176
     1
170
     0
176
     1
171
     0
176
     1
290
     0
176
     1
 93
        1
176
     1
 44
50.0
176
     1
173
     0
176
     1
1001
ACAD
1000
AcDbSavedByObjectVersion
1070
     0
  0
VISUALSTYLE
  5
39
102
{ACAD_XDICTIONARY
360
17E
102
}
102
{ACAD_REACTORS
330
29
102
}
330
29
100
AcDbVisualStyle
  2
ColorChange
 70
    16
177
     2
291
     1
 71
     2
176
     1
 72
     2
176
     1
 73
     3
176
     1
 90
        0
176
     1
 40
0.6
176
     1
 41
30.0
176
     1
 63
     8
421
  8421504
176
     1
 74
     1
176
     1
 91
        4
176
     1
 64
     7
176
     1
 65
   257
176
     1
 75
     1
176
     1
175
     1
176
     1
 42
1.0
176
     1
 92
        8
176
     1
 66
     8
424
  8421504
176
     1
 43
1.0
176
     1
 76
     1
176
     1
 77
     6
176
     1
 78
     2
176
     1
 67
     7
176
     1
 79
     5
176
     1
170
     0
176
     1
171
     0
176
     1
290
     0
176
     1
 93
        1
176
     1
 44
0.0
176
     1
173
     0
176
     1
1001
ACAD
1000
AcDbSavedByObjectVersion
1070
     0
  0
VISUALSTYLE
  5
32
102
{ACAD_XDICTIONARY
360
170
102
}
102
{ACAD_REACTORS
330
29
102
}
330
29
100
AcDbVisualStyle
  2
Conceptual
 70
     9
177
     2
291
     0
 71
     3
176
     1
 72
     2
176
     1
 73
     0
176
     1
 90
        0
176
     1
 40
0.6
176
     1
 41
30.0
176
     1
 63
     7
421
 16777215
176
     1
 74
     2
176
     1
 91
        2
176
     1
 64
     7
176
     1
 65
   257
176
     1
 75
     1
176
     1
175
     1
176
     1
 42
179.0
176
     1
 92
        8
176
     1
 66
     7
176
     1
 43
1.0
176
     1
 76
     1
176
     1
 77
     6
176
     1
 78
     2
176
     1
 67
     7
176
     1
 79
     3
176
     1
170
     0
176
     1
171
     0
176
     1
290
     0
176
     1
 93
        1
176
     1
 44
0.0
176
     1
173
     0
176
     1
1001
ACAD
1000
AcDbSavedByObjectVersion
1070
     0
  0
VISUALSTYLE
  5
34
102
{ACAD_XDICTIONARY
360
174
102
}
102
{ACAD_REACTORS
330
29
102
}
330
29
100
AcDbVisualStyle
  2
Dim
 70
    11
177
     2
291
     1
 71
     2
176
     1
 72
     2
176
     1
 73
     0
176
     1
 90
        0
176
     1
 40
0.6
176
     1
 41
30.0
176
     1
 63
     7
421
 16777215
176
     1
 74
     1
176
     1
 91
        4
176
     1
 64
     7
176
     1
 65
   257
176
     1
 75
     1
176
     1
175
     1
176
     1
 42
1.0
176
     1
 92
        8
176
     1
 66
     7
176
     1
 43
1.0
176
     1
 76
     1
176
     1
 77
     6
176
     1
 78
     2
176
     1
 67
     7
176
     1
 79
     5
176
     1
170
     0
176
     1
171
     0
176
     1
290
     0
176
     1
 93
        1
176
     1
 44
-50.0
176
     1
173
     0
176
     1
1001
ACAD
1000
AcDbSavedByObjectVersion
1070
     0
  0
VISUALSTYLE
  5
41
102
{ACAD_XDICTIONARY
360
18E
102
}
102
{ACAD_REACTORS
330
29
102
}
330
29
100
AcDbVisualStyle
  2
EdgeColorOff
 70
    22
177
     2
291
     1
 71
     2
176
     0
 72
     2
176
     0
 73
     0
176
     0
 90
        0
176
     0
 40
0.6
176
     0
 41
30.0
176
     0
 63
     7
421
 16777215
176
     0
 74
     1
176
     0
 91
        4
176
     0
 64
     7
176
     0
 65
   257
176
     0
 75
     1
176
     0
175
     1
176
     0
 42
1.0
176
     0
 92
        8
176
     2
 66
     7
176
     0
 43
1.0
176
     0
 76
     1
176
     0
 77
     6
176
     0
 78
     2
176
     0
 67
     7
176
     0
 79
     5
176
     0
170
     0
176
     0
171
     0
176
     0
290
     0
176
     0
 93
        1
176
     0
 44
0.0
176
     0
173
     0
176
     0
1001
ACAD
1000
AcDbSavedByObjectVersion
1070
     0
  0
VISUALSTYLE
  5
38
102
{ACAD_XDICTIONARY
360
17C
102
}
102
{ACAD_REACTORS
330
29
102
}
330
29
100
AcDbVisualStyle
  2
Facepattern
 70
    15
177
     2
291
     1
 71
     2
176
     1
 72
     2
176
     1
 73
     0
176
     1
 90
        0
176
     1
 40
0.6
176
     1
 41
30.0
176
     1
 63
     7
421
 16777215
176
     1
 74
     1
176
     1
 91
        4
176
     1
 64
     7
176
     1
 65
   257
176
     1
 75
     1
176
     1
175
     1
176
     1
 42
1.0
176
     1
 92
        8
176
     1
 66
     7
176
     1
 43
1.0
176
     1
 76
     1
176
     1
 77
     6
176
     1
 78
     2
176
     1
 67
     7
176
     1
 79
     5
176
     1
170
     0
176
     1
171
     0
176
     1
290
     0
176
     1
 93
        1
176
     1
 44
0.0
176
     1
173
     0
176
     1
1001
ACAD
1000
AcDbSavedByObjectVersion
1070
     0
  0
VISUALSTYLE
  5
2A
102
{ACAD_XDICTIONARY
360
160
102
}
102
{ACAD_REACTORS
330
29
102
}
330
29
100
AcDbVisualStyle
  2
Flat
 70
     0
177
     2
291
     1
 71
     2
176
     1
 72
     1
176
     1
 73
     1
176
     1
 90
        2
176
     1
 40
0.6
176
     1
 41
30.0
176
     1
 63
     7
421
 16777215
176
     1
 74
     0
176
     1
 91
        0
176
     1
 64
     7
176
     1
 65
   257
176
     1
 75
     1
176
     1
175
     1
176
     1
 42
1.0
176
     1
 92
        8
176
     1
 66
     7
176
     1
 43
1.0
176
     1
 76
     1
176
     1
 77
     6
176
     1
 78
     2
176
     1
 67
     7
176
     1
 79
     5
176
     1
170
     0
176
     1
171
     0
176
     1
290
     0
176
     1
 93
       13
176
     1
 44
0.0
176
     1
173
     0
176
     1
1001
ACAD
1000
AcDbSavedByObjectVersion
1070
     0
  0
VISUALSTYLE
  5
2B
102
{ACAD_XDICTIONARY
360
162
102
}
102
{ACAD_REACTORS
330
29
102
}
330
29
100
AcDbVisualStyle
  2
FlatWithEdges
 70
     1
177
     2
291
     1
 71
     2
176
     1
 72
     1
176
     1
 73
     1
176
     1
 90
        2
176
     1
 40
0.6
176
     1
 41
30.0
176
     1
 63
     7
421
 16777215
176
     1
 74
     1
176
     1
 91
        0
176
     1
 64
     7
176
     1
 65
   257
176
     1
 75
     1
176
     1
175
     1
176
     1
 42
1.0
176
     1
 92
        0
176
     1
 66
   257
176
     1
 43
1.0
176
     1
 76
     1
176
     1
 77
     6
176
     1
 78
     2
176
     1
 67
     7
176
     1
 79
     5
176
     1
170
     0
176
     1
171
     0
176
     1
290
     0
176
     1
 93
       13
176
     1
 44
0.0
176
     1
173
     0
176
     1
1001
ACAD
1000
AcDbSavedByObjectVersion
1070
     0
  0
VISUALSTYLE
  5
2C
102
{ACAD_XDICTIONARY
360
164
102
}
102
{ACAD_REACTORS
330
29
102
}
330
29
100
AcDbVisualStyle
  2
Gouraud
 70
     2
177
     2
291
     1
 71
     2
176
     1
 72
     2
176
     1
 73
     1
176
     1
 90
        2
176
     1
 40
0.6
176
     1
 41
30.0
176
     1
 63
     7
421
 16777215
176
     1
 74
     0
176
     1
 91
        0
176
     1
 64
     7
176
     1
 65
   257
176
     1
 75
     1
176
     1
175
     1
176
     1
 42
1.0
176
     1
 92
        0
176
     1
 66
     7
176
     1
 43
1.0
176
     1
 76
     1
176
     1
 77
     6
176
     1
 78
     2
176
     1
 67
     7
176
     1
 79
     5
176
     1
170
     0
176
     1
171
     0
176
     1
290
     0
176
     1
 93
       13
176
     1
 44
0.0
176
     1
173
     0
176
     1
1001
ACAD
1000
AcDbSavedByObjectVersion
1070
     0
  0
VISUALSTYLE
  5
2D
102
{ACAD_XDICTIONARY
360
166
102
}
102
{ACAD_REACTORS
330
29
102
}
330
29
100
AcDbVisualStyle
  2
GouraudWithEdges
 70
     3
177
     2
291
     1
 71
     2
176
     1
 72
     2
176
     1
 73
     1
176
     1
 90
        2
176
     1
 40
0.6
176
     1
 41
30.0
176
     1
 63
     7
421
 16777215
176
     1
 74
     1
176
     1
 91
        0
176
     1
 64
     7
176
     1
 65
   257
176
     1
 75
     1
176
     1
175
     1
176
     1
 42
1.0
176
     1
 92
        0
176
     1
 66
   257
176
     1
 43
1.0
176
     1
 76
     1
176
     1
 77
     6
176
     1
 78
     2
176
     1
 67
     7
176
     1
 79
     5
176
     1
170
     0
176
     1
171
     0
176
     1
290
     0
176
     1
 93
       13
176
     1
 44
0.0
176
     1
173
     0
176
     1
1001
ACAD
1000
AcDbSavedByObjectVersion
1070
     0
  0
VISUALSTYLE
  5
31
102
{ACAD_XDICTIONARY
360
16E
102
}
102
{ACAD_REACTORS
330
29
102
}
330
29
100
AcDbVisualStyle
  2
Hidden
 70
     6
177
     2
291
     0
 71
     1
176
     1
 72
     2
176
     1
 73
     2
176
     1
 90
        0
176
     1
 40
0.6
176
     1
 41
30.0
176
     1
 63
     7
421
 16777215
176
     1
 74
     2
176
     1
 91
        2
176
     1
 64
     7
176
     1
 65
   257
176
     1
 75
     2
176
     1
175
     1
176
     1
 42
40.0
176
     1
 92
        0
176
     1
 66
   257
176
     1
 43
1.0
176
     1
 76
     1
176
     1
 77
     6
176
     1
 78
     2
176
     1
 67
     7
176
     1
 79
     3
176
     1
170
     0
176
     1
171
     0
176
     1
290
     0
176
     1
 93
        1
176
     1
 44
0.0
176
     1
173
     0
176
     1
1001
ACAD
1000
AcDbSavedByObjectVersion
1070
     0
  0
VISUALSTYLE
  5
3F
102
{ACAD_XDICTIONARY
360
18A
102
}
102
{ACAD_REACTORS
330
29
102
}
330
29
100
AcDbVisualStyle
  2
JitterOff
 70
    20
177
     2
291
     1
 71
     2
176
     0
 72
     2
176
     0
 73
     0
176
     0
 90
        0
176
     0
 40
0.6
176
     0
 41
30.0
176
     0
 63
     7
421
 16777215
176
     0
 74
     1
176
     0
 91
        4
176
     0
 64
     7
176
     0
 65
   257
176
     0
 75
     1
176
     0
175
     1
176
     0
 42
1.0
176
     0
 92
       10
176
     2
 66
     7
176
     0
 43
1.0
176
     0
 76
     1
176
     0
 77
     6
176
     0
 78
     2
176
     0
 67
     7
176
     0
 79
     5
176
     0
170
     0
176
     0
171
     0
176
     0
290
     0
176
     0
 93
        1
176
     0
 44
0.0
176
     0
173
     0
176
     0
1001
ACAD
1000
AcDbSavedByObjectVersion
1070
     0
  0
VISUALSTYLE
  5
37
102
{ACAD_XDICTIONARY
360
17A
102
}
102
{ACAD_REACTORS
330
29
102
}
330
29
100
AcDbVisualStyle
  2
Linepattern
 70
    14
177
     2
291
     1
 71
     2
176
     1
 72
     2
176
     1
 73
     0
176
     1
 90
        0
176
     1
 40
0.6
176
     1
 41
30.0
176
     1
 63
     7
421
 16777215
176
     1
 74
     1
176
     1
 91
        4
176
     1
 64
     7
176
     1
 65
   257
176
     1
 75
     7
176
     1
175
     7
176
     1
 42
1.0
176
     1
 92
        8
176
     1
 66
     7
176
     1
 43
1.0
176
     1
 76
     1
176
     1
 77
     6
176
     1
 78
     2
176
     1
 67
     7
176
     1
 79
     5
176
     1
170
     0
176
     1
171
     0
176
     1
290
     0
176
     1
 93
        1
176
     1
 44
0.0
176
     1
173
     0
176
     1
1001
ACAD
1000
AcDbSavedByObjectVersion
1070
     0
  0
VISUALSTYLE
  5
40
102
{ACAD_XDICTIONARY
360
18C
102
}
102
{ACAD_REACTORS
330
29
102
}
330
29
100
AcDbVisualStyle
  2
OverhangOff
 70
    21
177
     2
291
     1
 71
     2
176
     0
 72
     2
176
     0
 73
     0
176
     0
 90
        0
176
     0
 40
0.6
176
     0
 41
30.0
176
     0
 63
     7
421
 16777215
176
     0
 74
     1
176
     0
 91
        4
176
     0
 64
     7
176
     0
 65
   257
176
     0
 75
     1
176
     0
175
     1
176
     0
 42
1.0
176
     0
 92
        9
176
     2
 66
     7
176
     0
 43
1.0
176
     0
 76
     1
176
     0
 77
     6
176
     0
 78
     2
176
     0
 67
     7
176
     0
 79
     5
176
     0
170
     0
176
     0
171
     0
176
     0
290
     0
176
     0
 93
        1
176
     0
 44
0.0
176
     0
173
     0
176
     0
1001
ACAD
1000
AcDbSavedByObjectVersion
1070
     0
  0
VISUALSTYLE
  5
33
102
{ACAD_XDICTIONARY
360
172
102
}
102
{ACAD_REACTORS
330
29
102
}
330
29
100
AcDbVisualStyle
  2
Realistic
 70
     8
177
     2
291
     0
 71
     2
176
     1
 72
     3
176
     1
 73
     0
176
     1
 90
        2
176
     1
 40
0.6
176
     1
 41
30.0
176
     1
 63
     7
421
 16777215
176
     1
 74
     0
176
     1
 91
        0
176
     1
 64
     7
176
     1
 65
   257
176
     1
 75
     1
176
     1
175
     1
176
     1
 42
1.0
176
     1
 92
        8
176
     1
 66
   257
176
     1
 43
1.0
176
     1
 76
     1
176
     1
 77
     6
176
     1
 78
     2
176
     1
 67
     7
176
     1
 79
     3
176
     1
170
     0
176
     1
171
     0
176
     1
290
     0
176
     1
 93
       13
176
     1
 44
0.0
176
     1
173
     0
176
     1
1001
ACAD
1000
AcDbSavedByObjectVersion
1070
     0
  0
VISUALSTYLE
  5
3E
102
{ACAD_XDICTIONARY
360
188
102
}
102
{ACAD_REACTORS
330
29
102
}
330
29
100
AcDbVisualStyle
  2
Shaded
 70
    27
177
     2
291
     0
 71
     2
176
     1
 72
     2
176
     1
 73
     1
176
     1
 90
        2
176
     1
 40
0.6
176
     1
 41
30.0
176
     1
 63
     7
421
 16777215
176
     1
 74
     0
176
     1
 91
        4
176
     1
 64
     7
176
     1
 65
   257
176
     1
 75
     1
176
     1
175
     1
176
     1
 42
1.0
176
     1
 92
        8
176
     1
 66
   257
176
     1
 43
1.0
176
     1
 76
     1
176
     1
 77
     6
176
     1
 78
     2
176
     1
 67
     8
425
  7895160
176
     1
 79
     3
176
     1
170
     0
176
     1
171
     0
176
     1
290
     0
176
     1
 93
        5
176
     1
 44
0.0
176
     1
173
     0
176
     1
1001
ACAD
1000
AcDbSavedByObjectVersion
1070
     0
  0
VISUALSTYLE
  5
3D
102
{ACAD_XDICTIONARY
360
186
102
}
102
{ACAD_REACTORS
330
29
102
}
330
29
100
AcDbVisualStyle
  2
Shaded with edges
 70
    26
177
     2
291
     0
 71
     2
176
     1
 72
     2
176
     1
 73
     1
176
     1
 90
        2
176
     1
 40
0.6
176
     1
 41
30.0
176
     1
 63
     7
421
 16777215
176
     1
 74
     1
176
     1
 91
        2
176
     1
 64
     7
176
     1
 65
   257
176
     1
 75
     2
176
     1
175
     1
176
     1
 42
1.0
176
     1
 92
        8
176
     1
 66
   257
176
     1
 43
1.0
176
     1
 76
     1
176
     1
 77
     6
176
     1
 78
     2
176
     1
 67
     7
176
     1
 79
     3
176
     1
170
     0
176
     1
171
     0
176
     1
290
     0
176
     1
 93
        5
176
     1
 44
0.0
176
     1
173
     0
176
     1
1001
ACAD
1000
AcDbSavedByObjectVersion
1070
     0
  0
VISUALSTYLE
  5
3A
102
{ACAD_XDICTIONARY
360
180
102
}
102
{ACAD_REACTORS
330
29
102
}
330
29
100
AcDbVisualStyle
  2
Shades of Gray
 70
    23
177
     2
291
     0
 71
     2
176
     1
 72
     2
176
     1
 73
     3
176
     1
 90
        0
176
     1
 40
0.6
176
     1
 41
30.0
176
     1
 63
     7
421
 16777215
176
     1
 74
     2
176
     1
 91
        2
176
     1
 64
     7
176
     1
 65
     7
176
     1
 75
     1
176
     1
175
     1
176
     1
 42
40.0
176
     1
 92
        8
176
     1
 66
     7
176
     1
 43
1.0
176
     1
 76
     1
176
     1
 77
     6
176
     1
 78
     2
176
     1
 67
     7
176
     1
 79
     3
176
     1
170
     0
176
     1
171
     0
176
     1
290
     0
176
     1
 93
        1
176
     1
 44
0.0
176
     1
173
     0
176
     1
1001
ACAD
1000
AcDbSavedByObjectVersion
1070
     0
  0
VISUALSTYLE
  5
3B
102
{ACAD_XDICTIONARY
360
182
102
}
102
{ACAD_REACTORS
330
29
102
}
330
29
100
AcDbVisualStyle
  2
Sketchy
 70
    24
177
     2
291
     0
 71
     1
176
     1
 72
     2
176
     1
 73
     2
176
     1
 90
        0
176
     1
 40
0.6
176
     1
 41
30.0
176
     1
 63
     7
421
 16777215
176
     1
 74
     2
176
     1
 91
        2
176
     1
 64
     7
176
     1
 65
     7
176
     1
 75
     1
176
     1
175
     1
176
     1
 42
40.0
176
     1
 92
       11
176
     1
 66
     7
176
     1
 43
1.0
176
     1
 76
     1
176
     1
 77
     6
176
     1
 78
     2
176
     1
 67
     7
176
     1
 79
     6
176
     1
170
     0
176
     1
171
     0
176
     1
290
     0
176
     1
 93
        1
176
     1
 44
0.0
176
     1
173
     0
176
     1
1001
ACAD
1000
AcDbSavedByObjectVersion
1070
     0
  0
VISUALSTYLE
  5
36
102
{ACAD_XDICTIONARY
360
178
102
}
102
{ACAD_REACTORS
330
29
102
}
330
29
100
AcDbVisualStyle
  2
Thicken
 70
    13
177
     2
291
     1
 71
     2
176
     1
 72
     2
176
     1
 73
     0
176
     1
 90
        0
176
     1
 40
0.6
176
     1
 41
30.0
176
     1
 63
     7
421
 16777215
176
     1
 74
     1
176
     1
 91
        4
176
     1
 64
     7
176
     1
 65
   257
176
     1
 75
     1
176
     1
175
     1
176
     1
 42
1.0
176
     1
 92
       12
176
     1
 66
     7
176
     1
 43
1.0
176
     1
 76
     1
176
     1
 77
     6
176
     1
 78
     2
176
     1
 67
     7
176
     1
 79
     5
176
     1
170
     0
176
     1
171
     0
176
     1
290
     0
176
     1
 93
        1
176
     1
 44
0.0
176
     1
173
     0
176
     1
1001
ACAD
1000
AcDbSavedByObjectVersion
1070
     0
  0
VISUALSTYLE
  5
30
102
{ACAD_XDICTIONARY
360
16C
102
}
102
{ACAD_REACTORS
330
29
102
}
330
29
100
AcDbVisualStyle
  2
Wireframe
 70
     5
177
     2
291
     0
 71
     0
176
     1
 72
     2
176
     1
 73
     0
176
     1
 90
        0
176
     1
 40
0.6
176
     1
 41
30.0
176
     1
 63
     7
421
 16777215
176
     1
 74
     1
176
     1
 91
        4
176
     1
 64
     7
176
     1
 65
   257
176
     1
 75
     1
176
     1
175
     1
176
     1
 42
1.0
176
     1
 92
        0
176
     1
 66
   257
176
     1
 43
1.0
176
     1
 76
     1
176
     1
 77
     6
176
     1
 78
     2
176
     1
 67
     7
176
     1
 79
     3
176
     1
170
     0
176
     1
171
     0
176
     1
290
     0
176
     1
 93
        1
176
     1
 44
0.0
176
     1
173
     0
176
     1
1001
ACAD
1000
AcDbSavedByObjectVersion
1070
     0
  0
VISUALSTYLE
  5
3C
102
{ACAD_XDICTIONARY
360
184
102
}
102
{ACAD_REACTORS
330
29
102
}
330
29
100
AcDbVisualStyle
  2
X-Ray
 70
    25
177
     2
291
     0
 71
     2
176
     1
 72
     2
176
     1
 73
     1
176
     1
 90
        1
176
     1
 40
0.5
176
     1
 41
30.0
176
     1
 63
     7
421
 16777215
176
     1
 74
     1
176
     1
 91
        0
176
     1
 64
     7
176
     1
 65
   257
176
     1
 75
     1
176
     1
175
     1
176
     1
 42
1.0
176
     1
 92
        8
176
     1
 66
     7
176
     1
 43
1.0
176
     1
 76
     1
176
     1
 77
     6
176
     1
 78
     2
176
     1
 67
     7
176
     1
 79
     3
176
     1
170
     0
176
     1
171
     0
176
     1
290
     0
176
     1
 93
       13
176
     1
 44
0.0
176
     1
173
     0
176
     1
1001
ACAD
1000
AcDbSavedByObjectVersion
1070
     0
  0
DICTIONARYVAR
  5
15C
102
{ACAD_REACTORS
330
157
102
}
330
157
100
DictionaryVariables
280
     0
  1
1:1
  0
DICTIONARYVAR
  5
159
102
{ACAD_REACTORS
330
157
102
}
330
157
100
DictionaryVariables
280
     0
  1
STANDARD
  0
DICTIONARYVAR
  5
158
102
{ACAD_REACTORS
330
157
102
}
330
157
100
DictionaryVariables
280
     0
  1
STANDARD
  0
DICTIONARYVAR
  5
15A
102
{ACAD_REACTORS
330
157
102
}
330
157
100
DictionaryVariables
280
     0
  1
Imperial24
  0
DICTIONARYVAR
  5
15B
102
{ACAD_REACTORS
330
157
102
}
330
157
100
DictionaryVariables
280
     0
  1
Imperial24
  0
DICTIONARY
  5
194
330
6B
100
AcDbDictionary
280
     1
281
     1
  3
ACAD_XREC_ROUNDTRIP
360
195
  0
DICTIONARY
  5
1A
330
19
100
AcDbDictionary
280
     1
281
     1
  3
BUMPTILE
360
1C
  3
DIFFUSETILE
360
1B
  3
OPACITYTILE
360
1F
  3
REFLECTIONTILE
360
1E
  3
REFRACTIONTILE
360
20
  3
SPECULARTILE
360
1D
  0
DICTIONARY
  5
12
330
11
100
AcDbDictionary
280
     1
281
     1
  3
BUMPTILE
360
14
  3
DIFFUSETILE
360
13
  3
OPACITYTILE
360
17
  3
REFLECTIONTILE
360
16
  3
REFRACTIONTILE
360
18
  3
SPECULARTILE
360
15
  0
DICTIONARY
  5
22
330
21
100
AcDbDictionary
280
     1
281
     1
  3
BUMPTILE
360
24
  3
DIFFUSETILE
360
23
  3
OPACITYTILE
360
27
  3
REFLECTIONTILE
360
26
  3
REFRACTIONTILE
360
28
  3
SPECULARTILE
360
25
  0
DICTIONARY
  5
190
330
67
100
AcDbDictionary
280
     1
281
     1
  3
ACAD_XREC_ROUNDTRIP
360
191
  0
DICTIONARY
  5
192
330
69
100
AcDbDictionary
280
     1
281
     1
  3
ACAD_XREC_ROUNDTRIP
360
193
  0
DICTIONARY
  5
15D
330
65
100
AcDbDictionary
280
     1
281
     1
  3
ACAD_ROUNDTRIP_2008_TABLESTYLE_CELLSTYLEMAP
360
15E
  0
DICTIONARY
  5
16A
330
2F
100
AcDbDictionary
280
     1
281
     1
  3
ACAD_XREC_ROUNDTRIP
360
16B
  0
DICTIONARY
  5
168
330
2E
100
AcDbDictionary
280
     1
281
     1
  3
ACAD_XREC_ROUNDTRIP
360
169
  0
DICTIONARY
  5
176
330
35
100
AcDbDictionary
280
     1
281
     1
  3
ACAD_XREC_ROUNDTRIP
360
177
  0
DICTIONARY
  5
17E
330
39
100
AcDbDictionary
280
     1
281
     1
  3
ACAD_XREC_ROUNDTRIP
360
17F
  0
DICTIONARY
  5
170
330
32
100
AcDbDictionary
280
     1
281
     1
  3
ACAD_XREC_ROUNDTRIP
360
171
  0
DICTIONARY
  5
174
330
34
100
AcDbDictionary
280
     1
281
     1
  3
ACAD_XREC_ROUNDTRIP
360
175
  0
DICTIONARY
  5
18E
330
41
100
AcDbDictionary
280
     1
281
     1
  3
ACAD_XREC_ROUNDTRIP
360
18F
  0
DICTIONARY
  5
17C
330
38
100
AcDbDictionary
280
     1
281
     1
  3
ACAD_XREC_ROUNDTRIP
360
17D
  0
DICTIONARY
  5
160
330
2A
100
AcDbDictionary
280
     1
281
     1
  3
ACAD_XREC_ROUNDTRIP
360
161
  0
DICTIONARY
  5
162
330
2B
100
AcDbDictionary
280
     1
281
     1
  3
ACAD_XREC_ROUNDTRIP
360
163
  0
DICTIONARY
  5
164
330
2C
100
AcDbDictionary
280
     1
281
     1
  3
ACAD_XREC_ROUNDTRIP
360
165
  0
DICTIONARY
  5
166
330
2D
100
AcDbDictionary
280
     1
281
     1
  3
ACAD_XREC_ROUNDTRIP
360
167
  0
DICTIONARY
  5
16E
330
31
100
AcDbDictionary
280
     1
281
     1
  3
ACAD_XREC_ROUNDTRIP
360
16F
  0
DICTIONARY
  5
18A
330
3F
100
AcDbDictionary
280
     1
281
     1
  3
ACAD_XREC_ROUNDTRIP
360
18B
  0
DICTIONARY
  5
17A
330
37
100
AcDbDictionary
280
     1
281
     1
  3
ACAD_XREC_ROUNDTRIP
360
17B
  0
DICTIONARY
  5
18C
330
40
100
AcDbDictionary
280
     1
281
     1
  3
ACAD_XREC_ROUNDTRIP
360
18D
  0
DICTIONARY
  5
172
330
33
100
AcDbDictionary
280
     1
281
     1
  3
ACAD_XREC_ROUNDTRIP
360
173
  0
DICTIONARY
  5
188
330
3E
100
AcDbDictionary
280
     1
281
     1
  3
ACAD_XREC_ROUNDTRIP
360
189
  0
DICTIONARY
  5
186
330
3D
100
AcDbDictionary
280
     1
281
     1
  3
ACAD_XREC_ROUNDTRIP
360
187
  0
DICTIONARY
  5
180
330
3A
100
AcDbDictionary
280
     1
281
     1
  3
ACAD_XREC_ROUNDTRIP
360
181
  0
DICTIONARY
  5
182
330
3B
100
AcDbDictionary
280
     1
281
     1
  3
ACAD_XREC_ROUNDTRIP
360
183
  0
DICTIONARY
  5
178
330
36
100
AcDbDictionary
280
     1
281
     1
  3
ACAD_XREC_ROUNDTRIP
360
179
  0
DICTIONARY
  5
16C
330
30
100
AcDbDictionary
280
     1
281
     1
  3
ACAD_XREC_ROUNDTRIP
360
16D
  0
DICTIONARY
  5
184
330
3C
100
AcDbDictionary
280
     1
281
     1
  3
ACAD_XREC_ROUNDTRIP
360
185
  0
XRECORD
  5
195
102
{ACAD_REACTORS
330
194
102
}
330
194
100
AcDbXrecord
280
     1
102
DISPLAYNAME
  1
Imperial24
102
FLAGS
 90
        0
  0
XRECORD
  5
1C
102
{ACAD_REACTORS
330
1A
102
}
330
1A
100
AcDbXrecord
280
     1
270
     1
271
     1
  0
XRECORD
  5
1B
102
{ACAD_REACTORS
330
1A
102
}
330
1A
100
AcDbXrecord
280
     1
270
     1
271
     1
  0
XRECORD
  5
1F
102
{ACAD_REACTORS
330
1A
102
}
330
1A
100
AcDbXrecord
280
     1
270
     1
271
     1
  0
XRECORD
  5
1E
102
{ACAD_REACTORS
330
1A
102
}
330
1A
100
AcDbXrecord
280
     1
270
     1
271
     1
  0
XRECORD
  5
20
102
{ACAD_REACTORS
330
1A
102
}
330
1A
100
AcDbXrecord
280
     1
270
     1
271
     1
  0
XRECORD
  5
1D
102
{ACAD_REACTORS
330
1A
102
}
330
1A
100
AcDbXrecord
280
     1
270
     1
271
     1
  0
XRECORD
  5
14
102
{ACAD_REACTORS
330
12
102
}
330
12
100
AcDbXrecord
280
     1
270
     1
271
     1
  0
XRECORD
  5
13
102
{ACAD_REACTORS
330
12
102
}
330
12
100
AcDbXrecord
280
     1
270
     1
271
     1
  0
XRECORD
  5
17
102
{ACAD_REACTORS
330
12
102
}
330
12
100
AcDbXrecord
280
     1
270
     1
271
     1
  0
XRECORD
  5
16
102
{ACAD_REACTORS
330
12
102
}
330
12
100
AcDbXrecord
280
     1
270
     1
271
     1
  0
XRECORD
  5
18
102
{ACAD_REACTORS
330
12
102
}
330
12
100
AcDbXrecord
280
     1
270
     1
271
     1
  0
XRECORD
  5
15
102
{ACAD_REACTORS
330
12
102
}
330
12
100
AcDbXrecord
280
     1
270
     1
271
     1
  0
XRECORD
  5
24
102
{ACAD_REACTORS
330
22
102
}
330
22
100
AcDbXrecord
280
     1
270
     1
271
     1
  0
XRECORD
  5
23
102
{ACAD_REACTORS
330
22
102
}
330
22
100
AcDbXrecord
280
     1
270
     1
271
     1
  0
XRECORD
  5
27
102
{ACAD_REACTORS
330
22
102
}
330
22
100
AcDbXrecord
280
     1
270
     1
271
     1
  0
XRECORD
  5
26
102
{ACAD_REACTORS
330
22
102
}
330
22
100
AcDbXrecord
280
     1
270
     1
271
     1
  0
XRECORD
  5
28
102
{ACAD_REACTORS
330
22
102
}
330
22
100
AcDbXrecord
280
     1
270
     1
271
     1
  0
XRECORD
  5
25
102
{ACAD_REACTORS
330
22
102
}
330
22
100
AcDbXrecord
280
     1
270
     1
271
     1
  0
XRECORD
  5
191
102
{ACAD_REACTORS
330
190
102
}
330
190
100
AcDbXrecord
280
     1
102
ACAD_ROUNDTRIP_2012_MLEADER_STYLE
298
     1
  0
XRECORD
  5
193
102
{ACAD_REACTORS
330
192
102
}
330
192
100
AcDbXrecord
280
     1
102
DISPLAYNAME
  1
Imperial24
102
FLAGS
 90
        0
  0
CELLSTYLEMAP
  5
15E
102
{ACAD_REACTORS
330
15D
102
}
330
15D
100
AcDbCellStyleMap
 90
        3
300
CELLSTYLE
  1
TABLEFORMAT_BEGIN
 90
        5
170
     1
 91
        0
 92
    32768
 62
   257
 93
        1
300
CONTENTFORMAT
  1
CONTENTFORMAT_BEGIN
 90
        0
 91
        0
 92
      512
 93
        0
300

 40
0.0
140
1.0
 94
        5
 62
     0
340
55
144
0.25
309
CONTENTFORMAT_END
171
     0
 94
        0
309
TABLEFORMAT_END
  1
CELLSTYLE_BEGIN
 90
        1
 91
        1
300
_TITLE
309
CELLSTYLE_END
300
CELLSTYLE
  1
TABLEFORMAT_BEGIN
 90
        5
170
     1
 91
        0
 92
        0
 62
   257
 93
        1
300
CONTENTFORMAT
  1
CONTENTFORMAT_BEGIN
 90
        0
 91
        0
 92
      512
 93
        0
300

 40
0.0
140
1.0
 94
        5
 62
     0
340
55
144
0.18
309
CONTENTFORMAT_END
171
     0
 94
        0
309
TABLEFORMAT_END
  1
CELLSTYLE_BEGIN
 90
        2
 91
        1
300
_HEADER
309
CELLSTYLE_END
300
CELLSTYLE
  1
TABLEFORMAT_BEGIN
 90
        5
170
     1
 91
        0
 92
        0
 62
   257
 93
        1
300
CONTENTFORMAT
  1
CONTENTFORMAT_BEGIN
 90
        0
 91
        0
 92
      512
 93
        0
300

 40
0.0
140
1.0
 94
        2
 62
     0
340
55
144
0.18
309
CONTENTFORMAT_END
171
     0
 94
        0
309
TABLEFORMAT_END
  1
CELLSTYLE_BEGIN
 90
        3
 91
        2
300
_DATA
309
CELLSTYLE_END
  0
XRECORD
  5
16B
102
{ACAD_REACTORS
330
16A
102
}
330
16A
100
AcDbXrecord
280
     1
102
RTVSPost2010Prop28
280
     1
102
RTVSPost2010PropOp28
 70
     1
102
RTVSPost2010Prop29
280
     1
102
RTVSPost2010PropOp29
 70
     1
102
RTVSPost2010Prop30
280
     0
102
RTVSPost2010PropOp30
 70
     1
102
RTVSPost2010Prop31
280
     0
102
RTVSPost2010PropOp31
 70
     1
102
RTVSPost2010Prop32
280
     0
102
RTVSPost2010PropOp32
 70
     1
102
RTVSPost2010Prop33
280
     0
102
RTVSPost2010PropOp33
 70
     1
102
RTVSPost2010Prop34
280
     0
102
RTVSPost2010PropOp34
 70
     1
102
RTVSPost2010Prop35
280
     0
102
RTVSPost2010PropOp35
 70
     1
102
RTVSPost2010Prop36
280
     0
102
RTVSPost2010PropOp36
 70
     1
102
RTVSPost2010Prop37
 90
       50
102
RTVSPost2010PropOp37
 70
     1
102
RTVSPost2010Prop38
140
0.0
102
RTVSPost2010PropOp38
 70
     1
102
RTVSPost2010Prop39
140
1.0
102
RTVSPost2010PropOp39
 70
     1
102
RTVSPost2010Prop40
 90
        0
102
RTVSPost2010PropOp40
 70
     1
102
RTVSPost2010Prop41ColorIndex
 90
       18
102
RTVSPost2010Prop41ColorRGB
 90
        0
102
RTVSPost2010PropOp41
 70
     1
102
RTVSPost2010Prop42
 90
       50
102
RTVSPost2010PropOp42
 70
     1
102
RTVSPost2010Prop43
 90
        3
102
RTVSPost2010PropOp43
 70
     1
102
RTVSPost2010Prop44ColorIndex
 90
        5
102
RTVSPost2010Prop44ColorRGB
 90
      255
102
RTVSPost2010PropOp44
 70
     1
102
RTVSPost2010Prop45
280
     0
102
RTVSPost2010PropOp45
 70
     1
102
RTVSPost2010Prop46
 90
       50
102
RTVSPost2010PropOp46
 70
     1
102
RTVSPost2010Prop47
 90
       50
102
RTVSPost2010PropOp47
 70
     1
102
RTVSPost2010Prop48
 90
       50
102
RTVSPost2010PropOp48
 70
     1
102
RTVSPost2010Prop49
280
     0
102
RTVSPost2010PropOp49
 70
     1
102
RTVSPost2010Prop50
 90
       50
102
RTVSPost2010PropOp50
 70
     1
102
RTVSPost2010Prop51ColorIndex
 90
      256
102
RTVSPost2010Prop51ColorRGB
 90
-16777216
102
RTVSPost2010PropOp51
 70
     0
102
RTVSPost2010Prop52
140
1.0
102
RTVSPost2010PropOp52
 70
     0
102
RTVSPost2010Prop53
 90
        2
102
RTVSPost2010PropOp53
 70
     1
102
RTVSPost2010Prop54
  1
strokes_ogs.tif
102
RTVSPost2010PropOp54
 70
     1
102
RTVSPost2010Prop55
280
     0
102
RTVSPost2010PropOp55
 70
     1
102
RTVSPost2010Prop56
140
1.0
102
RTVSPost2010PropOp56
 70
     1
102
RTVSPost2010Prop57
140
1.0
102
RTVSPost2010PropOp57
 70
     1
  0
XRECORD
  5
169
102
{ACAD_REACTORS
330
168
102
}
330
168
100
AcDbXrecord
280
     1
102
RTVSPost2010Prop28
280
     0
102
RTVSPost2010PropOp28
 70
     1
102
RTVSPost2010Prop29
280
     1
102
RTVSPost2010PropOp29
 70
     1
102
RTVSPost2010Prop30
280
     1
102
RTVSPost2010PropOp30
 70
     1
102
RTVSPost2010Prop31
280
     0
102
RTVSPost2010PropOp31
 70
     1
102
RTVSPost2010Prop32
280
     0
102
RTVSPost2010PropOp32
 70
     1
102
RTVSPost2010Prop33
280
     0
102
RTVSPost2010PropOp33
 70
     1
102
RTVSPost2010Prop34
280
     0
102
RTVSPost2010PropOp34
 70
     1
102
RTVSPost2010Prop35
280
     0
102
RTVSPost2010PropOp35
 70
     1
102
RTVSPost2010Prop36
280
     0
102
RTVSPost2010PropOp36
 70
     1
102
RTVSPost2010Prop37
 90
       50
102
RTVSPost2010PropOp37
 70
     1
102
RTVSPost2010Prop38
140
0.0
102
RTVSPost2010PropOp38
 70
     1
102
RTVSPost2010Prop39
140
1.0
102
RTVSPost2010PropOp39
 70
     1
102
RTVSPost2010Prop40
 90
        0
102
RTVSPost2010PropOp40
 70
     1
102
RTVSPost2010Prop41ColorIndex
 90
       18
102
RTVSPost2010Prop41ColorRGB
 90
        0
102
RTVSPost2010PropOp41
 70
     1
102
RTVSPost2010Prop42
 90
       50
102
RTVSPost2010PropOp42
 70
     1
102
RTVSPost2010Prop43
 90
        3
102
RTVSPost2010PropOp43
 70
     1
102
RTVSPost2010Prop44ColorIndex
 90
        5
102
RTVSPost2010Prop44ColorRGB
 90
      255
102
RTVSPost2010PropOp44
 70
     1
102
RTVSPost2010Prop45
280
     0
102
RTVSPost2010PropOp45
 70
     1
102
RTVSPost2010Prop46
 90
       50
102
RTVSPost2010PropOp46
 70
     1
102
RTVSPost2010Prop47
 90
       50
102
RTVSPost2010PropOp47
 70
     1
102
RTVSPost2010Prop48
 90
       50
102
RTVSPost2010PropOp48
 70
     1
102
RTVSPost2010Prop49
280
     0
102
RTVSPost2010PropOp49
 70
     1
102
RTVSPost2010Prop50
 90
       50
102
RTVSPost2010PropOp50
 70
     1
102
RTVSPost2010Prop51ColorIndex
 90
      256
102
RTVSPost2010Prop51ColorRGB
 90
-16777216
102
RTVSPost2010PropOp51
 70
     0
102
RTVSPost2010Prop52
140
1.0
102
RTVSPost2010PropOp52
 70
     0
102
RTVSPost2010Prop53
 90
        2
102
RTVSPost2010PropOp53
 70
     1
102
RTVSPost2010Prop54
  1
strokes_ogs.tif
102
RTVSPost2010PropOp54
 70
     1
102
RTVSPost2010Prop55
280
     0
102
RTVSPost2010PropOp55
 70
     1
102
RTVSPost2010Prop56
140
1.0
102
RTVSPost2010PropOp56
 70
     1
102
RTVSPost2010Prop57
140
1.0
102
RTVSPost2010PropOp57
 70
     1
  0
XRECORD
  5
177
102
{ACAD_REACTORS
330
176
102
}
330
176
100
AcDbXrecord
280
     1
102
RTVSPost2010Prop28
280
     0
102
RTVSPost2010PropOp28
 70
     1
102
RTVSPost2010Prop29
280
     1
102
RTVSPost2010PropOp29
 70
     1
102
RTVSPost2010Prop30
280
     1
102
RTVSPost2010PropOp30
 70
     1
102
RTVSPost2010Prop31
280
     0
102
RTVSPost2010PropOp31
 70
     1
102
RTVSPost2010Prop32
280
     0
102
RTVSPost2010PropOp32
 70
     1
102
RTVSPost2010Prop33
280
     0
102
RTVSPost2010PropOp33
 70
     1
102
RTVSPost2010Prop34
280
     0
102
RTVSPost2010PropOp34
 70
     1
102
RTVSPost2010Prop35
280
     0
102
RTVSPost2010PropOp35
 70
     1
102
RTVSPost2010Prop36
280
     0
102
RTVSPost2010PropOp36
 70
     1
102
RTVSPost2010Prop37
 90
       50
102
RTVSPost2010PropOp37
 70
     1
102
RTVSPost2010Prop38
140
0.0
102
RTVSPost2010PropOp38
 70
     1
102
RTVSPost2010Prop39
140
1.0
102
RTVSPost2010PropOp39
 70
     1
102
RTVSPost2010Prop40
 90
        0
102
RTVSPost2010PropOp40
 70
     1
102
RTVSPost2010Prop41ColorIndex
 90
       18
102
RTVSPost2010Prop41ColorRGB
 90
        0
102
RTVSPost2010PropOp41
 70
     1
102
RTVSPost2010Prop42
 90
       50
102
RTVSPost2010PropOp42
 70
     1
102
RTVSPost2010Prop43
 90
        3
102
RTVSPost2010PropOp43
 70
     1
102
RTVSPost2010Prop44ColorIndex
 90
        5
102
RTVSPost2010Prop44ColorRGB
 90
      255
102
RTVSPost2010PropOp44
 70
     1
102
RTVSPost2010Prop45
280
     0
102
RTVSPost2010PropOp45
 70
     1
102
RTVSPost2010Prop46
 90
       50
102
RTVSPost2010PropOp46
 70
     1
102
RTVSPost2010Prop47
 90
       50
102
RTVSPost2010PropOp47
 70
     1
102
RTVSPost2010Prop48
 90
       50
102
RTVSPost2010PropOp48
 70
     1
102
RTVSPost2010Prop49
280
     0
102
RTVSPost2010PropOp49
 70
     1
102
RTVSPost2010Prop50
 90
       50
102
RTVSPost2010PropOp50
 70
     1
102
RTVSPost2010Prop51ColorIndex
 90
      256
102
RTVSPost2010Prop51ColorRGB
 90
-16777216
102
RTVSPost2010PropOp51
 70
     0
102
RTVSPost2010Prop52
140
1.0
102
RTVSPost2010PropOp52
 70
     0
102
RTVSPost2010Prop53
 90
        2
102
RTVSPost2010PropOp53
 70
     1
102
RTVSPost2010Prop54
  1
strokes_ogs.tif
102
RTVSPost2010PropOp54
 70
     1
102
RTVSPost2010Prop55
280
     0
102
RTVSPost2010PropOp55
 70
     1
102
RTVSPost2010Prop56
140
1.0
102
RTVSPost2010PropOp56
 70
     1
102
RTVSPost2010Prop57
140
1.0
102
RTVSPost2010PropOp57
 70
     1
  0
XRECORD
  5
17F
102
{ACAD_REACTORS
330
17E
102
}
330
17E
100
AcDbXrecord
280
     1
102
RTVSPost2010Prop28
280
     0
102
RTVSPost2010PropOp28
 70
     1
102
RTVSPost2010Prop29
280
     1
102
RTVSPost2010PropOp29
 70
     1
102
RTVSPost2010Prop30
280
     1
102
RTVSPost2010PropOp30
 70
     1
102
RTVSPost2010Prop31
280
     0
102
RTVSPost2010PropOp31
 70
     1
102
RTVSPost2010Prop32
280
     0
102
RTVSPost2010PropOp32
 70
     1
102
RTVSPost2010Prop33
280
     0
102
RTVSPost2010PropOp33
 70
     1
102
RTVSPost2010Prop34
280
     0
102
RTVSPost2010PropOp34
 70
     1
102
RTVSPost2010Prop35
280
     0
102
RTVSPost2010PropOp35
 70
     1
102
RTVSPost2010Prop36
280
     0
102
RTVSPost2010PropOp36
 70
     1
102
RTVSPost2010Prop37
 90
       50
102
RTVSPost2010PropOp37
 70
     1
102
RTVSPost2010Prop38
140
0.0
102
RTVSPost2010PropOp38
 70
     1
102
RTVSPost2010Prop39
140
1.0
102
RTVSPost2010PropOp39
 70
     1
102
RTVSPost2010Prop40
 90
        0
102
RTVSPost2010PropOp40
 70
     1
102
RTVSPost2010Prop41ColorIndex
 90
       18
102
RTVSPost2010Prop41ColorRGB
 90
        0
102
RTVSPost2010PropOp41
 70
     1
102
RTVSPost2010Prop42
 90
       50
102
RTVSPost2010PropOp42
 70
     1
102
RTVSPost2010Prop43
 90
        3
102
RTVSPost2010PropOp43
 70
     1
102
RTVSPost2010Prop44ColorIndex
 90
        5
102
RTVSPost2010Prop44ColorRGB
 90
      255
102
RTVSPost2010PropOp44
 70
     1
102
RTVSPost2010Prop45
280
     0
102
RTVSPost2010PropOp45
 70
     1
102
RTVSPost2010Prop46
 90
       50
102
RTVSPost2010PropOp46
 70
     1
102
RTVSPost2010Prop47
 90
       50
102
RTVSPost2010PropOp47
 70
     1
102
RTVSPost2010Prop48
 90
       50
102
RTVSPost2010PropOp48
 70
     1
102
RTVSPost2010Prop49
280
     0
102
RTVSPost2010PropOp49
 70
     1
102
RTVSPost2010Prop50
 90
       50
102
RTVSPost2010PropOp50
 70
     1
102
RTVSPost2010Prop51ColorIndex
 90
      256
102
RTVSPost2010Prop51ColorRGB
 90
-16777216
102
RTVSPost2010PropOp51
 70
     0
102
RTVSPost2010Prop52
140
1.0
102
RTVSPost2010PropOp52
 70
     0
102
RTVSPost2010Prop53
 90
        2
102
RTVSPost2010PropOp53
 70
     1
102
RTVSPost2010Prop54
  1
strokes_ogs.tif
102
RTVSPost2010PropOp54
 70
     1
102
RTVSPost2010Prop55
280
     0
102
RTVSPost2010PropOp55
 70
     1
102
RTVSPost2010Prop56
140
1.0
102
RTVSPost2010PropOp56
 70
     1
102
RTVSPost2010Prop57
140
1.0
102
RTVSPost2010PropOp57
 70
     1
  0
XRECORD
  5
171
102
{ACAD_REACTORS
330
170
102
}
330
170
100
AcDbXrecord
280
     1
102
RTVSPost2010Prop28
280
     0
102
RTVSPost2010PropOp28
 70
     1
102
RTVSPost2010Prop29
280
     1
102
RTVSPost2010PropOp29
 70
     1
102
RTVSPost2010Prop30
280
     1
102
RTVSPost2010PropOp30
 70
     1
102
RTVSPost2010Prop31
280
     0
102
RTVSPost2010PropOp31
 70
     1
102
RTVSPost2010Prop32
280
     0
102
RTVSPost2010PropOp32
 70
     1
102
RTVSPost2010Prop33
280
     0
102
RTVSPost2010PropOp33
 70
     1
102
RTVSPost2010Prop34
280
     0
102
RTVSPost2010PropOp34
 70
     1
102
RTVSPost2010Prop35
280
     0
102
RTVSPost2010PropOp35
 70
     1
102
RTVSPost2010Prop36
280
     0
102
RTVSPost2010PropOp36
 70
     1
102
RTVSPost2010Prop37
 90
       50
102
RTVSPost2010PropOp37
 70
     1
102
RTVSPost2010Prop38
140
0.0
102
RTVSPost2010PropOp38
 70
     1
102
RTVSPost2010Prop39
140
1.0
102
RTVSPost2010PropOp39
 70
     1
102
RTVSPost2010Prop40
 90
        0
102
RTVSPost2010PropOp40
 70
     1
102
RTVSPost2010Prop41ColorIndex
 90
       18
102
RTVSPost2010Prop41ColorRGB
 90
        0
102
RTVSPost2010PropOp41
 70
     1
102
RTVSPost2010Prop42
 90
       50
102
RTVSPost2010PropOp42
 70
     1
102
RTVSPost2010Prop43
 90
        3
102
RTVSPost2010PropOp43
 70
     1
102
RTVSPost2010Prop44ColorIndex
 90
        5
102
RTVSPost2010Prop44ColorRGB
 90
      255
102
RTVSPost2010PropOp44
 70
     1
102
RTVSPost2010Prop45
280
     0
102
RTVSPost2010PropOp45
 70
     1
102
RTVSPost2010Prop46
 90
       50
102
RTVSPost2010PropOp46
 70
     1
102
RTVSPost2010Prop47
 90
       50
102
RTVSPost2010PropOp47
 70
     1
102
RTVSPost2010Prop48
 90
       50
102
RTVSPost2010PropOp48
 70
     1
102
RTVSPost2010Prop49
280
     0
102
RTVSPost2010PropOp49
 70
     1
102
RTVSPost2010Prop50
 90
       50
102
RTVSPost2010PropOp50
 70
     1
102
RTVSPost2010Prop51ColorIndex
 90
      256
102
RTVSPost2010Prop51ColorRGB
 90
-16777216
102
RTVSPost2010PropOp51
 70
     0
102
RTVSPost2010Prop52
140
1.0
102
RTVSPost2010PropOp52
 70
     0
102
RTVSPost2010Prop53
 90
        2
102
RTVSPost2010PropOp53
 70
     1
102
RTVSPost2010Prop54
  1
strokes_ogs.tif
102
RTVSPost2010PropOp54
 70
     1
102
RTVSPost2010Prop55
280
     0
102
RTVSPost2010PropOp55
 70
     1
102
RTVSPost2010Prop56
140
1.0
102
RTVSPost2010PropOp56
 70
     1
102
RTVSPost2010Prop57
140
1.0
102
RTVSPost2010PropOp57
 70
     1
  0
XRECORD
  5
175
102
{ACAD_REACTORS
330
174
102
}
330
174
100
AcDbXrecord
280
     1
102
RTVSPost2010Prop28
280
     0
102
RTVSPost2010PropOp28
 70
     1
102
RTVSPost2010Prop29
280
     1
102
RTVSPost2010PropOp29
 70
     1
102
RTVSPost2010Prop30
280
     1
102
RTVSPost2010PropOp30
 70
     1
102
RTVSPost2010Prop31
280
     0
102
RTVSPost2010PropOp31
 70
     1
102
RTVSPost2010Prop32
280
     0
102
RTVSPost2010PropOp32
 70
     1
102
RTVSPost2010Prop33
280
     0
102
RTVSPost2010PropOp33
 70
     1
102
RTVSPost2010Prop34
280
     0
102
RTVSPost2010PropOp34
 70
     1
102
RTVSPost2010Prop35
280
     0
102
RTVSPost2010PropOp35
 70
     1
102
RTVSPost2010Prop36
280
     0
102
RTVSPost2010PropOp36
 70
     1
102
RTVSPost2010Prop37
 90
       50
102
RTVSPost2010PropOp37
 70
     1
102
RTVSPost2010Prop38
140
0.0
102
RTVSPost2010PropOp38
 70
     1
102
RTVSPost2010Prop39
140
1.0
102
RTVSPost2010PropOp39
 70
     1
102
RTVSPost2010Prop40
 90
        0
102
RTVSPost2010PropOp40
 70
     1
102
RTVSPost2010Prop41ColorIndex
 90
       18
102
RTVSPost2010Prop41ColorRGB
 90
        0
102
RTVSPost2010PropOp41
 70
     1
102
RTVSPost2010Prop42
 90
       50
102
RTVSPost2010PropOp42
 70
     1
102
RTVSPost2010Prop43
 90
        3
102
RTVSPost2010PropOp43
 70
     1
102
RTVSPost2010Prop44ColorIndex
 90
        5
102
RTVSPost2010Prop44ColorRGB
 90
      255
102
RTVSPost2010PropOp44
 70
     1
102
RTVSPost2010Prop45
280
     0
102
RTVSPost2010PropOp45
 70
     1
102
RTVSPost2010Prop46
 90
       50
102
RTVSPost2010PropOp46
 70
     1
102
RTVSPost2010Prop47
 90
       50
102
RTVSPost2010PropOp47
 70
     1
102
RTVSPost2010Prop48
 90
       50
102
RTVSPost2010PropOp48
 70
     1
102
RTVSPost2010Prop49
280
     0
102
RTVSPost2010PropOp49
 70
     1
102
RTVSPost2010Prop50
 90
       50
102
RTVSPost2010PropOp50
 70
     1
102
RTVSPost2010Prop51ColorIndex
 90
      256
102
RTVSPost2010Prop51ColorRGB
 90
-16777216
102
RTVSPost2010PropOp51
 70
     0
102
RTVSPost2010Prop52
140
1.0
102
RTVSPost2010PropOp52
 70
     0
102
RTVSPost2010Prop53
 90
        2
102
RTVSPost2010PropOp53
 70
     1
102
RTVSPost2010Prop54
  1
strokes_ogs.tif
102
RTVSPost2010PropOp54
 70
     1
102
RTVSPost2010Prop55
280
     0
102
RTVSPost2010PropOp55
 70
     1
102
RTVSPost2010Prop56
140
1.0
102
RTVSPost2010PropOp56
 70
     1
102
RTVSPost2010Prop57
140
1.0
102
RTVSPost2010PropOp57
 70
     1
  0
XRECORD
  5
18F
102
{ACAD_REACTORS
330
18E
102
}
330
18E
100
AcDbXrecord
280
     1
102
RTVSPost2010Prop28
280
     0
102
RTVSPost2010PropOp28
 70
     0
102
RTVSPost2010Prop29
280
     1
102
RTVSPost2010PropOp29
 70
     0
102
RTVSPost2010Prop30
280
     1
102
RTVSPost2010PropOp30
 70
     0
102
RTVSPost2010Prop31
280
     0
102
RTVSPost2010PropOp31
 70
     0
102
RTVSPost2010Prop32
280
     0
102
RTVSPost2010PropOp32
 70
     0
102
RTVSPost2010Prop33
280
     0
102
RTVSPost2010PropOp33
 70
     0
102
RTVSPost2010Prop34
280
     0
102
RTVSPost2010PropOp34
 70
     0
102
RTVSPost2010Prop35
280
     0
102
RTVSPost2010PropOp35
 70
     0
102
RTVSPost2010Prop36
280
     0
102
RTVSPost2010PropOp36
 70
     0
102
RTVSPost2010Prop37
 90
       50
102
RTVSPost2010PropOp37
 70
     0
102
RTVSPost2010Prop38
140
0.0
102
RTVSPost2010PropOp38
 70
     0
102
RTVSPost2010Prop39
140
1.0
102
RTVSPost2010PropOp39
 70
     0
102
RTVSPost2010Prop40
 90
        0
102
RTVSPost2010PropOp40
 70
     0
102
RTVSPost2010Prop41ColorIndex
 90
       18
102
RTVSPost2010Prop41ColorRGB
 90
        0
102
RTVSPost2010PropOp41
 70
     0
102
RTVSPost2010Prop42
 90
       50
102
RTVSPost2010PropOp42
 70
     0
102
RTVSPost2010Prop43
 90
        3
102
RTVSPost2010PropOp43
 70
     0
102
RTVSPost2010Prop44ColorIndex
 90
        5
102
RTVSPost2010Prop44ColorRGB
 90
      255
102
RTVSPost2010PropOp44
 70
     0
102
RTVSPost2010Prop45
280
     0
102
RTVSPost2010PropOp45
 70
     0
102
RTVSPost2010Prop46
 90
       50
102
RTVSPost2010PropOp46
 70
     0
102
RTVSPost2010Prop47
 90
       50
102
RTVSPost2010PropOp47
 70
     0
102
RTVSPost2010Prop48
 90
       50
102
RTVSPost2010PropOp48
 70
     0
102
RTVSPost2010Prop49
280
     0
102
RTVSPost2010PropOp49
 70
     0
102
RTVSPost2010Prop50
 90
       50
102
RTVSPost2010PropOp50
 70
     0
102
RTVSPost2010Prop51ColorIndex
 90
      256
102
RTVSPost2010Prop51ColorRGB
 90
-16777216
102
RTVSPost2010PropOp51
 70
     0
102
RTVSPost2010Prop52
140
1.0
102
RTVSPost2010PropOp52
 70
     0
102
RTVSPost2010Prop53
 90
        2
102
RTVSPost2010PropOp53
 70
     0
102
RTVSPost2010Prop54
  1
strokes_ogs.tif
102
RTVSPost2010PropOp54
 70
     0
102
RTVSPost2010Prop55
280
     0
102
RTVSPost2010PropOp55
 70
     0
102
RTVSPost2010Prop56
140
1.0
102
RTVSPost2010PropOp56
 70
     0
102
RTVSPost2010Prop57
140
1.0
102
RTVSPost2010PropOp57
 70
     0
  0
XRECORD
  5
17D
102
{ACAD_REACTORS
330
17C
102
}
330
17C
100
AcDbXrecord
280
     1
102
RTVSPost2010Prop28
280
     0
102
RTVSPost2010PropOp28
 70
     1
102
RTVSPost2010Prop29
280
     1
102
RTVSPost2010PropOp29
 70
     1
102
RTVSPost2010Prop30
280
     1
102
RTVSPost2010PropOp30
 70
     1
102
RTVSPost2010Prop31
280
     0
102
RTVSPost2010PropOp31
 70
     1
102
RTVSPost2010Prop32
280
     0
102
RTVSPost2010PropOp32
 70
     1
102
RTVSPost2010Prop33
280
     0
102
RTVSPost2010PropOp33
 70
     1
102
RTVSPost2010Prop34
280
     0
102
RTVSPost2010PropOp34
 70
     1
102
RTVSPost2010Prop35
280
     0
102
RTVSPost2010PropOp35
 70
     1
102
RTVSPost2010Prop36
280
     0
102
RTVSPost2010PropOp36
 70
     1
102
RTVSPost2010Prop37
 90
       50
102
RTVSPost2010PropOp37
 70
     1
102
RTVSPost2010Prop38
140
0.0
102
RTVSPost2010PropOp38
 70
     1
102
RTVSPost2010Prop39
140
1.0
102
RTVSPost2010PropOp39
 70
     1
102
RTVSPost2010Prop40
 90
        0
102
RTVSPost2010PropOp40
 70
     1
102
RTVSPost2010Prop41ColorIndex
 90
       18
102
RTVSPost2010Prop41ColorRGB
 90
        0
102
RTVSPost2010PropOp41
 70
     1
102
RTVSPost2010Prop42
 90
       50
102
RTVSPost2010PropOp42
 70
     1
102
RTVSPost2010Prop43
 90
        3
102
RTVSPost2010PropOp43
 70
     1
102
RTVSPost2010Prop44ColorIndex
 90
        5
102
RTVSPost2010Prop44ColorRGB
 90
      255
102
RTVSPost2010PropOp44
 70
     1
102
RTVSPost2010Prop45
280
     0
102
RTVSPost2010PropOp45
 70
     1
102
RTVSPost2010Prop46
 90
       50
102
RTVSPost2010PropOp46
 70
     1
102
RTVSPost2010Prop47
 90
       50
102
RTVSPost2010PropOp47
 70
     1
102
RTVSPost2010Prop48
 90
       50
102
RTVSPost2010PropOp48
 70
     1
102
RTVSPost2010Prop49
280
     0
102
RTVSPost2010PropOp49
 70
     1
102
RTVSPost2010Prop50
 90
       50
102
RTVSPost2010PropOp50
 70
     1
102
RTVSPost2010Prop51ColorIndex
 90
      256
102
RTVSPost2010Prop51ColorRGB
 90
-16777216
102
RTVSPost2010PropOp51
 70
     0
102
RTVSPost2010Prop52
140
1.0
102
RTVSPost2010PropOp52
 70
     0
102
RTVSPost2010Prop53
 90
        2
102
RTVSPost2010PropOp53
 70
     1
102
RTVSPost2010Prop54
  1
strokes_ogs.tif
102
RTVSPost2010PropOp54
 70
     1
102
RTVSPost2010Prop55
280
     0
102
RTVSPost2010PropOp55
 70
     1
102
RTVSPost2010Prop56
140
1.0
102
RTVSPost2010PropOp56
 70
     1
102
RTVSPost2010Prop57
140
1.0
102
RTVSPost2010PropOp57
 70
     1
  0
XRECORD
  5
161
102
{ACAD_REACTORS
330
160
102
}
330
160
100
AcDbXrecord
280
     1
102
RTVSPost2010Prop28
280
     0
102
RTVSPost2010PropOp28
 70
     1
102
RTVSPost2010Prop29
280
     1
102
RTVSPost2010PropOp29
 70
     1
102
RTVSPost2010Prop30
280
     1
102
RTVSPost2010PropOp30
 70
     1
102
RTVSPost2010Prop31
280
     0
102
RTVSPost2010PropOp31
 70
     1
102
RTVSPost2010Prop32
280
     0
102
RTVSPost2010PropOp32
 70
     1
102
RTVSPost2010Prop33
280
     0
102
RTVSPost2010PropOp33
 70
     1
102
RTVSPost2010Prop34
280
     0
102
RTVSPost2010PropOp34
 70
     1
102
RTVSPost2010Prop35
280
     0
102
RTVSPost2010PropOp35
 70
     1
102
RTVSPost2010Prop36
280
     0
102
RTVSPost2010PropOp36
 70
     1
102
RTVSPost2010Prop37
 90
       50
102
RTVSPost2010PropOp37
 70
     1
102
RTVSPost2010Prop38
140
0.0
102
RTVSPost2010PropOp38
 70
     1
102
RTVSPost2010Prop39
140
1.0
102
RTVSPost2010PropOp39
 70
     1
102
RTVSPost2010Prop40
 90
        0
102
RTVSPost2010PropOp40
 70
     1
102
RTVSPost2010Prop41ColorIndex
 90
       18
102
RTVSPost2010Prop41ColorRGB
 90
        0
102
RTVSPost2010PropOp41
 70
     1
102
RTVSPost2010Prop42
 90
       50
102
RTVSPost2010PropOp42
 70
     1
102
RTVSPost2010Prop43
 90
        3
102
RTVSPost2010PropOp43
 70
     1
102
RTVSPost2010Prop44ColorIndex
 90
        5
102
RTVSPost2010Prop44ColorRGB
 90
      255
102
RTVSPost2010PropOp44
 70
     1
102
RTVSPost2010Prop45
280
     0
102
RTVSPost2010PropOp45
 70
     1
102
RTVSPost2010Prop46
 90
       50
102
RTVSPost2010PropOp46
 70
     1
102
RTVSPost2010Prop47
 90
       50
102
RTVSPost2010PropOp47
 70
     1
102
RTVSPost2010Prop48
 90
       50
102
RTVSPost2010PropOp48
 70
     1
102
RTVSPost2010Prop49
280
     0
102
RTVSPost2010PropOp49
 70
     1
102
RTVSPost2010Prop50
 90
       50
102
RTVSPost2010PropOp50
 70
     1
102
RTVSPost2010Prop51ColorIndex
 90
      256
102
RTVSPost2010Prop51ColorRGB
 90
-16777216
102
RTVSPost2010PropOp51
 70
     0
102
RTVSPost2010Prop52
140
1.0
102
RTVSPost2010PropOp52
 70
     0
102
RTVSPost2010Prop53
 90
        2
102
RTVSPost2010PropOp53
 70
     1
102
RTVSPost2010Prop54
  1
strokes_ogs.tif
102
RTVSPost2010PropOp54
 70
     1
102
RTVSPost2010Prop55
280
     0
102
RTVSPost2010PropOp55
 70
     1
102
RTVSPost2010Prop56
140
1.0
102
RTVSPost2010PropOp56
 70
     1
102
RTVSPost2010Prop57
140
1.0
102
RTVSPost2010PropOp57
 70
     1
  0
XRECORD
  5
163
102
{ACAD_REACTORS
330
162
102
}
330
162
100
AcDbXrecord
280
     1
102
RTVSPost2010Prop28
280
     0
102
RTVSPost2010PropOp28
 70
     1
102
RTVSPost2010Prop29
280
     1
102
RTVSPost2010PropOp29
 70
     1
102
RTVSPost2010Prop30
280
     1
102
RTVSPost2010PropOp30
 70
     1
102
RTVSPost2010Prop31
280
     0
102
RTVSPost2010PropOp31
 70
     1
102
RTVSPost2010Prop32
280
     0
102
RTVSPost2010PropOp32
 70
     1
102
RTVSPost2010Prop33
280
     0
102
RTVSPost2010PropOp33
 70
     1
102
RTVSPost2010Prop34
280
     0
102
RTVSPost2010PropOp34
 70
     1
102
RTVSPost2010Prop35
280
     0
102
RTVSPost2010PropOp35
 70
     1
102
RTVSPost2010Prop36
280
     0
102
RTVSPost2010PropOp36
 70
     1
102
RTVSPost2010Prop37
 90
       50
102
RTVSPost2010PropOp37
 70
     1
102
RTVSPost2010Prop38
140
0.0
102
RTVSPost2010PropOp38
 70
     1
102
RTVSPost2010Prop39
140
1.0
102
RTVSPost2010PropOp39
 70
     1
102
RTVSPost2010Prop40
 90
        0
102
RTVSPost2010PropOp40
 70
     1
102
RTVSPost2010Prop41ColorIndex
 90
       18
102
RTVSPost2010Prop41ColorRGB
 90
        0
102
RTVSPost2010PropOp41
 70
     1
102
RTVSPost2010Prop42
 90
       50
102
RTVSPost2010PropOp42
 70
     1
102
RTVSPost2010Prop43
 90
        3
102
RTVSPost2010PropOp43
 70
     1
102
RTVSPost2010Prop44ColorIndex
 90
        5
102
RTVSPost2010Prop44ColorRGB
 90
      255
102
RTVSPost2010PropOp44
 70
     1
102
RTVSPost2010Prop45
280
     0
102
RTVSPost2010PropOp45
 70
     1
102
RTVSPost2010Prop46
 90
       50
102
RTVSPost2010PropOp46
 70
     1
102
RTVSPost2010Prop47
 90
       50
102
RTVSPost2010PropOp47
 70
     1
102
RTVSPost2010Prop48
 90
       50
102
RTVSPost2010PropOp48
 70
     1
102
RTVSPost2010Prop49
280
     0
102
RTVSPost2010PropOp49
 70
     1
102
RTVSPost2010Prop50
 90
       50
102
RTVSPost2010PropOp50
 70
     1
102
RTVSPost2010Prop51ColorIndex
 90
      256
102
RTVSPost2010Prop51ColorRGB
 90
-16777216
102
RTVSPost2010PropOp51
 70
     0
102
RTVSPost2010Prop52
140
1.0
102
RTVSPost2010PropOp52
 70
     0
102
RTVSPost2010Prop53
 90
        2
102
RTVSPost2010PropOp53
 70
     1
102
RTVSPost2010Prop54
  1
strokes_ogs.tif
102
RTVSPost2010PropOp54
 70
     1
102
RTVSPost2010Prop55
280
     0
102
RTVSPost2010PropOp55
 70
     1
102
RTVSPost2010Prop56
140
1.0
102
RTVSPost2010PropOp56
 70
     1
102
RTVSPost2010Prop57
140
1.0
102
RTVSPost2010PropOp57
 70
     1
  0
XRECORD
  5
165
102
{ACAD_REACTORS
330
164
102
}
330
164
100
AcDbXrecord
280
     1
102
RTVSPost2010Prop28
280
     0
102
RTVSPost2010PropOp28
 70
     1
102
RTVSPost2010Prop29
280
     1
102
RTVSPost2010PropOp29
 70
     1
102
RTVSPost2010Prop30
280
     1
102
RTVSPost2010PropOp30
 70
     1
102
RTVSPost2010Prop31
280
     0
102
RTVSPost2010PropOp31
 70
     1
102
RTVSPost2010Prop32
280
     0
102
RTVSPost2010PropOp32
 70
     1
102
RTVSPost2010Prop33
280
     0
102
RTVSPost2010PropOp33
 70
     1
102
RTVSPost2010Prop34
280
     0
102
RTVSPost2010PropOp34
 70
     1
102
RTVSPost2010Prop35
280
     0
102
RTVSPost2010PropOp35
 70
     1
102
RTVSPost2010Prop36
280
     0
102
RTVSPost2010PropOp36
 70
     1
102
RTVSPost2010Prop37
 90
       50
102
RTVSPost2010PropOp37
 70
     1
102
RTVSPost2010Prop38
140
0.0
102
RTVSPost2010PropOp38
 70
     1
102
RTVSPost2010Prop39
140
1.0
102
RTVSPost2010PropOp39
 70
     1
102
RTVSPost2010Prop40
 90
        0
102
RTVSPost2010PropOp40
 70
     1
102
RTVSPost2010Prop41ColorIndex
 90
       18
102
RTVSPost2010Prop41ColorRGB
 90
        0
102
RTVSPost2010PropOp41
 70
     1
102
RTVSPost2010Prop42
 90
       50
102
RTVSPost2010PropOp42
 70
     1
102
RTVSPost2010Prop43
 90
        3
102
RTVSPost2010PropOp43
 70
     1
102
RTVSPost2010Prop44ColorIndex
 90
        5
102
RTVSPost2010Prop44ColorRGB
 90
      255
102
RTVSPost2010PropOp44
 70
     1
102
RTVSPost2010Prop45
280
     0
102
RTVSPost2010PropOp45
 70
     1
102
RTVSPost2010Prop46
 90
       50
102
RTVSPost2010PropOp46
 70
     1
102
RTVSPost2010Prop47
 90
       50
102
RTVSPost2010PropOp47
 70
     1
102
RTVSPost2010Prop48
 90
       50
102
RTVSPost2010PropOp48
 70
     1
102
RTVSPost2010Prop49
280
     0
102
RTVSPost2010PropOp49
 70
     1
102
RTVSPost2010Prop50
 90
       50
102
RTVSPost2010PropOp50
 70
     1
102
RTVSPost2010Prop51ColorIndex
 90
      256
102
RTVSPost2010Prop51ColorRGB
 90
-16777216
102
RTVSPost2010PropOp51
 70
     0
102
RTVSPost2010Prop52
140
1.0
102
RTVSPost2010PropOp52
 70
     0
102
RTVSPost2010Prop53
 90
        2
102
RTVSPost2010PropOp53
 70
     1
102
RTVSPost2010Prop54
  1
strokes_ogs.tif
102
RTVSPost2010PropOp54
 70
     1
102
RTVSPost2010Prop55
280
     0
102
RTVSPost2010PropOp55
 70
     1
102
RTVSPost2010Prop56
140
1.0
102
RTVSPost2010PropOp56
 70
     1
102
RTVSPost2010Prop57
140
1.0
102
RTVSPost2010PropOp57
 70
     1
  0
XRECORD
  5
167
102
{ACAD_REACTORS
330
166
102
}
330
166
100
AcDbXrecord
280
     1
102
RTVSPost2010Prop28
280
     0
102
RTVSPost2010PropOp28
 70
     1
102
RTVSPost2010Prop29
280
     1
102
RTVSPost2010PropOp29
 70
     1
102
RTVSPost2010Prop30
280
     1
102
RTVSPost2010PropOp30
 70
     1
102
RTVSPost2010Prop31
280
     0
102
RTVSPost2010PropOp31
 70
     1
102
RTVSPost2010Prop32
280
     0
102
RTVSPost2010PropOp32
 70
     1
102
RTVSPost2010Prop33
280
     0
102
RTVSPost2010PropOp33
 70
     1
102
RTVSPost2010Prop34
280
     0
102
RTVSPost2010PropOp34
 70
     1
102
RTVSPost2010Prop35
280
     0
102
RTVSPost2010PropOp35
 70
     1
102
RTVSPost2010Prop36
280
     0
102
RTVSPost2010PropOp36
 70
     1
102
RTVSPost2010Prop37
 90
       50
102
RTVSPost2010PropOp37
 70
     1
102
RTVSPost2010Prop38
140
0.0
102
RTVSPost2010PropOp38
 70
     1
102
RTVSPost2010Prop39
140
1.0
102
RTVSPost2010PropOp39
 70
     1
102
RTVSPost2010Prop40
 90
        0
102
RTVSPost2010PropOp40
 70
     1
102
RTVSPost2010Prop41ColorIndex
 90
       18
102
RTVSPost2010Prop41ColorRGB
 90
        0
102
RTVSPost2010PropOp41
 70
     1
102
RTVSPost2010Prop42
 90
       50
102
RTVSPost2010PropOp42
 70
     1
102
RTVSPost2010Prop43
 90
        3
102
RTVSPost2010PropOp43
 70
     1
102
RTVSPost2010Prop44ColorIndex
 90
        5
102
RTVSPost2010Prop44ColorRGB
 90
      255
102
RTVSPost2010PropOp44
 70
     1
102
RTVSPost2010Prop45
280
     0
102
RTVSPost2010PropOp45
 70
     1
102
RTVSPost2010Prop46
 90
       50
102
RTVSPost2010PropOp46
 70
     1
102
RTVSPost2010Prop47
 90
       50
102
RTVSPost2010PropOp47
 70
     1
102
RTVSPost2010Prop48
 90
       50
102
RTVSPost2010PropOp48
 70
     1
102
RTVSPost2010Prop49
280
     0
102
RTVSPost2010PropOp49
 70
     1
102
RTVSPost2010Prop50
 90
       50
102
RTVSPost2010PropOp50
 70
     1
102
RTVSPost2010Prop51ColorIndex
 90
      256
102
RTVSPost2010Prop51ColorRGB
 90
-16777216
102
RTVSPost2010PropOp51
 70
     0
102
RTVSPost2010Prop52
140
1.0
102
RTVSPost2010PropOp52
 70
     0
102
RTVSPost2010Prop53
 90
        2
102
RTVSPost2010PropOp53
 70
     1
102
RTVSPost2010Prop54
  1
strokes_ogs.tif
102
RTVSPost2010PropOp54
 70
     1
102
RTVSPost2010Prop55
280
     0
102
RTVSPost2010PropOp55
 70
     1
102
RTVSPost2010Prop56
140
1.0
102
RTVSPost2010PropOp56
 70
     1
102
RTVSPost2010Prop57
140
1.0
102
RTVSPost2010PropOp57
 70
     1
  0
XRECORD
  5
16F
102
{ACAD_REACTORS
330
16E
102
}
330
16E
100
AcDbXrecord
280
     1
102
RTVSPost2010Prop28
280
     0
102
RTVSPost2010PropOp28
 70
     1
102
RTVSPost2010Prop29
280
     1
102
RTVSPost2010PropOp29
 70
     1
102
RTVSPost2010Prop30
280
     1
102
RTVSPost2010PropOp30
 70
     1
102
RTVSPost2010Prop31
280
     0
102
RTVSPost2010PropOp31
 70
     1
102
RTVSPost2010Prop32
280
     0
102
RTVSPost2010PropOp32
 70
     1
102
RTVSPost2010Prop33
280
     0
102
RTVSPost2010PropOp33
 70
     1
102
RTVSPost2010Prop34
280
     0
102
RTVSPost2010PropOp34
 70
     1
102
RTVSPost2010Prop35
280
     0
102
RTVSPost2010PropOp35
 70
     1
102
RTVSPost2010Prop36
280
     0
102
RTVSPost2010PropOp36
 70
     1
102
RTVSPost2010Prop37
 90
       50
102
RTVSPost2010PropOp37
 70
     1
102
RTVSPost2010Prop38
140
0.0
102
RTVSPost2010PropOp38
 70
     1
102
RTVSPost2010Prop39
140
1.0
102
RTVSPost2010PropOp39
 70
     1
102
RTVSPost2010Prop40
 90
        0
102
RTVSPost2010PropOp40
 70
     1
102
RTVSPost2010Prop41ColorIndex
 90
       18
102
RTVSPost2010Prop41ColorRGB
 90
        0
102
RTVSPost2010PropOp41
 70
     1
102
RTVSPost2010Prop42
 90
       50
102
RTVSPost2010PropOp42
 70
     1
102
RTVSPost2010Prop43
 90
        3
102
RTVSPost2010PropOp43
 70
     1
102
RTVSPost2010Prop44ColorIndex
 90
        5
102
RTVSPost2010Prop44ColorRGB
 90
      255
102
RTVSPost2010PropOp44
 70
     1
102
RTVSPost2010Prop45
280
     0
102
RTVSPost2010PropOp45
 70
     1
102
RTVSPost2010Prop46
 90
       50
102
RTVSPost2010PropOp46
 70
     1
102
RTVSPost2010Prop47
 90
       50
102
RTVSPost2010PropOp47
 70
     1
102
RTVSPost2010Prop48
 90
       50
102
RTVSPost2010PropOp48
 70
     1
102
RTVSPost2010Prop49
280
     0
102
RTVSPost2010PropOp49
 70
     1
102
RTVSPost2010Prop50
 90
       50
102
RTVSPost2010PropOp50
 70
     1
102
RTVSPost2010Prop51ColorIndex
 90
      256
102
RTVSPost2010Prop51ColorRGB
 90
-16777216
102
RTVSPost2010PropOp51
 70
     0
102
RTVSPost2010Prop52
140
1.0
102
RTVSPost2010PropOp52
 70
     0
102
RTVSPost2010Prop53
 90
        2
102
RTVSPost2010PropOp53
 70
     1
102
RTVSPost2010Prop54
  1
strokes_ogs.tif
102
RTVSPost2010PropOp54
 70
     1
102
RTVSPost2010Prop55
280
     0
102
RTVSPost2010PropOp55
 70
     1
102
RTVSPost2010Prop56
140
1.0
102
RTVSPost2010PropOp56
 70
     1
102
RTVSPost2010Prop57
140
1.0
102
RTVSPost2010PropOp57
 70
     1
  0
XRECORD
  5
18B
102
{ACAD_REACTORS
330
18A
102
}
330
18A
100
AcDbXrecord
280
     1
102
RTVSPost2010Prop28
280
     0
102
RTVSPost2010PropOp28
 70
     0
102
RTVSPost2010Prop29
280
     1
102
RTVSPost2010PropOp29
 70
     0
102
RTVSPost2010Prop30
280
     1
102
RTVSPost2010PropOp30
 70
     0
102
RTVSPost2010Prop31
280
     0
102
RTVSPost2010PropOp31
 70
     0
102
RTVSPost2010Prop32
280
     0
102
RTVSPost2010PropOp32
 70
     0
102
RTVSPost2010Prop33
280
     0
102
RTVSPost2010PropOp33
 70
     0
102
RTVSPost2010Prop34
280
     0
102
RTVSPost2010PropOp34
 70
     0
102
RTVSPost2010Prop35
280
     0
102
RTVSPost2010PropOp35
 70
     0
102
RTVSPost2010Prop36
280
     0
102
RTVSPost2010PropOp36
 70
     0
102
RTVSPost2010Prop37
 90
       50
102
RTVSPost2010PropOp37
 70
     0
102
RTVSPost2010Prop38
140
0.0
102
RTVSPost2010PropOp38
 70
     0
102
RTVSPost2010Prop39
140
1.0
102
RTVSPost2010PropOp39
 70
     0
102
RTVSPost2010Prop40
 90
        0
102
RTVSPost2010PropOp40
 70
     0
102
RTVSPost2010Prop41ColorIndex
 90
       18
102
RTVSPost2010Prop41ColorRGB
 90
        0
102
RTVSPost2010PropOp41
 70
     0
102
RTVSPost2010Prop42
 90
       50
102
RTVSPost2010PropOp42
 70
     0
102
RTVSPost2010Prop43
 90
        3
102
RTVSPost2010PropOp43
 70
     0
102
RTVSPost2010Prop44ColorIndex
 90
        5
102
RTVSPost2010Prop44ColorRGB
 90
      255
102
RTVSPost2010PropOp44
 70
     0
102
RTVSPost2010Prop45
280
     0
102
RTVSPost2010PropOp45
 70
     0
102
RTVSPost2010Prop46
 90
       50
102
RTVSPost2010PropOp46
 70
     0
102
RTVSPost2010Prop47
 90
       50
102
RTVSPost2010PropOp47
 70
     0
102
RTVSPost2010Prop48
 90
       50
102
RTVSPost2010PropOp48
 70
     0
102
RTVSPost2010Prop49
280
     0
102
RTVSPost2010PropOp49
 70
     0
102
RTVSPost2010Prop50
 90
       50
102
RTVSPost2010PropOp50
 70
     0
102
RTVSPost2010Prop51ColorIndex
 90
      256
102
RTVSPost2010Prop51ColorRGB
 90
-16777216
102
RTVSPost2010PropOp51
 70
     0
102
RTVSPost2010Prop52
140
1.0
102
RTVSPost2010PropOp52
 70
     0
102
RTVSPost2010Prop53
 90
        2
102
RTVSPost2010PropOp53
 70
     0
102
RTVSPost2010Prop54
  1
strokes_ogs.tif
102
RTVSPost2010PropOp54
 70
     0
102
RTVSPost2010Prop55
280
     0
102
RTVSPost2010PropOp55
 70
     0
102
RTVSPost2010Prop56
140
1.0
102
RTVSPost2010PropOp56
 70
     0
102
RTVSPost2010Prop57
140
1.0
102
RTVSPost2010PropOp57
 70
     0
  0
XRECORD
  5
17B
102
{ACAD_REACTORS
330
17A
102
}
330
17A
100
AcDbXrecord
280
     1
102
RTVSPost2010Prop28
280
     0
102
RTVSPost2010PropOp28
 70
     1
102
RTVSPost2010Prop29
280
     1
102
RTVSPost2010PropOp29
 70
     1
102
RTVSPost2010Prop30
280
     1
102
RTVSPost2010PropOp30
 70
     1
102
RTVSPost2010Prop31
280
     0
102
RTVSPost2010PropOp31
 70
     1
102
RTVSPost2010Prop32
280
     0
102
RTVSPost2010PropOp32
 70
     1
102
RTVSPost2010Prop33
280
     0
102
RTVSPost2010PropOp33
 70
     1
102
RTVSPost2010Prop34
280
     0
102
RTVSPost2010PropOp34
 70
     1
102
RTVSPost2010Prop35
280
     0
102
RTVSPost2010PropOp35
 70
     1
102
RTVSPost2010Prop36
280
     0
102
RTVSPost2010PropOp36
 70
     1
102
RTVSPost2010Prop37
 90
       50
102
RTVSPost2010PropOp37
 70
     1
102
RTVSPost2010Prop38
140
0.0
102
RTVSPost2010PropOp38
 70
     1
102
RTVSPost2010Prop39
140
1.0
102
RTVSPost2010PropOp39
 70
     1
102
RTVSPost2010Prop40
 90
        0
102
RTVSPost2010PropOp40
 70
     1
102
RTVSPost2010Prop41ColorIndex
 90
       18
102
RTVSPost2010Prop41ColorRGB
 90
        0
102
RTVSPost2010PropOp41
 70
     1
102
RTVSPost2010Prop42
 90
       50
102
RTVSPost2010PropOp42
 70
     1
102
RTVSPost2010Prop43
 90
        3
102
RTVSPost2010PropOp43
 70
     1
102
RTVSPost2010Prop44ColorIndex
 90
        5
102
RTVSPost2010Prop44ColorRGB
 90
      255
102
RTVSPost2010PropOp44
 70
     1
102
RTVSPost2010Prop45
280
     0
102
RTVSPost2010PropOp45
 70
     1
102
RTVSPost2010Prop46
 90
       50
102
RTVSPost2010PropOp46
 70
     1
102
RTVSPost2010Prop47
 90
       50
102
RTVSPost2010PropOp47
 70
     1
102
RTVSPost2010Prop48
 90
       50
102
RTVSPost2010PropOp48
 70
     1
102
RTVSPost2010Prop49
280
     0
102
RTVSPost2010PropOp49
 70
     1
102
RTVSPost2010Prop50
 90
       50
102
RTVSPost2010PropOp50
 70
     1
102
RTVSPost2010Prop51ColorIndex
 90
      256
102
RTVSPost2010Prop51ColorRGB
 90
-16777216
102
RTVSPost2010PropOp51
 70
     0
102
RTVSPost2010Prop52
140
1.0
102
RTVSPost2010PropOp52
 70
     0
102
RTVSPost2010Prop53
 90
        2
102
RTVSPost2010PropOp53
 70
     1
102
RTVSPost2010Prop54
  1
strokes_ogs.tif
102
RTVSPost2010PropOp54
 70
     1
102
RTVSPost2010Prop55
280
     0
102
RTVSPost2010PropOp55
 70
     1
102
RTVSPost2010Prop56
140
1.0
102
RTVSPost2010PropOp56
 70
     1
102
RTVSPost2010Prop57
140
1.0
102
RTVSPost2010PropOp57
 70
     1
  0
XRECORD
  5
18D
102
{ACAD_REACTORS
330
18C
102
}
330
18C
100
AcDbXrecord
280
     1
102
RTVSPost2010Prop28
280
     0
102
RTVSPost2010PropOp28
 70
     0
102
RTVSPost2010Prop29
280
     1
102
RTVSPost2010PropOp29
 70
     0
102
RTVSPost2010Prop30
280
     1
102
RTVSPost2010PropOp30
 70
     0
102
RTVSPost2010Prop31
280
     0
102
RTVSPost2010PropOp31
 70
     0
102
RTVSPost2010Prop32
280
     0
102
RTVSPost2010PropOp32
 70
     0
102
RTVSPost2010Prop33
280
     0
102
RTVSPost2010PropOp33
 70
     0
102
RTVSPost2010Prop34
280
     0
102
RTVSPost2010PropOp34
 70
     0
102
RTVSPost2010Prop35
280
     0
102
RTVSPost2010PropOp35
 70
     0
102
RTVSPost2010Prop36
280
     0
102
RTVSPost2010PropOp36
 70
     0
102
RTVSPost2010Prop37
 90
       50
102
RTVSPost2010PropOp37
 70
     0
102
RTVSPost2010Prop38
140
0.0
102
RTVSPost2010PropOp38
 70
     0
102
RTVSPost2010Prop39
140
1.0
102
RTVSPost2010PropOp39
 70
     0
102
RTVSPost2010Prop40
 90
        0
102
RTVSPost2010PropOp40
 70
     0
102
RTVSPost2010Prop41ColorIndex
 90
       18
102
RTVSPost2010Prop41ColorRGB
 90
        0
102
RTVSPost2010PropOp41
 70
     0
102
RTVSPost2010Prop42
 90
       50
102
RTVSPost2010PropOp42
 70
     0
102
RTVSPost2010Prop43
 90
        3
102
RTVSPost2010PropOp43
 70
     0
102
RTVSPost2010Prop44ColorIndex
 90
        5
102
RTVSPost2010Prop44ColorRGB
 90
      255
102
RTVSPost2010PropOp44
 70
     0
102
RTVSPost2010Prop45
280
     0
102
RTVSPost2010PropOp45
 70
     0
102
RTVSPost2010Prop46
 90
       50
102
RTVSPost2010PropOp46
 70
     0
102
RTVSPost2010Prop47
 90
       50
102
RTVSPost2010PropOp47
 70
     0
102
RTVSPost2010Prop48
 90
       50
102
RTVSPost2010PropOp48
 70
     0
102
RTVSPost2010Prop49
280
     0
102
RTVSPost2010PropOp49
 70
     0
102
RTVSPost2010Prop50
 90
       50
102
RTVSPost2010PropOp50
 70
     0
102
RTVSPost2010Prop51ColorIndex
 90
      256
102
RTVSPost2010Prop51ColorRGB
 90
-16777216
102
RTVSPost2010PropOp51
 70
     0
102
RTVSPost2010Prop52
140
1.0
102
RTVSPost2010PropOp52
 70
     0
102
RTVSPost2010Prop53
 90
        2
102
RTVSPost2010PropOp53
 70
     0
102
RTVSPost2010Prop54
  1
strokes_ogs.tif
102
RTVSPost2010PropOp54
 70
     0
102
RTVSPost2010Prop55
280
     0
102
RTVSPost2010PropOp55
 70
     0
102
RTVSPost2010Prop56
140
1.0
102
RTVSPost2010PropOp56
 70
     0
102
RTVSPost2010Prop57
140
1.0
102
RTVSPost2010PropOp57
 70
     0
  0
XRECORD
  5
173
102
{ACAD_REACTORS
330
172
102
}
330
172
100
AcDbXrecord
280
     1
102
RTVSPost2010Prop28
280
     0
102
RTVSPost2010PropOp28
 70
     1
102
RTVSPost2010Prop29
280
     1
102
RTVSPost2010PropOp29
 70
     1
102
RTVSPost2010Prop30
280
     1
102
RTVSPost2010PropOp30
 70
     1
102
RTVSPost2010Prop31
280
     0
102
RTVSPost2010PropOp31
 70
     1
102
RTVSPost2010Prop32
280
     0
102
RTVSPost2010PropOp32
 70
     1
102
RTVSPost2010Prop33
280
     0
102
RTVSPost2010PropOp33
 70
     1
102
RTVSPost2010Prop34
280
     0
102
RTVSPost2010PropOp34
 70
     1
102
RTVSPost2010Prop35
280
     0
102
RTVSPost2010PropOp35
 70
     1
102
RTVSPost2010Prop36
280
     0
102
RTVSPost2010PropOp36
 70
     1
102
RTVSPost2010Prop37
 90
       50
102
RTVSPost2010PropOp37
 70
     1
102
RTVSPost2010Prop38
140
0.0
102
RTVSPost2010PropOp38
 70
     1
102
RTVSPost2010Prop39
140
1.0
102
RTVSPost2010PropOp39
 70
     1
102
RTVSPost2010Prop40
 90
        0
102
RTVSPost2010PropOp40
 70
     1
102
RTVSPost2010Prop41ColorIndex
 90
       18
102
RTVSPost2010Prop41ColorRGB
 90
        0
102
RTVSPost2010PropOp41
 70
     1
102
RTVSPost2010Prop42
 90
       50
102
RTVSPost2010PropOp42
 70
     1
102
RTVSPost2010Prop43
 90
        3
102
RTVSPost2010PropOp43
 70
     1
102
RTVSPost2010Prop44ColorIndex
 90
        5
102
RTVSPost2010Prop44ColorRGB
 90
      255
102
RTVSPost2010PropOp44
 70
     1
102
RTVSPost2010Prop45
280
     0
102
RTVSPost2010PropOp45
 70
     1
102
RTVSPost2010Prop46
 90
       50
102
RTVSPost2010PropOp46
 70
     1
102
RTVSPost2010Prop47
 90
       50
102
RTVSPost2010PropOp47
 70
     1
102
RTVSPost2010Prop48
 90
       50
102
RTVSPost2010PropOp48
 70
     1
102
RTVSPost2010Prop49
280
     0
102
RTVSPost2010PropOp49
 70
     1
102
RTVSPost2010Prop50
 90
       50
102
RTVSPost2010PropOp50
 70
     1
102
RTVSPost2010Prop51ColorIndex
 90
      256
102
RTVSPost2010Prop51ColorRGB
 90
-16777216
102
RTVSPost2010PropOp51
 70
     0
102
RTVSPost2010Prop52
140
1.0
102
RTVSPost2010PropOp52
 70
     0
102
RTVSPost2010Prop53
 90
        2
102
RTVSPost2010PropOp53
 70
     1
102
RTVSPost2010Prop54
  1
strokes_ogs.tif
102
RTVSPost2010PropOp54
 70
     1
102
RTVSPost2010Prop55
280
     0
102
RTVSPost2010PropOp55
 70
     1
102
RTVSPost2010Prop56
140
1.0
102
RTVSPost2010PropOp56
 70
     1
102
RTVSPost2010Prop57
140
1.0
102
RTVSPost2010PropOp57
 70
     1
  0
XRECORD
  5
189
102
{ACAD_REACTORS
330
188
102
}
330
188
100
AcDbXrecord
280
     1
102
RTVSPost2010Prop28
280
     0
102
RTVSPost2010PropOp28
 70
     1
102
RTVSPost2010Prop29
280
     1
102
RTVSPost2010PropOp29
 70
     1
102
RTVSPost2010Prop30
280
     1
102
RTVSPost2010PropOp30
 70
     1
102
RTVSPost2010Prop31
280
     0
102
RTVSPost2010PropOp31
 70
     1
102
RTVSPost2010Prop32
280
     0
102
RTVSPost2010PropOp32
 70
     1
102
RTVSPost2010Prop33
280
     0
102
RTVSPost2010PropOp33
 70
     1
102
RTVSPost2010Prop34
280
     0
102
RTVSPost2010PropOp34
 70
     1
102
RTVSPost2010Prop35
280
     0
102
RTVSPost2010PropOp35
 70
     1
102
RTVSPost2010Prop36
280
     0
102
RTVSPost2010PropOp36
 70
     1
102
RTVSPost2010Prop37
 90
       50
102
RTVSPost2010PropOp37
 70
     1
102
RTVSPost2010Prop38
140
0.0
102
RTVSPost2010PropOp38
 70
     1
102
RTVSPost2010Prop39
140
1.0
102
RTVSPost2010PropOp39
 70
     1
102
RTVSPost2010Prop40
 90
        0
102
RTVSPost2010PropOp40
 70
     1
102
RTVSPost2010Prop41ColorIndex
 90
       18
102
RTVSPost2010Prop41ColorRGB
 90
        0
102
RTVSPost2010PropOp41
 70
     1
102
RTVSPost2010Prop42
 90
       50
102
RTVSPost2010PropOp42
 70
     1
102
RTVSPost2010Prop43
 90
        3
102
RTVSPost2010PropOp43
 70
     1
102
RTVSPost2010Prop44ColorIndex
 90
        5
102
RTVSPost2010Prop44ColorRGB
 90
      255
102
RTVSPost2010PropOp44
 70
     1
102
RTVSPost2010Prop45
280
     0
102
RTVSPost2010PropOp45
 70
     1
102
RTVSPost2010Prop46
 90
       50
102
RTVSPost2010PropOp46
 70
     1
102
RTVSPost2010Prop47
 90
       50
102
RTVSPost2010PropOp47
 70
     1
102
RTVSPost2010Prop48
 90
       50
102
RTVSPost2010PropOp48
 70
     1
102
RTVSPost2010Prop49
280
     0
102
RTVSPost2010PropOp49
 70
     1
102
RTVSPost2010Prop50
 90
       50
102
RTVSPost2010PropOp50
 70
     1
102
RTVSPost2010Prop51ColorIndex
 90
      256
102
RTVSPost2010Prop51ColorRGB
 90
-16777216
102
RTVSPost2010PropOp51
 70
     0
102
RTVSPost2010Prop52
140
1.0
102
RTVSPost2010PropOp52
 70
     0
102
RTVSPost2010Prop53
 90
        2
102
RTVSPost2010PropOp53
 70
     1
102
RTVSPost2010Prop54
  1
strokes_ogs.tif
102
RTVSPost2010PropOp54
 70
     1
102
RTVSPost2010Prop55
280
     0
102
RTVSPost2010PropOp55
 70
     1
102
RTVSPost2010Prop56
140
1.0
102
RTVSPost2010PropOp56
 70
     1
102
RTVSPost2010Prop57
140
1.0
102
RTVSPost2010PropOp57
 70
     1
  0
XRECORD
  5
187
102
{ACAD_REACTORS
330
186
102
}
330
186
100
AcDbXrecord
280
     1
102
RTVSPost2010Prop28
280
     0
102
RTVSPost2010PropOp28
 70
     1
102
RTVSPost2010Prop29
280
     1
102
RTVSPost2010PropOp29
 70
     1
102
RTVSPost2010Prop30
280
     1
102
RTVSPost2010PropOp30
 70
     1
102
RTVSPost2010Prop31
280
     0
102
RTVSPost2010PropOp31
 70
     1
102
RTVSPost2010Prop32
280
     0
102
RTVSPost2010PropOp32
 70
     1
102
RTVSPost2010Prop33
280
     0
102
RTVSPost2010PropOp33
 70
     1
102
RTVSPost2010Prop34
280
     0
102
RTVSPost2010PropOp34
 70
     1
102
RTVSPost2010Prop35
280
     0
102
RTVSPost2010PropOp35
 70
     1
102
RTVSPost2010Prop36
280
     0
102
RTVSPost2010PropOp36
 70
     1
102
RTVSPost2010Prop37
 90
       50
102
RTVSPost2010PropOp37
 70
     1
102
RTVSPost2010Prop38
140
0.0
102
RTVSPost2010PropOp38
 70
     1
102
RTVSPost2010Prop39
140
1.0
102
RTVSPost2010PropOp39
 70
     1
102
RTVSPost2010Prop40
 90
        0
102
RTVSPost2010PropOp40
 70
     1
102
RTVSPost2010Prop41ColorIndex
 90
       18
102
RTVSPost2010Prop41ColorRGB
 90
        0
102
RTVSPost2010PropOp41
 70
     1
102
RTVSPost2010Prop42
 90
       50
102
RTVSPost2010PropOp42
 70
     1
102
RTVSPost2010Prop43
 90
        3
102
RTVSPost2010PropOp43
 70
     1
102
RTVSPost2010Prop44ColorIndex
 90
        5
102
RTVSPost2010Prop44ColorRGB
 90
      255
102
RTVSPost2010PropOp44
 70
     1
102
RTVSPost2010Prop45
280
     0
102
RTVSPost2010PropOp45
 70
     1
102
RTVSPost2010Prop46
 90
       50
102
RTVSPost2010PropOp46
 70
     1
102
RTVSPost2010Prop47
 90
       50
102
RTVSPost2010PropOp47
 70
     1
102
RTVSPost2010Prop48
 90
       50
102
RTVSPost2010PropOp48
 70
     1
102
RTVSPost2010Prop49
280
     0
102
RTVSPost2010PropOp49
 70
     1
102
RTVSPost2010Prop50
 90
       50
102
RTVSPost2010PropOp50
 70
     1
102
RTVSPost2010Prop51ColorIndex
 90
      256
102
RTVSPost2010Prop51ColorRGB
 90
-16777216
102
RTVSPost2010PropOp51
 70
     0
102
RTVSPost2010Prop52
140
1.0
102
RTVSPost2010PropOp52
 70
     0
102
RTVSPost2010Prop53
 90
        2
102
RTVSPost2010PropOp53
 70
     1
102
RTVSPost2010Prop54
  1
strokes_ogs.tif
102
RTVSPost2010PropOp54
 70
     1
102
RTVSPost2010Prop55
280
     0
102
RTVSPost2010PropOp55
 70
     1
102
RTVSPost2010Prop56
140
1.0
102
RTVSPost2010PropOp56
 70
     1
102
RTVSPost2010Prop57
140
1.0
102
RTVSPost2010PropOp57
 70
     1
  0
XRECORD
  5
181
102
{ACAD_REACTORS
330
180
102
}
330
180
100
AcDbXrecord
280
     1
102
RTVSPost2010Prop28
280
     0
102
RTVSPost2010PropOp28
 70
     1
102
RTVSPost2010Prop29
280
     1
102
RTVSPost2010PropOp29
 70
     1
102
RTVSPost2010Prop30
280
     1
102
RTVSPost2010PropOp30
 70
     1
102
RTVSPost2010Prop31
280
     0
102
RTVSPost2010PropOp31
 70
     1
102
RTVSPost2010Prop32
280
     0
102
RTVSPost2010PropOp32
 70
     1
102
RTVSPost2010Prop33
280
     0
102
RTVSPost2010PropOp33
 70
     1
102
RTVSPost2010Prop34
280
     0
102
RTVSPost2010PropOp34
 70
     1
102
RTVSPost2010Prop35
280
     0
102
RTVSPost2010PropOp35
 70
     1
102
RTVSPost2010Prop36
280
     0
102
RTVSPost2010PropOp36
 70
     1
102
RTVSPost2010Prop37
 90
       50
102
RTVSPost2010PropOp37
 70
     1
102
RTVSPost2010Prop38
140
0.0
102
RTVSPost2010PropOp38
 70
     1
102
RTVSPost2010Prop39
140
1.0
102
RTVSPost2010PropOp39
 70
     1
102
RTVSPost2010Prop40
 90
        0
102
RTVSPost2010PropOp40
 70
     1
102
RTVSPost2010Prop41ColorIndex
 90
       18
102
RTVSPost2010Prop41ColorRGB
 90
        0
102
RTVSPost2010PropOp41
 70
     1
102
RTVSPost2010Prop42
 90
       50
102
RTVSPost2010PropOp42
 70
     1
102
RTVSPost2010Prop43
 90
        3
102
RTVSPost2010PropOp43
 70
     1
102
RTVSPost2010Prop44ColorIndex
 90
        5
102
RTVSPost2010Prop44ColorRGB
 90
      255
102
RTVSPost2010PropOp44
 70
     1
102
RTVSPost2010Prop45
280
     0
102
RTVSPost2010PropOp45
 70
     1
102
RTVSPost2010Prop46
 90
       50
102
RTVSPost2010PropOp46
 70
     1
102
RTVSPost2010Prop47
 90
       50
102
RTVSPost2010PropOp47
 70
     1
102
RTVSPost2010Prop48
 90
       50
102
RTVSPost2010PropOp48
 70
     1
102
RTVSPost2010Prop49
280
     0
102
RTVSPost2010PropOp49
 70
     1
102
RTVSPost2010Prop50
 90
       50
102
RTVSPost2010PropOp50
 70
     1
102
RTVSPost2010Prop51ColorIndex
 90
      256
102
RTVSPost2010Prop51ColorRGB
 90
-16777216
102
RTVSPost2010PropOp51
 70
     0
102
RTVSPost2010Prop52
140
1.0
102
RTVSPost2010PropOp52
 70
     0
102
RTVSPost2010Prop53
 90
        2
102
RTVSPost2010PropOp53
 70
     1
102
RTVSPost2010Prop54
  1
strokes_ogs.tif
102
RTVSPost2010PropOp54
 70
     1
102
RTVSPost2010Prop55
280
     0
102
RTVSPost2010PropOp55
 70
     1
102
RTVSPost2010Prop56
140
1.0
102
RTVSPost2010PropOp56
 70
     1
102
RTVSPost2010Prop57
140
1.0
102
RTVSPost2010PropOp57
 70
     1
  0
XRECORD
  5
183
102
{ACAD_REACTORS
330
182
102
}
330
182
100
AcDbXrecord
280
     1
102
RTVSPost2010Prop28
280
     0
102
RTVSPost2010PropOp28
 70
     1
102
RTVSPost2010Prop29
280
     1
102
RTVSPost2010PropOp29
 70
     1
102
RTVSPost2010Prop30
280
     1
102
RTVSPost2010PropOp30
 70
     1
102
RTVSPost2010Prop31
280
     0
102
RTVSPost2010PropOp31
 70
     1
102
RTVSPost2010Prop32
280
     0
102
RTVSPost2010PropOp32
 70
     1
102
RTVSPost2010Prop33
280
     0
102
RTVSPost2010PropOp33
 70
     1
102
RTVSPost2010Prop34
280
     0
102
RTVSPost2010PropOp34
 70
     1
102
RTVSPost2010Prop35
280
     0
102
RTVSPost2010PropOp35
 70
     1
102
RTVSPost2010Prop36
280
     0
102
RTVSPost2010PropOp36
 70
     1
102
RTVSPost2010Prop37
 90
       50
102
RTVSPost2010PropOp37
 70
     1
102
RTVSPost2010Prop38
140
0.0
102
RTVSPost2010PropOp38
 70
     1
102
RTVSPost2010Prop39
140
1.0
102
RTVSPost2010PropOp39
 70
     1
102
RTVSPost2010Prop40
 90
        0
102
RTVSPost2010PropOp40
 70
     1
102
RTVSPost2010Prop41ColorIndex
 90
       18
102
RTVSPost2010Prop41ColorRGB
 90
        0
102
RTVSPost2010PropOp41
 70
     1
102
RTVSPost2010Prop42
 90
       50
102
RTVSPost2010PropOp42
 70
     1
102
RTVSPost2010Prop43
 90
        3
102
RTVSPost2010PropOp43
 70
     1
102
RTVSPost2010Prop44ColorIndex
 90
        5
102
RTVSPost2010Prop44ColorRGB
 90
      255
102
RTVSPost2010PropOp44
 70
     1
102
RTVSPost2010Prop45
280
     0
102
RTVSPost2010PropOp45
 70
     1
102
RTVSPost2010Prop46
 90
       50
102
RTVSPost2010PropOp46
 70
     1
102
RTVSPost2010Prop47
 90
       50
102
RTVSPost2010PropOp47
 70
     1
102
RTVSPost2010Prop48
 90
       50
102
RTVSPost2010PropOp48
 70
     1
102
RTVSPost2010Prop49
280
     0
102
RTVSPost2010PropOp49
 70
     1
102
RTVSPost2010Prop50
 90
       50
102
RTVSPost2010PropOp50
 70
     1
102
RTVSPost2010Prop51ColorIndex
 90
      256
102
RTVSPost2010Prop51ColorRGB
 90
-16777216
102
RTVSPost2010PropOp51
 70
     0
102
RTVSPost2010Prop52
140
1.0
102
RTVSPost2010PropOp52
 70
     0
102
RTVSPost2010Prop53
 90
        2
102
RTVSPost2010PropOp53
 70
     1
102
RTVSPost2010Prop54
  1
strokes_ogs.tif
102
RTVSPost2010PropOp54
 70
     1
102
RTVSPost2010Prop55
280
     0
102
RTVSPost2010PropOp55
 70
     1
102
RTVSPost2010Prop56
140
1.0
102
RTVSPost2010PropOp56
 70
     1
102
RTVSPost2010Prop57
140
1.0
102
RTVSPost2010PropOp57
 70
     1
  0
XRECORD
  5
179
102
{ACAD_REACTORS
330
178
102
}
330
178
100
AcDbXrecord
280
     1
102
RTVSPost2010Prop28
280
     0
102
RTVSPost2010PropOp28
 70
     1
102
RTVSPost2010Prop29
280
     1
102
RTVSPost2010PropOp29
 70
     1
102
RTVSPost2010Prop30
280
     1
102
RTVSPost2010PropOp30
 70
     1
102
RTVSPost2010Prop31
280
     0
102
RTVSPost2010PropOp31
 70
     1
102
RTVSPost2010Prop32
280
     0
102
RTVSPost2010PropOp32
 70
     1
102
RTVSPost2010Prop33
280
     0
102
RTVSPost2010PropOp33
 70
     1
102
RTVSPost2010Prop34
280
     0
102
RTVSPost2010PropOp34
 70
     1
102
RTVSPost2010Prop35
280
     0
102
RTVSPost2010PropOp35
 70
     1
102
RTVSPost2010Prop36
280
     0
102
RTVSPost2010PropOp36
 70
     1
102
RTVSPost2010Prop37
 90
       50
102
RTVSPost2010PropOp37
 70
     1
102
RTVSPost2010Prop38
140
0.0
102
RTVSPost2010PropOp38
 70
     1
102
RTVSPost2010Prop39
140
1.0
102
RTVSPost2010PropOp39
 70
     1
102
RTVSPost2010Prop40
 90
        0
102
RTVSPost2010PropOp40
 70
     1
102
RTVSPost2010Prop41ColorIndex
 90
       18
102
RTVSPost2010Prop41ColorRGB
 90
        0
102
RTVSPost2010PropOp41
 70
     1
102
RTVSPost2010Prop42
 90
       50
102
RTVSPost2010PropOp42
 70
     1
102
RTVSPost2010Prop43
 90
        3
102
RTVSPost2010PropOp43
 70
     1
102
RTVSPost2010Prop44ColorIndex
 90
        5
102
RTVSPost2010Prop44ColorRGB
 90
      255
102
RTVSPost2010PropOp44
 70
     1
102
RTVSPost2010Prop45
280
     0
102
RTVSPost2010PropOp45
 70
     1
102
RTVSPost2010Prop46
 90
       50
102
RTVSPost2010PropOp46
 70
     1
102
RTVSPost2010Prop47
 90
       50
102
RTVSPost2010PropOp47
 70
     1
102
RTVSPost2010Prop48
 90
       50
102
RTVSPost2010PropOp48
 70
     1
102
RTVSPost2010Prop49
280
     0
102
RTVSPost2010PropOp49
 70
     1
102
RTVSPost2010Prop50
 90
       50
102
RTVSPost2010PropOp50
 70
     1
102
RTVSPost2010Prop51ColorIndex
 90
      256
102
RTVSPost2010Prop51ColorRGB
 90
-16777216
102
RTVSPost2010PropOp51
 70
     0
102
RTVSPost2010Prop52
140
1.0
102
RTVSPost2010PropOp52
 70
     0
102
RTVSPost2010Prop53
 90
        2
102
RTVSPost2010PropOp53
 70
     1
102
RTVSPost2010Prop54
  1
strokes_ogs.tif
102
RTVSPost2010PropOp54
 70
     1
102
RTVSPost2010Prop55
280
     0
102
RTVSPost2010PropOp55
 70
     1
102
RTVSPost2010Prop56
140
1.0
102
RTVSPost2010PropOp56
 70
     1
102
RTVSPost2010Prop57
140
1.0
102
RTVSPost2010PropOp57
 70
     1
  0
XRECORD
  5
16D
102
{ACAD_REACTORS
330
16C
102
}
330
16C
100
AcDbXrecord
280
     1
102
RTVSPost2010Prop28
280
     0
102
RTVSPost2010PropOp28
 70
     1
102
RTVSPost2010Prop29
280
     1
102
RTVSPost2010PropOp29
 70
     1
102
RTVSPost2010Prop30
280
     1
102
RTVSPost2010PropOp30
 70
     1
102
RTVSPost2010Prop31
280
     0
102
RTVSPost2010PropOp31
 70
     1
102
RTVSPost2010Prop32
280
     0
102
RTVSPost2010PropOp32
 70
     1
102
RTVSPost2010Prop33
280
     0
102
RTVSPost2010PropOp33
 70
     1
102
RTVSPost2010Prop34
280
     0
102
RTVSPost2010PropOp34
 70
     1
102
RTVSPost2010Prop35
280
     0
102
RTVSPost2010PropOp35
 70
     1
102
RTVSPost2010Prop36
280
     0
102
RTVSPost2010PropOp36
 70
     1
102
RTVSPost2010Prop37
 90
       50
102
RTVSPost2010PropOp37
 70
     1
102
RTVSPost2010Prop38
140
0.0
102
RTVSPost2010PropOp38
 70
     1
102
RTVSPost2010Prop39
140
1.0
102
RTVSPost2010PropOp39
 70
     1
102
RTVSPost2010Prop40
 90
        0
102
RTVSPost2010PropOp40
 70
     1
102
RTVSPost2010Prop41ColorIndex
 90
       18
102
RTVSPost2010Prop41ColorRGB
 90
        0
102
RTVSPost2010PropOp41
 70
     1
102
RTVSPost2010Prop42
 90
       50
102
RTVSPost2010PropOp42
 70
     1
102
RTVSPost2010Prop43
 90
        3
102
RTVSPost2010PropOp43
 70
     1
102
RTVSPost2010Prop44ColorIndex
 90
        5
102
RTVSPost2010Prop44ColorRGB
 90
      255
102
RTVSPost2010PropOp44
 70
     1
102
RTVSPost2010Prop45
280
     0
102
RTVSPost2010PropOp45
 70
     1
102
RTVSPost2010Prop46
 90
       50
102
RTVSPost2010PropOp46
 70
     1
102
RTVSPost2010Prop47
 90
       50
102
RTVSPost2010PropOp47
 70
     1
102
RTVSPost2010Prop48
 90
       50
102
RTVSPost2010PropOp48
 70
     1
102
RTVSPost2010Prop49
280
     0
102
RTVSPost2010PropOp49
 70
     1
102
RTVSPost2010Prop50
 90
       50
102
RTVSPost2010PropOp50
 70
     1
102
RTVSPost2010Prop51ColorIndex
 90
      256
102
RTVSPost2010Prop51ColorRGB
 90
-16777216
102
RTVSPost2010PropOp51
 70
     0
102
RTVSPost2010Prop52
140
1.0
102
RTVSPost2010PropOp52
 70
     0
102
RTVSPost2010Prop53
 90
        2
102
RTVSPost2010PropOp53
 70
     1
102
RTVSPost2010Prop54
  1
strokes_ogs.tif
102
RTVSPost2010PropOp54
 70
     1
102
RTVSPost2010Prop55
280
     0
102
RTVSPost2010PropOp55
 70
     1
102
RTVSPost2010Prop56
140
1.0
102
RTVSPost2010PropOp56
 70
     1
102
RTVSPost2010Prop57
140
1.0
102
RTVSPost2010PropOp57
 70
     1
  0
XRECORD
  5
185
102
{ACAD_REACTORS
330
184
102
}
330
184
100
AcDbXrecord
280
     1
102
RTVSPost2010Prop28
280
     0
102
RTVSPost2010PropOp28
 70
     1
102
RTVSPost2010Prop29
280
     1
102
RTVSPost2010PropOp29
 70
     1
102
RTVSPost2010Prop30
280
     1
102
RTVSPost2010PropOp30
 70
     1
102
RTVSPost2010Prop31
280
     0
102
RTVSPost2010PropOp31
 70
     1
102
RTVSPost2010Prop32
280
     0
102
RTVSPost2010PropOp32
 70
     1
102
RTVSPost2010Prop33
280
     0
102
RTVSPost2010PropOp33
 70
     1
102
RTVSPost2010Prop34
280
     0
102
RTVSPost2010PropOp34
 70
     1
102
RTVSPost2010Prop35
280
     0
102
RTVSPost2010PropOp35
 70
     1
102
RTVSPost2010Prop36
280
     0
102
RTVSPost2010PropOp36
 70
     1
102
RTVSPost2010Prop37
 90
       50
102
RTVSPost2010PropOp37
 70
     1
102
RTVSPost2010Prop38
140
0.0
102
RTVSPost2010PropOp38
 70
     1
102
RTVSPost2010Prop39
140
1.0
102
RTVSPost2010PropOp39
 70
     1
102
RTVSPost2010Prop40
 90
        0
102
RTVSPost2010PropOp40
 70
     1
102
RTVSPost2010Prop41ColorIndex
 90
       18
102
RTVSPost2010Prop41ColorRGB
 90
        0
102
RTVSPost2010PropOp41
 70
     1
102
RTVSPost2010Prop42
 90
       50
102
RTVSPost2010PropOp42
 70
     1
102
RTVSPost2010Prop43
 90
        3
102
RTVSPost2010PropOp43
 70
     1
102
RTVSPost2010Prop44ColorIndex
 90
        5
102
RTVSPost2010Prop44ColorRGB
 90
      255
102
RTVSPost2010PropOp44
 70
     1
102
RTVSPost2010Prop45
280
     0
102
RTVSPost2010PropOp45
 70
     1
102
RTVSPost2010Prop46
 90
       50
102
RTVSPost2010PropOp46
 70
     1
102
RTVSPost2010Prop47
 90
       50
102
RTVSPost2010PropOp47
 70
     1
102
RTVSPost2010Prop48
 90
       50
102
RTVSPost2010PropOp48
 70
     1
102
RTVSPost2010Prop49
280
     0
102
RTVSPost2010PropOp49
 70
     1
102
RTVSPost2010Prop50
 90
       50
102
RTVSPost2010PropOp50
 70
     1
102
RTVSPost2010Prop51ColorIndex
 90
      256
102
RTVSPost2010Prop51ColorRGB
 90
-16777216
102
RTVSPost2010PropOp51
 70
     0
102
RTVSPost2010Prop52
140
1.0
102
RTVSPost2010PropOp52
 70
     0
102
RTVSPost2010Prop53
 90
        2
102
RTVSPost2010PropOp53
 70
     1
102
RTVSPost2010Prop54
  1
strokes_ogs.tif
102
RTVSPost2010PropOp54
 70
     1
102
RTVSPost2010Prop55
280
     0
102
RTVSPost2010PropOp55
 70
     1
102
RTVSPost2010Prop56
140
1.0
102
RTVSPost2010PropOp56
 70
     1
102
RTVSPost2010Prop57
140
1.0
102
RTVSPost2010PropOp57
 70
     1
  0
ENDSEC
  0
EOF
