  0
SECTION
  2
HEADER
  9
$ACADVER
  1
AC1024
  9
$ACADMAINTVER
 70
   226
  9
$DWGCODEPAGE
  3
ANSI_932
  9
$INSBASE
 10
0.0
 20
0.0
 30
0.0
  9
$EXTMIN
 10
1.000000000000000E+20
 20
1.000000000000000E+20
 30
1.000000000000000E+20
  9
$EXTMAX
 10
-1.000000000000000E+20
 20
-1.000000000000000E+20
 30
-1.000000000000000E+20
  9
$LIMMIN
 10
0.0
 20
0.0
  9
$LIMMAX
 10
12.0
 20
9.0
  9
$ORTHOMODE
 70
     0
  9
$REGENMODE
 70
     1
  9
$FILLMODE
 70
     1
  9
$QTEXTMODE
 70
     0
  9
$MIRRTEXT
 70
     0
  9
$LTSCALE
 40
1.0
  9
$ATTMODE
 70
     1
  9
$TEXTSIZE
 40
0.2
  9
$TRACEWID
 40
0.05
  9
$TEXTSTYLE
  7
Standard
  9
$CLAYER
  8
0
  9
$CELTYPE
  6
ByLayer
  9
$CECOLOR
 62
   256
  9
$CELTSCALE
 40
1.0
  9
$DISPSILH
 70
     0
  9
$DIMSCALE
 40
1.0
  9
$DIMASZ
 40
0.18
  9
$DIMEXO
 40
0.0625
  9
$DIMDLI
 40
0.38
  9
$DIMRND
 40
0.0
  9
$DIMDLE
 40
0.0
  9
$DIMEXE
 40
0.18
  9
$DIMTP
 40
0.0
  9
$DIMTM
 40
0.0
  9
$DIMTXT
 40
0.18
  9
$DIMCEN
 40
0.09
  9
$DIMTSZ
 40
0.0
  9
$DIMTOL
 70
     0
  9
$DIMLIM
 70
     0
  9
$DIMTIH
 70
     1
  9
$DIMTOH
 70
     1
  9
$DIMSE1
 70
     0
  9
$DIMSE2
 70
     0
  9
$DIMTAD
 70
     0
  9
$DIMZIN
 70
     0
  9
$DIMBLK
  1

  9
$DIMASO
 70
     1
  9
$DIMSHO
 70
     1
  9
$DIMPOST
  1

  9
$DIMAPOST
  1

  9
$DIMALT
 70
     0
  9
$DIMALTD
 70
     2
  9
$DIMALTF
 40
25.4
  9
$DIMLFAC
 40
1.0
  9
$DIMTOFL
 70
     0
  9
$DIMTVP
 40
0.0
  9
$DIMTIX
 70
     0
  9
$DIMSOXD
 70
     0
  9
$DIMSAH
 70
     0
  9
$DIMBLK1
  1

  9
$DIMBLK2
  1

  9
$DIMSTYLE
  2
Standard
  9
$DIMCLRD
 70
     0
  9
$DIMCLRE
 70
     0
  9
$DIMCLRT
 70
     0
  9
$DIMTFAC
 40
1.0
  9
$DIMGAP
 40
0.09
  9
$DIMJUST
 70
     0
  9
$DIMSD1
 70
     0
  9
$DIMSD2
 70
     0
  9
$DIMTOLJ
 70
     1
  9
$DIMTZIN
 70
     0
  9
$DIMALTZ
 70
     0
  9
$DIMALTTZ
 70
     0
  9
$DIMUPT
 70
     0
  9
$DIMDEC
 70
     4
  9
$DIMTDEC
 70
     4
  9
$DIMALTU
 70
     2
  9
$DIMALTTD
 70
     2
  9
$DIMTXSTY
  7
Standard
  9
$DIMAUNIT
 70
     0
  9
$DIMADEC
 70
     0
  9
$DIMALTRND
 40
0.0
  9
$DIMAZIN
 70
     0
  9
$DIMDSEP
 70
    46
  9
$DIMATFIT
 70
     3
  9
$DIMFRAC
 70
     0
  9
$DIMLDRBLK
  1

  9
$DIMLUNIT
 70
     2
  9
$DIMLWD
 70
    -2
  9
$DIMLWE
 70
    -2
  9
$DIMTMOVE
 70
     0
  9
$DIMFXL
 40
1.0
  9
$DIMFXLON
 70
     0
  9
$DIMJOGANG
 40
0.7853981633974483
  9
$DIMTFILL
 70
     0
  9
$DIMTFILLCLR
 70
     0
  9
$DIMARCSYM
 70
     0
  9
$DIMLTYPE
  6

  9
$DIMLTEX1
  6

  9
$DIMLTEX2
  6

  9
$DIMTXTDIRECTION
 70
     0
  9
$LUNITS
 70
     2
  9
$LUPREC
 70
     4
  9
$SKETCHINC
 40
0.1
  9
$FILLETRAD
 40
0.0
  9
$AUNITS
 70
     0
  9
$AUPREC
 70
     0
  9
$MENU
  1
.
  9
$ELEVATION
 40
0.0
  9
$PELEVATION
 40
0.0
  9
$THICKNESS
 40
0.0
  9
$LIMCHECK
 70
     0
  9
$CHAMFERA
 40
0.0
  9
$CHAMFERB
 40
0.0
  9
$CHAMFERC
 40
0.0
  9
$CHAMFERD
 40
0.0
  9
$SKPOLY
 70
     0
  9
$TDCREATE
 40
2459569.488587963
  9
$TDUCREATE
 40
2459569.113587963
  9
$TDUPDATE
 40
2459569.488587963
  9
$TDUUPDATE
 40
2459569.113587963
  9
$TDINDWG
 40
0.0000000000
  9
$TDUSRTIMER
 40
0.0000000000
  9
$USRTIMER
 70
     1
  9
$ANGBASE
 50
0.0
  9
$ANGDIR
 70
     0
  9
$PDMODE
 70
     0
  9
$PDSIZE
 40
0.0
  9
$PLINEWID
 40
0.0
  9
$SPLFRAME
 70
     0
  9
$SPLINETYPE
 70
     6
  9
$SPLINESEGS
 70
     8
  9
$HANDSEED
  5
10D
  9
$SURFTAB1
 70
     6
  9
$SURFTAB2
 70
     6
  9
$SURFTYPE
 70
     6
  9
$SURFU
 70
     6
  9
$SURFV
 70
     6
  9
$UCSBASE
  2

  9
$UCSNAME
  2

  9
$UCSORG
 10
0.0
 20
0.0
 30
0.0
  9
$UCSXDIR
 10
1.0
 20
0.0
 30
0.0
  9
$UCSYDIR
 10
0.0
 20
1.0
 30
0.0
  9
$UCSORTHOREF
  2

  9
$UCSORTHOVIEW
 70
     0
  9
$UCSORGTOP
 10
0.0
 20
0.0
 30
0.0
  9
$UCSORGBOTTOM
 10
0.0
 20
0.0
 30
0.0
  9
$UCSORGLEFT
 10
0.0
 20
0.0
 30
0.0
  9
$UCSORGRIGHT
 10
0.0
 20
0.0
 30
0.0
  9
$UCSORGFRONT
 10
0.0
 20
0.0
 30
0.0
  9
$UCSORGBACK
 10
0.0
 20
0.0
 30
0.0
  9
$PUCSBASE
  2

  9
$PUCSNAME
  2

  9
$PUCSORG
 10
0.0
 20
0.0
 30
0.0
  9
$PUCSXDIR
 10
1.0
 20
0.0
 30
0.0
  9
$PUCSYDIR
 10
0.0
 20
1.0
 30
0.0
  9
$PUCSORTHOREF
  2

  9
$PUCSORTHOVIEW
 70
     0
  9
$PUCSORGTOP
 10
0.0
 20
0.0
 30
0.0
  9
$PUCSORGBOTTOM
 10
0.0
 20
0.0
 30
0.0
  9
$PUCSORGLEFT
 10
0.0
 20
0.0
 30
0.0
  9
$PUCSORGRIGHT
 10
0.0
 20
0.0
 30
0.0
  9
$PUCSORGFRONT
 10
0.0
 20
0.0
 30
0.0
  9
$PUCSORGBACK
 10
0.0
 20
0.0
 30
0.0
  9
$USERI1
 70
     0
  9
$USERI2
 70
     0
  9
$USERI3
 70
     0
  9
$USERI4
 70
     0
  9
$USERI5
 70
     0
  9
$USERR1
 40
0.0
  9
$USERR2
 40
0.0
  9
$USERR3
 40
0.0
  9
$USERR4
 40
0.0
  9
$USERR5
 40
0.0
  9
$WORLDVIEW
 70
     1
  9
$SHADEDGE
 70
     3
  9
$SHADEDIF
 70
    70
  9
$TILEMODE
 70
     1
  9
$MAXACTVP
 70
    64
  9
$PINSBASE
 10
0.0
 20
0.0
 30
0.0
  9
$PLIMCHECK
 70
     0
  9
$PEXTMIN
 10
1.000000000000000E+20
 20
1.000000000000000E+20
 30
1.000000000000000E+20
  9
$PEXTMAX
 10
-1.000000000000000E+20
 20
-1.000000000000000E+20
 30
-1.000000000000000E+20
  9
$PLIMMIN
 10
0.0
 20
0.0
  9
$PLIMMAX
 10
12.0
 20
9.0
  9
$UNITMODE
 70
     0
  9
$VISRETAIN
 70
     1
  9
$PLINEGEN
 70
     0
  9
$PSLTSCALE
 70
     1
  9
$TREEDEPTH
 70
  3020
  9
$CMLSTYLE
  2
Standard
  9
$CMLJUST
 70
     0
  9
$CMLSCALE
 40
1.0
  9
$PROXYGRAPHICS
 70
     1
  9
$MEASUREMENT
 70
     0
  9
$CELWEIGHT
370
    -1
  9
$ENDCAPS
280
     0
  9
$JOINSTYLE
280
     0
  9
$LWDISPLAY
290
     1
  9
$INSUNITS
 70
     4
  9
$HYPERLINKBASE
  1

  9
$STYLESHEET
  1

  9
$XEDIT
290
     1
  9
$CEPSNTYPE
380
     0
  9
$PSTYLEMODE
290
     1
  9
$FINGERPRINTGUID
  2
{043348AA-3E3B-3149-9457-2B69C9B0669E}
  9
$VERSIONGUID
  2
{45838F99-6904-1344-9F3F-34C801BD9D5E}
  9
$EXTNAMES
290
     1
  9
$PSVPSCALE
 40
0.0
  9
$OLESTARTUP
290
     0
  9
$SORTENTS
280
   127
  9
$INDEXCTL
280
     0
  9
$HIDETEXT
280
     1
  9
$XCLIPFRAME
280
     2
  9
$HALOGAP
280
     0
  9
$OBSCOLOR
 70
   257
  9
$OBSLTYPE
280
     0
  9
$INTERSECTIONDISPLAY
280
     0
  9
$INTERSECTIONCOLOR
 70
   257
  9
$DIMASSOC
280
     2
  9
$PROJECTNAME
  1

  9
$CAMERADISPLAY
290
     0
  9
$LENSLENGTH
 40
50.0
  9
$CAMERAHEIGHT
 40
0.0
  9
$STEPSPERSEC
 40
2.0
  9
$STEPSIZE
 40
6.0
  9
$3DDWFPREC
 40
2.0
  9
$PSOLWIDTH
 40
0.25
  9
$PSOLHEIGHT
 40
4.0
  9
$LOFTANG1
 40
1.570796326794896
  9
$LOFTANG2
 40
1.570796326794896
  9
$LOFTMAG1
 40
0.0
  9
$LOFTMAG2
 40
0.0
  9
$LOFTPARAM
 70
     7
  9
$LOFTNORMALS
280
     1
  9
$LATITUDE
 40
37.795
  9
$LONGITUDE
 40
-122.394
  9
$NORTHDIRECTION
 40
0.0
  9
$TIMEZONE
 70
 -8000
  9
$LIGHTGLYPHDISPLAY
280
     1
  9
$TILEMODELIGHTSYNCH
280
     1
  9
$CMATERIAL
347
11
  9
$SOLIDHIST
280
     0
  9
$SHOWHIST
280
     1
  9
$DWFFRAME
280
     2
  9
$DGNFRAME
280
     0
  9
$REALWORLDSCALE
290
     1
  9
$INTERFERECOLOR
 62
     1
  9
$INTERFEREOBJVS
345
33
  9
$INTERFEREVPVS
346
30
  9
$CSHADOW
280
     0
  9
$SHADOWPLANELOCATION
 40
0.0
  0
ENDSEC
  0
SECTION
  2
CLASSES
  0
CLASS
  1
ACDBDICTIONARYWDFLT
  2
AcDbDictionaryWithDefault
  3
ObjectDBX Classes
 90
        0
 91
        1
280
     0
281
     0
  0
CLASS
  1
MATERIAL
  2
AcDbMaterial
  3
ObjectDBX Classes
 90
     1153
 91
        3
280
     0
281
     0
  0
CLASS
  1
VISUALSTYLE
  2
AcDbVisualStyle
  3
ObjectDBX Classes
 90
     4095
 91
       24
280
     0
281
     0
  0
CLASS
  1
SCALE
  2
AcDbScale
  3
ObjectDBX Classes
 90
     1153
 91
       17
280
     0
281
     0
  0
CLASS
  1
TABLESTYLE
  2
AcDbTableStyle
  3
ObjectDBX Classes
 90
     4095
 91
        1
280
     0
281
     0
  0
CLASS
  1
MLEADERSTYLE
  2
AcDbMLeaderStyle
  3
ACDB_MLEADERSTYLE_CLASS
 90
     4095
 91
        1
280
     0
281
     0
  0
CLASS
  1
ACDBSECTIONVIEWSTYLE
  2
AcDbSectionViewStyle
  3
ObjectDBX Classes
 90
     1025
 91
        1
280
     0
281
     0
  0
CLASS
  1
ACDBDETAILVIEWSTYLE
  2
AcDbDetailViewStyle
  3
ObjectDBX Classes
 90
     1025
 91
        1
280
     0
281
     0
  0
CLASS
  1
DICTIONARYVAR
  2
AcDbDictionaryVar
  3
ObjectDBX Classes
 90
        0
 91
        5
280
     0
281
     0
  0
CLASS
  1
CELLSTYLEMAP
  2
AcDbCellStyleMap
  3
ObjectDBX Classes
 90
     1152
 91
        1
280
     0
281
     0
  0
ENDSEC
  0
SECTION
  2
TABLES
  0
TABLE
  2
VPORT
  5
8
330
0
100
AcDbSymbolTable
 70
     1
  0
VPORT
  5
57
330
8
100
AcDbSymbolTableRecord
100
AcDbViewportTableRecord
  2
*Active
 70
     0
 10
0.0
 20
0.0
 11
1.0
 21
1.0
 12
0.0
 22
0.0
 13
0.0
 23
0.0
 14
1.0
 24
1.0
 15
0.0
 25
0.0
 16
0.0
 26
0.0
 36
1.0
 17
104.9999999737534
 27
-148.4999999628701
 37
0.0
 40
302.939999924255
 41
0.7070707070707534
 42
50.0
 43
0.0
 44
0.0
 50
0.0
 51
0.0
 71
     0
 72
   100
 73
     1
 74
     0
 75
     1
 76
     0
 77
     0
 78
     0
281
     0
 65
     1
110
0.0
120
0.0
130
0.0
111
1.0
121
0.0
131
0.0
112
0.0
122
1.0
132
0.0
 79
     0
146
0.0
 60
     3
 61
     5
292
     1
282
     1
141
0.0
142
0.0
 63
   250
421
  3355443
  0
ENDTAB
  0
TABLE
  2
LTYPE
  5
5
330
0
100
AcDbSymbolTable
 70
     1
  0
LTYPE
  5
5B
330
5
100
AcDbSymbolTableRecord
100
AcDbLinetypeTableRecord
  2
ByBlock
 70
     0
  3

 72
    65
 73
     0
 40
0.0
  0
LTYPE
  5
5C
330
5
100
AcDbSymbolTableRecord
100
AcDbLinetypeTableRecord
  2
ByLayer
 70
     0
  3

 72
    65
 73
     0
 40
0.0
  0
LTYPE
  5
5D
330
5
100
AcDbSymbolTableRecord
100
AcDbLinetypeTableRecord
  2
Continuous
 70
     0
  3
Solid line
 72
    65
 73
     0
 40
0.0
  0
ENDTAB
  0
TABLE
  2
LAYER
  5
2
330
0
100
AcDbSymbolTable
 70
     2
  0
LAYER
  5
54
330
2
100
AcDbSymbolTableRecord
100
AcDbLayerTableRecord
  2
0
 70
     0
 62
     7
  6
Continuous
370
    -3
390
F
347
21
  0
LAYER
  5
78
330
2
100
AcDbSymbolTableRecord
100
AcDbLayerTableRecord
  2
レイヤー 1
 70
     0
 62
     7
  6
Continuous
370
     0
390
F
347
21
  0
ENDTAB
  0
TABLE
  2
STYLE
  5
3
330
0
100
AcDbSymbolTable
 70
     2
  0
STYLE
  5
55
330
3
100
AcDbSymbolTableRecord
100
AcDbTextStyleTableRecord
  2
Standard
 70
     0
 40
0.0
 41
1.0
 50
0.0
 71
     0
 42
0.2
  3
txt
  4

  0
STYLE
  5
5A
330
3
100
AcDbSymbolTableRecord
100
AcDbTextStyleTableRecord
  2
Annotative
 70
     0
 40
0.0
 41
1.0
 50
0.0
 71
     0
 42
0.2
  3
txt
  4

1001
AcadAnnotative
1000
AnnotativeData
1002
{
1070
     1
1070
     1
1002
}
  0
ENDTAB
  0
TABLE
  2
VIEW
  5
6
330
0
100
AcDbSymbolTable
 70
     0
  0
ENDTAB
  0
TABLE
  2
UCS
  5
7
330
0
100
AcDbSymbolTable
 70
     0
  0
ENDTAB
  0
TABLE
  2
APPID
  5
9
330
0
100
AcDbSymbolTable
 70
     2
  0
APPID
  5
56
330
9
100
AcDbSymbolTableRecord
100
AcDbRegAppTableRecord
  2
ACAD
 70
     0
  0
APPID
  5
5E
330
9
100
AcDbSymbolTableRecord
100
AcDbRegAppTableRecord
  2
AcadAnnotative
 70
     0
  0
ENDTAB
  0
TABLE
  2
DIMSTYLE
  5
A
330
0
100
AcDbSymbolTable
 70
     2
100
AcDbDimStyleTable
 71
     0
  0
DIMSTYLE
105
58
330
A
100
AcDbSymbolTableRecord
100
AcDbDimStyleTableRecord
  2
Standard
 70
     0
340
55
  0
DIMSTYLE
105
59
330
A
100
AcDbSymbolTableRecord
100
AcDbDimStyleTableRecord
  2
Annotative
 70
     0
340
55
1001
AcadAnnotative
1000
AnnotativeData
1002
{
1070
     1
1070
     1
1002
}
  0
ENDTAB
  0
TABLE
  2
BLOCK_RECORD
  5
1
330
0
100
AcDbSymbolTable
 70
     9
  0
BLOCK_RECORD
  5
70
330
1
100
AcDbSymbolTableRecord
100
AcDbBlockTableRecord
  2
*Model_Space
340
73
 70
     0
280
     1
281
     0
  0
BLOCK_RECORD
  5
6C
330
1
100
AcDbSymbolTableRecord
100
AcDbBlockTableRecord
  2
*Paper_Space
340
6F
 70
     0
280
     1
281
     0
  0
BLOCK_RECORD
  5
74
330
1
100
AcDbSymbolTableRecord
100
AcDbBlockTableRecord
  2
*Paper_Space0
340
77
 70
     0
280
     1
281
     0
  0
BLOCK_RECORD
  5
86
330
1
100
AcDbSymbolTableRecord
100
AcDbBlockTableRecord
  2
Block_0
340
0
102
{BLKREFS
331
87
102
}
 70
     0
280
     1
281
     0
  0
BLOCK_RECORD
  5
8A
330
1
100
AcDbSymbolTableRecord
100
AcDbBlockTableRecord
  2
Block_1
340
0
102
{BLKREFS
331
8B
102
}
 70
     0
280
     1
281
     0
  0
BLOCK_RECORD
  5
98
330
1
100
AcDbSymbolTableRecord
100
AcDbBlockTableRecord
  2
Block_2
340
0
102
{BLKREFS
331
99
102
}
 70
     0
280
     1
281
     0
  0
BLOCK_RECORD
  5
9C
330
1
100
AcDbSymbolTableRecord
100
AcDbBlockTableRecord
  2
Block_3
340
0
102
{BLKREFS
331
9D
102
}
 70
     0
280
     1
281
     0
  0
BLOCK_RECORD
  5
A8
330
1
100
AcDbSymbolTableRecord
100
AcDbBlockTableRecord
  2
Block_4
340
0
102
{BLKREFS
331
A9
102
}
 70
     0
280
     1
281
     0
  0
BLOCK_RECORD
  5
AC
330
1
100
AcDbSymbolTableRecord
100
AcDbBlockTableRecord
  2
Block_5
340
0
102
{BLKREFS
331
AD
102
}
 70
     0
280
     1
281
     0
  0
BLOCK_RECORD
  5
B8
330
1
100
AcDbSymbolTableRecord
100
AcDbBlockTableRecord
  2
Block_6
340
0
102
{BLKREFS
331
B9
102
}
 70
     0
280
     1
281
     0
  0
BLOCK_RECORD
  5
BC
330
1
100
AcDbSymbolTableRecord
100
AcDbBlockTableRecord
  2
Block_7
340
0
102
{BLKREFS
331
BD
102
}
 70
     0
280
     1
281
     0
  0
ENDTAB
  0
ENDSEC
  0
SECTION
  2
BLOCKS
  0
BLOCK
  5
71
330
70
100
AcDbEntity
  8
0
100
AcDbBlockBegin
  2
*Model_Space
 70
     0
 10
0.0
 20
0.0
 30
0.0
  3
*Model_Space
  1

  0
ENDBLK
  5
72
330
70
100
AcDbEntity
  8
0
100
AcDbBlockEnd
  0
BLOCK
  5
6D
330
6C
100
AcDbEntity
 67
     1
  8
0
100
AcDbBlockBegin
  2
*Paper_Space
 70
     0
 10
0.0
 20
0.0
 30
0.0
  3
*Paper_Space
  1

  0
ENDBLK
  5
6E
330
6C
100
AcDbEntity
 67
     1
  8
0
100
AcDbBlockEnd
  0
BLOCK
  5
75
330
74
100
AcDbEntity
 67
     1
  8
0
100
AcDbBlockBegin
  2
*Paper_Space0
 70
     0
 10
0.0
 20
0.0
 30
0.0
  3
*Paper_Space0
  1

  0
ENDBLK
  5
76
330
74
100
AcDbEntity
 67
     1
  8
0
100
AcDbBlockEnd
  0
BLOCK
  5
88
330
86
100
AcDbEntity
  8
0
100
AcDbBlockBegin
  2
Block_0
 70
     0
 10
0.0
 20
0.0
 30
0.0
  3
Block_0
  1

  0
INSERT
  5
8B
330
86
100
AcDbEntity
  8
レイヤー 1
100
AcDbBlockReference
  2
Block_1
 10
0.0
 20
0.0
 30
0.0
  0
ENDBLK
  5
89
330
86
100
AcDbEntity
  8
0
100
AcDbBlockEnd
  0
BLOCK
  5
8C
330
8A
100
AcDbEntity
  8
0
100
AcDbBlockBegin
  2
Block_1
 70
     0
 10
0.0
 20
0.0
 30
0.0
  3
Block_1
  1

  0
SPLINE
  5
8E
330
8A
100
AcDbEntity
  8
レイヤー 1
100
AcDbSpline
210
0.0
220
0.0
230
1.0
 70
     9
 71
     3
 72
    20
 73
    16
 74
     0
 42
0.0000000001
 43
0.0000000001
 40
0.0
 40
0.0
 40
0.0
 40
0.0
 40
1.0
 40
1.0
 40
1.0
 40
2.0
 40
2.0
 40
2.0
 40
3.0
 40
3.0
 40
3.0
 40
4.0
 40
4.0
 40
4.0
 40
5.0
 40
5.0
 40
5.0
 40
5.0
 10
84.35540226840769
 20
-169.5386609819209
 30
0.0
 10
84.35540226840769
 20
-169.5386609819209
 30
0.0
 10
83.91115720558472
 20
-169.5386609819209
 30
0.0
 10
83.91115720558472
 20
-169.5386609819209
 30
0.0
 10
83.91115720558472
 20
-169.5386609819209
 30
0.0
 10
83.91115720558472
 20
-170.0189072925647
 30
0.0
 10
83.91115720558472
 20
-170.0189072925647
 30
0.0
 10
83.91115720558472
 20
-170.0189072925647
 30
0.0
 10
84.35333521111653
 20
-170.0189072925647
 30
0.0
 10
84.35333521111653
 20
-170.0189072925647
 30
0.0
 10
84.452726215866
 20
-170.0189072925647
 30
0.0
 10
84.5881184684363
 20
-169.9427706823407
 30
0.0
 10
84.5881184684363
 20
-169.7715494367237
 30
0.0
 10
84.5881184684363
 20
-169.6933457692086
 30
0.0
 10
84.55435653268086
 20
-169.5386609819209
 30
0.0
 10
84.35540226840769
 20
-169.5386609819209
 30
0.0
  0
SPLINE
  5
8F
330
8A
100
AcDbEntity
  8
レイヤー 1
100
AcDbSpline
210
0.0
220
0.0
230
1.0
 70
     9
 71
     3
 72
    44
 73
    40
 74
     0
 42
0.0000000001
 43
0.0000000001
 40
0.0
 40
0.0
 40
0.0
 40
0.0
 40
1.0
 40
1.0
 40
1.0
 40
2.0
 40
2.0
 40
2.0
 40
3.0
 40
3.0
 40
3.0
 40
4.0
 40
4.0
 40
4.0
 40
5.0
 40
5.0
 40
5.0
 40
6.0
 40
6.0
 40
6.0
 40
7.0
 40
7.0
 40
7.0
 40
8.0
 40
8.0
 40
8.0
 40
9.0
 40
9.0
 40
9.0
 40
10.0
 40
10.0
 40
10.0
 40
11.0
 40
11.0
 40
11.0
 40
12.0
 40
12.0
 40
12.0
 40
13.0
 40
13.0
 40
13.0
 40
13.0
 10
84.60723874837944
 20
-170.871568425164
 30
0.0
 10
84.58381209907974
 20
-170.8271266934043
 30
0.0
 10
84.56279701661973
 20
-170.77441673248
 30
0.0
 10
84.56055770455431
 20
-170.5435953349683
 30
0.0
 10
84.556423589972
 20
-170.3003715937096
 30
0.0
 10
84.4971679476257
 20
-170.230436155359
 30
0.0
 10
84.31940102058682
 20
-170.230436155359
 30
0.0
 10
84.31940102058682
 20
-170.230436155359
 30
0.0
 10
83.91115720558472
 20
-170.230436155359
 30
0.0
 10
83.91115720558472
 20
-170.230436155359
 30
0.0
 10
83.91115720558472
 20
-170.230436155359
 30
0.0
 10
83.91115720558472
 20
-170.871568425164
 30
0.0
 10
83.91115720558472
 20
-170.871568425164
 30
0.0
 10
83.91115720558472
 20
-170.871568425164
 30
0.0
 10
83.67637394826493
 20
-170.871568425164
 30
0.0
 10
83.67637394826493
 20
-170.871568425164
 30
0.0
 10
83.67637394826493
 20
-170.871568425164
 30
0.0
 10
83.67637394826493
 20
-169.3271321191265
 30
0.0
 10
83.67637394826493
 20
-169.3271321191265
 30
0.0
 10
83.67637394826493
 20
-169.3271321191265
 30
0.0
 10
84.35109589905112
 20
-169.3271321191265
 30
0.0
 10
84.35109589905112
 20
-169.3271321191265
 30
0.0
 10
84.65788165201262
 20
-169.3271321191265
 30
0.0
 10
84.82514103782149
 20
-169.498697874292
 30
0.0
 10
84.82514103782149
 20
-169.754668468846
 30
0.0
 10
84.82514103782149
 20
-169.8053113724792
 30
0.0
 10
84.81652829910837
 20
-169.8879936641252
 30
0.0
 10
84.77208656734864
 20
-169.9682643889315
 30
0.0
 10
84.71300317977663
 20
-170.0719617630375
 30
0.0
 10
84.6473741107826
 20
-170.0909097882064
 30
0.0
 10
84.58605141114516
 20
-170.1077907560842
 30
0.0
 10
84.72351072100662
 20
-170.1501654305527
 30
0.0
 10
84.7912068472918
 20
-170.1987412768947
 30
0.0
 10
84.79551321664834
 20
-170.5139675137951
 30
0.0
 10
84.79964733123065
 20
-170.7847520189357
 30
0.0
 10
84.8356485790515
 20
-170.8164468974
 30
0.0
 10
84.90334470533666
 20
-170.871568425164
 30
0.0
 10
84.90334470533666
 20
-170.871568425164
 30
0.0
 10
84.60723874837944
 20
-170.871568425164
 30
0.0
 10
84.60723874837944
 20
-170.871568425164
 30
0.0
  0
HATCH
  5
90
330
8A
100
AcDbEntity
  8
レイヤー 1
 62
   250
420
  2299925
440
 33554687
100
AcDbHatch
 10
0.0
 20
0.0
 30
0.0
210
0.0
220
0.0
230
1.0
  2
SOLID
 70
     1
 71
     1
 91
        2
 92
        1
 93
        1
 72
     4
 94
        3
 73
     0
 74
     0
 95
       20
 96
       16
 40
0.0
 40
0.0
 40
0.0
 40
0.0
 40
1.0
 40
1.0
 40
1.0
 40
2.0
 40
2.0
 40
2.0
 40
3.0
 40
3.0
 40
3.0
 40
4.0
 40
4.0
 40
4.0
 40
5.0
 40
5.0
 40
5.0
 40
5.0
 10
84.35540226840769
 20
-169.5386609819209
 10
84.35540226840769
 20
-169.5386609819209
 10
83.91115720558472
 20
-169.5386609819209
 10
83.91115720558472
 20
-169.5386609819209
 10
83.91115720558472
 20
-169.5386609819209
 10
83.91115720558472
 20
-170.0189072925647
 10
83.91115720558472
 20
-170.0189072925647
 10
83.91115720558472
 20
-170.0189072925647
 10
84.35333521111653
 20
-170.0189072925647
 10
84.35333521111653
 20
-170.0189072925647
 10
84.452726215866
 20
-170.0189072925647
 10
84.5881184684363
 20
-169.9427706823407
 10
84.5881184684363
 20
-169.7715494367237
 10
84.5881184684363
 20
-169.6933457692086
 10
84.55435653268086
 20
-169.5386609819209
 10
84.35540226840769
 20
-169.5386609819209
 97
        0
 97
        1
330
8E
 92
        1
 93
        1
 72
     4
 94
        3
 73
     0
 74
     0
 95
       44
 96
       40
 40
0.0
 40
0.0
 40
0.0
 40
0.0
 40
1.0
 40
1.0
 40
1.0
 40
2.0
 40
2.0
 40
2.0
 40
3.0
 40
3.0
 40
3.0
 40
4.0
 40
4.0
 40
4.0
 40
5.0
 40
5.0
 40
5.0
 40
6.0
 40
6.0
 40
6.0
 40
7.0
 40
7.0
 40
7.0
 40
8.0
 40
8.0
 40
8.0
 40
9.0
 40
9.0
 40
9.0
 40
10.0
 40
10.0
 40
10.0
 40
11.0
 40
11.0
 40
11.0
 40
12.0
 40
12.0
 40
12.0
 40
13.0
 40
13.0
 40
13.0
 40
13.0
 10
84.60723874837944
 20
-170.871568425164
 10
84.58381209907974
 20
-170.8271266934043
 10
84.56279701661973
 20
-170.77441673248
 10
84.56055770455431
 20
-170.5435953349683
 10
84.556423589972
 20
-170.3003715937096
 10
84.4971679476257
 20
-170.230436155359
 10
84.31940102058682
 20
-170.230436155359
 10
84.31940102058682
 20
-170.230436155359
 10
83.91115720558472
 20
-170.230436155359
 10
83.91115720558472
 20
-170.230436155359
 10
83.91115720558472
 20
-170.230436155359
 10
83.91115720558472
 20
-170.871568425164
 10
83.91115720558472
 20
-170.871568425164
 10
83.91115720558472
 20
-170.871568425164
 10
83.67637394826493
 20
-170.871568425164
 10
83.67637394826493
 20
-170.871568425164
 10
83.67637394826493
 20
-170.871568425164
 10
83.67637394826493
 20
-169.3271321191265
 10
83.67637394826493
 20
-169.3271321191265
 10
83.67637394826493
 20
-169.3271321191265
 10
84.35109589905112
 20
-169.3271321191265
 10
84.35109589905112
 20
-169.3271321191265
 10
84.65788165201262
 20
-169.3271321191265
 10
84.82514103782149
 20
-169.498697874292
 10
84.82514103782149
 20
-169.754668468846
 10
84.82514103782149
 20
-169.8053113724792
 10
84.81652829910837
 20
-169.8879936641252
 10
84.77208656734864
 20
-169.9682643889315
 10
84.71300317977663
 20
-170.0719617630375
 10
84.6473741107826
 20
-170.0909097882064
 10
84.58605141114516
 20
-170.1077907560842
 10
84.72351072100662
 20
-170.1501654305527
 10
84.7912068472918
 20
-170.1987412768947
 10
84.79551321664834
 20
-170.5139675137951
 10
84.79964733123065
 20
-170.7847520189357
 10
84.8356485790515
 20
-170.8164468974
 10
84.90334470533666
 20
-170.871568425164
 10
84.90334470533666
 20
-170.871568425164
 10
84.60723874837944
 20
-170.871568425164
 10
84.60723874837944
 20
-170.871568425164
 97
        0
 97
        1
330
8F
 75
     2
 76
     1
 98
        1
 10
0.0
 20
0.0
450
        0
451
        0
460
0.0
461
0.0
452
        0
462
0.0
453
        0
470

  0
SPLINE
  5
91
330
8A
100
AcDbEntity
  8
レイヤー 1
100
AcDbSpline
210
0.0
220
0.0
230
1.0
 70
    11
 71
     3
 72
    26
 73
    22
 74
     0
 42
0.0000000001
 43
0.0000000001
 40
0.0
 40
0.0
 40
0.0
 40
0.0
 40
1.0
 40
1.0
 40
1.0
 40
2.0
 40
2.0
 40
2.0
 40
3.0
 40
3.0
 40
3.0
 40
4.0
 40
4.0
 40
4.0
 40
5.0
 40
5.0
 40
5.0
 40
6.0
 40
6.0
 40
6.0
 40
7.0
 40
7.0
 40
7.0
 40
7.0
 10
85.49435083583128
 20
-170.871568425164
 30
0.0
 10
85.49435083583128
 20
-170.871568425164
 30
0.0
 10
85.49435083583128
 20
-169.7674153221415
 30
0.0
 10
85.49435083583128
 20
-169.7674153221415
 30
0.0
 10
85.49435083583128
 20
-169.7674153221415
 30
0.0
 10
85.16431068834434
 20
-169.7674153221415
 30
0.0
 10
85.16431068834434
 20
-169.7674153221415
 30
0.0
 10
85.16431068834434
 20
-169.7674153221415
 30
0.0
 10
85.16431068834434
 20
-169.6192762162757
 30
0.0
 10
85.16431068834434
 20
-169.6192762162757
 30
0.0
 10
85.49641789312243
 20
-169.6044623056891
 30
0.0
 10
85.5429266821733
 20
-169.4415092892368
 30
0.0
 10
85.57255450334645
 20
-169.3271321191265
 30
0.0
 10
85.57255450334645
 20
-169.3271321191265
 30
0.0
 10
85.71862655192104
 20
-169.3271321191265
 30
0.0
 10
85.71862655192104
 20
-169.3271321191265
 30
0.0
 10
85.71862655192104
 20
-169.3271321191265
 30
0.0
 10
85.71862655192104
 20
-170.871568425164
 30
0.0
 10
85.71862655192104
 20
-170.871568425164
 30
0.0
 10
85.71862655192104
 20
-170.871568425164
 30
0.0
 10
85.49435083583128
 20
-170.871568425164
 30
0.0
 10
85.49435083583128
 20
-170.871568425164
 30
0.0
  0
HATCH
  5
92
330
8A
100
AcDbEntity
  8
レイヤー 1
 62
   250
420
  2299925
440
 33554687
100
AcDbHatch
 10
0.0
 20
0.0
 30
0.0
210
0.0
220
0.0
230
1.0
  2
SOLID
 70
     1
 71
     1
 91
        1
 92
        1
 93
        1
 72
     4
 94
        3
 73
     0
 74
     0
 95
       26
 96
       22
 40
0.0
 40
0.0
 40
0.0
 40
0.0
 40
1.0
 40
1.0
 40
1.0
 40
2.0
 40
2.0
 40
2.0
 40
3.0
 40
3.0
 40
3.0
 40
4.0
 40
4.0
 40
4.0
 40
5.0
 40
5.0
 40
5.0
 40
6.0
 40
6.0
 40
6.0
 40
7.0
 40
7.0
 40
7.0
 40
7.0
 10
85.49435083583128
 20
-170.871568425164
 10
85.49435083583128
 20
-170.871568425164
 10
85.49435083583128
 20
-169.7674153221415
 10
85.49435083583128
 20
-169.7674153221415
 10
85.49435083583128
 20
-169.7674153221415
 10
85.16431068834434
 20
-169.7674153221415
 10
85.16431068834434
 20
-169.7674153221415
 10
85.16431068834434
 20
-169.7674153221415
 10
85.16431068834434
 20
-169.6192762162757
 10
85.16431068834434
 20
-169.6192762162757
 10
85.49641789312243
 20
-169.6044623056891
 10
85.5429266821733
 20
-169.4415092892368
 10
85.57255450334645
 20
-169.3271321191265
 10
85.57255450334645
 20
-169.3271321191265
 10
85.71862655192104
 20
-169.3271321191265
 10
85.71862655192104
 20
-169.3271321191265
 10
85.71862655192104
 20
-169.3271321191265
 10
85.71862655192104
 20
-170.871568425164
 10
85.71862655192104
 20
-170.871568425164
 10
85.71862655192104
 20
-170.871568425164
 10
85.49435083583128
 20
-170.871568425164
 10
85.49435083583128
 20
-170.871568425164
 97
        0
 97
        1
330
91
 75
     2
 76
     1
 98
        1
 10
0.0
 20
0.0
450
        0
451
        0
460
0.0
461
0.0
452
        0
462
0.0
453
        0
470

  0
SPLINE
  5
93
330
8A
100
AcDbEntity
  8
レイヤー 1
100
AcDbSpline
210
0.0
220
0.0
230
1.0
 70
     9
 71
     3
 72
    53
 73
    49
 74
     0
 42
0.0000000001
 43
0.0000000001
 40
0.0
 40
0.0
 40
0.0
 40
0.0
 40
1.0
 40
1.0
 40
1.0
 40
2.0
 40
2.0
 40
2.0
 40
3.0
 40
3.0
 40
3.0
 40
4.0
 40
4.0
 40
4.0
 40
5.0
 40
5.0
 40
5.0
 40
6.0
 40
6.0
 40
6.0
 40
7.0
 40
7.0
 40
7.0
 40
8.0
 40
8.0
 40
8.0
 40
9.0
 40
9.0
 40
9.0
 40
10.0
 40
10.0
 40
10.0
 40
11.0
 40
11.0
 40
11.0
 40
12.0
 40
12.0
 40
12.0
 40
13.0
 40
13.0
 40
13.0
 40
14.0
 40
14.0
 40
14.0
 40
15.0
 40
15.0
 40
15.0
 40
16.0
 40
16.0
 40
16.0
 40
16.0
 10
86.70082327476576
 20
-170.9222113287972
 30
0.0
 10
86.62244735247634
 20
-170.9222113287972
 30
0.0
 10
86.52098929043573
 20
-170.9053303609195
 30
0.0
 10
86.41935897362087
 20
-170.8419406039909
 30
0.0
 10
86.24589841593852
 20
-170.7320420580114
 30
0.0
 10
86.22471107870424
 20
-170.6007839200234
 30
0.0
 10
86.20576305353536
 20
-170.4929524313351
 30
0.0
 10
86.20576305353536
 20
-170.4929524313351
 30
0.0
 10
86.42779945755972
 20
-170.4929524313351
 30
0.0
 10
86.42779945755972
 20
-170.4929524313351
 30
0.0
 10
86.48292098532371
 20
-170.691734440834
 30
0.0
 10
86.60987275395518
 20
-170.7213622620072
 30
0.0
 10
86.70289033205692
 20
-170.7213622620072
 30
0.0
 10
86.84258895398381
 20
-170.7213622620072
 30
0.0
 10
86.99486217443185
 20
-170.6217990024834
 30
0.0
 10
86.99486217443185
 20
-170.3892550572291
 30
0.0
 10
86.99486217443185
 20
-170.133284462675
 30
0.0
 10
86.8150281901018
 20
-170.0633490243244
 30
0.0
 10
86.69444984811805
 20
-170.0633490243244
 30
0.0
 10
86.66275496965376
 20
-170.0633490243244
 30
0.0
 10
86.52098929043573
 20
-170.0633490243244
 30
0.0
 10
86.43210582691628
 20
-170.1925401050213
 30
0.0
 10
86.43210582691628
 20
-170.1925401050213
 30
0.0
 10
86.2565782119428
 20
-170.1735920798524
 30
0.0
 10
86.2565782119428
 20
-170.1735920798524
 30
0.0
 10
86.2565782119428
 20
-170.1735920798524
 30
0.0
 10
86.37715655392655
 20
-169.3271321191265
 30
0.0
 10
86.37715655392655
 20
-169.3271321191265
 30
0.0
 10
86.37715655392655
 20
-169.3271321191265
 30
0.0
 10
87.15557587881875
 20
-169.3271321191265
 30
0.0
 10
87.15557587881875
 20
-169.3271321191265
 30
0.0
 10
87.15557587881875
 20
-169.3271321191265
 30
0.0
 10
87.15557587881875
 20
-169.5217800140431
 30
0.0
 10
87.15557587881875
 20
-169.5217800140431
 30
0.0
 10
87.15557587881875
 20
-169.5217800140431
 30
0.0
 10
86.5399373156046
 20
-169.5217800140431
 30
0.0
 10
86.5399373156046
 20
-169.5217800140431
 30
0.0
 10
86.5399373156046
 20
-169.5217800140431
 30
0.0
 10
86.47448050138486
 20
-169.9448377396318
 30
0.0
 10
86.47448050138486
 20
-169.9448377396318
 30
0.0
 10
86.5358032010223
 20
-169.9110758038764
 30
0.0
 10
86.61831323789405
 20
-169.870768186699
 30
0.0
 10
86.73665226781237
 20
-169.870768186699
 30
0.0
 10
86.99055580507529
 20
-169.870768186699
 30
0.0
 10
87.22757837446046
 20
-170.057147852451
 30
0.0
 10
87.22757837446046
 20
-170.3703070320602
 30
0.0
 10
87.22757837446046
 20
-170.6876003262517
 30
0.0
 10
87.0033026583707
 20
-170.9222113287972
 30
0.0
 10
86.70082327476576
 20
-170.9222113287972
 30
0.0
  0
HATCH
  5
94
330
8A
100
AcDbEntity
  8
レイヤー 1
 62
   250
420
  2299925
440
 33554687
100
AcDbHatch
 10
0.0
 20
0.0
 30
0.0
210
0.0
220
0.0
230
1.0
  2
SOLID
 70
     1
 71
     1
 91
        1
 92
        1
 93
        1
 72
     4
 94
        3
 73
     0
 74
     0
 95
       53
 96
       49
 40
0.0
 40
0.0
 40
0.0
 40
0.0
 40
1.0
 40
1.0
 40
1.0
 40
2.0
 40
2.0
 40
2.0
 40
3.0
 40
3.0
 40
3.0
 40
4.0
 40
4.0
 40
4.0
 40
5.0
 40
5.0
 40
5.0
 40
6.0
 40
6.0
 40
6.0
 40
7.0
 40
7.0
 40
7.0
 40
8.0
 40
8.0
 40
8.0
 40
9.0
 40
9.0
 40
9.0
 40
10.0
 40
10.0
 40
10.0
 40
11.0
 40
11.0
 40
11.0
 40
12.0
 40
12.0
 40
12.0
 40
13.0
 40
13.0
 40
13.0
 40
14.0
 40
14.0
 40
14.0
 40
15.0
 40
15.0
 40
15.0
 40
16.0
 40
16.0
 40
16.0
 40
16.0
 10
86.70082327476576
 20
-170.9222113287972
 10
86.62244735247634
 20
-170.9222113287972
 10
86.52098929043573
 20
-170.9053303609195
 10
86.41935897362087
 20
-170.8419406039909
 10
86.24589841593852
 20
-170.7320420580114
 10
86.22471107870424
 20
-170.6007839200234
 10
86.20576305353536
 20
-170.4929524313351
 10
86.20576305353536
 20
-170.4929524313351
 10
86.42779945755972
 20
-170.4929524313351
 10
86.42779945755972
 20
-170.4929524313351
 10
86.48292098532371
 20
-170.691734440834
 10
86.60987275395518
 20
-170.7213622620072
 10
86.70289033205692
 20
-170.7213622620072
 10
86.84258895398381
 20
-170.7213622620072
 10
86.99486217443185
 20
-170.6217990024834
 10
86.99486217443185
 20
-170.3892550572291
 10
86.99486217443185
 20
-170.133284462675
 10
86.8150281901018
 20
-170.0633490243244
 10
86.69444984811805
 20
-170.0633490243244
 10
86.66275496965376
 20
-170.0633490243244
 10
86.52098929043573
 20
-170.0633490243244
 10
86.43210582691628
 20
-170.1925401050213
 10
86.43210582691628
 20
-170.1925401050213
 10
86.2565782119428
 20
-170.1735920798524
 10
86.2565782119428
 20
-170.1735920798524
 10
86.2565782119428
 20
-170.1735920798524
 10
86.37715655392655
 20
-169.3271321191265
 10
86.37715655392655
 20
-169.3271321191265
 10
86.37715655392655
 20
-169.3271321191265
 10
87.15557587881875
 20
-169.3271321191265
 10
87.15557587881875
 20
-169.3271321191265
 10
87.15557587881875
 20
-169.3271321191265
 10
87.15557587881875
 20
-169.5217800140431
 10
87.15557587881875
 20
-169.5217800140431
 10
87.15557587881875
 20
-169.5217800140431
 10
86.5399373156046
 20
-169.5217800140431
 10
86.5399373156046
 20
-169.5217800140431
 10
86.5399373156046
 20
-169.5217800140431
 10
86.47448050138486
 20
-169.9448377396318
 10
86.47448050138486
 20
-169.9448377396318
 10
86.5358032010223
 20
-169.9110758038764
 10
86.61831323789405
 20
-169.870768186699
 10
86.73665226781237
 20
-169.870768186699
 10
86.99055580507529
 20
-169.870768186699
 10
87.22757837446046
 20
-170.057147852451
 10
87.22757837446046
 20
-170.3703070320602
 10
87.22757837446046
 20
-170.6876003262517
 10
87.0033026583707
 20
-170.9222113287972
 10
86.70082327476576
 20
-170.9222113287972
 97
        0
 97
        1
330
93
 75
     2
 76
     1
 98
        1
 10
0.0
 20
0.0
450
        0
451
        0
460
0.0
461
0.0
452
        0
462
0.0
453
        0
470

  0
ENDBLK
  5
8D
330
8A
100
AcDbEntity
  8
0
100
AcDbBlockEnd
  0
BLOCK
  5
9A
330
98
100
AcDbEntity
  8
0
100
AcDbBlockBegin
  2
Block_2
 70
     0
 10
0.0
 20
0.0
 30
0.0
  3
Block_2
  1

  0
INSERT
  5
9D
330
98
100
AcDbEntity
  8
レイヤー 1
100
AcDbBlockReference
  2
Block_3
 10
0.0
 20
0.0
 30
0.0
  0
ENDBLK
  5
9B
330
98
100
AcDbEntity
  8
0
100
AcDbBlockEnd
  0
BLOCK
  5
9E
330
9C
100
AcDbEntity
  8
0
100
AcDbBlockBegin
  2
Block_3
 70
     0
 10
0.0
 20
0.0
 30
0.0
  3
Block_3
  1

  0
SPLINE
  5
A0
330
9C
100
AcDbEntity
  8
レイヤー 1
100
AcDbSpline
210
0.0
220
0.0
230
1.0
 70
    11
 71
     3
 72
    14
 73
    10
 74
     0
 42
0.0000000001
 43
0.0000000001
 40
0.0
 40
0.0
 40
0.0
 40
0.0
 40
1.0
 40
1.0
 40
1.0
 40
2.0
 40
2.0
 40
2.0
 40
3.0
 40
3.0
 40
3.0
 40
3.0
 10
108.7850911186371
 20
-168.3097954223323
 30
0.0
 10
108.7850911186371
 20
-168.3097954223323
 30
0.0
 10
108.3279269477444
 20
-168.9657416027238
 30
0.0
 10
108.3279269477444
 20
-168.9657416027238
 30
0.0
 10
108.3279269477444
 20
-168.9657416027238
 30
0.0
 10
108.7850911186371
 20
-168.9657416027238
 30
0.0
 10
108.7850911186371
 20
-168.9657416027238
 30
0.0
 10
108.7850911186371
 20
-168.9657416027238
 30
0.0
 10
108.7850911186371
 20
-168.3097954223323
 30
0.0
 10
108.7850911186371
 20
-168.3097954223323
 30
0.0
  0
SPLINE
  5
A1
330
9C
100
AcDbEntity
  8
レイヤー 1
100
AcDbSpline
210
0.0
220
0.0
230
1.0
 70
    11
 71
     3
 72
    38
 73
    34
 74
     0
 42
0.0000000001
 43
0.0000000001
 40
0.0
 40
0.0
 40
0.0
 40
0.0
 40
1.0
 40
1.0
 40
1.0
 40
2.0
 40
2.0
 40
2.0
 40
3.0
 40
3.0
 40
3.0
 40
4.0
 40
4.0
 40
4.0
 40
5.0
 40
5.0
 40
5.0
 40
6.0
 40
6.0
 40
6.0
 40
7.0
 40
7.0
 40
7.0
 40
8.0
 40
8.0
 40
8.0
 40
9.0
 40
9.0
 40
9.0
 40
10.0
 40
10.0
 40
10.0
 40
11.0
 40
11.0
 40
11.0
 40
11.0
 10
109.0028211533048
 20
-169.1645236122227
 30
0.0
 10
109.0028211533048
 20
-169.1645236122227
 30
0.0
 10
109.0028211533048
 20
-169.5114447275874
 30
0.0
 10
109.0028211533048
 20
-169.5114447275874
 30
0.0
 10
109.0028211533048
 20
-169.5114447275874
 30
0.0
 10
108.7850911186371
 20
-169.5114447275874
 30
0.0
 10
108.7850911186371
 20
-169.5114447275874
 30
0.0
 10
108.7850911186371
 20
-169.5114447275874
 30
0.0
 10
108.7850911186371
 20
-169.1645236122227
 30
0.0
 10
108.7850911186371
 20
-169.1645236122227
 30
0.0
 10
108.7850911186371
 20
-169.1645236122227
 30
0.0
 10
108.1291449382455
 20
-169.1645236122227
 30
0.0
 10
108.1291449382455
 20
-169.1645236122227
 30
0.0
 10
108.1291449382455
 20
-169.1645236122227
 30
0.0
 10
108.1291449382455
 20
-168.940247896133
 30
0.0
 10
108.1291449382455
 20
-168.940247896133
 30
0.0
 10
108.1291449382455
 20
-168.940247896133
 30
0.0
 10
108.8081732583882
 20
-167.9670084215499
 30
0.0
 10
108.8081732583882
 20
-167.9670084215499
 30
0.0
 10
108.8081732583882
 20
-167.9670084215499
 30
0.0
 10
109.0028211533048
 20
-167.9670084215499
 30
0.0
 10
109.0028211533048
 20
-167.9670084215499
 30
0.0
 10
109.0028211533048
 20
-167.9670084215499
 30
0.0
 10
109.0028211533048
 20
-168.9657416027238
 30
0.0
 10
109.0028211533048
 20
-168.9657416027238
 30
0.0
 10
109.0028211533048
 20
-168.9657416027238
 30
0.0
 10
109.2102159015169
 20
-168.9657416027238
 30
0.0
 10
109.2102159015169
 20
-168.9657416027238
 30
0.0
 10
109.2102159015169
 20
-168.9657416027238
 30
0.0
 10
109.2102159015169
 20
-169.1645236122227
 30
0.0
 10
109.2102159015169
 20
-169.1645236122227
 30
0.0
 10
109.2102159015169
 20
-169.1645236122227
 30
0.0
 10
109.0028211533048
 20
-169.1645236122227
 30
0.0
 10
109.0028211533048
 20
-169.1645236122227
 30
0.0
  0
HATCH
  5
A2
330
9C
100
AcDbEntity
  8
レイヤー 1
 62
   250
420
  2299925
440
 33554687
100
AcDbHatch
 10
0.0
 20
0.0
 30
0.0
210
0.0
220
0.0
230
1.0
  2
SOLID
 70
     1
 71
     1
 91
        2
 92
        1
 93
        1
 72
     4
 94
        3
 73
     0
 74
     0
 95
       14
 96
       10
 40
0.0
 40
0.0
 40
0.0
 40
0.0
 40
1.0
 40
1.0
 40
1.0
 40
2.0
 40
2.0
 40
2.0
 40
3.0
 40
3.0
 40
3.0
 40
3.0
 10
108.7850911186371
 20
-168.3097954223323
 10
108.7850911186371
 20
-168.3097954223323
 10
108.3279269477444
 20
-168.9657416027238
 10
108.3279269477444
 20
-168.9657416027238
 10
108.3279269477444
 20
-168.9657416027238
 10
108.7850911186371
 20
-168.9657416027238
 10
108.7850911186371
 20
-168.9657416027238
 10
108.7850911186371
 20
-168.9657416027238
 10
108.7850911186371
 20
-168.3097954223323
 10
108.7850911186371
 20
-168.3097954223323
 97
        0
 97
        1
330
A0
 92
        1
 93
        1
 72
     4
 94
        3
 73
     0
 74
     0
 95
       38
 96
       34
 40
0.0
 40
0.0
 40
0.0
 40
0.0
 40
1.0
 40
1.0
 40
1.0
 40
2.0
 40
2.0
 40
2.0
 40
3.0
 40
3.0
 40
3.0
 40
4.0
 40
4.0
 40
4.0
 40
5.0
 40
5.0
 40
5.0
 40
6.0
 40
6.0
 40
6.0
 40
7.0
 40
7.0
 40
7.0
 40
8.0
 40
8.0
 40
8.0
 40
9.0
 40
9.0
 40
9.0
 40
10.0
 40
10.0
 40
10.0
 40
11.0
 40
11.0
 40
11.0
 40
11.0
 10
109.0028211533048
 20
-169.1645236122227
 10
109.0028211533048
 20
-169.1645236122227
 10
109.0028211533048
 20
-169.5114447275874
 10
109.0028211533048
 20
-169.5114447275874
 10
109.0028211533048
 20
-169.5114447275874
 10
108.7850911186371
 20
-169.5114447275874
 10
108.7850911186371
 20
-169.5114447275874
 10
108.7850911186371
 20
-169.5114447275874
 10
108.7850911186371
 20
-169.1645236122227
 10
108.7850911186371
 20
-169.1645236122227
 10
108.7850911186371
 20
-169.1645236122227
 10
108.1291449382455
 20
-169.1645236122227
 10
108.1291449382455
 20
-169.1645236122227
 10
108.1291449382455
 20
-169.1645236122227
 10
108.1291449382455
 20
-168.940247896133
 10
108.1291449382455
 20
-168.940247896133
 10
108.1291449382455
 20
-168.940247896133
 10
108.8081732583882
 20
-167.9670084215499
 10
108.8081732583882
 20
-167.9670084215499
 10
108.8081732583882
 20
-167.9670084215499
 10
109.0028211533048
 20
-167.9670084215499
 10
109.0028211533048
 20
-167.9670084215499
 10
109.0028211533048
 20
-167.9670084215499
 10
109.0028211533048
 20
-168.9657416027238
 10
109.0028211533048
 20
-168.9657416027238
 10
109.0028211533048
 20
-168.9657416027238
 10
109.2102159015169
 20
-168.9657416027238
 10
109.2102159015169
 20
-168.9657416027238
 10
109.2102159015169
 20
-168.9657416027238
 10
109.2102159015169
 20
-169.1645236122227
 10
109.2102159015169
 20
-169.1645236122227
 10
109.2102159015169
 20
-169.1645236122227
 10
109.0028211533048
 20
-169.1645236122227
 10
109.0028211533048
 20
-169.1645236122227
 97
        0
 97
        1
330
A1
 75
     2
 76
     1
 98
        1
 10
0.0
 20
0.0
450
        0
451
        0
460
0.0
461
0.0
452
        0
462
0.0
453
        0
470

  0
SPLINE
  5
A3
330
9C
100
AcDbEntity
  8
レイヤー 1
100
AcDbSpline
210
0.0
220
0.0
230
1.0
 70
    11
 71
     3
 72
    26
 73
    22
 74
     0
 42
0.0000000001
 43
0.0000000001
 40
0.0
 40
0.0
 40
0.0
 40
0.0
 40
1.0
 40
1.0
 40
1.0
 40
2.0
 40
2.0
 40
2.0
 40
3.0
 40
3.0
 40
3.0
 40
4.0
 40
4.0
 40
4.0
 40
5.0
 40
5.0
 40
5.0
 40
6.0
 40
6.0
 40
6.0
 40
7.0
 40
7.0
 40
7.0
 40
7.0
 10
109.7989827199461
 20
-169.5114447275874
 30
0.0
 10
109.7989827199461
 20
-169.5114447275874
 30
0.0
 10
109.7989827199461
 20
-168.4072916245648
 30
0.0
 10
109.7989827199461
 20
-168.4072916245648
 30
0.0
 10
109.7989827199461
 20
-168.4072916245648
 30
0.0
 10
109.4689425724591
 20
-168.4072916245648
 30
0.0
 10
109.4689425724591
 20
-168.4072916245648
 30
0.0
 10
109.4689425724591
 20
-168.4072916245648
 30
0.0
 10
109.4689425724591
 20
-168.2591525186991
 30
0.0
 10
109.4689425724591
 20
-168.2591525186991
 30
0.0
 10
109.8010497772372
 20
-168.2443386081125
 30
0.0
 10
109.8475585662881
 20
-168.0813855916602
 30
0.0
 10
109.8771863874612
 20
-167.9670084215499
 30
0.0
 10
109.8771863874612
 20
-167.9670084215499
 30
0.0
 10
110.0232584360358
 20
-167.9670084215499
 30
0.0
 10
110.0232584360358
 20
-167.9670084215499
 30
0.0
 10
110.0232584360358
 20
-167.9670084215499
 30
0.0
 10
110.0232584360358
 20
-169.5114447275874
 30
0.0
 10
110.0232584360358
 20
-169.5114447275874
 30
0.0
 10
110.0232584360358
 20
-169.5114447275874
 30
0.0
 10
109.7989827199461
 20
-169.5114447275874
 30
0.0
 10
109.7989827199461
 20
-169.5114447275874
 30
0.0
  0
HATCH
  5
A4
330
9C
100
AcDbEntity
  8
レイヤー 1
 62
   250
420
  2299925
440
 33554687
100
AcDbHatch
 10
0.0
 20
0.0
 30
0.0
210
0.0
220
0.0
230
1.0
  2
SOLID
 70
     1
 71
     1
 91
        1
 92
        1
 93
        1
 72
     4
 94
        3
 73
     0
 74
     0
 95
       26
 96
       22
 40
0.0
 40
0.0
 40
0.0
 40
0.0
 40
1.0
 40
1.0
 40
1.0
 40
2.0
 40
2.0
 40
2.0
 40
3.0
 40
3.0
 40
3.0
 40
4.0
 40
4.0
 40
4.0
 40
5.0
 40
5.0
 40
5.0
 40
6.0
 40
6.0
 40
6.0
 40
7.0
 40
7.0
 40
7.0
 40
7.0
 10
109.7989827199461
 20
-169.5114447275874
 10
109.7989827199461
 20
-169.5114447275874
 10
109.7989827199461
 20
-168.4072916245648
 10
109.7989827199461
 20
-168.4072916245648
 10
109.7989827199461
 20
-168.4072916245648
 10
109.4689425724591
 20
-168.4072916245648
 10
109.4689425724591
 20
-168.4072916245648
 10
109.4689425724591
 20
-168.4072916245648
 10
109.4689425724591
 20
-168.2591525186991
 10
109.4689425724591
 20
-168.2591525186991
 10
109.8010497772372
 20
-168.2443386081125
 10
109.8475585662881
 20
-168.0813855916602
 10
109.8771863874612
 20
-167.9670084215499
 10
109.8771863874612
 20
-167.9670084215499
 10
110.0232584360358
 20
-167.9670084215499
 10
110.0232584360358
 20
-167.9670084215499
 10
110.0232584360358
 20
-167.9670084215499
 10
110.0232584360358
 20
-169.5114447275874
 10
110.0232584360358
 20
-169.5114447275874
 10
110.0232584360358
 20
-169.5114447275874
 10
109.7989827199461
 20
-169.5114447275874
 10
109.7989827199461
 20
-169.5114447275874
 97
        0
 97
        1
330
A3
 75
     2
 76
     1
 98
        1
 10
0.0
 20
0.0
450
        0
451
        0
460
0.0
461
0.0
452
        0
462
0.0
453
        0
470

  0
ENDBLK
  5
9F
330
9C
100
AcDbEntity
  8
0
100
AcDbBlockEnd
  0
BLOCK
  5
AA
330
A8
100
AcDbEntity
  8
0
100
AcDbBlockBegin
  2
Block_4
 70
     0
 10
0.0
 20
0.0
 30
0.0
  3
Block_4
  1

  0
INSERT
  5
AD
330
A8
100
AcDbEntity
  8
レイヤー 1
100
AcDbBlockReference
  2
Block_5
 10
0.0
 20
0.0
 30
0.0
  0
ENDBLK
  5
AB
330
A8
100
AcDbEntity
  8
0
100
AcDbBlockEnd
  0
BLOCK
  5
AE
330
AC
100
AcDbEntity
  8
0
100
AcDbBlockBegin
  2
Block_5
 70
     0
 10
0.0
 20
0.0
 30
0.0
  3
Block_5
  1

  0
SPLINE
  5
B0
330
AC
100
AcDbEntity
  8
レイヤー 1
100
AcDbSpline
210
0.0
220
0.0
230
1.0
 70
    11
 71
     3
 72
    26
 73
    22
 74
     0
 42
0.0000000001
 43
0.0000000001
 40
0.0
 40
0.0
 40
0.0
 40
0.0
 40
1.0
 40
1.0
 40
1.0
 40
2.0
 40
2.0
 40
2.0
 40
3.0
 40
3.0
 40
3.0
 40
4.0
 40
4.0
 40
4.0
 40
5.0
 40
5.0
 40
5.0
 40
6.0
 40
6.0
 40
6.0
 40
7.0
 40
7.0
 40
7.0
 40
7.0
 10
84.32405189949191
 20
-159.3621934280414
 30
0.0
 10
84.32405189949191
 20
-159.3621934280414
 30
0.0
 10
83.21972654169506
 20
-159.3621934280414
 30
0.0
 10
83.21972654169506
 20
-159.3621934280414
 30
0.0
 10
83.21972654169506
 20
-159.3621934280414
 30
0.0
 10
83.21972654169506
 20
-159.6922335755283
 30
0.0
 10
83.21972654169506
 20
-159.6922335755283
 30
0.0
 10
83.21972654169506
 20
-159.6922335755283
 30
0.0
 10
83.07175969060358
 20
-159.6922335755283
 30
0.0
 10
83.07175969060358
 20
-159.6922335755283
 30
0.0
 10
83.05694578001702
 20
-159.3601263707502
 30
0.0
 10
82.89399276356469
 20
-159.3136175816994
 30
0.0
 10
82.77978784822867
 20
-159.2839897605262
 30
0.0
 10
82.77978784822867
 20
-159.2839897605262
 30
0.0
 10
82.77978784822867
 20
-159.1379177119516
 30
0.0
 10
82.77978784822867
 20
-159.1379177119516
 30
0.0
 10
82.77978784822867
 20
-159.1379177119516
 30
0.0
 10
84.32405189949191
 20
-159.1379177119516
 30
0.0
 10
84.32405189949191
 20
-159.1379177119516
 30
0.0
 10
84.32405189949191
 20
-159.1379177119516
 30
0.0
 10
84.32405189949191
 20
-159.3621934280414
 30
0.0
 10
84.32405189949191
 20
-159.3621934280414
 30
0.0
  0
HATCH
  5
B1
330
AC
100
AcDbEntity
  8
レイヤー 1
 62
   250
420
  2299925
440
 33554687
100
AcDbHatch
 10
0.0
 20
0.0
 30
0.0
210
0.0
220
0.0
230
1.0
  2
SOLID
 70
     1
 71
     1
 91
        1
 92
        1
 93
        1
 72
     4
 94
        3
 73
     0
 74
     0
 95
       26
 96
       22
 40
0.0
 40
0.0
 40
0.0
 40
0.0
 40
1.0
 40
1.0
 40
1.0
 40
2.0
 40
2.0
 40
2.0
 40
3.0
 40
3.0
 40
3.0
 40
4.0
 40
4.0
 40
4.0
 40
5.0
 40
5.0
 40
5.0
 40
6.0
 40
6.0
 40
6.0
 40
7.0
 40
7.0
 40
7.0
 40
7.0
 10
84.32405189949191
 20
-159.3621934280414
 10
84.32405189949191
 20
-159.3621934280414
 10
83.21972654169506
 20
-159.3621934280414
 10
83.21972654169506
 20
-159.3621934280414
 10
83.21972654169506
 20
-159.3621934280414
 10
83.21972654169506
 20
-159.6922335755283
 10
83.21972654169506
 20
-159.6922335755283
 10
83.21972654169506
 20
-159.6922335755283
 10
83.07175969060358
 20
-159.6922335755283
 10
83.07175969060358
 20
-159.6922335755283
 10
83.05694578001702
 20
-159.3601263707502
 10
82.89399276356469
 20
-159.3136175816994
 10
82.77978784822867
 20
-159.2839897605262
 10
82.77978784822867
 20
-159.2839897605262
 10
82.77978784822867
 20
-159.1379177119516
 10
82.77978784822867
 20
-159.1379177119516
 10
82.77978784822867
 20
-159.1379177119516
 10
84.32405189949191
 20
-159.1379177119516
 10
84.32405189949191
 20
-159.1379177119516
 10
84.32405189949191
 20
-159.1379177119516
 10
84.32405189949191
 20
-159.3621934280414
 10
84.32405189949191
 20
-159.3621934280414
 97
        0
 97
        1
330
B0
 75
     2
 76
     1
 98
        1
 10
0.0
 20
0.0
450
        0
451
        0
460
0.0
461
0.0
452
        0
462
0.0
453
        0
470

  0
SPLINE
  5
B2
330
AC
100
AcDbEntity
  8
レイヤー 1
100
AcDbSpline
210
0.0
220
0.0
230
1.0
 70
     9
 71
     3
 72
    53
 73
    49
 74
     0
 42
0.0000000001
 43
0.0000000001
 40
0.0
 40
0.0
 40
0.0
 40
0.0
 40
1.0
 40
1.0
 40
1.0
 40
2.0
 40
2.0
 40
2.0
 40
3.0
 40
3.0
 40
3.0
 40
4.0
 40
4.0
 40
4.0
 40
5.0
 40
5.0
 40
5.0
 40
6.0
 40
6.0
 40
6.0
 40
7.0
 40
7.0
 40
7.0
 40
8.0
 40
8.0
 40
8.0
 40
9.0
 40
9.0
 40
9.0
 40
10.0
 40
10.0
 40
10.0
 40
11.0
 40
11.0
 40
11.0
 40
12.0
 40
12.0
 40
12.0
 40
13.0
 40
13.0
 40
13.0
 40
14.0
 40
14.0
 40
14.0
 40
15.0
 40
15.0
 40
15.0
 40
16.0
 40
16.0
 40
16.0
 40
16.0
 10
84.37486705789934
 20
-158.1557209891069
 30
0.0
 10
84.37486705789934
 20
-158.2339246566221
 30
0.0
 10
84.35781383524735
 20
-158.3355549734369
 30
0.0
 10
84.29442407831876
 20
-158.4371852902518
 30
0.0
 10
84.18435327756503
 20
-158.6104735931599
 30
0.0
 10
84.05326739435126
 20
-158.6318331851684
 30
0.0
 10
83.94543590566295
 20
-158.6507812103373
 30
0.0
 10
83.94543590566295
 20
-158.6507812103373
 30
0.0
 10
83.94543590566295
 20
-158.4285725515387
 30
0.0
 10
83.94543590566295
 20
-158.4285725515387
 30
0.0
 10
84.14421791516186
 20
-158.3737955333232
 30
0.0
 10
84.17384573633501
 20
-158.2466715099175
 30
0.0
 10
84.17384573633501
 20
-158.1536539318157
 30
0.0
 10
84.17384573633501
 20
-158.0141275646631
 30
0.0
 10
84.07445473158556
 20
-157.8618543442151
 30
0.0
 10
83.84173853155692
 20
-157.8618543442151
 30
0.0
 10
83.58576793700287
 20
-157.8618543442151
 30
0.0
 10
83.51600475342655
 20
-158.0416883285451
 30
0.0
 10
83.51600475342655
 20
-158.1622666705289
 30
0.0
 10
83.51600475342655
 20
-158.1939615489931
 30
0.0
 10
83.51600475342655
 20
-158.3355549734369
 30
0.0
 10
83.64502357934917
 20
-158.4244384369564
 30
0.0
 10
83.64502357934917
 20
-158.4244384369564
 30
0.0
 10
83.62590329940603
 20
-158.6001383067041
 30
0.0
 10
83.62590329940603
 20
-158.6001383067041
 30
0.0
 10
83.62590329940603
 20
-158.6001383067041
 30
0.0
 10
82.77978784822867
 20
-158.4795599647204
 30
0.0
 10
82.77978784822867
 20
-158.4795599647204
 30
0.0
 10
82.77978784822867
 20
-158.4795599647204
 30
0.0
 10
82.77978784822867
 20
-157.7009683850539
 30
0.0
 10
82.77978784822867
 20
-157.7009683850539
 30
0.0
 10
82.77978784822867
 20
-157.7009683850539
 30
0.0
 10
82.97443574314527
 20
-157.7009683850539
 30
0.0
 10
82.97443574314527
 20
-157.7009683850539
 30
0.0
 10
82.97443574314527
 20
-157.7009683850539
 30
0.0
 10
82.97443574314527
 20
-158.3166069482681
 30
0.0
 10
82.97443574314527
 20
-158.3166069482681
 30
0.0
 10
82.97443574314527
 20
-158.3166069482681
 30
0.0
 10
83.39749346873396
 20
-158.3820637624878
 30
0.0
 10
83.39749346873396
 20
-158.3820637624878
 30
0.0
 10
83.36355927820426
 20
-158.3207410628503
 30
0.0
 10
83.32342391580109
 20
-158.2384032807529
 30
0.0
 10
83.32342391580109
 20
-158.1198919960603
 30
0.0
 10
83.32342391580109
 20
-157.8659884587974
 30
0.0
 10
83.50963132677884
 20
-157.6289658894122
 30
0.0
 10
83.82261825161378
 20
-157.6289658894122
 30
0.0
 10
84.14008380057955
 20
-157.6289658894122
 30
0.0
 10
84.37486705789934
 20
-157.8532416055019
 30
0.0
 10
84.37486705789934
 20
-158.1557209891069
 30
0.0
  0
HATCH
  5
B3
330
AC
100
AcDbEntity
  8
レイヤー 1
 62
   250
420
  2299925
440
 33554687
100
AcDbHatch
 10
0.0
 20
0.0
 30
0.0
210
0.0
220
0.0
230
1.0
  2
SOLID
 70
     1
 71
     1
 91
        1
 92
        1
 93
        1
 72
     4
 94
        3
 73
     0
 74
     0
 95
       53
 96
       49
 40
0.0
 40
0.0
 40
0.0
 40
0.0
 40
1.0
 40
1.0
 40
1.0
 40
2.0
 40
2.0
 40
2.0
 40
3.0
 40
3.0
 40
3.0
 40
4.0
 40
4.0
 40
4.0
 40
5.0
 40
5.0
 40
5.0
 40
6.0
 40
6.0
 40
6.0
 40
7.0
 40
7.0
 40
7.0
 40
8.0
 40
8.0
 40
8.0
 40
9.0
 40
9.0
 40
9.0
 40
10.0
 40
10.0
 40
10.0
 40
11.0
 40
11.0
 40
11.0
 40
12.0
 40
12.0
 40
12.0
 40
13.0
 40
13.0
 40
13.0
 40
14.0
 40
14.0
 40
14.0
 40
15.0
 40
15.0
 40
15.0
 40
16.0
 40
16.0
 40
16.0
 40
16.0
 10
84.37486705789934
 20
-158.1557209891069
 10
84.37486705789934
 20
-158.2339246566221
 10
84.35781383524735
 20
-158.3355549734369
 10
84.29442407831876
 20
-158.4371852902518
 10
84.18435327756503
 20
-158.6104735931599
 10
84.05326739435126
 20
-158.6318331851684
 10
83.94543590566295
 20
-158.6507812103373
 10
83.94543590566295
 20
-158.6507812103373
 10
83.94543590566295
 20
-158.4285725515387
 10
83.94543590566295
 20
-158.4285725515387
 10
84.14421791516186
 20
-158.3737955333232
 10
84.17384573633501
 20
-158.2466715099175
 10
84.17384573633501
 20
-158.1536539318157
 10
84.17384573633501
 20
-158.0141275646631
 10
84.07445473158556
 20
-157.8618543442151
 10
83.84173853155692
 20
-157.8618543442151
 10
83.58576793700287
 20
-157.8618543442151
 10
83.51600475342655
 20
-158.0416883285451
 10
83.51600475342655
 20
-158.1622666705289
 10
83.51600475342655
 20
-158.1939615489931
 10
83.51600475342655
 20
-158.3355549734369
 10
83.64502357934917
 20
-158.4244384369564
 10
83.64502357934917
 20
-158.4244384369564
 10
83.62590329940603
 20
-158.6001383067041
 10
83.62590329940603
 20
-158.6001383067041
 10
83.62590329940603
 20
-158.6001383067041
 10
82.77978784822867
 20
-158.4795599647204
 10
82.77978784822867
 20
-158.4795599647204
 10
82.77978784822867
 20
-158.4795599647204
 10
82.77978784822867
 20
-157.7009683850539
 10
82.77978784822867
 20
-157.7009683850539
 10
82.77978784822867
 20
-157.7009683850539
 10
82.97443574314527
 20
-157.7009683850539
 10
82.97443574314527
 20
-157.7009683850539
 10
82.97443574314527
 20
-157.7009683850539
 10
82.97443574314527
 20
-158.3166069482681
 10
82.97443574314527
 20
-158.3166069482681
 10
82.97443574314527
 20
-158.3166069482681
 10
83.39749346873396
 20
-158.3820637624878
 10
83.39749346873396
 20
-158.3820637624878
 10
83.36355927820426
 20
-158.3207410628503
 10
83.32342391580109
 20
-158.2384032807529
 10
83.32342391580109
 20
-158.1198919960603
 10
83.32342391580109
 20
-157.8659884587974
 10
83.50963132677884
 20
-157.6289658894122
 10
83.82261825161378
 20
-157.6289658894122
 10
84.14008380057955
 20
-157.6289658894122
 10
84.37486705789934
 20
-157.8532416055019
 10
84.37486705789934
 20
-158.1557209891069
 97
        0
 97
        1
330
B2
 75
     2
 76
     1
 98
        1
 10
0.0
 20
0.0
450
        0
451
        0
460
0.0
461
0.0
452
        0
462
0.0
453
        0
470

  0
ENDBLK
  5
AF
330
AC
100
AcDbEntity
  8
0
100
AcDbBlockEnd
  0
BLOCK
  5
BA
330
B8
100
AcDbEntity
  8
0
100
AcDbBlockBegin
  2
Block_6
 70
     0
 10
0.0
 20
0.0
 30
0.0
  3
Block_6
  1

  0
INSERT
  5
BD
330
B8
100
AcDbEntity
  8
レイヤー 1
100
AcDbBlockReference
  2
Block_7
 10
0.0
 20
0.0
 30
0.0
  0
ENDBLK
  5
BB
330
B8
100
AcDbEntity
  8
0
100
AcDbBlockEnd
  0
BLOCK
  5
BE
330
BC
100
AcDbEntity
  8
0
100
AcDbBlockBegin
  2
Block_7
 70
     0
 10
0.0
 20
0.0
 30
0.0
  3
Block_7
  1

  0
SPLINE
  5
C0
330
BC
100
AcDbEntity
  8
レイヤー 1
100
AcDbSpline
210
0.0
220
0.0
230
1.0
 70
     9
 71
     3
 72
    41
 73
    37
 74
     0
 42
0.0000000001
 43
0.0000000001
 40
0.0
 40
0.0
 40
0.0
 40
0.0
 40
1.0
 40
1.0
 40
1.0
 40
2.0
 40
2.0
 40
2.0
 40
3.0
 40
3.0
 40
3.0
 40
4.0
 40
4.0
 40
4.0
 40
5.0
 40
5.0
 40
5.0
 40
6.0
 40
6.0
 40
6.0
 40
7.0
 40
7.0
 40
7.0
 40
8.0
 40
8.0
 40
8.0
 40
9.0
 40
9.0
 40
9.0
 40
10.0
 40
10.0
 40
10.0
 40
11.0
 40
11.0
 40
11.0
 40
12.0
 40
12.0
 40
12.0
 40
12.0
 10
98.31389564599446
 20
-148.8760117900379
 30
0.0
 10
98.07273896202696
 20
-148.7406195374676
 30
0.0
 10
97.89497203498807
 20
-148.4446858352846
 30
0.0
 10
97.85483667258491
 20
-148.3154947545878
 30
0.0
 10
97.73425833060116
 20
-148.580078087855
 30
0.0
 10
97.57130531414885
 20
-148.7578450148939
 30
0.0
 10
97.38940427252765
 20
-148.8718776754556
 30
0.0
 10
97.38940427252765
 20
-148.8718776754556
 30
0.0
 10
97.19268932031988
 20
-148.7344183655942
 30
0.0
 10
97.19268932031988
 20
-148.7344183655942
 30
0.0
 10
97.2624525038962
 20
-148.7089246590033
 30
0.0
 10
97.40852455247079
 20
-148.6476019593659
 30
0.0
 10
97.53116995174568
 20
-148.4932616816267
 30
0.0
 10
97.65588240831172
 20
-148.3368543465963
 30
0.0
 10
97.74476587183118
 20
-148.1039658917934
 30
0.0
 10
97.74476587183118
 20
-147.8438611826571
 30
0.0
 10
97.74476587183118
 20
-147.7422308658422
 30
0.0
 10
97.73219127331001
 20
-147.6702283702005
 30
0.0
 10
97.72151147730575
 20
-147.6237195811496
 30
0.0
 10
97.72151147730575
 20
-147.6237195811496
 30
0.0
 10
97.92666691345237
 20
-147.6450791731582
 30
0.0
 10
97.92666691345237
 20
-147.6450791731582
 30
0.0
 10
97.94785425068665
 20
-147.6471462304493
 30
0.0
 10
97.96904158792095
 20
-147.6492132877404
 30
0.0
 10
97.96904158792095
 20
-147.6702283702005
 30
0.0
 10
97.96904158792095
 20
-147.6895209049179
 30
0.0
 10
97.95853404669093
 20
-147.6977891340825
 30
0.0
 10
97.92459985616122
 20
-147.719148726091
 30
0.0
 10
97.91615937222235
 20
-147.9199977928811
 30
0.0
 10
97.97334795727749
 20
-148.1632215341397
 30
0.0
 10
98.03467065691496
 20
-148.2837998761235
 30
0.0
 10
98.12562117772555
 20
-148.4594997458712
 30
0.0
 10
98.32026907264216
 20
-148.6393337302013
 30
0.0
 10
98.45566132521248
 20
-148.6961778057079
 30
0.0
 10
98.45566132521248
 20
-148.6961778057079
 30
0.0
 10
98.31389564599446
 20
-148.8760117900379
 30
0.0
 10
98.31389564599446
 20
-148.8760117900379
 30
0.0
  0
SPLINE
  5
C1
330
BC
100
AcDbEntity
  8
レイヤー 1
100
AcDbSpline
210
0.0
220
0.0
230
1.0
 70
    11
 71
     3
 72
    17
 73
    13
 74
     0
 42
0.0000000001
 43
0.0000000001
 40
0.0
 40
0.0
 40
0.0
 40
0.0
 40
1.0
 40
1.0
 40
1.0
 40
2.0
 40
2.0
 40
2.0
 40
3.0
 40
3.0
 40
3.0
 40
4.0
 40
4.0
 40
4.0
 40
4.0
 10
97.2243841987842
 20
-147.91793073559
 30
0.0
 10
97.2243841987842
 20
-147.91793073559
 30
0.0
 10
97.06367049439728
 20
-147.91793073559
 30
0.0
 10
97.06367049439728
 20
-147.91793073559
 30
0.0
 10
97.06367049439728
 20
-147.91793073559
 30
0.0
 10
97.06367049439728
 20
-148.0467773067383
 30
0.0
 10
97.06367049439728
 20
-148.0467773067383
 30
0.0
 10
97.06367049439728
 20
-148.0467773067383
 30
0.0
 10
97.2243841987842
 20
-148.0467773067383
 30
0.0
 10
97.2243841987842
 20
-148.0467773067383
 30
0.0
 10
97.2243841987842
 20
-148.0467773067383
 30
0.0
 10
97.2243841987842
 20
-147.91793073559
 30
0.0
 10
97.2243841987842
 20
-147.91793073559
 30
0.0
  0
SPLINE
  5
C2
330
BC
100
AcDbEntity
  8
レイヤー 1
100
AcDbSpline
210
0.0
220
0.0
230
1.0
 70
    11
 71
     3
 72
    17
 73
    13
 74
     0
 42
0.0000000001
 43
0.0000000001
 40
0.0
 40
0.0
 40
0.0
 40
0.0
 40
1.0
 40
1.0
 40
1.0
 40
2.0
 40
2.0
 40
2.0
 40
3.0
 40
3.0
 40
3.0
 40
4.0
 40
4.0
 40
4.0
 40
4.0
 10
97.2243841987842
 20
-147.6450791731582
 30
0.0
 10
97.2243841987842
 20
-147.6450791731582
 30
0.0
 10
97.06367049439728
 20
-147.6450791731582
 30
0.0
 10
97.06367049439728
 20
-147.6450791731582
 30
0.0
 10
97.06367049439728
 20
-147.6450791731582
 30
0.0
 10
97.06367049439728
 20
-147.7739257443065
 30
0.0
 10
97.06367049439728
 20
-147.7739257443065
 30
0.0
 10
97.06367049439728
 20
-147.7739257443065
 30
0.0
 10
97.2243841987842
 20
-147.7739257443065
 30
0.0
 10
97.2243841987842
 20
-147.7739257443065
 30
0.0
 10
97.2243841987842
 20
-147.7739257443065
 30
0.0
 10
97.2243841987842
 20
-147.6450791731582
 30
0.0
 10
97.2243841987842
 20
-147.6450791731582
 30
0.0
  0
SPLINE
  5
C3
330
BC
100
AcDbEntity
  8
レイヤー 1
100
AcDbSpline
210
0.0
220
0.0
230
1.0
 70
    11
 71
     3
 72
    17
 73
    13
 74
     0
 42
0.0000000001
 43
0.0000000001
 40
0.0
 40
0.0
 40
0.0
 40
0.0
 40
1.0
 40
1.0
 40
1.0
 40
2.0
 40
2.0
 40
2.0
 40
3.0
 40
3.0
 40
3.0
 40
4.0
 40
4.0
 40
4.0
 40
4.0
 10
96.89227699400611
 20
-147.91793073559
 30
0.0
 10
96.89227699400611
 20
-147.91793073559
 30
0.0
 10
96.73363034691035
 20
-147.91793073559
 30
0.0
 10
96.73363034691035
 20
-147.91793073559
 30
0.0
 10
96.73363034691035
 20
-147.91793073559
 30
0.0
 10
96.73363034691035
 20
-148.0467773067383
 30
0.0
 10
96.73363034691035
 20
-148.0467773067383
 30
0.0
 10
96.73363034691035
 20
-148.0467773067383
 30
0.0
 10
96.89227699400611
 20
-148.0467773067383
 30
0.0
 10
96.89227699400611
 20
-148.0467773067383
 30
0.0
 10
96.89227699400611
 20
-148.0467773067383
 30
0.0
 10
96.89227699400611
 20
-147.91793073559
 30
0.0
 10
96.89227699400611
 20
-147.91793073559
 30
0.0
  0
SPLINE
  5
C4
330
BC
100
AcDbEntity
  8
レイヤー 1
100
AcDbSpline
210
0.0
220
0.0
230
1.0
 70
    11
 71
     3
 72
    17
 73
    13
 74
     0
 42
0.0000000001
 43
0.0000000001
 40
0.0
 40
0.0
 40
0.0
 40
0.0
 40
1.0
 40
1.0
 40
1.0
 40
2.0
 40
2.0
 40
2.0
 40
3.0
 40
3.0
 40
3.0
 40
4.0
 40
4.0
 40
4.0
 40
4.0
 10
96.89227699400611
 20
-147.6450791731582
 30
0.0
 10
96.89227699400611
 20
-147.6450791731582
 30
0.0
 10
96.73363034691035
 20
-147.6450791731582
 30
0.0
 10
96.73363034691035
 20
-147.6450791731582
 30
0.0
 10
96.73363034691035
 20
-147.6450791731582
 30
0.0
 10
96.73363034691035
 20
-147.7739257443065
 30
0.0
 10
96.73363034691035
 20
-147.7739257443065
 30
0.0
 10
96.73363034691035
 20
-147.7739257443065
 30
0.0
 10
96.89227699400611
 20
-147.7739257443065
 30
0.0
 10
96.89227699400611
 20
-147.7739257443065
 30
0.0
 10
96.89227699400611
 20
-147.7739257443065
 30
0.0
 10
96.89227699400611
 20
-147.6450791731582
 30
0.0
 10
96.89227699400611
 20
-147.6450791731582
 30
0.0
  0
SPLINE
  5
C5
330
BC
100
AcDbEntity
  8
レイヤー 1
100
AcDbSpline
210
0.0
220
0.0
230
1.0
 70
     9
 71
     3
 72
   197
 73
   193
 74
     0
 42
0.0000000001
 43
0.0000000001
 40
0.0
 40
0.0
 40
0.0
 40
0.0
 40
1.0
 40
1.0
 40
1.0
 40
2.0
 40
2.0
 40
2.0
 40
3.0
 40
3.0
 40
3.0
 40
4.0
 40
4.0
 40
4.0
 40
5.0
 40
5.0
 40
5.0
 40
6.0
 40
6.0
 40
6.0
 40
7.0
 40
7.0
 40
7.0
 40
8.0
 40
8.0
 40
8.0
 40
9.0
 40
9.0
 40
9.0
 40
10.0
 40
10.0
 40
10.0
 40
11.0
 40
11.0
 40
11.0
 40
12.0
 40
12.0
 40
12.0
 40
13.0
 40
13.0
 40
13.0
 40
14.0
 40
14.0
 40
14.0
 40
15.0
 40
15.0
 40
15.0
 40
16.0
 40
16.0
 40
16.0
 40
17.0
 40
17.0
 40
17.0
 40
18.0
 40
18.0
 40
18.0
 40
19.0
 40
19.0
 40
19.0
 40
20.0
 40
20.0
 40
20.0
 40
21.0
 40
21.0
 40
21.0
 40
22.0
 40
22.0
 40
22.0
 40
23.0
 40
23.0
 40
23.0
 40
24.0
 40
24.0
 40
24.0
 40
25.0
 40
25.0
 40
25.0
 40
26.0
 40
26.0
 40
26.0
 40
27.0
 40
27.0
 40
27.0
 40
28.0
 40
28.0
 40
28.0
 40
29.0
 40
29.0
 40
29.0
 40
30.0
 40
30.0
 40
30.0
 40
31.0
 40
31.0
 40
31.0
 40
32.0
 40
32.0
 40
32.0
 40
33.0
 40
33.0
 40
33.0
 40
34.0
 40
34.0
 40
34.0
 40
35.0
 40
35.0
 40
35.0
 40
36.0
 40
36.0
 40
36.0
 40
37.0
 40
37.0
 40
37.0
 40
38.0
 40
38.0
 40
38.0
 40
39.0
 40
39.0
 40
39.0
 40
40.0
 40
40.0
 40
40.0
 40
41.0
 40
41.0
 40
41.0
 40
42.0
 40
42.0
 40
42.0
 40
43.0
 40
43.0
 40
43.0
 40
44.0
 40
44.0
 40
44.0
 40
45.0
 40
45.0
 40
45.0
 40
46.0
 40
46.0
 40
46.0
 40
47.0
 40
47.0
 40
47.0
 40
48.0
 40
48.0
 40
48.0
 40
49.0
 40
49.0
 40
49.0
 40
50.0
 40
50.0
 40
50.0
 40
51.0
 40
51.0
 40
51.0
 40
52.0
 40
52.0
 40
52.0
 40
53.0
 40
53.0
 40
53.0
 40
54.0
 40
54.0
 40
54.0
 40
55.0
 40
55.0
 40
55.0
 40
56.0
 40
56.0
 40
56.0
 40
57.0
 40
57.0
 40
57.0
 40
58.0
 40
58.0
 40
58.0
 40
59.0
 40
59.0
 40
59.0
 40
60.0
 40
60.0
 40
60.0
 40
61.0
 40
61.0
 40
61.0
 40
62.0
 40
62.0
 40
62.0
 40
63.0
 40
63.0
 40
63.0
 40
64.0
 40
64.0
 40
64.0
 40
64.0
 10
98.39847274015733
 20
-147.5200222070436
 30
0.0
 10
98.38796519892731
 20
-147.5496500282168
 30
0.0
 10
98.36471080440189
 20
-147.5961588172676
 30
0.0
 10
98.35403100839762
 20
-147.6237195811496
 30
0.0
 10
98.35403100839762
 20
-147.6237195811496
 30
0.0
 10
98.29270830876016
 20
-147.7759928015976
 30
0.0
 10
98.29270830876016
 20
-147.7759928015976
 30
0.0
 10
98.28220076753014
 20
-147.8014865081885
 30
0.0
 10
98.23345266641387
 20
-147.9134521114591
 30
0.0
 10
98.22087806789269
 20
-147.9368787607588
 30
0.0
 10
98.21863875582728
 20
-147.9430799326323
 30
0.0
 10
98.21450464124499
 20
-147.9516926713454
 30
0.0
 10
98.21226532917957
 20
-147.9578938432188
 30
0.0
 10
98.21226532917957
 20
-147.9578938432188
 30
0.0
 10
98.00297577845064
 20
-147.9051838822945
 30
0.0
 10
98.00297577845064
 20
-147.9051838822945
 30
0.0
 10
98.08117944596581
 20
-147.795285336315
 30
0.0
 10
98.14250214560328
 20
-147.6598930837447
 30
0.0
 10
98.17419702406757
 20
-147.5496500282168
 30
0.0
 10
98.17419702406757
 20
-147.5496500282168
 30
0.0
 10
97.70893687878457
 20
-147.5496500282168
 30
0.0
 10
97.70893687878457
 20
-147.5496500282168
 30
0.0
 10
97.62849389920399
 20
-147.7146701019602
 30
0.0
 10
97.56079777291883
 20
-147.7928737694754
 30
0.0
 10
97.52686358238912
 20
-147.8331813866528
 30
0.0
 10
97.52686358238912
 20
-147.8331813866528
 30
0.0
 10
97.40421818311423
 20
-147.7677245724331
 30
0.0
 10
97.40421818311423
 20
-147.7677245724331
 30
0.0
 10
97.40421818311423
 20
-147.7677245724331
 30
0.0
 10
97.40421818311423
 20
-147.93894581805
 30
0.0
 10
97.40421818311423
 20
-147.93894581805
 30
0.0
 10
97.40421818311423
 20
-148.0467773067383
 30
0.0
 10
97.40628524040538
 20
-148.0956976626288
 30
0.0
 10
97.41696503640966
 20
-148.201462094026
 30
0.0
 10
97.34496254076793
 20
-148.1990505271863
 30
0.0
 10
97.32377520353365
 20
-148.1990505271863
 30
0.0
 10
97.11861976738703
 20
-148.1990505271863
 30
0.0
 10
97.11861976738703
 20
-148.1990505271863
 30
0.0
 10
97.06367049439728
 20
-148.1990505271863
 30
0.0
 10
97.06367049439728
 20
-148.1990505271863
 30
0.0
 10
97.06367049439728
 20
-148.1990505271863
 30
0.0
 10
97.06367049439728
 20
-148.3344427797566
 30
0.0
 10
97.06367049439728
 20
-148.3344427797566
 30
0.0
 10
97.06367049439728
 20
-148.3344427797566
 30
0.0
 10
97.13550073526475
 20
-148.3344427797566
 30
0.0
 10
97.13550073526475
 20
-148.3344427797566
 30
0.0
 10
97.20112980425875
 20
-148.3344427797566
 30
0.0
 10
97.34702959805908
 20
-148.3303086651743
 30
0.0
 10
97.45296628423051
 20
-148.3220404360098
 30
0.0
 10
97.45296628423051
 20
-148.3220404360098
 30
0.0
 10
97.45296628423051
 20
-148.4994628535001
 30
0.0
 10
97.45296628423051
 20
-148.4994628535001
 30
0.0
 10
97.35564233677221
 20
-148.4932616816267
 30
0.0
 10
97.19682343490219
 20
-148.4891275670444
 30
0.0
 10
97.13550073526475
 20
-148.4891275670444
 30
0.0
 10
97.13550073526475
 20
-148.4891275670444
 30
0.0
 10
97.06367049439728
 20
-148.4891275670444
 30
0.0
 10
97.06367049439728
 20
-148.4891275670444
 30
0.0
 10
97.06573755168843
 20
-148.5780110305638
 30
0.0
 10
97.07004392104501
 20
-148.8167561476916
 30
0.0
 10
97.07211097833614
 20
-148.8908257006245
 30
0.0
 10
97.07211097833614
 20
-148.8908257006245
 30
0.0
 10
96.87108965677182
 20
-148.8908257006245
 30
0.0
 10
96.87108965677182
 20
-148.8908257006245
 30
0.0
 10
96.88383651006724
 20
-148.677229780539
 30
0.0
 10
96.88383651006724
 20
-148.6476019593659
 30
0.0
 10
96.88797062464955
 20
-148.4891275670444
 30
0.0
 10
96.88797062464955
 20
-148.4891275670444
 30
0.0
 10
96.81820744107323
 20
-148.4891275670444
 30
0.0
 10
96.81820744107323
 20
-148.4891275670444
 30
0.0
 10
96.76119111079234
 20
-148.4891275670444
 30
0.0
 10
96.60874563557005
 20
-148.4932616816267
 30
0.0
 10
96.49884708959056
 20
-148.4994628535001
 30
0.0
 10
96.49884708959056
 20
-148.4994628535001
 30
0.0
 10
96.49884708959056
 20
-148.3220404360098
 30
0.0
 10
96.49884708959056
 20
-148.3220404360098
 30
0.0
 10
96.60461152098775
 20
-148.3303086651743
 30
0.0
 10
96.74844425749693
 20
-148.3344427797566
 30
0.0
 10
96.81820744107323
 20
-148.3344427797566
 30
0.0
 10
96.81820744107323
 20
-148.3344427797566
 30
0.0
 10
96.89227699400611
 20
-148.3344427797566
 30
0.0
 10
96.89227699400611
 20
-148.3344427797566
 30
0.0
 10
96.89227699400611
 20
-148.3344427797566
 30
0.0
 10
96.89227699400611
 20
-148.1990505271863
 30
0.0
 10
96.89227699400611
 20
-148.1990505271863
 30
0.0
 10
96.89227699400611
 20
-148.1990505271863
 30
0.0
 10
96.84783526224638
 20
-148.1990505271863
 30
0.0
 10
96.84783526224638
 20
-148.1990505271863
 30
0.0
 10
96.77169865202236
 20
-148.1990505271863
 30
0.0
 10
96.5791178143969
 20
-148.201462094026
 30
0.0
 10
96.54535587864145
 20
-148.201462094026
 30
0.0
 10
96.55172930528916
 20
-148.1294595983843
 30
0.0
 10
96.56016978922801
 20
-148.0488443640294
 30
0.0
 10
96.56016978922801
 20
-147.9282660220457
 30
0.0
 10
96.56016978922801
 20
-147.9282660220457
 30
0.0
 10
96.56016978922801
 20
-147.7549777191376
 30
0.0
 10
96.56016978922801
 20
-147.7549777191376
 30
0.0
 10
96.56016978922801
 20
-147.6829752234959
 30
0.0
 10
96.55172930528916
 20
-147.5623968815122
 30
0.0
 10
96.54535587864145
 20
-147.4821261567059
 30
0.0
 10
96.62355954615662
 20
-147.4862602712881
 30
0.0
 10
96.66162785126862
 20
-147.4883273285793
 30
0.0
 10
96.78857961990008
 20
-147.4883273285793
 30
0.0
 10
96.78857961990008
 20
-147.4883273285793
 30
0.0
 10
96.89227699400611
 20
-147.4883273285793
 30
0.0
 10
96.89227699400611
 20
-147.4883273285793
 30
0.0
 10
96.89227699400611
 20
-147.4883273285793
 30
0.0
 10
96.89227699400611
 20
-147.3422552800047
 30
0.0
 10
96.89227699400611
 20
-147.3422552800047
 30
0.0
 10
96.89227699400611
 20
-147.3422552800047
 30
0.0
 10
96.81407332649094
 20
-147.3422552800047
 30
0.0
 10
96.81407332649094
 20
-147.3422552800047
 30
0.0
 10
96.75895179872693
 20
-147.3422552800047
 30
0.0
 10
96.58755829833575
 20
-147.3467339041355
 30
0.0
 10
96.50298120417287
 20
-147.352935076009
 30
0.0
 10
96.50298120417287
 20
-147.352935076009
 30
0.0
 10
96.50298120417287
 20
-147.1751681489701
 30
0.0
 10
96.50298120417287
 20
-147.1751681489701
 30
0.0
 10
96.5854912410446
 20
-147.1817138303921
 30
0.0
 10
96.74844425749693
 20
-147.1858479449744
 30
0.0
 10
96.81407332649094
 20
-147.1858479449744
 30
0.0
 10
96.81407332649094
 20
-147.1858479449744
 30
0.0
 10
96.89227699400611
 20
-147.1858479449744
 30
0.0
 10
96.89227699400611
 20
-147.1858479449744
 30
0.0
 10
96.89227699400611
 20
-147.1520860092189
 30
0.0
 10
96.88797062464955
 20
-146.9977457314797
 30
0.0
 10
96.88797062464955
 20
-146.9657063434669
 30
0.0
 10
96.88797062464955
 20
-146.9657063434669
 30
0.0
 10
97.08485783163157
 20
-146.9829318208931
 30
0.0
 10
97.08485783163157
 20
-146.9829318208931
 30
0.0
 10
97.10173879950929
 20
-146.9849988781843
 30
0.0
 10
97.12292613674357
 20
-146.9870659354755
 30
0.0
 10
97.12292613674357
 20
-147.0080810179355
 30
0.0
 10
97.12292613674357
 20
-147.0315076672352
 30
0.0
 10
97.10173879950929
 20
-147.0397758963998
 30
0.0
 10
97.0741780356273
 20
-147.0525227496952
 30
0.0
 10
97.0741780356273
 20
-147.0738823417037
 30
0.0
 10
97.07211097833614
 20
-147.1689669770966
 30
0.0
 10
97.07211097833614
 20
-147.1858479449744
 30
0.0
 10
97.07211097833614
 20
-147.1858479449744
 30
0.0
 10
97.13136662068244
 20
-147.1858479449744
 30
0.0
 10
97.13136662068244
 20
-147.1858479449744
 30
0.0
 10
97.19906274696761
 20
-147.1858479449744
 30
0.0
 10
97.34289548347678
 20
-147.1817138303921
 30
0.0
 10
97.44865991487396
 20
-147.1751681489701
 30
0.0
 10
97.44865991487396
 20
-147.1751681489701
 30
0.0
 10
97.44865991487396
 20
-147.352935076009
 30
0.0
 10
97.44865991487396
 20
-147.352935076009
 30
0.0
 10
97.35133596741563
 20
-147.3467339041355
 30
0.0
 10
97.19475637761105
 20
-147.3422552800047
 30
0.0
 10
97.13136662068244
 20
-147.3422552800047
 30
0.0
 10
97.13136662068244
 20
-147.3422552800047
 30
0.0
 10
97.06367049439728
 20
-147.3422552800047
 30
0.0
 10
97.06367049439728
 20
-147.3422552800047
 30
0.0
 10
97.06367049439728
 20
-147.3422552800047
 30
0.0
 10
97.06367049439728
 20
-147.4883273285793
 30
0.0
 10
97.06367049439728
 20
-147.4883273285793
 30
0.0
 10
97.06367049439728
 20
-147.4883273285793
 30
0.0
 10
97.13343367797358
 20
-147.4883273285793
 30
0.0
 10
97.13343367797358
 20
-147.4883273285793
 30
0.0
 10
97.28363984113048
 20
-147.4883273285793
 30
0.0
 10
97.35564233677221
 20
-147.484193213997
 30
0.0
 10
97.41696503640966
 20
-147.4821261567059
 30
0.0
 10
97.40852455247079
 20
-147.5772107920987
 30
0.0
 10
97.40628524040538
 20
-147.6554144596139
 30
0.0
 10
97.40421818311423
 20
-147.6936550195002
 30
0.0
 10
97.55873071562769
 20
-147.4821261567059
 30
0.0
 10
97.66449514702486
 20
-147.2344237913164
 30
0.0
 10
97.68137611490258
 20
-146.9722520248889
 30
0.0
 10
97.68137611490258
 20
-146.9722520248889
 30
0.0
 10
97.89721134705349
 20
-147.022894928522
 30
0.0
 10
97.89721134705349
 20
-147.022894928522
 30
0.0
 10
97.91202525764006
 20
-147.0273735526529
 30
0.0
 10
97.92666691345237
 20
-147.0335747245263
 30
0.0
 10
97.92666691345237
 20
-147.050455692404
 30
0.0
 10
97.92666691345237
 20
-147.0673366602818
 30
0.0
 10
97.92253279887006
 20
-147.0694037175729
 30
0.0
 10
97.87171764046263
 20
-147.0907633095815
 30
0.0
 10
97.85483667258491
 20
-147.1668999198055
 30
0.0
 10
97.82951522076832
 20
-147.2578504406161
 30
0.0
 10
97.78076711965205
 20
-147.3846299544733
 30
0.0
 10
97.78076711965205
 20
-147.3846299544733
 30
0.0
 10
98.11924775107783
 20
-147.3846299544733
 30
0.0
 10
98.11924775107783
 20
-147.3846299544733
 30
0.0
 10
98.15731605618985
 20
-147.3846299544733
 30
0.0
 10
98.28633488211245
 20
-147.380495839891
 30
0.0
 10
98.33508298322874
 20
-147.3742946680175
 30
0.0
 10
98.33508298322874
 20
-147.3742946680175
 30
0.0
 10
98.42810056133048
 20
-147.4438855968196
 30
0.0
 10
98.42810056133048
 20
-147.4438855968196
 30
0.0
 10
98.41966007739161
 20
-147.4652451888281
 30
0.0
 10
98.4132866507439
 20
-147.484193213997
 30
0.0
 10
98.39847274015733
 20
-147.5200222070436
 30
0.0
  0
HATCH
  5
C6
330
BC
100
AcDbEntity
  8
レイヤー 1
 62
   250
420
  2299925
440
 33554687
100
AcDbHatch
 10
0.0
 20
0.0
 30
0.0
210
0.0
220
0.0
230
1.0
  2
SOLID
 70
     1
 71
     1
 91
        6
 92
        1
 93
        1
 72
     4
 94
        3
 73
     0
 74
     0
 95
       41
 96
       37
 40
0.0
 40
0.0
 40
0.0
 40
0.0
 40
1.0
 40
1.0
 40
1.0
 40
2.0
 40
2.0
 40
2.0
 40
3.0
 40
3.0
 40
3.0
 40
4.0
 40
4.0
 40
4.0
 40
5.0
 40
5.0
 40
5.0
 40
6.0
 40
6.0
 40
6.0
 40
7.0
 40
7.0
 40
7.0
 40
8.0
 40
8.0
 40
8.0
 40
9.0
 40
9.0
 40
9.0
 40
10.0
 40
10.0
 40
10.0
 40
11.0
 40
11.0
 40
11.0
 40
12.0
 40
12.0
 40
12.0
 40
12.0
 10
98.31389564599446
 20
-148.8760117900379
 10
98.07273896202696
 20
-148.7406195374676
 10
97.89497203498807
 20
-148.4446858352846
 10
97.85483667258491
 20
-148.3154947545878
 10
97.73425833060116
 20
-148.580078087855
 10
97.57130531414885
 20
-148.7578450148939
 10
97.38940427252765
 20
-148.8718776754556
 10
97.38940427252765
 20
-148.8718776754556
 10
97.19268932031988
 20
-148.7344183655942
 10
97.19268932031988
 20
-148.7344183655942
 10
97.2624525038962
 20
-148.7089246590033
 10
97.40852455247079
 20
-148.6476019593659
 10
97.53116995174568
 20
-148.4932616816267
 10
97.65588240831172
 20
-148.3368543465963
 10
97.74476587183118
 20
-148.1039658917934
 10
97.74476587183118
 20
-147.8438611826571
 10
97.74476587183118
 20
-147.7422308658422
 10
97.73219127331001
 20
-147.6702283702005
 10
97.72151147730575
 20
-147.6237195811496
 10
97.72151147730575
 20
-147.6237195811496
 10
97.92666691345237
 20
-147.6450791731582
 10
97.92666691345237
 20
-147.6450791731582
 10
97.94785425068665
 20
-147.6471462304493
 10
97.96904158792095
 20
-147.6492132877404
 10
97.96904158792095
 20
-147.6702283702005
 10
97.96904158792095
 20
-147.6895209049179
 10
97.95853404669093
 20
-147.6977891340825
 10
97.92459985616122
 20
-147.719148726091
 10
97.91615937222235
 20
-147.9199977928811
 10
97.97334795727749
 20
-148.1632215341397
 10
98.03467065691496
 20
-148.2837998761235
 10
98.12562117772555
 20
-148.4594997458712
 10
98.32026907264216
 20
-148.6393337302013
 10
98.45566132521248
 20
-148.6961778057079
 10
98.45566132521248
 20
-148.6961778057079
 10
98.31389564599446
 20
-148.8760117900379
 10
98.31389564599446
 20
-148.8760117900379
 97
        0
 97
        1
330
C0
 92
        1
 93
        1
 72
     4
 94
        3
 73
     0
 74
     0
 95
       17
 96
       13
 40
0.0
 40
0.0
 40
0.0
 40
0.0
 40
1.0
 40
1.0
 40
1.0
 40
2.0
 40
2.0
 40
2.0
 40
3.0
 40
3.0
 40
3.0
 40
4.0
 40
4.0
 40
4.0
 40
4.0
 10
97.2243841987842
 20
-147.91793073559
 10
97.2243841987842
 20
-147.91793073559
 10
97.06367049439728
 20
-147.91793073559
 10
97.06367049439728
 20
-147.91793073559
 10
97.06367049439728
 20
-147.91793073559
 10
97.06367049439728
 20
-148.0467773067383
 10
97.06367049439728
 20
-148.0467773067383
 10
97.06367049439728
 20
-148.0467773067383
 10
97.2243841987842
 20
-148.0467773067383
 10
97.2243841987842
 20
-148.0467773067383
 10
97.2243841987842
 20
-148.0467773067383
 10
97.2243841987842
 20
-147.91793073559
 10
97.2243841987842
 20
-147.91793073559
 97
        0
 97
        1
330
C1
 92
        1
 93
        1
 72
     4
 94
        3
 73
     0
 74
     0
 95
       17
 96
       13
 40
0.0
 40
0.0
 40
0.0
 40
0.0
 40
1.0
 40
1.0
 40
1.0
 40
2.0
 40
2.0
 40
2.0
 40
3.0
 40
3.0
 40
3.0
 40
4.0
 40
4.0
 40
4.0
 40
4.0
 10
97.2243841987842
 20
-147.6450791731582
 10
97.2243841987842
 20
-147.6450791731582
 10
97.06367049439728
 20
-147.6450791731582
 10
97.06367049439728
 20
-147.6450791731582
 10
97.06367049439728
 20
-147.6450791731582
 10
97.06367049439728
 20
-147.7739257443065
 10
97.06367049439728
 20
-147.7739257443065
 10
97.06367049439728
 20
-147.7739257443065
 10
97.2243841987842
 20
-147.7739257443065
 10
97.2243841987842
 20
-147.7739257443065
 10
97.2243841987842
 20
-147.7739257443065
 10
97.2243841987842
 20
-147.6450791731582
 10
97.2243841987842
 20
-147.6450791731582
 97
        0
 97
        1
330
C2
 92
        1
 93
        1
 72
     4
 94
        3
 73
     0
 74
     0
 95
       17
 96
       13
 40
0.0
 40
0.0
 40
0.0
 40
0.0
 40
1.0
 40
1.0
 40
1.0
 40
2.0
 40
2.0
 40
2.0
 40
3.0
 40
3.0
 40
3.0
 40
4.0
 40
4.0
 40
4.0
 40
4.0
 10
96.89227699400611
 20
-147.91793073559
 10
96.89227699400611
 20
-147.91793073559
 10
96.73363034691035
 20
-147.91793073559
 10
96.73363034691035
 20
-147.91793073559
 10
96.73363034691035
 20
-147.91793073559
 10
96.73363034691035
 20
-148.0467773067383
 10
96.73363034691035
 20
-148.0467773067383
 10
96.73363034691035
 20
-148.0467773067383
 10
96.89227699400611
 20
-148.0467773067383
 10
96.89227699400611
 20
-148.0467773067383
 10
96.89227699400611
 20
-148.0467773067383
 10
96.89227699400611
 20
-147.91793073559
 10
96.89227699400611
 20
-147.91793073559
 97
        0
 97
        1
330
C3
 92
        1
 93
        1
 72
     4
 94
        3
 73
     0
 74
     0
 95
       17
 96
       13
 40
0.0
 40
0.0
 40
0.0
 40
0.0
 40
1.0
 40
1.0
 40
1.0
 40
2.0
 40
2.0
 40
2.0
 40
3.0
 40
3.0
 40
3.0
 40
4.0
 40
4.0
 40
4.0
 40
4.0
 10
96.89227699400611
 20
-147.6450791731582
 10
96.89227699400611
 20
-147.6450791731582
 10
96.73363034691035
 20
-147.6450791731582
 10
96.73363034691035
 20
-147.6450791731582
 10
96.73363034691035
 20
-147.6450791731582
 10
96.73363034691035
 20
-147.7739257443065
 10
96.73363034691035
 20
-147.7739257443065
 10
96.73363034691035
 20
-147.7739257443065
 10
96.89227699400611
 20
-147.7739257443065
 10
96.89227699400611
 20
-147.7739257443065
 10
96.89227699400611
 20
-147.7739257443065
 10
96.89227699400611
 20
-147.6450791731582
 10
96.89227699400611
 20
-147.6450791731582
 97
        0
 97
        1
330
C4
 92
        1
 93
        1
 72
     4
 94
        3
 73
     0
 74
     0
 95
      197
 96
      193
 40
0.0
 40
0.0
 40
0.0
 40
0.0
 40
1.0
 40
1.0
 40
1.0
 40
2.0
 40
2.0
 40
2.0
 40
3.0
 40
3.0
 40
3.0
 40
4.0
 40
4.0
 40
4.0
 40
5.0
 40
5.0
 40
5.0
 40
6.0
 40
6.0
 40
6.0
 40
7.0
 40
7.0
 40
7.0
 40
8.0
 40
8.0
 40
8.0
 40
9.0
 40
9.0
 40
9.0
 40
10.0
 40
10.0
 40
10.0
 40
11.0
 40
11.0
 40
11.0
 40
12.0
 40
12.0
 40
12.0
 40
13.0
 40
13.0
 40
13.0
 40
14.0
 40
14.0
 40
14.0
 40
15.0
 40
15.0
 40
15.0
 40
16.0
 40
16.0
 40
16.0
 40
17.0
 40
17.0
 40
17.0
 40
18.0
 40
18.0
 40
18.0
 40
19.0
 40
19.0
 40
19.0
 40
20.0
 40
20.0
 40
20.0
 40
21.0
 40
21.0
 40
21.0
 40
22.0
 40
22.0
 40
22.0
 40
23.0
 40
23.0
 40
23.0
 40
24.0
 40
24.0
 40
24.0
 40
25.0
 40
25.0
 40
25.0
 40
26.0
 40
26.0
 40
26.0
 40
27.0
 40
27.0
 40
27.0
 40
28.0
 40
28.0
 40
28.0
 40
29.0
 40
29.0
 40
29.0
 40
30.0
 40
30.0
 40
30.0
 40
31.0
 40
31.0
 40
31.0
 40
32.0
 40
32.0
 40
32.0
 40
33.0
 40
33.0
 40
33.0
 40
34.0
 40
34.0
 40
34.0
 40
35.0
 40
35.0
 40
35.0
 40
36.0
 40
36.0
 40
36.0
 40
37.0
 40
37.0
 40
37.0
 40
38.0
 40
38.0
 40
38.0
 40
39.0
 40
39.0
 40
39.0
 40
40.0
 40
40.0
 40
40.0
 40
41.0
 40
41.0
 40
41.0
 40
42.0
 40
42.0
 40
42.0
 40
43.0
 40
43.0
 40
43.0
 40
44.0
 40
44.0
 40
44.0
 40
45.0
 40
45.0
 40
45.0
 40
46.0
 40
46.0
 40
46.0
 40
47.0
 40
47.0
 40
47.0
 40
48.0
 40
48.0
 40
48.0
 40
49.0
 40
49.0
 40
49.0
 40
50.0
 40
50.0
 40
50.0
 40
51.0
 40
51.0
 40
51.0
 40
52.0
 40
52.0
 40
52.0
 40
53.0
 40
53.0
 40
53.0
 40
54.0
 40
54.0
 40
54.0
 40
55.0
 40
55.0
 40
55.0
 40
56.0
 40
56.0
 40
56.0
 40
57.0
 40
57.0
 40
57.0
 40
58.0
 40
58.0
 40
58.0
 40
59.0
 40
59.0
 40
59.0
 40
60.0
 40
60.0
 40
60.0
 40
61.0
 40
61.0
 40
61.0
 40
62.0
 40
62.0
 40
62.0
 40
63.0
 40
63.0
 40
63.0
 40
64.0
 40
64.0
 40
64.0
 40
64.0
 10
98.39847274015733
 20
-147.5200222070436
 10
98.38796519892731
 20
-147.5496500282168
 10
98.36471080440189
 20
-147.5961588172676
 10
98.35403100839762
 20
-147.6237195811496
 10
98.35403100839762
 20
-147.6237195811496
 10
98.29270830876016
 20
-147.7759928015976
 10
98.29270830876016
 20
-147.7759928015976
 10
98.28220076753014
 20
-147.8014865081885
 10
98.23345266641387
 20
-147.9134521114591
 10
98.22087806789269
 20
-147.9368787607588
 10
98.21863875582728
 20
-147.9430799326323
 10
98.21450464124499
 20
-147.9516926713454
 10
98.21226532917957
 20
-147.9578938432188
 10
98.21226532917957
 20
-147.9578938432188
 10
98.00297577845064
 20
-147.9051838822945
 10
98.00297577845064
 20
-147.9051838822945
 10
98.08117944596581
 20
-147.795285336315
 10
98.14250214560328
 20
-147.6598930837447
 10
98.17419702406757
 20
-147.5496500282168
 10
98.17419702406757
 20
-147.5496500282168
 10
97.70893687878457
 20
-147.5496500282168
 10
97.70893687878457
 20
-147.5496500282168
 10
97.62849389920399
 20
-147.7146701019602
 10
97.56079777291883
 20
-147.7928737694754
 10
97.52686358238912
 20
-147.8331813866528
 10
97.52686358238912
 20
-147.8331813866528
 10
97.40421818311423
 20
-147.7677245724331
 10
97.40421818311423
 20
-147.7677245724331
 10
97.40421818311423
 20
-147.7677245724331
 10
97.40421818311423
 20
-147.93894581805
 10
97.40421818311423
 20
-147.93894581805
 10
97.40421818311423
 20
-148.0467773067383
 10
97.40628524040538
 20
-148.0956976626288
 10
97.41696503640966
 20
-148.201462094026
 10
97.34496254076793
 20
-148.1990505271863
 10
97.32377520353365
 20
-148.1990505271863
 10
97.11861976738703
 20
-148.1990505271863
 10
97.11861976738703
 20
-148.1990505271863
 10
97.06367049439728
 20
-148.1990505271863
 10
97.06367049439728
 20
-148.1990505271863
 10
97.06367049439728
 20
-148.1990505271863
 10
97.06367049439728
 20
-148.3344427797566
 10
97.06367049439728
 20
-148.3344427797566
 10
97.06367049439728
 20
-148.3344427797566
 10
97.13550073526475
 20
-148.3344427797566
 10
97.13550073526475
 20
-148.3344427797566
 10
97.20112980425875
 20
-148.3344427797566
 10
97.34702959805908
 20
-148.3303086651743
 10
97.45296628423051
 20
-148.3220404360098
 10
97.45296628423051
 20
-148.3220404360098
 10
97.45296628423051
 20
-148.4994628535001
 10
97.45296628423051
 20
-148.4994628535001
 10
97.35564233677221
 20
-148.4932616816267
 10
97.19682343490219
 20
-148.4891275670444
 10
97.13550073526475
 20
-148.4891275670444
 10
97.13550073526475
 20
-148.4891275670444
 10
97.06367049439728
 20
-148.4891275670444
 10
97.06367049439728
 20
-148.4891275670444
 10
97.06573755168843
 20
-148.5780110305638
 10
97.07004392104501
 20
-148.8167561476916
 10
97.07211097833614
 20
-148.8908257006245
 10
97.07211097833614
 20
-148.8908257006245
 10
96.87108965677182
 20
-148.8908257006245
 10
96.87108965677182
 20
-148.8908257006245
 10
96.88383651006724
 20
-148.677229780539
 10
96.88383651006724
 20
-148.6476019593659
 10
96.88797062464955
 20
-148.4891275670444
 10
96.88797062464955
 20
-148.4891275670444
 10
96.81820744107323
 20
-148.4891275670444
 10
96.81820744107323
 20
-148.4891275670444
 10
96.76119111079234
 20
-148.4891275670444
 10
96.60874563557005
 20
-148.4932616816267
 10
96.49884708959056
 20
-148.4994628535001
 10
96.49884708959056
 20
-148.4994628535001
 10
96.49884708959056
 20
-148.3220404360098
 10
96.49884708959056
 20
-148.3220404360098
 10
96.60461152098775
 20
-148.3303086651743
 10
96.74844425749693
 20
-148.3344427797566
 10
96.81820744107323
 20
-148.3344427797566
 10
96.81820744107323
 20
-148.3344427797566
 10
96.89227699400611
 20
-148.3344427797566
 10
96.89227699400611
 20
-148.3344427797566
 10
96.89227699400611
 20
-148.3344427797566
 10
96.89227699400611
 20
-148.1990505271863
 10
96.89227699400611
 20
-148.1990505271863
 10
96.89227699400611
 20
-148.1990505271863
 10
96.84783526224638
 20
-148.1990505271863
 10
96.84783526224638
 20
-148.1990505271863
 10
96.77169865202236
 20
-148.1990505271863
 10
96.5791178143969
 20
-148.201462094026
 10
96.54535587864145
 20
-148.201462094026
 10
96.55172930528916
 20
-148.1294595983843
 10
96.56016978922801
 20
-148.0488443640294
 10
96.56016978922801
 20
-147.9282660220457
 10
96.56016978922801
 20
-147.9282660220457
 10
96.56016978922801
 20
-147.7549777191376
 10
96.56016978922801
 20
-147.7549777191376
 10
96.56016978922801
 20
-147.6829752234959
 10
96.55172930528916
 20
-147.5623968815122
 10
96.54535587864145
 20
-147.4821261567059
 10
96.62355954615662
 20
-147.4862602712881
 10
96.66162785126862
 20
-147.4883273285793
 10
96.78857961990008
 20
-147.4883273285793
 10
96.78857961990008
 20
-147.4883273285793
 10
96.89227699400611
 20
-147.4883273285793
 10
96.89227699400611
 20
-147.4883273285793
 10
96.89227699400611
 20
-147.4883273285793
 10
96.89227699400611
 20
-147.3422552800047
 10
96.89227699400611
 20
-147.3422552800047
 10
96.89227699400611
 20
-147.3422552800047
 10
96.81407332649094
 20
-147.3422552800047
 10
96.81407332649094
 20
-147.3422552800047
 10
96.75895179872693
 20
-147.3422552800047
 10
96.58755829833575
 20
-147.3467339041355
 10
96.50298120417287
 20
-147.352935076009
 10
96.50298120417287
 20
-147.352935076009
 10
96.50298120417287
 20
-147.1751681489701
 10
96.50298120417287
 20
-147.1751681489701
 10
96.5854912410446
 20
-147.1817138303921
 10
96.74844425749693
 20
-147.1858479449744
 10
96.81407332649094
 20
-147.1858479449744
 10
96.81407332649094
 20
-147.1858479449744
 10
96.89227699400611
 20
-147.1858479449744
 10
96.89227699400611
 20
-147.1858479449744
 10
96.89227699400611
 20
-147.1520860092189
 10
96.88797062464955
 20
-146.9977457314797
 10
96.88797062464955
 20
-146.9657063434669
 10
96.88797062464955
 20
-146.9657063434669
 10
97.08485783163157
 20
-146.9829318208931
 10
97.08485783163157
 20
-146.9829318208931
 10
97.10173879950929
 20
-146.9849988781843
 10
97.12292613674357
 20
-146.9870659354755
 10
97.12292613674357
 20
-147.0080810179355
 10
97.12292613674357
 20
-147.0315076672352
 10
97.10173879950929
 20
-147.0397758963998
 10
97.0741780356273
 20
-147.0525227496952
 10
97.0741780356273
 20
-147.0738823417037
 10
97.07211097833614
 20
-147.1689669770966
 10
97.07211097833614
 20
-147.1858479449744
 10
97.07211097833614
 20
-147.1858479449744
 10
97.13136662068244
 20
-147.1858479449744
 10
97.13136662068244
 20
-147.1858479449744
 10
97.19906274696761
 20
-147.1858479449744
 10
97.34289548347678
 20
-147.1817138303921
 10
97.44865991487396
 20
-147.1751681489701
 10
97.44865991487396
 20
-147.1751681489701
 10
97.44865991487396
 20
-147.352935076009
 10
97.44865991487396
 20
-147.352935076009
 10
97.35133596741563
 20
-147.3467339041355
 10
97.19475637761105
 20
-147.3422552800047
 10
97.13136662068244
 20
-147.3422552800047
 10
97.13136662068244
 20
-147.3422552800047
 10
97.06367049439728
 20
-147.3422552800047
 10
97.06367049439728
 20
-147.3422552800047
 10
97.06367049439728
 20
-147.3422552800047
 10
97.06367049439728
 20
-147.4883273285793
 10
97.06367049439728
 20
-147.4883273285793
 10
97.06367049439728
 20
-147.4883273285793
 10
97.13343367797358
 20
-147.4883273285793
 10
97.13343367797358
 20
-147.4883273285793
 10
97.28363984113048
 20
-147.4883273285793
 10
97.35564233677221
 20
-147.484193213997
 10
97.41696503640966
 20
-147.4821261567059
 10
97.40852455247079
 20
-147.5772107920987
 10
97.40628524040538
 20
-147.6554144596139
 10
97.40421818311423
 20
-147.6936550195002
 10
97.55873071562769
 20
-147.4821261567059
 10
97.66449514702486
 20
-147.2344237913164
 10
97.68137611490258
 20
-146.9722520248889
 10
97.68137611490258
 20
-146.9722520248889
 10
97.89721134705349
 20
-147.022894928522
 10
97.89721134705349
 20
-147.022894928522
 10
97.91202525764006
 20
-147.0273735526529
 10
97.92666691345237
 20
-147.0335747245263
 10
97.92666691345237
 20
-147.050455692404
 10
97.92666691345237
 20
-147.0673366602818
 10
97.92253279887006
 20
-147.0694037175729
 10
97.87171764046263
 20
-147.0907633095815
 10
97.85483667258491
 20
-147.1668999198055
 10
97.82951522076832
 20
-147.2578504406161
 10
97.78076711965205
 20
-147.3846299544733
 10
97.78076711965205
 20
-147.3846299544733
 10
98.11924775107783
 20
-147.3846299544733
 10
98.11924775107783
 20
-147.3846299544733
 10
98.15731605618985
 20
-147.3846299544733
 10
98.28633488211245
 20
-147.380495839891
 10
98.33508298322874
 20
-147.3742946680175
 10
98.33508298322874
 20
-147.3742946680175
 10
98.42810056133048
 20
-147.4438855968196
 10
98.42810056133048
 20
-147.4438855968196
 10
98.41966007739161
 20
-147.4652451888281
 10
98.4132866507439
 20
-147.484193213997
 10
98.39847274015733
 20
-147.5200222070436
 97
        0
 97
        1
330
C5
 75
     2
 76
     1
 98
        1
 10
0.0
 20
0.0
450
        0
451
        0
460
0.0
461
0.0
452
        0
462
0.0
453
        0
470

  0
SPLINE
  5
C7
330
BC
100
AcDbEntity
  8
レイヤー 1
100
AcDbSpline
210
0.0
220
0.0
230
1.0
 70
     9
 71
     3
 72
    74
 73
    70
 74
     0
 42
0.0000000001
 43
0.0000000001
 40
0.0
 40
0.0
 40
0.0
 40
0.0
 40
1.0
 40
1.0
 40
1.0
 40
2.0
 40
2.0
 40
2.0
 40
3.0
 40
3.0
 40
3.0
 40
4.0
 40
4.0
 40
4.0
 40
5.0
 40
5.0
 40
5.0
 40
6.0
 40
6.0
 40
6.0
 40
7.0
 40
7.0
 40
7.0
 40
8.0
 40
8.0
 40
8.0
 40
9.0
 40
9.0
 40
9.0
 40
10.0
 40
10.0
 40
10.0
 40
11.0
 40
11.0
 40
11.0
 40
12.0
 40
12.0
 40
12.0
 40
13.0
 40
13.0
 40
13.0
 40
14.0
 40
14.0
 40
14.0
 40
15.0
 40
15.0
 40
15.0
 40
16.0
 40
16.0
 40
16.0
 40
17.0
 40
17.0
 40
17.0
 40
18.0
 40
18.0
 40
18.0
 40
19.0
 40
19.0
 40
19.0
 40
20.0
 40
20.0
 40
20.0
 40
21.0
 40
21.0
 40
21.0
 40
22.0
 40
22.0
 40
22.0
 40
23.0
 40
23.0
 40
23.0
 40
23.0
 10
100.3585598164902
 20
-147.4228705143596
 30
0.0
 10
100.3585598164902
 20
-147.4228705143596
 30
0.0
 10
100.1978461121033
 20
-147.4228705143596
 30
0.0
 10
100.1978461121033
 20
-147.4228705143596
 30
0.0
 10
100.1978461121033
 20
-147.4228705143596
 30
0.0
 10
100.1978461121033
 20
-147.5369031749213
 30
0.0
 10
100.1978461121033
 20
-147.5369031749213
 30
0.0
 10
100.1978461121033
 20
-147.5772107920987
 30
0.0
 10
100.204219538751
 20
-147.6512803450316
 30
0.0
 10
100.2083536533333
 20
-147.6767740516225
 30
0.0
 10
100.2083536533333
 20
-147.6767740516225
 30
0.0
 10
99.996824790539
 20
-147.6767740516225
 30
0.0
 10
99.996824790539
 20
-147.6767740516225
 30
0.0
 10
100.0075045865432
 20
-147.6109727278542
 30
0.0
 10
100.0095716438344
 20
-147.5517170855079
 30
0.0
 10
100.0095716438344
 20
-147.5496500282168
 30
0.0
 10
100.0095716438344
 20
-147.5496500282168
 30
0.0
 10
100.0095716438344
 20
-147.4270046289418
 30
0.0
 10
100.0095716438344
 20
-147.4270046289418
 30
0.0
 10
100.0095716438344
 20
-147.4270046289418
 30
0.0
 10
99.82973765950438
 20
-147.4270046289418
 30
0.0
 10
99.82973765950438
 20
-147.4270046289418
 30
0.0
 10
99.81078963433551
 20
-147.4862602712881
 30
0.0
 10
99.76410859051036
 20
-147.6323323198627
 30
0.0
 10
99.64990367517433
 20
-147.7146701019602
 30
0.0
 10
99.64990367517433
 20
-147.7146701019602
 30
0.0
 10
99.49332408536974
 20
-147.608905670563
 30
0.0
 10
99.49332408536974
 20
-147.608905670563
 30
0.0
 10
99.5673936383026
 20
-147.5623968815122
 30
0.0
 10
99.68383786570406
 20
-147.4883273285793
 30
0.0
 10
99.68383786570406
 20
-147.1668999198055
 30
0.0
 10
99.68383786570406
 20
-147.1117783920415
 30
0.0
 10
99.67953149634748
 20
-147.0673366602818
 30
0.0
 10
99.67746443905634
 20
-147.029440609944
 30
0.0
 10
99.75360104928036
 20
-147.0377088391086
 30
0.0
 10
99.82767060221323
 20
-147.0442545205306
 30
0.0
 10
99.89106035914183
 20
-147.0442545205306
 30
0.0
 10
100.0688272861807
 20
-147.0442545205306
 30
0.0
 10
100.2676092956796
 20
-146.9849988781843
 30
0.0
 10
100.328931995317
 20
-146.9553710570111
 30
0.0
 10
100.328931995317
 20
-146.9553710570111
 30
0.0
 10
100.4558837639485
 20
-147.0907633095815
 30
0.0
 10
100.4558837639485
 20
-147.0907633095815
 30
0.0
 10
100.4601901333051
 20
-147.0948974241637
 30
0.0
 10
100.4622571905962
 20
-147.1035101628769
 30
0.0
 10
100.4622571905962
 20
-147.1097113347503
 30
0.0
 10
100.4622571905962
 20
-147.1307264172104
 30
0.0
 10
100.4474432800096
 20
-147.1372720986323
 30
0.0
 10
100.4305623121319
 20
-147.1372720986323
 30
0.0
 10
100.4093749748976
 20
-147.1372720986323
 30
0.0
 10
100.3945610643111
 20
-147.1286593599192
 30
0.0
 10
100.3756130391422
 20
-147.1183240734634
 30
0.0
 10
100.2021524814598
 20
-147.1751681489701
 30
0.0
 10
99.98425019201782
 20
-147.2006618555609
 30
0.0
 10
99.85092499673866
 20
-147.2027289128521
 30
0.0
 10
99.85092499673866
 20
-147.2027289128521
 30
0.0
 10
99.8466186273821
 20
-147.2854112044981
 30
0.0
 10
99.8466186273821
 20
-147.2854112044981
 30
0.0
 10
99.8466186273821
 20
-147.2854112044981
 30
0.0
 10
100.1196424445881
 20
-147.2854112044981
 30
0.0
 10
100.1196424445881
 20
-147.2854112044981
 30
0.0
 10
100.176658774869
 20
-147.2854112044981
 30
0.0
 10
100.4390027960708
 20
-147.2661186697807
 30
0.0
 10
100.4834445278305
 20
-147.2599174979072
 30
0.0
 10
100.4834445278305
 20
-147.2599174979072
 30
0.0
 10
100.4834445278305
 20
-147.429071686233
 30
0.0
 10
100.4834445278305
 20
-147.429071686233
 30
0.0
 10
100.4495103373008
 20
-147.4249375716507
 30
0.0
 10
100.4369357387796
 20
-147.4228705143596
 30
0.0
 10
100.3585598164902
 20
-147.4228705143596
 30
0.0
  0
SPLINE
  5
C8
330
BC
100
AcDbEntity
  8
レイヤー 1
100
AcDbSpline
210
0.0
220
0.0
230
1.0
 70
    11
 71
     3
 72
    17
 73
    13
 74
     0
 42
0.0000000001
 43
0.0000000001
 40
0.0
 40
0.0
 40
0.0
 40
0.0
 40
1.0
 40
1.0
 40
1.0
 40
2.0
 40
2.0
 40
2.0
 40
3.0
 40
3.0
 40
3.0
 40
4.0
 40
4.0
 40
4.0
 40
4.0
 10
100.0412665222987
 20
-148.3664821677695
 30
0.0
 10
100.0412665222987
 20
-148.3664821677695
 30
0.0
 10
99.12952200212735
 20
-148.3664821677695
 30
0.0
 10
99.12952200212735
 20
-148.3664821677695
 30
0.0
 10
99.12952200212735
 20
-148.3664821677695
 30
0.0
 10
99.12952200212735
 20
-148.4743136564578
 30
0.0
 10
99.12952200212735
 20
-148.4743136564578
 30
0.0
 10
99.12952200212735
 20
-148.4743136564578
 30
0.0
 10
100.0412665222987
 20
-148.4743136564578
 30
0.0
 10
100.0412665222987
 20
-148.4743136564578
 30
0.0
 10
100.0412665222987
 20
-148.4743136564578
 30
0.0
 10
100.0412665222987
 20
-148.3664821677695
 30
0.0
 10
100.0412665222987
 20
-148.3664821677695
 30
0.0
  0
SPLINE
  5
C9
330
BC
100
AcDbEntity
  8
レイヤー 1
100
AcDbSpline
210
0.0
220
0.0
230
1.0
 70
    11
 71
     3
 72
    17
 73
    13
 74
     0
 42
0.0000000001
 43
0.0000000001
 40
0.0
 40
0.0
 40
0.0
 40
0.0
 40
1.0
 40
1.0
 40
1.0
 40
2.0
 40
2.0
 40
2.0
 40
3.0
 40
3.0
 40
3.0
 40
4.0
 40
4.0
 40
4.0
 40
4.0
 10
100.0412665222987
 20
-148.1208468596712
 30
0.0
 10
100.0412665222987
 20
-148.1208468596712
 30
0.0
 10
99.12952200212735
 20
-148.1208468596712
 30
0.0
 10
99.12952200212735
 20
-148.1208468596712
 30
0.0
 10
99.12952200212735
 20
-148.1208468596712
 30
0.0
 10
99.12952200212735
 20
-148.2310899151992
 30
0.0
 10
99.12952200212735
 20
-148.2310899151992
 30
0.0
 10
99.12952200212735
 20
-148.2310899151992
 30
0.0
 10
100.0412665222987
 20
-148.2310899151992
 30
0.0
 10
100.0412665222987
 20
-148.2310899151992
 30
0.0
 10
100.0412665222987
 20
-148.2310899151992
 30
0.0
 10
100.0412665222987
 20
-148.1208468596712
 30
0.0
 10
100.0412665222987
 20
-148.1208468596712
 30
0.0
  0
SPLINE
  5
CA
330
BC
100
AcDbEntity
  8
レイヤー 1
100
AcDbSpline
210
0.0
220
0.0
230
1.0
 70
    11
 71
     3
 72
    17
 73
    13
 74
     0
 42
0.0000000001
 43
0.0000000001
 40
0.0
 40
0.0
 40
0.0
 40
0.0
 40
1.0
 40
1.0
 40
1.0
 40
2.0
 40
2.0
 40
2.0
 40
3.0
 40
3.0
 40
3.0
 40
4.0
 40
4.0
 40
4.0
 40
4.0
 10
100.0412665222987
 20
-147.8755560611214
 30
0.0
 10
100.0412665222987
 20
-147.8755560611214
 30
0.0
 10
99.12952200212735
 20
-147.8755560611214
 30
0.0
 10
99.12952200212735
 20
-147.8755560611214
 30
0.0
 10
99.12952200212735
 20
-147.8755560611214
 30
0.0
 10
99.12952200212735
 20
-147.987521664392
 30
0.0
 10
99.12952200212735
 20
-147.987521664392
 30
0.0
 10
99.12952200212735
 20
-147.987521664392
 30
0.0
 10
100.0412665222987
 20
-147.987521664392
 30
0.0
 10
100.0412665222987
 20
-147.987521664392
 30
0.0
 10
100.0412665222987
 20
-147.987521664392
 30
0.0
 10
100.0412665222987
 20
-147.8755560611214
 30
0.0
 10
100.0412665222987
 20
-147.8755560611214
 30
0.0
  0
SPLINE
  5
CB
330
BC
100
AcDbEntity
  8
レイヤー 1
100
AcDbSpline
210
0.0
220
0.0
230
1.0
 70
     9
 71
     3
 72
    74
 73
    70
 74
     0
 42
0.0000000001
 43
0.0000000001
 40
0.0
 40
0.0
 40
0.0
 40
0.0
 40
1.0
 40
1.0
 40
1.0
 40
2.0
 40
2.0
 40
2.0
 40
3.0
 40
3.0
 40
3.0
 40
4.0
 40
4.0
 40
4.0
 40
5.0
 40
5.0
 40
5.0
 40
6.0
 40
6.0
 40
6.0
 40
7.0
 40
7.0
 40
7.0
 40
8.0
 40
8.0
 40
8.0
 40
9.0
 40
9.0
 40
9.0
 40
10.0
 40
10.0
 40
10.0
 40
11.0
 40
11.0
 40
11.0
 40
12.0
 40
12.0
 40
12.0
 40
13.0
 40
13.0
 40
13.0
 40
14.0
 40
14.0
 40
14.0
 40
15.0
 40
15.0
 40
15.0
 40
16.0
 40
16.0
 40
16.0
 40
17.0
 40
17.0
 40
17.0
 40
18.0
 40
18.0
 40
18.0
 40
19.0
 40
19.0
 40
19.0
 40
20.0
 40
20.0
 40
20.0
 40
21.0
 40
21.0
 40
21.0
 40
22.0
 40
22.0
 40
22.0
 40
23.0
 40
23.0
 40
23.0
 40
23.0
 10
100.345985217969
 20
-148.9101182353419
 30
0.0
 10
100.1322170431093
 20
-148.8994384393376
 30
0.0
 10
99.93136797631926
 20
-148.8126220331093
 30
0.0
 10
99.7556681065715
 20
-148.6920436911256
 30
0.0
 10
99.7556681065715
 20
-148.6920436911256
 30
0.0
 10
99.85299205402981
 20
-148.6052272848973
 30
0.0
 10
99.85299205402981
 20
-148.6052272848973
 30
0.0
 10
99.85299205402981
 20
-148.6052272848973
 30
0.0
 10
99.30091550251852
 20
-148.6052272848973
 30
0.0
 10
99.30091550251852
 20
-148.6052272848973
 30
0.0
 10
99.30091550251852
 20
-148.6052272848973
 30
0.0
 10
99.38118622732485
 20
-148.6689615513744
 30
0.0
 10
99.38118622732485
 20
-148.6689615513744
 30
0.0
 10
99.38755965397255
 20
-148.6730956659567
 30
0.0
 10
99.39823944997684
 20
-148.683775461961
 30
0.0
 10
99.39823944997684
 20
-148.6985893725476
 30
0.0
 10
99.39823944997684
 20
-148.7385524801765
 30
0.0
 10
99.32416989704396
 20
-148.732351308303
 30
0.0
 10
99.30935598645739
 20
-148.7302842510119
 30
0.0
 10
99.07870684371992
 20
-148.8698106181645
 30
0.0
 10
98.93487410721073
 20
-148.9015054966288
 30
0.0
 10
98.83117673310472
 20
-148.9183864645065
 30
0.0
 10
98.83117673310472
 20
-148.9183864645065
 30
0.0
 10
98.7021579071821
 20
-148.7406195374676
 30
0.0
 10
98.7021579071821
 20
-148.7406195374676
 30
0.0
 10
98.94968801779731
 20
-148.7089246590033
 30
0.0
 10
99.05131833461219
 20
-148.6624158699525
 30
0.0
 10
99.14002954335735
 20
-148.6097059090281
 30
0.0
 10
99.06613224519874
 20
-148.6117729663193
 30
0.0
 10
98.95175507508845
 20
-148.6138400236104
 30
0.0
 10
98.92006019662415
 20
-148.6159070809016
 30
0.0
 10
98.93487410721073
 20
-148.5270236173821
 30
0.0
 10
98.93694116450188
 20
-148.3981770462338
 30
0.0
 10
98.93694116450188
 20
-148.3241074933009
 30
0.0
 10
98.93694116450188
 20
-148.3241074933009
 30
0.0
 10
98.93694116450188
 20
-148.0236951669871
 30
0.0
 10
98.93694116450188
 20
-148.0236951669871
 30
0.0
 10
98.93694116450188
 20
-147.9241319074634
 30
0.0
 10
98.93073999262844
 20
-147.8249131574882
 30
0.0
 10
98.92006019662415
 20
-147.7274169552556
 30
0.0
 10
99.02169051343904
 20
-147.7336181271291
 30
0.0
 10
99.25216740140225
 20
-147.7401638085511
 30
0.0
 10
99.36017114486482
 20
-147.7401638085511
 30
0.0
 10
99.36017114486482
 20
-147.7401638085511
 30
0.0
 10
99.78322887045351
 20
-147.7401638085511
 30
0.0
 10
99.78322887045351
 20
-147.7401638085511
 30
0.0
 10
99.90174015514611
 20
-147.7401638085511
 30
0.0
 10
99.9439425748404
 20
-147.7401638085511
 30
0.0
 10
100.0264526117121
 20
-147.7360296939688
 30
0.0
 10
100.1745917175778
 20
-147.7294840125468
 30
0.0
 10
100.1914726854556
 20
-147.7294840125468
 30
0.0
 10
100.2379814745065
 20
-147.7274169552556
 30
0.0
 10
100.2295409905676
 20
-147.807687680062
 30
0.0
 10
100.2254068759853
 20
-147.966506581932
 30
0.0
 10
100.2254068759853
 20
-148.0488443640294
 30
0.0
 10
100.2254068759853
 20
-148.0488443640294
 30
0.0
 10
100.2254068759853
 20
-148.3344427797566
 30
0.0
 10
100.2254068759853
 20
-148.3344427797566
 30
0.0
 10
100.2254068759853
 20
-148.4064452753984
 30
0.0
 10
100.2274739332764
 20
-148.5377034133864
 30
0.0
 10
100.2379814745065
 20
-148.6159070809016
 30
0.0
 10
100.166151233639
 20
-148.6117729663193
 30
0.0
 10
100.0433335795898
 20
-148.6097059090281
 30
0.0
 10
99.9651299120747
 20
-148.607638851737
 30
0.0
 10
100.0752007128284
 20
-148.6751627232479
 30
0.0
 10
100.2274739332764
 20
-148.725805626881
 30
0.0
 10
100.4390027960708
 20
-148.7302842510119
 30
0.0
 10
100.4390027960708
 20
-148.7302842510119
 30
0.0
 10
100.345985217969
 20
-148.9101182353419
 30
0.0
 10
100.345985217969
 20
-148.9101182353419
 30
0.0
  0
SPLINE
  5
CC
330
BC
100
AcDbEntity
  8
レイヤー 1
100
AcDbSpline
210
0.0
220
0.0
230
1.0
 70
    11
 71
     3
 72
    71
 73
    67
 74
     0
 42
0.0000000001
 43
0.0000000001
 40
0.0
 40
0.0
 40
0.0
 40
0.0
 40
1.0
 40
1.0
 40
1.0
 40
2.0
 40
2.0
 40
2.0
 40
3.0
 40
3.0
 40
3.0
 40
4.0
 40
4.0
 40
4.0
 40
5.0
 40
5.0
 40
5.0
 40
6.0
 40
6.0
 40
6.0
 40
7.0
 40
7.0
 40
7.0
 40
8.0
 40
8.0
 40
8.0
 40
9.0
 40
9.0
 40
9.0
 40
10.0
 40
10.0
 40
10.0
 40
11.0
 40
11.0
 40
11.0
 40
12.0
 40
12.0
 40
12.0
 40
13.0
 40
13.0
 40
13.0
 40
14.0
 40
14.0
 40
14.0
 40
15.0
 40
15.0
 40
15.0
 40
16.0
 40
16.0
 40
16.0
 40
17.0
 40
17.0
 40
17.0
 40
18.0
 40
18.0
 40
18.0
 40
19.0
 40
19.0
 40
19.0
 40
20.0
 40
20.0
 40
20.0
 40
21.0
 40
21.0
 40
21.0
 40
22.0
 40
22.0
 40
22.0
 40
22.0
 10
99.5081379959563
 20
-147.1434732705058
 30
0.0
 10
99.49332408536974
 20
-147.1434732705058
 30
0.0
 10
99.48074948684856
 20
-147.1393391559235
 30
0.0
 10
99.45525578025772
 20
-147.1307264172104
 30
0.0
 10
99.3134901010397
 20
-147.1775797158097
 30
0.0
 10
99.14002954335735
 20
-147.1944606836875
 30
0.0
 10
99.00050317620475
 20
-147.1985947982698
 30
0.0
 10
99.00050317620475
 20
-147.1985947982698
 30
0.0
 10
98.99843611891359
 20
-147.2874782617892
 30
0.0
 10
98.99843611891359
 20
-147.2874782617892
 30
0.0
 10
98.99843611891359
 20
-147.2874782617892
 30
0.0
 10
99.25854082804995
 20
-147.2874782617892
 30
0.0
 10
99.25854082804995
 20
-147.2874782617892
 30
0.0
 10
99.31142304374853
 20
-147.2874782617892
 30
0.0
 10
99.49332408536974
 20
-147.2788655230761
 30
0.0
 10
99.53776581712945
 20
-147.2726643512026
 30
0.0
 10
99.53776581712945
 20
-147.2726643512026
 30
0.0
 10
99.53776581712945
 20
-147.4335503103638
 30
0.0
 10
99.53776581712945
 20
-147.4335503103638
 30
0.0
 10
99.48281654413973
 20
-147.4270046289418
 30
0.0
 10
99.3579318327994
 20
-147.4249375716507
 30
0.0
 10
99.3198635276874
 20
-147.4270046289418
 30
0.0
 10
99.3198635276874
 20
-147.4270046289418
 30
0.0
 10
99.3198635276874
 20
-147.5369031749213
 30
0.0
 10
99.3198635276874
 20
-147.5369031749213
 30
0.0
 10
99.3198635276874
 20
-147.5834119639722
 30
0.0
 10
99.32210283975281
 20
-147.6471462304493
 30
0.0
 10
99.32830401162625
 20
-147.6850422807871
 30
0.0
 10
99.32830401162625
 20
-147.6850422807871
 30
0.0
 10
99.13589542877506
 20
-147.6850422807871
 30
0.0
 10
99.13589542877506
 20
-147.6850422807871
 30
0.0
 10
99.14226885542277
 20
-147.6450791731582
 30
0.0
 10
99.14864228207049
 20
-147.5623968815122
 30
0.0
 10
99.14864228207049
 20
-147.5475829709256
 30
0.0
 10
99.14864228207049
 20
-147.5475829709256
 30
0.0
 10
99.14864228207049
 20
-147.4270046289418
 30
0.0
 10
99.14864228207049
 20
-147.4270046289418
 30
0.0
 10
99.14864228207049
 20
-147.4270046289418
 30
0.0
 10
98.98362220832702
 20
-147.4270046289418
 30
0.0
 10
98.98362220832702
 20
-147.4270046289418
 30
0.0
 10
98.94124753385845
 20
-147.6471462304493
 30
0.0
 10
98.88629826086871
 20
-147.7274169552556
 30
0.0
 10
98.78053382947154
 20
-147.8269802147794
 30
0.0
 10
98.78053382947154
 20
-147.8269802147794
 30
0.0
 10
98.61327444366267
 20
-147.712603044669
 30
0.0
 10
98.61327444366267
 20
-147.712603044669
 30
0.0
 10
98.67683645536551
 20
-147.6640271983271
 30
0.0
 10
98.82704261852241
 20
-147.5517170855079
 30
0.0
 10
98.82704261852241
 20
-147.2027289128521
 30
0.0
 10
98.82704261852241
 20
-147.1203911307546
 30
0.0
 10
98.81860213458354
 20
-147.0738823417037
 30
0.0
 10
98.81016165064469
 20
-147.0249619858132
 30
0.0
 10
98.95606144444501
 20
-147.0397758963998
 30
0.0
 10
98.9708753550316
 20
-147.0397758963998
 30
0.0
 10
99.00687660285246
 20
-147.0397758963998
 30
0.0
 10
99.11470809154078
 20
-147.0397758963998
 30
0.0
 10
99.25647377075881
 20
-147.022894928522
 30
0.0
 10
99.4171874751457
 20
-146.9615722288846
 30
0.0
 10
99.4171874751457
 20
-146.9615722288846
 30
0.0
 10
99.53139239048175
 20
-147.0928303668726
 30
0.0
 10
99.53139239048175
 20
-147.0928303668726
 30
0.0
 10
99.53776581712945
 20
-147.0990315387461
 30
0.0
 10
99.54207218648601
 20
-147.1076442774592
 30
0.0
 10
99.54207218648601
 20
-147.1159125066238
 30
0.0
 10
99.54207218648601
 20
-147.1393391559235
 30
0.0
 10
99.52295190654288
 20
-147.1434732705058
 30
0.0
 10
99.5081379959563
 20
-147.1434732705058
 30
0.0
  0
HATCH
  5
CD
330
BC
100
AcDbEntity
  8
レイヤー 1
 62
   250
420
  2299925
440
 33554687
100
AcDbHatch
 10
0.0
 20
0.0
 30
0.0
210
0.0
220
0.0
230
1.0
  2
SOLID
 70
     1
 71
     1
 91
        6
 92
        1
 93
        1
 72
     4
 94
        3
 73
     0
 74
     0
 95
       74
 96
       70
 40
0.0
 40
0.0
 40
0.0
 40
0.0
 40
1.0
 40
1.0
 40
1.0
 40
2.0
 40
2.0
 40
2.0
 40
3.0
 40
3.0
 40
3.0
 40
4.0
 40
4.0
 40
4.0
 40
5.0
 40
5.0
 40
5.0
 40
6.0
 40
6.0
 40
6.0
 40
7.0
 40
7.0
 40
7.0
 40
8.0
 40
8.0
 40
8.0
 40
9.0
 40
9.0
 40
9.0
 40
10.0
 40
10.0
 40
10.0
 40
11.0
 40
11.0
 40
11.0
 40
12.0
 40
12.0
 40
12.0
 40
13.0
 40
13.0
 40
13.0
 40
14.0
 40
14.0
 40
14.0
 40
15.0
 40
15.0
 40
15.0
 40
16.0
 40
16.0
 40
16.0
 40
17.0
 40
17.0
 40
17.0
 40
18.0
 40
18.0
 40
18.0
 40
19.0
 40
19.0
 40
19.0
 40
20.0
 40
20.0
 40
20.0
 40
21.0
 40
21.0
 40
21.0
 40
22.0
 40
22.0
 40
22.0
 40
23.0
 40
23.0
 40
23.0
 40
23.0
 10
100.3585598164902
 20
-147.4228705143596
 10
100.3585598164902
 20
-147.4228705143596
 10
100.1978461121033
 20
-147.4228705143596
 10
100.1978461121033
 20
-147.4228705143596
 10
100.1978461121033
 20
-147.4228705143596
 10
100.1978461121033
 20
-147.5369031749213
 10
100.1978461121033
 20
-147.5369031749213
 10
100.1978461121033
 20
-147.5772107920987
 10
100.204219538751
 20
-147.6512803450316
 10
100.2083536533333
 20
-147.6767740516225
 10
100.2083536533333
 20
-147.6767740516225
 10
99.996824790539
 20
-147.6767740516225
 10
99.996824790539
 20
-147.6767740516225
 10
100.0075045865432
 20
-147.6109727278542
 10
100.0095716438344
 20
-147.5517170855079
 10
100.0095716438344
 20
-147.5496500282168
 10
100.0095716438344
 20
-147.5496500282168
 10
100.0095716438344
 20
-147.4270046289418
 10
100.0095716438344
 20
-147.4270046289418
 10
100.0095716438344
 20
-147.4270046289418
 10
99.82973765950438
 20
-147.4270046289418
 10
99.82973765950438
 20
-147.4270046289418
 10
99.81078963433551
 20
-147.4862602712881
 10
99.76410859051036
 20
-147.6323323198627
 10
99.64990367517433
 20
-147.7146701019602
 10
99.64990367517433
 20
-147.7146701019602
 10
99.49332408536974
 20
-147.608905670563
 10
99.49332408536974
 20
-147.608905670563
 10
99.5673936383026
 20
-147.5623968815122
 10
99.68383786570406
 20
-147.4883273285793
 10
99.68383786570406
 20
-147.1668999198055
 10
99.68383786570406
 20
-147.1117783920415
 10
99.67953149634748
 20
-147.0673366602818
 10
99.67746443905634
 20
-147.029440609944
 10
99.75360104928036
 20
-147.0377088391086
 10
99.82767060221323
 20
-147.0442545205306
 10
99.89106035914183
 20
-147.0442545205306
 10
100.0688272861807
 20
-147.0442545205306
 10
100.2676092956796
 20
-146.9849988781843
 10
100.328931995317
 20
-146.9553710570111
 10
100.328931995317
 20
-146.9553710570111
 10
100.4558837639485
 20
-147.0907633095815
 10
100.4558837639485
 20
-147.0907633095815
 10
100.4601901333051
 20
-147.0948974241637
 10
100.4622571905962
 20
-147.1035101628769
 10
100.4622571905962
 20
-147.1097113347503
 10
100.4622571905962
 20
-147.1307264172104
 10
100.4474432800096
 20
-147.1372720986323
 10
100.4305623121319
 20
-147.1372720986323
 10
100.4093749748976
 20
-147.1372720986323
 10
100.3945610643111
 20
-147.1286593599192
 10
100.3756130391422
 20
-147.1183240734634
 10
100.2021524814598
 20
-147.1751681489701
 10
99.98425019201782
 20
-147.2006618555609
 10
99.85092499673866
 20
-147.2027289128521
 10
99.85092499673866
 20
-147.2027289128521
 10
99.8466186273821
 20
-147.2854112044981
 10
99.8466186273821
 20
-147.2854112044981
 10
99.8466186273821
 20
-147.2854112044981
 10
100.1196424445881
 20
-147.2854112044981
 10
100.1196424445881
 20
-147.2854112044981
 10
100.176658774869
 20
-147.2854112044981
 10
100.4390027960708
 20
-147.2661186697807
 10
100.4834445278305
 20
-147.2599174979072
 10
100.4834445278305
 20
-147.2599174979072
 10
100.4834445278305
 20
-147.429071686233
 10
100.4834445278305
 20
-147.429071686233
 10
100.4495103373008
 20
-147.4249375716507
 10
100.4369357387796
 20
-147.4228705143596
 10
100.3585598164902
 20
-147.4228705143596
 97
        0
 97
        1
330
C7
 92
        1
 93
        1
 72
     4
 94
        3
 73
     0
 74
     0
 95
       17
 96
       13
 40
0.0
 40
0.0
 40
0.0
 40
0.0
 40
1.0
 40
1.0
 40
1.0
 40
2.0
 40
2.0
 40
2.0
 40
3.0
 40
3.0
 40
3.0
 40
4.0
 40
4.0
 40
4.0
 40
4.0
 10
100.0412665222987
 20
-148.3664821677695
 10
100.0412665222987
 20
-148.3664821677695
 10
99.12952200212735
 20
-148.3664821677695
 10
99.12952200212735
 20
-148.3664821677695
 10
99.12952200212735
 20
-148.3664821677695
 10
99.12952200212735
 20
-148.4743136564578
 10
99.12952200212735
 20
-148.4743136564578
 10
99.12952200212735
 20
-148.4743136564578
 10
100.0412665222987
 20
-148.4743136564578
 10
100.0412665222987
 20
-148.4743136564578
 10
100.0412665222987
 20
-148.4743136564578
 10
100.0412665222987
 20
-148.3664821677695
 10
100.0412665222987
 20
-148.3664821677695
 97
        0
 97
        1
330
C8
 92
        1
 93
        1
 72
     4
 94
        3
 73
     0
 74
     0
 95
       17
 96
       13
 40
0.0
 40
0.0
 40
0.0
 40
0.0
 40
1.0
 40
1.0
 40
1.0
 40
2.0
 40
2.0
 40
2.0
 40
3.0
 40
3.0
 40
3.0
 40
4.0
 40
4.0
 40
4.0
 40
4.0
 10
100.0412665222987
 20
-148.1208468596712
 10
100.0412665222987
 20
-148.1208468596712
 10
99.12952200212735
 20
-148.1208468596712
 10
99.12952200212735
 20
-148.1208468596712
 10
99.12952200212735
 20
-148.1208468596712
 10
99.12952200212735
 20
-148.2310899151992
 10
99.12952200212735
 20
-148.2310899151992
 10
99.12952200212735
 20
-148.2310899151992
 10
100.0412665222987
 20
-148.2310899151992
 10
100.0412665222987
 20
-148.2310899151992
 10
100.0412665222987
 20
-148.2310899151992
 10
100.0412665222987
 20
-148.1208468596712
 10
100.0412665222987
 20
-148.1208468596712
 97
        0
 97
        1
330
C9
 92
        1
 93
        1
 72
     4
 94
        3
 73
     0
 74
     0
 95
       17
 96
       13
 40
0.0
 40
0.0
 40
0.0
 40
0.0
 40
1.0
 40
1.0
 40
1.0
 40
2.0
 40
2.0
 40
2.0
 40
3.0
 40
3.0
 40
3.0
 40
4.0
 40
4.0
 40
4.0
 40
4.0
 10
100.0412665222987
 20
-147.8755560611214
 10
100.0412665222987
 20
-147.8755560611214
 10
99.12952200212735
 20
-147.8755560611214
 10
99.12952200212735
 20
-147.8755560611214
 10
99.12952200212735
 20
-147.8755560611214
 10
99.12952200212735
 20
-147.987521664392
 10
99.12952200212735
 20
-147.987521664392
 10
99.12952200212735
 20
-147.987521664392
 10
100.0412665222987
 20
-147.987521664392
 10
100.0412665222987
 20
-147.987521664392
 10
100.0412665222987
 20
-147.987521664392
 10
100.0412665222987
 20
-147.8755560611214
 10
100.0412665222987
 20
-147.8755560611214
 97
        0
 97
        1
330
CA
 92
        1
 93
        1
 72
     4
 94
        3
 73
     0
 74
     0
 95
       74
 96
       70
 40
0.0
 40
0.0
 40
0.0
 40
0.0
 40
1.0
 40
1.0
 40
1.0
 40
2.0
 40
2.0
 40
2.0
 40
3.0
 40
3.0
 40
3.0
 40
4.0
 40
4.0
 40
4.0
 40
5.0
 40
5.0
 40
5.0
 40
6.0
 40
6.0
 40
6.0
 40
7.0
 40
7.0
 40
7.0
 40
8.0
 40
8.0
 40
8.0
 40
9.0
 40
9.0
 40
9.0
 40
10.0
 40
10.0
 40
10.0
 40
11.0
 40
11.0
 40
11.0
 40
12.0
 40
12.0
 40
12.0
 40
13.0
 40
13.0
 40
13.0
 40
14.0
 40
14.0
 40
14.0
 40
15.0
 40
15.0
 40
15.0
 40
16.0
 40
16.0
 40
16.0
 40
17.0
 40
17.0
 40
17.0
 40
18.0
 40
18.0
 40
18.0
 40
19.0
 40
19.0
 40
19.0
 40
20.0
 40
20.0
 40
20.0
 40
21.0
 40
21.0
 40
21.0
 40
22.0
 40
22.0
 40
22.0
 40
23.0
 40
23.0
 40
23.0
 40
23.0
 10
100.345985217969
 20
-148.9101182353419
 10
100.1322170431093
 20
-148.8994384393376
 10
99.93136797631926
 20
-148.8126220331093
 10
99.7556681065715
 20
-148.6920436911256
 10
99.7556681065715
 20
-148.6920436911256
 10
99.85299205402981
 20
-148.6052272848973
 10
99.85299205402981
 20
-148.6052272848973
 10
99.85299205402981
 20
-148.6052272848973
 10
99.30091550251852
 20
-148.6052272848973
 10
99.30091550251852
 20
-148.6052272848973
 10
99.30091550251852
 20
-148.6052272848973
 10
99.38118622732485
 20
-148.6689615513744
 10
99.38118622732485
 20
-148.6689615513744
 10
99.38755965397255
 20
-148.6730956659567
 10
99.39823944997684
 20
-148.683775461961
 10
99.39823944997684
 20
-148.6985893725476
 10
99.39823944997684
 20
-148.7385524801765
 10
99.32416989704396
 20
-148.732351308303
 10
99.30935598645739
 20
-148.7302842510119
 10
99.07870684371992
 20
-148.8698106181645
 10
98.93487410721073
 20
-148.9015054966288
 10
98.83117673310472
 20
-148.9183864645065
 10
98.83117673310472
 20
-148.9183864645065
 10
98.7021579071821
 20
-148.7406195374676
 10
98.7021579071821
 20
-148.7406195374676
 10
98.94968801779731
 20
-148.7089246590033
 10
99.05131833461219
 20
-148.6624158699525
 10
99.14002954335735
 20
-148.6097059090281
 10
99.06613224519874
 20
-148.6117729663193
 10
98.95175507508845
 20
-148.6138400236104
 10
98.92006019662415
 20
-148.6159070809016
 10
98.93487410721073
 20
-148.5270236173821
 10
98.93694116450188
 20
-148.3981770462338
 10
98.93694116450188
 20
-148.3241074933009
 10
98.93694116450188
 20
-148.3241074933009
 10
98.93694116450188
 20
-148.0236951669871
 10
98.93694116450188
 20
-148.0236951669871
 10
98.93694116450188
 20
-147.9241319074634
 10
98.93073999262844
 20
-147.8249131574882
 10
98.92006019662415
 20
-147.7274169552556
 10
99.02169051343904
 20
-147.7336181271291
 10
99.25216740140225
 20
-147.7401638085511
 10
99.36017114486482
 20
-147.7401638085511
 10
99.36017114486482
 20
-147.7401638085511
 10
99.78322887045351
 20
-147.7401638085511
 10
99.78322887045351
 20
-147.7401638085511
 10
99.90174015514611
 20
-147.7401638085511
 10
99.9439425748404
 20
-147.7401638085511
 10
100.0264526117121
 20
-147.7360296939688
 10
100.1745917175778
 20
-147.7294840125468
 10
100.1914726854556
 20
-147.7294840125468
 10
100.2379814745065
 20
-147.7274169552556
 10
100.2295409905676
 20
-147.807687680062
 10
100.2254068759853
 20
-147.966506581932
 10
100.2254068759853
 20
-148.0488443640294
 10
100.2254068759853
 20
-148.0488443640294
 10
100.2254068759853
 20
-148.3344427797566
 10
100.2254068759853
 20
-148.3344427797566
 10
100.2254068759853
 20
-148.4064452753984
 10
100.2274739332764
 20
-148.5377034133864
 10
100.2379814745065
 20
-148.6159070809016
 10
100.166151233639
 20
-148.6117729663193
 10
100.0433335795898
 20
-148.6097059090281
 10
99.9651299120747
 20
-148.607638851737
 10
100.0752007128284
 20
-148.6751627232479
 10
100.2274739332764
 20
-148.725805626881
 10
100.4390027960708
 20
-148.7302842510119
 10
100.4390027960708
 20
-148.7302842510119
 10
100.345985217969
 20
-148.9101182353419
 10
100.345985217969
 20
-148.9101182353419
 97
        0
 97
        1
330
CB
 92
        1
 93
        1
 72
     4
 94
        3
 73
     0
 74
     0
 95
       71
 96
       67
 40
0.0
 40
0.0
 40
0.0
 40
0.0
 40
1.0
 40
1.0
 40
1.0
 40
2.0
 40
2.0
 40
2.0
 40
3.0
 40
3.0
 40
3.0
 40
4.0
 40
4.0
 40
4.0
 40
5.0
 40
5.0
 40
5.0
 40
6.0
 40
6.0
 40
6.0
 40
7.0
 40
7.0
 40
7.0
 40
8.0
 40
8.0
 40
8.0
 40
9.0
 40
9.0
 40
9.0
 40
10.0
 40
10.0
 40
10.0
 40
11.0
 40
11.0
 40
11.0
 40
12.0
 40
12.0
 40
12.0
 40
13.0
 40
13.0
 40
13.0
 40
14.0
 40
14.0
 40
14.0
 40
15.0
 40
15.0
 40
15.0
 40
16.0
 40
16.0
 40
16.0
 40
17.0
 40
17.0
 40
17.0
 40
18.0
 40
18.0
 40
18.0
 40
19.0
 40
19.0
 40
19.0
 40
20.0
 40
20.0
 40
20.0
 40
21.0
 40
21.0
 40
21.0
 40
22.0
 40
22.0
 40
22.0
 40
22.0
 10
99.5081379959563
 20
-147.1434732705058
 10
99.49332408536974
 20
-147.1434732705058
 10
99.48074948684856
 20
-147.1393391559235
 10
99.45525578025772
 20
-147.1307264172104
 10
99.3134901010397
 20
-147.1775797158097
 10
99.14002954335735
 20
-147.1944606836875
 10
99.00050317620475
 20
-147.1985947982698
 10
99.00050317620475
 20
-147.1985947982698
 10
98.99843611891359
 20
-147.2874782617892
 10
98.99843611891359
 20
-147.2874782617892
 10
98.99843611891359
 20
-147.2874782617892
 10
99.25854082804995
 20
-147.2874782617892
 10
99.25854082804995
 20
-147.2874782617892
 10
99.31142304374853
 20
-147.2874782617892
 10
99.49332408536974
 20
-147.2788655230761
 10
99.53776581712945
 20
-147.2726643512026
 10
99.53776581712945
 20
-147.2726643512026
 10
99.53776581712945
 20
-147.4335503103638
 10
99.53776581712945
 20
-147.4335503103638
 10
99.48281654413973
 20
-147.4270046289418
 10
99.3579318327994
 20
-147.4249375716507
 10
99.3198635276874
 20
-147.4270046289418
 10
99.3198635276874
 20
-147.4270046289418
 10
99.3198635276874
 20
-147.5369031749213
 10
99.3198635276874
 20
-147.5369031749213
 10
99.3198635276874
 20
-147.5834119639722
 10
99.32210283975281
 20
-147.6471462304493
 10
99.32830401162625
 20
-147.6850422807871
 10
99.32830401162625
 20
-147.6850422807871
 10
99.13589542877506
 20
-147.6850422807871
 10
99.13589542877506
 20
-147.6850422807871
 10
99.14226885542277
 20
-147.6450791731582
 10
99.14864228207049
 20
-147.5623968815122
 10
99.14864228207049
 20
-147.5475829709256
 10
99.14864228207049
 20
-147.5475829709256
 10
99.14864228207049
 20
-147.4270046289418
 10
99.14864228207049
 20
-147.4270046289418
 10
99.14864228207049
 20
-147.4270046289418
 10
98.98362220832702
 20
-147.4270046289418
 10
98.98362220832702
 20
-147.4270046289418
 10
98.94124753385845
 20
-147.6471462304493
 10
98.88629826086871
 20
-147.7274169552556
 10
98.78053382947154
 20
-147.8269802147794
 10
98.78053382947154
 20
-147.8269802147794
 10
98.61327444366267
 20
-147.712603044669
 10
98.61327444366267
 20
-147.712603044669
 10
98.67683645536551
 20
-147.6640271983271
 10
98.82704261852241
 20
-147.5517170855079
 10
98.82704261852241
 20
-147.2027289128521
 10
98.82704261852241
 20
-147.1203911307546
 10
98.81860213458354
 20
-147.0738823417037
 10
98.81016165064469
 20
-147.0249619858132
 10
98.95606144444501
 20
-147.0397758963998
 10
98.9708753550316
 20
-147.0397758963998
 10
99.00687660285246
 20
-147.0397758963998
 10
99.11470809154078
 20
-147.0397758963998
 10
99.25647377075881
 20
-147.022894928522
 10
99.4171874751457
 20
-146.9615722288846
 10
99.4171874751457
 20
-146.9615722288846
 10
99.53139239048175
 20
-147.0928303668726
 10
99.53139239048175
 20
-147.0928303668726
 10
99.53776581712945
 20
-147.0990315387461
 10
99.54207218648601
 20
-147.1076442774592
 10
99.54207218648601
 20
-147.1159125066238
 10
99.54207218648601
 20
-147.1393391559235
 10
99.52295190654288
 20
-147.1434732705058
 10
99.5081379959563
 20
-147.1434732705058
 97
        0
 97
        1
330
CC
 75
     2
 76
     1
 98
        1
 10
0.0
 20
0.0
450
        0
451
        0
460
0.0
461
0.0
452
        0
462
0.0
453
        0
470

  0
ENDBLK
  5
BF
330
BC
100
AcDbEntity
  8
0
100
AcDbBlockEnd
  0
ENDSEC
  0
SECTION
  2
ENTITIES
  0
LINE
  5
79
330
70
100
AcDbEntity
  8
レイヤー 1
 62
   250
420
  2299925
370
     9
100
AcDbLine
 10
92.92957696435507
 20
-162.6968687427001
 30
0.0
 11
93.4298158531188
 21
-161.8314695762496
 31
0.0
  0
LINE
  5
7A
330
70
100
AcDbEntity
  8
レイヤー 1
 62
   250
420
  2299925
370
     9
100
AcDbLine
 10
92.56371113111336
 20
-162.3310029094578
 30
0.0
 11
93.4298158531188
 21
-161.8314695762496
 31
0.0
  0
LINE
  5
7B
330
70
100
AcDbEntity
  8
レイヤー 1
 62
   250
420
  2299925
370
     9
100
AcDbLine
 10
86.50212460306763
 20
-168.7590152684063
 30
0.0
 11
93.4298158531188
 21
-161.8314696100845
 31
0.0
  0
LWPOLYLINE
  5
7C
330
70
100
AcDbEntity
  8
レイヤー 1
 62
   250
420
  2299925
370
     9
100
AcDbPolyline
 90
        1
 70
     0
 43
0.0
 10
85.0367033552173
 20
-170.2244056852622
  0
LWPOLYLINE
  5
7D
330
70
100
AcDbEntity
  8
レイヤー 1
 62
   250
420
  2299925
370
     9
100
AcDbPolyline
 90
        1
 70
     0
 43
0.0
 10
79.87147224539751
 20
-170.2244056852622
  0
SPLINE
  5
7E
330
70
100
AcDbEntity
  8
レイヤー 1
 62
   250
420
  2299925
370
     9
100
AcDbSpline
210
0.0
220
0.0
230
1.0
 70
     9
 71
     3
 72
    17
 73
    13
 74
     0
 42
0.0000000001
 43
0.0000000001
 40
0.0
 40
0.0
 40
0.0
 40
0.0
 40
1.0
 40
1.0
 40
1.0
 40
2.0
 40
2.0
 40
2.0
 40
3.0
 40
3.0
 40
3.0
 40
4.0
 40
4.0
 40
4.0
 40
4.0
 10
130.0366211255201
 20
-170.2244056852622
 30
0.0
 10
130.0366211255201
 20
-170.1693017963873
 30
0.0
 10
129.9918536266621
 20
-170.1244990186212
 30
0.0
 10
129.9360441836415
 20
-170.1244990186212
 30
0.0
 10
129.8809050183809
 20
-170.1244990186212
 30
0.0
 10
129.8361375195237
 20
-170.1693017963873
 30
0.0
 10
129.8361375195237
 20
-170.2244056852622
 30
0.0
 10
129.8361375195237
 20
-170.2795448519153
 30
0.0
 10
129.8809050183809
 20
-170.3243123519045
 30
0.0
 10
129.9360441836415
 20
-170.3243123519045
 30
0.0
 10
129.9918536266621
 20
-170.3243123519045
 30
0.0
 10
130.0366211255201
 20
-170.2795448519153
 30
0.0
 10
130.0366211255201
 20
-170.2244056852622
 30
0.0
  0
SPLINE
  5
7F
330
70
100
AcDbEntity
  8
レイヤー 1
 62
   250
420
  2299925
370
     9
100
AcDbSpline
210
0.0
220
0.0
230
1.0
 70
     9
 71
     3
 72
    17
 73
    13
 74
     0
 42
0.0000000001
 43
0.0000000001
 40
0.0
 40
0.0
 40
0.0
 40
0.0
 40
1.0
 40
1.0
 40
1.0
 40
2.0
 40
2.0
 40
2.0
 40
3.0
 40
3.0
 40
3.0
 40
4.0
 40
4.0
 40
4.0
 40
4.0
 10
89.13689835419214
 20
-170.2244056852622
 30
0.0
 10
89.13689835419214
 20
-170.1693017963873
 30
0.0
 10
89.09209557642574
 20
-170.1244990186212
 30
0.0
 10
89.03628613199563
 20
-170.1244990186212
 30
0.0
 10
88.98118224312005
 20
-170.1244990186212
 30
0.0
 10
88.93637946535333
 20
-170.1693017963873
 30
0.0
 10
88.93637946535333
 20
-170.2244056852622
 30
0.0
 10
88.93637946535333
 20
-170.2795448519153
 30
0.0
 10
88.98118224312005
 20
-170.3243123519045
 30
0.0
 10
89.03628613199563
 20
-170.3243123519045
 30
0.0
 10
89.09209557642574
 20
-170.3243123519045
 30
0.0
 10
89.13689835419214
 20
-170.2795448519153
 30
0.0
 10
89.13689835419214
 20
-170.2244056852622
 30
0.0
  0
SPLINE
  5
80
330
70
100
AcDbEntity
  8
レイヤー 1
 62
   250
420
  2299925
370
     9
100
AcDbSpline
210
0.0
220
0.0
230
1.0
 70
     9
 71
     3
 72
    17
 73
    13
 74
     0
 42
0.0000000001
 43
0.0000000001
 40
0.0
 40
0.0
 40
0.0
 40
0.0
 40
1.0
 40
1.0
 40
1.0
 40
2.0
 40
2.0
 40
2.0
 40
3.0
 40
3.0
 40
3.0
 40
4.0
 40
4.0
 40
4.0
 40
4.0
 10
85.13661002185893
 20
-151.2245539274697
 30
0.0
 10
85.13661002185893
 20
-151.1694147608173
 30
0.0
 10
85.09184252187004
 20
-151.1246472608287
 30
0.0
 10
85.0367033552173
 20
-151.1246472608287
 30
0.0
 10
84.98159946634206
 20
-151.1246472608287
 30
0.0
 10
84.93679668857565
 20
-151.1694147608173
 30
0.0
 10
84.93679668857565
 20
-151.2245539274697
 30
0.0
 10
84.93679668857565
 20
-151.280010594123
 30
0.0
 10
84.98159946634206
 20
-151.3247780941116
 30
0.0
 10
85.0367033552173
 20
-151.3247780941116
 30
0.0
 10
85.09184252187004
 20
-151.3247780941116
 30
0.0
 10
85.13661002185893
 20
-151.280010594123
 30
0.0
 10
85.13661002185893
 20
-151.2245539274697
 30
0.0
  0
CIRCLE
  5
81
330
70
100
AcDbEntity
  8
レイヤー 1
 62
   250
420
  2299925
370
     9
100
AcDbCircle
 10
85.0367033552173
 20
-166.2246465195958
 30
0.0
 40
0.0999066666418783
  0
SPLINE
  5
82
330
70
100
AcDbEntity
  8
レイヤー 1
 62
   250
420
  2299925
370
    25
100
AcDbSpline
210
0.0
220
0.0
230
1.0
 70
     8
 71
     3
 72
    20
 73
    16
 74
     0
 42
0.0000000001
 43
0.0000000001
 40
0.0
 40
0.0
 40
0.0
 40
0.0
 40
1.0
 40
1.0
 40
1.0
 40
2.0
 40
2.0
 40
2.0
 40
3.0
 40
3.0
 40
3.0
 40
4.0
 40
4.0
 40
4.0
 40
5.0
 40
5.0
 40
5.0
 40
5.0
 10
89.03652639805528
 20
-151.2245129325728
 30
0.0
 10
89.0317829322152
 20
-159.2789036936596
 30
0.0
 10
95.41870568728391
 20
-165.9416963218531
 30
0.0
 10
103.5287842642107
 20
-166.2156859640425
 30
0.0
 10
103.8663925889309
 20
-166.2273981862617
 30
0.0
 10
104.2047064691887
 20
-166.2273981862617
 30
0.0
 10
104.5423147939089
 20
-166.2156859640425
 30
0.0
 10
104.5423147939089
 20
-166.2156859640425
 30
0.0
 10
129.9744138710873
 20
-165.6245009641906
 30
0.0
 10
129.9744138710873
 20
-165.6245009641906
 30
0.0
 10
129.9744138710873
 20
-165.6245009641906
 30
0.0
 10
129.9744138715269
 20
-164.9954687839614
 30
0.0
 10
129.9744138715269
 20
-164.9954687839614
 30
0.0
 10
129.9744138715269
 20
-164.9954687839614
 30
0.0
 10
104.0351977949119
 20
-165.2248742976234
 30
0.0
 10
104.0351977949119
 20
-165.2248742976234
 30
0.0
  0
LWPOLYLINE
  5
83
330
70
100
AcDbEntity
  8
レイヤー 1
 62
   250
420
  2299925
370
    25
100
AcDbPolyline
 90
        1
 70
     0
 43
0.0
 10
90.0367286317452
 20
-151.2247118011236
  0
SPLINE
  5
84
330
70
100
AcDbEntity
  8
レイヤー 1
 62
   250
420
  2299925
370
    25
100
AcDbSpline
210
0.0
220
0.0
230
1.0
 70
     8
 71
     3
 72
     8
 73
     4
 74
     0
 42
0.0000000001
 43
0.0000000001
 40
0.0
 40
0.0
 40
0.0
 40
0.0
 40
1.0
 40
1.0
 40
1.0
 40
1.0
 10
103.0124794480265
 20
-165.1880802402398
 30
0.0
 10
96.1171090741319
 20
-164.6901429362603
 30
0.0
 10
90.60572677351073
 20
-159.1971763631933
 30
0.0
 10
90.07810348140429
 20
-152.3091893894934
 30
0.0
  0
LWPOLYLINE
  5
85
330
70
100
AcDbEntity
  8
レイヤー 1
 62
   250
420
  2299925
370
    25
100
AcDbPolyline
 90
        1
 70
     0
 43
0.0
 10
104.0351977949119
 20
-165.2248742976234
  0
INSERT
  5
87
330
70
100
AcDbEntity
  8
レイヤー 1
100
AcDbBlockReference
  2
Block_0
 10
0.0
 20
0.0
 30
0.0
  0
LINE
  5
95
330
70
100
AcDbEntity
  8
レイヤー 1
 62
   250
420
  2299925
370
     9
100
AcDbLine
 10
129.9363794857104
 20
-170.2244056852622
 30
0.0
 11
88.93637949596014
 21
-170.2244056852622
 31
0.0
  0
LINE
  5
96
330
70
100
AcDbEntity
  8
レイヤー 1
 62
   250
420
  2299925
370
     9
100
AcDbLine
 10
129.9360441836415
 20
-168.1642540191113
 30
0.0
 11
129.9360441836415
 21
-171.2241779072341
 31
0.0
  0
LINE
  5
97
330
70
100
AcDbEntity
  8
レイヤー 1
 62
   250
420
  2299925
370
     9
100
AcDbLine
 10
89.03628613199563
 20
-166.751686624566
 30
0.0
 11
89.03628613199563
 21
-171.2241780513809
 31
0.0
  0
INSERT
  5
99
330
70
100
AcDbEntity
  8
レイヤー 1
100
AcDbBlockReference
  2
Block_2
 10
0.0
 20
0.0
 30
0.0
  0
LINE
  5
A5
330
70
100
AcDbEntity
  8
レイヤー 1
 62
   250
420
  2299925
370
     9
100
AcDbLine
 10
85.0367033552173
 20
-151.2247119286427
 30
0.0
 11
85.0367033552173
 21
-166.2247119248925
 31
0.0
  0
LINE
  5
A6
330
70
100
AcDbEntity
  8
レイヤー 1
 62
   250
420
  2299925
370
     9
100
AcDbLine
 10
87.09685502136883
 20
-151.2245539274697
 30
0.0
 11
84.03710752213395
 21
-151.2245539274697
 31
0.0
  0
LINE
  5
A7
330
70
100
AcDbEntity
  8
レイヤー 1
 62
   250
420
  2299925
370
     9
100
AcDbLine
 10
88.48946581008107
 20
-166.224646519596
 30
0.0
 11
84.03710752213395
 21
-166.224646519596
 31
0.0
  0
INSERT
  5
A9
330
70
100
AcDbEntity
  8
レイヤー 1
100
AcDbBlockReference
  2
Block_4
 10
0.0
 20
0.0
 30
0.0
  0
LWPOLYLINE
  5
B4
330
70
100
AcDbEntity
  8
レイヤー 1
 62
   250
420
  2299925
370
    25
100
AcDbPolyline
 90
        6
 70
     0
 43
0.0
 10
104.0351977949119
 20
-166.2156859640425
 10
89.03652375760524
 20
-151.2247119949103
 10
89.63643168097595
 20
-125.3837327618709
 10
90.23643168082582
 20
-125.3837327618709
 10
90.0367286317452
 20
-151.2247118011236
 10
104.0351977949119
 20
-165.2248742976234
  0
LINE
  5
B5
330
70
100
AcDbEntity
  8
レイヤー 1
 62
   250
420
  2299925
370
     9
100
AcDbLine
 10
92.0502800920606
 20
-155.2978462347368
 30
0.0
 11
91.5500412032186
 21
-156.1632454011424
 31
0.0
  0
LINE
  5
B6
330
70
100
AcDbEntity
  8
レイヤー 1
 62
   250
420
  2299925
370
     9
100
AcDbLine
 10
92.41614592526927
 20
-155.6637120680113
 30
0.0
 11
91.5500412032186
 21
-156.1632454011424
 31
0.0
  0
LINE
  5
B7
330
70
100
AcDbEntity
  8
レイヤー 1
 62
   250
420
  2299925
370
     9
100
AcDbLine
 10
98.47773245389223
 20
-149.2356997096076
 30
0.0
 11
91.5500412032186
 21
-156.1632453673069
 31
0.0
  0
INSERT
  5
B9
330
70
100
AcDbEntity
  8
レイヤー 1
100
AcDbBlockReference
  2
Block_6
 10
0.0
 20
0.0
 30
0.0
  0
ENDSEC
  0
SECTION
  2
OBJECTS
  0
DICTIONARY
  5
C
330
0
100
AcDbDictionary
281
     1
  3
ACAD_COLOR
350
63
  3
ACAD_DETAILVIEWSTYLE
350
6A
  3
ACAD_GROUP
350
D
  3
ACAD_LAYOUT
350
62
  3
ACAD_MATERIAL
350
10
  3
ACAD_MLEADERSTYLE
350
66
  3
ACAD_MLINESTYLE
350
5F
  3
ACAD_PLOTSETTINGS
350
61
  3
ACAD_PLOTSTYLENAME
350
E
  3
ACAD_SCALELIST
350
42
  3
ACAD_SECTIONVIEWSTYLE
350
68
  3
ACAD_TABLESTYLE
350
64
  3
ACAD_VISUALSTYLE
350
29
  3
ACDB_RECOMPOSE_DATA
350
D6
  3
AcDbVariableDictionary
350
CE
  0
DICTIONARY
  5
63
102
{ACAD_REACTORS
330
C
102
}
330
C
100
AcDbDictionary
281
     1
  0
DICTIONARY
  5
6A
102
{ACAD_REACTORS
330
C
102
}
330
C
100
AcDbDictionary
281
     1
  3
Imperial24
350
6B
  0
DICTIONARY
  5
D
102
{ACAD_REACTORS
330
C
102
}
330
C
100
AcDbDictionary
281
     1
  0
DICTIONARY
  5
62
102
{ACAD_REACTORS
330
C
102
}
330
C
100
AcDbDictionary
281
     1
  3
Layout1
350
6F
  3
Layout2
350
77
  3
Model
350
73
  0
DICTIONARY
  5
10
102
{ACAD_REACTORS
330
C
102
}
330
C
100
AcDbDictionary
281
     1
  3
ByBlock
350
19
  3
ByLayer
350
11
  3
Global
350
21
  0
DICTIONARY
  5
66
102
{ACAD_REACTORS
330
C
102
}
330
C
100
AcDbDictionary
281
     1
  3
Standard
350
67
  0
DICTIONARY
  5
5F
102
{ACAD_REACTORS
330
C
102
}
330
C
100
AcDbDictionary
281
     1
  3
Standard
350
60
  0
DICTIONARY
  5
61
102
{ACAD_REACTORS
330
C
102
}
330
C
100
AcDbDictionary
281
     1
  0
ACDBDICTIONARYWDFLT
  5
E
102
{ACAD_REACTORS
330
C
102
}
330
C
100
AcDbDictionary
281
     1
  3
Normal
350
F
100
AcDbDictionaryWithDefault
340
F
  0
DICTIONARY
  5
42
102
{ACAD_REACTORS
330
C
102
}
330
C
100
AcDbDictionary
281
     1
  3
A0
350
43
  3
A1
350
44
  3
A2
350
45
  3
A3
350
46
  3
A4
350
47
  3
A5
350
48
  3
A6
350
49
  3
A7
350
4A
  3
A8
350
4B
  3
A9
350
4C
  3
B0
350
4D
  3
B1
350
4E
  3
B2
350
4F
  3
B3
350
50
  3
B4
350
51
  3
B5
350
52
  3
B6
350
53
  0
DICTIONARY
  5
68
102
{ACAD_REACTORS
330
C
102
}
330
C
100
AcDbDictionary
281
     1
  3
Imperial24
350
69
  0
DICTIONARY
  5
64
102
{ACAD_REACTORS
330
C
102
}
330
C
100
AcDbDictionary
281
     1
  3
Standard
350
65
  0
DICTIONARY
  5
29
102
{ACAD_REACTORS
330
C
102
}
330
C
100
AcDbDictionary
281
     1
  3
2dWireframe
350
2F
  3
Basic
350
2E
  3
Brighten
350
35
  3
ColorChange
350
39
  3
Conceptual
350
32
  3
Dim
350
34
  3
EdgeColorOff
350
41
  3
Facepattern
350
38
  3
Flat
350
2A
  3
FlatWithEdges
350
2B
  3
Gouraud
350
2C
  3
GouraudWithEdges
350
2D
  3
Hidden
350
31
  3
JitterOff
350
3F
  3
Linepattern
350
37
  3
OverhangOff
350
40
  3
Realistic
350
33
  3
Shaded
350
3E
  3
Shaded with edges
350
3D
  3
Shades of Gray
350
3A
  3
Sketchy
350
3B
  3
Thicken
350
36
  3
Wireframe
350
30
  3
X-Ray
350
3C
  0
XRECORD
  5
D6
102
{ACAD_REACTORS
330
C
102
}
330
C
100
AcDbXrecord
280
     1
 90
        1
330
65
  0
DICTIONARY
  5
CE
102
{ACAD_REACTORS
330
C
102
}
330
C
100
AcDbDictionary
281
     1
  3
CANNOSCALE
350
D3
  3
CMLEADERSTYLE
350
D0
  3
CTABLESTYLE
350
CF
  3
CVIEWDETAILSTYLE
350
D1
  3
CVIEWSECTIONSTYLE
350
D2
  0
ACDBDETAILVIEWSTYLE
  5
6B
102
{ACAD_XDICTIONARY
360
10B
102
}
102
{ACAD_REACTORS
330
6A
102
}
330
6A
100
AcDbModelDocViewStyle
 70
     0
  3
Imperial24
290
     0
100
AcDbDetailViewStyle
 70
     0
 71
     0
 90
        3
 71
     1
340
55
 62
   256
 40
0.24
340
0
 62
   256
 40
0.24
300

 40
0.36
280
     3
 71
     2
340
5D
 90
       25
 62
   256
 71
     3
340
55
 62
   256
 40
0.24
 90
        1
 40
0.75
 90
        1
300
%<\AcVar ViewType \f "%tc1">% %<\AcVar ViewDetailId>%\PSCALE %<\AcVar ViewScale \f "%sn">%
 71
     4
340
5D
 90
       25
 62
   256
340
5D
 90
       25
 62
   256
280
     0
  0
LAYOUT
  5
6F
102
{ACAD_REACTORS
330
62
102
}
330
62
100
AcDbPlotSettings
  1

  2

  4

  6

 40
0.0
 41
0.0
 42
0.0
 43
0.0
 44
0.0
 45
0.0
 46
0.0
 47
0.0
 48
0.0
 49
0.0
140
0.0
141
0.0
142
1.0
143
1.0
 70
   688
 72
     0
 73
     0
 74
     5
  7

 75
    16
147
1.0
 76
     0
 77
     2
 78
   300
148
0.0
149
0.0
100
AcDbLayout
  1
Layout1
 70
     1
 71
     1
 10
0.0
 20
0.0
 11
12.0
 21
9.0
 12
0.0
 22
0.0
 32
0.0
 14
0.0
 24
0.0
 34
0.0
 15
0.0
 25
0.0
 35
0.0
146
0.0
 13
0.0
 23
0.0
 33
0.0
 16
1.0
 26
0.0
 36
0.0
 17
0.0
 27
1.0
 37
0.0
 76
     0
330
6C
  0
LAYOUT
  5
77
102
{ACAD_REACTORS
330
62
102
}
330
62
100
AcDbPlotSettings
  1

  2

  4

  6

 40
0.0
 41
0.0
 42
0.0
 43
0.0
 44
0.0
 45
0.0
 46
0.0
 47
0.0
 48
0.0
 49
0.0
140
0.0
141
0.0
142
1.0
143
1.0
 70
   688
 72
     0
 73
     0
 74
     5
  7

 75
    16
147
1.0
 76
     0
 77
     2
 78
   300
148
0.0
149
0.0
100
AcDbLayout
  1
Layout2
 70
     1
 71
     2
 10
0.0
 20
0.0
 11
12.0
 21
9.0
 12
0.0
 22
0.0
 32
0.0
 14
0.0
 24
0.0
 34
0.0
 15
0.0
 25
0.0
 35
0.0
146
0.0
 13
0.0
 23
0.0
 33
0.0
 16
1.0
 26
0.0
 36
0.0
 17
0.0
 27
1.0
 37
0.0
 76
     0
330
74
  0
LAYOUT
  5
73
102
{ACAD_REACTORS
330
62
102
}
330
62
100
AcDbPlotSettings
  1

  2

  4

  6

 40
0.0
 41
0.0
 42
0.0
 43
0.0
 44
0.0
 45
0.0
 46
0.0
 47
0.0
 48
0.0
 49
0.0
140
0.0
141
0.0
142
1.0
143
1.0
 70
  1712
 72
     0
 73
     0
 74
     0
  7

 75
     0
147
1.0
 76
     0
 77
     2
 78
   300
148
0.0
149
0.0
100
AcDbLayout
  1
Model
 70
     1
 71
     0
 10
0.0
 20
0.0
 11
12.0
 21
9.0
 12
0.0
 22
0.0
 32
0.0
 14
0.0
 24
0.0
 34
0.0
 15
0.0
 25
0.0
 35
0.0
146
0.0
 13
0.0
 23
0.0
 33
0.0
 16
1.0
 26
0.0
 36
0.0
 17
0.0
 27
1.0
 37
0.0
 76
     0
330
70
  0
MATERIAL
  5
19
102
{ACAD_XDICTIONARY
360
1A
102
}
102
{ACAD_REACTORS
330
10
102
}
330
10
100
AcDbMaterial
  1
ByBlock
 72
     0
 43
0.0208333333333333
 43
0.0
 43
0.0
 43
0.0
 43
0.0
 43
0.0208333333333333
 43
0.0
 43
0.0
 43
0.0
 43
0.0
 43
1.0
 43
0.0
 43
0.0
 43
0.0
 43
0.0
 43
1.0
 77
     0
 47
0.0208333333333333
 47
0.0
 47
0.0
 47
0.0
 47
0.0
 47
0.0208333333333333
 47
0.0
 47
0.0
 47
0.0
 47
0.0
 47
1.0
 47
0.0
 47
0.0
 47
0.0
 47
0.0
 47
1.0
171
     0
 49
0.0208333333333333
 49
0.0
 49
0.0
 49
0.0
 49
0.0
 49
0.0208333333333333
 49
0.0
 49
0.0
 49
0.0
 49
0.0
 49
1.0
 49
0.0
 49
0.0
 49
0.0
 49
0.0
 49
1.0
175
     0
142
0.0208333333333333
142
0.0
142
0.0
142
0.0
142
0.0
142
0.0208333333333333
142
0.0
142
0.0
142
0.0
142
0.0
142
1.0
142
0.0
142
0.0
142
0.0
142
0.0
142
1.0
179
     0
144
0.0208333333333333
144
0.0
144
0.0
144
0.0
144
0.0
144
0.0208333333333333
144
0.0
144
0.0
144
0.0
144
0.0
144
1.0
144
0.0
144
0.0
144
0.0
144
0.0
144
1.0
147
0.0208333333333333
147
0.0
147
0.0
147
0.0
147
0.0
147
0.0208333333333333
147
0.0
147
0.0
147
0.0
147
0.0
147
1.0
147
0.0
147
0.0
147
0.0
147
0.0
147
1.0
  0
MATERIAL
  5
11
102
{ACAD_XDICTIONARY
360
12
102
}
102
{ACAD_REACTORS
330
10
102
}
330
10
100
AcDbMaterial
  1
ByLayer
 72
     0
 43
0.0208333333333333
 43
0.0
 43
0.0
 43
0.0
 43
0.0
 43
0.0208333333333333
 43
0.0
 43
0.0
 43
0.0
 43
0.0
 43
1.0
 43
0.0
 43
0.0
 43
0.0
 43
0.0
 43
1.0
 77
     0
 47
0.0208333333333333
 47
0.0
 47
0.0
 47
0.0
 47
0.0
 47
0.0208333333333333
 47
0.0
 47
0.0
 47
0.0
 47
0.0
 47
1.0
 47
0.0
 47
0.0
 47
0.0
 47
0.0
 47
1.0
171
     0
 49
0.0208333333333333
 49
0.0
 49
0.0
 49
0.0
 49
0.0
 49
0.0208333333333333
 49
0.0
 49
0.0
 49
0.0
 49
0.0
 49
1.0
 49
0.0
 49
0.0
 49
0.0
 49
0.0
 49
1.0
175
     0
142
0.0208333333333333
142
0.0
142
0.0
142
0.0
142
0.0
142
0.0208333333333333
142
0.0
142
0.0
142
0.0
142
0.0
142
1.0
142
0.0
142
0.0
142
0.0
142
0.0
142
1.0
179
     0
144
0.0208333333333333
144
0.0
144
0.0
144
0.0
144
0.0
144
0.0208333333333333
144
0.0
144
0.0
144
0.0
144
0.0
144
1.0
144
0.0
144
0.0
144
0.0
144
0.0
144
1.0
147
0.0208333333333333
147
0.0
147
0.0
147
0.0
147
0.0
147
0.0208333333333333
147
0.0
147
0.0
147
0.0
147
0.0
147
1.0
147
0.0
147
0.0
147
0.0
147
0.0
147
1.0
  0
MATERIAL
  5
21
102
{ACAD_XDICTIONARY
360
22
102
}
102
{ACAD_REACTORS
330
10
102
}
330
10
100
AcDbMaterial
  1
Global
 72
     0
 43
0.0208333333333333
 43
0.0
 43
0.0
 43
0.0
 43
0.0
 43
0.0208333333333333
 43
0.0
 43
0.0
 43
0.0
 43
0.0
 43
1.0
 43
0.0
 43
0.0
 43
0.0
 43
0.0
 43
1.0
 77
     0
 47
0.0208333333333333
 47
0.0
 47
0.0
 47
0.0
 47
0.0
 47
0.0208333333333333
 47
0.0
 47
0.0
 47
0.0
 47
0.0
 47
1.0
 47
0.0
 47
0.0
 47
0.0
 47
0.0
 47
1.0
171
     0
 49
0.0208333333333333
 49
0.0
 49
0.0
 49
0.0
 49
0.0
 49
0.0208333333333333
 49
0.0
 49
0.0
 49
0.0
 49
0.0
 49
1.0
 49
0.0
 49
0.0
 49
0.0
 49
0.0
 49
1.0
175
     0
142
0.0208333333333333
142
0.0
142
0.0
142
0.0
142
0.0
142
0.0208333333333333
142
0.0
142
0.0
142
0.0
142
0.0
142
1.0
142
0.0
142
0.0
142
0.0
142
0.0
142
1.0
179
     0
144
0.0208333333333333
144
0.0
144
0.0
144
0.0
144
0.0
144
0.0208333333333333
144
0.0
144
0.0
144
0.0
144
0.0
144
1.0
144
0.0
144
0.0
144
0.0
144
0.0
144
1.0
147
0.0208333333333333
147
0.0
147
0.0
147
0.0
147
0.0
147
0.0208333333333333
147
0.0
147
0.0
147
0.0
147
0.0
147
1.0
147
0.0
147
0.0
147
0.0
147
0.0
147
1.0
  0
MLEADERSTYLE
  5
67
102
{ACAD_XDICTIONARY
360
107
102
}
102
{ACAD_REACTORS
330
66
102
}
330
66
100
AcDbMLeaderStyle
179
     2
170
     2
171
     1
172
     0
 90
        2
 40
0.0
 41
0.0
173
     1
 91
-1056964608
340
5B
 92
       -2
290
     1
 42
0.09
291
     1
 43
0.36
  3
Standard
 44
0.18
300

342
55
174
     1
178
     6
175
     1
176
     0
 93
-1056964608
 45
0.18
292
     0
297
     0
 46
0.18
 94
-1056964608
 47
1.0
 49
1.0
140
1.0
293
     1
141
0.0
294
     1
177
     0
142
1.0
295
     0
296
     0
143
0.125
271
     0
272
     9
273
     9
  0
MLINESTYLE
  5
60
102
{ACAD_REACTORS
330
5F
102
}
330
5F
100
AcDbMlineStyle
  2
STANDARD
 70
     0
  3

 62
   256
 51
90.0
 52
90.0
 71
     2
 49
0.5
 62
   256
  6
BYLAYER
 49
-0.5
 62
   256
  6
BYLAYER
  0
ACDBPLACEHOLDER
  5
F
102
{ACAD_REACTORS
330
E
102
}
330
E
  0
SCALE
  5
43
102
{ACAD_REACTORS
330
42
102
}
330
42
100
AcDbScale
 70
     0
300
1:1
140
1.0
141
1.0
290
     1
  0
SCALE
  5
44
102
{ACAD_REACTORS
330
42
102
}
330
42
100
AcDbScale
 70
     0
300
1/128" = 1'-0"
140
0.0078125
141
12.0
290
     0
  0
SCALE
  5
45
102
{ACAD_REACTORS
330
42
102
}
330
42
100
AcDbScale
 70
     0
300
1/64" = 1'-0"
140
0.015625
141
12.0
290
     0
  0
SCALE
  5
46
102
{ACAD_REACTORS
330
42
102
}
330
42
100
AcDbScale
 70
     0
300
1/32" = 1'-0"
140
0.03125
141
12.0
290
     0
  0
SCALE
  5
47
102
{ACAD_REACTORS
330
42
102
}
330
42
100
AcDbScale
 70
     0
300
1/16" = 1'-0"
140
0.0625
141
12.0
290
     0
  0
SCALE
  5
48
102
{ACAD_REACTORS
330
42
102
}
330
42
100
AcDbScale
 70
     0
300
3/32" = 1'-0"
140
0.09375
141
12.0
290
     0
  0
SCALE
  5
49
102
{ACAD_REACTORS
330
42
102
}
330
42
100
AcDbScale
 70
     0
300
1/8" = 1'-0"
140
0.125
141
12.0
290
     0
  0
SCALE
  5
4A
102
{ACAD_REACTORS
330
42
102
}
330
42
100
AcDbScale
 70
     0
300
3/16" = 1'-0"
140
0.1875
141
12.0
290
     0
  0
SCALE
  5
4B
102
{ACAD_REACTORS
330
42
102
}
330
42
100
AcDbScale
 70
     0
300
1/4" = 1'-0"
140
0.25
141
12.0
290
     0
  0
SCALE
  5
4C
102
{ACAD_REACTORS
330
42
102
}
330
42
100
AcDbScale
 70
     0
300
3/8" = 1'-0"
140
0.375
141
12.0
290
     0
  0
SCALE
  5
4D
102
{ACAD_REACTORS
330
42
102
}
330
42
100
AcDbScale
 70
     0
300
1/2" = 1'-0"
140
0.5
141
12.0
290
     0
  0
SCALE
  5
4E
102
{ACAD_REACTORS
330
42
102
}
330
42
100
AcDbScale
 70
     0
300
3/4" = 1'-0"
140
0.75
141
12.0
290
     0
  0
SCALE
  5
4F
102
{ACAD_REACTORS
330
42
102
}
330
42
100
AcDbScale
 70
     0
300
1" = 1'-0"
140
1.0
141
12.0
290
     0
  0
SCALE
  5
50
102
{ACAD_REACTORS
330
42
102
}
330
42
100
AcDbScale
 70
     0
300
1-1/2" = 1'-0"
140
1.5
141
12.0
290
     0
  0
SCALE
  5
51
102
{ACAD_REACTORS
330
42
102
}
330
42
100
AcDbScale
 70
     0
300
3" = 1'-0"
140
3.0
141
12.0
290
     0
  0
SCALE
  5
52
102
{ACAD_REACTORS
330
42
102
}
330
42
100
AcDbScale
 70
     0
300
6" = 1'-0"
140
6.0
141
12.0
290
     0
  0
SCALE
  5
53
102
{ACAD_REACTORS
330
42
102
}
330
42
100
AcDbScale
 70
     0
300
1'-0" = 1'-0"
140
12.0
141
12.0
290
     0
  0
ACDBSECTIONVIEWSTYLE
  5
69
102
{ACAD_XDICTIONARY
360
109
102
}
102
{ACAD_REACTORS
330
68
102
}
330
68
100
AcDbModelDocViewStyle
 70
     0
  3
Imperial24
290
     0
100
AcDbSectionViewStyle
 70
     0
 71
     0
 90
       78
 71
     1
340
55
 62
   256
 40
0.24
340
0
340
0
 62
   256
 40
0.24
300
I, O, Q, S, X, Z
 40
0.48
 90
        3
 40
0.18
 90
        1
 71
     2
340
5D
 90
       25
 62
   256
340
5D
 90
       50
 62
   256
 40
0.24
 40
0.0
 40
0.24
 71
     3
340
55
 62
   256
 40
0.24
 90
        1
 40
0.75
 90
        1
300
%<\AcVar ViewType \f "%tc1">% %<\AcVar ViewSectionStartId>%-%<\AcVar ViewSectionEndId>%\PSCALE %<\AcVar ViewScale \f "%sn">%
 71
     4
 62
   256
 62
   257
300
ANSI31
 40
1.0
 90
        0
290
     0
290
     0
 90
        6
 40
0.0
 40
1.570796326794896
 40
0.2617993877991494
 40
1.308996938995747
 40
-0.2617993877991494
 40
1.832595714594046
  0
TABLESTYLE
  5
65
102
{ACAD_XDICTIONARY
360
D4
102
}
102
{ACAD_REACTORS
330
64
102
}
330
64
100
AcDbTableStyle
280
     0
  3
Standard
 70
     0
 71
     0
 40
0.06
 41
0.06
280
     0
281
     0
  7
Standard
140
0.18
170
     2
 62
     0
 63
     7
283
     0
 90
      512
 91
        0
  1

274
    -2
284
     1
 64
     0
275
    -2
285
     1
 65
     0
276
    -2
286
     1
 66
     0
277
    -2
287
     1
 67
     0
278
    -2
288
     1
 68
     0
279
    -2
289
     1
 69
     0
  7
Standard
140
0.25
170
     5
 62
     0
 63
     7
283
     0
 90
      512
 91
        0
  1

274
    -2
284
     1
 64
     0
275
    -2
285
     1
 65
     0
276
    -2
286
     1
 66
     0
277
    -2
287
     1
 67
     0
278
    -2
288
     1
 68
     0
279
    -2
289
     1
 69
     0
  7
Standard
140
0.18
170
     5
 62
     0
 63
     7
283
     0
 90
      512
 91
        0
  1

274
    -2
284
     1
 64
     0
275
    -2
285
     1
 65
     0
276
    -2
286
     1
 66
     0
277
    -2
287
     1
 67
     0
278
    -2
288
     1
 68
     0
279
    -2
289
     1
 69
     0
  0
VISUALSTYLE
  5
2F
102
{ACAD_XDICTIONARY
360
E1
102
}
102
{ACAD_REACTORS
330
29
102
}
330
29
100
AcDbVisualStyle
  2
2dWireframe
 70
     4
177
     2
291
     0
 71
     0
176
     1
 72
     2
176
     1
 73
     0
176
     1
 90
        0
176
     1
 40
0.6
176
     1
 41
30.0
176
     1
 63
     7
421
 16777215
176
     1
 74
     1
176
     1
 91
        4
176
     1
 64
     7
176
     1
 65
   257
176
     1
 75
     1
176
     1
175
     1
176
     1
 42
1.0
176
     1
 92
        0
176
     1
 66
   257
176
     1
 43
1.0
176
     1
 76
     1
176
     1
 77
     6
176
     1
 78
     2
176
     1
 67
     7
176
     1
 79
     5
176
     1
170
     0
176
     1
171
     0
176
     1
290
     0
176
     1
 93
        1
176
     1
 44
0.0
176
     1
173
     0
176
     1
1001
ACAD
1000
AcDbSavedByObjectVersion
1070
     0
  0
VISUALSTYLE
  5
2E
102
{ACAD_XDICTIONARY
360
DF
102
}
102
{ACAD_REACTORS
330
29
102
}
330
29
100
AcDbVisualStyle
  2
Basic
 70
     7
177
     2
291
     1
 71
     1
176
     1
 72
     0
176
     1
 73
     1
176
     1
 90
        0
176
     1
 40
0.6
176
     1
 41
30.0
176
     1
 63
     7
421
 16777215
176
     1
 74
     0
176
     1
 91
        4
176
     1
 64
     7
176
     1
 65
   257
176
     1
 75
     1
176
     1
175
     1
176
     1
 42
1.0
176
     1
 92
        8
176
     1
 66
     7
176
     1
 43
1.0
176
     1
 76
     1
176
     1
 77
     6
176
     1
 78
     2
176
     1
 67
     7
176
     1
 79
     5
176
     1
170
     0
176
     1
171
     0
176
     1
290
     0
176
     1
 93
        1
176
     1
 44
0.0
176
     1
173
     0
176
     1
1001
ACAD
1000
AcDbSavedByObjectVersion
1070
     0
  0
VISUALSTYLE
  5
35
102
{ACAD_XDICTIONARY
360
ED
102
}
102
{ACAD_REACTORS
330
29
102
}
330
29
100
AcDbVisualStyle
  2
Brighten
 70
    12
177
     2
291
     1
 71
     2
176
     1
 72
     2
176
     1
 73
     0
176
     1
 90
        0
176
     1
 40
0.6
176
     1
 41
30.0
176
     1
 63
     7
421
 16777215
176
     1
 74
     1
176
     1
 91
        4
176
     1
 64
     7
176
     1
 65
   257
176
     1
 75
     1
176
     1
175
     1
176
     1
 42
1.0
176
     1
 92
        8
176
     1
 66
     7
176
     1
 43
1.0
176
     1
 76
     1
176
     1
 77
     6
176
     1
 78
     2
176
     1
 67
     7
176
     1
 79
     5
176
     1
170
     0
176
     1
171
     0
176
     1
290
     0
176
     1
 93
        1
176
     1
 44
50.0
176
     1
173
     0
176
     1
1001
ACAD
1000
AcDbSavedByObjectVersion
1070
     0
  0
VISUALSTYLE
  5
39
102
{ACAD_XDICTIONARY
360
F5
102
}
102
{ACAD_REACTORS
330
29
102
}
330
29
100
AcDbVisualStyle
  2
ColorChange
 70
    16
177
     2
291
     1
 71
     2
176
     1
 72
     2
176
     1
 73
     3
176
     1
 90
        0
176
     1
 40
0.6
176
     1
 41
30.0
176
     1
 63
     8
421
  8421504
176
     1
 74
     1
176
     1
 91
        4
176
     1
 64
     7
176
     1
 65
   257
176
     1
 75
     1
176
     1
175
     1
176
     1
 42
1.0
176
     1
 92
        8
176
     1
 66
     8
424
  8421504
176
     1
 43
1.0
176
     1
 76
     1
176
     1
 77
     6
176
     1
 78
     2
176
     1
 67
     7
176
     1
 79
     5
176
     1
170
     0
176
     1
171
     0
176
     1
290
     0
176
     1
 93
        1
176
     1
 44
0.0
176
     1
173
     0
176
     1
1001
ACAD
1000
AcDbSavedByObjectVersion
1070
     0
  0
VISUALSTYLE
  5
32
102
{ACAD_XDICTIONARY
360
E7
102
}
102
{ACAD_REACTORS
330
29
102
}
330
29
100
AcDbVisualStyle
  2
Conceptual
 70
     9
177
     2
291
     0
 71
     3
176
     1
 72
     2
176
     1
 73
     0
176
     1
 90
        0
176
     1
 40
0.6
176
     1
 41
30.0
176
     1
 63
     7
421
 16777215
176
     1
 74
     2
176
     1
 91
        2
176
     1
 64
     7
176
     1
 65
   257
176
     1
 75
     1
176
     1
175
     1
176
     1
 42
179.0
176
     1
 92
        8
176
     1
 66
     7
176
     1
 43
1.0
176
     1
 76
     1
176
     1
 77
     6
176
     1
 78
     2
176
     1
 67
     7
176
     1
 79
     3
176
     1
170
     0
176
     1
171
     0
176
     1
290
     0
176
     1
 93
        1
176
     1
 44
0.0
176
     1
173
     0
176
     1
1001
ACAD
1000
AcDbSavedByObjectVersion
1070
     0
  0
VISUALSTYLE
  5
34
102
{ACAD_XDICTIONARY
360
EB
102
}
102
{ACAD_REACTORS
330
29
102
}
330
29
100
AcDbVisualStyle
  2
Dim
 70
    11
177
     2
291
     1
 71
     2
176
     1
 72
     2
176
     1
 73
     0
176
     1
 90
        0
176
     1
 40
0.6
176
     1
 41
30.0
176
     1
 63
     7
421
 16777215
176
     1
 74
     1
176
     1
 91
        4
176
     1
 64
     7
176
     1
 65
   257
176
     1
 75
     1
176
     1
175
     1
176
     1
 42
1.0
176
     1
 92
        8
176
     1
 66
     7
176
     1
 43
1.0
176
     1
 76
     1
176
     1
 77
     6
176
     1
 78
     2
176
     1
 67
     7
176
     1
 79
     5
176
     1
170
     0
176
     1
171
     0
176
     1
290
     0
176
     1
 93
        1
176
     1
 44
-50.0
176
     1
173
     0
176
     1
1001
ACAD
1000
AcDbSavedByObjectVersion
1070
     0
  0
VISUALSTYLE
  5
41
102
{ACAD_XDICTIONARY
360
105
102
}
102
{ACAD_REACTORS
330
29
102
}
330
29
100
AcDbVisualStyle
  2
EdgeColorOff
 70
    22
177
     2
291
     1
 71
     2
176
     0
 72
     2
176
     0
 73
     0
176
     0
 90
        0
176
     0
 40
0.6
176
     0
 41
30.0
176
     0
 63
     7
421
 16777215
176
     0
 74
     1
176
     0
 91
        4
176
     0
 64
     7
176
     0
 65
   257
176
     0
 75
     1
176
     0
175
     1
176
     0
 42
1.0
176
     0
 92
        8
176
     2
 66
     7
176
     0
 43
1.0
176
     0
 76
     1
176
     0
 77
     6
176
     0
 78
     2
176
     0
 67
     7
176
     0
 79
     5
176
     0
170
     0
176
     0
171
     0
176
     0
290
     0
176
     0
 93
        1
176
     0
 44
0.0
176
     0
173
     0
176
     0
1001
ACAD
1000
AcDbSavedByObjectVersion
1070
     0
  0
VISUALSTYLE
  5
38
102
{ACAD_XDICTIONARY
360
F3
102
}
102
{ACAD_REACTORS
330
29
102
}
330
29
100
AcDbVisualStyle
  2
Facepattern
 70
    15
177
     2
291
     1
 71
     2
176
     1
 72
     2
176
     1
 73
     0
176
     1
 90
        0
176
     1
 40
0.6
176
     1
 41
30.0
176
     1
 63
     7
421
 16777215
176
     1
 74
     1
176
     1
 91
        4
176
     1
 64
     7
176
     1
 65
   257
176
     1
 75
     1
176
     1
175
     1
176
     1
 42
1.0
176
     1
 92
        8
176
     1
 66
     7
176
     1
 43
1.0
176
     1
 76
     1
176
     1
 77
     6
176
     1
 78
     2
176
     1
 67
     7
176
     1
 79
     5
176
     1
170
     0
176
     1
171
     0
176
     1
290
     0
176
     1
 93
        1
176
     1
 44
0.0
176
     1
173
     0
176
     1
1001
ACAD
1000
AcDbSavedByObjectVersion
1070
     0
  0
VISUALSTYLE
  5
2A
102
{ACAD_XDICTIONARY
360
D7
102
}
102
{ACAD_REACTORS
330
29
102
}
330
29
100
AcDbVisualStyle
  2
Flat
 70
     0
177
     2
291
     1
 71
     2
176
     1
 72
     1
176
     1
 73
     1
176
     1
 90
        2
176
     1
 40
0.6
176
     1
 41
30.0
176
     1
 63
     7
421
 16777215
176
     1
 74
     0
176
     1
 91
        0
176
     1
 64
     7
176
     1
 65
   257
176
     1
 75
     1
176
     1
175
     1
176
     1
 42
1.0
176
     1
 92
        8
176
     1
 66
     7
176
     1
 43
1.0
176
     1
 76
     1
176
     1
 77
     6
176
     1
 78
     2
176
     1
 67
     7
176
     1
 79
     5
176
     1
170
     0
176
     1
171
     0
176
     1
290
     0
176
     1
 93
       13
176
     1
 44
0.0
176
     1
173
     0
176
     1
1001
ACAD
1000
AcDbSavedByObjectVersion
1070
     0
  0
VISUALSTYLE
  5
2B
102
{ACAD_XDICTIONARY
360
D9
102
}
102
{ACAD_REACTORS
330
29
102
}
330
29
100
AcDbVisualStyle
  2
FlatWithEdges
 70
     1
177
     2
291
     1
 71
     2
176
     1
 72
     1
176
     1
 73
     1
176
     1
 90
        2
176
     1
 40
0.6
176
     1
 41
30.0
176
     1
 63
     7
421
 16777215
176
     1
 74
     1
176
     1
 91
        0
176
     1
 64
     7
176
     1
 65
   257
176
     1
 75
     1
176
     1
175
     1
176
     1
 42
1.0
176
     1
 92
        0
176
     1
 66
   257
176
     1
 43
1.0
176
     1
 76
     1
176
     1
 77
     6
176
     1
 78
     2
176
     1
 67
     7
176
     1
 79
     5
176
     1
170
     0
176
     1
171
     0
176
     1
290
     0
176
     1
 93
       13
176
     1
 44
0.0
176
     1
173
     0
176
     1
1001
ACAD
1000
AcDbSavedByObjectVersion
1070
     0
  0
VISUALSTYLE
  5
2C
102
{ACAD_XDICTIONARY
360
DB
102
}
102
{ACAD_REACTORS
330
29
102
}
330
29
100
AcDbVisualStyle
  2
Gouraud
 70
     2
177
     2
291
     1
 71
     2
176
     1
 72
     2
176
     1
 73
     1
176
     1
 90
        2
176
     1
 40
0.6
176
     1
 41
30.0
176
     1
 63
     7
421
 16777215
176
     1
 74
     0
176
     1
 91
        0
176
     1
 64
     7
176
     1
 65
   257
176
     1
 75
     1
176
     1
175
     1
176
     1
 42
1.0
176
     1
 92
        0
176
     1
 66
     7
176
     1
 43
1.0
176
     1
 76
     1
176
     1
 77
     6
176
     1
 78
     2
176
     1
 67
     7
176
     1
 79
     5
176
     1
170
     0
176
     1
171
     0
176
     1
290
     0
176
     1
 93
       13
176
     1
 44
0.0
176
     1
173
     0
176
     1
1001
ACAD
1000
AcDbSavedByObjectVersion
1070
     0
  0
VISUALSTYLE
  5
2D
102
{ACAD_XDICTIONARY
360
DD
102
}
102
{ACAD_REACTORS
330
29
102
}
330
29
100
AcDbVisualStyle
  2
GouraudWithEdges
 70
     3
177
     2
291
     1
 71
     2
176
     1
 72
     2
176
     1
 73
     1
176
     1
 90
        2
176
     1
 40
0.6
176
     1
 41
30.0
176
     1
 63
     7
421
 16777215
176
     1
 74
     1
176
     1
 91
        0
176
     1
 64
     7
176
     1
 65
   257
176
     1
 75
     1
176
     1
175
     1
176
     1
 42
1.0
176
     1
 92
        0
176
     1
 66
   257
176
     1
 43
1.0
176
     1
 76
     1
176
     1
 77
     6
176
     1
 78
     2
176
     1
 67
     7
176
     1
 79
     5
176
     1
170
     0
176
     1
171
     0
176
     1
290
     0
176
     1
 93
       13
176
     1
 44
0.0
176
     1
173
     0
176
     1
1001
ACAD
1000
AcDbSavedByObjectVersion
1070
     0
  0
VISUALSTYLE
  5
31
102
{ACAD_XDICTIONARY
360
E5
102
}
102
{ACAD_REACTORS
330
29
102
}
330
29
100
AcDbVisualStyle
  2
Hidden
 70
     6
177
     2
291
     0
 71
     1
176
     1
 72
     2
176
     1
 73
     2
176
     1
 90
        0
176
     1
 40
0.6
176
     1
 41
30.0
176
     1
 63
     7
421
 16777215
176
     1
 74
     2
176
     1
 91
        2
176
     1
 64
     7
176
     1
 65
   257
176
     1
 75
     2
176
     1
175
     1
176
     1
 42
40.0
176
     1
 92
        0
176
     1
 66
   257
176
     1
 43
1.0
176
     1
 76
     1
176
     1
 77
     6
176
     1
 78
     2
176
     1
 67
     7
176
     1
 79
     3
176
     1
170
     0
176
     1
171
     0
176
     1
290
     0
176
     1
 93
        1
176
     1
 44
0.0
176
     1
173
     0
176
     1
1001
ACAD
1000
AcDbSavedByObjectVersion
1070
     0
  0
VISUALSTYLE
  5
3F
102
{ACAD_XDICTIONARY
360
101
102
}
102
{ACAD_REACTORS
330
29
102
}
330
29
100
AcDbVisualStyle
  2
JitterOff
 70
    20
177
     2
291
     1
 71
     2
176
     0
 72
     2
176
     0
 73
     0
176
     0
 90
        0
176
     0
 40
0.6
176
     0
 41
30.0
176
     0
 63
     7
421
 16777215
176
     0
 74
     1
176
     0
 91
        4
176
     0
 64
     7
176
     0
 65
   257
176
     0
 75
     1
176
     0
175
     1
176
     0
 42
1.0
176
     0
 92
       10
176
     2
 66
     7
176
     0
 43
1.0
176
     0
 76
     1
176
     0
 77
     6
176
     0
 78
     2
176
     0
 67
     7
176
     0
 79
     5
176
     0
170
     0
176
     0
171
     0
176
     0
290
     0
176
     0
 93
        1
176
     0
 44
0.0
176
     0
173
     0
176
     0
1001
ACAD
1000
AcDbSavedByObjectVersion
1070
     0
  0
VISUALSTYLE
  5
37
102
{ACAD_XDICTIONARY
360
F1
102
}
102
{ACAD_REACTORS
330
29
102
}
330
29
100
AcDbVisualStyle
  2
Linepattern
 70
    14
177
     2
291
     1
 71
     2
176
     1
 72
     2
176
     1
 73
     0
176
     1
 90
        0
176
     1
 40
0.6
176
     1
 41
30.0
176
     1
 63
     7
421
 16777215
176
     1
 74
     1
176
     1
 91
        4
176
     1
 64
     7
176
     1
 65
   257
176
     1
 75
     7
176
     1
175
     7
176
     1
 42
1.0
176
     1
 92
        8
176
     1
 66
     7
176
     1
 43
1.0
176
     1
 76
     1
176
     1
 77
     6
176
     1
 78
     2
176
     1
 67
     7
176
     1
 79
     5
176
     1
170
     0
176
     1
171
     0
176
     1
290
     0
176
     1
 93
        1
176
     1
 44
0.0
176
     1
173
     0
176
     1
1001
ACAD
1000
AcDbSavedByObjectVersion
1070
     0
  0
VISUALSTYLE
  5
40
102
{ACAD_XDICTIONARY
360
103
102
}
102
{ACAD_REACTORS
330
29
102
}
330
29
100
AcDbVisualStyle
  2
OverhangOff
 70
    21
177
     2
291
     1
 71
     2
176
     0
 72
     2
176
     0
 73
     0
176
     0
 90
        0
176
     0
 40
0.6
176
     0
 41
30.0
176
     0
 63
     7
421
 16777215
176
     0
 74
     1
176
     0
 91
        4
176
     0
 64
     7
176
     0
 65
   257
176
     0
 75
     1
176
     0
175
     1
176
     0
 42
1.0
176
     0
 92
        9
176
     2
 66
     7
176
     0
 43
1.0
176
     0
 76
     1
176
     0
 77
     6
176
     0
 78
     2
176
     0
 67
     7
176
     0
 79
     5
176
     0
170
     0
176
     0
171
     0
176
     0
290
     0
176
     0
 93
        1
176
     0
 44
0.0
176
     0
173
     0
176
     0
1001
ACAD
1000
AcDbSavedByObjectVersion
1070
     0
  0
VISUALSTYLE
  5
33
102
{ACAD_XDICTIONARY
360
E9
102
}
102
{ACAD_REACTORS
330
29
102
}
330
29
100
AcDbVisualStyle
  2
Realistic
 70
     8
177
     2
291
     0
 71
     2
176
     1
 72
     3
176
     1
 73
     0
176
     1
 90
        2
176
     1
 40
0.6
176
     1
 41
30.0
176
     1
 63
     7
421
 16777215
176
     1
 74
     0
176
     1
 91
        0
176
     1
 64
     7
176
     1
 65
   257
176
     1
 75
     1
176
     1
175
     1
176
     1
 42
1.0
176
     1
 92
        8
176
     1
 66
   257
176
     1
 43
1.0
176
     1
 76
     1
176
     1
 77
     6
176
     1
 78
     2
176
     1
 67
     7
176
     1
 79
     3
176
     1
170
     0
176
     1
171
     0
176
     1
290
     0
176
     1
 93
       13
176
     1
 44
0.0
176
     1
173
     0
176
     1
1001
ACAD
1000
AcDbSavedByObjectVersion
1070
     0
  0
VISUALSTYLE
  5
3E
102
{ACAD_XDICTIONARY
360
FF
102
}
102
{ACAD_REACTORS
330
29
102
}
330
29
100
AcDbVisualStyle
  2
Shaded
 70
    27
177
     2
291
     0
 71
     2
176
     1
 72
     2
176
     1
 73
     1
176
     1
 90
        2
176
     1
 40
0.6
176
     1
 41
30.0
176
     1
 63
     7
421
 16777215
176
     1
 74
     0
176
     1
 91
        4
176
     1
 64
     7
176
     1
 65
   257
176
     1
 75
     1
176
     1
175
     1
176
     1
 42
1.0
176
     1
 92
        8
176
     1
 66
   257
176
     1
 43
1.0
176
     1
 76
     1
176
     1
 77
     6
176
     1
 78
     2
176
     1
 67
     8
425
  7895160
176
     1
 79
     3
176
     1
170
     0
176
     1
171
     0
176
     1
290
     0
176
     1
 93
        5
176
     1
 44
0.0
176
     1
173
     0
176
     1
1001
ACAD
1000
AcDbSavedByObjectVersion
1070
     0
  0
VISUALSTYLE
  5
3D
102
{ACAD_XDICTIONARY
360
FD
102
}
102
{ACAD_REACTORS
330
29
102
}
330
29
100
AcDbVisualStyle
  2
Shaded with edges
 70
    26
177
     2
291
     0
 71
     2
176
     1
 72
     2
176
     1
 73
     1
176
     1
 90
        2
176
     1
 40
0.6
176
     1
 41
30.0
176
     1
 63
     7
421
 16777215
176
     1
 74
     1
176
     1
 91
        2
176
     1
 64
     7
176
     1
 65
   257
176
     1
 75
     2
176
     1
175
     1
176
     1
 42
1.0
176
     1
 92
        8
176
     1
 66
   257
176
     1
 43
1.0
176
     1
 76
     1
176
     1
 77
     6
176
     1
 78
     2
176
     1
 67
     7
176
     1
 79
     3
176
     1
170
     0
176
     1
171
     0
176
     1
290
     0
176
     1
 93
        5
176
     1
 44
0.0
176
     1
173
     0
176
     1
1001
ACAD
1000
AcDbSavedByObjectVersion
1070
     0
  0
VISUALSTYLE
  5
3A
102
{ACAD_XDICTIONARY
360
F7
102
}
102
{ACAD_REACTORS
330
29
102
}
330
29
100
AcDbVisualStyle
  2
Shades of Gray
 70
    23
177
     2
291
     0
 71
     2
176
     1
 72
     2
176
     1
 73
     3
176
     1
 90
        0
176
     1
 40
0.6
176
     1
 41
30.0
176
     1
 63
     7
421
 16777215
176
     1
 74
     2
176
     1
 91
        2
176
     1
 64
     7
176
     1
 65
     7
176
     1
 75
     1
176
     1
175
     1
176
     1
 42
40.0
176
     1
 92
        8
176
     1
 66
     7
176
     1
 43
1.0
176
     1
 76
     1
176
     1
 77
     6
176
     1
 78
     2
176
     1
 67
     7
176
     1
 79
     3
176
     1
170
     0
176
     1
171
     0
176
     1
290
     0
176
     1
 93
        1
176
     1
 44
0.0
176
     1
173
     0
176
     1
1001
ACAD
1000
AcDbSavedByObjectVersion
1070
     0
  0
VISUALSTYLE
  5
3B
102
{ACAD_XDICTIONARY
360
F9
102
}
102
{ACAD_REACTORS
330
29
102
}
330
29
100
AcDbVisualStyle
  2
Sketchy
 70
    24
177
     2
291
     0
 71
     1
176
     1
 72
     2
176
     1
 73
     2
176
     1
 90
        0
176
     1
 40
0.6
176
     1
 41
30.0
176
     1
 63
     7
421
 16777215
176
     1
 74
     2
176
     1
 91
        2
176
     1
 64
     7
176
     1
 65
     7
176
     1
 75
     1
176
     1
175
     1
176
     1
 42
40.0
176
     1
 92
       11
176
     1
 66
     7
176
     1
 43
1.0
176
     1
 76
     1
176
     1
 77
     6
176
     1
 78
     2
176
     1
 67
     7
176
     1
 79
     6
176
     1
170
     0
176
     1
171
     0
176
     1
290
     0
176
     1
 93
        1
176
     1
 44
0.0
176
     1
173
     0
176
     1
1001
ACAD
1000
AcDbSavedByObjectVersion
1070
     0
  0
VISUALSTYLE
  5
36
102
{ACAD_XDICTIONARY
360
EF
102
}
102
{ACAD_REACTORS
330
29
102
}
330
29
100
AcDbVisualStyle
  2
Thicken
 70
    13
177
     2
291
     1
 71
     2
176
     1
 72
     2
176
     1
 73
     0
176
     1
 90
        0
176
     1
 40
0.6
176
     1
 41
30.0
176
     1
 63
     7
421
 16777215
176
     1
 74
     1
176
     1
 91
        4
176
     1
 64
     7
176
     1
 65
   257
176
     1
 75
     1
176
     1
175
     1
176
     1
 42
1.0
176
     1
 92
       12
176
     1
 66
     7
176
     1
 43
1.0
176
     1
 76
     1
176
     1
 77
     6
176
     1
 78
     2
176
     1
 67
     7
176
     1
 79
     5
176
     1
170
     0
176
     1
171
     0
176
     1
290
     0
176
     1
 93
        1
176
     1
 44
0.0
176
     1
173
     0
176
     1
1001
ACAD
1000
AcDbSavedByObjectVersion
1070
     0
  0
VISUALSTYLE
  5
30
102
{ACAD_XDICTIONARY
360
E3
102
}
102
{ACAD_REACTORS
330
29
102
}
330
29
100
AcDbVisualStyle
  2
Wireframe
 70
     5
177
     2
291
     0
 71
     0
176
     1
 72
     2
176
     1
 73
     0
176
     1
 90
        0
176
     1
 40
0.6
176
     1
 41
30.0
176
     1
 63
     7
421
 16777215
176
     1
 74
     1
176
     1
 91
        4
176
     1
 64
     7
176
     1
 65
   257
176
     1
 75
     1
176
     1
175
     1
176
     1
 42
1.0
176
     1
 92
        0
176
     1
 66
   257
176
     1
 43
1.0
176
     1
 76
     1
176
     1
 77
     6
176
     1
 78
     2
176
     1
 67
     7
176
     1
 79
     3
176
     1
170
     0
176
     1
171
     0
176
     1
290
     0
176
     1
 93
        1
176
     1
 44
0.0
176
     1
173
     0
176
     1
1001
ACAD
1000
AcDbSavedByObjectVersion
1070
     0
  0
VISUALSTYLE
  5
3C
102
{ACAD_XDICTIONARY
360
FB
102
}
102
{ACAD_REACTORS
330
29
102
}
330
29
100
AcDbVisualStyle
  2
X-Ray
 70
    25
177
     2
291
     0
 71
     2
176
     1
 72
     2
176
     1
 73
     1
176
     1
 90
        1
176
     1
 40
0.5
176
     1
 41
30.0
176
     1
 63
     7
421
 16777215
176
     1
 74
     1
176
     1
 91
        0
176
     1
 64
     7
176
     1
 65
   257
176
     1
 75
     1
176
     1
175
     1
176
     1
 42
1.0
176
     1
 92
        8
176
     1
 66
     7
176
     1
 43
1.0
176
     1
 76
     1
176
     1
 77
     6
176
     1
 78
     2
176
     1
 67
     7
176
     1
 79
     3
176
     1
170
     0
176
     1
171
     0
176
     1
290
     0
176
     1
 93
       13
176
     1
 44
0.0
176
     1
173
     0
176
     1
1001
ACAD
1000
AcDbSavedByObjectVersion
1070
     0
  0
DICTIONARYVAR
  5
D3
102
{ACAD_REACTORS
330
CE
102
}
330
CE
100
DictionaryVariables
280
     0
  1
1:1
  0
DICTIONARYVAR
  5
D0
102
{ACAD_REACTORS
330
CE
102
}
330
CE
100
DictionaryVariables
280
     0
  1
STANDARD
  0
DICTIONARYVAR
  5
CF
102
{ACAD_REACTORS
330
CE
102
}
330
CE
100
DictionaryVariables
280
     0
  1
STANDARD
  0
DICTIONARYVAR
  5
D1
102
{ACAD_REACTORS
330
CE
102
}
330
CE
100
DictionaryVariables
280
     0
  1
Imperial24
  0
DICTIONARYVAR
  5
D2
102
{ACAD_REACTORS
330
CE
102
}
330
CE
100
DictionaryVariables
280
     0
  1
Imperial24
  0
DICTIONARY
  5
10B
330
6B
100
AcDbDictionary
280
     1
281
     1
  3
ACAD_XREC_ROUNDTRIP
360
10C
  0
DICTIONARY
  5
1A
330
19
100
AcDbDictionary
280
     1
281
     1
  3
BUMPTILE
360
1C
  3
DIFFUSETILE
360
1B
  3
OPACITYTILE
360
1F
  3
REFLECTIONTILE
360
1E
  3
REFRACTIONTILE
360
20
  3
SPECULARTILE
360
1D
  0
DICTIONARY
  5
12
330
11
100
AcDbDictionary
280
     1
281
     1
  3
BUMPTILE
360
14
  3
DIFFUSETILE
360
13
  3
OPACITYTILE
360
17
  3
REFLECTIONTILE
360
16
  3
REFRACTIONTILE
360
18
  3
SPECULARTILE
360
15
  0
DICTIONARY
  5
22
330
21
100
AcDbDictionary
280
     1
281
     1
  3
BUMPTILE
360
24
  3
DIFFUSETILE
360
23
  3
OPACITYTILE
360
27
  3
REFLECTIONTILE
360
26
  3
REFRACTIONTILE
360
28
  3
SPECULARTILE
360
25
  0
DICTIONARY
  5
107
330
67
100
AcDbDictionary
280
     1
281
     1
  3
ACAD_XREC_ROUNDTRIP
360
108
  0
DICTIONARY
  5
109
330
69
100
AcDbDictionary
280
     1
281
     1
  3
ACAD_XREC_ROUNDTRIP
360
10A
  0
DICTIONARY
  5
D4
330
65
100
AcDbDictionary
280
     1
281
     1
  3
ACAD_ROUNDTRIP_2008_TABLESTYLE_CELLSTYLEMAP
360
D5
  0
DICTIONARY
  5
E1
330
2F
100
AcDbDictionary
280
     1
281
     1
  3
ACAD_XREC_ROUNDTRIP
360
E2
  0
DICTIONARY
  5
DF
330
2E
100
AcDbDictionary
280
     1
281
     1
  3
ACAD_XREC_ROUNDTRIP
360
E0
  0
DICTIONARY
  5
ED
330
35
100
AcDbDictionary
280
     1
281
     1
  3
ACAD_XREC_ROUNDTRIP
360
EE
  0
DICTIONARY
  5
F5
330
39
100
AcDbDictionary
280
     1
281
     1
  3
ACAD_XREC_ROUNDTRIP
360
F6
  0
DICTIONARY
  5
E7
330
32
100
AcDbDictionary
280
     1
281
     1
  3
ACAD_XREC_ROUNDTRIP
360
E8
  0
DICTIONARY
  5
EB
330
34
100
AcDbDictionary
280
     1
281
     1
  3
ACAD_XREC_ROUNDTRIP
360
EC
  0
DICTIONARY
  5
105
330
41
100
AcDbDictionary
280
     1
281
     1
  3
ACAD_XREC_ROUNDTRIP
360
106
  0
DICTIONARY
  5
F3
330
38
100
AcDbDictionary
280
     1
281
     1
  3
ACAD_XREC_ROUNDTRIP
360
F4
  0
DICTIONARY
  5
D7
330
2A
100
AcDbDictionary
280
     1
281
     1
  3
ACAD_XREC_ROUNDTRIP
360
D8
  0
DICTIONARY
  5
D9
330
2B
100
AcDbDictionary
280
     1
281
     1
  3
ACAD_XREC_ROUNDTRIP
360
DA
  0
DICTIONARY
  5
DB
330
2C
100
AcDbDictionary
280
     1
281
     1
  3
ACAD_XREC_ROUNDTRIP
360
DC
  0
DICTIONARY
  5
DD
330
2D
100
AcDbDictionary
280
     1
281
     1
  3
ACAD_XREC_ROUNDTRIP
360
DE
  0
DICTIONARY
  5
E5
330
31
100
AcDbDictionary
280
     1
281
     1
  3
ACAD_XREC_ROUNDTRIP
360
E6
  0
DICTIONARY
  5
101
330
3F
100
AcDbDictionary
280
     1
281
     1
  3
ACAD_XREC_ROUNDTRIP
360
102
  0
DICTIONARY
  5
F1
330
37
100
AcDbDictionary
280
     1
281
     1
  3
ACAD_XREC_ROUNDTRIP
360
F2
  0
DICTIONARY
  5
103
330
40
100
AcDbDictionary
280
     1
281
     1
  3
ACAD_XREC_ROUNDTRIP
360
104
  0
DICTIONARY
  5
E9
330
33
100
AcDbDictionary
280
     1
281
     1
  3
ACAD_XREC_ROUNDTRIP
360
EA
  0
DICTIONARY
  5
FF
330
3E
100
AcDbDictionary
280
     1
281
     1
  3
ACAD_XREC_ROUNDTRIP
360
100
  0
DICTIONARY
  5
FD
330
3D
100
AcDbDictionary
280
     1
281
     1
  3
ACAD_XREC_ROUNDTRIP
360
FE
  0
DICTIONARY
  5
F7
330
3A
100
AcDbDictionary
280
     1
281
     1
  3
ACAD_XREC_ROUNDTRIP
360
F8
  0
DICTIONARY
  5
F9
330
3B
100
AcDbDictionary
280
     1
281
     1
  3
ACAD_XREC_ROUNDTRIP
360
FA
  0
DICTIONARY
  5
EF
330
36
100
AcDbDictionary
280
     1
281
     1
  3
ACAD_XREC_ROUNDTRIP
360
F0
  0
DICTIONARY
  5
E3
330
30
100
AcDbDictionary
280
     1
281
     1
  3
ACAD_XREC_ROUNDTRIP
360
E4
  0
DICTIONARY
  5
FB
330
3C
100
AcDbDictionary
280
     1
281
     1
  3
ACAD_XREC_ROUNDTRIP
360
FC
  0
XRECORD
  5
10C
102
{ACAD_REACTORS
330
10B
102
}
330
10B
100
AcDbXrecord
280
     1
102
DISPLAYNAME
  1
Imperial24
102
FLAGS
 90
        0
  0
XRECORD
  5
1C
102
{ACAD_REACTORS
330
1A
102
}
330
1A
100
AcDbXrecord
280
     1
270
     1
271
     1
  0
XRECORD
  5
1B
102
{ACAD_REACTORS
330
1A
102
}
330
1A
100
AcDbXrecord
280
     1
270
     1
271
     1
  0
XRECORD
  5
1F
102
{ACAD_REACTORS
330
1A
102
}
330
1A
100
AcDbXrecord
280
     1
270
     1
271
     1
  0
XRECORD
  5
1E
102
{ACAD_REACTORS
330
1A
102
}
330
1A
100
AcDbXrecord
280
     1
270
     1
271
     1
  0
XRECORD
  5
20
102
{ACAD_REACTORS
330
1A
102
}
330
1A
100
AcDbXrecord
280
     1
270
     1
271
     1
  0
XRECORD
  5
1D
102
{ACAD_REACTORS
330
1A
102
}
330
1A
100
AcDbXrecord
280
     1
270
     1
271
     1
  0
XRECORD
  5
14
102
{ACAD_REACTORS
330
12
102
}
330
12
100
AcDbXrecord
280
     1
270
     1
271
     1
  0
XRECORD
  5
13
102
{ACAD_REACTORS
330
12
102
}
330
12
100
AcDbXrecord
280
     1
270
     1
271
     1
  0
XRECORD
  5
17
102
{ACAD_REACTORS
330
12
102
}
330
12
100
AcDbXrecord
280
     1
270
     1
271
     1
  0
XRECORD
  5
16
102
{ACAD_REACTORS
330
12
102
}
330
12
100
AcDbXrecord
280
     1
270
     1
271
     1
  0
XRECORD
  5
18
102
{ACAD_REACTORS
330
12
102
}
330
12
100
AcDbXrecord
280
     1
270
     1
271
     1
  0
XRECORD
  5
15
102
{ACAD_REACTORS
330
12
102
}
330
12
100
AcDbXrecord
280
     1
270
     1
271
     1
  0
XRECORD
  5
24
102
{ACAD_REACTORS
330
22
102
}
330
22
100
AcDbXrecord
280
     1
270
     1
271
     1
  0
XRECORD
  5
23
102
{ACAD_REACTORS
330
22
102
}
330
22
100
AcDbXrecord
280
     1
270
     1
271
     1
  0
XRECORD
  5
27
102
{ACAD_REACTORS
330
22
102
}
330
22
100
AcDbXrecord
280
     1
270
     1
271
     1
  0
XRECORD
  5
26
102
{ACAD_REACTORS
330
22
102
}
330
22
100
AcDbXrecord
280
     1
270
     1
271
     1
  0
XRECORD
  5
28
102
{ACAD_REACTORS
330
22
102
}
330
22
100
AcDbXrecord
280
     1
270
     1
271
     1
  0
XRECORD
  5
25
102
{ACAD_REACTORS
330
22
102
}
330
22
100
AcDbXrecord
280
     1
270
     1
271
     1
  0
XRECORD
  5
108
102
{ACAD_REACTORS
330
107
102
}
330
107
100
AcDbXrecord
280
     1
102
ACAD_ROUNDTRIP_2012_MLEADER_STYLE
298
     1
  0
XRECORD
  5
10A
102
{ACAD_REACTORS
330
109
102
}
330
109
100
AcDbXrecord
280
     1
102
DISPLAYNAME
  1
Imperial24
102
FLAGS
 90
        0
  0
CELLSTYLEMAP
  5
D5
102
{ACAD_REACTORS
330
D4
102
}
330
D4
100
AcDbCellStyleMap
 90
        3
300
CELLSTYLE
  1
TABLEFORMAT_BEGIN
 90
        5
170
     1
 91
        0
 92
    32768
 62
   257
 93
        1
300
CONTENTFORMAT
  1
CONTENTFORMAT_BEGIN
 90
        0
 91
        0
 92
      512
 93
        0
300

 40
0.0
140
1.0
 94
        5
 62
     0
340
55
144
0.25
309
CONTENTFORMAT_END
171
     0
 94
        0
309
TABLEFORMAT_END
  1
CELLSTYLE_BEGIN
 90
        1
 91
        1
300
_TITLE
309
CELLSTYLE_END
300
CELLSTYLE
  1
TABLEFORMAT_BEGIN
 90
        5
170
     1
 91
        0
 92
        0
 62
   257
 93
        1
300
CONTENTFORMAT
  1
CONTENTFORMAT_BEGIN
 90
        0
 91
        0
 92
      512
 93
        0
300

 40
0.0
140
1.0
 94
        5
 62
     0
340
55
144
0.18
309
CONTENTFORMAT_END
171
     0
 94
        0
309
TABLEFORMAT_END
  1
CELLSTYLE_BEGIN
 90
        2
 91
        1
300
_HEADER
309
CELLSTYLE_END
300
CELLSTYLE
  1
TABLEFORMAT_BEGIN
 90
        5
170
     1
 91
        0
 92
        0
 62
   257
 93
        1
300
CONTENTFORMAT
  1
CONTENTFORMAT_BEGIN
 90
        0
 91
        0
 92
      512
 93
        0
300

 40
0.0
140
1.0
 94
        2
 62
     0
340
55
144
0.18
309
CONTENTFORMAT_END
171
     0
 94
        0
309
TABLEFORMAT_END
  1
CELLSTYLE_BEGIN
 90
        3
 91
        2
300
_DATA
309
CELLSTYLE_END
  0
XRECORD
  5
E2
102
{ACAD_REACTORS
330
E1
102
}
330
E1
100
AcDbXrecord
280
     1
102
RTVSPost2010Prop28
280
     1
102
RTVSPost2010PropOp28
 70
     1
102
RTVSPost2010Prop29
280
     1
102
RTVSPost2010PropOp29
 70
     1
102
RTVSPost2010Prop30
280
     0
102
RTVSPost2010PropOp30
 70
     1
102
RTVSPost2010Prop31
280
     0
102
RTVSPost2010PropOp31
 70
     1
102
RTVSPost2010Prop32
280
     0
102
RTVSPost2010PropOp32
 70
     1
102
RTVSPost2010Prop33
280
     0
102
RTVSPost2010PropOp33
 70
     1
102
RTVSPost2010Prop34
280
     0
102
RTVSPost2010PropOp34
 70
     1
102
RTVSPost2010Prop35
280
     0
102
RTVSPost2010PropOp35
 70
     1
102
RTVSPost2010Prop36
280
     0
102
RTVSPost2010PropOp36
 70
     1
102
RTVSPost2010Prop37
 90
       50
102
RTVSPost2010PropOp37
 70
     1
102
RTVSPost2010Prop38
140
0.0
102
RTVSPost2010PropOp38
 70
     1
102
RTVSPost2010Prop39
140
1.0
102
RTVSPost2010PropOp39
 70
     1
102
RTVSPost2010Prop40
 90
        0
102
RTVSPost2010PropOp40
 70
     1
102
RTVSPost2010Prop41ColorIndex
 90
       18
102
RTVSPost2010Prop41ColorRGB
 90
        0
102
RTVSPost2010PropOp41
 70
     1
102
RTVSPost2010Prop42
 90
       50
102
RTVSPost2010PropOp42
 70
     1
102
RTVSPost2010Prop43
 90
        3
102
RTVSPost2010PropOp43
 70
     1
102
RTVSPost2010Prop44ColorIndex
 90
        5
102
RTVSPost2010Prop44ColorRGB
 90
      255
102
RTVSPost2010PropOp44
 70
     1
102
RTVSPost2010Prop45
280
     0
102
RTVSPost2010PropOp45
 70
     1
102
RTVSPost2010Prop46
 90
       50
102
RTVSPost2010PropOp46
 70
     1
102
RTVSPost2010Prop47
 90
       50
102
RTVSPost2010PropOp47
 70
     1
102
RTVSPost2010Prop48
 90
       50
102
RTVSPost2010PropOp48
 70
     1
102
RTVSPost2010Prop49
280
     0
102
RTVSPost2010PropOp49
 70
     1
102
RTVSPost2010Prop50
 90
       50
102
RTVSPost2010PropOp50
 70
     1
102
RTVSPost2010Prop51ColorIndex
 90
      256
102
RTVSPost2010Prop51ColorRGB
 90
-16777216
102
RTVSPost2010PropOp51
 70
     0
102
RTVSPost2010Prop52
140
1.0
102
RTVSPost2010PropOp52
 70
     0
102
RTVSPost2010Prop53
 90
        2
102
RTVSPost2010PropOp53
 70
     1
102
RTVSPost2010Prop54
  1
strokes_ogs.tif
102
RTVSPost2010PropOp54
 70
     1
102
RTVSPost2010Prop55
280
     0
102
RTVSPost2010PropOp55
 70
     1
102
RTVSPost2010Prop56
140
1.0
102
RTVSPost2010PropOp56
 70
     1
102
RTVSPost2010Prop57
140
1.0
102
RTVSPost2010PropOp57
 70
     1
  0
XRECORD
  5
E0
102
{ACAD_REACTORS
330
DF
102
}
330
DF
100
AcDbXrecord
280
     1
102
RTVSPost2010Prop28
280
     0
102
RTVSPost2010PropOp28
 70
     1
102
RTVSPost2010Prop29
280
     1
102
RTVSPost2010PropOp29
 70
     1
102
RTVSPost2010Prop30
280
     1
102
RTVSPost2010PropOp30
 70
     1
102
RTVSPost2010Prop31
280
     0
102
RTVSPost2010PropOp31
 70
     1
102
RTVSPost2010Prop32
280
     0
102
RTVSPost2010PropOp32
 70
     1
102
RTVSPost2010Prop33
280
     0
102
RTVSPost2010PropOp33
 70
     1
102
RTVSPost2010Prop34
280
     0
102
RTVSPost2010PropOp34
 70
     1
102
RTVSPost2010Prop35
280
     0
102
RTVSPost2010PropOp35
 70
     1
102
RTVSPost2010Prop36
280
     0
102
RTVSPost2010PropOp36
 70
     1
102
RTVSPost2010Prop37
 90
       50
102
RTVSPost2010PropOp37
 70
     1
102
RTVSPost2010Prop38
140
0.0
102
RTVSPost2010PropOp38
 70
     1
102
RTVSPost2010Prop39
140
1.0
102
RTVSPost2010PropOp39
 70
     1
102
RTVSPost2010Prop40
 90
        0
102
RTVSPost2010PropOp40
 70
     1
102
RTVSPost2010Prop41ColorIndex
 90
       18
102
RTVSPost2010Prop41ColorRGB
 90
        0
102
RTVSPost2010PropOp41
 70
     1
102
RTVSPost2010Prop42
 90
       50
102
RTVSPost2010PropOp42
 70
     1
102
RTVSPost2010Prop43
 90
        3
102
RTVSPost2010PropOp43
 70
     1
102
RTVSPost2010Prop44ColorIndex
 90
        5
102
RTVSPost2010Prop44ColorRGB
 90
      255
102
RTVSPost2010PropOp44
 70
     1
102
RTVSPost2010Prop45
280
     0
102
RTVSPost2010PropOp45
 70
     1
102
RTVSPost2010Prop46
 90
       50
102
RTVSPost2010PropOp46
 70
     1
102
RTVSPost2010Prop47
 90
       50
102
RTVSPost2010PropOp47
 70
     1
102
RTVSPost2010Prop48
 90
       50
102
RTVSPost2010PropOp48
 70
     1
102
RTVSPost2010Prop49
280
     0
102
RTVSPost2010PropOp49
 70
     1
102
RTVSPost2010Prop50
 90
       50
102
RTVSPost2010PropOp50
 70
     1
102
RTVSPost2010Prop51ColorIndex
 90
      256
102
RTVSPost2010Prop51ColorRGB
 90
-16777216
102
RTVSPost2010PropOp51
 70
     0
102
RTVSPost2010Prop52
140
1.0
102
RTVSPost2010PropOp52
 70
     0
102
RTVSPost2010Prop53
 90
        2
102
RTVSPost2010PropOp53
 70
     1
102
RTVSPost2010Prop54
  1
strokes_ogs.tif
102
RTVSPost2010PropOp54
 70
     1
102
RTVSPost2010Prop55
280
     0
102
RTVSPost2010PropOp55
 70
     1
102
RTVSPost2010Prop56
140
1.0
102
RTVSPost2010PropOp56
 70
     1
102
RTVSPost2010Prop57
140
1.0
102
RTVSPost2010PropOp57
 70
     1
  0
XRECORD
  5
EE
102
{ACAD_REACTORS
330
ED
102
}
330
ED
100
AcDbXrecord
280
     1
102
RTVSPost2010Prop28
280
     0
102
RTVSPost2010PropOp28
 70
     1
102
RTVSPost2010Prop29
280
     1
102
RTVSPost2010PropOp29
 70
     1
102
RTVSPost2010Prop30
280
     1
102
RTVSPost2010PropOp30
 70
     1
102
RTVSPost2010Prop31
280
     0
102
RTVSPost2010PropOp31
 70
     1
102
RTVSPost2010Prop32
280
     0
102
RTVSPost2010PropOp32
 70
     1
102
RTVSPost2010Prop33
280
     0
102
RTVSPost2010PropOp33
 70
     1
102
RTVSPost2010Prop34
280
     0
102
RTVSPost2010PropOp34
 70
     1
102
RTVSPost2010Prop35
280
     0
102
RTVSPost2010PropOp35
 70
     1
102
RTVSPost2010Prop36
280
     0
102
RTVSPost2010PropOp36
 70
     1
102
RTVSPost2010Prop37
 90
       50
102
RTVSPost2010PropOp37
 70
     1
102
RTVSPost2010Prop38
140
0.0
102
RTVSPost2010PropOp38
 70
     1
102
RTVSPost2010Prop39
140
1.0
102
RTVSPost2010PropOp39
 70
     1
102
RTVSPost2010Prop40
 90
        0
102
RTVSPost2010PropOp40
 70
     1
102
RTVSPost2010Prop41ColorIndex
 90
       18
102
RTVSPost2010Prop41ColorRGB
 90
        0
102
RTVSPost2010PropOp41
 70
     1
102
RTVSPost2010Prop42
 90
       50
102
RTVSPost2010PropOp42
 70
     1
102
RTVSPost2010Prop43
 90
        3
102
RTVSPost2010PropOp43
 70
     1
102
RTVSPost2010Prop44ColorIndex
 90
        5
102
RTVSPost2010Prop44ColorRGB
 90
      255
102
RTVSPost2010PropOp44
 70
     1
102
RTVSPost2010Prop45
280
     0
102
RTVSPost2010PropOp45
 70
     1
102
RTVSPost2010Prop46
 90
       50
102
RTVSPost2010PropOp46
 70
     1
102
RTVSPost2010Prop47
 90
       50
102
RTVSPost2010PropOp47
 70
     1
102
RTVSPost2010Prop48
 90
       50
102
RTVSPost2010PropOp48
 70
     1
102
RTVSPost2010Prop49
280
     0
102
RTVSPost2010PropOp49
 70
     1
102
RTVSPost2010Prop50
 90
       50
102
RTVSPost2010PropOp50
 70
     1
102
RTVSPost2010Prop51ColorIndex
 90
      256
102
RTVSPost2010Prop51ColorRGB
 90
-16777216
102
RTVSPost2010PropOp51
 70
     0
102
RTVSPost2010Prop52
140
1.0
102
RTVSPost2010PropOp52
 70
     0
102
RTVSPost2010Prop53
 90
        2
102
RTVSPost2010PropOp53
 70
     1
102
RTVSPost2010Prop54
  1
strokes_ogs.tif
102
RTVSPost2010PropOp54
 70
     1
102
RTVSPost2010Prop55
280
     0
102
RTVSPost2010PropOp55
 70
     1
102
RTVSPost2010Prop56
140
1.0
102
RTVSPost2010PropOp56
 70
     1
102
RTVSPost2010Prop57
140
1.0
102
RTVSPost2010PropOp57
 70
     1
  0
XRECORD
  5
F6
102
{ACAD_REACTORS
330
F5
102
}
330
F5
100
AcDbXrecord
280
     1
102
RTVSPost2010Prop28
280
     0
102
RTVSPost2010PropOp28
 70
     1
102
RTVSPost2010Prop29
280
     1
102
RTVSPost2010PropOp29
 70
     1
102
RTVSPost2010Prop30
280
     1
102
RTVSPost2010PropOp30
 70
     1
102
RTVSPost2010Prop31
280
     0
102
RTVSPost2010PropOp31
 70
     1
102
RTVSPost2010Prop32
280
     0
102
RTVSPost2010PropOp32
 70
     1
102
RTVSPost2010Prop33
280
     0
102
RTVSPost2010PropOp33
 70
     1
102
RTVSPost2010Prop34
280
     0
102
RTVSPost2010PropOp34
 70
     1
102
RTVSPost2010Prop35
280
     0
102
RTVSPost2010PropOp35
 70
     1
102
RTVSPost2010Prop36
280
     0
102
RTVSPost2010PropOp36
 70
     1
102
RTVSPost2010Prop37
 90
       50
102
RTVSPost2010PropOp37
 70
     1
102
RTVSPost2010Prop38
140
0.0
102
RTVSPost2010PropOp38
 70
     1
102
RTVSPost2010Prop39
140
1.0
102
RTVSPost2010PropOp39
 70
     1
102
RTVSPost2010Prop40
 90
        0
102
RTVSPost2010PropOp40
 70
     1
102
RTVSPost2010Prop41ColorIndex
 90
       18
102
RTVSPost2010Prop41ColorRGB
 90
        0
102
RTVSPost2010PropOp41
 70
     1
102
RTVSPost2010Prop42
 90
       50
102
RTVSPost2010PropOp42
 70
     1
102
RTVSPost2010Prop43
 90
        3
102
RTVSPost2010PropOp43
 70
     1
102
RTVSPost2010Prop44ColorIndex
 90
        5
102
RTVSPost2010Prop44ColorRGB
 90
      255
102
RTVSPost2010PropOp44
 70
     1
102
RTVSPost2010Prop45
280
     0
102
RTVSPost2010PropOp45
 70
     1
102
RTVSPost2010Prop46
 90
       50
102
RTVSPost2010PropOp46
 70
     1
102
RTVSPost2010Prop47
 90
       50
102
RTVSPost2010PropOp47
 70
     1
102
RTVSPost2010Prop48
 90
       50
102
RTVSPost2010PropOp48
 70
     1
102
RTVSPost2010Prop49
280
     0
102
RTVSPost2010PropOp49
 70
     1
102
RTVSPost2010Prop50
 90
       50
102
RTVSPost2010PropOp50
 70
     1
102
RTVSPost2010Prop51ColorIndex
 90
      256
102
RTVSPost2010Prop51ColorRGB
 90
-16777216
102
RTVSPost2010PropOp51
 70
     0
102
RTVSPost2010Prop52
140
1.0
102
RTVSPost2010PropOp52
 70
     0
102
RTVSPost2010Prop53
 90
        2
102
RTVSPost2010PropOp53
 70
     1
102
RTVSPost2010Prop54
  1
strokes_ogs.tif
102
RTVSPost2010PropOp54
 70
     1
102
RTVSPost2010Prop55
280
     0
102
RTVSPost2010PropOp55
 70
     1
102
RTVSPost2010Prop56
140
1.0
102
RTVSPost2010PropOp56
 70
     1
102
RTVSPost2010Prop57
140
1.0
102
RTVSPost2010PropOp57
 70
     1
  0
XRECORD
  5
E8
102
{ACAD_REACTORS
330
E7
102
}
330
E7
100
AcDbXrecord
280
     1
102
RTVSPost2010Prop28
280
     0
102
RTVSPost2010PropOp28
 70
     1
102
RTVSPost2010Prop29
280
     1
102
RTVSPost2010PropOp29
 70
     1
102
RTVSPost2010Prop30
280
     1
102
RTVSPost2010PropOp30
 70
     1
102
RTVSPost2010Prop31
280
     0
102
RTVSPost2010PropOp31
 70
     1
102
RTVSPost2010Prop32
280
     0
102
RTVSPost2010PropOp32
 70
     1
102
RTVSPost2010Prop33
280
     0
102
RTVSPost2010PropOp33
 70
     1
102
RTVSPost2010Prop34
280
     0
102
RTVSPost2010PropOp34
 70
     1
102
RTVSPost2010Prop35
280
     0
102
RTVSPost2010PropOp35
 70
     1
102
RTVSPost2010Prop36
280
     0
102
RTVSPost2010PropOp36
 70
     1
102
RTVSPost2010Prop37
 90
       50
102
RTVSPost2010PropOp37
 70
     1
102
RTVSPost2010Prop38
140
0.0
102
RTVSPost2010PropOp38
 70
     1
102
RTVSPost2010Prop39
140
1.0
102
RTVSPost2010PropOp39
 70
     1
102
RTVSPost2010Prop40
 90
        0
102
RTVSPost2010PropOp40
 70
     1
102
RTVSPost2010Prop41ColorIndex
 90
       18
102
RTVSPost2010Prop41ColorRGB
 90
        0
102
RTVSPost2010PropOp41
 70
     1
102
RTVSPost2010Prop42
 90
       50
102
RTVSPost2010PropOp42
 70
     1
102
RTVSPost2010Prop43
 90
        3
102
RTVSPost2010PropOp43
 70
     1
102
RTVSPost2010Prop44ColorIndex
 90
        5
102
RTVSPost2010Prop44ColorRGB
 90
      255
102
RTVSPost2010PropOp44
 70
     1
102
RTVSPost2010Prop45
280
     0
102
RTVSPost2010PropOp45
 70
     1
102
RTVSPost2010Prop46
 90
       50
102
RTVSPost2010PropOp46
 70
     1
102
RTVSPost2010Prop47
 90
       50
102
RTVSPost2010PropOp47
 70
     1
102
RTVSPost2010Prop48
 90
       50
102
RTVSPost2010PropOp48
 70
     1
102
RTVSPost2010Prop49
280
     0
102
RTVSPost2010PropOp49
 70
     1
102
RTVSPost2010Prop50
 90
       50
102
RTVSPost2010PropOp50
 70
     1
102
RTVSPost2010Prop51ColorIndex
 90
      256
102
RTVSPost2010Prop51ColorRGB
 90
-16777216
102
RTVSPost2010PropOp51
 70
     0
102
RTVSPost2010Prop52
140
1.0
102
RTVSPost2010PropOp52
 70
     0
102
RTVSPost2010Prop53
 90
        2
102
RTVSPost2010PropOp53
 70
     1
102
RTVSPost2010Prop54
  1
strokes_ogs.tif
102
RTVSPost2010PropOp54
 70
     1
102
RTVSPost2010Prop55
280
     0
102
RTVSPost2010PropOp55
 70
     1
102
RTVSPost2010Prop56
140
1.0
102
RTVSPost2010PropOp56
 70
     1
102
RTVSPost2010Prop57
140
1.0
102
RTVSPost2010PropOp57
 70
     1
  0
XRECORD
  5
EC
102
{ACAD_REACTORS
330
EB
102
}
330
EB
100
AcDbXrecord
280
     1
102
RTVSPost2010Prop28
280
     0
102
RTVSPost2010PropOp28
 70
     1
102
RTVSPost2010Prop29
280
     1
102
RTVSPost2010PropOp29
 70
     1
102
RTVSPost2010Prop30
280
     1
102
RTVSPost2010PropOp30
 70
     1
102
RTVSPost2010Prop31
280
     0
102
RTVSPost2010PropOp31
 70
     1
102
RTVSPost2010Prop32
280
     0
102
RTVSPost2010PropOp32
 70
     1
102
RTVSPost2010Prop33
280
     0
102
RTVSPost2010PropOp33
 70
     1
102
RTVSPost2010Prop34
280
     0
102
RTVSPost2010PropOp34
 70
     1
102
RTVSPost2010Prop35
280
     0
102
RTVSPost2010PropOp35
 70
     1
102
RTVSPost2010Prop36
280
     0
102
RTVSPost2010PropOp36
 70
     1
102
RTVSPost2010Prop37
 90
       50
102
RTVSPost2010PropOp37
 70
     1
102
RTVSPost2010Prop38
140
0.0
102
RTVSPost2010PropOp38
 70
     1
102
RTVSPost2010Prop39
140
1.0
102
RTVSPost2010PropOp39
 70
     1
102
RTVSPost2010Prop40
 90
        0
102
RTVSPost2010PropOp40
 70
     1
102
RTVSPost2010Prop41ColorIndex
 90
       18
102
RTVSPost2010Prop41ColorRGB
 90
        0
102
RTVSPost2010PropOp41
 70
     1
102
RTVSPost2010Prop42
 90
       50
102
RTVSPost2010PropOp42
 70
     1
102
RTVSPost2010Prop43
 90
        3
102
RTVSPost2010PropOp43
 70
     1
102
RTVSPost2010Prop44ColorIndex
 90
        5
102
RTVSPost2010Prop44ColorRGB
 90
      255
102
RTVSPost2010PropOp44
 70
     1
102
RTVSPost2010Prop45
280
     0
102
RTVSPost2010PropOp45
 70
     1
102
RTVSPost2010Prop46
 90
       50
102
RTVSPost2010PropOp46
 70
     1
102
RTVSPost2010Prop47
 90
       50
102
RTVSPost2010PropOp47
 70
     1
102
RTVSPost2010Prop48
 90
       50
102
RTVSPost2010PropOp48
 70
     1
102
RTVSPost2010Prop49
280
     0
102
RTVSPost2010PropOp49
 70
     1
102
RTVSPost2010Prop50
 90
       50
102
RTVSPost2010PropOp50
 70
     1
102
RTVSPost2010Prop51ColorIndex
 90
      256
102
RTVSPost2010Prop51ColorRGB
 90
-16777216
102
RTVSPost2010PropOp51
 70
     0
102
RTVSPost2010Prop52
140
1.0
102
RTVSPost2010PropOp52
 70
     0
102
RTVSPost2010Prop53
 90
        2
102
RTVSPost2010PropOp53
 70
     1
102
RTVSPost2010Prop54
  1
strokes_ogs.tif
102
RTVSPost2010PropOp54
 70
     1
102
RTVSPost2010Prop55
280
     0
102
RTVSPost2010PropOp55
 70
     1
102
RTVSPost2010Prop56
140
1.0
102
RTVSPost2010PropOp56
 70
     1
102
RTVSPost2010Prop57
140
1.0
102
RTVSPost2010PropOp57
 70
     1
  0
XRECORD
  5
106
102
{ACAD_REACTORS
330
105
102
}
330
105
100
AcDbXrecord
280
     1
102
RTVSPost2010Prop28
280
     0
102
RTVSPost2010PropOp28
 70
     0
102
RTVSPost2010Prop29
280
     1
102
RTVSPost2010PropOp29
 70
     0
102
RTVSPost2010Prop30
280
     1
102
RTVSPost2010PropOp30
 70
     0
102
RTVSPost2010Prop31
280
     0
102
RTVSPost2010PropOp31
 70
     0
102
RTVSPost2010Prop32
280
     0
102
RTVSPost2010PropOp32
 70
     0
102
RTVSPost2010Prop33
280
     0
102
RTVSPost2010PropOp33
 70
     0
102
RTVSPost2010Prop34
280
     0
102
RTVSPost2010PropOp34
 70
     0
102
RTVSPost2010Prop35
280
     0
102
RTVSPost2010PropOp35
 70
     0
102
RTVSPost2010Prop36
280
     0
102
RTVSPost2010PropOp36
 70
     0
102
RTVSPost2010Prop37
 90
       50
102
RTVSPost2010PropOp37
 70
     0
102
RTVSPost2010Prop38
140
0.0
102
RTVSPost2010PropOp38
 70
     0
102
RTVSPost2010Prop39
140
1.0
102
RTVSPost2010PropOp39
 70
     0
102
RTVSPost2010Prop40
 90
        0
102
RTVSPost2010PropOp40
 70
     0
102
RTVSPost2010Prop41ColorIndex
 90
       18
102
RTVSPost2010Prop41ColorRGB
 90
        0
102
RTVSPost2010PropOp41
 70
     0
102
RTVSPost2010Prop42
 90
       50
102
RTVSPost2010PropOp42
 70
     0
102
RTVSPost2010Prop43
 90
        3
102
RTVSPost2010PropOp43
 70
     0
102
RTVSPost2010Prop44ColorIndex
 90
        5
102
RTVSPost2010Prop44ColorRGB
 90
      255
102
RTVSPost2010PropOp44
 70
     0
102
RTVSPost2010Prop45
280
     0
102
RTVSPost2010PropOp45
 70
     0
102
RTVSPost2010Prop46
 90
       50
102
RTVSPost2010PropOp46
 70
     0
102
RTVSPost2010Prop47
 90
       50
102
RTVSPost2010PropOp47
 70
     0
102
RTVSPost2010Prop48
 90
       50
102
RTVSPost2010PropOp48
 70
     0
102
RTVSPost2010Prop49
280
     0
102
RTVSPost2010PropOp49
 70
     0
102
RTVSPost2010Prop50
 90
       50
102
RTVSPost2010PropOp50
 70
     0
102
RTVSPost2010Prop51ColorIndex
 90
      256
102
RTVSPost2010Prop51ColorRGB
 90
-16777216
102
RTVSPost2010PropOp51
 70
     0
102
RTVSPost2010Prop52
140
1.0
102
RTVSPost2010PropOp52
 70
     0
102
RTVSPost2010Prop53
 90
        2
102
RTVSPost2010PropOp53
 70
     0
102
RTVSPost2010Prop54
  1
strokes_ogs.tif
102
RTVSPost2010PropOp54
 70
     0
102
RTVSPost2010Prop55
280
     0
102
RTVSPost2010PropOp55
 70
     0
102
RTVSPost2010Prop56
140
1.0
102
RTVSPost2010PropOp56
 70
     0
102
RTVSPost2010Prop57
140
1.0
102
RTVSPost2010PropOp57
 70
     0
  0
XRECORD
  5
F4
102
{ACAD_REACTORS
330
F3
102
}
330
F3
100
AcDbXrecord
280
     1
102
RTVSPost2010Prop28
280
     0
102
RTVSPost2010PropOp28
 70
     1
102
RTVSPost2010Prop29
280
     1
102
RTVSPost2010PropOp29
 70
     1
102
RTVSPost2010Prop30
280
     1
102
RTVSPost2010PropOp30
 70
     1
102
RTVSPost2010Prop31
280
     0
102
RTVSPost2010PropOp31
 70
     1
102
RTVSPost2010Prop32
280
     0
102
RTVSPost2010PropOp32
 70
     1
102
RTVSPost2010Prop33
280
     0
102
RTVSPost2010PropOp33
 70
     1
102
RTVSPost2010Prop34
280
     0
102
RTVSPost2010PropOp34
 70
     1
102
RTVSPost2010Prop35
280
     0
102
RTVSPost2010PropOp35
 70
     1
102
RTVSPost2010Prop36
280
     0
102
RTVSPost2010PropOp36
 70
     1
102
RTVSPost2010Prop37
 90
       50
102
RTVSPost2010PropOp37
 70
     1
102
RTVSPost2010Prop38
140
0.0
102
RTVSPost2010PropOp38
 70
     1
102
RTVSPost2010Prop39
140
1.0
102
RTVSPost2010PropOp39
 70
     1
102
RTVSPost2010Prop40
 90
        0
102
RTVSPost2010PropOp40
 70
     1
102
RTVSPost2010Prop41ColorIndex
 90
       18
102
RTVSPost2010Prop41ColorRGB
 90
        0
102
RTVSPost2010PropOp41
 70
     1
102
RTVSPost2010Prop42
 90
       50
102
RTVSPost2010PropOp42
 70
     1
102
RTVSPost2010Prop43
 90
        3
102
RTVSPost2010PropOp43
 70
     1
102
RTVSPost2010Prop44ColorIndex
 90
        5
102
RTVSPost2010Prop44ColorRGB
 90
      255
102
RTVSPost2010PropOp44
 70
     1
102
RTVSPost2010Prop45
280
     0
102
RTVSPost2010PropOp45
 70
     1
102
RTVSPost2010Prop46
 90
       50
102
RTVSPost2010PropOp46
 70
     1
102
RTVSPost2010Prop47
 90
       50
102
RTVSPost2010PropOp47
 70
     1
102
RTVSPost2010Prop48
 90
       50
102
RTVSPost2010PropOp48
 70
     1
102
RTVSPost2010Prop49
280
     0
102
RTVSPost2010PropOp49
 70
     1
102
RTVSPost2010Prop50
 90
       50
102
RTVSPost2010PropOp50
 70
     1
102
RTVSPost2010Prop51ColorIndex
 90
      256
102
RTVSPost2010Prop51ColorRGB
 90
-16777216
102
RTVSPost2010PropOp51
 70
     0
102
RTVSPost2010Prop52
140
1.0
102
RTVSPost2010PropOp52
 70
     0
102
RTVSPost2010Prop53
 90
        2
102
RTVSPost2010PropOp53
 70
     1
102
RTVSPost2010Prop54
  1
strokes_ogs.tif
102
RTVSPost2010PropOp54
 70
     1
102
RTVSPost2010Prop55
280
     0
102
RTVSPost2010PropOp55
 70
     1
102
RTVSPost2010Prop56
140
1.0
102
RTVSPost2010PropOp56
 70
     1
102
RTVSPost2010Prop57
140
1.0
102
RTVSPost2010PropOp57
 70
     1
  0
XRECORD
  5
D8
102
{ACAD_REACTORS
330
D7
102
}
330
D7
100
AcDbXrecord
280
     1
102
RTVSPost2010Prop28
280
     0
102
RTVSPost2010PropOp28
 70
     1
102
RTVSPost2010Prop29
280
     1
102
RTVSPost2010PropOp29
 70
     1
102
RTVSPost2010Prop30
280
     1
102
RTVSPost2010PropOp30
 70
     1
102
RTVSPost2010Prop31
280
     0
102
RTVSPost2010PropOp31
 70
     1
102
RTVSPost2010Prop32
280
     0
102
RTVSPost2010PropOp32
 70
     1
102
RTVSPost2010Prop33
280
     0
102
RTVSPost2010PropOp33
 70
     1
102
RTVSPost2010Prop34
280
     0
102
RTVSPost2010PropOp34
 70
     1
102
RTVSPost2010Prop35
280
     0
102
RTVSPost2010PropOp35
 70
     1
102
RTVSPost2010Prop36
280
     0
102
RTVSPost2010PropOp36
 70
     1
102
RTVSPost2010Prop37
 90
       50
102
RTVSPost2010PropOp37
 70
     1
102
RTVSPost2010Prop38
140
0.0
102
RTVSPost2010PropOp38
 70
     1
102
RTVSPost2010Prop39
140
1.0
102
RTVSPost2010PropOp39
 70
     1
102
RTVSPost2010Prop40
 90
        0
102
RTVSPost2010PropOp40
 70
     1
102
RTVSPost2010Prop41ColorIndex
 90
       18
102
RTVSPost2010Prop41ColorRGB
 90
        0
102
RTVSPost2010PropOp41
 70
     1
102
RTVSPost2010Prop42
 90
       50
102
RTVSPost2010PropOp42
 70
     1
102
RTVSPost2010Prop43
 90
        3
102
RTVSPost2010PropOp43
 70
     1
102
RTVSPost2010Prop44ColorIndex
 90
        5
102
RTVSPost2010Prop44ColorRGB
 90
      255
102
RTVSPost2010PropOp44
 70
     1
102
RTVSPost2010Prop45
280
     0
102
RTVSPost2010PropOp45
 70
     1
102
RTVSPost2010Prop46
 90
       50
102
RTVSPost2010PropOp46
 70
     1
102
RTVSPost2010Prop47
 90
       50
102
RTVSPost2010PropOp47
 70
     1
102
RTVSPost2010Prop48
 90
       50
102
RTVSPost2010PropOp48
 70
     1
102
RTVSPost2010Prop49
280
     0
102
RTVSPost2010PropOp49
 70
     1
102
RTVSPost2010Prop50
 90
       50
102
RTVSPost2010PropOp50
 70
     1
102
RTVSPost2010Prop51ColorIndex
 90
      256
102
RTVSPost2010Prop51ColorRGB
 90
-16777216
102
RTVSPost2010PropOp51
 70
     0
102
RTVSPost2010Prop52
140
1.0
102
RTVSPost2010PropOp52
 70
     0
102
RTVSPost2010Prop53
 90
        2
102
RTVSPost2010PropOp53
 70
     1
102
RTVSPost2010Prop54
  1
strokes_ogs.tif
102
RTVSPost2010PropOp54
 70
     1
102
RTVSPost2010Prop55
280
     0
102
RTVSPost2010PropOp55
 70
     1
102
RTVSPost2010Prop56
140
1.0
102
RTVSPost2010PropOp56
 70
     1
102
RTVSPost2010Prop57
140
1.0
102
RTVSPost2010PropOp57
 70
     1
  0
XRECORD
  5
DA
102
{ACAD_REACTORS
330
D9
102
}
330
D9
100
AcDbXrecord
280
     1
102
RTVSPost2010Prop28
280
     0
102
RTVSPost2010PropOp28
 70
     1
102
RTVSPost2010Prop29
280
     1
102
RTVSPost2010PropOp29
 70
     1
102
RTVSPost2010Prop30
280
     1
102
RTVSPost2010PropOp30
 70
     1
102
RTVSPost2010Prop31
280
     0
102
RTVSPost2010PropOp31
 70
     1
102
RTVSPost2010Prop32
280
     0
102
RTVSPost2010PropOp32
 70
     1
102
RTVSPost2010Prop33
280
     0
102
RTVSPost2010PropOp33
 70
     1
102
RTVSPost2010Prop34
280
     0
102
RTVSPost2010PropOp34
 70
     1
102
RTVSPost2010Prop35
280
     0
102
RTVSPost2010PropOp35
 70
     1
102
RTVSPost2010Prop36
280
     0
102
RTVSPost2010PropOp36
 70
     1
102
RTVSPost2010Prop37
 90
       50
102
RTVSPost2010PropOp37
 70
     1
102
RTVSPost2010Prop38
140
0.0
102
RTVSPost2010PropOp38
 70
     1
102
RTVSPost2010Prop39
140
1.0
102
RTVSPost2010PropOp39
 70
     1
102
RTVSPost2010Prop40
 90
        0
102
RTVSPost2010PropOp40
 70
     1
102
RTVSPost2010Prop41ColorIndex
 90
       18
102
RTVSPost2010Prop41ColorRGB
 90
        0
102
RTVSPost2010PropOp41
 70
     1
102
RTVSPost2010Prop42
 90
       50
102
RTVSPost2010PropOp42
 70
     1
102
RTVSPost2010Prop43
 90
        3
102
RTVSPost2010PropOp43
 70
     1
102
RTVSPost2010Prop44ColorIndex
 90
        5
102
RTVSPost2010Prop44ColorRGB
 90
      255
102
RTVSPost2010PropOp44
 70
     1
102
RTVSPost2010Prop45
280
     0
102
RTVSPost2010PropOp45
 70
     1
102
RTVSPost2010Prop46
 90
       50
102
RTVSPost2010PropOp46
 70
     1
102
RTVSPost2010Prop47
 90
       50
102
RTVSPost2010PropOp47
 70
     1
102
RTVSPost2010Prop48
 90
       50
102
RTVSPost2010PropOp48
 70
     1
102
RTVSPost2010Prop49
280
     0
102
RTVSPost2010PropOp49
 70
     1
102
RTVSPost2010Prop50
 90
       50
102
RTVSPost2010PropOp50
 70
     1
102
RTVSPost2010Prop51ColorIndex
 90
      256
102
RTVSPost2010Prop51ColorRGB
 90
-16777216
102
RTVSPost2010PropOp51
 70
     0
102
RTVSPost2010Prop52
140
1.0
102
RTVSPost2010PropOp52
 70
     0
102
RTVSPost2010Prop53
 90
        2
102
RTVSPost2010PropOp53
 70
     1
102
RTVSPost2010Prop54
  1
strokes_ogs.tif
102
RTVSPost2010PropOp54
 70
     1
102
RTVSPost2010Prop55
280
     0
102
RTVSPost2010PropOp55
 70
     1
102
RTVSPost2010Prop56
140
1.0
102
RTVSPost2010PropOp56
 70
     1
102
RTVSPost2010Prop57
140
1.0
102
RTVSPost2010PropOp57
 70
     1
  0
XRECORD
  5
DC
102
{ACAD_REACTORS
330
DB
102
}
330
DB
100
AcDbXrecord
280
     1
102
RTVSPost2010Prop28
280
     0
102
RTVSPost2010PropOp28
 70
     1
102
RTVSPost2010Prop29
280
     1
102
RTVSPost2010PropOp29
 70
     1
102
RTVSPost2010Prop30
280
     1
102
RTVSPost2010PropOp30
 70
     1
102
RTVSPost2010Prop31
280
     0
102
RTVSPost2010PropOp31
 70
     1
102
RTVSPost2010Prop32
280
     0
102
RTVSPost2010PropOp32
 70
     1
102
RTVSPost2010Prop33
280
     0
102
RTVSPost2010PropOp33
 70
     1
102
RTVSPost2010Prop34
280
     0
102
RTVSPost2010PropOp34
 70
     1
102
RTVSPost2010Prop35
280
     0
102
RTVSPost2010PropOp35
 70
     1
102
RTVSPost2010Prop36
280
     0
102
RTVSPost2010PropOp36
 70
     1
102
RTVSPost2010Prop37
 90
       50
102
RTVSPost2010PropOp37
 70
     1
102
RTVSPost2010Prop38
140
0.0
102
RTVSPost2010PropOp38
 70
     1
102
RTVSPost2010Prop39
140
1.0
102
RTVSPost2010PropOp39
 70
     1
102
RTVSPost2010Prop40
 90
        0
102
RTVSPost2010PropOp40
 70
     1
102
RTVSPost2010Prop41ColorIndex
 90
       18
102
RTVSPost2010Prop41ColorRGB
 90
        0
102
RTVSPost2010PropOp41
 70
     1
102
RTVSPost2010Prop42
 90
       50
102
RTVSPost2010PropOp42
 70
     1
102
RTVSPost2010Prop43
 90
        3
102
RTVSPost2010PropOp43
 70
     1
102
RTVSPost2010Prop44ColorIndex
 90
        5
102
RTVSPost2010Prop44ColorRGB
 90
      255
102
RTVSPost2010PropOp44
 70
     1
102
RTVSPost2010Prop45
280
     0
102
RTVSPost2010PropOp45
 70
     1
102
RTVSPost2010Prop46
 90
       50
102
RTVSPost2010PropOp46
 70
     1
102
RTVSPost2010Prop47
 90
       50
102
RTVSPost2010PropOp47
 70
     1
102
RTVSPost2010Prop48
 90
       50
102
RTVSPost2010PropOp48
 70
     1
102
RTVSPost2010Prop49
280
     0
102
RTVSPost2010PropOp49
 70
     1
102
RTVSPost2010Prop50
 90
       50
102
RTVSPost2010PropOp50
 70
     1
102
RTVSPost2010Prop51ColorIndex
 90
      256
102
RTVSPost2010Prop51ColorRGB
 90
-16777216
102
RTVSPost2010PropOp51
 70
     0
102
RTVSPost2010Prop52
140
1.0
102
RTVSPost2010PropOp52
 70
     0
102
RTVSPost2010Prop53
 90
        2
102
RTVSPost2010PropOp53
 70
     1
102
RTVSPost2010Prop54
  1
strokes_ogs.tif
102
RTVSPost2010PropOp54
 70
     1
102
RTVSPost2010Prop55
280
     0
102
RTVSPost2010PropOp55
 70
     1
102
RTVSPost2010Prop56
140
1.0
102
RTVSPost2010PropOp56
 70
     1
102
RTVSPost2010Prop57
140
1.0
102
RTVSPost2010PropOp57
 70
     1
  0
XRECORD
  5
DE
102
{ACAD_REACTORS
330
DD
102
}
330
DD
100
AcDbXrecord
280
     1
102
RTVSPost2010Prop28
280
     0
102
RTVSPost2010PropOp28
 70
     1
102
RTVSPost2010Prop29
280
     1
102
RTVSPost2010PropOp29
 70
     1
102
RTVSPost2010Prop30
280
     1
102
RTVSPost2010PropOp30
 70
     1
102
RTVSPost2010Prop31
280
     0
102
RTVSPost2010PropOp31
 70
     1
102
RTVSPost2010Prop32
280
     0
102
RTVSPost2010PropOp32
 70
     1
102
RTVSPost2010Prop33
280
     0
102
RTVSPost2010PropOp33
 70
     1
102
RTVSPost2010Prop34
280
     0
102
RTVSPost2010PropOp34
 70
     1
102
RTVSPost2010Prop35
280
     0
102
RTVSPost2010PropOp35
 70
     1
102
RTVSPost2010Prop36
280
     0
102
RTVSPost2010PropOp36
 70
     1
102
RTVSPost2010Prop37
 90
       50
102
RTVSPost2010PropOp37
 70
     1
102
RTVSPost2010Prop38
140
0.0
102
RTVSPost2010PropOp38
 70
     1
102
RTVSPost2010Prop39
140
1.0
102
RTVSPost2010PropOp39
 70
     1
102
RTVSPost2010Prop40
 90
        0
102
RTVSPost2010PropOp40
 70
     1
102
RTVSPost2010Prop41ColorIndex
 90
       18
102
RTVSPost2010Prop41ColorRGB
 90
        0
102
RTVSPost2010PropOp41
 70
     1
102
RTVSPost2010Prop42
 90
       50
102
RTVSPost2010PropOp42
 70
     1
102
RTVSPost2010Prop43
 90
        3
102
RTVSPost2010PropOp43
 70
     1
102
RTVSPost2010Prop44ColorIndex
 90
        5
102
RTVSPost2010Prop44ColorRGB
 90
      255
102
RTVSPost2010PropOp44
 70
     1
102
RTVSPost2010Prop45
280
     0
102
RTVSPost2010PropOp45
 70
     1
102
RTVSPost2010Prop46
 90
       50
102
RTVSPost2010PropOp46
 70
     1
102
RTVSPost2010Prop47
 90
       50
102
RTVSPost2010PropOp47
 70
     1
102
RTVSPost2010Prop48
 90
       50
102
RTVSPost2010PropOp48
 70
     1
102
RTVSPost2010Prop49
280
     0
102
RTVSPost2010PropOp49
 70
     1
102
RTVSPost2010Prop50
 90
       50
102
RTVSPost2010PropOp50
 70
     1
102
RTVSPost2010Prop51ColorIndex
 90
      256
102
RTVSPost2010Prop51ColorRGB
 90
-16777216
102
RTVSPost2010PropOp51
 70
     0
102
RTVSPost2010Prop52
140
1.0
102
RTVSPost2010PropOp52
 70
     0
102
RTVSPost2010Prop53
 90
        2
102
RTVSPost2010PropOp53
 70
     1
102
RTVSPost2010Prop54
  1
strokes_ogs.tif
102
RTVSPost2010PropOp54
 70
     1
102
RTVSPost2010Prop55
280
     0
102
RTVSPost2010PropOp55
 70
     1
102
RTVSPost2010Prop56
140
1.0
102
RTVSPost2010PropOp56
 70
     1
102
RTVSPost2010Prop57
140
1.0
102
RTVSPost2010PropOp57
 70
     1
  0
XRECORD
  5
E6
102
{ACAD_REACTORS
330
E5
102
}
330
E5
100
AcDbXrecord
280
     1
102
RTVSPost2010Prop28
280
     0
102
RTVSPost2010PropOp28
 70
     1
102
RTVSPost2010Prop29
280
     1
102
RTVSPost2010PropOp29
 70
     1
102
RTVSPost2010Prop30
280
     1
102
RTVSPost2010PropOp30
 70
     1
102
RTVSPost2010Prop31
280
     0
102
RTVSPost2010PropOp31
 70
     1
102
RTVSPost2010Prop32
280
     0
102
RTVSPost2010PropOp32
 70
     1
102
RTVSPost2010Prop33
280
     0
102
RTVSPost2010PropOp33
 70
     1
102
RTVSPost2010Prop34
280
     0
102
RTVSPost2010PropOp34
 70
     1
102
RTVSPost2010Prop35
280
     0
102
RTVSPost2010PropOp35
 70
     1
102
RTVSPost2010Prop36
280
     0
102
RTVSPost2010PropOp36
 70
     1
102
RTVSPost2010Prop37
 90
       50
102
RTVSPost2010PropOp37
 70
     1
102
RTVSPost2010Prop38
140
0.0
102
RTVSPost2010PropOp38
 70
     1
102
RTVSPost2010Prop39
140
1.0
102
RTVSPost2010PropOp39
 70
     1
102
RTVSPost2010Prop40
 90
        0
102
RTVSPost2010PropOp40
 70
     1
102
RTVSPost2010Prop41ColorIndex
 90
       18
102
RTVSPost2010Prop41ColorRGB
 90
        0
102
RTVSPost2010PropOp41
 70
     1
102
RTVSPost2010Prop42
 90
       50
102
RTVSPost2010PropOp42
 70
     1
102
RTVSPost2010Prop43
 90
        3
102
RTVSPost2010PropOp43
 70
     1
102
RTVSPost2010Prop44ColorIndex
 90
        5
102
RTVSPost2010Prop44ColorRGB
 90
      255
102
RTVSPost2010PropOp44
 70
     1
102
RTVSPost2010Prop45
280
     0
102
RTVSPost2010PropOp45
 70
     1
102
RTVSPost2010Prop46
 90
       50
102
RTVSPost2010PropOp46
 70
     1
102
RTVSPost2010Prop47
 90
       50
102
RTVSPost2010PropOp47
 70
     1
102
RTVSPost2010Prop48
 90
       50
102
RTVSPost2010PropOp48
 70
     1
102
RTVSPost2010Prop49
280
     0
102
RTVSPost2010PropOp49
 70
     1
102
RTVSPost2010Prop50
 90
       50
102
RTVSPost2010PropOp50
 70
     1
102
RTVSPost2010Prop51ColorIndex
 90
      256
102
RTVSPost2010Prop51ColorRGB
 90
-16777216
102
RTVSPost2010PropOp51
 70
     0
102
RTVSPost2010Prop52
140
1.0
102
RTVSPost2010PropOp52
 70
     0
102
RTVSPost2010Prop53
 90
        2
102
RTVSPost2010PropOp53
 70
     1
102
RTVSPost2010Prop54
  1
strokes_ogs.tif
102
RTVSPost2010PropOp54
 70
     1
102
RTVSPost2010Prop55
280
     0
102
RTVSPost2010PropOp55
 70
     1
102
RTVSPost2010Prop56
140
1.0
102
RTVSPost2010PropOp56
 70
     1
102
RTVSPost2010Prop57
140
1.0
102
RTVSPost2010PropOp57
 70
     1
  0
XRECORD
  5
102
102
{ACAD_REACTORS
330
101
102
}
330
101
100
AcDbXrecord
280
     1
102
RTVSPost2010Prop28
280
     0
102
RTVSPost2010PropOp28
 70
     0
102
RTVSPost2010Prop29
280
     1
102
RTVSPost2010PropOp29
 70
     0
102
RTVSPost2010Prop30
280
     1
102
RTVSPost2010PropOp30
 70
     0
102
RTVSPost2010Prop31
280
     0
102
RTVSPost2010PropOp31
 70
     0
102
RTVSPost2010Prop32
280
     0
102
RTVSPost2010PropOp32
 70
     0
102
RTVSPost2010Prop33
280
     0
102
RTVSPost2010PropOp33
 70
     0
102
RTVSPost2010Prop34
280
     0
102
RTVSPost2010PropOp34
 70
     0
102
RTVSPost2010Prop35
280
     0
102
RTVSPost2010PropOp35
 70
     0
102
RTVSPost2010Prop36
280
     0
102
RTVSPost2010PropOp36
 70
     0
102
RTVSPost2010Prop37
 90
       50
102
RTVSPost2010PropOp37
 70
     0
102
RTVSPost2010Prop38
140
0.0
102
RTVSPost2010PropOp38
 70
     0
102
RTVSPost2010Prop39
140
1.0
102
RTVSPost2010PropOp39
 70
     0
102
RTVSPost2010Prop40
 90
        0
102
RTVSPost2010PropOp40
 70
     0
102
RTVSPost2010Prop41ColorIndex
 90
       18
102
RTVSPost2010Prop41ColorRGB
 90
        0
102
RTVSPost2010PropOp41
 70
     0
102
RTVSPost2010Prop42
 90
       50
102
RTVSPost2010PropOp42
 70
     0
102
RTVSPost2010Prop43
 90
        3
102
RTVSPost2010PropOp43
 70
     0
102
RTVSPost2010Prop44ColorIndex
 90
        5
102
RTVSPost2010Prop44ColorRGB
 90
      255
102
RTVSPost2010PropOp44
 70
     0
102
RTVSPost2010Prop45
280
     0
102
RTVSPost2010PropOp45
 70
     0
102
RTVSPost2010Prop46
 90
       50
102
RTVSPost2010PropOp46
 70
     0
102
RTVSPost2010Prop47
 90
       50
102
RTVSPost2010PropOp47
 70
     0
102
RTVSPost2010Prop48
 90
       50
102
RTVSPost2010PropOp48
 70
     0
102
RTVSPost2010Prop49
280
     0
102
RTVSPost2010PropOp49
 70
     0
102
RTVSPost2010Prop50
 90
       50
102
RTVSPost2010PropOp50
 70
     0
102
RTVSPost2010Prop51ColorIndex
 90
      256
102
RTVSPost2010Prop51ColorRGB
 90
-16777216
102
RTVSPost2010PropOp51
 70
     0
102
RTVSPost2010Prop52
140
1.0
102
RTVSPost2010PropOp52
 70
     0
102
RTVSPost2010Prop53
 90
        2
102
RTVSPost2010PropOp53
 70
     0
102
RTVSPost2010Prop54
  1
strokes_ogs.tif
102
RTVSPost2010PropOp54
 70
     0
102
RTVSPost2010Prop55
280
     0
102
RTVSPost2010PropOp55
 70
     0
102
RTVSPost2010Prop56
140
1.0
102
RTVSPost2010PropOp56
 70
     0
102
RTVSPost2010Prop57
140
1.0
102
RTVSPost2010PropOp57
 70
     0
  0
XRECORD
  5
F2
102
{ACAD_REACTORS
330
F1
102
}
330
F1
100
AcDbXrecord
280
     1
102
RTVSPost2010Prop28
280
     0
102
RTVSPost2010PropOp28
 70
     1
102
RTVSPost2010Prop29
280
     1
102
RTVSPost2010PropOp29
 70
     1
102
RTVSPost2010Prop30
280
     1
102
RTVSPost2010PropOp30
 70
     1
102
RTVSPost2010Prop31
280
     0
102
RTVSPost2010PropOp31
 70
     1
102
RTVSPost2010Prop32
280
     0
102
RTVSPost2010PropOp32
 70
     1
102
RTVSPost2010Prop33
280
     0
102
RTVSPost2010PropOp33
 70
     1
102
RTVSPost2010Prop34
280
     0
102
RTVSPost2010PropOp34
 70
     1
102
RTVSPost2010Prop35
280
     0
102
RTVSPost2010PropOp35
 70
     1
102
RTVSPost2010Prop36
280
     0
102
RTVSPost2010PropOp36
 70
     1
102
RTVSPost2010Prop37
 90
       50
102
RTVSPost2010PropOp37
 70
     1
102
RTVSPost2010Prop38
140
0.0
102
RTVSPost2010PropOp38
 70
     1
102
RTVSPost2010Prop39
140
1.0
102
RTVSPost2010PropOp39
 70
     1
102
RTVSPost2010Prop40
 90
        0
102
RTVSPost2010PropOp40
 70
     1
102
RTVSPost2010Prop41ColorIndex
 90
       18
102
RTVSPost2010Prop41ColorRGB
 90
        0
102
RTVSPost2010PropOp41
 70
     1
102
RTVSPost2010Prop42
 90
       50
102
RTVSPost2010PropOp42
 70
     1
102
RTVSPost2010Prop43
 90
        3
102
RTVSPost2010PropOp43
 70
     1
102
RTVSPost2010Prop44ColorIndex
 90
        5
102
RTVSPost2010Prop44ColorRGB
 90
      255
102
RTVSPost2010PropOp44
 70
     1
102
RTVSPost2010Prop45
280
     0
102
RTVSPost2010PropOp45
 70
     1
102
RTVSPost2010Prop46
 90
       50
102
RTVSPost2010PropOp46
 70
     1
102
RTVSPost2010Prop47
 90
       50
102
RTVSPost2010PropOp47
 70
     1
102
RTVSPost2010Prop48
 90
       50
102
RTVSPost2010PropOp48
 70
     1
102
RTVSPost2010Prop49
280
     0
102
RTVSPost2010PropOp49
 70
     1
102
RTVSPost2010Prop50
 90
       50
102
RTVSPost2010PropOp50
 70
     1
102
RTVSPost2010Prop51ColorIndex
 90
      256
102
RTVSPost2010Prop51ColorRGB
 90
-16777216
102
RTVSPost2010PropOp51
 70
     0
102
RTVSPost2010Prop52
140
1.0
102
RTVSPost2010PropOp52
 70
     0
102
RTVSPost2010Prop53
 90
        2
102
RTVSPost2010PropOp53
 70
     1
102
RTVSPost2010Prop54
  1
strokes_ogs.tif
102
RTVSPost2010PropOp54
 70
     1
102
RTVSPost2010Prop55
280
     0
102
RTVSPost2010PropOp55
 70
     1
102
RTVSPost2010Prop56
140
1.0
102
RTVSPost2010PropOp56
 70
     1
102
RTVSPost2010Prop57
140
1.0
102
RTVSPost2010PropOp57
 70
     1
  0
XRECORD
  5
104
102
{ACAD_REACTORS
330
103
102
}
330
103
100
AcDbXrecord
280
     1
102
RTVSPost2010Prop28
280
     0
102
RTVSPost2010PropOp28
 70
     0
102
RTVSPost2010Prop29
280
     1
102
RTVSPost2010PropOp29
 70
     0
102
RTVSPost2010Prop30
280
     1
102
RTVSPost2010PropOp30
 70
     0
102
RTVSPost2010Prop31
280
     0
102
RTVSPost2010PropOp31
 70
     0
102
RTVSPost2010Prop32
280
     0
102
RTVSPost2010PropOp32
 70
     0
102
RTVSPost2010Prop33
280
     0
102
RTVSPost2010PropOp33
 70
     0
102
RTVSPost2010Prop34
280
     0
102
RTVSPost2010PropOp34
 70
     0
102
RTVSPost2010Prop35
280
     0
102
RTVSPost2010PropOp35
 70
     0
102
RTVSPost2010Prop36
280
     0
102
RTVSPost2010PropOp36
 70
     0
102
RTVSPost2010Prop37
 90
       50
102
RTVSPost2010PropOp37
 70
     0
102
RTVSPost2010Prop38
140
0.0
102
RTVSPost2010PropOp38
 70
     0
102
RTVSPost2010Prop39
140
1.0
102
RTVSPost2010PropOp39
 70
     0
102
RTVSPost2010Prop40
 90
        0
102
RTVSPost2010PropOp40
 70
     0
102
RTVSPost2010Prop41ColorIndex
 90
       18
102
RTVSPost2010Prop41ColorRGB
 90
        0
102
RTVSPost2010PropOp41
 70
     0
102
RTVSPost2010Prop42
 90
       50
102
RTVSPost2010PropOp42
 70
     0
102
RTVSPost2010Prop43
 90
        3
102
RTVSPost2010PropOp43
 70
     0
102
RTVSPost2010Prop44ColorIndex
 90
        5
102
RTVSPost2010Prop44ColorRGB
 90
      255
102
RTVSPost2010PropOp44
 70
     0
102
RTVSPost2010Prop45
280
     0
102
RTVSPost2010PropOp45
 70
     0
102
RTVSPost2010Prop46
 90
       50
102
RTVSPost2010PropOp46
 70
     0
102
RTVSPost2010Prop47
 90
       50
102
RTVSPost2010PropOp47
 70
     0
102
RTVSPost2010Prop48
 90
       50
102
RTVSPost2010PropOp48
 70
     0
102
RTVSPost2010Prop49
280
     0
102
RTVSPost2010PropOp49
 70
     0
102
RTVSPost2010Prop50
 90
       50
102
RTVSPost2010PropOp50
 70
     0
102
RTVSPost2010Prop51ColorIndex
 90
      256
102
RTVSPost2010Prop51ColorRGB
 90
-16777216
102
RTVSPost2010PropOp51
 70
     0
102
RTVSPost2010Prop52
140
1.0
102
RTVSPost2010PropOp52
 70
     0
102
RTVSPost2010Prop53
 90
        2
102
RTVSPost2010PropOp53
 70
     0
102
RTVSPost2010Prop54
  1
strokes_ogs.tif
102
RTVSPost2010PropOp54
 70
     0
102
RTVSPost2010Prop55
280
     0
102
RTVSPost2010PropOp55
 70
     0
102
RTVSPost2010Prop56
140
1.0
102
RTVSPost2010PropOp56
 70
     0
102
RTVSPost2010Prop57
140
1.0
102
RTVSPost2010PropOp57
 70
     0
  0
XRECORD
  5
EA
102
{ACAD_REACTORS
330
E9
102
}
330
E9
100
AcDbXrecord
280
     1
102
RTVSPost2010Prop28
280
     0
102
RTVSPost2010PropOp28
 70
     1
102
RTVSPost2010Prop29
280
     1
102
RTVSPost2010PropOp29
 70
     1
102
RTVSPost2010Prop30
280
     1
102
RTVSPost2010PropOp30
 70
     1
102
RTVSPost2010Prop31
280
     0
102
RTVSPost2010PropOp31
 70
     1
102
RTVSPost2010Prop32
280
     0
102
RTVSPost2010PropOp32
 70
     1
102
RTVSPost2010Prop33
280
     0
102
RTVSPost2010PropOp33
 70
     1
102
RTVSPost2010Prop34
280
     0
102
RTVSPost2010PropOp34
 70
     1
102
RTVSPost2010Prop35
280
     0
102
RTVSPost2010PropOp35
 70
     1
102
RTVSPost2010Prop36
280
     0
102
RTVSPost2010PropOp36
 70
     1
102
RTVSPost2010Prop37
 90
       50
102
RTVSPost2010PropOp37
 70
     1
102
RTVSPost2010Prop38
140
0.0
102
RTVSPost2010PropOp38
 70
     1
102
RTVSPost2010Prop39
140
1.0
102
RTVSPost2010PropOp39
 70
     1
102
RTVSPost2010Prop40
 90
        0
102
RTVSPost2010PropOp40
 70
     1
102
RTVSPost2010Prop41ColorIndex
 90
       18
102
RTVSPost2010Prop41ColorRGB
 90
        0
102
RTVSPost2010PropOp41
 70
     1
102
RTVSPost2010Prop42
 90
       50
102
RTVSPost2010PropOp42
 70
     1
102
RTVSPost2010Prop43
 90
        3
102
RTVSPost2010PropOp43
 70
     1
102
RTVSPost2010Prop44ColorIndex
 90
        5
102
RTVSPost2010Prop44ColorRGB
 90
      255
102
RTVSPost2010PropOp44
 70
     1
102
RTVSPost2010Prop45
280
     0
102
RTVSPost2010PropOp45
 70
     1
102
RTVSPost2010Prop46
 90
       50
102
RTVSPost2010PropOp46
 70
     1
102
RTVSPost2010Prop47
 90
       50
102
RTVSPost2010PropOp47
 70
     1
102
RTVSPost2010Prop48
 90
       50
102
RTVSPost2010PropOp48
 70
     1
102
RTVSPost2010Prop49
280
     0
102
RTVSPost2010PropOp49
 70
     1
102
RTVSPost2010Prop50
 90
       50
102
RTVSPost2010PropOp50
 70
     1
102
RTVSPost2010Prop51ColorIndex
 90
      256
102
RTVSPost2010Prop51ColorRGB
 90
-16777216
102
RTVSPost2010PropOp51
 70
     0
102
RTVSPost2010Prop52
140
1.0
102
RTVSPost2010PropOp52
 70
     0
102
RTVSPost2010Prop53
 90
        2
102
RTVSPost2010PropOp53
 70
     1
102
RTVSPost2010Prop54
  1
strokes_ogs.tif
102
RTVSPost2010PropOp54
 70
     1
102
RTVSPost2010Prop55
280
     0
102
RTVSPost2010PropOp55
 70
     1
102
RTVSPost2010Prop56
140
1.0
102
RTVSPost2010PropOp56
 70
     1
102
RTVSPost2010Prop57
140
1.0
102
RTVSPost2010PropOp57
 70
     1
  0
XRECORD
  5
100
102
{ACAD_REACTORS
330
FF
102
}
330
FF
100
AcDbXrecord
280
     1
102
RTVSPost2010Prop28
280
     0
102
RTVSPost2010PropOp28
 70
     1
102
RTVSPost2010Prop29
280
     1
102
RTVSPost2010PropOp29
 70
     1
102
RTVSPost2010Prop30
280
     1
102
RTVSPost2010PropOp30
 70
     1
102
RTVSPost2010Prop31
280
     0
102
RTVSPost2010PropOp31
 70
     1
102
RTVSPost2010Prop32
280
     0
102
RTVSPost2010PropOp32
 70
     1
102
RTVSPost2010Prop33
280
     0
102
RTVSPost2010PropOp33
 70
     1
102
RTVSPost2010Prop34
280
     0
102
RTVSPost2010PropOp34
 70
     1
102
RTVSPost2010Prop35
280
     0
102
RTVSPost2010PropOp35
 70
     1
102
RTVSPost2010Prop36
280
     0
102
RTVSPost2010PropOp36
 70
     1
102
RTVSPost2010Prop37
 90
       50
102
RTVSPost2010PropOp37
 70
     1
102
RTVSPost2010Prop38
140
0.0
102
RTVSPost2010PropOp38
 70
     1
102
RTVSPost2010Prop39
140
1.0
102
RTVSPost2010PropOp39
 70
     1
102
RTVSPost2010Prop40
 90
        0
102
RTVSPost2010PropOp40
 70
     1
102
RTVSPost2010Prop41ColorIndex
 90
       18
102
RTVSPost2010Prop41ColorRGB
 90
        0
102
RTVSPost2010PropOp41
 70
     1
102
RTVSPost2010Prop42
 90
       50
102
RTVSPost2010PropOp42
 70
     1
102
RTVSPost2010Prop43
 90
        3
102
RTVSPost2010PropOp43
 70
     1
102
RTVSPost2010Prop44ColorIndex
 90
        5
102
RTVSPost2010Prop44ColorRGB
 90
      255
102
RTVSPost2010PropOp44
 70
     1
102
RTVSPost2010Prop45
280
     0
102
RTVSPost2010PropOp45
 70
     1
102
RTVSPost2010Prop46
 90
       50
102
RTVSPost2010PropOp46
 70
     1
102
RTVSPost2010Prop47
 90
       50
102
RTVSPost2010PropOp47
 70
     1
102
RTVSPost2010Prop48
 90
       50
102
RTVSPost2010PropOp48
 70
     1
102
RTVSPost2010Prop49
280
     0
102
RTVSPost2010PropOp49
 70
     1
102
RTVSPost2010Prop50
 90
       50
102
RTVSPost2010PropOp50
 70
     1
102
RTVSPost2010Prop51ColorIndex
 90
      256
102
RTVSPost2010Prop51ColorRGB
 90
-16777216
102
RTVSPost2010PropOp51
 70
     0
102
RTVSPost2010Prop52
140
1.0
102
RTVSPost2010PropOp52
 70
     0
102
RTVSPost2010Prop53
 90
        2
102
RTVSPost2010PropOp53
 70
     1
102
RTVSPost2010Prop54
  1
strokes_ogs.tif
102
RTVSPost2010PropOp54
 70
     1
102
RTVSPost2010Prop55
280
     0
102
RTVSPost2010PropOp55
 70
     1
102
RTVSPost2010Prop56
140
1.0
102
RTVSPost2010PropOp56
 70
     1
102
RTVSPost2010Prop57
140
1.0
102
RTVSPost2010PropOp57
 70
     1
  0
XRECORD
  5
FE
102
{ACAD_REACTORS
330
FD
102
}
330
FD
100
AcDbXrecord
280
     1
102
RTVSPost2010Prop28
280
     0
102
RTVSPost2010PropOp28
 70
     1
102
RTVSPost2010Prop29
280
     1
102
RTVSPost2010PropOp29
 70
     1
102
RTVSPost2010Prop30
280
     1
102
RTVSPost2010PropOp30
 70
     1
102
RTVSPost2010Prop31
280
     0
102
RTVSPost2010PropOp31
 70
     1
102
RTVSPost2010Prop32
280
     0
102
RTVSPost2010PropOp32
 70
     1
102
RTVSPost2010Prop33
280
     0
102
RTVSPost2010PropOp33
 70
     1
102
RTVSPost2010Prop34
280
     0
102
RTVSPost2010PropOp34
 70
     1
102
RTVSPost2010Prop35
280
     0
102
RTVSPost2010PropOp35
 70
     1
102
RTVSPost2010Prop36
280
     0
102
RTVSPost2010PropOp36
 70
     1
102
RTVSPost2010Prop37
 90
       50
102
RTVSPost2010PropOp37
 70
     1
102
RTVSPost2010Prop38
140
0.0
102
RTVSPost2010PropOp38
 70
     1
102
RTVSPost2010Prop39
140
1.0
102
RTVSPost2010PropOp39
 70
     1
102
RTVSPost2010Prop40
 90
        0
102
RTVSPost2010PropOp40
 70
     1
102
RTVSPost2010Prop41ColorIndex
 90
       18
102
RTVSPost2010Prop41ColorRGB
 90
        0
102
RTVSPost2010PropOp41
 70
     1
102
RTVSPost2010Prop42
 90
       50
102
RTVSPost2010PropOp42
 70
     1
102
RTVSPost2010Prop43
 90
        3
102
RTVSPost2010PropOp43
 70
     1
102
RTVSPost2010Prop44ColorIndex
 90
        5
102
RTVSPost2010Prop44ColorRGB
 90
      255
102
RTVSPost2010PropOp44
 70
     1
102
RTVSPost2010Prop45
280
     0
102
RTVSPost2010PropOp45
 70
     1
102
RTVSPost2010Prop46
 90
       50
102
RTVSPost2010PropOp46
 70
     1
102
RTVSPost2010Prop47
 90
       50
102
RTVSPost2010PropOp47
 70
     1
102
RTVSPost2010Prop48
 90
       50
102
RTVSPost2010PropOp48
 70
     1
102
RTVSPost2010Prop49
280
     0
102
RTVSPost2010PropOp49
 70
     1
102
RTVSPost2010Prop50
 90
       50
102
RTVSPost2010PropOp50
 70
     1
102
RTVSPost2010Prop51ColorIndex
 90
      256
102
RTVSPost2010Prop51ColorRGB
 90
-16777216
102
RTVSPost2010PropOp51
 70
     0
102
RTVSPost2010Prop52
140
1.0
102
RTVSPost2010PropOp52
 70
     0
102
RTVSPost2010Prop53
 90
        2
102
RTVSPost2010PropOp53
 70
     1
102
RTVSPost2010Prop54
  1
strokes_ogs.tif
102
RTVSPost2010PropOp54
 70
     1
102
RTVSPost2010Prop55
280
     0
102
RTVSPost2010PropOp55
 70
     1
102
RTVSPost2010Prop56
140
1.0
102
RTVSPost2010PropOp56
 70
     1
102
RTVSPost2010Prop57
140
1.0
102
RTVSPost2010PropOp57
 70
     1
  0
XRECORD
  5
F8
102
{ACAD_REACTORS
330
F7
102
}
330
F7
100
AcDbXrecord
280
     1
102
RTVSPost2010Prop28
280
     0
102
RTVSPost2010PropOp28
 70
     1
102
RTVSPost2010Prop29
280
     1
102
RTVSPost2010PropOp29
 70
     1
102
RTVSPost2010Prop30
280
     1
102
RTVSPost2010PropOp30
 70
     1
102
RTVSPost2010Prop31
280
     0
102
RTVSPost2010PropOp31
 70
     1
102
RTVSPost2010Prop32
280
     0
102
RTVSPost2010PropOp32
 70
     1
102
RTVSPost2010Prop33
280
     0
102
RTVSPost2010PropOp33
 70
     1
102
RTVSPost2010Prop34
280
     0
102
RTVSPost2010PropOp34
 70
     1
102
RTVSPost2010Prop35
280
     0
102
RTVSPost2010PropOp35
 70
     1
102
RTVSPost2010Prop36
280
     0
102
RTVSPost2010PropOp36
 70
     1
102
RTVSPost2010Prop37
 90
       50
102
RTVSPost2010PropOp37
 70
     1
102
RTVSPost2010Prop38
140
0.0
102
RTVSPost2010PropOp38
 70
     1
102
RTVSPost2010Prop39
140
1.0
102
RTVSPost2010PropOp39
 70
     1
102
RTVSPost2010Prop40
 90
        0
102
RTVSPost2010PropOp40
 70
     1
102
RTVSPost2010Prop41ColorIndex
 90
       18
102
RTVSPost2010Prop41ColorRGB
 90
        0
102
RTVSPost2010PropOp41
 70
     1
102
RTVSPost2010Prop42
 90
       50
102
RTVSPost2010PropOp42
 70
     1
102
RTVSPost2010Prop43
 90
        3
102
RTVSPost2010PropOp43
 70
     1
102
RTVSPost2010Prop44ColorIndex
 90
        5
102
RTVSPost2010Prop44ColorRGB
 90
      255
102
RTVSPost2010PropOp44
 70
     1
102
RTVSPost2010Prop45
280
     0
102
RTVSPost2010PropOp45
 70
     1
102
RTVSPost2010Prop46
 90
       50
102
RTVSPost2010PropOp46
 70
     1
102
RTVSPost2010Prop47
 90
       50
102
RTVSPost2010PropOp47
 70
     1
102
RTVSPost2010Prop48
 90
       50
102
RTVSPost2010PropOp48
 70
     1
102
RTVSPost2010Prop49
280
     0
102
RTVSPost2010PropOp49
 70
     1
102
RTVSPost2010Prop50
 90
       50
102
RTVSPost2010PropOp50
 70
     1
102
RTVSPost2010Prop51ColorIndex
 90
      256
102
RTVSPost2010Prop51ColorRGB
 90
-16777216
102
RTVSPost2010PropOp51
 70
     0
102
RTVSPost2010Prop52
140
1.0
102
RTVSPost2010PropOp52
 70
     0
102
RTVSPost2010Prop53
 90
        2
102
RTVSPost2010PropOp53
 70
     1
102
RTVSPost2010Prop54
  1
strokes_ogs.tif
102
RTVSPost2010PropOp54
 70
     1
102
RTVSPost2010Prop55
280
     0
102
RTVSPost2010PropOp55
 70
     1
102
RTVSPost2010Prop56
140
1.0
102
RTVSPost2010PropOp56
 70
     1
102
RTVSPost2010Prop57
140
1.0
102
RTVSPost2010PropOp57
 70
     1
  0
XRECORD
  5
FA
102
{ACAD_REACTORS
330
F9
102
}
330
F9
100
AcDbXrecord
280
     1
102
RTVSPost2010Prop28
280
     0
102
RTVSPost2010PropOp28
 70
     1
102
RTVSPost2010Prop29
280
     1
102
RTVSPost2010PropOp29
 70
     1
102
RTVSPost2010Prop30
280
     1
102
RTVSPost2010PropOp30
 70
     1
102
RTVSPost2010Prop31
280
     0
102
RTVSPost2010PropOp31
 70
     1
102
RTVSPost2010Prop32
280
     0
102
RTVSPost2010PropOp32
 70
     1
102
RTVSPost2010Prop33
280
     0
102
RTVSPost2010PropOp33
 70
     1
102
RTVSPost2010Prop34
280
     0
102
RTVSPost2010PropOp34
 70
     1
102
RTVSPost2010Prop35
280
     0
102
RTVSPost2010PropOp35
 70
     1
102
RTVSPost2010Prop36
280
     0
102
RTVSPost2010PropOp36
 70
     1
102
RTVSPost2010Prop37
 90
       50
102
RTVSPost2010PropOp37
 70
     1
102
RTVSPost2010Prop38
140
0.0
102
RTVSPost2010PropOp38
 70
     1
102
RTVSPost2010Prop39
140
1.0
102
RTVSPost2010PropOp39
 70
     1
102
RTVSPost2010Prop40
 90
        0
102
RTVSPost2010PropOp40
 70
     1
102
RTVSPost2010Prop41ColorIndex
 90
       18
102
RTVSPost2010Prop41ColorRGB
 90
        0
102
RTVSPost2010PropOp41
 70
     1
102
RTVSPost2010Prop42
 90
       50
102
RTVSPost2010PropOp42
 70
     1
102
RTVSPost2010Prop43
 90
        3
102
RTVSPost2010PropOp43
 70
     1
102
RTVSPost2010Prop44ColorIndex
 90
        5
102
RTVSPost2010Prop44ColorRGB
 90
      255
102
RTVSPost2010PropOp44
 70
     1
102
RTVSPost2010Prop45
280
     0
102
RTVSPost2010PropOp45
 70
     1
102
RTVSPost2010Prop46
 90
       50
102
RTVSPost2010PropOp46
 70
     1
102
RTVSPost2010Prop47
 90
       50
102
RTVSPost2010PropOp47
 70
     1
102
RTVSPost2010Prop48
 90
       50
102
RTVSPost2010PropOp48
 70
     1
102
RTVSPost2010Prop49
280
     0
102
RTVSPost2010PropOp49
 70
     1
102
RTVSPost2010Prop50
 90
       50
102
RTVSPost2010PropOp50
 70
     1
102
RTVSPost2010Prop51ColorIndex
 90
      256
102
RTVSPost2010Prop51ColorRGB
 90
-16777216
102
RTVSPost2010PropOp51
 70
     0
102
RTVSPost2010Prop52
140
1.0
102
RTVSPost2010PropOp52
 70
     0
102
RTVSPost2010Prop53
 90
        2
102
RTVSPost2010PropOp53
 70
     1
102
RTVSPost2010Prop54
  1
strokes_ogs.tif
102
RTVSPost2010PropOp54
 70
     1
102
RTVSPost2010Prop55
280
     0
102
RTVSPost2010PropOp55
 70
     1
102
RTVSPost2010Prop56
140
1.0
102
RTVSPost2010PropOp56
 70
     1
102
RTVSPost2010Prop57
140
1.0
102
RTVSPost2010PropOp57
 70
     1
  0
XRECORD
  5
F0
102
{ACAD_REACTORS
330
EF
102
}
330
EF
100
AcDbXrecord
280
     1
102
RTVSPost2010Prop28
280
     0
102
RTVSPost2010PropOp28
 70
     1
102
RTVSPost2010Prop29
280
     1
102
RTVSPost2010PropOp29
 70
     1
102
RTVSPost2010Prop30
280
     1
102
RTVSPost2010PropOp30
 70
     1
102
RTVSPost2010Prop31
280
     0
102
RTVSPost2010PropOp31
 70
     1
102
RTVSPost2010Prop32
280
     0
102
RTVSPost2010PropOp32
 70
     1
102
RTVSPost2010Prop33
280
     0
102
RTVSPost2010PropOp33
 70
     1
102
RTVSPost2010Prop34
280
     0
102
RTVSPost2010PropOp34
 70
     1
102
RTVSPost2010Prop35
280
     0
102
RTVSPost2010PropOp35
 70
     1
102
RTVSPost2010Prop36
280
     0
102
RTVSPost2010PropOp36
 70
     1
102
RTVSPost2010Prop37
 90
       50
102
RTVSPost2010PropOp37
 70
     1
102
RTVSPost2010Prop38
140
0.0
102
RTVSPost2010PropOp38
 70
     1
102
RTVSPost2010Prop39
140
1.0
102
RTVSPost2010PropOp39
 70
     1
102
RTVSPost2010Prop40
 90
        0
102
RTVSPost2010PropOp40
 70
     1
102
RTVSPost2010Prop41ColorIndex
 90
       18
102
RTVSPost2010Prop41ColorRGB
 90
        0
102
RTVSPost2010PropOp41
 70
     1
102
RTVSPost2010Prop42
 90
       50
102
RTVSPost2010PropOp42
 70
     1
102
RTVSPost2010Prop43
 90
        3
102
RTVSPost2010PropOp43
 70
     1
102
RTVSPost2010Prop44ColorIndex
 90
        5
102
RTVSPost2010Prop44ColorRGB
 90
      255
102
RTVSPost2010PropOp44
 70
     1
102
RTVSPost2010Prop45
280
     0
102
RTVSPost2010PropOp45
 70
     1
102
RTVSPost2010Prop46
 90
       50
102
RTVSPost2010PropOp46
 70
     1
102
RTVSPost2010Prop47
 90
       50
102
RTVSPost2010PropOp47
 70
     1
102
RTVSPost2010Prop48
 90
       50
102
RTVSPost2010PropOp48
 70
     1
102
RTVSPost2010Prop49
280
     0
102
RTVSPost2010PropOp49
 70
     1
102
RTVSPost2010Prop50
 90
       50
102
RTVSPost2010PropOp50
 70
     1
102
RTVSPost2010Prop51ColorIndex
 90
      256
102
RTVSPost2010Prop51ColorRGB
 90
-16777216
102
RTVSPost2010PropOp51
 70
     0
102
RTVSPost2010Prop52
140
1.0
102
RTVSPost2010PropOp52
 70
     0
102
RTVSPost2010Prop53
 90
        2
102
RTVSPost2010PropOp53
 70
     1
102
RTVSPost2010Prop54
  1
strokes_ogs.tif
102
RTVSPost2010PropOp54
 70
     1
102
RTVSPost2010Prop55
280
     0
102
RTVSPost2010PropOp55
 70
     1
102
RTVSPost2010Prop56
140
1.0
102
RTVSPost2010PropOp56
 70
     1
102
RTVSPost2010Prop57
140
1.0
102
RTVSPost2010PropOp57
 70
     1
  0
XRECORD
  5
E4
102
{ACAD_REACTORS
330
E3
102
}
330
E3
100
AcDbXrecord
280
     1
102
RTVSPost2010Prop28
280
     0
102
RTVSPost2010PropOp28
 70
     1
102
RTVSPost2010Prop29
280
     1
102
RTVSPost2010PropOp29
 70
     1
102
RTVSPost2010Prop30
280
     1
102
RTVSPost2010PropOp30
 70
     1
102
RTVSPost2010Prop31
280
     0
102
RTVSPost2010PropOp31
 70
     1
102
RTVSPost2010Prop32
280
     0
102
RTVSPost2010PropOp32
 70
     1
102
RTVSPost2010Prop33
280
     0
102
RTVSPost2010PropOp33
 70
     1
102
RTVSPost2010Prop34
280
     0
102
RTVSPost2010PropOp34
 70
     1
102
RTVSPost2010Prop35
280
     0
102
RTVSPost2010PropOp35
 70
     1
102
RTVSPost2010Prop36
280
     0
102
RTVSPost2010PropOp36
 70
     1
102
RTVSPost2010Prop37
 90
       50
102
RTVSPost2010PropOp37
 70
     1
102
RTVSPost2010Prop38
140
0.0
102
RTVSPost2010PropOp38
 70
     1
102
RTVSPost2010Prop39
140
1.0
102
RTVSPost2010PropOp39
 70
     1
102
RTVSPost2010Prop40
 90
        0
102
RTVSPost2010PropOp40
 70
     1
102
RTVSPost2010Prop41ColorIndex
 90
       18
102
RTVSPost2010Prop41ColorRGB
 90
        0
102
RTVSPost2010PropOp41
 70
     1
102
RTVSPost2010Prop42
 90
       50
102
RTVSPost2010PropOp42
 70
     1
102
RTVSPost2010Prop43
 90
        3
102
RTVSPost2010PropOp43
 70
     1
102
RTVSPost2010Prop44ColorIndex
 90
        5
102
RTVSPost2010Prop44ColorRGB
 90
      255
102
RTVSPost2010PropOp44
 70
     1
102
RTVSPost2010Prop45
280
     0
102
RTVSPost2010PropOp45
 70
     1
102
RTVSPost2010Prop46
 90
       50
102
RTVSPost2010PropOp46
 70
     1
102
RTVSPost2010Prop47
 90
       50
102
RTVSPost2010PropOp47
 70
     1
102
RTVSPost2010Prop48
 90
       50
102
RTVSPost2010PropOp48
 70
     1
102
RTVSPost2010Prop49
280
     0
102
RTVSPost2010PropOp49
 70
     1
102
RTVSPost2010Prop50
 90
       50
102
RTVSPost2010PropOp50
 70
     1
102
RTVSPost2010Prop51ColorIndex
 90
      256
102
RTVSPost2010Prop51ColorRGB
 90
-16777216
102
RTVSPost2010PropOp51
 70
     0
102
RTVSPost2010Prop52
140
1.0
102
RTVSPost2010PropOp52
 70
     0
102
RTVSPost2010Prop53
 90
        2
102
RTVSPost2010PropOp53
 70
     1
102
RTVSPost2010Prop54
  1
strokes_ogs.tif
102
RTVSPost2010PropOp54
 70
     1
102
RTVSPost2010Prop55
280
     0
102
RTVSPost2010PropOp55
 70
     1
102
RTVSPost2010Prop56
140
1.0
102
RTVSPost2010PropOp56
 70
     1
102
RTVSPost2010Prop57
140
1.0
102
RTVSPost2010PropOp57
 70
     1
  0
XRECORD
  5
FC
102
{ACAD_REACTORS
330
FB
102
}
330
FB
100
AcDbXrecord
280
     1
102
RTVSPost2010Prop28
280
     0
102
RTVSPost2010PropOp28
 70
     1
102
RTVSPost2010Prop29
280
     1
102
RTVSPost2010PropOp29
 70
     1
102
RTVSPost2010Prop30
280
     1
102
RTVSPost2010PropOp30
 70
     1
102
RTVSPost2010Prop31
280
     0
102
RTVSPost2010PropOp31
 70
     1
102
RTVSPost2010Prop32
280
     0
102
RTVSPost2010PropOp32
 70
     1
102
RTVSPost2010Prop33
280
     0
102
RTVSPost2010PropOp33
 70
     1
102
RTVSPost2010Prop34
280
     0
102
RTVSPost2010PropOp34
 70
     1
102
RTVSPost2010Prop35
280
     0
102
RTVSPost2010PropOp35
 70
     1
102
RTVSPost2010Prop36
280
     0
102
RTVSPost2010PropOp36
 70
     1
102
RTVSPost2010Prop37
 90
       50
102
RTVSPost2010PropOp37
 70
     1
102
RTVSPost2010Prop38
140
0.0
102
RTVSPost2010PropOp38
 70
     1
102
RTVSPost2010Prop39
140
1.0
102
RTVSPost2010PropOp39
 70
     1
102
RTVSPost2010Prop40
 90
        0
102
RTVSPost2010PropOp40
 70
     1
102
RTVSPost2010Prop41ColorIndex
 90
       18
102
RTVSPost2010Prop41ColorRGB
 90
        0
102
RTVSPost2010PropOp41
 70
     1
102
RTVSPost2010Prop42
 90
       50
102
RTVSPost2010PropOp42
 70
     1
102
RTVSPost2010Prop43
 90
        3
102
RTVSPost2010PropOp43
 70
     1
102
RTVSPost2010Prop44ColorIndex
 90
        5
102
RTVSPost2010Prop44ColorRGB
 90
      255
102
RTVSPost2010PropOp44
 70
     1
102
RTVSPost2010Prop45
280
     0
102
RTVSPost2010PropOp45
 70
     1
102
RTVSPost2010Prop46
 90
       50
102
RTVSPost2010PropOp46
 70
     1
102
RTVSPost2010Prop47
 90
       50
102
RTVSPost2010PropOp47
 70
     1
102
RTVSPost2010Prop48
 90
       50
102
RTVSPost2010PropOp48
 70
     1
102
RTVSPost2010Prop49
280
     0
102
RTVSPost2010PropOp49
 70
     1
102
RTVSPost2010Prop50
 90
       50
102
RTVSPost2010PropOp50
 70
     1
102
RTVSPost2010Prop51ColorIndex
 90
      256
102
RTVSPost2010Prop51ColorRGB
 90
-16777216
102
RTVSPost2010PropOp51
 70
     0
102
RTVSPost2010Prop52
140
1.0
102
RTVSPost2010PropOp52
 70
     0
102
RTVSPost2010Prop53
 90
        2
102
RTVSPost2010PropOp53
 70
     1
102
RTVSPost2010Prop54
  1
strokes_ogs.tif
102
RTVSPost2010PropOp54
 70
     1
102
RTVSPost2010Prop55
280
     0
102
RTVSPost2010PropOp55
 70
     1
102
RTVSPost2010Prop56
140
1.0
102
RTVSPost2010PropOp56
 70
     1
102
RTVSPost2010Prop57
140
1.0
102
RTVSPost2010PropOp57
 70
     1
  0
ENDSEC
  0
EOF
