  0
SECTION
  2
HEADER
  9
$ACADVER
  1
AC1024
  9
$ACADMAINTVER
 70
   226
  9
$DWGCODEPAGE
  3
ANSI_932
  9
$INSBASE
 10
0.0
 20
0.0
 30
0.0
  9
$EXTMIN
 10
1.000000000000000E+20
 20
1.000000000000000E+20
 30
1.000000000000000E+20
  9
$EXTMAX
 10
-1.000000000000000E+20
 20
-1.000000000000000E+20
 30
-1.000000000000000E+20
  9
$LIMMIN
 10
0.0
 20
0.0
  9
$LIMMAX
 10
12.0
 20
9.0
  9
$ORTHOMODE
 70
     0
  9
$REGENMODE
 70
     1
  9
$FILLMODE
 70
     1
  9
$QTEXTMODE
 70
     0
  9
$MIRRTEXT
 70
     0
  9
$LTSCALE
 40
1.0
  9
$ATTMODE
 70
     1
  9
$TEXTSIZE
 40
0.2
  9
$TRACEWID
 40
0.05
  9
$TEXTSTYLE
  7
Standard
  9
$CLAYER
  8
0
  9
$CELTYPE
  6
ByLayer
  9
$CECOLOR
 62
   256
  9
$CELTSCALE
 40
1.0
  9
$DISPSILH
 70
     0
  9
$DIMSCALE
 40
1.0
  9
$DIMASZ
 40
0.18
  9
$DIMEXO
 40
0.0625
  9
$DIMDLI
 40
0.38
  9
$DIMRND
 40
0.0
  9
$DIMDLE
 40
0.0
  9
$DIMEXE
 40
0.18
  9
$DIMTP
 40
0.0
  9
$DIMTM
 40
0.0
  9
$DIMTXT
 40
0.18
  9
$DIMCEN
 40
0.09
  9
$DIMTSZ
 40
0.0
  9
$DIMTOL
 70
     0
  9
$DIMLIM
 70
     0
  9
$DIMTIH
 70
     1
  9
$DIMTOH
 70
     1
  9
$DIMSE1
 70
     0
  9
$DIMSE2
 70
     0
  9
$DIMTAD
 70
     0
  9
$DIMZIN
 70
     0
  9
$DIMBLK
  1

  9
$DIMASO
 70
     1
  9
$DIMSHO
 70
     1
  9
$DIMPOST
  1

  9
$DIMAPOST
  1

  9
$DIMALT
 70
     0
  9
$DIMALTD
 70
     2
  9
$DIMALTF
 40
25.4
  9
$DIMLFAC
 40
1.0
  9
$DIMTOFL
 70
     0
  9
$DIMTVP
 40
0.0
  9
$DIMTIX
 70
     0
  9
$DIMSOXD
 70
     0
  9
$DIMSAH
 70
     0
  9
$DIMBLK1
  1

  9
$DIMBLK2
  1

  9
$DIMSTYLE
  2
Standard
  9
$DIMCLRD
 70
     0
  9
$DIMCLRE
 70
     0
  9
$DIMCLRT
 70
     0
  9
$DIMTFAC
 40
1.0
  9
$DIMGAP
 40
0.09
  9
$DIMJUST
 70
     0
  9
$DIMSD1
 70
     0
  9
$DIMSD2
 70
     0
  9
$DIMTOLJ
 70
     1
  9
$DIMTZIN
 70
     0
  9
$DIMALTZ
 70
     0
  9
$DIMALTTZ
 70
     0
  9
$DIMUPT
 70
     0
  9
$DIMDEC
 70
     4
  9
$DIMTDEC
 70
     4
  9
$DIMALTU
 70
     2
  9
$DIMALTTD
 70
     2
  9
$DIMTXSTY
  7
Standard
  9
$DIMAUNIT
 70
     0
  9
$DIMADEC
 70
     0
  9
$DIMALTRND
 40
0.0
  9
$DIMAZIN
 70
     0
  9
$DIMDSEP
 70
    46
  9
$DIMATFIT
 70
     3
  9
$DIMFRAC
 70
     0
  9
$DIMLDRBLK
  1

  9
$DIMLUNIT
 70
     2
  9
$DIMLWD
 70
    -2
  9
$DIMLWE
 70
    -2
  9
$DIMTMOVE
 70
     0
  9
$DIMFXL
 40
1.0
  9
$DIMFXLON
 70
     0
  9
$DIMJOGANG
 40
0.7853981633974483
  9
$DIMTFILL
 70
     0
  9
$DIMTFILLCLR
 70
     0
  9
$DIMARCSYM
 70
     0
  9
$DIMLTYPE
  6

  9
$DIMLTEX1
  6

  9
$DIMLTEX2
  6

  9
$DIMTXTDIRECTION
 70
     0
  9
$LUNITS
 70
     2
  9
$LUPREC
 70
     4
  9
$SKETCHINC
 40
0.1
  9
$FILLETRAD
 40
0.0
  9
$AUNITS
 70
     0
  9
$AUPREC
 70
     0
  9
$MENU
  1
.
  9
$ELEVATION
 40
0.0
  9
$PELEVATION
 40
0.0
  9
$THICKNESS
 40
0.0
  9
$LIMCHECK
 70
     0
  9
$CHAMFERA
 40
0.0
  9
$CHAMFERB
 40
0.0
  9
$CHAMFERC
 40
0.0
  9
$CHAMFERD
 40
0.0
  9
$SKPOLY
 70
     0
  9
$TDCREATE
 40
2459569.488622685
  9
$TDUCREATE
 40
2459569.113622685
  9
$TDUPDATE
 40
2459569.488622685
  9
$TDUUPDATE
 40
2459569.113622685
  9
$TDINDWG
 40
0.0000000000
  9
$TDUSRTIMER
 40
0.0000000000
  9
$USRTIMER
 70
     1
  9
$ANGBASE
 50
0.0
  9
$ANGDIR
 70
     0
  9
$PDMODE
 70
     0
  9
$PDSIZE
 40
0.0
  9
$PLINEWID
 40
0.0
  9
$SPLFRAME
 70
     0
  9
$SPLINETYPE
 70
     6
  9
$SPLINESEGS
 70
     8
  9
$HANDSEED
  5
19D
  9
$SURFTAB1
 70
     6
  9
$SURFTAB2
 70
     6
  9
$SURFTYPE
 70
     6
  9
$SURFU
 70
     6
  9
$SURFV
 70
     6
  9
$UCSBASE
  2

  9
$UCSNAME
  2

  9
$UCSORG
 10
0.0
 20
0.0
 30
0.0
  9
$UCSXDIR
 10
1.0
 20
0.0
 30
0.0
  9
$UCSYDIR
 10
0.0
 20
1.0
 30
0.0
  9
$UCSORTHOREF
  2

  9
$UCSORTHOVIEW
 70
     0
  9
$UCSORGTOP
 10
0.0
 20
0.0
 30
0.0
  9
$UCSORGBOTTOM
 10
0.0
 20
0.0
 30
0.0
  9
$UCSORGLEFT
 10
0.0
 20
0.0
 30
0.0
  9
$UCSORGRIGHT
 10
0.0
 20
0.0
 30
0.0
  9
$UCSORGFRONT
 10
0.0
 20
0.0
 30
0.0
  9
$UCSORGBACK
 10
0.0
 20
0.0
 30
0.0
  9
$PUCSBASE
  2

  9
$PUCSNAME
  2

  9
$PUCSORG
 10
0.0
 20
0.0
 30
0.0
  9
$PUCSXDIR
 10
1.0
 20
0.0
 30
0.0
  9
$PUCSYDIR
 10
0.0
 20
1.0
 30
0.0
  9
$PUCSORTHOREF
  2

  9
$PUCSORTHOVIEW
 70
     0
  9
$PUCSORGTOP
 10
0.0
 20
0.0
 30
0.0
  9
$PUCSORGBOTTOM
 10
0.0
 20
0.0
 30
0.0
  9
$PUCSORGLEFT
 10
0.0
 20
0.0
 30
0.0
  9
$PUCSORGRIGHT
 10
0.0
 20
0.0
 30
0.0
  9
$PUCSORGFRONT
 10
0.0
 20
0.0
 30
0.0
  9
$PUCSORGBACK
 10
0.0
 20
0.0
 30
0.0
  9
$USERI1
 70
     0
  9
$USERI2
 70
     0
  9
$USERI3
 70
     0
  9
$USERI4
 70
     0
  9
$USERI5
 70
     0
  9
$USERR1
 40
0.0
  9
$USERR2
 40
0.0
  9
$USERR3
 40
0.0
  9
$USERR4
 40
0.0
  9
$USERR5
 40
0.0
  9
$WORLDVIEW
 70
     1
  9
$SHADEDGE
 70
     3
  9
$SHADEDIF
 70
    70
  9
$TILEMODE
 70
     1
  9
$MAXACTVP
 70
    64
  9
$PINSBASE
 10
0.0
 20
0.0
 30
0.0
  9
$PLIMCHECK
 70
     0
  9
$PEXTMIN
 10
1.000000000000000E+20
 20
1.000000000000000E+20
 30
1.000000000000000E+20
  9
$PEXTMAX
 10
-1.000000000000000E+20
 20
-1.000000000000000E+20
 30
-1.000000000000000E+20
  9
$PLIMMIN
 10
0.0
 20
0.0
  9
$PLIMMAX
 10
12.0
 20
9.0
  9
$UNITMODE
 70
     0
  9
$VISRETAIN
 70
     1
  9
$PLINEGEN
 70
     0
  9
$PSLTSCALE
 70
     1
  9
$TREEDEPTH
 70
  3020
  9
$CMLSTYLE
  2
Standard
  9
$CMLJUST
 70
     0
  9
$CMLSCALE
 40
1.0
  9
$PROXYGRAPHICS
 70
     1
  9
$MEASUREMENT
 70
     0
  9
$CELWEIGHT
370
    -1
  9
$ENDCAPS
280
     0
  9
$JOINSTYLE
280
     0
  9
$LWDISPLAY
290
     1
  9
$INSUNITS
 70
     4
  9
$HYPERLINKBASE
  1

  9
$STYLESHEET
  1

  9
$XEDIT
290
     1
  9
$CEPSNTYPE
380
     0
  9
$PSTYLEMODE
290
     1
  9
$FINGERPRINTGUID
  2
{2E304EEE-0E86-0347-8635-63E932B56AA6}
  9
$VERSIONGUID
  2
{33CFCA4B-0D7D-824E-ABE9-21F6CAA651CE}
  9
$EXTNAMES
290
     1
  9
$PSVPSCALE
 40
0.0
  9
$OLESTARTUP
290
     0
  9
$SORTENTS
280
   127
  9
$INDEXCTL
280
     0
  9
$HIDETEXT
280
     1
  9
$XCLIPFRAME
280
     2
  9
$HALOGAP
280
     0
  9
$OBSCOLOR
 70
   257
  9
$OBSLTYPE
280
     0
  9
$INTERSECTIONDISPLAY
280
     0
  9
$INTERSECTIONCOLOR
 70
   257
  9
$DIMASSOC
280
     2
  9
$PROJECTNAME
  1

  9
$CAMERADISPLAY
290
     0
  9
$LENSLENGTH
 40
50.0
  9
$CAMERAHEIGHT
 40
0.0
  9
$STEPSPERSEC
 40
2.0
  9
$STEPSIZE
 40
6.0
  9
$3DDWFPREC
 40
2.0
  9
$PSOLWIDTH
 40
0.25
  9
$PSOLHEIGHT
 40
4.0
  9
$LOFTANG1
 40
1.570796326794896
  9
$LOFTANG2
 40
1.570796326794896
  9
$LOFTMAG1
 40
0.0
  9
$LOFTMAG2
 40
0.0
  9
$LOFTPARAM
 70
     7
  9
$LOFTNORMALS
280
     1
  9
$LATITUDE
 40
37.795
  9
$LONGITUDE
 40
-122.394
  9
$NORTHDIRECTION
 40
0.0
  9
$TIMEZONE
 70
 -8000
  9
$LIGHTGLYPHDISPLAY
280
     1
  9
$TILEMODELIGHTSYNCH
280
     1
  9
$CMATERIAL
347
11
  9
$SOLIDHIST
280
     0
  9
$SHOWHIST
280
     1
  9
$DWFFRAME
280
     2
  9
$DGNFRAME
280
     0
  9
$REALWORLDSCALE
290
     1
  9
$INTERFERECOLOR
 62
     1
  9
$INTERFEREOBJVS
345
33
  9
$INTERFEREVPVS
346
30
  9
$CSHADOW
280
     0
  9
$SHADOWPLANELOCATION
 40
0.0
  0
ENDSEC
  0
SECTION
  2
CLASSES
  0
CLASS
  1
ACDBDICTIONARYWDFLT
  2
AcDbDictionaryWithDefault
  3
ObjectDBX Classes
 90
        0
 91
        1
280
     0
281
     0
  0
CLASS
  1
MATERIAL
  2
AcDbMaterial
  3
ObjectDBX Classes
 90
     1153
 91
        3
280
     0
281
     0
  0
CLASS
  1
VISUALSTYLE
  2
AcDbVisualStyle
  3
ObjectDBX Classes
 90
     4095
 91
       24
280
     0
281
     0
  0
CLASS
  1
SCALE
  2
AcDbScale
  3
ObjectDBX Classes
 90
     1153
 91
       17
280
     0
281
     0
  0
CLASS
  1
TABLESTYLE
  2
AcDbTableStyle
  3
ObjectDBX Classes
 90
     4095
 91
        1
280
     0
281
     0
  0
CLASS
  1
MLEADERSTYLE
  2
AcDbMLeaderStyle
  3
ACDB_MLEADERSTYLE_CLASS
 90
     4095
 91
        1
280
     0
281
     0
  0
CLASS
  1
ACDBSECTIONVIEWSTYLE
  2
AcDbSectionViewStyle
  3
ObjectDBX Classes
 90
     1025
 91
        1
280
     0
281
     0
  0
CLASS
  1
ACDBDETAILVIEWSTYLE
  2
AcDbDetailViewStyle
  3
ObjectDBX Classes
 90
     1025
 91
        1
280
     0
281
     0
  0
CLASS
  1
DICTIONARYVAR
  2
AcDbDictionaryVar
  3
ObjectDBX Classes
 90
        0
 91
        5
280
     0
281
     0
  0
CLASS
  1
CELLSTYLEMAP
  2
AcDbCellStyleMap
  3
ObjectDBX Classes
 90
     1152
 91
        1
280
     0
281
     0
  0
ENDSEC
  0
SECTION
  2
TABLES
  0
TABLE
  2
VPORT
  5
8
330
0
100
AcDbSymbolTable
 70
     1
  0
VPORT
  5
57
330
8
100
AcDbSymbolTableRecord
100
AcDbViewportTableRecord
  2
*Active
 70
     0
 10
0.0
 20
0.0
 11
1.0
 21
1.0
 12
0.0
 22
0.0
 13
0.0
 23
0.0
 14
1.0
 24
1.0
 15
0.0
 25
0.0
 16
0.0
 26
0.0
 36
1.0
 17
104.9999999737534
 27
-148.4999999628701
 37
0.0
 40
302.939999924255
 41
0.7070707070707534
 42
50.0
 43
0.0
 44
0.0
 50
0.0
 51
0.0
 71
     0
 72
   100
 73
     1
 74
     0
 75
     1
 76
     0
 77
     0
 78
     0
281
     0
 65
     1
110
0.0
120
0.0
130
0.0
111
1.0
121
0.0
131
0.0
112
0.0
122
1.0
132
0.0
 79
     0
146
0.0
 60
     3
 61
     5
292
     1
282
     1
141
0.0
142
0.0
 63
   250
421
  3355443
  0
ENDTAB
  0
TABLE
  2
LTYPE
  5
5
330
0
100
AcDbSymbolTable
 70
     3
  0
LTYPE
  5
5B
330
5
100
AcDbSymbolTableRecord
100
AcDbLinetypeTableRecord
  2
ByBlock
 70
     0
  3

 72
    65
 73
     0
 40
0.0
  0
LTYPE
  5
5C
330
5
100
AcDbSymbolTableRecord
100
AcDbLinetypeTableRecord
  2
ByLayer
 70
     0
  3

 72
    65
 73
     0
 40
0.0
  0
LTYPE
  5
5D
330
5
100
AcDbSymbolTableRecord
100
AcDbLinetypeTableRecord
  2
Continuous
 70
     0
  3
Solid line
 72
    65
 73
     0
 40
0.0
  0
LTYPE
  5
D6
330
5
100
AcDbSymbolTableRecord
100
AcDbLinetypeTableRecord
  2
AI-Linetype-0
 70
     0
  3
Adobe Illustrator Linetype No. 0
 72
    65
 73
     2
 40
1.411111110758333
 49
0.7055555553791667
 74
     0
 49
-0.7055555553791667
 74
     0
  0
LTYPE
  5
F5
330
5
100
AcDbSymbolTableRecord
100
AcDbLinetypeTableRecord
  2
AI-Linetype-1
 70
     0
  3
Adobe Illustrator Linetype No. 1
 72
    65
 73
     2
 40
1.411111110758333
 49
0.7055555553791667
 74
     0
 49
-0.7055555553791667
 74
     0
  0
ENDTAB
  0
TABLE
  2
LAYER
  5
2
330
0
100
AcDbSymbolTable
 70
     2
  0
LAYER
  5
54
330
2
100
AcDbSymbolTableRecord
100
AcDbLayerTableRecord
  2
0
 70
     0
 62
     7
  6
Continuous
370
    -3
390
F
347
21
  0
LAYER
  5
78
330
2
100
AcDbSymbolTableRecord
100
AcDbLayerTableRecord
  2
レイヤー 1
 70
     0
 62
     7
  6
Continuous
370
     0
390
F
347
21
  0
ENDTAB
  0
TABLE
  2
STYLE
  5
3
330
0
100
AcDbSymbolTable
 70
     2
  0
STYLE
  5
55
330
3
100
AcDbSymbolTableRecord
100
AcDbTextStyleTableRecord
  2
Standard
 70
     0
 40
0.0
 41
1.0
 50
0.0
 71
     0
 42
0.2
  3
txt
  4

  0
STYLE
  5
5A
330
3
100
AcDbSymbolTableRecord
100
AcDbTextStyleTableRecord
  2
Annotative
 70
     0
 40
0.0
 41
1.0
 50
0.0
 71
     0
 42
0.2
  3
txt
  4

1001
AcadAnnotative
1000
AnnotativeData
1002
{
1070
     1
1070
     1
1002
}
  0
ENDTAB
  0
TABLE
  2
VIEW
  5
6
330
0
100
AcDbSymbolTable
 70
     0
  0
ENDTAB
  0
TABLE
  2
UCS
  5
7
330
0
100
AcDbSymbolTable
 70
     0
  0
ENDTAB
  0
TABLE
  2
APPID
  5
9
330
0
100
AcDbSymbolTable
 70
     2
  0
APPID
  5
56
330
9
100
AcDbSymbolTableRecord
100
AcDbRegAppTableRecord
  2
ACAD
 70
     0
  0
APPID
  5
5E
330
9
100
AcDbSymbolTableRecord
100
AcDbRegAppTableRecord
  2
AcadAnnotative
 70
     0
  0
ENDTAB
  0
TABLE
  2
DIMSTYLE
  5
A
330
0
100
AcDbSymbolTable
 70
     2
100
AcDbDimStyleTable
 71
     0
  0
DIMSTYLE
105
58
330
A
100
AcDbSymbolTableRecord
100
AcDbDimStyleTableRecord
  2
Standard
 70
     0
340
55
  0
DIMSTYLE
105
59
330
A
100
AcDbSymbolTableRecord
100
AcDbDimStyleTableRecord
  2
Annotative
 70
     0
340
55
1001
AcadAnnotative
1000
AnnotativeData
1002
{
1070
     1
1070
     1
1002
}
  0
ENDTAB
  0
TABLE
  2
BLOCK_RECORD
  5
1
330
0
100
AcDbSymbolTable
 70
    26
  0
BLOCK_RECORD
  5
70
330
1
100
AcDbSymbolTableRecord
100
AcDbBlockTableRecord
  2
*Model_Space
340
73
 70
     0
280
     1
281
     0
  0
BLOCK_RECORD
  5
6C
330
1
100
AcDbSymbolTableRecord
100
AcDbBlockTableRecord
  2
*Paper_Space
340
6F
 70
     0
280
     1
281
     0
  0
BLOCK_RECORD
  5
74
330
1
100
AcDbSymbolTableRecord
100
AcDbBlockTableRecord
  2
*Paper_Space0
340
77
 70
     0
280
     1
281
     0
  0
BLOCK_RECORD
  5
79
330
1
100
AcDbSymbolTableRecord
100
AcDbBlockTableRecord
  2
Block_0
340
0
102
{BLKREFS
331
7A
102
}
 70
     0
280
     1
281
     0
  0
BLOCK_RECORD
  5
80
330
1
100
AcDbSymbolTableRecord
100
AcDbBlockTableRecord
  2
Block_1
340
0
102
{BLKREFS
331
81
102
}
 70
     0
280
     1
281
     0
  0
BLOCK_RECORD
  5
8F
330
1
100
AcDbSymbolTableRecord
100
AcDbBlockTableRecord
  2
Block_2
340
0
102
{BLKREFS
331
90
102
}
 70
     0
280
     1
281
     0
  0
BLOCK_RECORD
  5
93
330
1
100
AcDbSymbolTableRecord
100
AcDbBlockTableRecord
  2
Block_3
340
0
102
{BLKREFS
331
94
102
}
 70
     0
280
     1
281
     0
  0
BLOCK_RECORD
  5
9F
330
1
100
AcDbSymbolTableRecord
100
AcDbBlockTableRecord
  2
Block_4
340
0
102
{BLKREFS
331
A0
102
}
 70
     0
280
     1
281
     0
  0
BLOCK_RECORD
  5
A3
330
1
100
AcDbSymbolTableRecord
100
AcDbBlockTableRecord
  2
Block_5
340
0
102
{BLKREFS
331
A4
102
}
 70
     0
280
     1
281
     0
  0
BLOCK_RECORD
  5
AC
330
1
100
AcDbSymbolTableRecord
100
AcDbBlockTableRecord
  2
Block_6
340
0
102
{BLKREFS
331
AD
102
}
 70
     0
280
     1
281
     0
  0
BLOCK_RECORD
  5
B0
330
1
100
AcDbSymbolTableRecord
100
AcDbBlockTableRecord
  2
Block_7
340
0
102
{BLKREFS
331
B1
102
}
 70
     0
280
     1
281
     0
  0
BLOCK_RECORD
  5
BC
330
1
100
AcDbSymbolTableRecord
100
AcDbBlockTableRecord
  2
Block_8
340
0
102
{BLKREFS
331
BD
102
}
 70
     0
280
     1
281
     0
  0
BLOCK_RECORD
  5
C0
330
1
100
AcDbSymbolTableRecord
100
AcDbBlockTableRecord
  2
Block_9
340
0
102
{BLKREFS
331
C1
102
}
 70
     0
280
     1
281
     0
  0
BLOCK_RECORD
  5
DA
330
1
100
AcDbSymbolTableRecord
100
AcDbBlockTableRecord
  2
Block_10
340
0
102
{BLKREFS
331
DB
102
}
 70
     0
280
     1
281
     0
  0
BLOCK_RECORD
  5
DE
330
1
100
AcDbSymbolTableRecord
100
AcDbBlockTableRecord
  2
Block_11
340
0
102
{BLKREFS
331
DF
102
}
 70
     0
280
     1
281
     0
  0
BLOCK_RECORD
  5
103
330
1
100
AcDbSymbolTableRecord
100
AcDbBlockTableRecord
  2
Block_12
340
0
102
{BLKREFS
331
104
102
}
 70
     0
280
     1
281
     0
  0
BLOCK_RECORD
  5
10A
330
1
100
AcDbSymbolTableRecord
100
AcDbBlockTableRecord
  2
Block_13
340
0
102
{BLKREFS
331
10B
102
}
 70
     0
280
     1
281
     0
  0
BLOCK_RECORD
  5
111
330
1
100
AcDbSymbolTableRecord
100
AcDbBlockTableRecord
  2
Block_14
340
0
102
{BLKREFS
331
112
102
}
 70
     0
280
     1
281
     0
  0
BLOCK_RECORD
  5
118
330
1
100
AcDbSymbolTableRecord
100
AcDbBlockTableRecord
  2
Block_15
340
0
102
{BLKREFS
331
119
102
}
 70
     0
280
     1
281
     0
  0
BLOCK_RECORD
  5
11F
330
1
100
AcDbSymbolTableRecord
100
AcDbBlockTableRecord
  2
Block_16
340
0
102
{BLKREFS
331
120
102
}
 70
     0
280
     1
281
     0
  0
BLOCK_RECORD
  5
126
330
1
100
AcDbSymbolTableRecord
100
AcDbBlockTableRecord
  2
Block_17
340
0
102
{BLKREFS
331
127
102
}
 70
     0
280
     1
281
     0
  0
BLOCK_RECORD
  5
12D
330
1
100
AcDbSymbolTableRecord
100
AcDbBlockTableRecord
  2
Block_18
340
0
102
{BLKREFS
331
12E
102
}
 70
     0
280
     1
281
     0
  0
BLOCK_RECORD
  5
134
330
1
100
AcDbSymbolTableRecord
100
AcDbBlockTableRecord
  2
Block_19
340
0
102
{BLKREFS
331
135
102
}
 70
     0
280
     1
281
     0
  0
BLOCK_RECORD
  5
13B
330
1
100
AcDbSymbolTableRecord
100
AcDbBlockTableRecord
  2
Block_20
340
0
102
{BLKREFS
331
13C
102
}
 70
     0
280
     1
281
     0
  0
BLOCK_RECORD
  5
142
330
1
100
AcDbSymbolTableRecord
100
AcDbBlockTableRecord
  2
Block_21
340
0
102
{BLKREFS
331
143
102
}
 70
     0
280
     1
281
     0
  0
BLOCK_RECORD
  5
149
330
1
100
AcDbSymbolTableRecord
100
AcDbBlockTableRecord
  2
Block_22
340
0
102
{BLKREFS
331
14A
102
}
 70
     0
280
     1
281
     0
  0
BLOCK_RECORD
  5
150
330
1
100
AcDbSymbolTableRecord
100
AcDbBlockTableRecord
  2
Block_23
340
0
102
{BLKREFS
331
151
102
}
 70
     0
280
     1
281
     0
  0
BLOCK_RECORD
  5
157
330
1
100
AcDbSymbolTableRecord
100
AcDbBlockTableRecord
  2
Block_24
340
0
102
{BLKREFS
331
158
102
}
 70
     0
280
     1
281
     0
  0
ENDTAB
  0
ENDSEC
  0
SECTION
  2
BLOCKS
  0
BLOCK
  5
71
330
70
100
AcDbEntity
  8
0
100
AcDbBlockBegin
  2
*Model_Space
 70
     0
 10
0.0
 20
0.0
 30
0.0
  3
*Model_Space
  1

  0
ENDBLK
  5
72
330
70
100
AcDbEntity
  8
0
100
AcDbBlockEnd
  0
BLOCK
  5
6D
330
6C
100
AcDbEntity
 67
     1
  8
0
100
AcDbBlockBegin
  2
*Paper_Space
 70
     0
 10
0.0
 20
0.0
 30
0.0
  3
*Paper_Space
  1

  0
ENDBLK
  5
6E
330
6C
100
AcDbEntity
 67
     1
  8
0
100
AcDbBlockEnd
  0
BLOCK
  5
75
330
74
100
AcDbEntity
 67
     1
  8
0
100
AcDbBlockBegin
  2
*Paper_Space0
 70
     0
 10
0.0
 20
0.0
 30
0.0
  3
*Paper_Space0
  1

  0
ENDBLK
  5
76
330
74
100
AcDbEntity
 67
     1
  8
0
100
AcDbBlockEnd
  0
BLOCK
  5
7B
330
79
100
AcDbEntity
  8
0
100
AcDbBlockBegin
  2
Block_0
 70
     0
 10
0.0
 20
0.0
 30
0.0
  3
Block_0
  1

  0
SPLINE
  5
7D
330
79
100
AcDbEntity
  8
レイヤー 1
 62
   250
420
  2299925
370
    25
100
AcDbSpline
210
0.0
220
0.0
230
1.0
 70
     8
 71
     3
 72
    11
 73
     7
 74
     0
 42
0.0000000001
 43
0.0000000001
 40
0.0
 40
0.0
 40
0.0
 40
0.0
 40
1.0
 40
1.0
 40
1.0
 40
2.0
 40
2.0
 40
2.0
 40
2.0
 10
86.0063446174235
 20
-162.9730184767854
 30
0.0
 10
86.0063446174235
 20
-162.9730184767854
 30
0.0
 10
78.00659605035876
 20
-162.9730184767854
 30
0.0
 10
78.00659605035876
 20
-162.9730184767854
 30
0.0
 10
78.00659605035876
 20
-162.9730184767854
 30
0.0
 10
78.00659605035876
 20
-154.9732914415675
 30
0.0
 10
78.00659605035876
 20
-154.9732914415675
 30
0.0
  0
SPLINE
  5
7E
330
79
100
AcDbEntity
  8
レイヤー 1
 62
   250
420
  2299925
370
    25
100
AcDbSpline
210
0.0
220
0.0
230
1.0
 70
     8
 71
     3
 72
    14
 73
    10
 74
     0
 42
0.0000000001
 43
0.0000000001
 40
0.0
 40
0.0
 40
0.0
 40
0.0
 40
1.0
 40
1.0
 40
1.0
 40
2.0
 40
2.0
 40
2.0
 40
3.0
 40
3.0
 40
3.0
 40
3.0
 10
77.00646329914396
 20
-153.9731586903527
 30
0.0
 10
77.00646329914396
 20
-153.9731586903527
 30
0.0
 10
77.00646329914396
 20
-162.9731476678661
 30
0.0
 10
77.00646329914396
 20
-162.9731476678661
 30
0.0
 10
77.00646329914396
 20
-163.5254395378452
 30
0.0
 10
77.45417498929895
 20
-163.9731512280002
 30
0.0
 10
78.00646685927806
 20
-163.9731512280002
 30
0.0
 10
78.00646685927806
 20
-163.9731512280002
 30
0.0
 10
87.00645583679152
 20
-163.9731512280002
 30
0.0
 10
87.00645583679152
 20
-163.9731512280002
 30
0.0
  0
LWPOLYLINE
  5
7F
330
79
100
AcDbEntity
  8
レイヤー 1
 62
   250
420
  2299925
370
    25
100
AcDbPolyline
 90
       10
 70
     1
 43
0.0
 10
113.0064461240062
 20
-162.9731244538438
 10
87.00645546205278
 20
-162.9731244538438
 10
78.00647224223976
 20
-153.9001756502002
 10
78.00647224223976
 20
-127.9731721039244
 10
77.40646868200555
 20
-127.9731721039244
 10
77.00646868210565
 20
-154.3146852326161
 10
77.00644715025886
 20
-154.3147067644629
 10
86.59192434779008
 20
-163.9731495458247
 10
86.59194587963717
 20
-163.9731280139779
 10
113.0064461240062
 20
-163.573128014078
  0
ENDBLK
  5
7C
330
79
100
AcDbEntity
  8
0
100
AcDbBlockEnd
  0
BLOCK
  5
82
330
80
100
AcDbEntity
  8
0
100
AcDbBlockBegin
  2
Block_1
 70
     0
 10
0.0
 20
0.0
 30
0.0
  3
Block_1
  1

  0
LWPOLYLINE
  5
84
330
80
100
AcDbEntity
  8
レイヤー 1
 62
   250
420
  2299925
370
    25
100
AcDbPolyline
 90
        1
 70
     0
 43
0.0
 10
113.8458628714218
 20
-162.9734134858871
  0
LWPOLYLINE
  5
85
330
80
100
AcDbEntity
  8
レイヤー 1
 62
   250
420
  2299925
370
    25
100
AcDbPolyline
 90
        1
 70
     0
 43
0.0
 10
113.8458628714218
 20
-163.473617084237
  0
LWPOLYLINE
  5
86
330
80
100
AcDbEntity
  8
レイヤー 1
 62
   250
420
  2299925
370
    25
100
AcDbPolyline
 90
        1
 70
     0
 43
0.0
 10
78.00711748278603
 20
-126.9734134425112
  0
LWPOLYLINE
  5
87
330
80
100
AcDbEntity
  8
レイヤー 1
 62
   250
420
  2299925
370
    25
100
AcDbPolyline
 90
        1
 70
     0
 43
0.0
 10
77.50754887179967
 20
-127.0134139855805
  0
SPLINE
  5
88
330
80
100
AcDbEntity
  8
レイヤー 1
 62
   250
420
  2299925
370
     9
100
AcDbSpline
210
0.0
220
0.0
230
1.0
 70
     9
 71
     3
 72
    17
 73
    13
 74
     0
 42
0.0000000001
 43
0.0000000001
 40
0.0
 40
0.0
 40
0.0
 40
0.0
 40
1.0
 40
1.0
 40
1.0
 40
2.0
 40
2.0
 40
2.0
 40
3.0
 40
3.0
 40
3.0
 40
4.0
 40
4.0
 40
4.0
 40
4.0
 10
113.1063528196674
 20
-167.973615024988
 30
0.0
 10
113.1063528196674
 20
-167.9181583597362
 30
0.0
 10
113.0615853208095
 20
-167.8733555831014
 30
0.0
 10
113.0064461555496
 20
-167.8733555831014
 30
0.0
 10
112.9513422680665
 20
-167.8733555831014
 30
0.0
 10
112.9065394914318
 20
-167.9181583597362
 30
0.0
 10
112.9065394914318
 20
-167.973615024988
 30
0.0
 10
112.9065394914318
 20
-168.0287189124711
 30
0.0
 10
112.9513422680665
 20
-168.0735216891058
 30
0.0
 10
113.0064461555496
 20
-168.0735216891058
 30
0.0
 10
113.0615853208095
 20
-168.0735216891058
 30
0.0
 10
113.1063528196674
 20
-168.0287189124711
 30
0.0
 10
113.1063528196674
 20
-167.973615024988
 30
0.0
  0
SPLINE
  5
89
330
80
100
AcDbEntity
  8
レイヤー 1
 62
   250
420
  2299925
370
     9
100
AcDbSpline
210
0.0
220
0.0
230
1.0
 70
     9
 71
     3
 72
    17
 73
    13
 74
     0
 42
0.0000000001
 43
0.0000000001
 40
0.0
 40
0.0
 40
0.0
 40
0.0
 40
1.0
 40
1.0
 40
1.0
 40
2.0
 40
2.0
 40
2.0
 40
3.0
 40
3.0
 40
3.0
 40
4.0
 40
4.0
 40
4.0
 40
4.0
 10
73.10749276178857
 20
-163.9735031825949
 30
0.0
 10
73.10749276178857
 20
-163.9180402905163
 30
0.0
 10
73.06268998402216
 20
-163.8735902905274
 30
0.0
 10
73.00758609514692
 20
-163.8735902905274
 30
0.0
 10
72.95177665071648
 20
-163.8735902905274
 30
0.0
 10
72.90697387294976
 20
-163.9180402905163
 30
0.0
 10
72.90697387294976
 20
-163.9735031825949
 30
0.0
 10
72.90697387294976
 20
-164.0286423478548
 30
0.0
 10
72.95177665071648
 20
-164.0734098467127
 30
0.0
 10
73.00758609514692
 20
-164.0734098467127
 30
0.0
 10
73.06268998402216
 20
-164.0734098467127
 30
0.0
 10
73.10749276178857
 20
-164.0286423478548
 30
0.0
 10
73.10749276178857
 20
-163.9735031825949
 30
0.0
  0
SPLINE
  5
8A
330
80
100
AcDbEntity
  8
レイヤー 1
 62
   250
420
  2299925
370
     9
100
AcDbSpline
210
0.0
220
0.0
230
1.0
 70
     9
 71
     3
 72
    17
 73
    13
 74
     0
 42
0.0000000001
 43
0.0000000001
 40
0.0
 40
0.0
 40
0.0
 40
0.0
 40
1.0
 40
1.0
 40
1.0
 40
2.0
 40
2.0
 40
2.0
 40
3.0
 40
3.0
 40
3.0
 40
4.0
 40
4.0
 40
4.0
 40
4.0
 10
77.10725192745545
 20
-167.973615024988
 30
0.0
 10
77.10725192745545
 20
-167.9181583597362
 30
0.0
 10
77.06244914968872
 20
-167.8733555831014
 30
0.0
 10
77.00734526081348
 20
-167.8733555831014
 30
0.0
 10
76.95220609416073
 20
-167.8733555831014
 30
0.0
 10
76.90743859417185
 20
-167.9181583597362
 30
0.0
 10
76.90743859417185
 20
-167.973615024988
 30
0.0
 10
76.90743859417185
 20
-168.0287189124711
 30
0.0
 10
76.95220609416073
 20
-168.0735216891058
 30
0.0
 10
77.00734526081348
 20
-168.0735216891058
 30
0.0
 10
77.06244914968872
 20
-168.0735216891058
 30
0.0
 10
77.10725192745545
 20
-168.0287189124711
 30
0.0
 10
77.10725192745545
 20
-167.973615024988
 30
0.0
  0
SPLINE
  5
8B
330
80
100
AcDbEntity
  8
レイヤー 1
 62
   250
420
  2299925
370
     9
100
AcDbSpline
210
0.0
220
0.0
230
1.0
 70
     9
 71
     3
 72
    17
 73
    13
 74
     0
 42
0.0000000001
 43
0.0000000001
 40
0.0
 40
0.0
 40
0.0
 40
0.0
 40
1.0
 40
1.0
 40
1.0
 40
2.0
 40
2.0
 40
2.0
 40
3.0
 40
3.0
 40
3.0
 40
4.0
 40
4.0
 40
4.0
 40
4.0
 10
73.10749276178857
 20
-154.0075336301042
 30
0.0
 10
73.10749276178857
 20
-153.9520769648524
 30
0.0
 10
73.06268998402216
 20
-153.9072741882176
 30
0.0
 10
73.00758609514692
 20
-153.9072741882176
 30
0.0
 10
72.95177665071648
 20
-153.9072741882176
 30
0.0
 10
72.90697387294976
 20
-153.9520769648524
 30
0.0
 10
72.90697387294976
 20
-154.0075336301042
 30
0.0
 10
72.90697387294976
 20
-154.0626375175873
 30
0.0
 10
72.95177665071648
 20
-154.1074402942214
 30
0.0
 10
73.00758609514692
 20
-154.1074402942214
 30
0.0
 10
73.06268998402216
 20
-154.1074402942214
 30
0.0
 10
73.10749276178857
 20
-154.0626375175873
 30
0.0
 10
73.10749276178857
 20
-154.0075336301042
 30
0.0
  0
LINE
  5
8C
330
80
100
AcDbEntity
  8
レイヤー 1
 62
   250
420
  2299925
370
     9
100
AcDbLine
 10
77.00734526317333
 20
-167.973615024988
 30
0.0
 11
113.0677005952506
 21
-167.973615024988
 31
0.0
  0
LINE
  5
8D
330
80
100
AcDbEntity
  8
レイヤー 1
 62
   250
420
  2299925
370
     9
100
AcDbLine
 10
77.00734526081348
 20
-165.7136148048676
 30
0.0
 11
77.00734526081348
 21
-168.9733872217039
 31
0.0
  0
LINE
  5
8E
330
80
100
AcDbEntity
  8
レイヤー 1
 62
   250
420
  2299925
370
     9
100
AcDbLine
 10
113.0064461555496
 20
-166.0133347972211
 30
0.0
 11
113.0064461555496
 21
-168.9733872217039
 31
0.0
  0
INSERT
  5
90
330
80
100
AcDbEntity
  8
レイヤー 1
100
AcDbBlockReference
  2
Block_2
 10
0.0
 20
0.0
 30
0.0
  0
LINE
  5
9C
330
80
100
AcDbEntity
  8
レイヤー 1
 62
   250
420
  2299925
370
     9
100
AcDbLine
 10
73.00758609514692
 20
-153.9731503849588
 30
0.0
 11
73.00758609514692
 21
-163.9731503824591
 31
0.0
  0
LINE
  5
9D
330
80
100
AcDbEntity
  8
レイヤー 1
 62
   250
420
  2299925
370
     9
100
AcDbLine
 10
74.97128831687811
 20
-153.9758189086911
 30
0.0
 11
72.01194137317367
 21
-153.9758189086911
 31
0.0
  0
LINE
  5
9E
330
80
100
AcDbEntity
  8
レイヤー 1
 62
   250
420
  2299925
370
     9
100
AcDbLine
 10
75.26755109458206
 20
-163.9735031825949
 30
0.0
 11
72.00710831761918
 21
-163.9735031825949
 31
0.0
  0
INSERT
  5
A0
330
80
100
AcDbEntity
  8
レイヤー 1
100
AcDbBlockReference
  2
Block_4
 10
0.0
 20
0.0
 30
0.0
  0
INSERT
  5
AD
330
80
100
AcDbEntity
  8
レイヤー 1
100
AcDbBlockReference
  2
Block_6
 10
0.0
 20
0.0
 30
0.0
  0
LINE
  5
B9
330
80
100
AcDbEntity
  8
レイヤー 1
 62
   250
420
  2299925
370
     9
100
AcDbLine
 10
76.42223264311978
 20
-164.5586158685782
 30
0.0
 11
75.55646113963494
 21
-165.058990737789
 31
0.0
  0
LINE
  5
BA
330
80
100
AcDbEntity
  8
レイヤー 1
 62
   250
420
  2299925
370
     9
100
AcDbLine
 10
76.42223264311978
 20
-164.5586158685782
 30
0.0
 11
73.82620925823919
 21
-167.1546432069021
 31
0.0
  0
LINE
  5
BB
330
80
100
AcDbEntity
  8
レイヤー 1
 62
   250
420
  2299925
370
     9
100
AcDbLine
 10
76.42223264311978
 20
-164.5586158685782
 30
0.0
 11
75.92235667689705
 21
-165.4248862751015
 31
0.0
  0
INSERT
  5
BD
330
80
100
AcDbEntity
  8
レイヤー 1
100
AcDbBlockReference
  2
Block_8
 10
0.0
 20
0.0
 30
0.0
  0
LINE
  5
D2
330
80
100
AcDbEntity
  8
レイヤー 1
 62
   250
420
  2299925
370
     9
100
AcDbLine
 10
78.22712740050175
 20
-158.5004199817292
 30
0.0
 11
79.09289890403153
 21
-158.0000451125967
 31
0.0
  0
LINE
  5
D3
330
80
100
AcDbEntity
  8
レイヤー 1
 62
   250
420
  2299925
370
     9
100
AcDbLine
 10
78.22712740050175
 20
-158.5004199817292
 30
0.0
 11
82.63474266198512
 21
-154.0928049113964
 31
0.0
  0
LINE
  5
D4
330
80
100
AcDbEntity
  8
レイヤー 1
 62
   250
420
  2299925
370
     9
100
AcDbLine
 10
78.22712740050175
 20
-158.5004199817292
 30
0.0
 11
78.72700336680214
 21
-157.6341495752521
 31
0.0
  0
ENDBLK
  5
83
330
80
100
AcDbEntity
  8
0
100
AcDbBlockEnd
  0
BLOCK
  5
91
330
8F
100
AcDbEntity
  8
0
100
AcDbBlockBegin
  2
Block_2
 70
     0
 10
0.0
 20
0.0
 30
0.0
  3
Block_2
  1

  0
INSERT
  5
94
330
8F
100
AcDbEntity
  8
レイヤー 1
100
AcDbBlockReference
  2
Block_3
 10
0.0
 20
0.0
 30
0.0
  0
ENDBLK
  5
92
330
8F
100
AcDbEntity
  8
0
100
AcDbBlockEnd
  0
BLOCK
  5
95
330
93
100
AcDbEntity
  8
0
100
AcDbBlockBegin
  2
Block_3
 70
     0
 10
0.0
 20
0.0
 30
0.0
  3
Block_3
  1

  0
SPLINE
  5
97
330
93
100
AcDbEntity
  8
レイヤー 1
100
AcDbSpline
210
0.0
220
0.0
230
1.0
 70
     9
 71
     3
 72
    62
 73
    58
 74
     0
 42
0.0000000001
 43
0.0000000001
 40
0.0
 40
0.0
 40
0.0
 40
0.0
 40
1.0
 40
1.0
 40
1.0
 40
2.0
 40
2.0
 40
2.0
 40
3.0
 40
3.0
 40
3.0
 40
4.0
 40
4.0
 40
4.0
 40
5.0
 40
5.0
 40
5.0
 40
6.0
 40
6.0
 40
6.0
 40
7.0
 40
7.0
 40
7.0
 40
8.0
 40
8.0
 40
8.0
 40
9.0
 40
9.0
 40
9.0
 40
10.0
 40
10.0
 40
10.0
 40
11.0
 40
11.0
 40
11.0
 40
12.0
 40
12.0
 40
12.0
 40
13.0
 40
13.0
 40
13.0
 40
14.0
 40
14.0
 40
14.0
 40
15.0
 40
15.0
 40
15.0
 40
16.0
 40
16.0
 40
16.0
 40
17.0
 40
17.0
 40
17.0
 40
18.0
 40
18.0
 40
18.0
 40
19.0
 40
19.0
 40
19.0
 40
19.0
 10
94.81884627620848
 20
-167.3107177316098
 30
0.0
 10
94.71721595939362
 20
-167.3107177316098
 30
0.0
 10
94.48432750459073
 20
-167.2897026491498
 30
0.0
 10
94.35100230931155
 20
-167.1036674929463
 30
0.0
 10
94.2717651131508
 20
-166.9913573801272
 30
0.0
 10
94.26728648901999
 20
-166.8921386301519
 30
0.0
 10
94.26280786488916
 20
-166.8073892812148
 30
0.0
 10
94.26280786488916
 20
-166.8073892812148
 30
0.0
 10
94.4977633769832
 20
-166.8073892812148
 30
0.0
 10
94.4977633769832
 20
-166.8073892812148
 30
0.0
 10
94.50017494382288
 20
-166.8814588341477
 30
0.0
 10
94.5115437589242
 20
-167.1160698366932
 30
0.0
 10
94.81436765207766
 20
-167.1160698366932
 30
0.0
 10
94.96147322929784
 20
-167.1160698366932
 30
0.0
 10
95.12408173620162
 20
-167.0464789078911
 30
0.0
 10
95.12408173620162
 20
-166.8180690772191
 30
0.0
 10
95.12408173620162
 20
-166.7016248498176
 30
0.0
 10
95.08342960947567
 20
-166.6530490034756
 30
0.0
 10
95.04966767372023
 20
-166.6213541250113
 30
0.0
 10
94.97043047755948
 20
-166.5472845720785
 30
0.0
 10
94.84606253054195
 20
-166.534537718783
 30
0.0
 10
94.78715139774418
 20
-166.534537718783
 30
0.0
 10
94.7668253343812
 20
-166.534537718783
 30
0.0
 10
94.72858477449495
 20
-166.5366047760742
 30
0.0
 10
94.6989569533218
 20
-166.5407388906564
 30
0.0
 10
94.6989569533218
 20
-166.5407388906564
 30
0.0
 10
94.6989569533218
 20
-166.3460909957398
 30
0.0
 10
94.6989569533218
 20
-166.3460909957398
 30
0.0
 10
94.73960908004775
 20
-166.3526366771618
 30
0.0
 10
94.78508434045304
 20
-166.354703734453
 30
0.0
 10
94.79163002187501
 20
-166.354703734453
 30
0.0
 10
94.86190996977411
 20
-166.354703734453
 30
0.0
 10
95.07447236121402
 20
-166.3333441424444
 30
0.0
 10
95.07447236121402
 20
-166.0966660826078
 30
0.0
 10
95.07447236121402
 20
-165.9188991555688
 30
0.0
 10
94.93425697496435
 20
-165.8637776278049
 30
0.0
 10
94.81677921891733
 20
-165.8637776278049
 30
0.0
 10
94.53393687957833
 20
-165.8637776278049
 30
0.0
 10
94.52497963131667
 20
-166.0966660826078
 30
0.0
 10
94.52050100718585
 20
-166.1683240687009
 30
0.0
 10
94.52050100718585
 20
-166.1683240687009
 30
0.0
 10
94.30345999161511
 20
-166.1683240687009
 30
0.0
 10
94.30345999161511
 20
-166.1683240687009
 30
0.0
 10
94.31241723987676
 20
-166.0436116121349
 30
0.0
 10
94.34170055150138
 20
-165.6670626755971
 30
0.0
 10
94.83021509130981
 20
-165.6670626755971
 30
0.0
 10
95.06999373708319
 20
-165.6670626755971
 30
0.0
 10
95.32768687937988
 20
-165.7941866990028
 30
0.0
 10
95.32768687937988
 20
-166.0901204011858
 30
0.0
 10
95.32768687937988
 20
-166.2765000669378
 30
0.0
 10
95.2257120530165
 20
-166.3588378490353
 30
0.0
 10
95.11960311207079
 20
-166.4201605486727
 30
0.0
 10
95.18505992629055
 20
-166.4477213125547
 30
0.0
 10
95.37970782120716
 20
-166.527992037361
 30
0.0
 10
95.37970782120716
 20
-166.8053222239237
 30
0.0
 10
95.37970782120716
 20
-167.1436306005752
 30
0.0
 10
95.11512448793999
 20
-167.3107177316098
 30
0.0
 10
94.81884627620848
 20
-167.3107177316098
 30
0.0
  0
HATCH
  5
98
330
93
100
AcDbEntity
  8
レイヤー 1
 62
   250
420
  2299925
440
 33554687
100
AcDbHatch
 10
0.0
 20
0.0
 30
0.0
210
0.0
220
0.0
230
1.0
  2
SOLID
 70
     1
 71
     1
 91
        1
 92
        1
 93
        1
 72
     4
 94
        3
 73
     0
 74
     0
 95
       62
 96
       58
 40
0.0
 40
0.0
 40
0.0
 40
0.0
 40
1.0
 40
1.0
 40
1.0
 40
2.0
 40
2.0
 40
2.0
 40
3.0
 40
3.0
 40
3.0
 40
4.0
 40
4.0
 40
4.0
 40
5.0
 40
5.0
 40
5.0
 40
6.0
 40
6.0
 40
6.0
 40
7.0
 40
7.0
 40
7.0
 40
8.0
 40
8.0
 40
8.0
 40
9.0
 40
9.0
 40
9.0
 40
10.0
 40
10.0
 40
10.0
 40
11.0
 40
11.0
 40
11.0
 40
12.0
 40
12.0
 40
12.0
 40
13.0
 40
13.0
 40
13.0
 40
14.0
 40
14.0
 40
14.0
 40
15.0
 40
15.0
 40
15.0
 40
16.0
 40
16.0
 40
16.0
 40
17.0
 40
17.0
 40
17.0
 40
18.0
 40
18.0
 40
18.0
 40
19.0
 40
19.0
 40
19.0
 40
19.0
 10
94.81884627620848
 20
-167.3107177316098
 10
94.71721595939362
 20
-167.3107177316098
 10
94.48432750459073
 20
-167.2897026491498
 10
94.35100230931155
 20
-167.1036674929463
 10
94.2717651131508
 20
-166.9913573801272
 10
94.26728648901999
 20
-166.8921386301519
 10
94.26280786488916
 20
-166.8073892812148
 10
94.26280786488916
 20
-166.8073892812148
 10
94.4977633769832
 20
-166.8073892812148
 10
94.4977633769832
 20
-166.8073892812148
 10
94.50017494382288
 20
-166.8814588341477
 10
94.5115437589242
 20
-167.1160698366932
 10
94.81436765207766
 20
-167.1160698366932
 10
94.96147322929784
 20
-167.1160698366932
 10
95.12408173620162
 20
-167.0464789078911
 10
95.12408173620162
 20
-166.8180690772191
 10
95.12408173620162
 20
-166.7016248498176
 10
95.08342960947567
 20
-166.6530490034756
 10
95.04966767372023
 20
-166.6213541250113
 10
94.97043047755948
 20
-166.5472845720785
 10
94.84606253054195
 20
-166.534537718783
 10
94.78715139774418
 20
-166.534537718783
 10
94.7668253343812
 20
-166.534537718783
 10
94.72858477449495
 20
-166.5366047760742
 10
94.6989569533218
 20
-166.5407388906564
 10
94.6989569533218
 20
-166.5407388906564
 10
94.6989569533218
 20
-166.3460909957398
 10
94.6989569533218
 20
-166.3460909957398
 10
94.73960908004775
 20
-166.3526366771618
 10
94.78508434045304
 20
-166.354703734453
 10
94.79163002187501
 20
-166.354703734453
 10
94.86190996977411
 20
-166.354703734453
 10
95.07447236121402
 20
-166.3333441424444
 10
95.07447236121402
 20
-166.0966660826078
 10
95.07447236121402
 20
-165.9188991555688
 10
94.93425697496435
 20
-165.8637776278049
 10
94.81677921891733
 20
-165.8637776278049
 10
94.53393687957833
 20
-165.8637776278049
 10
94.52497963131667
 20
-166.0966660826078
 10
94.52050100718585
 20
-166.1683240687009
 10
94.52050100718585
 20
-166.1683240687009
 10
94.30345999161511
 20
-166.1683240687009
 10
94.30345999161511
 20
-166.1683240687009
 10
94.31241723987676
 20
-166.0436116121349
 10
94.34170055150138
 20
-165.6670626755971
 10
94.83021509130981
 20
-165.6670626755971
 10
95.06999373708319
 20
-165.6670626755971
 10
95.32768687937988
 20
-165.7941866990028
 10
95.32768687937988
 20
-166.0901204011858
 10
95.32768687937988
 20
-166.2765000669378
 10
95.2257120530165
 20
-166.3588378490353
 10
95.11960311207079
 20
-166.4201605486727
 10
95.18505992629055
 20
-166.4477213125547
 10
95.37970782120716
 20
-166.527992037361
 10
95.37970782120716
 20
-166.8053222239237
 10
95.37970782120716
 20
-167.1436306005752
 10
95.11512448793999
 20
-167.3107177316098
 10
94.81884627620848
 20
-167.3107177316098
 97
        0
 97
        1
330
97
 75
     2
 76
     1
 98
        1
 10
0.0
 20
0.0
450
        0
451
        0
460
0.0
461
0.0
452
        0
462
0.0
453
        0
470

  0
SPLINE
  5
99
330
93
100
AcDbEntity
  8
レイヤー 1
100
AcDbSpline
210
0.0
220
0.0
230
1.0
 70
     9
 71
     3
 72
    17
 73
    13
 74
     0
 42
0.0000000001
 43
0.0000000001
 40
0.0
 40
0.0
 40
0.0
 40
0.0
 40
1.0
 40
1.0
 40
1.0
 40
2.0
 40
2.0
 40
2.0
 40
3.0
 40
3.0
 40
3.0
 40
4.0
 40
4.0
 40
4.0
 40
4.0
 10
96.1083455163375
 20
-166.451855427137
 30
0.0
 10
95.82791474383816
 20
-166.451855427137
 30
0.0
 10
95.78726261711222
 20
-166.6633842899313
 30
0.0
 10
95.78726261711222
 20
-166.7798285173328
 30
0.0
 10
95.78726261711222
 20
-166.9555283870805
 30
0.0
 10
95.88889293392709
 20
-167.1184814035329
 30
0.0
 10
96.08560788613486
 20
-167.1184814035329
 30
0.0
 10
96.21445445728319
 20
-167.1184814035329
 30
0.0
 10
96.40221216122931
 20
-167.0592257611866
 30
0.0
 10
96.40221216122931
 20
-166.7736273454593
 30
0.0
 10
96.40221216122931
 20
-166.5493516293696
 30
0.0
 10
96.25303952671799
 20
-166.451855427137
 30
0.0
 10
96.1083455163375
 20
-166.451855427137
 30
0.0
  0
SPLINE
  5
9A
330
93
100
AcDbEntity
  8
レイヤー 1
100
AcDbSpline
210
0.0
220
0.0
230
1.0
 70
     9
 71
     3
 72
    32
 73
    28
 74
     0
 42
0.0000000001
 43
0.0000000001
 40
0.0
 40
0.0
 40
0.0
 40
0.0
 40
1.0
 40
1.0
 40
1.0
 40
2.0
 40
2.0
 40
2.0
 40
3.0
 40
3.0
 40
3.0
 40
4.0
 40
4.0
 40
4.0
 40
5.0
 40
5.0
 40
5.0
 40
6.0
 40
6.0
 40
6.0
 40
7.0
 40
7.0
 40
7.0
 40
8.0
 40
8.0
 40
8.0
 40
9.0
 40
9.0
 40
9.0
 40
9.0
 10
96.09008651026568
 20
-167.3107177316098
 30
0.0
 10
95.53852672307717
 20
-167.3107177316098
 30
0.0
 10
95.52956947481552
 20
-166.7567463775816
 30
0.0
 10
95.52956947481552
 20
-166.5428059479476
 30
0.0
 10
95.52956947481552
 20
-166.3123290599844
 30
0.0
 10
95.54989553817851
 20
-165.664995618306
 30
0.0
 10
96.13108314654015
 20
-165.664995618306
 30
0.0
 10
96.31642928364659
 20
-165.664995618306
 30
0.0
 10
96.5786010500741
 20
-165.7349310566566
 30
0.0
 10
96.61925317680006
 20
-166.0670382614346
 30
0.0
 10
96.61925317680006
 20
-166.0670382614346
 30
0.0
 10
96.390843346128
 20
-166.0670382614346
 30
0.0
 10
96.390843346128
 20
-166.0670382614346
 30
0.0
 10
96.37947453102666
 20
-166.0098496763795
 30
0.0
 10
96.3457125952712
 20
-165.8617105705137
 30
0.0
 10
96.12867157970049
 20
-165.8617105705137
 30
0.0
 10
95.81654592873684
 20
-165.8617105705137
 30
0.0
 10
95.77382674471975
 20
-166.1896836607095
 30
0.0
 10
95.76004636277874
 20
-166.3946668420819
 30
0.0
 10
95.85960962230245
 20
-166.3164631745667
 30
0.0
 10
95.93195662749272
 20
-166.2572075322204
 30
0.0
 10
96.12660452240932
 20
-166.2572075322204
 30
0.0
 10
96.31849634093775
 20
-166.2572075322204
 30
0.0
 10
96.64199080700271
 20
-166.3653835304573
 30
0.0
 10
96.64199080700271
 20
-166.7715602881682
 30
0.0
 10
96.64199080700271
 20
-167.0909206396508
 30
0.0
 10
96.42942841556278
 20
-167.3107177316098
 30
0.0
 10
96.09008651026568
 20
-167.3107177316098
 30
0.0
  0
HATCH
  5
9B
330
93
100
AcDbEntity
  8
レイヤー 1
 62
   250
420
  2299925
440
 33554687
100
AcDbHatch
 10
0.0
 20
0.0
 30
0.0
210
0.0
220
0.0
230
1.0
  2
SOLID
 70
     1
 71
     1
 91
        2
 92
        1
 93
        1
 72
     4
 94
        3
 73
     0
 74
     0
 95
       17
 96
       13
 40
0.0
 40
0.0
 40
0.0
 40
0.0
 40
1.0
 40
1.0
 40
1.0
 40
2.0
 40
2.0
 40
2.0
 40
3.0
 40
3.0
 40
3.0
 40
4.0
 40
4.0
 40
4.0
 40
4.0
 10
96.1083455163375
 20
-166.451855427137
 10
95.82791474383816
 20
-166.451855427137
 10
95.78726261711222
 20
-166.6633842899313
 10
95.78726261711222
 20
-166.7798285173328
 10
95.78726261711222
 20
-166.9555283870805
 10
95.88889293392709
 20
-167.1184814035329
 10
96.08560788613486
 20
-167.1184814035329
 10
96.21445445728319
 20
-167.1184814035329
 10
96.40221216122931
 20
-167.0592257611866
 10
96.40221216122931
 20
-166.7736273454593
 10
96.40221216122931
 20
-166.5493516293696
 10
96.25303952671799
 20
-166.451855427137
 10
96.1083455163375
 20
-166.451855427137
 97
        0
 97
        1
330
99
 92
        1
 93
        1
 72
     4
 94
        3
 73
     0
 74
     0
 95
       32
 96
       28
 40
0.0
 40
0.0
 40
0.0
 40
0.0
 40
1.0
 40
1.0
 40
1.0
 40
2.0
 40
2.0
 40
2.0
 40
3.0
 40
3.0
 40
3.0
 40
4.0
 40
4.0
 40
4.0
 40
5.0
 40
5.0
 40
5.0
 40
6.0
 40
6.0
 40
6.0
 40
7.0
 40
7.0
 40
7.0
 40
8.0
 40
8.0
 40
8.0
 40
9.0
 40
9.0
 40
9.0
 40
9.0
 10
96.09008651026568
 20
-167.3107177316098
 10
95.53852672307717
 20
-167.3107177316098
 10
95.52956947481552
 20
-166.7567463775816
 10
95.52956947481552
 20
-166.5428059479476
 10
95.52956947481552
 20
-166.3123290599844
 10
95.54989553817851
 20
-165.664995618306
 10
96.13108314654015
 20
-165.664995618306
 10
96.31642928364659
 20
-165.664995618306
 10
96.5786010500741
 20
-165.7349310566566
 10
96.61925317680006
 20
-166.0670382614346
 10
96.61925317680006
 20
-166.0670382614346
 10
96.390843346128
 20
-166.0670382614346
 10
96.390843346128
 20
-166.0670382614346
 10
96.37947453102666
 20
-166.0098496763795
 10
96.3457125952712
 20
-165.8617105705137
 10
96.12867157970049
 20
-165.8617105705137
 10
95.81654592873684
 20
-165.8617105705137
 10
95.77382674471975
 20
-166.1896836607095
 10
95.76004636277874
 20
-166.3946668420819
 10
95.85960962230245
 20
-166.3164631745667
 10
95.93195662749272
 20
-166.2572075322204
 10
96.12660452240932
 20
-166.2572075322204
 10
96.31849634093775
 20
-166.2572075322204
 10
96.64199080700271
 20
-166.3653835304573
 10
96.64199080700271
 20
-166.7715602881682
 10
96.64199080700271
 20
-167.0909206396508
 10
96.42942841556278
 20
-167.3107177316098
 10
96.09008651026568
 20
-167.3107177316098
 97
        0
 97
        1
330
9A
 75
     2
 76
     1
 98
        1
 10
0.0
 20
0.0
450
        0
451
        0
460
0.0
461
0.0
452
        0
462
0.0
453
        0
470

  0
ENDBLK
  5
96
330
93
100
AcDbEntity
  8
0
100
AcDbBlockEnd
  0
BLOCK
  5
A1
330
9F
100
AcDbEntity
  8
0
100
AcDbBlockBegin
  2
Block_4
 70
     0
 10
0.0
 20
0.0
 30
0.0
  3
Block_4
  1

  0
INSERT
  5
A4
330
9F
100
AcDbEntity
  8
レイヤー 1
100
AcDbBlockReference
  2
Block_5
 10
0.0
 20
0.0
 30
0.0
  0
ENDBLK
  5
A2
330
9F
100
AcDbEntity
  8
0
100
AcDbBlockEnd
  0
BLOCK
  5
A5
330
A3
100
AcDbEntity
  8
0
100
AcDbBlockBegin
  2
Block_5
 70
     0
 10
0.0
 20
0.0
 30
0.0
  3
Block_5
  1

  0
SPLINE
  5
A7
330
A3
100
AcDbEntity
  8
レイヤー 1
100
AcDbSpline
210
0.0
220
0.0
230
1.0
 70
    11
 71
     3
 72
    26
 73
    22
 74
     0
 42
0.0000000001
 43
0.0000000001
 40
0.0
 40
0.0
 40
0.0
 40
0.0
 40
1.0
 40
1.0
 40
1.0
 40
2.0
 40
2.0
 40
2.0
 40
3.0
 40
3.0
 40
3.0
 40
4.0
 40
4.0
 40
4.0
 40
5.0
 40
5.0
 40
5.0
 40
6.0
 40
6.0
 40
6.0
 40
7.0
 40
7.0
 40
7.0
 40
7.0
 10
72.29395071977373
 20
-159.6546820347391
 30
0.0
 10
72.29395071977373
 20
-159.6546820347391
 30
0.0
 10
71.18962536197691
 20
-159.6546820347391
 30
0.0
 10
71.18962536197691
 20
-159.6546820347391
 30
0.0
 10
71.18962536197691
 20
-159.6546820347391
 30
0.0
 10
71.18962536197691
 20
-160.0071153028802
 30
0.0
 10
71.18962536197691
 20
-160.0071153028802
 30
0.0
 10
71.18962536197691
 20
-160.0071153028802
 30
0.0
 10
71.04165851088542
 20
-160.0071153028802
 30
0.0
 10
71.04165851088542
 20
-160.0071153028802
 30
0.0
 10
71.02684460029884
 20
-159.6522704678994
 30
0.0
 10
70.86389158384652
 20
-159.6026610929118
 30
0.0
 10
70.74968666851049
 20
-159.5709662144475
 30
0.0
 10
70.74968666851049
 20
-159.5709662144475
 30
0.0
 10
70.74968666851049
 20
-159.4149033889657
 30
0.0
 10
70.74968666851049
 20
-159.4149033889657
 30
0.0
 10
70.74968666851049
 20
-159.4149033889657
 30
0.0
 10
72.29395071977373
 20
-159.4149033889657
 30
0.0
 10
72.29395071977373
 20
-159.4149033889657
 30
0.0
 10
72.29395071977373
 20
-159.4149033889657
 30
0.0
 10
72.29395071977373
 20
-159.6546820347391
 30
0.0
 10
72.29395071977373
 20
-159.6546820347391
 30
0.0
  0
HATCH
  5
A8
330
A3
100
AcDbEntity
  8
レイヤー 1
 62
   250
420
  2299925
440
 33554687
100
AcDbHatch
 10
0.0
 20
0.0
 30
0.0
210
0.0
220
0.0
230
1.0
  2
SOLID
 70
     1
 71
     1
 91
        1
 92
        1
 93
        1
 72
     4
 94
        3
 73
     0
 74
     0
 95
       26
 96
       22
 40
0.0
 40
0.0
 40
0.0
 40
0.0
 40
1.0
 40
1.0
 40
1.0
 40
2.0
 40
2.0
 40
2.0
 40
3.0
 40
3.0
 40
3.0
 40
4.0
 40
4.0
 40
4.0
 40
5.0
 40
5.0
 40
5.0
 40
6.0
 40
6.0
 40
6.0
 40
7.0
 40
7.0
 40
7.0
 40
7.0
 10
72.29395071977373
 20
-159.6546820347391
 10
72.29395071977373
 20
-159.6546820347391
 10
71.18962536197691
 20
-159.6546820347391
 10
71.18962536197691
 20
-159.6546820347391
 10
71.18962536197691
 20
-159.6546820347391
 10
71.18962536197691
 20
-160.0071153028802
 10
71.18962536197691
 20
-160.0071153028802
 10
71.18962536197691
 20
-160.0071153028802
 10
71.04165851088542
 20
-160.0071153028802
 10
71.04165851088542
 20
-160.0071153028802
 10
71.02684460029884
 20
-159.6522704678994
 10
70.86389158384652
 20
-159.6026610929118
 10
70.74968666851049
 20
-159.5709662144475
 10
70.74968666851049
 20
-159.5709662144475
 10
70.74968666851049
 20
-159.4149033889657
 10
70.74968666851049
 20
-159.4149033889657
 10
70.74968666851049
 20
-159.4149033889657
 10
72.29395071977373
 20
-159.4149033889657
 10
72.29395071977373
 20
-159.4149033889657
 10
72.29395071977373
 20
-159.4149033889657
 10
72.29395071977373
 20
-159.6546820347391
 10
72.29395071977373
 20
-159.6546820347391
 97
        0
 97
        1
330
A7
 75
     2
 76
     1
 98
        1
 10
0.0
 20
0.0
450
        0
451
        0
460
0.0
461
0.0
452
        0
462
0.0
453
        0
470

  0
SPLINE
  5
A9
330
A3
100
AcDbEntity
  8
レイヤー 1
100
AcDbSpline
210
0.0
220
0.0
230
1.0
 70
     9
 71
     3
 72
    17
 73
    13
 74
     0
 42
0.0000000001
 43
0.0000000001
 40
0.0
 40
0.0
 40
0.0
 40
0.0
 40
1.0
 40
1.0
 40
1.0
 40
2.0
 40
2.0
 40
2.0
 40
3.0
 40
3.0
 40
3.0
 40
4.0
 40
4.0
 40
4.0
 40
4.0
 10
70.89351940501967
 20
-158.3448567312471
 30
0.0
 10
70.89351940501967
 20
-158.6115071218054
 30
0.0
 10
71.17705076345574
 20
-158.661116496793
 30
0.0
 10
71.52173256675499
 20
-158.661116496793
 30
0.0
 10
71.84126517301191
 20
-158.661116496793
 30
0.0
 10
72.15011798326455
 20
-158.6228759369068
 30
0.0
 10
72.15011798326455
 20
-158.3448567312471
 30
0.0
 10
72.15011798326455
 20
-158.0802733979799
 30
0.0
 10
71.86865368211964
 20
-158.0282524561527
 30
0.0
 10
71.52173256675499
 20
-158.0282524561527
 30
0.0
 10
71.20237221527233
 20
-158.0282524561527
 30
0.0
 10
70.89351940501967
 20
-158.0689045828786
 30
0.0
 10
70.89351940501967
 20
-158.3448567312471
 30
0.0
  0
SPLINE
  5
AA
330
A3
100
AcDbEntity
  8
レイヤー 1
100
AcDbSpline
210
0.0
220
0.0
230
1.0
 70
     9
 71
     3
 72
    29
 73
    25
 74
     0
 42
0.0000000001
 43
0.0000000001
 40
0.0
 40
0.0
 40
0.0
 40
0.0
 40
1.0
 40
1.0
 40
1.0
 40
2.0
 40
2.0
 40
2.0
 40
3.0
 40
3.0
 40
3.0
 40
4.0
 40
4.0
 40
4.0
 40
5.0
 40
5.0
 40
5.0
 40
6.0
 40
6.0
 40
6.0
 40
7.0
 40
7.0
 40
7.0
 40
8.0
 40
8.0
 40
8.0
 40
8.0
 10
72.11618379273485
 20
-157.9197319483673
 30
0.0
 10
72.32564559823804
 20
-158.0351426471231
 30
0.0
 10
72.34476587818118
 20
-158.2204887842296
 30
0.0
 10
72.34476587818118
 20
-158.3448567312471
 30
0.0
 10
72.34476587818118
 20
-158.5164224864126
 30
0.0
 10
72.2982570891303
 20
-158.6680066877635
 30
0.0
 10
72.11618379273485
 20
-158.7696370045784
 30
0.0
 10
71.92153589781823
 20
-158.8805690792034
 30
0.0
 10
71.68468558320729
 20
-158.9008951425664
 30
0.0
 10
71.52173256675499
 20
-158.9008951425664
 30
0.0
 10
71.37789983024581
 20
-158.9008951425664
 30
0.0
 10
71.12623560504831
 20
-158.8826361364946
 30
0.0
 10
70.92728134077512
 20
-158.7696370045784
 30
0.0
 10
70.72419296191966
 20
-158.6545708153711
 30
0.0
 10
70.70093856739422
 20
-158.4826605506571
 30
0.0
 10
70.70093856739422
 20
-158.3448567312471
 30
0.0
 10
70.70093856739422
 20
-158.1750135238243
 30
0.0
 10
70.74538029915394
 20
-158.0213622651822
 30
0.0
 10
70.92728134077512
 20
-157.9197319483673
 30
0.0
 10
71.11986217840059
 20
-157.8132784978731
 30
0.0
 10
71.34827200907266
 20
-157.7884738103793
 30
0.0
 10
71.52173256675499
 20
-157.7884738103793
 30
0.0
 10
71.69312606714616
 20
-157.7884738103793
 30
0.0
 10
71.92377520988364
 20
-157.8112114405819
 30
0.0
 10
72.11618379273485
 20
-157.9197319483673
 30
0.0
  0
HATCH
  5
AB
330
A3
100
AcDbEntity
  8
レイヤー 1
 62
   250
420
  2299925
440
 33554687
100
AcDbHatch
 10
0.0
 20
0.0
 30
0.0
210
0.0
220
0.0
230
1.0
  2
SOLID
 70
     1
 71
     1
 91
        2
 92
        1
 93
        1
 72
     4
 94
        3
 73
     0
 74
     0
 95
       17
 96
       13
 40
0.0
 40
0.0
 40
0.0
 40
0.0
 40
1.0
 40
1.0
 40
1.0
 40
2.0
 40
2.0
 40
2.0
 40
3.0
 40
3.0
 40
3.0
 40
4.0
 40
4.0
 40
4.0
 40
4.0
 10
70.89351940501967
 20
-158.3448567312471
 10
70.89351940501967
 20
-158.6115071218054
 10
71.17705076345574
 20
-158.661116496793
 10
71.52173256675499
 20
-158.661116496793
 10
71.84126517301191
 20
-158.661116496793
 10
72.15011798326455
 20
-158.6228759369068
 10
72.15011798326455
 20
-158.3448567312471
 10
72.15011798326455
 20
-158.0802733979799
 10
71.86865368211964
 20
-158.0282524561527
 10
71.52173256675499
 20
-158.0282524561527
 10
71.20237221527233
 20
-158.0282524561527
 10
70.89351940501967
 20
-158.0689045828786
 10
70.89351940501967
 20
-158.3448567312471
 97
        0
 97
        1
330
A9
 92
        1
 93
        1
 72
     4
 94
        3
 73
     0
 74
     0
 95
       29
 96
       25
 40
0.0
 40
0.0
 40
0.0
 40
0.0
 40
1.0
 40
1.0
 40
1.0
 40
2.0
 40
2.0
 40
2.0
 40
3.0
 40
3.0
 40
3.0
 40
4.0
 40
4.0
 40
4.0
 40
5.0
 40
5.0
 40
5.0
 40
6.0
 40
6.0
 40
6.0
 40
7.0
 40
7.0
 40
7.0
 40
8.0
 40
8.0
 40
8.0
 40
8.0
 10
72.11618379273485
 20
-157.9197319483673
 10
72.32564559823804
 20
-158.0351426471231
 10
72.34476587818118
 20
-158.2204887842296
 10
72.34476587818118
 20
-158.3448567312471
 10
72.34476587818118
 20
-158.5164224864126
 10
72.2982570891303
 20
-158.6680066877635
 10
72.11618379273485
 20
-158.7696370045784
 10
71.92153589781823
 20
-158.8805690792034
 10
71.68468558320729
 20
-158.9008951425664
 10
71.52173256675499
 20
-158.9008951425664
 10
71.37789983024581
 20
-158.9008951425664
 10
71.12623560504831
 20
-158.8826361364946
 10
70.92728134077512
 20
-158.7696370045784
 10
70.72419296191966
 20
-158.6545708153711
 10
70.70093856739422
 20
-158.4826605506571
 10
70.70093856739422
 20
-158.3448567312471
 10
70.70093856739422
 20
-158.1750135238243
 10
70.74538029915394
 20
-158.0213622651822
 10
70.92728134077512
 20
-157.9197319483673
 10
71.11986217840059
 20
-157.8132784978731
 10
71.34827200907266
 20
-157.7884738103793
 10
71.52173256675499
 20
-157.7884738103793
 10
71.69312606714616
 20
-157.7884738103793
 10
71.92377520988364
 20
-157.8112114405819
 10
72.11618379273485
 20
-157.9197319483673
 97
        0
 97
        1
330
AA
 75
     2
 76
     1
 98
        1
 10
0.0
 20
0.0
450
        0
451
        0
460
0.0
461
0.0
452
        0
462
0.0
453
        0
470

  0
ENDBLK
  5
A6
330
A3
100
AcDbEntity
  8
0
100
AcDbBlockEnd
  0
BLOCK
  5
AE
330
AC
100
AcDbEntity
  8
0
100
AcDbBlockBegin
  2
Block_6
 70
     0
 10
0.0
 20
0.0
 30
0.0
  3
Block_6
  1

  0
INSERT
  5
B1
330
AC
100
AcDbEntity
  8
レイヤー 1
100
AcDbBlockReference
  2
Block_7
 10
0.0
 20
0.0
 30
0.0
  0
ENDBLK
  5
AF
330
AC
100
AcDbEntity
  8
0
100
AcDbBlockEnd
  0
BLOCK
  5
B2
330
B0
100
AcDbEntity
  8
0
100
AcDbBlockBegin
  2
Block_7
 70
     0
 10
0.0
 20
0.0
 30
0.0
  3
Block_7
  1

  0
SPLINE
  5
B4
330
B0
100
AcDbEntity
  8
レイヤー 1
100
AcDbSpline
210
0.0
220
0.0
230
1.0
 70
     9
 71
     3
 72
    20
 73
    16
 74
     0
 42
0.0000000001
 43
0.0000000001
 40
0.0
 40
0.0
 40
0.0
 40
0.0
 40
1.0
 40
1.0
 40
1.0
 40
2.0
 40
2.0
 40
2.0
 40
3.0
 40
3.0
 40
3.0
 40
4.0
 40
4.0
 40
4.0
 40
5.0
 40
5.0
 40
5.0
 40
5.0
 10
72.92061358854069
 20
-167.8257595066547
 30
0.0
 10
72.92061358854069
 20
-167.8257595066547
 30
0.0
 10
72.44587943067326
 20
-167.8257595066547
 30
0.0
 10
72.44587943067326
 20
-167.8257595066547
 30
0.0
 10
72.44587943067326
 20
-167.8257595066547
 30
0.0
 10
72.44587943067326
 20
-168.3060058172985
 30
0.0
 10
72.44587943067326
 20
-168.3060058172985
 30
0.0
 10
72.44587943067326
 20
-168.3060058172985
 30
0.0
 10
72.91854653124953
 20
-168.3060058172985
 30
0.0
 10
72.91854653124953
 20
-168.3060058172985
 30
0.0
 10
73.02465547219523
 20
-168.3060058172985
 30
0.0
 10
73.16934948257572
 20
-168.2298692070745
 30
0.0
 10
73.16934948257572
 20
-168.058303451909
 30
0.0
 10
73.16934948257572
 20
-167.9800997843939
 30
0.0
 10
73.13317597998059
 20
-167.8257595066547
 30
0.0
 10
72.92061358854069
 20
-167.8257595066547
 30
0.0
  0
SPLINE
  5
B5
330
B0
100
AcDbEntity
  8
レイヤー 1
100
AcDbSpline
210
0.0
220
0.0
230
1.0
 70
     9
 71
     3
 72
    44
 73
    40
 74
     0
 42
0.0000000001
 43
0.0000000001
 40
0.0
 40
0.0
 40
0.0
 40
0.0
 40
1.0
 40
1.0
 40
1.0
 40
2.0
 40
2.0
 40
2.0
 40
3.0
 40
3.0
 40
3.0
 40
4.0
 40
4.0
 40
4.0
 40
5.0
 40
5.0
 40
5.0
 40
6.0
 40
6.0
 40
6.0
 40
7.0
 40
7.0
 40
7.0
 40
8.0
 40
8.0
 40
8.0
 40
9.0
 40
9.0
 40
9.0
 40
10.0
 40
10.0
 40
10.0
 40
11.0
 40
11.0
 40
11.0
 40
12.0
 40
12.0
 40
12.0
 40
13.0
 40
13.0
 40
13.0
 40
13.0
 10
73.1896755459387
 20
-169.1583224403493
 30
0.0
 10
73.1648708584449
 20
-169.1138807085896
 30
0.0
 10
73.14213322824224
 20
-169.0611707476652
 30
0.0
 10
73.1400661709511
 20
-168.8303493501535
 30
0.0
 10
73.13558754682027
 20
-168.5871256088949
 30
0.0
 10
73.07219778989168
 20
-168.5175346800928
 30
0.0
 10
72.88237302865441
 20
-168.5175346800928
 30
0.0
 10
72.88237302865441
 20
-168.5175346800928
 30
0.0
 10
72.44587943067326
 20
-168.5175346800928
 30
0.0
 10
72.44587943067326
 20
-168.5175346800928
 30
0.0
 10
72.44587943067326
 20
-168.5175346800928
 30
0.0
 10
72.44587943067326
 20
-169.1583224403493
 30
0.0
 10
72.44587943067326
 20
-169.1583224403493
 30
0.0
 10
72.44587943067326
 20
-169.1583224403493
 30
0.0
 10
72.19507647934706
 20
-169.1583224403493
 30
0.0
 10
72.19507647934706
 20
-169.1583224403493
 30
0.0
 10
72.19507647934706
 20
-169.1583224403493
 30
0.0
 10
72.19507647934706
 20
-167.6142306438603
 30
0.0
 10
72.19507647934706
 20
-167.6142306438603
 30
0.0
 10
72.19507647934706
 20
-167.6142306438603
 30
0.0
 10
72.91613496440986
 20
-167.6142306438603
 30
0.0
 10
72.91613496440986
 20
-167.6142306438603
 30
0.0
 10
73.24410805460565
 20
-167.6142306438603
 30
0.0
 10
73.42256400074159
 20
-167.7854518894772
 30
0.0
 10
73.42256400074159
 20
-168.0414224840313
 30
0.0
 10
73.42256400074159
 20
-168.0920653876645
 30
0.0
 10
73.41360675247994
 20
-168.1747476793105
 30
0.0
 10
73.36606443478348
 20
-168.2550184041168
 30
0.0
 10
73.30267467785489
 20
-168.3587157782228
 30
0.0
 10
73.23273923950431
 20
-168.3776638033917
 30
0.0
 10
73.16693791573604
 20
-168.3945447712694
 30
0.0
 10
73.31404349295621
 20
-168.436919445738
 30
0.0
 10
73.38639049814645
 20
-168.4858398016285
 30
0.0
 10
73.39086912227728
 20
-168.8007215289804
 30
0.0
 10
73.3953477464081
 20
-169.071506034121
 30
0.0
 10
73.4339328158429
 20
-169.1035454221338
 30
0.0
 10
73.50627982103316
 20
-169.1583224403493
 30
0.0
 10
73.50627982103316
 20
-169.1583224403493
 30
0.0
 10
73.1896755459387
 20
-169.1583224403493
 30
0.0
 10
73.1896755459387
 20
-169.1583224403493
 30
0.0
  0
HATCH
  5
B6
330
B0
100
AcDbEntity
  8
レイヤー 1
 62
   250
420
  2299925
440
 33554687
100
AcDbHatch
 10
0.0
 20
0.0
 30
0.0
210
0.0
220
0.0
230
1.0
  2
SOLID
 70
     1
 71
     1
 91
        2
 92
        1
 93
        1
 72
     4
 94
        3
 73
     0
 74
     0
 95
       20
 96
       16
 40
0.0
 40
0.0
 40
0.0
 40
0.0
 40
1.0
 40
1.0
 40
1.0
 40
2.0
 40
2.0
 40
2.0
 40
3.0
 40
3.0
 40
3.0
 40
4.0
 40
4.0
 40
4.0
 40
5.0
 40
5.0
 40
5.0
 40
5.0
 10
72.92061358854069
 20
-167.8257595066547
 10
72.92061358854069
 20
-167.8257595066547
 10
72.44587943067326
 20
-167.8257595066547
 10
72.44587943067326
 20
-167.8257595066547
 10
72.44587943067326
 20
-167.8257595066547
 10
72.44587943067326
 20
-168.3060058172985
 10
72.44587943067326
 20
-168.3060058172985
 10
72.44587943067326
 20
-168.3060058172985
 10
72.91854653124953
 20
-168.3060058172985
 10
72.91854653124953
 20
-168.3060058172985
 10
73.02465547219523
 20
-168.3060058172985
 10
73.16934948257572
 20
-168.2298692070745
 10
73.16934948257572
 20
-168.058303451909
 10
73.16934948257572
 20
-167.9800997843939
 10
73.13317597998059
 20
-167.8257595066547
 10
72.92061358854069
 20
-167.8257595066547
 97
        0
 97
        1
330
B4
 92
        1
 93
        1
 72
     4
 94
        3
 73
     0
 74
     0
 95
       44
 96
       40
 40
0.0
 40
0.0
 40
0.0
 40
0.0
 40
1.0
 40
1.0
 40
1.0
 40
2.0
 40
2.0
 40
2.0
 40
3.0
 40
3.0
 40
3.0
 40
4.0
 40
4.0
 40
4.0
 40
5.0
 40
5.0
 40
5.0
 40
6.0
 40
6.0
 40
6.0
 40
7.0
 40
7.0
 40
7.0
 40
8.0
 40
8.0
 40
8.0
 40
9.0
 40
9.0
 40
9.0
 40
10.0
 40
10.0
 40
10.0
 40
11.0
 40
11.0
 40
11.0
 40
12.0
 40
12.0
 40
12.0
 40
13.0
 40
13.0
 40
13.0
 40
13.0
 10
73.1896755459387
 20
-169.1583224403493
 10
73.1648708584449
 20
-169.1138807085896
 10
73.14213322824224
 20
-169.0611707476652
 10
73.1400661709511
 20
-168.8303493501535
 10
73.13558754682027
 20
-168.5871256088949
 10
73.07219778989168
 20
-168.5175346800928
 10
72.88237302865441
 20
-168.5175346800928
 10
72.88237302865441
 20
-168.5175346800928
 10
72.44587943067326
 20
-168.5175346800928
 10
72.44587943067326
 20
-168.5175346800928
 10
72.44587943067326
 20
-168.5175346800928
 10
72.44587943067326
 20
-169.1583224403493
 10
72.44587943067326
 20
-169.1583224403493
 10
72.44587943067326
 20
-169.1583224403493
 10
72.19507647934706
 20
-169.1583224403493
 10
72.19507647934706
 20
-169.1583224403493
 10
72.19507647934706
 20
-169.1583224403493
 10
72.19507647934706
 20
-167.6142306438603
 10
72.19507647934706
 20
-167.6142306438603
 10
72.19507647934706
 20
-167.6142306438603
 10
72.91613496440986
 20
-167.6142306438603
 10
72.91613496440986
 20
-167.6142306438603
 10
73.24410805460565
 20
-167.6142306438603
 10
73.42256400074159
 20
-167.7854518894772
 10
73.42256400074159
 20
-168.0414224840313
 10
73.42256400074159
 20
-168.0920653876645
 10
73.41360675247994
 20
-168.1747476793105
 10
73.36606443478348
 20
-168.2550184041168
 10
73.30267467785489
 20
-168.3587157782228
 10
73.23273923950431
 20
-168.3776638033917
 10
73.16693791573604
 20
-168.3945447712694
 10
73.31404349295621
 20
-168.436919445738
 10
73.38639049814645
 20
-168.4858398016285
 10
73.39086912227728
 20
-168.8007215289804
 10
73.3953477464081
 20
-169.071506034121
 10
73.4339328158429
 20
-169.1035454221338
 10
73.50627982103316
 20
-169.1583224403493
 10
73.50627982103316
 20
-169.1583224403493
 10
73.1896755459387
 20
-169.1583224403493
 10
73.1896755459387
 20
-169.1583224403493
 97
        0
 97
        1
330
B5
 75
     2
 76
     1
 98
        1
 10
0.0
 20
0.0
450
        0
451
        0
460
0.0
461
0.0
452
        0
462
0.0
453
        0
470

  0
SPLINE
  5
B7
330
B0
100
AcDbEntity
  8
レイヤー 1
100
AcDbSpline
210
0.0
220
0.0
230
1.0
 70
    11
 71
     3
 72
    26
 73
    22
 74
     0
 42
0.0000000001
 43
0.0000000001
 40
0.0
 40
0.0
 40
0.0
 40
0.0
 40
1.0
 40
1.0
 40
1.0
 40
2.0
 40
2.0
 40
2.0
 40
3.0
 40
3.0
 40
3.0
 40
4.0
 40
4.0
 40
4.0
 40
5.0
 40
5.0
 40
5.0
 40
6.0
 40
6.0
 40
6.0
 40
7.0
 40
7.0
 40
7.0
 40
7.0
 10
74.13776582347946
 20
-169.1583224403493
 30
0.0
 10
74.13776582347946
 20
-169.1583224403493
 30
0.0
 10
74.13776582347946
 20
-168.0541693373267
 30
0.0
 10
74.13776582347946
 20
-168.0541693373267
 30
0.0
 10
74.13776582347946
 20
-168.0541693373267
 30
0.0
 10
73.78533255533838
 20
-168.0541693373267
 30
0.0
 10
73.78533255533838
 20
-168.0541693373267
 30
0.0
 10
73.78533255533838
 20
-168.0541693373267
 30
0.0
 10
73.78533255533838
 20
-167.906030231461
 30
0.0
 10
73.78533255533838
 20
-167.906030231461
 30
0.0
 10
74.14017739031912
 20
-167.8912163208744
 30
0.0
 10
74.18978676530672
 20
-167.7282633044221
 30
0.0
 10
74.22148164377103
 20
-167.6142306438603
 30
0.0
 10
74.22148164377103
 20
-167.6142306438603
 30
0.0
 10
74.37754446925284
 20
-167.6142306438603
 30
0.0
 10
74.37754446925284
 20
-167.6142306438603
 30
0.0
 10
74.37754446925284
 20
-167.6142306438603
 30
0.0
 10
74.37754446925284
 20
-169.1583224403493
 30
0.0
 10
74.37754446925284
 20
-169.1583224403493
 30
0.0
 10
74.37754446925284
 20
-169.1583224403493
 30
0.0
 10
74.13776582347946
 20
-169.1583224403493
 30
0.0
 10
74.13776582347946
 20
-169.1583224403493
 30
0.0
  0
HATCH
  5
B8
330
B0
100
AcDbEntity
  8
レイヤー 1
 62
   250
420
  2299925
440
 33554687
100
AcDbHatch
 10
0.0
 20
0.0
 30
0.0
210
0.0
220
0.0
230
1.0
  2
SOLID
 70
     1
 71
     1
 91
        1
 92
        1
 93
        1
 72
     4
 94
        3
 73
     0
 74
     0
 95
       26
 96
       22
 40
0.0
 40
0.0
 40
0.0
 40
0.0
 40
1.0
 40
1.0
 40
1.0
 40
2.0
 40
2.0
 40
2.0
 40
3.0
 40
3.0
 40
3.0
 40
4.0
 40
4.0
 40
4.0
 40
5.0
 40
5.0
 40
5.0
 40
6.0
 40
6.0
 40
6.0
 40
7.0
 40
7.0
 40
7.0
 40
7.0
 10
74.13776582347946
 20
-169.1583224403493
 10
74.13776582347946
 20
-169.1583224403493
 10
74.13776582347946
 20
-168.0541693373267
 10
74.13776582347946
 20
-168.0541693373267
 10
74.13776582347946
 20
-168.0541693373267
 10
73.78533255533838
 20
-168.0541693373267
 10
73.78533255533838
 20
-168.0541693373267
 10
73.78533255533838
 20
-168.0541693373267
 10
73.78533255533838
 20
-167.906030231461
 10
73.78533255533838
 20
-167.906030231461
 10
74.14017739031912
 20
-167.8912163208744
 10
74.18978676530672
 20
-167.7282633044221
 10
74.22148164377103
 20
-167.6142306438603
 10
74.22148164377103
 20
-167.6142306438603
 10
74.37754446925284
 20
-167.6142306438603
 10
74.37754446925284
 20
-167.6142306438603
 10
74.37754446925284
 20
-167.6142306438603
 10
74.37754446925284
 20
-169.1583224403493
 10
74.37754446925284
 20
-169.1583224403493
 10
74.37754446925284
 20
-169.1583224403493
 10
74.13776582347946
 20
-169.1583224403493
 10
74.13776582347946
 20
-169.1583224403493
 97
        0
 97
        1
330
B7
 75
     2
 76
     1
 98
        1
 10
0.0
 20
0.0
450
        0
451
        0
460
0.0
461
0.0
452
        0
462
0.0
453
        0
470

  0
ENDBLK
  5
B3
330
B0
100
AcDbEntity
  8
0
100
AcDbBlockEnd
  0
BLOCK
  5
BE
330
BC
100
AcDbEntity
  8
0
100
AcDbBlockBegin
  2
Block_8
 70
     0
 10
0.0
 20
0.0
 30
0.0
  3
Block_8
  1

  0
INSERT
  5
C1
330
BC
100
AcDbEntity
  8
レイヤー 1
100
AcDbBlockReference
  2
Block_9
 10
0.0
 20
0.0
 30
0.0
  0
ENDBLK
  5
BF
330
BC
100
AcDbEntity
  8
0
100
AcDbBlockEnd
  0
BLOCK
  5
C2
330
C0
100
AcDbEntity
  8
0
100
AcDbBlockBegin
  2
Block_9
 70
     0
 10
0.0
 20
0.0
 30
0.0
  3
Block_9
  1

  0
SPLINE
  5
C4
330
C0
100
AcDbEntity
  8
レイヤー 1
100
AcDbSpline
210
0.0
220
0.0
230
1.0
 70
     9
 71
     3
 72
    41
 73
    37
 74
     0
 42
0.0000000001
 43
0.0000000001
 40
0.0
 40
0.0
 40
0.0
 40
0.0
 40
1.0
 40
1.0
 40
1.0
 40
2.0
 40
2.0
 40
2.0
 40
3.0
 40
3.0
 40
3.0
 40
4.0
 40
4.0
 40
4.0
 40
5.0
 40
5.0
 40
5.0
 40
6.0
 40
6.0
 40
6.0
 40
7.0
 40
7.0
 40
7.0
 40
8.0
 40
8.0
 40
8.0
 40
9.0
 40
9.0
 40
9.0
 40
10.0
 40
10.0
 40
10.0
 40
11.0
 40
11.0
 40
11.0
 40
12.0
 40
12.0
 40
12.0
 40
12.0
 10
82.53174097329068
 20
-153.6367892411047
 30
0.0
 10
82.274047830994
 20
-153.5013969885343
 30
0.0
 10
82.08422306975673
 20
-153.2051187768029
 30
0.0
 10
82.04115937619111
 20
-153.075927696106
 30
0.0
 10
81.91231280504275
 20
-153.3405110293732
 30
0.0
 10
81.73799097348911
 20
-153.5182779564121
 30
0.0
 10
81.54368758812102
 20
-153.6323106169739
 30
0.0
 10
81.54368758812102
 20
-153.6323106169739
 30
0.0
 10
81.33353676352077
 20
-153.4948513071124
 30
0.0
 10
81.33353676352077
 20
-153.4948513071124
 30
0.0
 10
81.40795082600218
 20
-153.46970211007
 30
0.0
 10
81.56401365148401
 20
-153.4080349008841
 30
0.0
 10
81.69527178947202
 20
-153.2536946231449
 30
0.0
 10
81.82859698475118
 20
-153.0972872881146
 30
0.0
 10
81.92368162014409
 20
-152.8643988333117
 30
0.0
 10
81.92368162014409
 20
-152.6042941241753
 30
0.0
 10
81.92368162014409
 20
-152.5026638073604
 30
0.0
 10
81.90990123820309
 20
-152.4310058212672
 30
0.0
 10
81.89853242310176
 20
-152.3841525226678
 30
0.0
 10
81.89853242310176
 20
-152.3841525226678
 30
0.0
 10
82.11798500551216
 20
-152.4055121146764
 30
0.0
 10
82.11798500551216
 20
-152.4055121146764
 30
0.0
 10
82.14072263571482
 20
-152.4075791719675
 30
0.0
 10
82.16311575636895
 20
-152.4096462292587
 30
0.0
 10
82.16311575636895
 20
-152.4310058212672
 30
0.0
 10
82.16311575636895
 20
-152.4499538464361
 30
0.0
 10
82.15174694126762
 20
-152.4582220756007
 30
0.0
 10
82.1155734386725
 20
-152.4795816676092
 30
0.0
 10
82.10661619041085
 20
-152.6804307343993
 30
0.0
 10
82.16759438049978
 20
-152.9236544756579
 30
0.0
 10
82.23339570426805
 20
-153.0442328176417
 30
0.0
 10
82.33054739695209
 20
-153.2199326873894
 30
0.0
 10
82.53863116426117
 20
-153.3997666717195
 30
0.0
 10
82.68332517464166
 20
-153.4569552567746
 30
0.0
 10
82.68332517464166
 20
-153.4569552567746
 30
0.0
 10
82.53174097329068
 20
-153.6367892411047
 30
0.0
 10
82.53174097329068
 20
-153.6367892411047
 30
0.0
  0
SPLINE
  5
C5
330
C0
100
AcDbEntity
  8
レイヤー 1
100
AcDbSpline
210
0.0
220
0.0
230
1.0
 70
    11
 71
     3
 72
    17
 73
    13
 74
     0
 42
0.0000000001
 43
0.0000000001
 40
0.0
 40
0.0
 40
0.0
 40
0.0
 40
1.0
 40
1.0
 40
1.0
 40
2.0
 40
2.0
 40
2.0
 40
3.0
 40
3.0
 40
3.0
 40
4.0
 40
4.0
 40
4.0
 40
4.0
 10
81.36729869927624
 20
-152.6783636771082
 30
0.0
 10
81.36729869927624
 20
-152.6783636771082
 30
0.0
 10
81.19573294411079
 20
-152.6783636771082
 30
0.0
 10
81.19573294411079
 20
-152.6783636771082
 30
0.0
 10
81.19573294411079
 20
-152.6783636771082
 30
0.0
 10
81.19573294411079
 20
-152.807554757805
 30
0.0
 10
81.19573294411079
 20
-152.807554757805
 30
0.0
 10
81.19573294411079
 20
-152.807554757805
 30
0.0
 10
81.36729869927624
 20
-152.807554757805
 30
0.0
 10
81.36729869927624
 20
-152.807554757805
 30
0.0
 10
81.36729869927624
 20
-152.807554757805
 30
0.0
 10
81.36729869927624
 20
-152.6783636771082
 30
0.0
 10
81.36729869927624
 20
-152.6783636771082
 30
0.0
  0
SPLINE
  5
C6
330
C0
100
AcDbEntity
  8
レイヤー 1
100
AcDbSpline
210
0.0
220
0.0
230
1.0
 70
    11
 71
     3
 72
    17
 73
    13
 74
     0
 42
0.0000000001
 43
0.0000000001
 40
0.0
 40
0.0
 40
0.0
 40
0.0
 40
1.0
 40
1.0
 40
1.0
 40
2.0
 40
2.0
 40
2.0
 40
3.0
 40
3.0
 40
3.0
 40
4.0
 40
4.0
 40
4.0
 40
4.0
 10
81.36729869927624
 20
-152.4055121146764
 30
0.0
 10
81.36729869927624
 20
-152.4055121146764
 30
0.0
 10
81.19573294411079
 20
-152.4055121146764
 30
0.0
 10
81.19573294411079
 20
-152.4055121146764
 30
0.0
 10
81.19573294411079
 20
-152.4055121146764
 30
0.0
 10
81.19573294411079
 20
-152.5343586858247
 30
0.0
 10
81.19573294411079
 20
-152.5343586858247
 30
0.0
 10
81.19573294411079
 20
-152.5343586858247
 30
0.0
 10
81.36729869927624
 20
-152.5343586858247
 30
0.0
 10
81.36729869927624
 20
-152.5343586858247
 30
0.0
 10
81.36729869927624
 20
-152.5343586858247
 30
0.0
 10
81.36729869927624
 20
-152.4055121146764
 30
0.0
 10
81.36729869927624
 20
-152.4055121146764
 30
0.0
  0
SPLINE
  5
C7
330
C0
100
AcDbEntity
  8
レイヤー 1
100
AcDbSpline
210
0.0
220
0.0
230
1.0
 70
    11
 71
     3
 72
    17
 73
    13
 74
     0
 42
0.0000000001
 43
0.0000000001
 40
0.0
 40
0.0
 40
0.0
 40
0.0
 40
1.0
 40
1.0
 40
1.0
 40
2.0
 40
2.0
 40
2.0
 40
3.0
 40
3.0
 40
3.0
 40
4.0
 40
4.0
 40
4.0
 40
4.0
 10
81.0124538642955
 20
-152.6783636771082
 30
0.0
 10
81.0124538642955
 20
-152.6783636771082
 30
0.0
 10
80.8429551664212
 20
-152.6783636771082
 30
0.0
 10
80.8429551664212
 20
-152.6783636771082
 30
0.0
 10
80.8429551664212
 20
-152.6783636771082
 30
0.0
 10
80.8429551664212
 20
-152.807554757805
 30
0.0
 10
80.8429551664212
 20
-152.807554757805
 30
0.0
 10
80.8429551664212
 20
-152.807554757805
 30
0.0
 10
81.0124538642955
 20
-152.807554757805
 30
0.0
 10
81.0124538642955
 20
-152.807554757805
 30
0.0
 10
81.0124538642955
 20
-152.807554757805
 30
0.0
 10
81.0124538642955
 20
-152.6783636771082
 30
0.0
 10
81.0124538642955
 20
-152.6783636771082
 30
0.0
  0
SPLINE
  5
C8
330
C0
100
AcDbEntity
  8
レイヤー 1
100
AcDbSpline
210
0.0
220
0.0
230
1.0
 70
    11
 71
     3
 72
    17
 73
    13
 74
     0
 42
0.0000000001
 43
0.0000000001
 40
0.0
 40
0.0
 40
0.0
 40
0.0
 40
1.0
 40
1.0
 40
1.0
 40
2.0
 40
2.0
 40
2.0
 40
3.0
 40
3.0
 40
3.0
 40
4.0
 40
4.0
 40
4.0
 40
4.0
 10
81.0124538642955
 20
-152.4055121146764
 30
0.0
 10
81.0124538642955
 20
-152.4055121146764
 30
0.0
 10
80.8429551664212
 20
-152.4055121146764
 30
0.0
 10
80.8429551664212
 20
-152.4055121146764
 30
0.0
 10
80.8429551664212
 20
-152.4055121146764
 30
0.0
 10
80.8429551664212
 20
-152.5343586858247
 30
0.0
 10
80.8429551664212
 20
-152.5343586858247
 30
0.0
 10
80.8429551664212
 20
-152.5343586858247
 30
0.0
 10
81.0124538642955
 20
-152.5343586858247
 30
0.0
 10
81.0124538642955
 20
-152.5343586858247
 30
0.0
 10
81.0124538642955
 20
-152.5343586858247
 30
0.0
 10
81.0124538642955
 20
-152.4055121146764
 30
0.0
 10
81.0124538642955
 20
-152.4055121146764
 30
0.0
  0
SPLINE
  5
C9
330
C0
100
AcDbEntity
  8
レイヤー 1
100
AcDbSpline
210
0.0
220
0.0
230
1.0
 70
     9
 71
     3
 72
   197
 73
   193
 74
     0
 42
0.0000000001
 43
0.0000000001
 40
0.0
 40
0.0
 40
0.0
 40
0.0
 40
1.0
 40
1.0
 40
1.0
 40
2.0
 40
2.0
 40
2.0
 40
3.0
 40
3.0
 40
3.0
 40
4.0
 40
4.0
 40
4.0
 40
5.0
 40
5.0
 40
5.0
 40
6.0
 40
6.0
 40
6.0
 40
7.0
 40
7.0
 40
7.0
 40
8.0
 40
8.0
 40
8.0
 40
9.0
 40
9.0
 40
9.0
 40
10.0
 40
10.0
 40
10.0
 40
11.0
 40
11.0
 40
11.0
 40
12.0
 40
12.0
 40
12.0
 40
13.0
 40
13.0
 40
13.0
 40
14.0
 40
14.0
 40
14.0
 40
15.0
 40
15.0
 40
15.0
 40
16.0
 40
16.0
 40
16.0
 40
17.0
 40
17.0
 40
17.0
 40
18.0
 40
18.0
 40
18.0
 40
19.0
 40
19.0
 40
19.0
 40
20.0
 40
20.0
 40
20.0
 40
21.0
 40
21.0
 40
21.0
 40
22.0
 40
22.0
 40
22.0
 40
23.0
 40
23.0
 40
23.0
 40
24.0
 40
24.0
 40
24.0
 40
25.0
 40
25.0
 40
25.0
 40
26.0
 40
26.0
 40
26.0
 40
27.0
 40
27.0
 40
27.0
 40
28.0
 40
28.0
 40
28.0
 40
29.0
 40
29.0
 40
29.0
 40
30.0
 40
30.0
 40
30.0
 40
31.0
 40
31.0
 40
31.0
 40
32.0
 40
32.0
 40
32.0
 40
33.0
 40
33.0
 40
33.0
 40
34.0
 40
34.0
 40
34.0
 40
35.0
 40
35.0
 40
35.0
 40
36.0
 40
36.0
 40
36.0
 40
37.0
 40
37.0
 40
37.0
 40
38.0
 40
38.0
 40
38.0
 40
39.0
 40
39.0
 40
39.0
 40
40.0
 40
40.0
 40
40.0
 40
41.0
 40
41.0
 40
41.0
 40
42.0
 40
42.0
 40
42.0
 40
43.0
 40
43.0
 40
43.0
 40
44.0
 40
44.0
 40
44.0
 40
45.0
 40
45.0
 40
45.0
 40
46.0
 40
46.0
 40
46.0
 40
47.0
 40
47.0
 40
47.0
 40
48.0
 40
48.0
 40
48.0
 40
49.0
 40
49.0
 40
49.0
 40
50.0
 40
50.0
 40
50.0
 40
51.0
 40
51.0
 40
51.0
 40
52.0
 40
52.0
 40
52.0
 40
53.0
 40
53.0
 40
53.0
 40
54.0
 40
54.0
 40
54.0
 40
55.0
 40
55.0
 40
55.0
 40
56.0
 40
56.0
 40
56.0
 40
57.0
 40
57.0
 40
57.0
 40
58.0
 40
58.0
 40
58.0
 40
59.0
 40
59.0
 40
59.0
 40
60.0
 40
60.0
 40
60.0
 40
61.0
 40
61.0
 40
61.0
 40
62.0
 40
62.0
 40
62.0
 40
63.0
 40
63.0
 40
63.0
 40
64.0
 40
64.0
 40
64.0
 40
64.0
 10
82.62200247500421
 20
-152.2807996581103
 30
0.0
 10
82.61097816945143
 20
-152.310082969735
 30
0.0
 10
82.58582897240911
 20
-152.3569362683343
 30
0.0
 10
82.57480466685631
 20
-152.3841525226678
 30
0.0
 10
82.57480466685631
 20
-152.3841525226678
 30
0.0
 10
82.50900334308802
 20
-152.5367702526644
 30
0.0
 10
82.50900334308802
 20
-152.5367702526644
 30
0.0
 10
82.49797903753522
 20
-152.5619194497067
 30
0.0
 10
82.44595809570796
 20
-152.6742295625258
 30
0.0
 10
82.43217771376697
 20
-152.697311702277
 30
0.0
 10
82.4301106564758
 20
-152.703857383699
 30
0.0
 10
82.42563203234498
 20
-152.7121256128636
 30
0.0
 10
82.42322046550532
 20
-152.7186712942856
 30
0.0
 10
82.42322046550532
 20
-152.7186712942856
 30
0.0
 10
82.19928925896407
 20
-152.6656168238127
 30
0.0
 10
82.19928925896407
 20
-152.6656168238127
 30
0.0
 10
82.28300507925565
 20
-152.5557182778333
 30
0.0
 10
82.34846189347539
 20
-152.420326025263
 30
0.0
 10
82.38256833877937
 20
-152.310082969735
 30
0.0
 10
82.38256833877937
 20
-152.310082969735
 30
0.0
 10
81.88509655070928
 20
-152.310082969735
 30
0.0
 10
81.88509655070928
 20
-152.310082969735
 30
0.0
 10
81.79931367312656
 20
-152.4751030434784
 30
0.0
 10
81.72696666793632
 20
-152.5536512205421
 30
0.0
 10
81.69079316534119
 20
-152.593614328171
 30
0.0
 10
81.69079316534119
 20
-152.593614328171
 30
0.0
 10
81.55953502735318
 20
-152.5281575139513
 30
0.0
 10
81.55953502735318
 20
-152.5281575139513
 30
0.0
 10
81.55953502735318
 20
-152.5281575139513
 30
0.0
 10
81.55953502735318
 20
-152.6993787595682
 30
0.0
 10
81.55953502735318
 20
-152.6993787595682
 30
0.0
 10
81.55953502735318
 20
-152.807554757805
 30
0.0
 10
81.56194659419284
 20
-152.8561306041471
 30
0.0
 10
81.57297089974566
 20
-152.9618950355442
 30
0.0
 10
81.49614527042457
 20
-152.9598279782531
 30
0.0
 10
81.47375214977044
 20
-152.9598279782531
 30
0.0
 10
81.25429956736004
 20
-152.9598279782531
 30
0.0
 10
81.25429956736004
 20
-152.9598279782531
 30
0.0
 10
81.19573294411079
 20
-152.9598279782531
 30
0.0
 10
81.19573294411079
 20
-152.9598279782531
 30
0.0
 10
81.19573294411079
 20
-152.9598279782531
 30
0.0
 10
81.19573294411079
 20
-153.0952202308234
 30
0.0
 10
81.19573294411079
 20
-153.0952202308234
 30
0.0
 10
81.19573294411079
 20
-153.0952202308234
 30
0.0
 10
81.27255857343186
 20
-153.0952202308234
 30
0.0
 10
81.27255857343186
 20
-153.0952202308234
 30
0.0
 10
81.34249401178243
 20
-153.0952202308234
 30
0.0
 10
81.49855683726427
 20
-153.0907416066926
 30
0.0
 10
81.61155596918044
 20
-153.082473377528
 30
0.0
 10
81.61155596918044
 20
-153.082473377528
 30
0.0
 10
81.61155596918044
 20
-153.2602403045669
 30
0.0
 10
81.61155596918044
 20
-153.2602403045669
 30
0.0
 10
81.5075140855259
 20
-153.2536946231449
 30
0.0
 10
81.3380153876516
 20
-153.2495605085626
 30
0.0
 10
81.27255857343186
 20
-153.2495605085626
 30
0.0
 10
81.27255857343186
 20
-153.2495605085626
 30
0.0
 10
81.19573294411079
 20
-153.2495605085626
 30
0.0
 10
81.19573294411079
 20
-153.2495605085626
 30
0.0
 10
81.19780000140194
 20
-153.338443972082
 30
0.0
 10
81.20227862553276
 20
-153.5775335987584
 30
0.0
 10
81.20469019237244
 20
-153.6516031516912
 30
0.0
 10
81.20469019237244
 20
-153.6516031516912
 30
0.0
 10
80.98971623409285
 20
-153.6516031516912
 30
0.0
 10
80.98971623409285
 20
-153.6516031516912
 30
0.0
 10
81.00349661603386
 20
-153.4376627220573
 30
0.0
 10
81.00349661603386
 20
-153.4080349008841
 30
0.0
 10
81.00797524016469
 20
-153.2495605085626
 30
0.0
 10
81.00797524016469
 20
-153.2495605085626
 30
0.0
 10
80.93321666813476
 20
-153.2495605085626
 30
0.0
 10
80.93321666813476
 20
-153.2495605085626
 30
0.0
 10
80.87223847804583
 20
-153.2495605085626
 30
0.0
 10
80.70962997114204
 20
-153.2536946231449
 30
0.0
 10
80.5918077055465
 20
-153.2602403045669
 30
0.0
 10
80.5918077055465
 20
-153.2602403045669
 30
0.0
 10
80.5918077055465
 20
-153.082473377528
 30
0.0
 10
80.5918077055465
 20
-153.082473377528
 30
0.0
 10
80.7048068374627
 20
-153.0907416066926
 30
0.0
 10
80.85880260565335
 20
-153.0952202308234
 30
0.0
 10
80.93321666813476
 20
-153.0952202308234
 30
0.0
 10
80.93321666813476
 20
-153.0952202308234
 30
0.0
 10
81.0124538642955
 20
-153.0952202308234
 30
0.0
 10
81.0124538642955
 20
-153.0952202308234
 30
0.0
 10
81.0124538642955
 20
-153.0952202308234
 30
0.0
 10
81.0124538642955
 20
-152.9598279782531
 30
0.0
 10
81.0124538642955
 20
-152.9598279782531
 30
0.0
 10
81.0124538642955
 20
-152.9598279782531
 30
0.0
 10
80.96491154659906
 20
-152.9598279782531
 30
0.0
 10
80.96491154659906
 20
-152.9598279782531
 30
0.0
 10
80.88360729314715
 20
-152.9598279782531
 30
0.0
 10
80.67793509267774
 20
-152.9618950355442
 30
0.0
 10
80.64176159008262
 20
-152.9618950355442
 30
0.0
 10
80.64830727150459
 20
-152.8898925399025
 30
0.0
 10
80.65760902931478
 20
-152.8096218150962
 30
0.0
 10
80.65760902931478
 20
-152.6890434731124
 30
0.0
 10
80.65760902931478
 20
-152.6890434731124
 30
0.0
 10
80.65760902931478
 20
-152.5154106606558
 30
0.0
 10
80.65760902931478
 20
-152.5154106606558
 30
0.0
 10
80.65760902931478
 20
-152.4434081650141
 30
0.0
 10
80.64830727150459
 20
-152.3228298230304
 30
0.0
 10
80.64176159008262
 20
-152.2425590982241
 30
0.0
 10
80.72513290082566
 20
-152.2466932128063
 30
0.0
 10
80.76612953710014
 20
-152.2487602700975
 30
0.0
 10
80.90152178967045
 20
-152.2487602700975
 30
0.0
 10
80.90152178967045
 20
-152.2487602700975
 30
0.0
 10
81.0124538642955
 20
-152.2487602700975
 30
0.0
 10
81.0124538642955
 20
-152.2487602700975
 30
0.0
 10
81.0124538642955
 20
-152.2487602700975
 30
0.0
 10
81.0124538642955
 20
-152.1030327310714
 30
0.0
 10
81.0124538642955
 20
-152.1030327310714
 30
0.0
 10
81.0124538642955
 20
-152.1030327310714
 30
0.0
 10
80.92873804400394
 20
-152.1030327310714
 30
0.0
 10
80.92873804400394
 20
-152.1030327310714
 30
0.0
 10
80.86982691120615
 20
-152.1030327310714
 30
0.0
 10
80.68689234093939
 20
-152.1071668456538
 30
0.0
 10
80.59628632967733
 20
-152.1133680175272
 30
0.0
 10
80.59628632967733
 20
-152.1133680175272
 30
0.0
 10
80.59628632967733
 20
-151.9359456000368
 30
0.0
 10
80.59628632967733
 20
-151.9359456000368
 30
0.0
 10
80.68448077409971
 20
-151.9421467719103
 30
0.0
 10
80.85880260565335
 20
-151.9462808864926
 30
0.0
 10
80.92873804400394
 20
-151.9462808864926
 30
0.0
 10
80.92873804400394
 20
-151.9462808864926
 30
0.0
 10
81.0124538642955
 20
-151.9462808864926
 30
0.0
 10
81.0124538642955
 20
-151.9462808864926
 30
0.0
 10
81.0124538642955
 20
-151.9125189507371
 30
0.0
 10
81.00797524016469
 20
-151.7581786729979
 30
0.0
 10
81.00797524016469
 20
-151.7264837945336
 30
0.0
 10
81.00797524016469
 20
-151.7264837945336
 30
0.0
 10
81.21812606476492
 20
-151.7433647624113
 30
0.0
 10
81.21812606476492
 20
-151.7433647624113
 30
0.0
 10
81.23638507083674
 20
-151.7454318197025
 30
0.0
 10
81.25877819149087
 20
-151.7474988769937
 30
0.0
 10
81.25877819149087
 20
-151.7685139594537
 30
0.0
 10
81.25877819149087
 20
-151.7919406087534
 30
0.0
 10
81.23638507083674
 20
-151.8005533474665
 30
0.0
 10
81.20675724966359
 20
-151.8129556912134
 30
0.0
 10
81.20675724966359
 20
-151.834315283222
 30
0.0
 10
81.20469019237244
 20
-151.9293999186148
 30
0.0
 10
81.20469019237244
 20
-151.9462808864926
 30
0.0
 10
81.20469019237244
 20
-151.9462808864926
 30
0.0
 10
81.26807994930103
 20
-151.9462808864926
 30
0.0
 10
81.26807994930103
 20
-151.9462808864926
 30
0.0
 10
81.3404269544913
 20
-151.9462808864926
 30
0.0
 10
81.49407821313344
 20
-151.9421467719103
 30
0.0
 10
81.60707734504962
 20
-151.9359456000368
 30
0.0
 10
81.60707734504962
 20
-151.9359456000368
 30
0.0
 10
81.60707734504962
 20
-152.1133680175272
 30
0.0
 10
81.60707734504962
 20
-152.1133680175272
 30
0.0
 10
81.50303546139507
 20
-152.1071668456538
 30
0.0
 10
81.33560382081194
 20
-152.1030327310714
 30
0.0
 10
81.26807994930103
 20
-152.1030327310714
 30
0.0
 10
81.26807994930103
 20
-152.1030327310714
 30
0.0
 10
81.19573294411079
 20
-152.1030327310714
 30
0.0
 10
81.19573294411079
 20
-152.1030327310714
 30
0.0
 10
81.19573294411079
 20
-152.1030327310714
 30
0.0
 10
81.19573294411079
 20
-152.2487602700975
 30
0.0
 10
81.19573294411079
 20
-152.2487602700975
 30
0.0
 10
81.19573294411079
 20
-152.2487602700975
 30
0.0
 10
81.27014700659218
 20
-152.2487602700975
 30
0.0
 10
81.27014700659218
 20
-152.2487602700975
 30
0.0
 10
81.43068845620483
 20
-152.2487602700975
 30
0.0
 10
81.5075140855259
 20
-152.2446261555152
 30
0.0
 10
81.57297089974566
 20
-152.2425590982241
 30
0.0
 10
81.56401365148401
 20
-152.3376437336169
 30
0.0
 10
81.56194659419284
 20
-152.4161919106806
 30
0.0
 10
81.55953502735318
 20
-152.4540879610184
 30
0.0
 10
81.72455510109664
 20
-152.2425590982241
 30
0.0
 10
81.83755423301283
 20
-151.9952012423831
 30
0.0
 10
81.85581323908467
 20
-151.7326849664071
 30
0.0
 10
81.85581323908467
 20
-151.7326849664071
 30
0.0
 10
82.08629012704788
 20
-151.7833278700403
 30
0.0
 10
82.08629012704788
 20
-151.7833278700403
 30
0.0
 10
82.10213756628002
 20
-151.7878064941711
 30
0.0
 10
82.11798500551216
 20
-151.7940076660445
 30
0.0
 10
82.11798500551216
 20
-151.8108886339222
 30
0.0
 10
82.11798500551216
 20
-151.8277696018
 30
0.0
 10
82.11350638138135
 20
-151.8301811686397
 30
0.0
 10
82.05907387271441
 20
-151.8511962510997
 30
0.0
 10
82.04115937619111
 20
-151.9273328613237
 30
0.0
 10
82.01394312185762
 20
-152.0182833821343
 30
0.0
 10
81.96192218003035
 20
-152.14540740554
 30
0.0
 10
81.96192218003035
 20
-152.14540740554
 30
0.0
 10
82.32365720598158
 20
-152.14540740554
 30
0.0
 10
82.32365720598158
 20
-152.14540740554
 30
0.0
 10
82.36430933270753
 20
-152.14540740554
 30
0.0
 10
82.50245766166605
 20
-152.1409287814092
 30
0.0
 10
82.55447860349333
 20
-152.1347276095357
 30
0.0
 10
82.55447860349333
 20
-152.1347276095357
 30
0.0
 10
82.65369735346853
 20
-152.2043185383378
 30
0.0
 10
82.65369735346853
 20
-152.2043185383378
 30
0.0
 10
82.64474010520688
 20
-152.2256781303463
 30
0.0
 10
82.63784991423637
 20
-152.2446261555152
 30
0.0
 10
82.62200247500421
 20
-152.2807996581103
 30
0.0
  0
HATCH
  5
CA
330
C0
100
AcDbEntity
  8
レイヤー 1
 62
   250
420
  2299925
440
 33554687
100
AcDbHatch
 10
0.0
 20
0.0
 30
0.0
210
0.0
220
0.0
230
1.0
  2
SOLID
 70
     1
 71
     1
 91
        6
 92
        1
 93
        1
 72
     4
 94
        3
 73
     0
 74
     0
 95
       41
 96
       37
 40
0.0
 40
0.0
 40
0.0
 40
0.0
 40
1.0
 40
1.0
 40
1.0
 40
2.0
 40
2.0
 40
2.0
 40
3.0
 40
3.0
 40
3.0
 40
4.0
 40
4.0
 40
4.0
 40
5.0
 40
5.0
 40
5.0
 40
6.0
 40
6.0
 40
6.0
 40
7.0
 40
7.0
 40
7.0
 40
8.0
 40
8.0
 40
8.0
 40
9.0
 40
9.0
 40
9.0
 40
10.0
 40
10.0
 40
10.0
 40
11.0
 40
11.0
 40
11.0
 40
12.0
 40
12.0
 40
12.0
 40
12.0
 10
82.53174097329068
 20
-153.6367892411047
 10
82.274047830994
 20
-153.5013969885343
 10
82.08422306975673
 20
-153.2051187768029
 10
82.04115937619111
 20
-153.075927696106
 10
81.91231280504275
 20
-153.3405110293732
 10
81.73799097348911
 20
-153.5182779564121
 10
81.54368758812102
 20
-153.6323106169739
 10
81.54368758812102
 20
-153.6323106169739
 10
81.33353676352077
 20
-153.4948513071124
 10
81.33353676352077
 20
-153.4948513071124
 10
81.40795082600218
 20
-153.46970211007
 10
81.56401365148401
 20
-153.4080349008841
 10
81.69527178947202
 20
-153.2536946231449
 10
81.82859698475118
 20
-153.0972872881146
 10
81.92368162014409
 20
-152.8643988333117
 10
81.92368162014409
 20
-152.6042941241753
 10
81.92368162014409
 20
-152.5026638073604
 10
81.90990123820309
 20
-152.4310058212672
 10
81.89853242310176
 20
-152.3841525226678
 10
81.89853242310176
 20
-152.3841525226678
 10
82.11798500551216
 20
-152.4055121146764
 10
82.11798500551216
 20
-152.4055121146764
 10
82.14072263571482
 20
-152.4075791719675
 10
82.16311575636895
 20
-152.4096462292587
 10
82.16311575636895
 20
-152.4310058212672
 10
82.16311575636895
 20
-152.4499538464361
 10
82.15174694126762
 20
-152.4582220756007
 10
82.1155734386725
 20
-152.4795816676092
 10
82.10661619041085
 20
-152.6804307343993
 10
82.16759438049978
 20
-152.9236544756579
 10
82.23339570426805
 20
-153.0442328176417
 10
82.33054739695209
 20
-153.2199326873894
 10
82.53863116426117
 20
-153.3997666717195
 10
82.68332517464166
 20
-153.4569552567746
 10
82.68332517464166
 20
-153.4569552567746
 10
82.53174097329068
 20
-153.6367892411047
 10
82.53174097329068
 20
-153.6367892411047
 97
        0
 97
        1
330
C4
 92
        1
 93
        1
 72
     4
 94
        3
 73
     0
 74
     0
 95
       17
 96
       13
 40
0.0
 40
0.0
 40
0.0
 40
0.0
 40
1.0
 40
1.0
 40
1.0
 40
2.0
 40
2.0
 40
2.0
 40
3.0
 40
3.0
 40
3.0
 40
4.0
 40
4.0
 40
4.0
 40
4.0
 10
81.36729869927624
 20
-152.6783636771082
 10
81.36729869927624
 20
-152.6783636771082
 10
81.19573294411079
 20
-152.6783636771082
 10
81.19573294411079
 20
-152.6783636771082
 10
81.19573294411079
 20
-152.6783636771082
 10
81.19573294411079
 20
-152.807554757805
 10
81.19573294411079
 20
-152.807554757805
 10
81.19573294411079
 20
-152.807554757805
 10
81.36729869927624
 20
-152.807554757805
 10
81.36729869927624
 20
-152.807554757805
 10
81.36729869927624
 20
-152.807554757805
 10
81.36729869927624
 20
-152.6783636771082
 10
81.36729869927624
 20
-152.6783636771082
 97
        0
 97
        1
330
C5
 92
        1
 93
        1
 72
     4
 94
        3
 73
     0
 74
     0
 95
       17
 96
       13
 40
0.0
 40
0.0
 40
0.0
 40
0.0
 40
1.0
 40
1.0
 40
1.0
 40
2.0
 40
2.0
 40
2.0
 40
3.0
 40
3.0
 40
3.0
 40
4.0
 40
4.0
 40
4.0
 40
4.0
 10
81.36729869927624
 20
-152.4055121146764
 10
81.36729869927624
 20
-152.4055121146764
 10
81.19573294411079
 20
-152.4055121146764
 10
81.19573294411079
 20
-152.4055121146764
 10
81.19573294411079
 20
-152.4055121146764
 10
81.19573294411079
 20
-152.5343586858247
 10
81.19573294411079
 20
-152.5343586858247
 10
81.19573294411079
 20
-152.5343586858247
 10
81.36729869927624
 20
-152.5343586858247
 10
81.36729869927624
 20
-152.5343586858247
 10
81.36729869927624
 20
-152.5343586858247
 10
81.36729869927624
 20
-152.4055121146764
 10
81.36729869927624
 20
-152.4055121146764
 97
        0
 97
        1
330
C6
 92
        1
 93
        1
 72
     4
 94
        3
 73
     0
 74
     0
 95
       17
 96
       13
 40
0.0
 40
0.0
 40
0.0
 40
0.0
 40
1.0
 40
1.0
 40
1.0
 40
2.0
 40
2.0
 40
2.0
 40
3.0
 40
3.0
 40
3.0
 40
4.0
 40
4.0
 40
4.0
 40
4.0
 10
81.0124538642955
 20
-152.6783636771082
 10
81.0124538642955
 20
-152.6783636771082
 10
80.8429551664212
 20
-152.6783636771082
 10
80.8429551664212
 20
-152.6783636771082
 10
80.8429551664212
 20
-152.6783636771082
 10
80.8429551664212
 20
-152.807554757805
 10
80.8429551664212
 20
-152.807554757805
 10
80.8429551664212
 20
-152.807554757805
 10
81.0124538642955
 20
-152.807554757805
 10
81.0124538642955
 20
-152.807554757805
 10
81.0124538642955
 20
-152.807554757805
 10
81.0124538642955
 20
-152.6783636771082
 10
81.0124538642955
 20
-152.6783636771082
 97
        0
 97
        1
330
C7
 92
        1
 93
        1
 72
     4
 94
        3
 73
     0
 74
     0
 95
       17
 96
       13
 40
0.0
 40
0.0
 40
0.0
 40
0.0
 40
1.0
 40
1.0
 40
1.0
 40
2.0
 40
2.0
 40
2.0
 40
3.0
 40
3.0
 40
3.0
 40
4.0
 40
4.0
 40
4.0
 40
4.0
 10
81.0124538642955
 20
-152.4055121146764
 10
81.0124538642955
 20
-152.4055121146764
 10
80.8429551664212
 20
-152.4055121146764
 10
80.8429551664212
 20
-152.4055121146764
 10
80.8429551664212
 20
-152.4055121146764
 10
80.8429551664212
 20
-152.5343586858247
 10
80.8429551664212
 20
-152.5343586858247
 10
80.8429551664212
 20
-152.5343586858247
 10
81.0124538642955
 20
-152.5343586858247
 10
81.0124538642955
 20
-152.5343586858247
 10
81.0124538642955
 20
-152.5343586858247
 10
81.0124538642955
 20
-152.4055121146764
 10
81.0124538642955
 20
-152.4055121146764
 97
        0
 97
        1
330
C8
 92
        1
 93
        1
 72
     4
 94
        3
 73
     0
 74
     0
 95
      197
 96
      193
 40
0.0
 40
0.0
 40
0.0
 40
0.0
 40
1.0
 40
1.0
 40
1.0
 40
2.0
 40
2.0
 40
2.0
 40
3.0
 40
3.0
 40
3.0
 40
4.0
 40
4.0
 40
4.0
 40
5.0
 40
5.0
 40
5.0
 40
6.0
 40
6.0
 40
6.0
 40
7.0
 40
7.0
 40
7.0
 40
8.0
 40
8.0
 40
8.0
 40
9.0
 40
9.0
 40
9.0
 40
10.0
 40
10.0
 40
10.0
 40
11.0
 40
11.0
 40
11.0
 40
12.0
 40
12.0
 40
12.0
 40
13.0
 40
13.0
 40
13.0
 40
14.0
 40
14.0
 40
14.0
 40
15.0
 40
15.0
 40
15.0
 40
16.0
 40
16.0
 40
16.0
 40
17.0
 40
17.0
 40
17.0
 40
18.0
 40
18.0
 40
18.0
 40
19.0
 40
19.0
 40
19.0
 40
20.0
 40
20.0
 40
20.0
 40
21.0
 40
21.0
 40
21.0
 40
22.0
 40
22.0
 40
22.0
 40
23.0
 40
23.0
 40
23.0
 40
24.0
 40
24.0
 40
24.0
 40
25.0
 40
25.0
 40
25.0
 40
26.0
 40
26.0
 40
26.0
 40
27.0
 40
27.0
 40
27.0
 40
28.0
 40
28.0
 40
28.0
 40
29.0
 40
29.0
 40
29.0
 40
30.0
 40
30.0
 40
30.0
 40
31.0
 40
31.0
 40
31.0
 40
32.0
 40
32.0
 40
32.0
 40
33.0
 40
33.0
 40
33.0
 40
34.0
 40
34.0
 40
34.0
 40
35.0
 40
35.0
 40
35.0
 40
36.0
 40
36.0
 40
36.0
 40
37.0
 40
37.0
 40
37.0
 40
38.0
 40
38.0
 40
38.0
 40
39.0
 40
39.0
 40
39.0
 40
40.0
 40
40.0
 40
40.0
 40
41.0
 40
41.0
 40
41.0
 40
42.0
 40
42.0
 40
42.0
 40
43.0
 40
43.0
 40
43.0
 40
44.0
 40
44.0
 40
44.0
 40
45.0
 40
45.0
 40
45.0
 40
46.0
 40
46.0
 40
46.0
 40
47.0
 40
47.0
 40
47.0
 40
48.0
 40
48.0
 40
48.0
 40
49.0
 40
49.0
 40
49.0
 40
50.0
 40
50.0
 40
50.0
 40
51.0
 40
51.0
 40
51.0
 40
52.0
 40
52.0
 40
52.0
 40
53.0
 40
53.0
 40
53.0
 40
54.0
 40
54.0
 40
54.0
 40
55.0
 40
55.0
 40
55.0
 40
56.0
 40
56.0
 40
56.0
 40
57.0
 40
57.0
 40
57.0
 40
58.0
 40
58.0
 40
58.0
 40
59.0
 40
59.0
 40
59.0
 40
60.0
 40
60.0
 40
60.0
 40
61.0
 40
61.0
 40
61.0
 40
62.0
 40
62.0
 40
62.0
 40
63.0
 40
63.0
 40
63.0
 40
64.0
 40
64.0
 40
64.0
 40
64.0
 10
82.62200247500421
 20
-152.2807996581103
 10
82.61097816945143
 20
-152.310082969735
 10
82.58582897240911
 20
-152.3569362683343
 10
82.57480466685631
 20
-152.3841525226678
 10
82.57480466685631
 20
-152.3841525226678
 10
82.50900334308802
 20
-152.5367702526644
 10
82.50900334308802
 20
-152.5367702526644
 10
82.49797903753522
 20
-152.5619194497067
 10
82.44595809570796
 20
-152.6742295625258
 10
82.43217771376697
 20
-152.697311702277
 10
82.4301106564758
 20
-152.703857383699
 10
82.42563203234498
 20
-152.7121256128636
 10
82.42322046550532
 20
-152.7186712942856
 10
82.42322046550532
 20
-152.7186712942856
 10
82.19928925896407
 20
-152.6656168238127
 10
82.19928925896407
 20
-152.6656168238127
 10
82.28300507925565
 20
-152.5557182778333
 10
82.34846189347539
 20
-152.420326025263
 10
82.38256833877937
 20
-152.310082969735
 10
82.38256833877937
 20
-152.310082969735
 10
81.88509655070928
 20
-152.310082969735
 10
81.88509655070928
 20
-152.310082969735
 10
81.79931367312656
 20
-152.4751030434784
 10
81.72696666793632
 20
-152.5536512205421
 10
81.69079316534119
 20
-152.593614328171
 10
81.69079316534119
 20
-152.593614328171
 10
81.55953502735318
 20
-152.5281575139513
 10
81.55953502735318
 20
-152.5281575139513
 10
81.55953502735318
 20
-152.5281575139513
 10
81.55953502735318
 20
-152.6993787595682
 10
81.55953502735318
 20
-152.6993787595682
 10
81.55953502735318
 20
-152.807554757805
 10
81.56194659419284
 20
-152.8561306041471
 10
81.57297089974566
 20
-152.9618950355442
 10
81.49614527042457
 20
-152.9598279782531
 10
81.47375214977044
 20
-152.9598279782531
 10
81.25429956736004
 20
-152.9598279782531
 10
81.25429956736004
 20
-152.9598279782531
 10
81.19573294411079
 20
-152.9598279782531
 10
81.19573294411079
 20
-152.9598279782531
 10
81.19573294411079
 20
-152.9598279782531
 10
81.19573294411079
 20
-153.0952202308234
 10
81.19573294411079
 20
-153.0952202308234
 10
81.19573294411079
 20
-153.0952202308234
 10
81.27255857343186
 20
-153.0952202308234
 10
81.27255857343186
 20
-153.0952202308234
 10
81.34249401178243
 20
-153.0952202308234
 10
81.49855683726427
 20
-153.0907416066926
 10
81.61155596918044
 20
-153.082473377528
 10
81.61155596918044
 20
-153.082473377528
 10
81.61155596918044
 20
-153.2602403045669
 10
81.61155596918044
 20
-153.2602403045669
 10
81.5075140855259
 20
-153.2536946231449
 10
81.3380153876516
 20
-153.2495605085626
 10
81.27255857343186
 20
-153.2495605085626
 10
81.27255857343186
 20
-153.2495605085626
 10
81.19573294411079
 20
-153.2495605085626
 10
81.19573294411079
 20
-153.2495605085626
 10
81.19780000140194
 20
-153.338443972082
 10
81.20227862553276
 20
-153.5775335987584
 10
81.20469019237244
 20
-153.6516031516912
 10
81.20469019237244
 20
-153.6516031516912
 10
80.98971623409285
 20
-153.6516031516912
 10
80.98971623409285
 20
-153.6516031516912
 10
81.00349661603386
 20
-153.4376627220573
 10
81.00349661603386
 20
-153.4080349008841
 10
81.00797524016469
 20
-153.2495605085626
 10
81.00797524016469
 20
-153.2495605085626
 10
80.93321666813476
 20
-153.2495605085626
 10
80.93321666813476
 20
-153.2495605085626
 10
80.87223847804583
 20
-153.2495605085626
 10
80.70962997114204
 20
-153.2536946231449
 10
80.5918077055465
 20
-153.2602403045669
 10
80.5918077055465
 20
-153.2602403045669
 10
80.5918077055465
 20
-153.082473377528
 10
80.5918077055465
 20
-153.082473377528
 10
80.7048068374627
 20
-153.0907416066926
 10
80.85880260565335
 20
-153.0952202308234
 10
80.93321666813476
 20
-153.0952202308234
 10
80.93321666813476
 20
-153.0952202308234
 10
81.0124538642955
 20
-153.0952202308234
 10
81.0124538642955
 20
-153.0952202308234
 10
81.0124538642955
 20
-153.0952202308234
 10
81.0124538642955
 20
-152.9598279782531
 10
81.0124538642955
 20
-152.9598279782531
 10
81.0124538642955
 20
-152.9598279782531
 10
80.96491154659906
 20
-152.9598279782531
 10
80.96491154659906
 20
-152.9598279782531
 10
80.88360729314715
 20
-152.9598279782531
 10
80.67793509267774
 20
-152.9618950355442
 10
80.64176159008262
 20
-152.9618950355442
 10
80.64830727150459
 20
-152.8898925399025
 10
80.65760902931478
 20
-152.8096218150962
 10
80.65760902931478
 20
-152.6890434731124
 10
80.65760902931478
 20
-152.6890434731124
 10
80.65760902931478
 20
-152.5154106606558
 10
80.65760902931478
 20
-152.5154106606558
 10
80.65760902931478
 20
-152.4434081650141
 10
80.64830727150459
 20
-152.3228298230304
 10
80.64176159008262
 20
-152.2425590982241
 10
80.72513290082566
 20
-152.2466932128063
 10
80.76612953710014
 20
-152.2487602700975
 10
80.90152178967045
 20
-152.2487602700975
 10
80.90152178967045
 20
-152.2487602700975
 10
81.0124538642955
 20
-152.2487602700975
 10
81.0124538642955
 20
-152.2487602700975
 10
81.0124538642955
 20
-152.2487602700975
 10
81.0124538642955
 20
-152.1030327310714
 10
81.0124538642955
 20
-152.1030327310714
 10
81.0124538642955
 20
-152.1030327310714
 10
80.92873804400394
 20
-152.1030327310714
 10
80.92873804400394
 20
-152.1030327310714
 10
80.86982691120615
 20
-152.1030327310714
 10
80.68689234093939
 20
-152.1071668456538
 10
80.59628632967733
 20
-152.1133680175272
 10
80.59628632967733
 20
-152.1133680175272
 10
80.59628632967733
 20
-151.9359456000368
 10
80.59628632967733
 20
-151.9359456000368
 10
80.68448077409971
 20
-151.9421467719103
 10
80.85880260565335
 20
-151.9462808864926
 10
80.92873804400394
 20
-151.9462808864926
 10
80.92873804400394
 20
-151.9462808864926
 10
81.0124538642955
 20
-151.9462808864926
 10
81.0124538642955
 20
-151.9462808864926
 10
81.0124538642955
 20
-151.9125189507371
 10
81.00797524016469
 20
-151.7581786729979
 10
81.00797524016469
 20
-151.7264837945336
 10
81.00797524016469
 20
-151.7264837945336
 10
81.21812606476492
 20
-151.7433647624113
 10
81.21812606476492
 20
-151.7433647624113
 10
81.23638507083674
 20
-151.7454318197025
 10
81.25877819149087
 20
-151.7474988769937
 10
81.25877819149087
 20
-151.7685139594537
 10
81.25877819149087
 20
-151.7919406087534
 10
81.23638507083674
 20
-151.8005533474665
 10
81.20675724966359
 20
-151.8129556912134
 10
81.20675724966359
 20
-151.834315283222
 10
81.20469019237244
 20
-151.9293999186148
 10
81.20469019237244
 20
-151.9462808864926
 10
81.20469019237244
 20
-151.9462808864926
 10
81.26807994930103
 20
-151.9462808864926
 10
81.26807994930103
 20
-151.9462808864926
 10
81.3404269544913
 20
-151.9462808864926
 10
81.49407821313344
 20
-151.9421467719103
 10
81.60707734504962
 20
-151.9359456000368
 10
81.60707734504962
 20
-151.9359456000368
 10
81.60707734504962
 20
-152.1133680175272
 10
81.60707734504962
 20
-152.1133680175272
 10
81.50303546139507
 20
-152.1071668456538
 10
81.33560382081194
 20
-152.1030327310714
 10
81.26807994930103
 20
-152.1030327310714
 10
81.26807994930103
 20
-152.1030327310714
 10
81.19573294411079
 20
-152.1030327310714
 10
81.19573294411079
 20
-152.1030327310714
 10
81.19573294411079
 20
-152.1030327310714
 10
81.19573294411079
 20
-152.2487602700975
 10
81.19573294411079
 20
-152.2487602700975
 10
81.19573294411079
 20
-152.2487602700975
 10
81.27014700659218
 20
-152.2487602700975
 10
81.27014700659218
 20
-152.2487602700975
 10
81.43068845620483
 20
-152.2487602700975
 10
81.5075140855259
 20
-152.2446261555152
 10
81.57297089974566
 20
-152.2425590982241
 10
81.56401365148401
 20
-152.3376437336169
 10
81.56194659419284
 20
-152.4161919106806
 10
81.55953502735318
 20
-152.4540879610184
 10
81.72455510109664
 20
-152.2425590982241
 10
81.83755423301283
 20
-151.9952012423831
 10
81.85581323908467
 20
-151.7326849664071
 10
81.85581323908467
 20
-151.7326849664071
 10
82.08629012704788
 20
-151.7833278700403
 10
82.08629012704788
 20
-151.7833278700403
 10
82.10213756628002
 20
-151.7878064941711
 10
82.11798500551216
 20
-151.7940076660445
 10
82.11798500551216
 20
-151.8108886339222
 10
82.11798500551216
 20
-151.8277696018
 10
82.11350638138135
 20
-151.8301811686397
 10
82.05907387271441
 20
-151.8511962510997
 10
82.04115937619111
 20
-151.9273328613237
 10
82.01394312185762
 20
-152.0182833821343
 10
81.96192218003035
 20
-152.14540740554
 10
81.96192218003035
 20
-152.14540740554
 10
82.32365720598158
 20
-152.14540740554
 10
82.32365720598158
 20
-152.14540740554
 10
82.36430933270753
 20
-152.14540740554
 10
82.50245766166605
 20
-152.1409287814092
 10
82.55447860349333
 20
-152.1347276095357
 10
82.55447860349333
 20
-152.1347276095357
 10
82.65369735346853
 20
-152.2043185383378
 10
82.65369735346853
 20
-152.2043185383378
 10
82.64474010520688
 20
-152.2256781303463
 10
82.63784991423637
 20
-152.2446261555152
 10
82.62200247500421
 20
-152.2807996581103
 97
        0
 97
        1
330
C9
 75
     2
 76
     1
 98
        1
 10
0.0
 20
0.0
450
        0
451
        0
460
0.0
461
0.0
452
        0
462
0.0
453
        0
470

  0
SPLINE
  5
CB
330
C0
100
AcDbEntity
  8
レイヤー 1
100
AcDbSpline
210
0.0
220
0.0
230
1.0
 70
     9
 71
     3
 72
    74
 73
    70
 74
     0
 42
0.0000000001
 43
0.0000000001
 40
0.0
 40
0.0
 40
0.0
 40
0.0
 40
1.0
 40
1.0
 40
1.0
 40
2.0
 40
2.0
 40
2.0
 40
3.0
 40
3.0
 40
3.0
 40
4.0
 40
4.0
 40
4.0
 40
5.0
 40
5.0
 40
5.0
 40
6.0
 40
6.0
 40
6.0
 40
7.0
 40
7.0
 40
7.0
 40
8.0
 40
8.0
 40
8.0
 40
9.0
 40
9.0
 40
9.0
 40
10.0
 40
10.0
 40
10.0
 40
11.0
 40
11.0
 40
11.0
 40
12.0
 40
12.0
 40
12.0
 40
13.0
 40
13.0
 40
13.0
 40
14.0
 40
14.0
 40
14.0
 40
15.0
 40
15.0
 40
15.0
 40
16.0
 40
16.0
 40
16.0
 40
17.0
 40
17.0
 40
17.0
 40
18.0
 40
18.0
 40
18.0
 40
19.0
 40
19.0
 40
19.0
 40
20.0
 40
20.0
 40
20.0
 40
21.0
 40
21.0
 40
21.0
 40
22.0
 40
22.0
 40
22.0
 40
23.0
 40
23.0
 40
23.0
 40
23.0
 10
84.71730954913317
 20
-152.1833034558778
 30
0.0
 10
84.71730954913317
 20
-152.1833034558778
 30
0.0
 10
84.54539928441921
 20
-152.1833034558778
 30
0.0
 10
84.54539928441921
 20
-152.1833034558778
 30
0.0
 10
84.54539928441921
 20
-152.1833034558778
 30
0.0
 10
84.54539928441921
 20
-152.297680625988
 30
0.0
 10
84.54539928441921
 20
-152.297680625988
 30
0.0
 10
84.54539928441921
 20
-152.3376437336169
 30
0.0
 10
84.55228947538971
 20
-152.4117132865498
 30
0.0
 10
84.55676809952054
 20
-152.4372069931407
 30
0.0
 10
84.55676809952054
 20
-152.4372069931407
 30
0.0
 10
84.33059758091388
 20
-152.4372069931407
 30
0.0
 10
84.33059758091388
 20
-152.4372069931407
 30
0.0
 10
84.34196639601521
 20
-152.3717501789209
 30
0.0
 10
84.34420570808063
 20
-152.3124945365746
 30
0.0
 10
84.34420570808063
 20
-152.310082969735
 30
0.0
 10
84.34420570808063
 20
-152.310082969735
 30
0.0
 10
84.34420570808063
 20
-152.1874375704601
 30
0.0
 10
84.34420570808063
 20
-152.1874375704601
 30
0.0
 10
84.34420570808063
 20
-152.1874375704601
 30
0.0
 10
84.15196938000368
 20
-152.1874375704601
 30
0.0
 10
84.15196938000368
 20
-152.1874375704601
 30
0.0
 10
84.1316433166407
 20
-152.2466932128063
 30
0.0
 10
84.0820339416531
 20
-152.392765261381
 30
0.0
 10
83.95990530670101
 20
-152.4751030434784
 30
0.0
 10
83.95990530670101
 20
-152.4751030434784
 30
0.0
 10
83.79264592089212
 20
-152.3693386120813
 30
0.0
 10
83.79264592089212
 20
-152.3693386120813
 30
0.0
 10
83.8717108622786
 20
-152.3228298230304
 30
0.0
 10
83.99607880929613
 20
-152.2487602700975
 30
0.0
 10
83.99607880929613
 20
-151.9273328613237
 30
0.0
 10
83.99607880929613
 20
-151.8722113335597
 30
0.0
 10
83.99142793039104
 20
-151.8277696018
 30
0.0
 10
83.98918861832562
 20
-151.7898735514622
 30
0.0
 10
84.07066512655179
 20
-151.7981417806268
 30
0.0
 10
84.14973006793827
 20
-151.8046874620488
 30
0.0
 10
84.21759844899769
 20
-151.8046874620488
 30
0.0
 10
84.40759546500922
 20
-151.8046874620488
 30
0.0
 10
84.61998560167486
 20
-151.7454318197025
 30
0.0
 10
84.68561467066889
 20
-151.7158039985294
 30
0.0
 10
84.68561467066889
 20
-151.7158039985294
 30
0.0
 10
84.82117917801346
 20
-151.8511962510997
 30
0.0
 10
84.82117917801346
 20
-151.8511962510997
 30
0.0
 10
84.82583005691855
 20
-151.855330365682
 30
0.0
 10
84.82806936898397
 20
-151.8639431043951
 30
0.0
 10
84.82806936898397
 20
-151.8701442762685
 30
0.0
 10
84.82806936898397
 20
-151.8915038682771
 30
0.0
 10
84.81222192975181
 20
-151.8977050401506
 30
0.0
 10
84.79413517845426
 20
-151.8977050401506
 30
0.0
 10
84.77156980302586
 20
-151.8977050401506
 30
0.0
 10
84.7557223637937
 20
-151.889436810986
 30
0.0
 10
84.73539630043074
 20
-151.8787570149817
 30
0.0
 10
84.54987790855003
 20
-151.9359456000368
 30
0.0
 10
84.31698945374714
 20
-151.9610947970791
 30
0.0
 10
84.17470701020633
 20
-151.9631618543703
 30
0.0
 10
84.17470701020633
 20
-151.9631618543703
 30
0.0
 10
84.17005613130124
 20
-152.0458441460163
 30
0.0
 10
84.17005613130124
 20
-152.0458441460163
 30
0.0
 10
84.17005613130124
 20
-152.0458441460163
 30
0.0
 10
84.46168346412765
 20
-152.0458441460163
 30
0.0
 10
84.46168346412765
 20
-152.0458441460163
 30
0.0
 10
84.52283390899081
 20
-152.0458441460163
 30
0.0
 10
84.80309242671589
 20
-152.0268961208474
 30
0.0
 10
84.85063474441234
 20
-152.0203504394254
 30
0.0
 10
84.85063474441234
 20
-152.0203504394254
 30
0.0
 10
84.85063474441234
 20
-152.1895046277512
 30
0.0
 10
84.85063474441234
 20
-152.1895046277512
 30
0.0
 10
84.81446124181722
 20
-152.1853705131689
 30
0.0
 10
84.80085311465048
 20
-152.1833034558778
 30
0.0
 10
84.71730954913317
 20
-152.1833034558778
 30
0.0
  0
SPLINE
  5
CC
330
C0
100
AcDbEntity
  8
レイヤー 1
100
AcDbSpline
210
0.0
220
0.0
230
1.0
 70
    11
 71
     3
 72
    17
 73
    13
 74
     0
 42
0.0000000001
 43
0.0000000001
 40
0.0
 40
0.0
 40
0.0
 40
0.0
 40
1.0
 40
1.0
 40
1.0
 40
2.0
 40
2.0
 40
2.0
 40
3.0
 40
3.0
 40
3.0
 40
4.0
 40
4.0
 40
4.0
 40
4.0
 10
84.37813989861032
 20
-153.1269151092877
 30
0.0
 10
84.37813989861032
 20
-153.1269151092877
 30
0.0
 10
83.4036946406074
 20
-153.1269151092877
 30
0.0
 10
83.4036946406074
 20
-153.1269151092877
 30
0.0
 10
83.4036946406074
 20
-153.1269151092877
 30
0.0
 10
83.4036946406074
 20
-153.234746597976
 30
0.0
 10
83.4036946406074
 20
-153.234746597976
 30
0.0
 10
83.4036946406074
 20
-153.234746597976
 30
0.0
 10
84.37813989861032
 20
-153.234746597976
 30
0.0
 10
84.37813989861032
 20
-153.234746597976
 30
0.0
 10
84.37813989861032
 20
-153.234746597976
 30
0.0
 10
84.37813989861032
 20
-153.1269151092877
 30
0.0
 10
84.37813989861032
 20
-153.1269151092877
 30
0.0
  0
SPLINE
  5
CD
330
C0
100
AcDbEntity
  8
レイヤー 1
100
AcDbSpline
210
0.0
220
0.0
230
1.0
 70
    11
 71
     3
 72
    17
 73
    13
 74
     0
 42
0.0000000001
 43
0.0000000001
 40
0.0
 40
0.0
 40
0.0
 40
0.0
 40
1.0
 40
1.0
 40
1.0
 40
2.0
 40
2.0
 40
2.0
 40
3.0
 40
3.0
 40
3.0
 40
4.0
 40
4.0
 40
4.0
 40
4.0
 10
84.37813989861032
 20
-152.8812798011894
 30
0.0
 10
84.37813989861032
 20
-152.8812798011894
 30
0.0
 10
83.4036946406074
 20
-152.8812798011894
 30
0.0
 10
83.4036946406074
 20
-152.8812798011894
 30
0.0
 10
83.4036946406074
 20
-152.8812798011894
 30
0.0
 10
83.4036946406074
 20
-152.9915228567174
 30
0.0
 10
83.4036946406074
 20
-152.9915228567174
 30
0.0
 10
83.4036946406074
 20
-152.9915228567174
 30
0.0
 10
84.37813989861032
 20
-152.9915228567174
 30
0.0
 10
84.37813989861032
 20
-152.9915228567174
 30
0.0
 10
84.37813989861032
 20
-152.9915228567174
 30
0.0
 10
84.37813989861032
 20
-152.8812798011894
 30
0.0
 10
84.37813989861032
 20
-152.8812798011894
 30
0.0
  0
SPLINE
  5
CE
330
C0
100
AcDbEntity
  8
レイヤー 1
100
AcDbSpline
210
0.0
220
0.0
230
1.0
 70
    11
 71
     3
 72
    17
 73
    13
 74
     0
 42
0.0000000001
 43
0.0000000001
 40
0.0
 40
0.0
 40
0.0
 40
0.0
 40
1.0
 40
1.0
 40
1.0
 40
2.0
 40
2.0
 40
2.0
 40
3.0
 40
3.0
 40
3.0
 40
4.0
 40
4.0
 40
4.0
 40
4.0
 10
84.37813989861032
 20
-152.6359890026396
 30
0.0
 10
84.37813989861032
 20
-152.6359890026396
 30
0.0
 10
83.4036946406074
 20
-152.6359890026396
 30
0.0
 10
83.4036946406074
 20
-152.6359890026396
 30
0.0
 10
83.4036946406074
 20
-152.6359890026396
 30
0.0
 10
83.4036946406074
 20
-152.7482991154587
 30
0.0
 10
83.4036946406074
 20
-152.7482991154587
 30
0.0
 10
83.4036946406074
 20
-152.7482991154587
 30
0.0
 10
84.37813989861032
 20
-152.7482991154587
 30
0.0
 10
84.37813989861032
 20
-152.7482991154587
 30
0.0
 10
84.37813989861032
 20
-152.7482991154587
 30
0.0
 10
84.37813989861032
 20
-152.6359890026396
 30
0.0
 10
84.37813989861032
 20
-152.6359890026396
 30
0.0
  0
SPLINE
  5
CF
330
C0
100
AcDbEntity
  8
レイヤー 1
100
AcDbSpline
210
0.0
220
0.0
230
1.0
 70
     9
 71
     3
 72
    74
 73
    70
 74
     0
 42
0.0000000001
 43
0.0000000001
 40
0.0
 40
0.0
 40
0.0
 40
0.0
 40
1.0
 40
1.0
 40
1.0
 40
2.0
 40
2.0
 40
2.0
 40
3.0
 40
3.0
 40
3.0
 40
4.0
 40
4.0
 40
4.0
 40
5.0
 40
5.0
 40
5.0
 40
6.0
 40
6.0
 40
6.0
 40
7.0
 40
7.0
 40
7.0
 40
8.0
 40
8.0
 40
8.0
 40
9.0
 40
9.0
 40
9.0
 40
10.0
 40
10.0
 40
10.0
 40
11.0
 40
11.0
 40
11.0
 40
12.0
 40
12.0
 40
12.0
 40
13.0
 40
13.0
 40
13.0
 40
14.0
 40
14.0
 40
14.0
 40
15.0
 40
15.0
 40
15.0
 40
16.0
 40
16.0
 40
16.0
 40
17.0
 40
17.0
 40
17.0
 40
18.0
 40
18.0
 40
18.0
 40
19.0
 40
19.0
 40
19.0
 40
20.0
 40
20.0
 40
20.0
 40
21.0
 40
21.0
 40
21.0
 40
22.0
 40
22.0
 40
22.0
 40
23.0
 40
23.0
 40
23.0
 40
23.0
 10
84.70370142196644
 20
-153.6705511768601
 30
0.0
 10
84.47529159129437
 20
-153.6598713808558
 30
0.0
 10
84.26048988778905
 20
-153.5730549746276
 30
0.0
 10
84.0729044386172
 20
-153.4524766326438
 30
0.0
 10
84.0729044386172
 20
-153.4524766326438
 30
0.0
 10
84.17694632227174
 20
-153.366004735964
 30
0.0
 10
84.17694632227174
 20
-153.366004735964
 30
0.0
 10
84.17694632227174
 20
-153.366004735964
 30
0.0
 10
83.5869737204227
 20
-153.366004735964
 30
0.0
 10
83.5869737204227
 20
-153.366004735964
 30
0.0
 10
83.5869737204227
 20
-153.366004735964
 30
0.0
 10
83.67275659800542
 20
-153.4293944928927
 30
0.0
 10
83.67275659800542
 20
-153.4293944928927
 30
0.0
 10
83.67964678897592
 20
-153.4335286074749
 30
0.0
 10
83.69067109452872
 20
-153.4442084034792
 30
0.0
 10
83.69067109452872
 20
-153.4590223140658
 30
0.0
 10
83.69067109452872
 20
-153.4993299312432
 30
0.0
 10
83.61177840791651
 20
-153.4927842498212
 30
0.0
 10
83.59593096868435
 20
-153.4907171925301
 30
0.0
 10
83.349606641489
 20
-153.6302435596827
 30
0.0
 10
83.19561087329832
 20
-153.661938438147
 30
0.0
 10
83.08502330822181
 20
-153.6788194060247
 30
0.0
 10
83.08502330822181
 20
-153.6788194060247
 30
0.0
 10
82.94687497926329
 20
-153.5013969885343
 30
0.0
 10
82.94687497926329
 20
-153.5013969885343
 30
0.0
 10
83.21145831253046
 20
-153.46970211007
 30
0.0
 10
83.31997882031584
 20
-153.4228488114707
 30
0.0
 10
83.41506345570874
 20
-153.3701388505464
 30
0.0
 10
83.33582625954798
 20
-153.3722059078375
 30
0.0
 10
83.21386987937016
 20
-153.3742729651286
 30
0.0
 10
83.17976343406618
 20
-153.3763400224198
 30
0.0
 10
83.19561087329832
 20
-153.2874565589003
 30
0.0
 10
83.198022440138
 20
-153.158609987752
 30
0.0
 10
83.198022440138
 20
-153.0845404348191
 30
0.0
 10
83.198022440138
 20
-153.0845404348191
 30
0.0
 10
83.198022440138
 20
-152.7841281085053
 30
0.0
 10
83.198022440138
 20
-152.7841281085053
 30
0.0
 10
83.198022440138
 20
-152.6845648489816
 30
0.0
 10
83.19113224916749
 20
-152.5853460990064
 30
0.0
 10
83.17976343406618
 20
-152.4878498967738
 30
0.0
 10
83.28828394185155
 20
-152.4943955781958
 30
0.0
 10
83.53495277859543
 20
-152.5005967500693
 30
0.0
 10
83.65001896780277
 20
-152.5005967500693
 30
0.0
 10
83.65001896780277
 20
-152.5005967500693
 30
0.0
 10
84.10236000501608
 20
-152.5005967500693
 30
0.0
 10
84.10236000501608
 20
-152.5005967500693
 30
0.0
 10
84.228967264099
 20
-152.5005967500693
 30
0.0
 10
84.27409801495578
 20
-152.5005967500693
 30
0.0
 10
84.36229245937818
 20
-152.496462635487
 30
0.0
 10
84.5205945969254
 20
-152.489916954065
 30
0.0
 10
84.53868134822297
 20
-152.489916954065
 30
0.0
 10
84.58846297798483
 20
-152.4878498967738
 30
0.0
 10
84.57933347494892
 20
-152.5684651311287
 30
0.0
 10
84.57485485081809
 20
-152.7269395234502
 30
0.0
 10
84.57485485081809
 20
-152.8096218150962
 30
0.0
 10
84.57485485081809
 20
-152.8096218150962
 30
0.0
 10
84.57485485081809
 20
-153.0952202308234
 30
0.0
 10
84.57485485081809
 20
-153.0952202308234
 30
0.0
 10
84.57485485081809
 20
-153.1668782169166
 30
0.0
 10
84.5770941628835
 20
-153.2981363549046
 30
0.0
 10
84.58846297798483
 20
-153.3763400224198
 30
0.0
 10
84.5114650938895
 20
-153.3722059078375
 30
0.0
 10
84.38037921067573
 20
-153.3701388505464
 30
0.0
 10
84.29666339038417
 20
-153.3680717932552
 30
0.0
 10
84.41431340120544
 20
-153.4355956647661
 30
0.0
 10
84.5770941628835
 20
-153.4865830779478
 30
0.0
 10
84.80309242671589
 20
-153.4907171925301
 30
0.0
 10
84.80309242671589
 20
-153.4907171925301
 30
0.0
 10
84.70370142196644
 20
-153.6705511768601
 30
0.0
 10
84.70370142196644
 20
-153.6705511768601
 30
0.0
  0
SPLINE
  5
D0
330
C0
100
AcDbEntity
  8
レイヤー 1
100
AcDbSpline
210
0.0
220
0.0
230
1.0
 70
     9
 71
     3
 72
    71
 73
    67
 74
     0
 42
0.0000000001
 43
0.0000000001
 40
0.0
 40
0.0
 40
0.0
 40
0.0
 40
1.0
 40
1.0
 40
1.0
 40
2.0
 40
2.0
 40
2.0
 40
3.0
 40
3.0
 40
3.0
 40
4.0
 40
4.0
 40
4.0
 40
5.0
 40
5.0
 40
5.0
 40
6.0
 40
6.0
 40
6.0
 40
7.0
 40
7.0
 40
7.0
 40
8.0
 40
8.0
 40
8.0
 40
9.0
 40
9.0
 40
9.0
 40
10.0
 40
10.0
 40
10.0
 40
11.0
 40
11.0
 40
11.0
 40
12.0
 40
12.0
 40
12.0
 40
13.0
 40
13.0
 40
13.0
 40
14.0
 40
14.0
 40
14.0
 40
15.0
 40
15.0
 40
15.0
 40
16.0
 40
16.0
 40
16.0
 40
17.0
 40
17.0
 40
17.0
 40
18.0
 40
18.0
 40
18.0
 40
19.0
 40
19.0
 40
19.0
 40
20.0
 40
20.0
 40
20.0
 40
21.0
 40
21.0
 40
21.0
 40
22.0
 40
22.0
 40
22.0
 40
22.0
 10
83.80832110535001
 20
-151.903906212024
 30
0.0
 10
83.79264592089212
 20
-151.903906212024
 30
0.0
 10
83.77903779372537
 20
-151.8997720974417
 30
0.0
 10
83.7518215393919
 20
-151.8915038682771
 30
0.0
 10
83.60040959281517
 20
-151.938012657328
 30
0.0
 10
83.41506345570874
 20
-151.9548936252057
 30
0.0
 10
83.26589082119742
 20
-151.959027739788
 30
0.0
 10
83.26589082119742
 20
-151.959027739788
 30
0.0
 10
83.26347925435774
 20
-152.0479112033074
 30
0.0
 10
83.26347925435774
 20
-152.0479112033074
 30
0.0
 10
83.26347925435774
 20
-152.0479112033074
 30
0.0
 10
83.54149846001741
 20
-152.0479112033074
 30
0.0
 10
83.54149846001741
 20
-152.0479112033074
 30
0.0
 10
83.59799802597549
 20
-152.0479112033074
 30
0.0
 10
83.79264592089212
 20
-152.0392984645943
 30
0.0
 10
83.84001598381431
 20
-152.0330972927209
 30
0.0
 10
83.84001598381431
 20
-152.0330972927209
 30
0.0
 10
83.84001598381431
 20
-152.193983251882
 30
0.0
 10
83.84001598381431
 20
-152.193983251882
 30
0.0
 10
83.78127710579079
 20
-152.1874375704601
 30
0.0
 10
83.64795191051163
 20
-152.1853705131689
 30
0.0
 10
83.60729978378568
 20
-152.1874375704601
 30
0.0
 10
83.60729978378568
 20
-152.1874375704601
 30
0.0
 10
83.60729978378568
 20
-152.297680625988
 30
0.0
 10
83.60729978378568
 20
-152.297680625988
 30
0.0
 10
83.60729978378568
 20
-152.3441894150389
 30
0.0
 10
83.60936684107683
 20
-152.4075791719675
 30
0.0
 10
83.61625703204733
 20
-152.4454752223053
 30
0.0
 10
83.61625703204733
 20
-152.4454752223053
 30
0.0
 10
83.41058483157791
 20
-152.4454752223053
 30
0.0
 10
83.41058483157791
 20
-152.4454752223053
 30
0.0
 10
83.41713051299988
 20
-152.4055121146764
 30
0.0
 10
83.42402070397039
 20
-152.3228298230304
 30
0.0
 10
83.42402070397039
 20
-152.3080159124438
 30
0.0
 10
83.42402070397039
 20
-152.3080159124438
 30
0.0
 10
83.42402070397039
 20
-152.1874375704601
 30
0.0
 10
83.42402070397039
 20
-152.1874375704601
 30
0.0
 10
83.42402070397039
 20
-152.1874375704601
 30
0.0
 10
83.2476318151256
 20
-152.1874375704601
 30
0.0
 10
83.2476318151256
 20
-152.1874375704601
 30
0.0
 10
83.20250106426883
 20
-152.4075791719675
 30
0.0
 10
83.14358993147106
 20
-152.4878498967738
 30
0.0
 10
83.03059079955486
 20
-152.5874131562976
 30
0.0
 10
83.03059079955486
 20
-152.5874131562976
 30
0.0
 10
82.85213485341891
 20
-152.4730359861873
 30
0.0
 10
82.85213485341891
 20
-152.4730359861873
 30
0.0
 10
82.92000323447833
 20
-152.4244601398453
 30
0.0
 10
83.08054468409098
 20
-152.3124945365746
 30
0.0
 10
83.08054468409098
 20
-151.9631618543703
 30
0.0
 10
83.08054468409098
 20
-151.8808240722728
 30
0.0
 10
83.07124292628079
 20
-151.834315283222
 30
0.0
 10
83.06228567801914
 20
-151.7857394368799
 30
0.0
 10
83.21834850350098
 20
-151.8005533474665
 30
0.0
 10
83.23419594273312
 20
-151.8005533474665
 30
0.0
 10
83.27243650261939
 20
-151.8005533474665
 30
0.0
 10
83.38784720137526
 20
-151.8005533474665
 30
0.0
 10
83.53943140272624
 20
-151.7833278700403
 30
0.0
 10
83.71134166744022
 20
-151.7220051704028
 30
0.0
 10
83.71134166744022
 20
-151.7220051704028
 30
0.0
 10
83.83329804761807
 20
-151.8532633083908
 30
0.0
 10
83.83329804761807
 20
-151.8532633083908
 30
0.0
 10
83.84001598381431
 20
-151.8598089898128
 30
0.0
 10
83.84449460794513
 20
-151.8680772189774
 30
0.0
 10
83.84449460794513
 20
-151.8766899576905
 30
0.0
 10
83.84449460794513
 20
-151.8997720974417
 30
0.0
 10
83.82416854458215
 20
-151.903906212024
 30
0.0
 10
83.80832110535001
 20
-151.903906212024
 30
0.0
  0
HATCH
  5
D1
330
C0
100
AcDbEntity
  8
レイヤー 1
 62
   250
420
  2299925
440
 33554687
100
AcDbHatch
 10
0.0
 20
0.0
 30
0.0
210
0.0
220
0.0
230
1.0
  2
SOLID
 70
     1
 71
     1
 91
        6
 92
        1
 93
        1
 72
     4
 94
        3
 73
     0
 74
     0
 95
       74
 96
       70
 40
0.0
 40
0.0
 40
0.0
 40
0.0
 40
1.0
 40
1.0
 40
1.0
 40
2.0
 40
2.0
 40
2.0
 40
3.0
 40
3.0
 40
3.0
 40
4.0
 40
4.0
 40
4.0
 40
5.0
 40
5.0
 40
5.0
 40
6.0
 40
6.0
 40
6.0
 40
7.0
 40
7.0
 40
7.0
 40
8.0
 40
8.0
 40
8.0
 40
9.0
 40
9.0
 40
9.0
 40
10.0
 40
10.0
 40
10.0
 40
11.0
 40
11.0
 40
11.0
 40
12.0
 40
12.0
 40
12.0
 40
13.0
 40
13.0
 40
13.0
 40
14.0
 40
14.0
 40
14.0
 40
15.0
 40
15.0
 40
15.0
 40
16.0
 40
16.0
 40
16.0
 40
17.0
 40
17.0
 40
17.0
 40
18.0
 40
18.0
 40
18.0
 40
19.0
 40
19.0
 40
19.0
 40
20.0
 40
20.0
 40
20.0
 40
21.0
 40
21.0
 40
21.0
 40
22.0
 40
22.0
 40
22.0
 40
23.0
 40
23.0
 40
23.0
 40
23.0
 10
84.71730954913317
 20
-152.1833034558778
 10
84.71730954913317
 20
-152.1833034558778
 10
84.54539928441921
 20
-152.1833034558778
 10
84.54539928441921
 20
-152.1833034558778
 10
84.54539928441921
 20
-152.1833034558778
 10
84.54539928441921
 20
-152.297680625988
 10
84.54539928441921
 20
-152.297680625988
 10
84.54539928441921
 20
-152.3376437336169
 10
84.55228947538971
 20
-152.4117132865498
 10
84.55676809952054
 20
-152.4372069931407
 10
84.55676809952054
 20
-152.4372069931407
 10
84.33059758091388
 20
-152.4372069931407
 10
84.33059758091388
 20
-152.4372069931407
 10
84.34196639601521
 20
-152.3717501789209
 10
84.34420570808063
 20
-152.3124945365746
 10
84.34420570808063
 20
-152.310082969735
 10
84.34420570808063
 20
-152.310082969735
 10
84.34420570808063
 20
-152.1874375704601
 10
84.34420570808063
 20
-152.1874375704601
 10
84.34420570808063
 20
-152.1874375704601
 10
84.15196938000368
 20
-152.1874375704601
 10
84.15196938000368
 20
-152.1874375704601
 10
84.1316433166407
 20
-152.2466932128063
 10
84.0820339416531
 20
-152.392765261381
 10
83.95990530670101
 20
-152.4751030434784
 10
83.95990530670101
 20
-152.4751030434784
 10
83.79264592089212
 20
-152.3693386120813
 10
83.79264592089212
 20
-152.3693386120813
 10
83.8717108622786
 20
-152.3228298230304
 10
83.99607880929613
 20
-152.2487602700975
 10
83.99607880929613
 20
-151.9273328613237
 10
83.99607880929613
 20
-151.8722113335597
 10
83.99142793039104
 20
-151.8277696018
 10
83.98918861832562
 20
-151.7898735514622
 10
84.07066512655179
 20
-151.7981417806268
 10
84.14973006793827
 20
-151.8046874620488
 10
84.21759844899769
 20
-151.8046874620488
 10
84.40759546500922
 20
-151.8046874620488
 10
84.61998560167486
 20
-151.7454318197025
 10
84.68561467066889
 20
-151.7158039985294
 10
84.68561467066889
 20
-151.7158039985294
 10
84.82117917801346
 20
-151.8511962510997
 10
84.82117917801346
 20
-151.8511962510997
 10
84.82583005691855
 20
-151.855330365682
 10
84.82806936898397
 20
-151.8639431043951
 10
84.82806936898397
 20
-151.8701442762685
 10
84.82806936898397
 20
-151.8915038682771
 10
84.81222192975181
 20
-151.8977050401506
 10
84.79413517845426
 20
-151.8977050401506
 10
84.77156980302586
 20
-151.8977050401506
 10
84.7557223637937
 20
-151.889436810986
 10
84.73539630043074
 20
-151.8787570149817
 10
84.54987790855003
 20
-151.9359456000368
 10
84.31698945374714
 20
-151.9610947970791
 10
84.17470701020633
 20
-151.9631618543703
 10
84.17470701020633
 20
-151.9631618543703
 10
84.17005613130124
 20
-152.0458441460163
 10
84.17005613130124
 20
-152.0458441460163
 10
84.17005613130124
 20
-152.0458441460163
 10
84.46168346412765
 20
-152.0458441460163
 10
84.46168346412765
 20
-152.0458441460163
 10
84.52283390899081
 20
-152.0458441460163
 10
84.80309242671589
 20
-152.0268961208474
 10
84.85063474441234
 20
-152.0203504394254
 10
84.85063474441234
 20
-152.0203504394254
 10
84.85063474441234
 20
-152.1895046277512
 10
84.85063474441234
 20
-152.1895046277512
 10
84.81446124181722
 20
-152.1853705131689
 10
84.80085311465048
 20
-152.1833034558778
 10
84.71730954913317
 20
-152.1833034558778
 97
        0
 97
        1
330
CB
 92
        1
 93
        1
 72
     4
 94
        3
 73
     0
 74
     0
 95
       17
 96
       13
 40
0.0
 40
0.0
 40
0.0
 40
0.0
 40
1.0
 40
1.0
 40
1.0
 40
2.0
 40
2.0
 40
2.0
 40
3.0
 40
3.0
 40
3.0
 40
4.0
 40
4.0
 40
4.0
 40
4.0
 10
84.37813989861032
 20
-153.1269151092877
 10
84.37813989861032
 20
-153.1269151092877
 10
83.4036946406074
 20
-153.1269151092877
 10
83.4036946406074
 20
-153.1269151092877
 10
83.4036946406074
 20
-153.1269151092877
 10
83.4036946406074
 20
-153.234746597976
 10
83.4036946406074
 20
-153.234746597976
 10
83.4036946406074
 20
-153.234746597976
 10
84.37813989861032
 20
-153.234746597976
 10
84.37813989861032
 20
-153.234746597976
 10
84.37813989861032
 20
-153.234746597976
 10
84.37813989861032
 20
-153.1269151092877
 10
84.37813989861032
 20
-153.1269151092877
 97
        0
 97
        1
330
CC
 92
        1
 93
        1
 72
     4
 94
        3
 73
     0
 74
     0
 95
       17
 96
       13
 40
0.0
 40
0.0
 40
0.0
 40
0.0
 40
1.0
 40
1.0
 40
1.0
 40
2.0
 40
2.0
 40
2.0
 40
3.0
 40
3.0
 40
3.0
 40
4.0
 40
4.0
 40
4.0
 40
4.0
 10
84.37813989861032
 20
-152.8812798011894
 10
84.37813989861032
 20
-152.8812798011894
 10
83.4036946406074
 20
-152.8812798011894
 10
83.4036946406074
 20
-152.8812798011894
 10
83.4036946406074
 20
-152.8812798011894
 10
83.4036946406074
 20
-152.9915228567174
 10
83.4036946406074
 20
-152.9915228567174
 10
83.4036946406074
 20
-152.9915228567174
 10
84.37813989861032
 20
-152.9915228567174
 10
84.37813989861032
 20
-152.9915228567174
 10
84.37813989861032
 20
-152.9915228567174
 10
84.37813989861032
 20
-152.8812798011894
 10
84.37813989861032
 20
-152.8812798011894
 97
        0
 97
        1
330
CD
 92
        1
 93
        1
 72
     4
 94
        3
 73
     0
 74
     0
 95
       17
 96
       13
 40
0.0
 40
0.0
 40
0.0
 40
0.0
 40
1.0
 40
1.0
 40
1.0
 40
2.0
 40
2.0
 40
2.0
 40
3.0
 40
3.0
 40
3.0
 40
4.0
 40
4.0
 40
4.0
 40
4.0
 10
84.37813989861032
 20
-152.6359890026396
 10
84.37813989861032
 20
-152.6359890026396
 10
83.4036946406074
 20
-152.6359890026396
 10
83.4036946406074
 20
-152.6359890026396
 10
83.4036946406074
 20
-152.6359890026396
 10
83.4036946406074
 20
-152.7482991154587
 10
83.4036946406074
 20
-152.7482991154587
 10
83.4036946406074
 20
-152.7482991154587
 10
84.37813989861032
 20
-152.7482991154587
 10
84.37813989861032
 20
-152.7482991154587
 10
84.37813989861032
 20
-152.7482991154587
 10
84.37813989861032
 20
-152.6359890026396
 10
84.37813989861032
 20
-152.6359890026396
 97
        0
 97
        1
330
CE
 92
        1
 93
        1
 72
     4
 94
        3
 73
     0
 74
     0
 95
       74
 96
       70
 40
0.0
 40
0.0
 40
0.0
 40
0.0
 40
1.0
 40
1.0
 40
1.0
 40
2.0
 40
2.0
 40
2.0
 40
3.0
 40
3.0
 40
3.0
 40
4.0
 40
4.0
 40
4.0
 40
5.0
 40
5.0
 40
5.0
 40
6.0
 40
6.0
 40
6.0
 40
7.0
 40
7.0
 40
7.0
 40
8.0
 40
8.0
 40
8.0
 40
9.0
 40
9.0
 40
9.0
 40
10.0
 40
10.0
 40
10.0
 40
11.0
 40
11.0
 40
11.0
 40
12.0
 40
12.0
 40
12.0
 40
13.0
 40
13.0
 40
13.0
 40
14.0
 40
14.0
 40
14.0
 40
15.0
 40
15.0
 40
15.0
 40
16.0
 40
16.0
 40
16.0
 40
17.0
 40
17.0
 40
17.0
 40
18.0
 40
18.0
 40
18.0
 40
19.0
 40
19.0
 40
19.0
 40
20.0
 40
20.0
 40
20.0
 40
21.0
 40
21.0
 40
21.0
 40
22.0
 40
22.0
 40
22.0
 40
23.0
 40
23.0
 40
23.0
 40
23.0
 10
84.70370142196644
 20
-153.6705511768601
 10
84.47529159129437
 20
-153.6598713808558
 10
84.26048988778905
 20
-153.5730549746276
 10
84.0729044386172
 20
-153.4524766326438
 10
84.0729044386172
 20
-153.4524766326438
 10
84.17694632227174
 20
-153.366004735964
 10
84.17694632227174
 20
-153.366004735964
 10
84.17694632227174
 20
-153.366004735964
 10
83.5869737204227
 20
-153.366004735964
 10
83.5869737204227
 20
-153.366004735964
 10
83.5869737204227
 20
-153.366004735964
 10
83.67275659800542
 20
-153.4293944928927
 10
83.67275659800542
 20
-153.4293944928927
 10
83.67964678897592
 20
-153.4335286074749
 10
83.69067109452872
 20
-153.4442084034792
 10
83.69067109452872
 20
-153.4590223140658
 10
83.69067109452872
 20
-153.4993299312432
 10
83.61177840791651
 20
-153.4927842498212
 10
83.59593096868435
 20
-153.4907171925301
 10
83.349606641489
 20
-153.6302435596827
 10
83.19561087329832
 20
-153.661938438147
 10
83.08502330822181
 20
-153.6788194060247
 10
83.08502330822181
 20
-153.6788194060247
 10
82.94687497926329
 20
-153.5013969885343
 10
82.94687497926329
 20
-153.5013969885343
 10
83.21145831253046
 20
-153.46970211007
 10
83.31997882031584
 20
-153.4228488114707
 10
83.41506345570874
 20
-153.3701388505464
 10
83.33582625954798
 20
-153.3722059078375
 10
83.21386987937016
 20
-153.3742729651286
 10
83.17976343406618
 20
-153.3763400224198
 10
83.19561087329832
 20
-153.2874565589003
 10
83.198022440138
 20
-153.158609987752
 10
83.198022440138
 20
-153.0845404348191
 10
83.198022440138
 20
-153.0845404348191
 10
83.198022440138
 20
-152.7841281085053
 10
83.198022440138
 20
-152.7841281085053
 10
83.198022440138
 20
-152.6845648489816
 10
83.19113224916749
 20
-152.5853460990064
 10
83.17976343406618
 20
-152.4878498967738
 10
83.28828394185155
 20
-152.4943955781958
 10
83.53495277859543
 20
-152.5005967500693
 10
83.65001896780277
 20
-152.5005967500693
 10
83.65001896780277
 20
-152.5005967500693
 10
84.10236000501608
 20
-152.5005967500693
 10
84.10236000501608
 20
-152.5005967500693
 10
84.228967264099
 20
-152.5005967500693
 10
84.27409801495578
 20
-152.5005967500693
 10
84.36229245937818
 20
-152.496462635487
 10
84.5205945969254
 20
-152.489916954065
 10
84.53868134822297
 20
-152.489916954065
 10
84.58846297798483
 20
-152.4878498967738
 10
84.57933347494892
 20
-152.5684651311287
 10
84.57485485081809
 20
-152.7269395234502
 10
84.57485485081809
 20
-152.8096218150962
 10
84.57485485081809
 20
-152.8096218150962
 10
84.57485485081809
 20
-153.0952202308234
 10
84.57485485081809
 20
-153.0952202308234
 10
84.57485485081809
 20
-153.1668782169166
 10
84.5770941628835
 20
-153.2981363549046
 10
84.58846297798483
 20
-153.3763400224198
 10
84.5114650938895
 20
-153.3722059078375
 10
84.38037921067573
 20
-153.3701388505464
 10
84.29666339038417
 20
-153.3680717932552
 10
84.41431340120544
 20
-153.4355956647661
 10
84.5770941628835
 20
-153.4865830779478
 10
84.80309242671589
 20
-153.4907171925301
 10
84.80309242671589
 20
-153.4907171925301
 10
84.70370142196644
 20
-153.6705511768601
 10
84.70370142196644
 20
-153.6705511768601
 97
        0
 97
        1
330
CF
 92
        1
 93
        1
 72
     4
 94
        3
 73
     0
 74
     0
 95
       71
 96
       67
 40
0.0
 40
0.0
 40
0.0
 40
0.0
 40
1.0
 40
1.0
 40
1.0
 40
2.0
 40
2.0
 40
2.0
 40
3.0
 40
3.0
 40
3.0
 40
4.0
 40
4.0
 40
4.0
 40
5.0
 40
5.0
 40
5.0
 40
6.0
 40
6.0
 40
6.0
 40
7.0
 40
7.0
 40
7.0
 40
8.0
 40
8.0
 40
8.0
 40
9.0
 40
9.0
 40
9.0
 40
10.0
 40
10.0
 40
10.0
 40
11.0
 40
11.0
 40
11.0
 40
12.0
 40
12.0
 40
12.0
 40
13.0
 40
13.0
 40
13.0
 40
14.0
 40
14.0
 40
14.0
 40
15.0
 40
15.0
 40
15.0
 40
16.0
 40
16.0
 40
16.0
 40
17.0
 40
17.0
 40
17.0
 40
18.0
 40
18.0
 40
18.0
 40
19.0
 40
19.0
 40
19.0
 40
20.0
 40
20.0
 40
20.0
 40
21.0
 40
21.0
 40
21.0
 40
22.0
 40
22.0
 40
22.0
 40
22.0
 10
83.80832110535001
 20
-151.903906212024
 10
83.79264592089212
 20
-151.903906212024
 10
83.77903779372537
 20
-151.8997720974417
 10
83.7518215393919
 20
-151.8915038682771
 10
83.60040959281517
 20
-151.938012657328
 10
83.41506345570874
 20
-151.9548936252057
 10
83.26589082119742
 20
-151.959027739788
 10
83.26589082119742
 20
-151.959027739788
 10
83.26347925435774
 20
-152.0479112033074
 10
83.26347925435774
 20
-152.0479112033074
 10
83.26347925435774
 20
-152.0479112033074
 10
83.54149846001741
 20
-152.0479112033074
 10
83.54149846001741
 20
-152.0479112033074
 10
83.59799802597549
 20
-152.0479112033074
 10
83.79264592089212
 20
-152.0392984645943
 10
83.84001598381431
 20
-152.0330972927209
 10
83.84001598381431
 20
-152.0330972927209
 10
83.84001598381431
 20
-152.193983251882
 10
83.84001598381431
 20
-152.193983251882
 10
83.78127710579079
 20
-152.1874375704601
 10
83.64795191051163
 20
-152.1853705131689
 10
83.60729978378568
 20
-152.1874375704601
 10
83.60729978378568
 20
-152.1874375704601
 10
83.60729978378568
 20
-152.297680625988
 10
83.60729978378568
 20
-152.297680625988
 10
83.60729978378568
 20
-152.3441894150389
 10
83.60936684107683
 20
-152.4075791719675
 10
83.61625703204733
 20
-152.4454752223053
 10
83.61625703204733
 20
-152.4454752223053
 10
83.41058483157791
 20
-152.4454752223053
 10
83.41058483157791
 20
-152.4454752223053
 10
83.41713051299988
 20
-152.4055121146764
 10
83.42402070397039
 20
-152.3228298230304
 10
83.42402070397039
 20
-152.3080159124438
 10
83.42402070397039
 20
-152.3080159124438
 10
83.42402070397039
 20
-152.1874375704601
 10
83.42402070397039
 20
-152.1874375704601
 10
83.42402070397039
 20
-152.1874375704601
 10
83.2476318151256
 20
-152.1874375704601
 10
83.2476318151256
 20
-152.1874375704601
 10
83.20250106426883
 20
-152.4075791719675
 10
83.14358993147106
 20
-152.4878498967738
 10
83.03059079955486
 20
-152.5874131562976
 10
83.03059079955486
 20
-152.5874131562976
 10
82.85213485341891
 20
-152.4730359861873
 10
82.85213485341891
 20
-152.4730359861873
 10
82.92000323447833
 20
-152.4244601398453
 10
83.08054468409098
 20
-152.3124945365746
 10
83.08054468409098
 20
-151.9631618543703
 10
83.08054468409098
 20
-151.8808240722728
 10
83.07124292628079
 20
-151.834315283222
 10
83.06228567801914
 20
-151.7857394368799
 10
83.21834850350098
 20
-151.8005533474665
 10
83.23419594273312
 20
-151.8005533474665
 10
83.27243650261939
 20
-151.8005533474665
 10
83.38784720137526
 20
-151.8005533474665
 10
83.53943140272624
 20
-151.7833278700403
 10
83.71134166744022
 20
-151.7220051704028
 10
83.71134166744022
 20
-151.7220051704028
 10
83.83329804761807
 20
-151.8532633083908
 10
83.83329804761807
 20
-151.8532633083908
 10
83.84001598381431
 20
-151.8598089898128
 10
83.84449460794513
 20
-151.8680772189774
 10
83.84449460794513
 20
-151.8766899576905
 10
83.84449460794513
 20
-151.8997720974417
 10
83.82416854458215
 20
-151.903906212024
 10
83.80832110535001
 20
-151.903906212024
 97
        0
 97
        1
330
D0
 75
     2
 76
     1
 98
        1
 10
0.0
 20
0.0
450
        0
451
        0
460
0.0
461
0.0
452
        0
462
0.0
453
        0
470

  0
ENDBLK
  5
C3
330
C0
100
AcDbEntity
  8
0
100
AcDbBlockEnd
  0
BLOCK
  5
DC
330
DA
100
AcDbEntity
  8
0
100
AcDbBlockBegin
  2
Block_10
 70
     0
 10
0.0
 20
0.0
 30
0.0
  3
Block_10
  1

  0
INSERT
  5
DF
330
DA
100
AcDbEntity
  8
レイヤー 1
100
AcDbBlockReference
  2
Block_11
 10
0.0
 20
0.0
 30
0.0
  0
ENDBLK
  5
DD
330
DA
100
AcDbEntity
  8
0
100
AcDbBlockEnd
  0
BLOCK
  5
E0
330
DE
100
AcDbEntity
  8
0
100
AcDbBlockBegin
  2
Block_11
 70
     0
 10
0.0
 20
0.0
 30
0.0
  3
Block_11
  1

  0
SPLINE
  5
E2
330
DE
100
AcDbEntity
  8
レイヤー 1
100
AcDbSpline
210
0.0
220
0.0
230
1.0
 70
     9
 71
     3
 72
    17
 73
    13
 74
     0
 42
0.0000000001
 43
0.0000000001
 40
0.0
 40
0.0
 40
0.0
 40
0.0
 40
1.0
 40
1.0
 40
1.0
 40
2.0
 40
2.0
 40
2.0
 40
3.0
 40
3.0
 40
3.0
 40
4.0
 40
4.0
 40
4.0
 40
4.0
 10
102.3975395794353
 20
-135.5448703003152
 30
0.0
 10
102.3827256688487
 20
-135.574325866714
 30
0.0
 10
102.338283937089
 20
-135.6675156995901
 30
0.0
 10
102.3289821792788
 20
-135.6864637247589
 30
0.0
 10
102.4957248007649
 20
-135.7457193671052
 30
0.0
 10
102.5143283163853
 20
-135.7520927937529
 30
0.0
 10
102.5773735637653
 20
-135.7796535576349
 30
0.0
 10
102.6252603910103
 20
-135.6928371514066
 30
0.0
 10
102.6459309639218
 20
-135.6187675984738
 30
0.0
 10
102.6586778172173
 20
-135.5448703003152
 30
0.0
 10
102.6586778172173
 20
-135.5448703003152
 30
0.0
 10
102.3975395794353
 20
-135.5448703003152
 30
0.0
 10
102.3975395794353
 20
-135.5448703003152
 30
0.0
  0
SPLINE
  5
E3
330
DE
100
AcDbEntity
  8
レイヤー 1
100
AcDbSpline
210
0.0
220
0.0
230
1.0
 70
    11
 71
     3
 72
    20
 73
    16
 74
     0
 42
0.0000000001
 43
0.0000000001
 40
0.0
 40
0.0
 40
0.0
 40
0.0
 40
1.0
 40
1.0
 40
1.0
 40
2.0
 40
2.0
 40
2.0
 40
3.0
 40
3.0
 40
3.0
 40
4.0
 40
4.0
 40
4.0
 40
5.0
 40
5.0
 40
5.0
 40
5.0
 10
102.3420735421228
 20
-134.6944484797812
 30
0.0
 10
102.3420735421228
 20
-134.6944484797812
 30
0.0
 10
102.3145127782408
 20
-134.6944484797812
 30
0.0
 10
102.3145127782408
 20
-134.6944484797812
 30
0.0
 10
102.3551649049667
 20
-134.7938394845307
 30
0.0
 10
102.3827256688487
 20
-134.874110209337
 30
0.0
 10
102.4123534900219
 20
-135.0010619779685
 30
0.0
 10
102.4123534900219
 20
-135.0010619779685
 30
0.0
 10
102.5939100220945
 20
-135.0010619779685
 30
0.0
 10
102.5939100220945
 20
-135.0010619779685
 30
0.0
 10
102.6218152955251
 20
-134.9080443998667
 30
0.0
 10
102.6421413588881
 20
-134.8234673057038
 30
0.0
 10
102.662467422251
 20
-134.6944484797812
 30
0.0
 10
102.662467422251
 20
-134.6944484797812
 30
0.0
 10
102.3420735421228
 20
-134.6944484797812
 30
0.0
 10
102.3420735421228
 20
-134.6944484797812
 30
0.0
  0
SPLINE
  5
E4
330
DE
100
AcDbEntity
  8
レイヤー 1
100
AcDbSpline
210
0.0
220
0.0
230
1.0
 70
     9
 71
     3
 72
   242
 73
   238
 74
     0
 42
0.0000000001
 43
0.0000000001
 40
0.0
 40
0.0
 40
0.0
 40
0.0
 40
1.0
 40
1.0
 40
1.0
 40
2.0
 40
2.0
 40
2.0
 40
3.0
 40
3.0
 40
3.0
 40
4.0
 40
4.0
 40
4.0
 40
5.0
 40
5.0
 40
5.0
 40
6.0
 40
6.0
 40
6.0
 40
7.0
 40
7.0
 40
7.0
 40
8.0
 40
8.0
 40
8.0
 40
9.0
 40
9.0
 40
9.0
 40
10.0
 40
10.0
 40
10.0
 40
11.0
 40
11.0
 40
11.0
 40
12.0
 40
12.0
 40
12.0
 40
13.0
 40
13.0
 40
13.0
 40
14.0
 40
14.0
 40
14.0
 40
15.0
 40
15.0
 40
15.0
 40
16.0
 40
16.0
 40
16.0
 40
17.0
 40
17.0
 40
17.0
 40
18.0
 40
18.0
 40
18.0
 40
19.0
 40
19.0
 40
19.0
 40
20.0
 40
20.0
 40
20.0
 40
21.0
 40
21.0
 40
21.0
 40
22.0
 40
22.0
 40
22.0
 40
23.0
 40
23.0
 40
23.0
 40
24.0
 40
24.0
 40
24.0
 40
25.0
 40
25.0
 40
25.0
 40
26.0
 40
26.0
 40
26.0
 40
27.0
 40
27.0
 40
27.0
 40
28.0
 40
28.0
 40
28.0
 40
29.0
 40
29.0
 40
29.0
 40
30.0
 40
30.0
 40
30.0
 40
31.0
 40
31.0
 40
31.0
 40
32.0
 40
32.0
 40
32.0
 40
33.0
 40
33.0
 40
33.0
 40
34.0
 40
34.0
 40
34.0
 40
35.0
 40
35.0
 40
35.0
 40
36.0
 40
36.0
 40
36.0
 40
37.0
 40
37.0
 40
37.0
 40
38.0
 40
38.0
 40
38.0
 40
39.0
 40
39.0
 40
39.0
 40
40.0
 40
40.0
 40
40.0
 40
41.0
 40
41.0
 40
41.0
 40
42.0
 40
42.0
 40
42.0
 40
43.0
 40
43.0
 40
43.0
 40
44.0
 40
44.0
 40
44.0
 40
45.0
 40
45.0
 40
45.0
 40
46.0
 40
46.0
 40
46.0
 40
47.0
 40
47.0
 40
47.0
 40
48.0
 40
48.0
 40
48.0
 40
49.0
 40
49.0
 40
49.0
 40
50.0
 40
50.0
 40
50.0
 40
51.0
 40
51.0
 40
51.0
 40
52.0
 40
52.0
 40
52.0
 40
53.0
 40
53.0
 40
53.0
 40
54.0
 40
54.0
 40
54.0
 40
55.0
 40
55.0
 40
55.0
 40
56.0
 40
56.0
 40
56.0
 40
57.0
 40
57.0
 40
57.0
 40
58.0
 40
58.0
 40
58.0
 40
59.0
 40
59.0
 40
59.0
 40
60.0
 40
60.0
 40
60.0
 40
61.0
 40
61.0
 40
61.0
 40
62.0
 40
62.0
 40
62.0
 40
63.0
 40
63.0
 40
63.0
 40
64.0
 40
64.0
 40
64.0
 40
65.0
 40
65.0
 40
65.0
 40
66.0
 40
66.0
 40
66.0
 40
67.0
 40
67.0
 40
67.0
 40
68.0
 40
68.0
 40
68.0
 40
69.0
 40
69.0
 40
69.0
 40
70.0
 40
70.0
 40
70.0
 40
71.0
 40
71.0
 40
71.0
 40
72.0
 40
72.0
 40
72.0
 40
73.0
 40
73.0
 40
73.0
 40
74.0
 40
74.0
 40
74.0
 40
75.0
 40
75.0
 40
75.0
 40
76.0
 40
76.0
 40
76.0
 40
77.0
 40
77.0
 40
77.0
 40
78.0
 40
78.0
 40
78.0
 40
79.0
 40
79.0
 40
79.0
 40
79.0
 10
102.8919107815687
 20
-135.1597086250642
 30
0.0
 10
102.8919107815687
 20
-135.1597086250642
 30
0.0
 10
102.6700466323186
 20
-135.1597086250642
 30
0.0
 10
102.6700466323186
 20
-135.1597086250642
 30
0.0
 10
102.6700466323186
 20
-135.1597086250642
 30
0.0
 10
102.4271674006085
 20
-135.1597086250642
 30
0.0
 10
102.4271674006085
 20
-135.1597086250642
 30
0.0
 10
102.4271674006085
 20
-135.1597086250642
 30
0.0
 10
102.538443984782
 20
-135.2020832995328
 30
0.0
 10
102.538443984782
 20
-135.2020832995328
 30
0.0
 10
102.5477457425922
 20
-135.2063896688894
 30
0.0
 10
102.558770048145
 20
-135.2125908407628
 30
0.0
 10
102.558770048145
 20
-135.2253376940582
 30
0.0
 10
102.558770048145
 20
-135.2465250312925
 30
0.0
 10
102.5308647747145
 20
-135.2528984579402
 30
0.0
 10
102.5126057686427
 20
-135.2570325725225
 30
0.0
 10
102.5033040108325
 20
-135.280286967048
 30
0.0
 10
102.4771212851446
 20
-135.345916036042
 30
0.0
 10
102.4605848268154
 20
-135.3903577678017
 30
0.0
 10
102.4605848268154
 20
-135.3903577678017
 30
0.0
 10
102.6976073962006
 20
-135.3903577678017
 30
0.0
 10
102.6976073962006
 20
-135.3903577678017
 30
0.0
 10
102.7771891019098
 20
-135.3903577678017
 30
0.0
 10
102.9494438761723
 20
-135.3860513984451
 30
0.0
 10
103.0734673136413
 20
-135.3776109145063
 30
0.0
 10
103.0734673136413
 20
-135.3776109145063
 30
0.0
 10
103.0734673136413
 20
-135.5553778415452
 30
0.0
 10
103.0734673136413
 20
-135.5553778415452
 30
0.0
 10
103.0014648179996
 20
-135.5510714721886
 30
0.0
 10
102.9828613023793
 20
-135.5510714721886
 30
0.0
 10
102.8254204387033
 20
-135.5469373576063
 30
0.0
 10
102.7975151652728
 20
-135.7012776353455
 30
0.0
 10
102.758930095838
 20
-135.7817206149261
 30
0.0
 10
102.7200005168547
 20
-135.8514837985024
 30
0.0
 10
102.8254204387033
 20
-135.9107394408487
 30
0.0
 10
102.9180935072566
 20
-135.9784355671338
 30
0.0
 10
103.0086995185186
 20
-136.0609456040056
 30
0.0
 10
103.0086995185186
 20
-136.0609456040056
 30
0.0
 10
102.9050021444126
 20
-136.2280327350402
 30
0.0
 10
102.9050021444126
 20
-136.2280327350402
 30
0.0
 10
102.8846760810496
 20
-136.2090847098713
 30
0.0
 10
102.8736517754968
 20
-136.2006442259324
 30
0.0
 10
102.7754665541672
 20
-136.1158948769953
 30
0.0
 10
102.7327473701501
 20
-136.0778265718833
 30
0.0
 10
102.6810709378714
 20
-136.0419975788367
 30
0.0
 10
102.6107909899723
 20
-135.997555847077
 30
0.0
 10
102.4254448528658
 20
-136.1837632580547
 30
0.0
 10
102.2459553780843
 20
-136.2070176525802
 30
0.0
 10
101.9920518408214
 20
-136.2366454737533
 30
0.0
 10
101.9920518408214
 20
-136.2366454737533
 30
0.0
 10
101.9014458295593
 20
-136.0568114894233
 30
0.0
 10
101.9014458295593
 20
-136.0568114894233
 30
0.0
 10
102.1791205256705
 20
-136.0525051200667
 30
0.0
 10
102.3327717843126
 20
-136.0271836682501
 30
0.0
 10
102.4660969795918
 20
-135.9171128674964
 30
0.0
 10
102.3623996054858
 20
-135.866297709089
 30
0.0
 10
102.2848849570676
 20
-135.8389091999812
 30
0.0
 10
102.2531900786033
 20
-135.8261623466858
 30
0.0
 10
102.2366536202741
 20
-135.8537231105678
 30
0.0
 10
102.2235622574302
 20
-135.8726711357367
 30
0.0
 10
102.1994465890335
 20
-135.9066053262664
 30
0.0
 10
102.1994465890335
 20
-135.9066053262664
 30
0.0
 10
102.027191814771
 20
-135.8240952893946
 30
0.0
 10
102.027191814771
 20
-135.8240952893946
 30
0.0
 10
102.0995388199612
 20
-135.7436523098141
 30
0.0
 10
102.1532823095311
 20
-135.6483954196469
 30
0.0
 10
102.2032361940672
 20
-135.5469373576063
 30
0.0
 10
102.0364935725811
 20
-135.5510714721886
 30
0.0
 10
102.0182345665093
 20
-135.5510714721886
 30
0.0
 10
101.9458875613191
 20
-135.5553778415452
 30
0.0
 10
101.9458875613191
 20
-135.5553778415452
 30
0.0
 10
101.9458875613191
 20
-135.3776109145063
 30
0.0
 10
101.9458875613191
 20
-135.3776109145063
 30
0.0
 10
102.0681884510454
 20
-135.383984341154
 30
0.0
 10
102.2514675308607
 20
-135.3882907105105
 30
0.0
 10
102.2735161419663
 20
-135.3882907105105
 30
0.0
 10
102.2883300525529
 20
-135.3543565199808
 30
0.0
 10
102.3365613893464
 20
-135.2337781779971
 30
0.0
 10
102.3530978476756
 20
-135.1597086250642
 30
0.0
 10
102.3365613893464
 20
-135.1597086250642
 30
0.0
 10
102.1808430734131
 20
-135.1660820517119
 30
0.0
 10
102.0106553564418
 20
-135.1788289050074
 30
0.0
 10
102.0106553564418
 20
-135.1788289050074
 30
0.0
 10
102.0106553564418
 20
-135.3121541002865
 30
0.0
 10
102.0106553564418
 20
-135.3121541002865
 30
0.0
 10
101.9679361724247
 20
-135.3374755521031
 30
0.0
 10
101.9162597401459
 20
-135.3691704305674
 30
0.0
 10
101.7994710031959
 20
-135.4347994995614
 30
0.0
 10
101.7994710031959
 20
-135.4347994995614
 30
0.0
 10
101.7994710031959
 20
-135.5806992933618
 30
0.0
 10
101.7994710031959
 20
-135.5806992933618
 30
0.0
 10
101.7994710031959
 20
-135.5806992933618
 30
0.0
 10
101.7994710031959
 20
-136.0483710054844
 30
0.0
 10
101.7994710031959
 20
-136.0483710054844
 30
0.0
 10
101.7994710031959
 20
-136.1751505193416
 30
0.0
 10
101.7681206342802
 20
-136.2344061616879
 30
0.0
 10
101.5200737593422
 20
-136.225965677749
 30
0.0
 10
101.5200737593422
 20
-136.225965677749
 30
0.0
 10
101.4291232385316
 20
-136.0187431843113
 30
0.0
 10
101.4291232385316
 20
-136.0187431843113
 30
0.0
 10
101.4849337853926
 20
-136.0313177828324
 30
0.0
 10
101.5273084598612
 20
-136.035624152189
 30
0.0
 10
101.5624484338108
 20
-136.035624152189
 30
0.0
 10
101.6292832862246
 20
-136.035624152189
 30
0.0
 10
101.6385850440348
 20
-136.0123697576635
 30
0.0
 10
101.6385850440348
 20
-135.9467406886695
 30
0.0
 10
101.6385850440348
 20
-135.9467406886695
 30
0.0
 10
101.6385850440348
 20
-135.5173095364331
 30
0.0
 10
101.6385850440348
 20
-135.5173095364331
 30
0.0
 10
101.5531466760006
 20
-135.5574448988363
 30
0.0
 10
101.538332765414
 20
-135.563818325484
 30
0.0
 10
101.4976806386881
 20
-135.5829386054272
 30
0.0
 10
101.4938910336543
 20
-135.6039536878872
 30
0.0
 10
101.490445938169
 20
-135.6335815090603
 30
0.0
 10
101.4735649702913
 20
-135.6335815090603
 30
0.0
 10
101.4663302697723
 20
-135.6335815090603
 30
0.0
 10
101.4570285119621
 20
-135.629447394478
 30
0.0
 10
101.4515163591857
 20
-135.6061929999526
 30
0.0
 10
101.4515163591857
 20
-135.6061929999526
 30
0.0
 10
101.4050075701348
 20
-135.4136121623271
 30
0.0
 10
101.4050075701348
 20
-135.4136121623271
 30
0.0
 10
101.5328206126376
 20
-135.3671033732763
 30
0.0
 10
101.5903537072413
 20
-135.3438489787508
 30
0.0
 10
101.6385850440348
 20
-135.3226616415165
 30
0.0
 10
101.6385850440348
 20
-135.3226616415165
 30
0.0
 10
101.6385850440348
 20
-134.9101114571578
 30
0.0
 10
101.6385850440348
 20
-134.9101114571578
 30
0.0
 10
101.6385850440348
 20
-134.9101114571578
 30
0.0
 10
101.5920762549839
 20
-134.9101114571578
 30
0.0
 10
101.5920762549839
 20
-134.9101114571578
 30
0.0
 10
101.5920762549839
 20
-134.9101114571578
 30
0.0
 10
101.5235188548274
 20
-134.9101114571578
 30
0.0
 10
101.5235188548274
 20
-134.9101114571578
 30
0.0
 10
101.4642632124811
 20
-134.9101114571578
 30
0.0
 10
101.4570285119621
 20
-134.9101114571578
 30
0.0
 10
101.4256781430463
 20
-134.9164848838056
 30
0.0
 10
101.4256781430463
 20
-134.9164848838056
 30
0.0
 10
101.4256781430463
 20
-134.7218369888889
 30
0.0
 10
101.4256781430463
 20
-134.7218369888889
 30
0.0
 10
101.4494493018946
 20
-134.7282104155367
 30
0.0
 10
101.4570285119621
 20
-134.7282104155367
 30
0.0
 10
101.518006702051
 20
-134.7282104155367
 30
0.0
 10
101.518006702051
 20
-134.7282104155367
 30
0.0
 10
101.634795439001
 20
-134.7282104155367
 30
0.0
 10
101.634795439001
 20
-134.7282104155367
 30
0.0
 10
101.634795439001
 20
-134.6584472319604
 30
0.0
 10
101.634795439001
 20
-134.5759371950886
 30
0.0
 10
101.6330728912584
 20
-134.5716308257321
 30
0.0
 10
101.6254936811908
 20
-134.391796841402
 30
0.0
 10
101.6254936811908
 20
-134.3728488162332
 30
0.0
 10
101.6237711334482
 20
-134.3263400271823
 30
0.0
 10
101.6237711334482
 20
-134.3263400271823
 30
0.0
 10
101.8125623660399
 20
-134.3347805111211
 30
0.0
 10
101.8125623660399
 20
-134.3347805111211
 30
0.0
 10
101.8218641238501
 20
-134.3347805111211
 30
0.0
 10
101.8404676394704
 20
-134.3368475684123
 30
0.0
 10
101.8404676394704
 20
-134.35372853629
 30
0.0
 10
101.8404676394704
 20
-134.3728488162332
 30
0.0
 10
101.8273762766265
 20
-134.3833563574632
 30
0.0
 10
101.8049831559723
 20
-134.4024766374063
 30
0.0
 10
101.8049831559723
 20
-134.4531195410395
 30
0.0
 10
101.7994710031959
 20
-134.6817016264858
 30
0.0
 10
101.8015380604871
 20
-134.7282104155367
 30
0.0
 10
101.9141926828548
 20
-134.7282104155367
 30
0.0
 10
101.9255614979561
 20
-134.7282104155367
 30
0.0
 10
102.0106553564418
 20
-134.7197699315978
 30
0.0
 10
102.0106553564418
 20
-134.7197699315978
 30
0.0
 10
102.0106553564418
 20
-134.9144178265144
 30
0.0
 10
102.0106553564418
 20
-134.9144178265144
 30
0.0
 10
101.9772379302348
 20
-134.912178514449
 30
0.0
 10
101.9179822878885
 20
-134.9080443998667
 30
0.0
 10
101.7994710031959
 20
-134.9101114571578
 30
0.0
 10
101.7994710031959
 20
-134.9101114571578
 30
0.0
 10
101.7994710031959
 20
-135.2485920885837
 30
0.0
 10
101.7994710031959
 20
-135.2485920885837
 30
0.0
 10
101.8477023399894
 20
-135.2253376940582
 30
0.0
 10
101.9052354345931
 20
-135.1977769301762
 30
0.0
 10
101.9476101090617
 20
-135.1745225356508
 30
0.0
 10
101.9476101090617
 20
-135.1745225356508
 30
0.0
 10
101.9476101090617
 20
-134.9969278633862
 30
0.0
 10
101.9476101090617
 20
-134.9969278633862
 30
0.0
 10
102.0478623876825
 20
-135.0095024619073
 30
0.0
 10
102.15121525224
 20
-135.0095024619073
 30
0.0
 10
102.2531900786033
 20
-135.0095024619073
 30
0.0
 10
102.2328640152404
 20
-134.9144178265144
 30
0.0
 10
102.2087483468436
 20
-134.8319077896427
 30
0.0
 10
102.1532823095311
 20
-134.6985825943635
 30
0.0
 10
102.1143527305478
 20
-134.7006496516547
 30
0.0
 10
102.0420057253575
 20
-134.7049560210112
 30
0.0
 10
102.0089328086991
 20
-134.7070230783024
 30
0.0
 10
102.0089328086991
 20
-134.7070230783024
 30
0.0
 10
102.0089328086991
 20
-134.5271890939723
 30
0.0
 10
102.0089328086991
 20
-134.5271890939723
 30
0.0
 10
102.1181423355816
 20
-134.5356295779112
 30
0.0
 10
102.2697265369325
 20
-134.5399359472678
 30
0.0
 10
102.3420735421228
 20
-134.5399359472678
 30
0.0
 10
102.3420735421228
 20
-134.5399359472678
 30
0.0
 10
102.414420547313
 20
-134.5399359472678
 30
0.0
 10
102.414420547313
 20
-134.5399359472678
 30
0.0
 10
102.414420547313
 20
-134.3769829308155
 30
0.0
 10
102.414420547313
 20
-134.3664753895855
 30
0.0
 10
102.4123534900219
 20
-134.3115261165957
 30
0.0
 10
102.4123534900219
 20
-134.3115261165957
 30
0.0
 10
102.6087239326811
 20
-134.3368475684123
 30
0.0
 10
102.6087239326811
 20
-134.3368475684123
 30
0.0
 10
102.6125135377149
 20
-134.3368475684123
 30
0.0
 10
102.6311170533353
 20
-134.3389146257034
 30
0.0
 10
102.6311170533353
 20
-134.3557955935812
 30
0.0
 10
102.6311170533353
 20
-134.3706095041677
 30
0.0
 10
102.6218152955251
 20
-134.3792222428809
 30
0.0
 10
102.5976996271283
 20
-134.3940361534674
 30
0.0
 10
102.5921874743519
 20
-134.4594929676872
 30
0.0
 10
102.5901204170608
 20
-134.4806803049215
 30
0.0
 10
102.5901204170608
 20
-134.5399359472678
 30
0.0
 10
102.5901204170608
 20
-134.5399359472678
 30
0.0
 10
102.6734917278038
 20
-134.5399359472678
 30
0.0
 10
102.6734917278038
 20
-134.5399359472678
 30
0.0
 10
102.7458387329941
 20
-134.5399359472678
 30
0.0
 10
102.8977674438936
 20
-134.5356295779112
 30
0.0
 10
103.006976970776
 20
-134.5271890939723
 30
0.0
 10
103.006976970776
 20
-134.5271890939723
 30
0.0
 10
103.006976970776
 20
-134.7070230783024
 30
0.0
 10
103.006976970776
 20
-134.7070230783024
 30
0.0
 10
102.9807942450881
 20
-134.7049560210112
 30
0.0
 10
102.8774413805306
 20
-134.7006496516547
 30
0.0
 10
102.8419568970325
 20
-134.6985825943635
 30
0.0
 10
102.8292100437371
 20
-134.749397752771
 30
0.0
 10
102.799582222564
 20
-134.8615356108159
 30
0.0
 10
102.7420491279603
 20
-135.0010619779685
 30
0.0
 10
102.779256159201
 20
-135.0010619779685
 30
0.0
 10
103.0217908813626
 20
-134.9821139527996
 30
0.0
 10
103.0755343709325
 20
-134.9798746407342
 30
0.0
 10
103.0755343709325
 20
-134.9798746407342
 30
0.0
 10
103.0755343709325
 20
-135.1640149944208
 30
0.0
 10
103.0755343709325
 20
-135.1640149944208
 30
0.0
 10
103.0493516452446
 20
-135.1640149944208
 30
0.0
 10
103.034537734658
 20
-135.1597086250642
 30
0.0
 10
102.8919107815687
 20
-135.1597086250642
 30
0.0
  0
HATCH
  5
E5
330
DE
100
AcDbEntity
  8
レイヤー 1
 62
   250
420
  2299925
440
 33554687
100
AcDbHatch
 10
0.0
 20
0.0
 30
0.0
210
0.0
220
0.0
230
1.0
  2
SOLID
 70
     1
 71
     1
 91
        3
 92
        1
 93
        1
 72
     4
 94
        3
 73
     0
 74
     0
 95
       17
 96
       13
 40
0.0
 40
0.0
 40
0.0
 40
0.0
 40
1.0
 40
1.0
 40
1.0
 40
2.0
 40
2.0
 40
2.0
 40
3.0
 40
3.0
 40
3.0
 40
4.0
 40
4.0
 40
4.0
 40
4.0
 10
102.3975395794353
 20
-135.5448703003152
 10
102.3827256688487
 20
-135.574325866714
 10
102.338283937089
 20
-135.6675156995901
 10
102.3289821792788
 20
-135.6864637247589
 10
102.4957248007649
 20
-135.7457193671052
 10
102.5143283163853
 20
-135.7520927937529
 10
102.5773735637653
 20
-135.7796535576349
 10
102.6252603910103
 20
-135.6928371514066
 10
102.6459309639218
 20
-135.6187675984738
 10
102.6586778172173
 20
-135.5448703003152
 10
102.6586778172173
 20
-135.5448703003152
 10
102.3975395794353
 20
-135.5448703003152
 10
102.3975395794353
 20
-135.5448703003152
 97
        0
 97
        1
330
E2
 92
        1
 93
        1
 72
     4
 94
        3
 73
     0
 74
     0
 95
       20
 96
       16
 40
0.0
 40
0.0
 40
0.0
 40
0.0
 40
1.0
 40
1.0
 40
1.0
 40
2.0
 40
2.0
 40
2.0
 40
3.0
 40
3.0
 40
3.0
 40
4.0
 40
4.0
 40
4.0
 40
5.0
 40
5.0
 40
5.0
 40
5.0
 10
102.3420735421228
 20
-134.6944484797812
 10
102.3420735421228
 20
-134.6944484797812
 10
102.3145127782408
 20
-134.6944484797812
 10
102.3145127782408
 20
-134.6944484797812
 10
102.3551649049667
 20
-134.7938394845307
 10
102.3827256688487
 20
-134.874110209337
 10
102.4123534900219
 20
-135.0010619779685
 10
102.4123534900219
 20
-135.0010619779685
 10
102.5939100220945
 20
-135.0010619779685
 10
102.5939100220945
 20
-135.0010619779685
 10
102.6218152955251
 20
-134.9080443998667
 10
102.6421413588881
 20
-134.8234673057038
 10
102.662467422251
 20
-134.6944484797812
 10
102.662467422251
 20
-134.6944484797812
 10
102.3420735421228
 20
-134.6944484797812
 10
102.3420735421228
 20
-134.6944484797812
 97
        0
 97
        1
330
E3
 92
        1
 93
        1
 72
     4
 94
        3
 73
     0
 74
     0
 95
      242
 96
      238
 40
0.0
 40
0.0
 40
0.0
 40
0.0
 40
1.0
 40
1.0
 40
1.0
 40
2.0
 40
2.0
 40
2.0
 40
3.0
 40
3.0
 40
3.0
 40
4.0
 40
4.0
 40
4.0
 40
5.0
 40
5.0
 40
5.0
 40
6.0
 40
6.0
 40
6.0
 40
7.0
 40
7.0
 40
7.0
 40
8.0
 40
8.0
 40
8.0
 40
9.0
 40
9.0
 40
9.0
 40
10.0
 40
10.0
 40
10.0
 40
11.0
 40
11.0
 40
11.0
 40
12.0
 40
12.0
 40
12.0
 40
13.0
 40
13.0
 40
13.0
 40
14.0
 40
14.0
 40
14.0
 40
15.0
 40
15.0
 40
15.0
 40
16.0
 40
16.0
 40
16.0
 40
17.0
 40
17.0
 40
17.0
 40
18.0
 40
18.0
 40
18.0
 40
19.0
 40
19.0
 40
19.0
 40
20.0
 40
20.0
 40
20.0
 40
21.0
 40
21.0
 40
21.0
 40
22.0
 40
22.0
 40
22.0
 40
23.0
 40
23.0
 40
23.0
 40
24.0
 40
24.0
 40
24.0
 40
25.0
 40
25.0
 40
25.0
 40
26.0
 40
26.0
 40
26.0
 40
27.0
 40
27.0
 40
27.0
 40
28.0
 40
28.0
 40
28.0
 40
29.0
 40
29.0
 40
29.0
 40
30.0
 40
30.0
 40
30.0
 40
31.0
 40
31.0
 40
31.0
 40
32.0
 40
32.0
 40
32.0
 40
33.0
 40
33.0
 40
33.0
 40
34.0
 40
34.0
 40
34.0
 40
35.0
 40
35.0
 40
35.0
 40
36.0
 40
36.0
 40
36.0
 40
37.0
 40
37.0
 40
37.0
 40
38.0
 40
38.0
 40
38.0
 40
39.0
 40
39.0
 40
39.0
 40
40.0
 40
40.0
 40
40.0
 40
41.0
 40
41.0
 40
41.0
 40
42.0
 40
42.0
 40
42.0
 40
43.0
 40
43.0
 40
43.0
 40
44.0
 40
44.0
 40
44.0
 40
45.0
 40
45.0
 40
45.0
 40
46.0
 40
46.0
 40
46.0
 40
47.0
 40
47.0
 40
47.0
 40
48.0
 40
48.0
 40
48.0
 40
49.0
 40
49.0
 40
49.0
 40
50.0
 40
50.0
 40
50.0
 40
51.0
 40
51.0
 40
51.0
 40
52.0
 40
52.0
 40
52.0
 40
53.0
 40
53.0
 40
53.0
 40
54.0
 40
54.0
 40
54.0
 40
55.0
 40
55.0
 40
55.0
 40
56.0
 40
56.0
 40
56.0
 40
57.0
 40
57.0
 40
57.0
 40
58.0
 40
58.0
 40
58.0
 40
59.0
 40
59.0
 40
59.0
 40
60.0
 40
60.0
 40
60.0
 40
61.0
 40
61.0
 40
61.0
 40
62.0
 40
62.0
 40
62.0
 40
63.0
 40
63.0
 40
63.0
 40
64.0
 40
64.0
 40
64.0
 40
65.0
 40
65.0
 40
65.0
 40
66.0
 40
66.0
 40
66.0
 40
67.0
 40
67.0
 40
67.0
 40
68.0
 40
68.0
 40
68.0
 40
69.0
 40
69.0
 40
69.0
 40
70.0
 40
70.0
 40
70.0
 40
71.0
 40
71.0
 40
71.0
 40
72.0
 40
72.0
 40
72.0
 40
73.0
 40
73.0
 40
73.0
 40
74.0
 40
74.0
 40
74.0
 40
75.0
 40
75.0
 40
75.0
 40
76.0
 40
76.0
 40
76.0
 40
77.0
 40
77.0
 40
77.0
 40
78.0
 40
78.0
 40
78.0
 40
79.0
 40
79.0
 40
79.0
 40
79.0
 10
102.8919107815687
 20
-135.1597086250642
 10
102.8919107815687
 20
-135.1597086250642
 10
102.6700466323186
 20
-135.1597086250642
 10
102.6700466323186
 20
-135.1597086250642
 10
102.6700466323186
 20
-135.1597086250642
 10
102.4271674006085
 20
-135.1597086250642
 10
102.4271674006085
 20
-135.1597086250642
 10
102.4271674006085
 20
-135.1597086250642
 10
102.538443984782
 20
-135.2020832995328
 10
102.538443984782
 20
-135.2020832995328
 10
102.5477457425922
 20
-135.2063896688894
 10
102.558770048145
 20
-135.2125908407628
 10
102.558770048145
 20
-135.2253376940582
 10
102.558770048145
 20
-135.2465250312925
 10
102.5308647747145
 20
-135.2528984579402
 10
102.5126057686427
 20
-135.2570325725225
 10
102.5033040108325
 20
-135.280286967048
 10
102.4771212851446
 20
-135.345916036042
 10
102.4605848268154
 20
-135.3903577678017
 10
102.4605848268154
 20
-135.3903577678017
 10
102.6976073962006
 20
-135.3903577678017
 10
102.6976073962006
 20
-135.3903577678017
 10
102.7771891019098
 20
-135.3903577678017
 10
102.9494438761723
 20
-135.3860513984451
 10
103.0734673136413
 20
-135.3776109145063
 10
103.0734673136413
 20
-135.3776109145063
 10
103.0734673136413
 20
-135.5553778415452
 10
103.0734673136413
 20
-135.5553778415452
 10
103.0014648179996
 20
-135.5510714721886
 10
102.9828613023793
 20
-135.5510714721886
 10
102.8254204387033
 20
-135.5469373576063
 10
102.7975151652728
 20
-135.7012776353455
 10
102.758930095838
 20
-135.7817206149261
 10
102.7200005168547
 20
-135.8514837985024
 10
102.8254204387033
 20
-135.9107394408487
 10
102.9180935072566
 20
-135.9784355671338
 10
103.0086995185186
 20
-136.0609456040056
 10
103.0086995185186
 20
-136.0609456040056
 10
102.9050021444126
 20
-136.2280327350402
 10
102.9050021444126
 20
-136.2280327350402
 10
102.8846760810496
 20
-136.2090847098713
 10
102.8736517754968
 20
-136.2006442259324
 10
102.7754665541672
 20
-136.1158948769953
 10
102.7327473701501
 20
-136.0778265718833
 10
102.6810709378714
 20
-136.0419975788367
 10
102.6107909899723
 20
-135.997555847077
 10
102.4254448528658
 20
-136.1837632580547
 10
102.2459553780843
 20
-136.2070176525802
 10
101.9920518408214
 20
-136.2366454737533
 10
101.9920518408214
 20
-136.2366454737533
 10
101.9014458295593
 20
-136.0568114894233
 10
101.9014458295593
 20
-136.0568114894233
 10
102.1791205256705
 20
-136.0525051200667
 10
102.3327717843126
 20
-136.0271836682501
 10
102.4660969795918
 20
-135.9171128674964
 10
102.3623996054858
 20
-135.866297709089
 10
102.2848849570676
 20
-135.8389091999812
 10
102.2531900786033
 20
-135.8261623466858
 10
102.2366536202741
 20
-135.8537231105678
 10
102.2235622574302
 20
-135.8726711357367
 10
102.1994465890335
 20
-135.9066053262664
 10
102.1994465890335
 20
-135.9066053262664
 10
102.027191814771
 20
-135.8240952893946
 10
102.027191814771
 20
-135.8240952893946
 10
102.0995388199612
 20
-135.7436523098141
 10
102.1532823095311
 20
-135.6483954196469
 10
102.2032361940672
 20
-135.5469373576063
 10
102.0364935725811
 20
-135.5510714721886
 10
102.0182345665093
 20
-135.5510714721886
 10
101.9458875613191
 20
-135.5553778415452
 10
101.9458875613191
 20
-135.5553778415452
 10
101.9458875613191
 20
-135.3776109145063
 10
101.9458875613191
 20
-135.3776109145063
 10
102.0681884510454
 20
-135.383984341154
 10
102.2514675308607
 20
-135.3882907105105
 10
102.2735161419663
 20
-135.3882907105105
 10
102.2883300525529
 20
-135.3543565199808
 10
102.3365613893464
 20
-135.2337781779971
 10
102.3530978476756
 20
-135.1597086250642
 10
102.3365613893464
 20
-135.1597086250642
 10
102.1808430734131
 20
-135.1660820517119
 10
102.0106553564418
 20
-135.1788289050074
 10
102.0106553564418
 20
-135.1788289050074
 10
102.0106553564418
 20
-135.3121541002865
 10
102.0106553564418
 20
-135.3121541002865
 10
101.9679361724247
 20
-135.3374755521031
 10
101.9162597401459
 20
-135.3691704305674
 10
101.7994710031959
 20
-135.4347994995614
 10
101.7994710031959
 20
-135.4347994995614
 10
101.7994710031959
 20
-135.5806992933618
 10
101.7994710031959
 20
-135.5806992933618
 10
101.7994710031959
 20
-135.5806992933618
 10
101.7994710031959
 20
-136.0483710054844
 10
101.7994710031959
 20
-136.0483710054844
 10
101.7994710031959
 20
-136.1751505193416
 10
101.7681206342802
 20
-136.2344061616879
 10
101.5200737593422
 20
-136.225965677749
 10
101.5200737593422
 20
-136.225965677749
 10
101.4291232385316
 20
-136.0187431843113
 10
101.4291232385316
 20
-136.0187431843113
 10
101.4849337853926
 20
-136.0313177828324
 10
101.5273084598612
 20
-136.035624152189
 10
101.5624484338108
 20
-136.035624152189
 10
101.6292832862246
 20
-136.035624152189
 10
101.6385850440348
 20
-136.0123697576635
 10
101.6385850440348
 20
-135.9467406886695
 10
101.6385850440348
 20
-135.9467406886695
 10
101.6385850440348
 20
-135.5173095364331
 10
101.6385850440348
 20
-135.5173095364331
 10
101.5531466760006
 20
-135.5574448988363
 10
101.538332765414
 20
-135.563818325484
 10
101.4976806386881
 20
-135.5829386054272
 10
101.4938910336543
 20
-135.6039536878872
 10
101.490445938169
 20
-135.6335815090603
 10
101.4735649702913
 20
-135.6335815090603
 10
101.4663302697723
 20
-135.6335815090603
 10
101.4570285119621
 20
-135.629447394478
 10
101.4515163591857
 20
-135.6061929999526
 10
101.4515163591857
 20
-135.6061929999526
 10
101.4050075701348
 20
-135.4136121623271
 10
101.4050075701348
 20
-135.4136121623271
 10
101.5328206126376
 20
-135.3671033732763
 10
101.5903537072413
 20
-135.3438489787508
 10
101.6385850440348
 20
-135.3226616415165
 10
101.6385850440348
 20
-135.3226616415165
 10
101.6385850440348
 20
-134.9101114571578
 10
101.6385850440348
 20
-134.9101114571578
 10
101.6385850440348
 20
-134.9101114571578
 10
101.5920762549839
 20
-134.9101114571578
 10
101.5920762549839
 20
-134.9101114571578
 10
101.5920762549839
 20
-134.9101114571578
 10
101.5235188548274
 20
-134.9101114571578
 10
101.5235188548274
 20
-134.9101114571578
 10
101.4642632124811
 20
-134.9101114571578
 10
101.4570285119621
 20
-134.9101114571578
 10
101.4256781430463
 20
-134.9164848838056
 10
101.4256781430463
 20
-134.9164848838056
 10
101.4256781430463
 20
-134.7218369888889
 10
101.4256781430463
 20
-134.7218369888889
 10
101.4494493018946
 20
-134.7282104155367
 10
101.4570285119621
 20
-134.7282104155367
 10
101.518006702051
 20
-134.7282104155367
 10
101.518006702051
 20
-134.7282104155367
 10
101.634795439001
 20
-134.7282104155367
 10
101.634795439001
 20
-134.7282104155367
 10
101.634795439001
 20
-134.6584472319604
 10
101.634795439001
 20
-134.5759371950886
 10
101.6330728912584
 20
-134.5716308257321
 10
101.6254936811908
 20
-134.391796841402
 10
101.6254936811908
 20
-134.3728488162332
 10
101.6237711334482
 20
-134.3263400271823
 10
101.6237711334482
 20
-134.3263400271823
 10
101.8125623660399
 20
-134.3347805111211
 10
101.8125623660399
 20
-134.3347805111211
 10
101.8218641238501
 20
-134.3347805111211
 10
101.8404676394704
 20
-134.3368475684123
 10
101.8404676394704
 20
-134.35372853629
 10
101.8404676394704
 20
-134.3728488162332
 10
101.8273762766265
 20
-134.3833563574632
 10
101.8049831559723
 20
-134.4024766374063
 10
101.8049831559723
 20
-134.4531195410395
 10
101.7994710031959
 20
-134.6817016264858
 10
101.8015380604871
 20
-134.7282104155367
 10
101.9141926828548
 20
-134.7282104155367
 10
101.9255614979561
 20
-134.7282104155367
 10
102.0106553564418
 20
-134.7197699315978
 10
102.0106553564418
 20
-134.7197699315978
 10
102.0106553564418
 20
-134.9144178265144
 10
102.0106553564418
 20
-134.9144178265144
 10
101.9772379302348
 20
-134.912178514449
 10
101.9179822878885
 20
-134.9080443998667
 10
101.7994710031959
 20
-134.9101114571578
 10
101.7994710031959
 20
-134.9101114571578
 10
101.7994710031959
 20
-135.2485920885837
 10
101.7994710031959
 20
-135.2485920885837
 10
101.8477023399894
 20
-135.2253376940582
 10
101.9052354345931
 20
-135.1977769301762
 10
101.9476101090617
 20
-135.1745225356508
 10
101.9476101090617
 20
-135.1745225356508
 10
101.9476101090617
 20
-134.9969278633862
 10
101.9476101090617
 20
-134.9969278633862
 10
102.0478623876825
 20
-135.0095024619073
 10
102.15121525224
 20
-135.0095024619073
 10
102.2531900786033
 20
-135.0095024619073
 10
102.2328640152404
 20
-134.9144178265144
 10
102.2087483468436
 20
-134.8319077896427
 10
102.1532823095311
 20
-134.6985825943635
 10
102.1143527305478
 20
-134.7006496516547
 10
102.0420057253575
 20
-134.7049560210112
 10
102.0089328086991
 20
-134.7070230783024
 10
102.0089328086991
 20
-134.7070230783024
 10
102.0089328086991
 20
-134.5271890939723
 10
102.0089328086991
 20
-134.5271890939723
 10
102.1181423355816
 20
-134.5356295779112
 10
102.2697265369325
 20
-134.5399359472678
 10
102.3420735421228
 20
-134.5399359472678
 10
102.3420735421228
 20
-134.5399359472678
 10
102.414420547313
 20
-134.5399359472678
 10
102.414420547313
 20
-134.5399359472678
 10
102.414420547313
 20
-134.3769829308155
 10
102.414420547313
 20
-134.3664753895855
 10
102.4123534900219
 20
-134.3115261165957
 10
102.4123534900219
 20
-134.3115261165957
 10
102.6087239326811
 20
-134.3368475684123
 10
102.6087239326811
 20
-134.3368475684123
 10
102.6125135377149
 20
-134.3368475684123
 10
102.6311170533353
 20
-134.3389146257034
 10
102.6311170533353
 20
-134.3557955935812
 10
102.6311170533353
 20
-134.3706095041677
 10
102.6218152955251
 20
-134.3792222428809
 10
102.5976996271283
 20
-134.3940361534674
 10
102.5921874743519
 20
-134.4594929676872
 10
102.5901204170608
 20
-134.4806803049215
 10
102.5901204170608
 20
-134.5399359472678
 10
102.5901204170608
 20
-134.5399359472678
 10
102.6734917278038
 20
-134.5399359472678
 10
102.6734917278038
 20
-134.5399359472678
 10
102.7458387329941
 20
-134.5399359472678
 10
102.8977674438936
 20
-134.5356295779112
 10
103.006976970776
 20
-134.5271890939723
 10
103.006976970776
 20
-134.5271890939723
 10
103.006976970776
 20
-134.7070230783024
 10
103.006976970776
 20
-134.7070230783024
 10
102.9807942450881
 20
-134.7049560210112
 10
102.8774413805306
 20
-134.7006496516547
 10
102.8419568970325
 20
-134.6985825943635
 10
102.8292100437371
 20
-134.749397752771
 10
102.799582222564
 20
-134.8615356108159
 10
102.7420491279603
 20
-135.0010619779685
 10
102.779256159201
 20
-135.0010619779685
 10
103.0217908813626
 20
-134.9821139527996
 10
103.0755343709325
 20
-134.9798746407342
 10
103.0755343709325
 20
-134.9798746407342
 10
103.0755343709325
 20
-135.1640149944208
 10
103.0755343709325
 20
-135.1640149944208
 10
103.0493516452446
 20
-135.1640149944208
 10
103.034537734658
 20
-135.1597086250642
 10
102.8919107815687
 20
-135.1597086250642
 97
        0
 97
        1
330
E4
 75
     2
 76
     1
 98
        1
 10
0.0
 20
0.0
450
        0
451
        0
460
0.0
461
0.0
452
        0
462
0.0
453
        0
470

  0
SPLINE
  5
E6
330
DE
100
AcDbEntity
  8
レイヤー 1
100
AcDbSpline
210
0.0
220
0.0
230
1.0
 70
    11
 71
     3
 72
    17
 73
    13
 74
     0
 42
0.0000000001
 43
0.0000000001
 40
0.0
 40
0.0
 40
0.0
 40
0.0
 40
1.0
 40
1.0
 40
1.0
 40
2.0
 40
2.0
 40
2.0
 40
3.0
 40
3.0
 40
3.0
 40
4.0
 40
4.0
 40
4.0
 40
4.0
 10
104.5183403601551
 20
-135.959487541965
 30
0.0
 10
104.5183403601551
 20
-135.959487541965
 30
0.0
 10
103.8999457205528
 20
-135.959487541965
 30
0.0
 10
103.8999457205528
 20
-135.959487541965
 30
0.0
 10
103.8999457205528
 20
-135.959487541965
 30
0.0
 10
103.8999457205528
 20
-136.073692457301
 30
0.0
 10
103.8999457205528
 20
-136.073692457301
 30
0.0
 10
103.8999457205528
 20
-136.073692457301
 30
0.0
 10
104.5183403601551
 20
-136.073692457301
 30
0.0
 10
104.5183403601551
 20
-136.073692457301
 30
0.0
 10
104.5183403601551
 20
-136.073692457301
 30
0.0
 10
104.5183403601551
 20
-135.959487541965
 30
0.0
 10
104.5183403601551
 20
-135.959487541965
 30
0.0
  0
SPLINE
  5
E7
330
DE
100
AcDbEntity
  8
レイヤー 1
100
AcDbSpline
210
0.0
220
0.0
230
1.0
 70
    11
 71
     3
 72
    17
 73
    13
 74
     0
 42
0.0000000001
 43
0.0000000001
 40
0.0
 40
0.0
 40
0.0
 40
0.0
 40
1.0
 40
1.0
 40
1.0
 40
2.0
 40
2.0
 40
2.0
 40
3.0
 40
3.0
 40
3.0
 40
4.0
 40
4.0
 40
4.0
 40
4.0
 10
104.5183403601551
 20
-135.7160915459321
 30
0.0
 10
104.5183403601551
 20
-135.7160915459321
 30
0.0
 10
103.8999457205528
 20
-135.7160915459321
 30
0.0
 10
103.8999457205528
 20
-135.7160915459321
 30
0.0
 10
103.8999457205528
 20
-135.7160915459321
 30
0.0
 10
103.8999457205528
 20
-135.8304687160424
 30
0.0
 10
103.8999457205528
 20
-135.8304687160424
 30
0.0
 10
103.8999457205528
 20
-135.8304687160424
 30
0.0
 10
104.5183403601551
 20
-135.8304687160424
 30
0.0
 10
104.5183403601551
 20
-135.8304687160424
 30
0.0
 10
104.5183403601551
 20
-135.8304687160424
 30
0.0
 10
104.5183403601551
 20
-135.7160915459321
 30
0.0
 10
104.5183403601551
 20
-135.7160915459321
 30
0.0
  0
SPLINE
  5
E8
330
DE
100
AcDbEntity
  8
レイヤー 1
100
AcDbSpline
210
0.0
220
0.0
230
1.0
 70
    11
 71
     3
 72
    17
 73
    13
 74
     0
 42
0.0000000001
 43
0.0000000001
 40
0.0
 40
0.0
 40
0.0
 40
0.0
 40
1.0
 40
1.0
 40
1.0
 40
2.0
 40
2.0
 40
2.0
 40
3.0
 40
3.0
 40
3.0
 40
4.0
 40
4.0
 40
4.0
 40
4.0
 10
104.5183403601551
 20
-135.4833753459034
 30
0.0
 10
104.5183403601551
 20
-135.4833753459034
 30
0.0
 10
103.8999457205528
 20
-135.4833753459034
 30
0.0
 10
103.8999457205528
 20
-135.4833753459034
 30
0.0
 10
103.8999457205528
 20
-135.4833753459034
 30
0.0
 10
103.8999457205528
 20
-135.591379089366
 30
0.0
 10
103.8999457205528
 20
-135.591379089366
 30
0.0
 10
103.8999457205528
 20
-135.591379089366
 30
0.0
 10
104.5183403601551
 20
-135.591379089366
 30
0.0
 10
104.5183403601551
 20
-135.591379089366
 30
0.0
 10
104.5183403601551
 20
-135.591379089366
 30
0.0
 10
104.5183403601551
 20
-135.4833753459034
 30
0.0
 10
104.5183403601551
 20
-135.4833753459034
 30
0.0
  0
SPLINE
  5
E9
330
DE
100
AcDbEntity
  8
レイヤー 1
100
AcDbSpline
210
0.0
220
0.0
230
1.0
 70
     9
 71
     3
 72
   203
 73
   199
 74
     0
 42
0.0000000001
 43
0.0000000001
 40
0.0
 40
0.0
 40
0.0
 40
0.0
 40
1.0
 40
1.0
 40
1.0
 40
2.0
 40
2.0
 40
2.0
 40
3.0
 40
3.0
 40
3.0
 40
4.0
 40
4.0
 40
4.0
 40
5.0
 40
5.0
 40
5.0
 40
6.0
 40
6.0
 40
6.0
 40
7.0
 40
7.0
 40
7.0
 40
8.0
 40
8.0
 40
8.0
 40
9.0
 40
9.0
 40
9.0
 40
10.0
 40
10.0
 40
10.0
 40
11.0
 40
11.0
 40
11.0
 40
12.0
 40
12.0
 40
12.0
 40
13.0
 40
13.0
 40
13.0
 40
14.0
 40
14.0
 40
14.0
 40
15.0
 40
15.0
 40
15.0
 40
16.0
 40
16.0
 40
16.0
 40
17.0
 40
17.0
 40
17.0
 40
18.0
 40
18.0
 40
18.0
 40
19.0
 40
19.0
 40
19.0
 40
20.0
 40
20.0
 40
20.0
 40
21.0
 40
21.0
 40
21.0
 40
22.0
 40
22.0
 40
22.0
 40
23.0
 40
23.0
 40
23.0
 40
24.0
 40
24.0
 40
24.0
 40
25.0
 40
25.0
 40
25.0
 40
26.0
 40
26.0
 40
26.0
 40
27.0
 40
27.0
 40
27.0
 40
28.0
 40
28.0
 40
28.0
 40
29.0
 40
29.0
 40
29.0
 40
30.0
 40
30.0
 40
30.0
 40
31.0
 40
31.0
 40
31.0
 40
32.0
 40
32.0
 40
32.0
 40
33.0
 40
33.0
 40
33.0
 40
34.0
 40
34.0
 40
34.0
 40
35.0
 40
35.0
 40
35.0
 40
36.0
 40
36.0
 40
36.0
 40
37.0
 40
37.0
 40
37.0
 40
38.0
 40
38.0
 40
38.0
 40
39.0
 40
39.0
 40
39.0
 40
40.0
 40
40.0
 40
40.0
 40
41.0
 40
41.0
 40
41.0
 40
42.0
 40
42.0
 40
42.0
 40
43.0
 40
43.0
 40
43.0
 40
44.0
 40
44.0
 40
44.0
 40
45.0
 40
45.0
 40
45.0
 40
46.0
 40
46.0
 40
46.0
 40
47.0
 40
47.0
 40
47.0
 40
48.0
 40
48.0
 40
48.0
 40
49.0
 40
49.0
 40
49.0
 40
50.0
 40
50.0
 40
50.0
 40
51.0
 40
51.0
 40
51.0
 40
52.0
 40
52.0
 40
52.0
 40
53.0
 40
53.0
 40
53.0
 40
54.0
 40
54.0
 40
54.0
 40
55.0
 40
55.0
 40
55.0
 40
56.0
 40
56.0
 40
56.0
 40
57.0
 40
57.0
 40
57.0
 40
58.0
 40
58.0
 40
58.0
 40
59.0
 40
59.0
 40
59.0
 40
60.0
 40
60.0
 40
60.0
 40
61.0
 40
61.0
 40
61.0
 40
62.0
 40
62.0
 40
62.0
 40
63.0
 40
63.0
 40
63.0
 40
64.0
 40
64.0
 40
64.0
 40
65.0
 40
65.0
 40
65.0
 40
66.0
 40
66.0
 40
66.0
 40
66.0
 10
104.3739908593231
 20
-135.2274047513494
 30
0.0
 10
104.3739908593231
 20
-135.2274047513494
 30
0.0
 10
103.8851318099662
 20
-135.2274047513494
 30
0.0
 10
103.8851318099662
 20
-135.2274047513494
 30
0.0
 10
103.875830052156
 20
-135.2718464831091
 30
0.0
 10
103.868595351637
 20
-135.3035413615734
 30
0.0
 10
103.8572265365357
 20
-135.3417819214597
 30
0.0
 10
103.8796196571898
 20
-135.3417819214597
 30
0.0
 10
103.8927110200337
 20
-135.3438489787508
 30
0.0
 10
103.8982231728102
 20
-135.3438489787508
 30
0.0
 10
103.8982231728102
 20
-135.3438489787508
 30
0.0
 10
104.0628987370051
 20
-135.3438489787508
 30
0.0
 10
104.0628987370051
 20
-135.3438489787508
 30
0.0
 10
104.0628987370051
 20
-135.3438489787508
 30
0.0
 10
104.3905273176523
 20
-135.3438489787508
 30
0.0
 10
104.3905273176523
 20
-135.3438489787508
 30
0.0
 10
104.4353135589606
 20
-135.3438489787508
 30
0.0
 10
104.6833604338986
 20
-135.3311021254554
 30
0.0
 10
104.7109211977806
 20
-135.3311021254554
 30
0.0
 10
104.709198650038
 20
-135.3586628893374
 30
0.0
 10
104.7074761022953
 20
-135.3776109145063
 30
0.0
 10
104.7074761022953
 20
-135.4072387356794
 30
0.0
 10
104.7054090450042
 20
-135.4389336141437
 30
0.0
 10
104.7054090450042
 20
-135.574325866714
 30
0.0
 10
104.7054090450042
 20
-135.601886630596
 30
0.0
 10
104.7054090450042
 20
-135.601886630596
 30
0.0
 10
104.7054090450042
 20
-135.8473496839201
 30
0.0
 10
104.7054090450042
 20
-135.8473496839201
 30
0.0
 10
104.7054090450042
 20
-135.8917914156798
 30
0.0
 10
104.709198650038
 20
-136.0885063678876
 30
0.0
 10
104.7129882550717
 20
-136.2407795883356
 30
0.0
 10
104.7129882550717
 20
-136.2407795883356
 30
0.0
 10
104.5148952646699
 20
-136.2407795883356
 30
0.0
 10
104.5148952646699
 20
-136.2407795883356
 30
0.0
 10
104.5148952646699
 20
-136.2407795883356
 30
0.0
 10
104.5166178124125
 20
-136.2070176525802
 30
0.0
 10
104.5166178124125
 20
-136.2070176525802
 30
0.0
 10
104.5166178124125
 20
-136.2070176525802
 30
0.0
 10
103.9020127778439
 20
-136.2070176525802
 30
0.0
 10
103.9020127778439
 20
-136.2070176525802
 30
0.0
 10
103.9020127778439
 20
-136.2070176525802
 30
0.0
 10
103.9037353255865
 20
-136.2407795883356
 30
0.0
 10
103.9037353255865
 20
-136.2407795883356
 30
0.0
 10
103.9037353255865
 20
-136.2407795883356
 30
0.0
 10
103.7128770357037
 20
-136.2407795883356
 30
0.0
 10
103.7128770357037
 20
-136.2407795883356
 30
0.0
 10
103.7166666407375
 20
-136.1858303153459
 30
0.0
 10
103.7166666407375
 20
-136.1730834620505
 30
0.0
 10
103.7221787935139
 20
-136.0588785467144
 30
0.0
 10
103.724245850805
 20
-136.0313177828324
 30
0.0
 10
103.7259683985477
 20
-135.8981648423275
 30
0.0
 10
103.7259683985477
 20
-135.8790445623844
 30
0.0
 10
103.7259683985477
 20
-135.8790445623844
 30
0.0
 10
103.7259683985477
 20
-135.6759561835289
 30
0.0
 10
103.7259683985477
 20
-135.6759561835289
 30
0.0
 10
103.6036675088213
 20
-135.9255533514353
 30
0.0
 10
103.4555284029555
 20
-136.0568114894233
 30
0.0
 10
103.3628553344023
 20
-136.122268303643
 30
0.0
 10
103.3628553344023
 20
-136.122268303643
 30
0.0
 10
103.2112711330513
 20
-135.9827419364904
 30
0.0
 10
103.2112711330513
 20
-135.9827419364904
 30
0.0
 10
103.2887857814694
 20
-135.931926778083
 30
0.0
 10
103.4148762762296
 20
-135.8451103718547
 30
0.0
 10
103.5351101086648
 20
-135.6506347317123
 30
0.0
 10
103.6146918143741
 20
-135.5236829630809
 30
0.0
 10
103.6722249089778
 20
-135.3798502265717
 30
0.0
 10
103.7018527301509
 20
-135.2274047513494
 30
0.0
 10
103.5016926824579
 20
-135.2296440634148
 30
0.0
 10
103.3445963283305
 20
-135.2360174900625
 30
0.0
 10
103.2612250175874
 20
-135.2380845473537
 30
0.0
 10
103.2612250175874
 20
-135.2380845473537
 30
0.0
 10
103.2612250175874
 20
-135.0603176203148
 30
0.0
 10
103.2612250175874
 20
-135.0603176203148
 30
0.0
 10
103.4334797918499
 20
-135.0666910469625
 30
0.0
 10
103.6815266667879
 20
-135.070997416319
 30
0.0
 10
103.8131293143245
 20
-135.070997416319
 30
0.0
 10
103.8131293143245
 20
-135.070997416319
 30
0.0
 10
103.999853489625
 20
-135.070997416319
 30
0.0
 10
103.999853489625
 20
-135.070997416319
 30
0.0
 10
103.999853489625
 20
-135.070997416319
 30
0.0
 10
103.999853489625
 20
-134.9629936728564
 30
0.0
 10
103.999853489625
 20
-134.9629936728564
 30
0.0
 10
103.999853489625
 20
-134.9629936728564
 30
0.0
 10
103.8723849566708
 20
-134.9629936728564
 30
0.0
 10
103.8723849566708
 20
-134.9629936728564
 30
0.0
 10
103.724245850805
 20
-134.9629936728564
 30
0.0
 10
103.5761067449393
 20
-134.967300042213
 30
0.0
 10
103.4296901868162
 20
-134.9736734688607
 30
0.0
 10
103.4296901868162
 20
-134.9736734688607
 30
0.0
 10
103.4296901868162
 20
-134.8022799684696
 30
0.0
 10
103.4296901868162
 20
-134.8022799684696
 30
0.0
 10
103.564737929838
 20
-134.8127875096996
 30
0.0
 10
103.7276909462903
 20
-134.8127875096996
 30
0.0
 10
103.8723849566708
 20
-134.8127875096996
 30
0.0
 10
103.8723849566708
 20
-134.8127875096996
 30
0.0
 10
103.999853489625
 20
-134.8127875096996
 30
0.0
 10
103.999853489625
 20
-134.8127875096996
 30
0.0
 10
103.999853489625
 20
-134.8127875096996
 30
0.0
 10
103.999853489625
 20
-134.6944484797812
 30
0.0
 10
103.999853489625
 20
-134.6944484797812
 30
0.0
 10
103.999853489625
 20
-134.6944484797812
 30
0.0
 10
103.8851318099662
 20
-134.6944484797812
 30
0.0
 10
103.8851318099662
 20
-134.6944484797812
 30
0.0
 10
103.8444796832403
 20
-134.6944484797812
 30
0.0
 10
103.6667127562014
 20
-134.7028889637201
 30
0.0
 10
103.6295057249607
 20
-134.7028889637201
 30
0.0
 10
103.4517387979218
 20
-134.7070230783024
 30
0.0
 10
103.3852484550564
 20
-134.7090901355935
 30
0.0
 10
103.3166910549
 20
-134.711329447659
 30
0.0
 10
103.3166910549
 20
-134.711329447659
 30
0.0
 10
103.3166910549
 20
-134.5271890939723
 30
0.0
 10
103.3166910549
 20
-134.5271890939723
 30
0.0
 10
103.4165988239722
 20
-134.5356295779112
 30
0.0
 10
103.4555284029555
 20
-134.5356295779112
 30
0.0
 10
103.7907361936703
 20
-134.5442423166243
 30
0.0
 10
103.7352701563578
 20
-134.4489854264572
 30
0.0
 10
103.7111544879611
 20
-134.4214246625752
 30
0.0
 10
103.6794596094968
 20
-134.3854234147543
 30
0.0
 10
103.6794596094968
 20
-134.3854234147543
 30
0.0
 10
103.8334553776874
 20
-134.3029133778826
 30
0.0
 10
103.8334553776874
 20
-134.3029133778826
 30
0.0
 10
103.868595351637
 20
-134.3389146257034
 30
0.0
 10
103.9075249306203
 20
-134.381289300172
 30
0.0
 10
103.972292725743
 20
-134.4911878461515
 30
0.0
 10
103.972292725743
 20
-134.4911878461515
 30
0.0
 10
103.8723849566708
 20
-134.5463093739155
 30
0.0
 10
103.8723849566708
 20
-134.5463093739155
 30
0.0
 10
103.8723849566708
 20
-134.5463093739155
 30
0.0
 10
103.8813422049324
 20
-134.5463093739155
 30
0.0
 10
103.8813422049324
 20
-134.5463093739155
 30
0.0
 10
103.8813422049324
 20
-134.5463093739155
 30
0.0
 10
104.3388508853736
 20
-134.5463093739155
 30
0.0
 10
104.3388508853736
 20
-134.5463093739155
 30
0.0
 10
104.3388508853736
 20
-134.5463093739155
 30
0.0
 10
104.2554795746306
 20
-134.5018676421558
 30
0.0
 10
104.2554795746306
 20
-134.5018676421558
 30
0.0
 10
104.2795952430273
 20
-134.4637993370437
 30
0.0
 10
104.3295491275634
 20
-134.3833563574632
 30
0.0
 10
104.3426404904074
 20
-134.3092868045303
 30
0.0
 10
104.3426404904074
 20
-134.3092868045303
 30
0.0
 10
104.5297091752565
 20
-134.3728488162332
 30
0.0
 10
104.5297091752565
 20
-134.3728488162332
 30
0.0
 10
104.5369438757755
 20
-134.3749158735243
 30
0.0
 10
104.5555473913958
 20
-134.3854234147543
 30
0.0
 10
104.5555473913958
 20
-134.4066107519886
 30
0.0
 10
104.5555473913958
 20
-134.4446790571006
 30
0.0
 10
104.4980142967921
 20
-134.4446790571006
 30
0.0
 10
104.4814778384629
 20
-134.4446790571006
 30
0.0
 10
104.4721760806528
 20
-134.4637993370437
 30
0.0
 10
104.4518500172898
 20
-134.5039346994469
 30
0.0
 10
104.4260118011504
 20
-134.5442423166243
 30
0.0
 10
104.7756889929033
 20
-134.5378688899766
 30
0.0
 10
104.8018717185912
 20
-134.5356295779112
 30
0.0
 10
104.8683620614565
 20
-134.5294284060378
 30
0.0
 10
104.8683620614565
 20
-134.5294284060378
 30
0.0
 10
104.8683620614565
 20
-134.711329447659
 30
0.0
 10
104.8683620614565
 20
-134.711329447659
 30
0.0
 10
104.8518256031273
 20
-134.711329447659
 30
0.0
 10
104.8294324824732
 20
-134.7090901355935
 30
0.0
 10
104.6368516448477
 20
-134.7006496516547
 30
0.0
 10
104.592409913088
 20
-134.6985825943635
 30
0.0
 10
104.3998290754625
 20
-134.6944484797812
 30
0.0
 10
104.3608994964792
 20
-134.6944484797812
 30
0.0
 10
104.3608994964792
 20
-134.6944484797812
 30
0.0
 10
104.1721082638875
 20
-134.6944484797812
 30
0.0
 10
104.1721082638875
 20
-134.6944484797812
 30
0.0
 10
104.1721082638875
 20
-134.6944484797812
 30
0.0
 10
104.1721082638875
 20
-134.8127875096996
 30
0.0
 10
104.1721082638875
 20
-134.8127875096996
 30
0.0
 10
104.1721082638875
 20
-134.8127875096996
 30
0.0
 10
104.324036974787
 20
-134.8127875096996
 30
0.0
 10
104.324036974787
 20
-134.8127875096996
 30
0.0
 10
104.4666639278764
 20
-134.8127875096996
 30
0.0
 10
104.6334065493625
 20
-134.8127875096996
 30
0.0
 10
104.7701768401269
 20
-134.8022799684696
 30
0.0
 10
104.7701768401269
 20
-134.8022799684696
 30
0.0
 10
104.7701768401269
 20
-134.9736734688607
 30
0.0
 10
104.7701768401269
 20
-134.9736734688607
 30
0.0
 10
104.5868977603116
 20
-134.9652329849219
 30
0.0
 10
104.4146429860491
 20
-134.9629936728564
 30
0.0
 10
104.324036974787
 20
-134.9629936728564
 30
0.0
 10
104.324036974787
 20
-134.9629936728564
 30
0.0
 10
104.1721082638875
 20
-134.9629936728564
 30
0.0
 10
104.1721082638875
 20
-134.9629936728564
 30
0.0
 10
104.1721082638875
 20
-134.9629936728564
 30
0.0
 10
104.1721082638875
 20
-135.070997416319
 30
0.0
 10
104.1721082638875
 20
-135.070997416319
 30
0.0
 10
104.1721082638875
 20
-135.070997416319
 30
0.0
 10
104.3739908593231
 20
-135.070997416319
 30
0.0
 10
104.3739908593231
 20
-135.070997416319
 30
0.0
 10
104.4907795962731
 20
-135.070997416319
 30
0.0
 10
104.7426160762449
 20
-135.0666910469625
 30
0.0
 10
104.9258951560602
 20
-135.0603176203148
 30
0.0
 10
104.9258951560602
 20
-135.0603176203148
 30
0.0
 10
104.9258951560602
 20
-135.2380845473537
 30
0.0
 10
104.9258951560602
 20
-135.2380845473537
 30
0.0
 10
104.7574299868315
 20
-135.2317111207059
 30
0.0
 10
104.4832003862056
 20
-135.2274047513494
 30
0.0
 10
104.3739908593231
 20
-135.2274047513494
 30
0.0
  0
HATCH
  5
EA
330
DE
100
AcDbEntity
  8
レイヤー 1
 62
   250
420
  2299925
440
 33554687
100
AcDbHatch
 10
0.0
 20
0.0
 30
0.0
210
0.0
220
0.0
230
1.0
  2
SOLID
 70
     1
 71
     1
 91
        4
 92
        1
 93
        1
 72
     4
 94
        3
 73
     0
 74
     0
 95
       17
 96
       13
 40
0.0
 40
0.0
 40
0.0
 40
0.0
 40
1.0
 40
1.0
 40
1.0
 40
2.0
 40
2.0
 40
2.0
 40
3.0
 40
3.0
 40
3.0
 40
4.0
 40
4.0
 40
4.0
 40
4.0
 10
104.5183403601551
 20
-135.959487541965
 10
104.5183403601551
 20
-135.959487541965
 10
103.8999457205528
 20
-135.959487541965
 10
103.8999457205528
 20
-135.959487541965
 10
103.8999457205528
 20
-135.959487541965
 10
103.8999457205528
 20
-136.073692457301
 10
103.8999457205528
 20
-136.073692457301
 10
103.8999457205528
 20
-136.073692457301
 10
104.5183403601551
 20
-136.073692457301
 10
104.5183403601551
 20
-136.073692457301
 10
104.5183403601551
 20
-136.073692457301
 10
104.5183403601551
 20
-135.959487541965
 10
104.5183403601551
 20
-135.959487541965
 97
        0
 97
        1
330
E6
 92
        1
 93
        1
 72
     4
 94
        3
 73
     0
 74
     0
 95
       17
 96
       13
 40
0.0
 40
0.0
 40
0.0
 40
0.0
 40
1.0
 40
1.0
 40
1.0
 40
2.0
 40
2.0
 40
2.0
 40
3.0
 40
3.0
 40
3.0
 40
4.0
 40
4.0
 40
4.0
 40
4.0
 10
104.5183403601551
 20
-135.7160915459321
 10
104.5183403601551
 20
-135.7160915459321
 10
103.8999457205528
 20
-135.7160915459321
 10
103.8999457205528
 20
-135.7160915459321
 10
103.8999457205528
 20
-135.7160915459321
 10
103.8999457205528
 20
-135.8304687160424
 10
103.8999457205528
 20
-135.8304687160424
 10
103.8999457205528
 20
-135.8304687160424
 10
104.5183403601551
 20
-135.8304687160424
 10
104.5183403601551
 20
-135.8304687160424
 10
104.5183403601551
 20
-135.8304687160424
 10
104.5183403601551
 20
-135.7160915459321
 10
104.5183403601551
 20
-135.7160915459321
 97
        0
 97
        1
330
E7
 92
        1
 93
        1
 72
     4
 94
        3
 73
     0
 74
     0
 95
       17
 96
       13
 40
0.0
 40
0.0
 40
0.0
 40
0.0
 40
1.0
 40
1.0
 40
1.0
 40
2.0
 40
2.0
 40
2.0
 40
3.0
 40
3.0
 40
3.0
 40
4.0
 40
4.0
 40
4.0
 40
4.0
 10
104.5183403601551
 20
-135.4833753459034
 10
104.5183403601551
 20
-135.4833753459034
 10
103.8999457205528
 20
-135.4833753459034
 10
103.8999457205528
 20
-135.4833753459034
 10
103.8999457205528
 20
-135.4833753459034
 10
103.8999457205528
 20
-135.591379089366
 10
103.8999457205528
 20
-135.591379089366
 10
103.8999457205528
 20
-135.591379089366
 10
104.5183403601551
 20
-135.591379089366
 10
104.5183403601551
 20
-135.591379089366
 10
104.5183403601551
 20
-135.591379089366
 10
104.5183403601551
 20
-135.4833753459034
 10
104.5183403601551
 20
-135.4833753459034
 97
        0
 97
        1
330
E8
 92
        1
 93
        1
 72
     4
 94
        3
 73
     0
 74
     0
 95
      203
 96
      199
 40
0.0
 40
0.0
 40
0.0
 40
0.0
 40
1.0
 40
1.0
 40
1.0
 40
2.0
 40
2.0
 40
2.0
 40
3.0
 40
3.0
 40
3.0
 40
4.0
 40
4.0
 40
4.0
 40
5.0
 40
5.0
 40
5.0
 40
6.0
 40
6.0
 40
6.0
 40
7.0
 40
7.0
 40
7.0
 40
8.0
 40
8.0
 40
8.0
 40
9.0
 40
9.0
 40
9.0
 40
10.0
 40
10.0
 40
10.0
 40
11.0
 40
11.0
 40
11.0
 40
12.0
 40
12.0
 40
12.0
 40
13.0
 40
13.0
 40
13.0
 40
14.0
 40
14.0
 40
14.0
 40
15.0
 40
15.0
 40
15.0
 40
16.0
 40
16.0
 40
16.0
 40
17.0
 40
17.0
 40
17.0
 40
18.0
 40
18.0
 40
18.0
 40
19.0
 40
19.0
 40
19.0
 40
20.0
 40
20.0
 40
20.0
 40
21.0
 40
21.0
 40
21.0
 40
22.0
 40
22.0
 40
22.0
 40
23.0
 40
23.0
 40
23.0
 40
24.0
 40
24.0
 40
24.0
 40
25.0
 40
25.0
 40
25.0
 40
26.0
 40
26.0
 40
26.0
 40
27.0
 40
27.0
 40
27.0
 40
28.0
 40
28.0
 40
28.0
 40
29.0
 40
29.0
 40
29.0
 40
30.0
 40
30.0
 40
30.0
 40
31.0
 40
31.0
 40
31.0
 40
32.0
 40
32.0
 40
32.0
 40
33.0
 40
33.0
 40
33.0
 40
34.0
 40
34.0
 40
34.0
 40
35.0
 40
35.0
 40
35.0
 40
36.0
 40
36.0
 40
36.0
 40
37.0
 40
37.0
 40
37.0
 40
38.0
 40
38.0
 40
38.0
 40
39.0
 40
39.0
 40
39.0
 40
40.0
 40
40.0
 40
40.0
 40
41.0
 40
41.0
 40
41.0
 40
42.0
 40
42.0
 40
42.0
 40
43.0
 40
43.0
 40
43.0
 40
44.0
 40
44.0
 40
44.0
 40
45.0
 40
45.0
 40
45.0
 40
46.0
 40
46.0
 40
46.0
 40
47.0
 40
47.0
 40
47.0
 40
48.0
 40
48.0
 40
48.0
 40
49.0
 40
49.0
 40
49.0
 40
50.0
 40
50.0
 40
50.0
 40
51.0
 40
51.0
 40
51.0
 40
52.0
 40
52.0
 40
52.0
 40
53.0
 40
53.0
 40
53.0
 40
54.0
 40
54.0
 40
54.0
 40
55.0
 40
55.0
 40
55.0
 40
56.0
 40
56.0
 40
56.0
 40
57.0
 40
57.0
 40
57.0
 40
58.0
 40
58.0
 40
58.0
 40
59.0
 40
59.0
 40
59.0
 40
60.0
 40
60.0
 40
60.0
 40
61.0
 40
61.0
 40
61.0
 40
62.0
 40
62.0
 40
62.0
 40
63.0
 40
63.0
 40
63.0
 40
64.0
 40
64.0
 40
64.0
 40
65.0
 40
65.0
 40
65.0
 40
66.0
 40
66.0
 40
66.0
 40
66.0
 10
104.3739908593231
 20
-135.2274047513494
 10
104.3739908593231
 20
-135.2274047513494
 10
103.8851318099662
 20
-135.2274047513494
 10
103.8851318099662
 20
-135.2274047513494
 10
103.875830052156
 20
-135.2718464831091
 10
103.868595351637
 20
-135.3035413615734
 10
103.8572265365357
 20
-135.3417819214597
 10
103.8796196571898
 20
-135.3417819214597
 10
103.8927110200337
 20
-135.3438489787508
 10
103.8982231728102
 20
-135.3438489787508
 10
103.8982231728102
 20
-135.3438489787508
 10
104.0628987370051
 20
-135.3438489787508
 10
104.0628987370051
 20
-135.3438489787508
 10
104.0628987370051
 20
-135.3438489787508
 10
104.3905273176523
 20
-135.3438489787508
 10
104.3905273176523
 20
-135.3438489787508
 10
104.4353135589606
 20
-135.3438489787508
 10
104.6833604338986
 20
-135.3311021254554
 10
104.7109211977806
 20
-135.3311021254554
 10
104.709198650038
 20
-135.3586628893374
 10
104.7074761022953
 20
-135.3776109145063
 10
104.7074761022953
 20
-135.4072387356794
 10
104.7054090450042
 20
-135.4389336141437
 10
104.7054090450042
 20
-135.574325866714
 10
104.7054090450042
 20
-135.601886630596
 10
104.7054090450042
 20
-135.601886630596
 10
104.7054090450042
 20
-135.8473496839201
 10
104.7054090450042
 20
-135.8473496839201
 10
104.7054090450042
 20
-135.8917914156798
 10
104.709198650038
 20
-136.0885063678876
 10
104.7129882550717
 20
-136.2407795883356
 10
104.7129882550717
 20
-136.2407795883356
 10
104.5148952646699
 20
-136.2407795883356
 10
104.5148952646699
 20
-136.2407795883356
 10
104.5148952646699
 20
-136.2407795883356
 10
104.5166178124125
 20
-136.2070176525802
 10
104.5166178124125
 20
-136.2070176525802
 10
104.5166178124125
 20
-136.2070176525802
 10
103.9020127778439
 20
-136.2070176525802
 10
103.9020127778439
 20
-136.2070176525802
 10
103.9020127778439
 20
-136.2070176525802
 10
103.9037353255865
 20
-136.2407795883356
 10
103.9037353255865
 20
-136.2407795883356
 10
103.9037353255865
 20
-136.2407795883356
 10
103.7128770357037
 20
-136.2407795883356
 10
103.7128770357037
 20
-136.2407795883356
 10
103.7166666407375
 20
-136.1858303153459
 10
103.7166666407375
 20
-136.1730834620505
 10
103.7221787935139
 20
-136.0588785467144
 10
103.724245850805
 20
-136.0313177828324
 10
103.7259683985477
 20
-135.8981648423275
 10
103.7259683985477
 20
-135.8790445623844
 10
103.7259683985477
 20
-135.8790445623844
 10
103.7259683985477
 20
-135.6759561835289
 10
103.7259683985477
 20
-135.6759561835289
 10
103.6036675088213
 20
-135.9255533514353
 10
103.4555284029555
 20
-136.0568114894233
 10
103.3628553344023
 20
-136.122268303643
 10
103.3628553344023
 20
-136.122268303643
 10
103.2112711330513
 20
-135.9827419364904
 10
103.2112711330513
 20
-135.9827419364904
 10
103.2887857814694
 20
-135.931926778083
 10
103.4148762762296
 20
-135.8451103718547
 10
103.5351101086648
 20
-135.6506347317123
 10
103.6146918143741
 20
-135.5236829630809
 10
103.6722249089778
 20
-135.3798502265717
 10
103.7018527301509
 20
-135.2274047513494
 10
103.5016926824579
 20
-135.2296440634148
 10
103.3445963283305
 20
-135.2360174900625
 10
103.2612250175874
 20
-135.2380845473537
 10
103.2612250175874
 20
-135.2380845473537
 10
103.2612250175874
 20
-135.0603176203148
 10
103.2612250175874
 20
-135.0603176203148
 10
103.4334797918499
 20
-135.0666910469625
 10
103.6815266667879
 20
-135.070997416319
 10
103.8131293143245
 20
-135.070997416319
 10
103.8131293143245
 20
-135.070997416319
 10
103.999853489625
 20
-135.070997416319
 10
103.999853489625
 20
-135.070997416319
 10
103.999853489625
 20
-135.070997416319
 10
103.999853489625
 20
-134.9629936728564
 10
103.999853489625
 20
-134.9629936728564
 10
103.999853489625
 20
-134.9629936728564
 10
103.8723849566708
 20
-134.9629936728564
 10
103.8723849566708
 20
-134.9629936728564
 10
103.724245850805
 20
-134.9629936728564
 10
103.5761067449393
 20
-134.967300042213
 10
103.4296901868162
 20
-134.9736734688607
 10
103.4296901868162
 20
-134.9736734688607
 10
103.4296901868162
 20
-134.8022799684696
 10
103.4296901868162
 20
-134.8022799684696
 10
103.564737929838
 20
-134.8127875096996
 10
103.7276909462903
 20
-134.8127875096996
 10
103.8723849566708
 20
-134.8127875096996
 10
103.8723849566708
 20
-134.8127875096996
 10
103.999853489625
 20
-134.8127875096996
 10
103.999853489625
 20
-134.8127875096996
 10
103.999853489625
 20
-134.8127875096996
 10
103.999853489625
 20
-134.6944484797812
 10
103.999853489625
 20
-134.6944484797812
 10
103.999853489625
 20
-134.6944484797812
 10
103.8851318099662
 20
-134.6944484797812
 10
103.8851318099662
 20
-134.6944484797812
 10
103.8444796832403
 20
-134.6944484797812
 10
103.6667127562014
 20
-134.7028889637201
 10
103.6295057249607
 20
-134.7028889637201
 10
103.4517387979218
 20
-134.7070230783024
 10
103.3852484550564
 20
-134.7090901355935
 10
103.3166910549
 20
-134.711329447659
 10
103.3166910549
 20
-134.711329447659
 10
103.3166910549
 20
-134.5271890939723
 10
103.3166910549
 20
-134.5271890939723
 10
103.4165988239722
 20
-134.5356295779112
 10
103.4555284029555
 20
-134.5356295779112
 10
103.7907361936703
 20
-134.5442423166243
 10
103.7352701563578
 20
-134.4489854264572
 10
103.7111544879611
 20
-134.4214246625752
 10
103.6794596094968
 20
-134.3854234147543
 10
103.6794596094968
 20
-134.3854234147543
 10
103.8334553776874
 20
-134.3029133778826
 10
103.8334553776874
 20
-134.3029133778826
 10
103.868595351637
 20
-134.3389146257034
 10
103.9075249306203
 20
-134.381289300172
 10
103.972292725743
 20
-134.4911878461515
 10
103.972292725743
 20
-134.4911878461515
 10
103.8723849566708
 20
-134.5463093739155
 10
103.8723849566708
 20
-134.5463093739155
 10
103.8723849566708
 20
-134.5463093739155
 10
103.8813422049324
 20
-134.5463093739155
 10
103.8813422049324
 20
-134.5463093739155
 10
103.8813422049324
 20
-134.5463093739155
 10
104.3388508853736
 20
-134.5463093739155
 10
104.3388508853736
 20
-134.5463093739155
 10
104.3388508853736
 20
-134.5463093739155
 10
104.2554795746306
 20
-134.5018676421558
 10
104.2554795746306
 20
-134.5018676421558
 10
104.2795952430273
 20
-134.4637993370437
 10
104.3295491275634
 20
-134.3833563574632
 10
104.3426404904074
 20
-134.3092868045303
 10
104.3426404904074
 20
-134.3092868045303
 10
104.5297091752565
 20
-134.3728488162332
 10
104.5297091752565
 20
-134.3728488162332
 10
104.5369438757755
 20
-134.3749158735243
 10
104.5555473913958
 20
-134.3854234147543
 10
104.5555473913958
 20
-134.4066107519886
 10
104.5555473913958
 20
-134.4446790571006
 10
104.4980142967921
 20
-134.4446790571006
 10
104.4814778384629
 20
-134.4446790571006
 10
104.4721760806528
 20
-134.4637993370437
 10
104.4518500172898
 20
-134.5039346994469
 10
104.4260118011504
 20
-134.5442423166243
 10
104.7756889929033
 20
-134.5378688899766
 10
104.8018717185912
 20
-134.5356295779112
 10
104.8683620614565
 20
-134.5294284060378
 10
104.8683620614565
 20
-134.5294284060378
 10
104.8683620614565
 20
-134.711329447659
 10
104.8683620614565
 20
-134.711329447659
 10
104.8518256031273
 20
-134.711329447659
 10
104.8294324824732
 20
-134.7090901355935
 10
104.6368516448477
 20
-134.7006496516547
 10
104.592409913088
 20
-134.6985825943635
 10
104.3998290754625
 20
-134.6944484797812
 10
104.3608994964792
 20
-134.6944484797812
 10
104.3608994964792
 20
-134.6944484797812
 10
104.1721082638875
 20
-134.6944484797812
 10
104.1721082638875
 20
-134.6944484797812
 10
104.1721082638875
 20
-134.6944484797812
 10
104.1721082638875
 20
-134.8127875096996
 10
104.1721082638875
 20
-134.8127875096996
 10
104.1721082638875
 20
-134.8127875096996
 10
104.324036974787
 20
-134.8127875096996
 10
104.324036974787
 20
-134.8127875096996
 10
104.4666639278764
 20
-134.8127875096996
 10
104.6334065493625
 20
-134.8127875096996
 10
104.7701768401269
 20
-134.8022799684696
 10
104.7701768401269
 20
-134.8022799684696
 10
104.7701768401269
 20
-134.9736734688607
 10
104.7701768401269
 20
-134.9736734688607
 10
104.5868977603116
 20
-134.9652329849219
 10
104.4146429860491
 20
-134.9629936728564
 10
104.324036974787
 20
-134.9629936728564
 10
104.324036974787
 20
-134.9629936728564
 10
104.1721082638875
 20
-134.9629936728564
 10
104.1721082638875
 20
-134.9629936728564
 10
104.1721082638875
 20
-134.9629936728564
 10
104.1721082638875
 20
-135.070997416319
 10
104.1721082638875
 20
-135.070997416319
 10
104.1721082638875
 20
-135.070997416319
 10
104.3739908593231
 20
-135.070997416319
 10
104.3739908593231
 20
-135.070997416319
 10
104.4907795962731
 20
-135.070997416319
 10
104.7426160762449
 20
-135.0666910469625
 10
104.9258951560602
 20
-135.0603176203148
 10
104.9258951560602
 20
-135.0603176203148
 10
104.9258951560602
 20
-135.2380845473537
 10
104.9258951560602
 20
-135.2380845473537
 10
104.7574299868315
 20
-135.2317111207059
 10
104.4832003862056
 20
-135.2274047513494
 10
104.3739908593231
 20
-135.2274047513494
 97
        0
 97
        1
330
E9
 75
     2
 76
     1
 98
        1
 10
0.0
 20
0.0
450
        0
451
        0
460
0.0
461
0.0
452
        0
462
0.0
453
        0
470

  0
SPLINE
  5
EB
330
DE
100
AcDbEntity
  8
レイヤー 1
100
AcDbSpline
210
0.0
220
0.0
230
1.0
 70
     9
 71
     3
 72
    29
 73
    25
 74
     0
 42
0.0000000001
 43
0.0000000001
 40
0.0
 40
0.0
 40
0.0
 40
0.0
 40
1.0
 40
1.0
 40
1.0
 40
2.0
 40
2.0
 40
2.0
 40
3.0
 40
3.0
 40
3.0
 40
4.0
 40
4.0
 40
4.0
 40
5.0
 40
5.0
 40
5.0
 40
6.0
 40
6.0
 40
6.0
 40
7.0
 40
7.0
 40
7.0
 40
8.0
 40
8.0
 40
8.0
 40
8.0
 10
106.0169568962388
 20
-134.6753281998381
 30
0.0
 10
106.0169568962388
 20
-134.6753281998381
 30
0.0
 10
105.7075873216634
 20
-134.6753281998381
 30
0.0
 10
105.7075873216634
 20
-134.6753281998381
 30
0.0
 10
105.6094021003337
 20
-134.6753281998381
 30
0.0
 10
105.4871012106074
 20
-134.6817016264858
 30
0.0
 10
105.3927055943115
 20
-134.6944484797812
 30
0.0
 10
105.3927055943115
 20
-134.6944484797812
 30
0.0
 10
105.3927055943115
 20
-134.4594929676872
 30
0.0
 10
105.3927055943115
 20
-134.4594929676872
 30
0.0
 10
105.4964029684176
 20
-134.4743068782737
 30
0.0
 10
105.6576334371272
 20
-134.4786132476303
 30
0.0
 10
105.7075873216634
 20
-134.4786132476303
 30
0.0
 10
105.7075873216634
 20
-134.4786132476303
 30
0.0
 10
106.0169568962388
 20
-134.4786132476303
 30
0.0
 10
106.0169568962388
 20
-134.4786132476303
 30
0.0
 10
106.033493354568
 20
-134.4786132476303
 30
0.0
 10
106.2112602816069
 20
-134.4786132476303
 30
0.0
 10
106.3352837190759
 20
-134.4594929676872
 30
0.0
 10
106.3352837190759
 20
-134.4594929676872
 30
0.0
 10
106.3352837190759
 20
-134.6944484797812
 30
0.0
 10
106.3352837190759
 20
-134.6944484797812
 30
0.0
 10
106.1981689187629
 20
-134.6753281998381
 30
0.0
 10
106.0317708068254
 20
-134.6753281998381
 30
0.0
 10
106.0169568962388
 20
-134.6753281998381
 30
0.0
  0
SPLINE
  5
EC
330
DE
100
AcDbEntity
  8
レイヤー 1
100
AcDbSpline
210
0.0
220
0.0
230
1.0
 70
     9
 71
     3
 72
    47
 73
    43
 74
     0
 42
0.0000000001
 43
0.0000000001
 40
0.0
 40
0.0
 40
0.0
 40
0.0
 40
1.0
 40
1.0
 40
1.0
 40
2.0
 40
2.0
 40
2.0
 40
3.0
 40
3.0
 40
3.0
 40
4.0
 40
4.0
 40
4.0
 40
5.0
 40
5.0
 40
5.0
 40
6.0
 40
6.0
 40
6.0
 40
7.0
 40
7.0
 40
7.0
 40
8.0
 40
8.0
 40
8.0
 40
9.0
 40
9.0
 40
9.0
 40
10.0
 40
10.0
 40
10.0
 40
11.0
 40
11.0
 40
11.0
 40
12.0
 40
12.0
 40
12.0
 40
13.0
 40
13.0
 40
13.0
 40
14.0
 40
14.0
 40
14.0
 40
14.0
 10
106.1058403597582
 20
-135.2041503568239
 30
0.0
 10
106.1058403597582
 20
-135.2041503568239
 30
0.0
 10
106.0169568962388
 20
-135.2041503568239
 30
0.0
 10
106.0169568962388
 20
-135.2041503568239
 30
0.0
 10
106.0169568962388
 20
-135.2909667630523
 30
0.0
 10
105.9983533806184
 20
-135.6802625528855
 30
0.0
 10
105.826098606356
 20
-135.9002318996187
 30
0.0
 10
105.6927734110768
 20
-136.0693860879444
 30
0.0
 10
105.5112168790041
 20
-136.139321526295
 30
0.0
 10
105.4371473260713
 20
-136.1667100354028
 30
0.0
 10
105.4371473260713
 20
-136.1667100354028
 30
0.0
 10
105.2669596090999
 20
-135.9996229043681
 30
0.0
 10
105.2669596090999
 20
-135.9996229043681
 30
0.0
 10
105.3520534675856
 20
-135.9868760510727
 30
0.0
 10
105.5057047262277
 20
-135.9636216565473
 30
0.0
 10
105.6707247999712
 20
-135.7753471882784
 30
0.0
 10
105.7354925950939
 20
-135.7035169474109
 30
0.0
 10
105.826098606356
 20
-135.563818325484
 30
0.0
 10
105.826098606356
 20
-135.2041503568239
 30
0.0
 10
105.826098606356
 20
-135.2041503568239
 30
0.0
 10
105.6242160109203
 20
-135.2041503568239
 30
0.0
 10
105.6242160109203
 20
-135.2041503568239
 30
0.0
 10
105.461262994468
 20
-135.2041503568239
 30
0.0
 10
105.2983099780157
 20
-135.2084567261805
 30
0.0
 10
105.1353569615634
 20
-135.2232706367671
 30
0.0
 10
105.1353569615634
 20
-135.2232706367671
 30
0.0
 10
105.1353569615634
 20
-135.0033012900339
 30
0.0
 10
105.1353569615634
 20
-135.0033012900339
 30
0.0
 10
105.3000325257583
 20
-135.0181152006205
 30
0.0
 10
105.5501464579874
 20
-135.0222493152027
 30
0.0
 10
105.6242160109203
 20
-135.0222493152027
 30
0.0
 10
105.6242160109203
 20
-135.0222493152027
 30
0.0
 10
106.1058403597582
 20
-135.0222493152027
 30
0.0
 10
106.1058403597582
 20
-135.0222493152027
 30
0.0
 10
106.1223768180874
 20
-135.0222493152027
 30
0.0
 10
106.4000515141986
 20
-135.0222493152027
 30
0.0
 10
106.6002115618916
 20
-135.0033012900339
 30
0.0
 10
106.6002115618916
 20
-135.0033012900339
 30
0.0
 10
106.6002115618916
 20
-135.2232706367671
 30
0.0
 10
106.6002115618916
 20
-135.2232706367671
 30
0.0
 10
106.4351914881481
 20
-135.2084567261805
 30
0.0
 10
106.2705159239532
 20
-135.2041503568239
 30
0.0
 10
106.1058403597582
 20
-135.2041503568239
 30
0.0
  0
HATCH
  5
ED
330
DE
100
AcDbEntity
  8
レイヤー 1
 62
   250
420
  2299925
440
 33554687
100
AcDbHatch
 10
0.0
 20
0.0
 30
0.0
210
0.0
220
0.0
230
1.0
  2
SOLID
 70
     1
 71
     1
 91
        2
 92
        1
 93
        1
 72
     4
 94
        3
 73
     0
 74
     0
 95
       29
 96
       25
 40
0.0
 40
0.0
 40
0.0
 40
0.0
 40
1.0
 40
1.0
 40
1.0
 40
2.0
 40
2.0
 40
2.0
 40
3.0
 40
3.0
 40
3.0
 40
4.0
 40
4.0
 40
4.0
 40
5.0
 40
5.0
 40
5.0
 40
6.0
 40
6.0
 40
6.0
 40
7.0
 40
7.0
 40
7.0
 40
8.0
 40
8.0
 40
8.0
 40
8.0
 10
106.0169568962388
 20
-134.6753281998381
 10
106.0169568962388
 20
-134.6753281998381
 10
105.7075873216634
 20
-134.6753281998381
 10
105.7075873216634
 20
-134.6753281998381
 10
105.6094021003337
 20
-134.6753281998381
 10
105.4871012106074
 20
-134.6817016264858
 10
105.3927055943115
 20
-134.6944484797812
 10
105.3927055943115
 20
-134.6944484797812
 10
105.3927055943115
 20
-134.4594929676872
 10
105.3927055943115
 20
-134.4594929676872
 10
105.4964029684176
 20
-134.4743068782737
 10
105.6576334371272
 20
-134.4786132476303
 10
105.7075873216634
 20
-134.4786132476303
 10
105.7075873216634
 20
-134.4786132476303
 10
106.0169568962388
 20
-134.4786132476303
 10
106.0169568962388
 20
-134.4786132476303
 10
106.033493354568
 20
-134.4786132476303
 10
106.2112602816069
 20
-134.4786132476303
 10
106.3352837190759
 20
-134.4594929676872
 10
106.3352837190759
 20
-134.4594929676872
 10
106.3352837190759
 20
-134.6944484797812
 10
106.3352837190759
 20
-134.6944484797812
 10
106.1981689187629
 20
-134.6753281998381
 10
106.0317708068254
 20
-134.6753281998381
 10
106.0169568962388
 20
-134.6753281998381
 97
        0
 97
        1
330
EB
 92
        1
 93
        1
 72
     4
 94
        3
 73
     0
 74
     0
 95
       47
 96
       43
 40
0.0
 40
0.0
 40
0.0
 40
0.0
 40
1.0
 40
1.0
 40
1.0
 40
2.0
 40
2.0
 40
2.0
 40
3.0
 40
3.0
 40
3.0
 40
4.0
 40
4.0
 40
4.0
 40
5.0
 40
5.0
 40
5.0
 40
6.0
 40
6.0
 40
6.0
 40
7.0
 40
7.0
 40
7.0
 40
8.0
 40
8.0
 40
8.0
 40
9.0
 40
9.0
 40
9.0
 40
10.0
 40
10.0
 40
10.0
 40
11.0
 40
11.0
 40
11.0
 40
12.0
 40
12.0
 40
12.0
 40
13.0
 40
13.0
 40
13.0
 40
14.0
 40
14.0
 40
14.0
 40
14.0
 10
106.1058403597582
 20
-135.2041503568239
 10
106.1058403597582
 20
-135.2041503568239
 10
106.0169568962388
 20
-135.2041503568239
 10
106.0169568962388
 20
-135.2041503568239
 10
106.0169568962388
 20
-135.2909667630523
 10
105.9983533806184
 20
-135.6802625528855
 10
105.826098606356
 20
-135.9002318996187
 10
105.6927734110768
 20
-136.0693860879444
 10
105.5112168790041
 20
-136.139321526295
 10
105.4371473260713
 20
-136.1667100354028
 10
105.4371473260713
 20
-136.1667100354028
 10
105.2669596090999
 20
-135.9996229043681
 10
105.2669596090999
 20
-135.9996229043681
 10
105.3520534675856
 20
-135.9868760510727
 10
105.5057047262277
 20
-135.9636216565473
 10
105.6707247999712
 20
-135.7753471882784
 10
105.7354925950939
 20
-135.7035169474109
 10
105.826098606356
 20
-135.563818325484
 10
105.826098606356
 20
-135.2041503568239
 10
105.826098606356
 20
-135.2041503568239
 10
105.6242160109203
 20
-135.2041503568239
 10
105.6242160109203
 20
-135.2041503568239
 10
105.461262994468
 20
-135.2041503568239
 10
105.2983099780157
 20
-135.2084567261805
 10
105.1353569615634
 20
-135.2232706367671
 10
105.1353569615634
 20
-135.2232706367671
 10
105.1353569615634
 20
-135.0033012900339
 10
105.1353569615634
 20
-135.0033012900339
 10
105.3000325257583
 20
-135.0181152006205
 10
105.5501464579874
 20
-135.0222493152027
 10
105.6242160109203
 20
-135.0222493152027
 10
105.6242160109203
 20
-135.0222493152027
 10
106.1058403597582
 20
-135.0222493152027
 10
106.1058403597582
 20
-135.0222493152027
 10
106.1223768180874
 20
-135.0222493152027
 10
106.4000515141986
 20
-135.0222493152027
 10
106.6002115618916
 20
-135.0033012900339
 10
106.6002115618916
 20
-135.0033012900339
 10
106.6002115618916
 20
-135.2232706367671
 10
106.6002115618916
 20
-135.2232706367671
 10
106.4351914881481
 20
-135.2084567261805
 10
106.2705159239532
 20
-135.2041503568239
 10
106.1058403597582
 20
-135.2041503568239
 97
        0
 97
        1
330
EC
 75
     2
 76
     1
 98
        1
 10
0.0
 20
0.0
450
        0
451
        0
460
0.0
461
0.0
452
        0
462
0.0
453
        0
470

  0
SPLINE
  5
EE
330
DE
100
AcDbEntity
  8
レイヤー 1
100
AcDbSpline
210
0.0
220
0.0
230
1.0
 70
     9
 71
     3
 72
    29
 73
    25
 74
     0
 42
0.0000000001
 43
0.0000000001
 40
0.0
 40
0.0
 40
0.0
 40
0.0
 40
1.0
 40
1.0
 40
1.0
 40
2.0
 40
2.0
 40
2.0
 40
3.0
 40
3.0
 40
3.0
 40
4.0
 40
4.0
 40
4.0
 40
5.0
 40
5.0
 40
5.0
 40
6.0
 40
6.0
 40
6.0
 40
7.0
 40
7.0
 40
7.0
 40
8.0
 40
8.0
 40
8.0
 40
8.0
 10
107.722623670986
 20
-135.3671033732763
 30
0.0
 10
107.722623670986
 20
-135.3671033732763
 30
0.0
 10
107.2985324167517
 20
-135.3671033732763
 30
0.0
 10
107.2985324167517
 20
-135.3671033732763
 30
0.0
 10
107.274416748355
 20
-135.3671033732763
 30
0.0
 10
106.9963975426953
 20
-135.3671033732763
 30
0.0
 10
106.8113959151374
 20
-135.3924248250928
 30
0.0
 10
106.8113959151374
 20
-135.3924248250928
 30
0.0
 10
106.8113959151374
 20
-135.1619479371297
 30
0.0
 10
106.8113959151374
 20
-135.1619479371297
 30
0.0
 10
106.950233263193
 20
-135.1852023316551
 30
0.0
 10
107.1169758846791
 20
-135.1872693889462
 30
0.0
 10
107.2985324167517
 20
-135.1872693889462
 30
0.0
 10
107.2985324167517
 20
-135.1872693889462
 30
0.0
 10
107.722623670986
 20
-135.1872693889462
 30
0.0
 10
107.722623670986
 20
-135.1872693889462
 30
0.0
 10
107.8852321778898
 20
-135.1872693889462
 30
0.0
 10
108.0485297038906
 20
-135.1852023316551
 30
0.0
 10
108.2094156630518
 20
-135.1619479371297
 30
0.0
 10
108.2094156630518
 20
-135.1619479371297
 30
0.0
 10
108.2094156630518
 20
-135.3924248250928
 30
0.0
 10
108.2094156630518
 20
-135.3924248250928
 30
0.0
 10
108.0485297038906
 20
-135.3691704305674
 30
0.0
 10
107.8318331978684
 20
-135.3671033732763
 30
0.0
 10
107.722623670986
 20
-135.3671033732763
 30
0.0
  0
HATCH
  5
EF
330
DE
100
AcDbEntity
  8
レイヤー 1
 62
   250
420
  2299925
440
 33554687
100
AcDbHatch
 10
0.0
 20
0.0
 30
0.0
210
0.0
220
0.0
230
1.0
  2
SOLID
 70
     1
 71
     1
 91
        1
 92
        1
 93
        1
 72
     4
 94
        3
 73
     0
 74
     0
 95
       29
 96
       25
 40
0.0
 40
0.0
 40
0.0
 40
0.0
 40
1.0
 40
1.0
 40
1.0
 40
2.0
 40
2.0
 40
2.0
 40
3.0
 40
3.0
 40
3.0
 40
4.0
 40
4.0
 40
4.0
 40
5.0
 40
5.0
 40
5.0
 40
6.0
 40
6.0
 40
6.0
 40
7.0
 40
7.0
 40
7.0
 40
8.0
 40
8.0
 40
8.0
 40
8.0
 10
107.722623670986
 20
-135.3671033732763
 10
107.722623670986
 20
-135.3671033732763
 10
107.2985324167517
 20
-135.3671033732763
 10
107.2985324167517
 20
-135.3671033732763
 10
107.274416748355
 20
-135.3671033732763
 10
106.9963975426953
 20
-135.3671033732763
 10
106.8113959151374
 20
-135.3924248250928
 10
106.8113959151374
 20
-135.3924248250928
 10
106.8113959151374
 20
-135.1619479371297
 10
106.8113959151374
 20
-135.1619479371297
 10
106.950233263193
 20
-135.1852023316551
 10
107.1169758846791
 20
-135.1872693889462
 10
107.2985324167517
 20
-135.1872693889462
 10
107.2985324167517
 20
-135.1872693889462
 10
107.722623670986
 20
-135.1872693889462
 10
107.722623670986
 20
-135.1872693889462
 10
107.8852321778898
 20
-135.1872693889462
 10
108.0485297038906
 20
-135.1852023316551
 10
108.2094156630518
 20
-135.1619479371297
 10
108.2094156630518
 20
-135.1619479371297
 10
108.2094156630518
 20
-135.3924248250928
 10
108.2094156630518
 20
-135.3924248250928
 10
108.0485297038906
 20
-135.3691704305674
 10
107.8318331978684
 20
-135.3671033732763
 10
107.722623670986
 20
-135.3671033732763
 97
        0
 97
        1
330
EE
 75
     2
 76
     1
 98
        1
 10
0.0
 20
0.0
450
        0
451
        0
460
0.0
461
0.0
452
        0
462
0.0
453
        0
470

  0
SPLINE
  5
F0
330
DE
100
AcDbEntity
  8
レイヤー 1
100
AcDbSpline
210
0.0
220
0.0
230
1.0
 70
     9
 71
     3
 72
    17
 73
    13
 74
     0
 42
0.0000000001
 43
0.0000000001
 40
0.0
 40
0.0
 40
0.0
 40
0.0
 40
1.0
 40
1.0
 40
1.0
 40
2.0
 40
2.0
 40
2.0
 40
3.0
 40
3.0
 40
3.0
 40
4.0
 40
4.0
 40
4.0
 40
4.0
 10
109.8410128848661
 20
-134.4002373253409
 30
0.0
 10
109.7927815480726
 20
-134.4002373253409
 30
0.0
 10
109.7538519690893
 20
-134.4446790571006
 30
0.0
 10
109.7538519690893
 20
-134.4998005848646
 30
0.0
 10
109.7538519690893
 20
-134.5568169151455
 30
0.0
 10
109.7927815480726
 20
-134.6055650162618
 30
0.0
 10
109.8448024898999
 20
-134.6055650162618
 30
0.0
 10
109.8964789221786
 20
-134.6055650162618
 30
0.0
 10
109.9316188961282
 20
-134.5547498578544
 30
0.0
 10
109.9316188961282
 20
-134.5018676421558
 30
0.0
 10
109.9316188961282
 20
-134.4446790571006
 30
0.0
 10
109.8909667694022
 20
-134.4002373253409
 30
0.0
 10
109.8410128848661
 20
-134.4002373253409
 30
0.0
  0
SPLINE
  5
F1
330
DE
100
AcDbEntity
  8
レイヤー 1
100
AcDbSpline
210
0.0
220
0.0
230
1.0
 70
     9
 71
     3
 72
    17
 73
    13
 74
     0
 42
0.0000000001
 43
0.0000000001
 40
0.0
 40
0.0
 40
0.0
 40
0.0
 40
1.0
 40
1.0
 40
1.0
 40
2.0
 40
2.0
 40
2.0
 40
3.0
 40
3.0
 40
3.0
 40
4.0
 40
4.0
 40
4.0
 40
4.0
 10
109.8427354326087
 20
-134.7302774728278
 30
0.0
 10
109.7318033579837
 20
-134.7302774728278
 30
0.0
 10
109.6429198944642
 20
-134.6288194107872
 30
0.0
 10
109.6429198944642
 20
-134.5018676421558
 30
0.0
 10
109.6429198944642
 20
-134.3749158735243
 30
0.0
 10
109.7318033579837
 20
-134.2712184994183
 30
0.0
 10
109.8427354326087
 20
-134.2712184994183
 30
0.0
 10
109.9540120167823
 20
-134.2712184994183
 30
0.0
 10
110.0446180280444
 20
-134.3749158735243
 30
0.0
 10
110.0446180280444
 20
-134.5018676421558
 30
0.0
 10
110.0446180280444
 20
-134.6288194107872
 30
0.0
 10
109.9540120167823
 20
-134.7302774728278
 30
0.0
 10
109.8427354326087
 20
-134.7302774728278
 30
0.0
  0
SPLINE
  5
F2
330
DE
100
AcDbEntity
  8
レイヤー 1
100
AcDbSpline
210
0.0
220
0.0
230
1.0
 70
     9
 71
     3
 72
    44
 73
    40
 74
     0
 42
0.0000000001
 43
0.0000000001
 40
0.0
 40
0.0
 40
0.0
 40
0.0
 40
1.0
 40
1.0
 40
1.0
 40
2.0
 40
2.0
 40
2.0
 40
3.0
 40
3.0
 40
3.0
 40
4.0
 40
4.0
 40
4.0
 40
5.0
 40
5.0
 40
5.0
 40
6.0
 40
6.0
 40
6.0
 40
7.0
 40
7.0
 40
7.0
 40
8.0
 40
8.0
 40
8.0
 40
9.0
 40
9.0
 40
9.0
 40
10.0
 40
10.0
 40
10.0
 40
11.0
 40
11.0
 40
11.0
 40
12.0
 40
12.0
 40
12.0
 40
13.0
 40
13.0
 40
13.0
 40
13.0
 10
109.6594563527935
 20
-134.929231737101
 30
0.0
 10
109.5612711314638
 20
-135.2973401897
 30
0.0
 10
109.5168293997041
 20
-135.4559868367957
 30
0.0
 10
109.3445746254416
 20
-135.705584004702
 30
0.0
 10
109.1836886662804
 20
-135.9362331474395
 30
0.0
 10
108.9762939180684
 20
-136.122268303643
 30
0.0
 10
108.7316921386157
 20
-136.215458136519
 30
0.0
 10
108.7316921386157
 20
-136.215458136519
 30
0.0
 10
108.563226969387
 20
-136.035624152189
 30
0.0
 10
108.563226969387
 20
-136.035624152189
 30
0.0
 10
109.1244330239341
 20
-135.8833509317409
 30
0.0
 10
109.4131320255981
 20
-135.3269680108731
 30
0.0
 10
109.4685980629106
 20
-134.8868570626324
 30
0.0
 10
109.4685980629106
 20
-134.8868570626324
 30
0.0
 10
108.7985269910295
 20
-134.8868570626324
 30
0.0
 10
108.7985269910295
 20
-134.8868570626324
 30
0.0
 10
108.7168782280291
 20
-134.8868570626324
 30
0.0
 10
108.5559922688679
 20
-134.891163431989
 30
0.0
 10
108.418877468555
 20
-134.9101114571578
 30
0.0
 10
108.418877468555
 20
-134.9101114571578
 30
0.0
 10
108.418877468555
 20
-134.6901421104247
 30
0.0
 10
108.418877468555
 20
-134.6901421104247
 30
0.0
 10
108.4946695692305
 20
-134.711329447659
 30
0.0
 10
108.7151556802865
 20
-134.711329447659
 30
0.0
 10
108.8023165960633
 20
-134.711329447659
 30
0.0
 10
108.8023165960633
 20
-134.711329447659
 30
0.0
 10
109.1798990612467
 20
-134.711329447659
 30
0.0
 10
109.1798990612467
 20
-134.711329447659
 30
0.0
 10
109.2171060924874
 20
-134.711329447659
 30
0.0
 10
109.4224337834083
 20
-134.7090901355935
 30
0.0
 10
109.4558512096152
 20
-134.7028889637201
 30
0.0
 10
109.4927137313074
 20
-134.6965155370724
 30
0.0
 10
109.4947807885985
 20
-134.6944484797812
 30
0.0
 10
109.5485242781684
 20
-134.6541408626038
 30
0.0
 10
109.5485242781684
 20
-134.6541408626038
 30
0.0
 10
109.7131998423633
 20
-134.8086533951173
 30
0.0
 10
109.7131998423633
 20
-134.8086533951173
 30
0.0
 10
109.687361626224
 20
-134.8382812162904
 30
0.0
 10
109.67427026338
 20
-134.8699760947547
 30
0.0
 10
109.6594563527935
 20
-134.929231737101
 30
0.0
  0
HATCH
  5
F3
330
DE
100
AcDbEntity
  8
レイヤー 1
 62
   250
420
  2299925
440
 33554687
100
AcDbHatch
 10
0.0
 20
0.0
 30
0.0
210
0.0
220
0.0
230
1.0
  2
SOLID
 70
     1
 71
     1
 91
        3
 92
        1
 93
        1
 72
     4
 94
        3
 73
     0
 74
     0
 95
       17
 96
       13
 40
0.0
 40
0.0
 40
0.0
 40
0.0
 40
1.0
 40
1.0
 40
1.0
 40
2.0
 40
2.0
 40
2.0
 40
3.0
 40
3.0
 40
3.0
 40
4.0
 40
4.0
 40
4.0
 40
4.0
 10
109.8410128848661
 20
-134.4002373253409
 10
109.7927815480726
 20
-134.4002373253409
 10
109.7538519690893
 20
-134.4446790571006
 10
109.7538519690893
 20
-134.4998005848646
 10
109.7538519690893
 20
-134.5568169151455
 10
109.7927815480726
 20
-134.6055650162618
 10
109.8448024898999
 20
-134.6055650162618
 10
109.8964789221786
 20
-134.6055650162618
 10
109.9316188961282
 20
-134.5547498578544
 10
109.9316188961282
 20
-134.5018676421558
 10
109.9316188961282
 20
-134.4446790571006
 10
109.8909667694022
 20
-134.4002373253409
 10
109.8410128848661
 20
-134.4002373253409
 97
        0
 97
        1
330
F0
 92
        1
 93
        1
 72
     4
 94
        3
 73
     0
 74
     0
 95
       17
 96
       13
 40
0.0
 40
0.0
 40
0.0
 40
0.0
 40
1.0
 40
1.0
 40
1.0
 40
2.0
 40
2.0
 40
2.0
 40
3.0
 40
3.0
 40
3.0
 40
4.0
 40
4.0
 40
4.0
 40
4.0
 10
109.8427354326087
 20
-134.7302774728278
 10
109.7318033579837
 20
-134.7302774728278
 10
109.6429198944642
 20
-134.6288194107872
 10
109.6429198944642
 20
-134.5018676421558
 10
109.6429198944642
 20
-134.3749158735243
 10
109.7318033579837
 20
-134.2712184994183
 10
109.8427354326087
 20
-134.2712184994183
 10
109.9540120167823
 20
-134.2712184994183
 10
110.0446180280444
 20
-134.3749158735243
 10
110.0446180280444
 20
-134.5018676421558
 10
110.0446180280444
 20
-134.6288194107872
 10
109.9540120167823
 20
-134.7302774728278
 10
109.8427354326087
 20
-134.7302774728278
 97
        0
 97
        1
330
F1
 92
        1
 93
        1
 72
     4
 94
        3
 73
     0
 74
     0
 95
       44
 96
       40
 40
0.0
 40
0.0
 40
0.0
 40
0.0
 40
1.0
 40
1.0
 40
1.0
 40
2.0
 40
2.0
 40
2.0
 40
3.0
 40
3.0
 40
3.0
 40
4.0
 40
4.0
 40
4.0
 40
5.0
 40
5.0
 40
5.0
 40
6.0
 40
6.0
 40
6.0
 40
7.0
 40
7.0
 40
7.0
 40
8.0
 40
8.0
 40
8.0
 40
9.0
 40
9.0
 40
9.0
 40
10.0
 40
10.0
 40
10.0
 40
11.0
 40
11.0
 40
11.0
 40
12.0
 40
12.0
 40
12.0
 40
13.0
 40
13.0
 40
13.0
 40
13.0
 10
109.6594563527935
 20
-134.929231737101
 10
109.5612711314638
 20
-135.2973401897
 10
109.5168293997041
 20
-135.4559868367957
 10
109.3445746254416
 20
-135.705584004702
 10
109.1836886662804
 20
-135.9362331474395
 10
108.9762939180684
 20
-136.122268303643
 10
108.7316921386157
 20
-136.215458136519
 10
108.7316921386157
 20
-136.215458136519
 10
108.563226969387
 20
-136.035624152189
 10
108.563226969387
 20
-136.035624152189
 10
109.1244330239341
 20
-135.8833509317409
 10
109.4131320255981
 20
-135.3269680108731
 10
109.4685980629106
 20
-134.8868570626324
 10
109.4685980629106
 20
-134.8868570626324
 10
108.7985269910295
 20
-134.8868570626324
 10
108.7985269910295
 20
-134.8868570626324
 10
108.7168782280291
 20
-134.8868570626324
 10
108.5559922688679
 20
-134.891163431989
 10
108.418877468555
 20
-134.9101114571578
 10
108.418877468555
 20
-134.9101114571578
 10
108.418877468555
 20
-134.6901421104247
 10
108.418877468555
 20
-134.6901421104247
 10
108.4946695692305
 20
-134.711329447659
 10
108.7151556802865
 20
-134.711329447659
 10
108.8023165960633
 20
-134.711329447659
 10
108.8023165960633
 20
-134.711329447659
 10
109.1798990612467
 20
-134.711329447659
 10
109.1798990612467
 20
-134.711329447659
 10
109.2171060924874
 20
-134.711329447659
 10
109.4224337834083
 20
-134.7090901355935
 10
109.4558512096152
 20
-134.7028889637201
 10
109.4927137313074
 20
-134.6965155370724
 10
109.4947807885985
 20
-134.6944484797812
 10
109.5485242781684
 20
-134.6541408626038
 10
109.5485242781684
 20
-134.6541408626038
 10
109.7131998423633
 20
-134.8086533951173
 10
109.7131998423633
 20
-134.8086533951173
 10
109.687361626224
 20
-134.8382812162904
 10
109.67427026338
 20
-134.8699760947547
 10
109.6594563527935
 20
-134.929231737101
 97
        0
 97
        1
330
F2
 75
     2
 76
     1
 98
        1
 10
0.0
 20
0.0
450
        0
451
        0
460
0.0
461
0.0
452
        0
462
0.0
453
        0
470

  0
ENDBLK
  5
E1
330
DE
100
AcDbEntity
  8
0
100
AcDbBlockEnd
  0
BLOCK
  5
105
330
103
100
AcDbEntity
  8
0
100
AcDbBlockBegin
  2
Block_12
 70
     0
 10
0.0
 20
0.0
 30
0.0
  3
Block_12
  1

  0
ELLIPSE
  5
107
330
103
100
AcDbEntity
  8
レイヤー 1
 62
   250
420
  2299925
370
     9
100
AcDbEllipse
 10
129.8021034590144
 20
-162.1071972452131
 30
0.0
 11
0.6342900430746964
 21
0.0
 31
0.0
210
0.0
220
0.0
230
1.0
 40
0.4451720467925956
 41
0.0
 42
6.283185307179585
  0
ELLIPSE
  5
108
330
103
100
AcDbEntity
  8
レイヤー 1
 62
   250
420
  2299925
370
     9
100
AcDbEllipse
 10
127.3377931854204
 20
-162.1071972431108
 30
0.0
 11
0.6642752338330272
 21
0.0
 31
0.0
210
0.0
220
0.0
230
1.0
 40
0.4250771101406177
 41
0.0
 42
6.283185307179585
  0
ELLIPSE
  5
109
330
103
100
AcDbEntity
  8
レイヤー 1
 62
   250
420
  2299925
370
     9
100
AcDbEllipse
 10
132.2597850473318
 20
-162.1071972473153
 30
0.0
 11
0.5962563763081281
 21
0.0
 31
0.0
210
0.0
220
0.0
230
1.0
 40
0.4735684312243003
 41
0.0
 42
6.283185307179585
  0
ENDBLK
  5
106
330
103
100
AcDbEntity
  8
0
100
AcDbBlockEnd
  0
BLOCK
  5
10C
330
10A
100
AcDbEntity
  8
0
100
AcDbBlockBegin
  2
Block_13
 70
     0
 10
0.0
 20
0.0
 30
0.0
  3
Block_13
  1

  0
ELLIPSE
  5
10E
330
10A
100
AcDbEntity
  8
レイヤー 1
 62
   250
420
  2299925
370
     9
100
AcDbEllipse
 10
130.8938906668286
 20
-160.9850161324619
 30
0.0
 11
0.6342900430750173
 21
0.0
 31
0.0
210
0.0
220
0.0
230
1.0
 40
0.4451720467923705
 41
0.0
 42
6.283185307179585
  0
ELLIPSE
  5
10F
330
10A
100
AcDbEntity
  8
レイヤー 1
 62
   250
420
  2299925
370
     9
100
AcDbEllipse
 10
128.4295803932341
 20
-160.9850161303597
 30
0.0
 11
0.6642752338328667
 21
0.0
 31
0.0
210
0.0
220
0.0
230
1.0
 40
0.4250771101407203
 41
0.0
 42
6.283185307179585
  0
ELLIPSE
  5
110
330
10A
100
AcDbEntity
  8
レイヤー 1
 62
   250
420
  2299925
370
     9
100
AcDbEllipse
 10
133.3515722551462
 20
-160.9850161345654
 30
0.0
 11
0.5962563763081281
 21
0.0
 31
0.0
210
0.0
220
0.0
230
1.0
 40
0.4735684312243003
 41
0.0
 42
6.283185307179585
  0
ENDBLK
  5
10D
330
10A
100
AcDbEntity
  8
0
100
AcDbBlockEnd
  0
BLOCK
  5
113
330
111
100
AcDbEntity
  8
0
100
AcDbBlockBegin
  2
Block_14
 70
     0
 10
0.0
 20
0.0
 30
0.0
  3
Block_14
  1

  0
ELLIPSE
  5
115
330
111
100
AcDbEntity
  8
レイヤー 1
 62
   250
420
  2299925
370
     9
100
AcDbEllipse
 10
132.049388184837
 20
-159.8666157312938
 30
0.0
 11
0.634290043074536
 21
0.0
 31
0.0
210
0.0
220
0.0
230
1.0
 40
0.4451720467927082
 41
0.0
 42
6.283185307179585
  0
ELLIPSE
  5
116
330
111
100
AcDbEntity
  8
レイヤー 1
 62
   250
420
  2299925
370
     9
100
AcDbEllipse
 10
129.5850779112432
 20
-159.8666157291916
 30
0.0
 11
0.6642752338330272
 21
0.0
 31
0.0
210
0.0
220
0.0
230
1.0
 40
0.4250771101406177
 41
0.0
 42
6.283185307179585
  0
ELLIPSE
  5
117
330
111
100
AcDbEntity
  8
レイヤー 1
 62
   250
420
  2299925
370
     9
100
AcDbEllipse
 10
134.5070697731546
 20
-159.866615733396
 30
0.0
 11
0.5962563763081281
 21
0.0
 31
0.0
210
0.0
220
0.0
230
1.0
 40
0.4735684312243003
 41
0.0
 42
6.283185307179585
  0
ENDBLK
  5
114
330
111
100
AcDbEntity
  8
0
100
AcDbBlockEnd
  0
BLOCK
  5
11A
330
118
100
AcDbEntity
  8
0
100
AcDbBlockBegin
  2
Block_15
 70
     0
 10
0.0
 20
0.0
 30
0.0
  3
Block_15
  1

  0
ELLIPSE
  5
11C
330
118
100
AcDbEntity
  8
レイヤー 1
 62
   250
420
  2299925
370
     9
100
AcDbEllipse
 10
133.0432792458266
 20
-158.7920381527104
 30
0.0
 11
0.6342900430746964
 21
0.0
 31
0.0
210
0.0
220
0.0
230
1.0
 40
0.4451720467925956
 41
0.0
 42
6.283185307179585
  0
ELLIPSE
  5
11D
330
118
100
AcDbEntity
  8
レイヤー 1
 62
   250
420
  2299925
370
     9
100
AcDbEllipse
 10
130.5789689722327
 20
-158.7920381506069
 30
0.0
 11
0.6642752338325458
 21
0.0
 31
0.0
210
0.0
220
0.0
230
1.0
 40
0.4250771101409257
 41
0.0
 42
6.283185307179585
  0
ELLIPSE
  5
11E
330
118
100
AcDbEntity
  8
レイヤー 1
 62
   250
420
  2299925
370
     9
100
AcDbEllipse
 10
135.500960834144
 20
-158.7920381548126
 30
0.0
 11
0.5962563763081281
 21
0.0
 31
0.0
210
0.0
220
0.0
230
1.0
 40
0.4735684312243003
 41
0.0
 42
6.283185307179585
  0
ENDBLK
  5
11B
330
118
100
AcDbEntity
  8
0
100
AcDbBlockEnd
  0
BLOCK
  5
121
330
11F
100
AcDbEntity
  8
0
100
AcDbBlockBegin
  2
Block_16
 70
     0
 10
0.0
 20
0.0
 30
0.0
  3
Block_16
  1

  0
ELLIPSE
  5
123
330
11F
100
AcDbEntity
  8
レイヤー 1
 62
   250
420
  2299925
370
     9
100
AcDbEllipse
 10
134.1865588369918
 20
-157.7011609200153
 30
0.0
 11
0.6342900430746964
 21
0.0
 31
0.0
210
0.0
220
0.0
230
1.0
 40
0.4451720467925956
 41
0.0
 42
6.283185307179585
  0
ELLIPSE
  5
124
330
11F
100
AcDbEntity
  8
レイヤー 1
 62
   250
420
  2299925
370
     9
100
AcDbEllipse
 10
131.722248563398
 20
-157.7011609179118
 30
0.0
 11
0.6642752338325458
 21
0.0
 31
0.0
210
0.0
220
0.0
230
1.0
 40
0.4250771101409257
 41
0.0
 42
6.283185307179585
  0
ELLIPSE
  5
125
330
11F
100
AcDbEntity
  8
レイヤー 1
 62
   250
420
  2299925
370
     9
100
AcDbEllipse
 10
136.6442404253092
 20
-157.7011609221175
 30
0.0
 11
0.5962563763081281
 21
0.0
 31
0.0
210
0.0
220
0.0
230
1.0
 40
0.4735684312243003
 41
0.0
 42
6.283185307179585
  0
ENDBLK
  5
122
330
11F
100
AcDbEntity
  8
0
100
AcDbBlockEnd
  0
BLOCK
  5
128
330
126
100
AcDbEntity
  8
0
100
AcDbBlockBegin
  2
Block_17
 70
     0
 10
0.0
 20
0.0
 30
0.0
  3
Block_17
  1

  0
ELLIPSE
  5
12A
330
126
100
AcDbEntity
  8
レイヤー 1
 62
   250
420
  2299925
370
     9
100
AcDbEllipse
 10
135.0986770440468
 20
-156.6409773408897
 30
0.0
 11
0.6342900430750173
 21
0.0
 31
0.0
210
0.0
220
0.0
230
1.0
 40
0.4451720467923705
 41
0.0
 42
6.283185307179585
  0
ELLIPSE
  5
12B
330
126
100
AcDbEntity
  8
レイヤー 1
 62
   250
420
  2299925
370
     9
100
AcDbEllipse
 10
132.6343667704523
 20
-156.6409773387875
 30
0.0
 11
0.6642752338328667
 21
0.0
 31
0.0
210
0.0
220
0.0
230
1.0
 40
0.4250771101407203
 41
0.0
 42
6.283185307179585
  0
ELLIPSE
  5
12C
330
126
100
AcDbEntity
  8
レイヤー 1
 62
   250
420
  2299925
370
     9
100
AcDbEllipse
 10
137.4883044592228
 20
-156.6409773613882
 30
0.0
 11
0.5962563763081281
 21
0.0
 31
0.0
210
0.0
220
0.0
230
1.0
 40
0.4735684312243003
 41
0.0
 42
6.283185307179585
  0
ENDBLK
  5
129
330
126
100
AcDbEntity
  8
0
100
AcDbBlockEnd
  0
BLOCK
  5
12F
330
12D
100
AcDbEntity
  8
0
100
AcDbBlockBegin
  2
Block_18
 70
     0
 10
0.0
 20
0.0
 30
0.0
  3
Block_18
  1

  0
ELLIPSE
  5
131
330
12D
100
AcDbEntity
  8
レイヤー 1
 62
   250
420
  2299925
370
     9
100
AcDbEllipse
 10
135.8365010986757
 20
-155.5089653693519
 30
0.0
 11
0.634290043074536
 21
0.0
 31
0.0
210
0.0
220
0.0
230
1.0
 40
0.4451720467927082
 41
0.0
 42
6.283185307179585
  0
ELLIPSE
  5
132
330
12D
100
AcDbEntity
  8
レイヤー 1
 62
   250
420
  2299925
370
     9
100
AcDbEllipse
 10
133.5757706126364
 20
-155.5877536580475
 30
0.0
 11
0.6642752338322249
 21
0.0
 31
0.0
210
0.0
220
0.0
230
1.0
 40
0.4250771101411309
 41
0.0
 42
6.283185307179585
  0
ELLIPSE
  5
133
330
12D
100
AcDbEntity
  8
レイヤー 1
 62
   250
420
  2299925
370
     9
100
AcDbEllipse
 10
138.2941826870254
 20
-155.5877536622532
 30
0.0
 11
0.5962563763081281
 21
0.0
 31
0.0
210
0.0
220
0.0
230
1.0
 40
0.4735684312243003
 41
0.0
 42
6.283185307179585
  0
ENDBLK
  5
130
330
12D
100
AcDbEntity
  8
0
100
AcDbBlockEnd
  0
BLOCK
  5
136
330
134
100
AcDbEntity
  8
0
100
AcDbBlockBegin
  2
Block_19
 70
     0
 10
0.0
 20
0.0
 30
0.0
  3
Block_19
  1

  0
ELLIPSE
  5
138
330
134
100
AcDbEntity
  8
レイヤー 1
 62
   250
420
  2299925
370
     9
100
AcDbEllipse
 10
122.548953120349
 20
-156.9887854054415
 30
0.0
 11
0.0
 21
0.5678814326467892
 31
0.0
210
0.0
220
0.0
230
1.0
 40
0.7043723628640768
 41
0.0
 42
6.283185307179586
  0
ELLIPSE
  5
139
330
134
100
AcDbEntity
  8
レイヤー 1
 62
   250
420
  2299925
370
     9
100
AcDbEllipse
 10
122.5260709719912
 20
-154.7458204545767
 30
0.0
 11
0.0
 21
0.5530010815244351
 31
0.0
210
0.0
220
0.0
230
1.0
 40
0.7233258666286023
 41
0.0
 42
6.283185307179586
  0
ELLIPSE
  5
13A
330
134
100
AcDbEntity
  8
レイヤー 1
 62
   250
420
  2299925
370
     9
100
AcDbEllipse
 10
122.5054010833491
 20
-152.6500677410198
 30
0.0
 11
0.0
 21
0.5654933779162775
 31
0.0
210
0.0
220
0.0
230
1.0
 40
0.7073468977021994
 41
0.0
 42
6.283185307179586
  0
ENDBLK
  5
137
330
134
100
AcDbEntity
  8
0
100
AcDbBlockEnd
  0
BLOCK
  5
13D
330
13B
100
AcDbEntity
  8
0
100
AcDbBlockBegin
  2
Block_20
 70
     0
 10
0.0
 20
0.0
 30
0.0
  3
Block_20
  1

  0
ELLIPSE
  5
13F
330
13B
100
AcDbEntity
  8
レイヤー 1
 62
   250
420
  2299925
370
     9
100
AcDbEllipse
 10
123.8990108162314
 20
-155.9467277083349
 30
0.0
 11
0.0
 21
0.5678814326467892
 31
0.0
210
0.0
220
0.0
230
1.0
 40
0.7043723628640768
 41
0.0
 42
6.283185307179586
  0
ELLIPSE
  5
140
330
13B
100
AcDbEntity
  8
レイヤー 1
 62
   250
420
  2299925
370
     9
100
AcDbEllipse
 10
123.8761286678736
 20
-153.7037627574698
 30
0.0
 11
0.0
 21
0.5530010815253977
 31
0.0
210
0.0
220
0.0
230
1.0
 40
0.7233258666273433
 41
0.0
 42
6.283185307179586
  0
ELLIPSE
  5
141
330
13B
100
AcDbEntity
  8
レイヤー 1
 62
   250
420
  2299925
370
     9
100
AcDbEllipse
 10
123.8554587792315
 20
-151.6080100439129
 30
0.0
 11
0.0
 21
0.5654933779165983
 31
0.0
210
0.0
220
0.0
230
1.0
 40
0.7073468977017982
 41
0.0
 42
6.283185307179586
  0
ENDBLK
  5
13E
330
13B
100
AcDbEntity
  8
0
100
AcDbBlockEnd
  0
BLOCK
  5
144
330
142
100
AcDbEntity
  8
0
100
AcDbBlockBegin
  2
Block_21
 70
     0
 10
0.0
 20
0.0
 30
0.0
  3
Block_21
  1

  0
ELLIPSE
  5
146
330
142
100
AcDbEntity
  8
レイヤー 1
 62
   250
420
  2299925
370
     9
100
AcDbEllipse
 10
125.0513260849899
 20
-154.7944124395771
 30
0.0
 11
0.0
 21
0.56788143264711
 31
0.0
210
0.0
220
0.0
230
1.0
 40
0.7043723628631139
 41
0.0
 42
6.283185307179586
  0
ELLIPSE
  5
147
330
142
100
AcDbEntity
  8
レイヤー 1
 62
   250
420
  2299925
370
     9
100
AcDbEllipse
 10
125.0284439366316
 20
-152.551447488712
 30
0.0
 11
0.0
 21
0.5530010815250767
 31
0.0
210
0.0
220
0.0
230
1.0
 40
0.7233258666274729
 41
0.0
 42
6.283185307179586
  0
ELLIPSE
  5
148
330
142
100
AcDbEntity
  8
レイヤー 1
 62
   250
420
  2299925
370
     9
100
AcDbEllipse
 10
125.0077740479895
 20
-150.4556947751544
 30
0.0
 11
0.0
 21
0.5654933779162775
 31
0.0
210
0.0
220
0.0
230
1.0
 40
0.7073468977019158
 41
0.0
 42
6.283185307179586
  0
ENDBLK
  5
145
330
142
100
AcDbEntity
  8
0
100
AcDbBlockEnd
  0
BLOCK
  5
14B
330
149
100
AcDbEntity
  8
0
100
AcDbBlockBegin
  2
Block_22
 70
     0
 10
0.0
 20
0.0
 30
0.0
  3
Block_22
  1

  0
ELLIPSE
  5
14D
330
149
100
AcDbEntity
  8
レイヤー 1
 62
   250
420
  2299925
370
     9
100
AcDbEllipse
 10
126.2106244008078
 20
-153.6351141237587
 30
0.0
 11
0.0
 21
0.5678814326469496
 31
0.0
210
0.0
220
0.0
230
1.0
 40
0.7043723628644428
 41
0.0
 42
6.283185307179586
  0
ELLIPSE
  5
14E
330
149
100
AcDbEntity
  8
レイヤー 1
 62
   250
420
  2299925
370
     9
100
AcDbEllipse
 10
126.1877422524499
 20
-151.3921491728934
 30
0.0
 11
0.0
 21
0.5530010815250767
 31
0.0
210
0.0
220
0.0
230
1.0
 40
0.7233258666268928
 41
0.0
 42
6.283185307179586
  0
ELLIPSE
  5
14F
330
149
100
AcDbEntity
  8
レイヤー 1
 62
   250
420
  2299925
370
     9
100
AcDbEllipse
 10
126.1670723638077
 20
-149.2963964593368
 30
0.0
 11
0.0
 21
0.5654933779166786
 31
0.0
210
0.0
220
0.0
230
1.0
 40
0.7073468977008466
 41
0.0
 42
6.283185307179586
  0
ENDBLK
  5
14C
330
149
100
AcDbEntity
  8
0
100
AcDbBlockEnd
  0
BLOCK
  5
152
330
150
100
AcDbEntity
  8
0
100
AcDbBlockBegin
  2
Block_23
 70
     0
 10
0.0
 20
0.0
 30
0.0
  3
Block_23
  1

  0
ELLIPSE
  5
154
330
150
100
AcDbEntity
  8
レイヤー 1
 62
   250
420
  2299925
370
     9
100
AcDbEllipse
 10
127.2878693567672
 20
-152.5578691677996
 30
0.0
 11
0.0
 21
0.56788143264711
 31
0.0
210
0.0
220
0.0
230
1.0
 40
0.7043723628639614
 41
0.0
 42
6.283185307179586
  0
ELLIPSE
  5
155
330
150
100
AcDbEntity
  8
レイヤー 1
 62
   250
420
  2299925
370
     9
100
AcDbEllipse
 10
127.2649872084089
 20
-150.3149042169346
 30
0.0
 11
0.0
 21
0.5530010815250767
 31
0.0
210
0.0
220
0.0
230
1.0
 40
0.7233258666271829
 41
0.0
 42
6.283185307179586
  0
ELLIPSE
  5
156
330
150
100
AcDbEntity
  8
レイヤー 1
 62
   250
420
  2299925
370
     9
100
AcDbEllipse
 10
127.2443173197668
 20
-148.2191515033778
 30
0.0
 11
0.0
 21
0.5654933779161172
 31
0.0
210
0.0
220
0.0
230
1.0
 40
0.7073468977018326
 41
0.0
 42
6.283185307179586
  0
ENDBLK
  5
153
330
150
100
AcDbEntity
  8
0
100
AcDbBlockEnd
  0
BLOCK
  5
159
330
157
100
AcDbEntity
  8
0
100
AcDbBlockBegin
  2
Block_24
 70
     0
 10
0.0
 20
0.0
 30
0.0
  3
Block_24
  1

  0
ELLIPSE
  5
15B
330
157
100
AcDbEntity
  8
レイヤー 1
 62
   250
420
  2299925
370
     9
100
AcDbEllipse
 10
128.4701815286262
 20
-151.4875569954953
 30
0.0
 11
0.0
 21
0.5678814326469496
 31
0.0
210
0.0
220
0.0
230
1.0
 40
0.7043723628641603
 41
0.0
 42
6.283185307179586
  0
ELLIPSE
  5
15C
330
157
100
AcDbEntity
  8
レイヤー 1
 62
   250
420
  2299925
370
     9
100
AcDbEllipse
 10
128.4472993802679
 20
-149.2445920446301
 30
0.0
 11
0.0
 21
0.5530010815249966
 31
0.0
210
0.0
220
0.0
230
1.0
 40
0.7233258666272877
 41
0.0
 42
6.283185307179586
  0
ENDBLK
  5
15A
330
157
100
AcDbEntity
  8
0
100
AcDbBlockEnd
  0
ENDSEC
  0
SECTION
  2
ENTITIES
  0
INSERT
  5
7A
330
70
100
AcDbEntity
  8
レイヤー 1
100
AcDbBlockReference
  2
Block_0
 10
0.0
 20
0.0
 30
0.0
  0
INSERT
  5
81
330
70
100
AcDbEntity
  8
レイヤー 1
100
AcDbBlockReference
  2
Block_1
 10
0.0
 20
0.0
 30
0.0
  0
LINE
  5
D5
330
70
100
AcDbEntity
  8
レイヤー 1
  6
AI-Linetype-0
 62
   154
420
    23468
370
    25
100
AcDbLine
 10
98.007066112987
 20
-162.4052672614645
 30
0.0
 11
113.0064461344095
 21
-162.4052672614645
 31
0.0
  0
LINE
  5
D7
330
70
100
AcDbEntity
  8
レイヤー 1
 62
   250
420
  2299925
370
     9
100
AcDbLine
 10
105.6832568109536
 20
-161.6409292019018
 30
0.0
 11
105.9416312488064
 21
-160.6749178376579
 31
0.0
  0
LINE
  5
D8
330
70
100
AcDbEntity
  8
レイヤー 1
 62
   250
420
  2299925
370
     9
100
AcDbLine
 10
105.6832568109536
 20
-161.6409255995882
 30
0.0
 11
105.6832568109536
 21
-137.1884753217427
 31
0.0
  0
LINE
  5
D9
330
70
100
AcDbEntity
  8
レイヤー 1
 62
   250
420
  2299925
370
     9
100
AcDbLine
 10
105.6832568109536
 20
-161.6409292019018
 30
0.0
 11
105.4241768175633
 21
-160.6749178376579
 31
0.0
  0
INSERT
  5
DB
330
70
100
AcDbEntity
  8
レイヤー 1
100
AcDbBlockReference
  2
Block_10
 10
0.0
 20
0.0
 30
0.0
  0
LINE
  5
F4
330
70
100
AcDbEntity
  8
レイヤー 1
  6
AI-Linetype-1
 62
   154
420
    23468
370
    25
100
AcDbLine
 10
78.63706672556066
 20
-142.9725513042105
 30
0.0
 11
78.63706672600985
 21
-127.9731712827884
 31
0.0
  0
LINE
  5
F6
330
70
100
AcDbEntity
  8
レイヤー 1
 62
   250
420
  2299925
370
     9
100
AcDbLine
 10
79.57542745392666
 20
-135.4439670333362
 30
0.0
 11
80.47888405539785
 21
-135.7023414711451
 31
0.0
  0
LINE
  5
F7
330
70
100
AcDbEntity
  8
レイヤー 1
 62
   250
420
  2299925
370
     9
100
AcDbLine
 10
79.57543953520891
 20
-135.4439637345062
 30
0.0
 11
99.64046595377126
 21
-135.4439637334301
 31
0.0
  0
LINE
  5
F8
330
70
100
AcDbEntity
  8
レイヤー 1
 62
   250
420
  2299925
370
     9
100
AcDbLine
 10
79.57542745392666
 20
-135.4439670333362
 30
0.0
 11
80.47888405537603
 21
-135.184887039902
 31
0.0
  0
LINE
  5
F9
330
70
100
AcDbEntity
  8
レイヤー 1
 62
   250
420
  2299925
370
     9
100
AcDbLine
 10
121.453146515118
 20
-163.0267960679851
 30
0.0
 11
124.2960873592663
 21
-163.0267960679851
 31
0.0
  0
LINE
  5
FA
330
70
100
AcDbEntity
  8
レイヤー 1
 62
   250
420
  2299925
370
     9
100
AcDbLine
 10
124.5942257633288
 20
-163.299777641014
 30
0.0
 11
121.1329363897539
 21
-163.3467118820466
 31
0.0
  0
LINE
  5
FB
330
70
100
AcDbEntity
  8
レイヤー 1
 62
   250
420
  2299925
370
     9
100
AcDbLine
 10
121.4531465147189
 20
-160.4115637775093
 30
0.0
 11
121.4531465147189
 21
-163.0267960512252
 31
0.0
  0
LINE
  5
FC
330
70
100
AcDbEntity
  8
レイヤー 1
 62
   250
420
  2299925
370
     9
100
AcDbLine
 10
121.176441766356
 20
-160.1576411159145
 30
0.0
 11
121.1334338925765
 21
-163.3371606667932
 31
0.0
  0
LWPOLYLINE
  5
FD
330
70
100
AcDbEntity
  8
レイヤー 1
 62
   250
420
  2299925
370
     9
100
AcDbPolyline
 90
        8
 70
     1
 43
0.0
 10
124.7135989652306
 20
-163.0185915546345
 10
121.4531763430258
 20
-160.0417908824536
 10
121.453349735906
 20
-151.5067959832691
 10
121.2932845803915
 20
-151.5067959832691
 10
121.1795894987155
 20
-160.1494499908526
 10
124.5987354812201
 20
-163.2976920574275
 10
132.9215450390831
 20
-163.1868612194581
 10
132.9215450390831
 20
-163.0267960679851
  0
LINE
  5
FE
330
70
100
AcDbEntity
  8
レイヤー 1
 62
   250
420
  2299925
370
     9
100
AcDbLine
 10
121.453146515118
 20
-163.0267960679851
 30
0.0
 11
122.8217536071375
 21
-161.6581889759663
 31
0.0
  0
LINE
  5
FF
330
70
100
AcDbEntity
  8
レイヤー 1
 62
   250
420
  2299925
370
     9
100
AcDbLine
 10
121.4531763430258
 20
-160.0417908824536
 30
0.0
 11
131.2579733263281
 21
-150.3549042167756
 31
0.0
  0
LINE
  5
100
330
70
100
AcDbEntity
  8
レイヤー 1
 62
   250
420
  2299925
370
     9
100
AcDbLine
 10
124.7226048733084
 20
-163.0054812092709
 30
0.0
 11
133.4614979959485
 21
-154.2665880866308
 31
0.0
  0
LINE
  5
101
330
70
100
AcDbEntity
  8
レイヤー 1
 62
   250
420
  2299925
370
     9
100
AcDbLine
 10
121.3200655835215
 20
-151.5067959943783
 30
0.0
 11
128.002068419169
 21
-146.2549135952746
 31
0.0
  0
LINE
  5
102
330
70
100
AcDbEntity
  8
レイヤー 1
 62
   250
420
  2299925
370
     9
100
AcDbLine
 10
132.9215450462329
 20
-163.1651499528795
 30
0.0
 11
140.1466411269403
 21
-155.1983475496152
 31
0.0
  0
INSERT
  5
104
330
70
100
AcDbEntity
  8
レイヤー 1
100
AcDbBlockReference
  2
Block_12
 10
0.0
 20
0.0
 30
0.0
  0
INSERT
  5
10B
330
70
100
AcDbEntity
  8
レイヤー 1
100
AcDbBlockReference
  2
Block_13
 10
0.0
 20
0.0
 30
0.0
  0
INSERT
  5
112
330
70
100
AcDbEntity
  8
レイヤー 1
100
AcDbBlockReference
  2
Block_14
 10
0.0
 20
0.0
 30
0.0
  0
INSERT
  5
119
330
70
100
AcDbEntity
  8
レイヤー 1
100
AcDbBlockReference
  2
Block_15
 10
0.0
 20
0.0
 30
0.0
  0
INSERT
  5
120
330
70
100
AcDbEntity
  8
レイヤー 1
100
AcDbBlockReference
  2
Block_16
 10
0.0
 20
0.0
 30
0.0
  0
INSERT
  5
127
330
70
100
AcDbEntity
  8
レイヤー 1
100
AcDbBlockReference
  2
Block_17
 10
0.0
 20
0.0
 30
0.0
  0
INSERT
  5
12E
330
70
100
AcDbEntity
  8
レイヤー 1
100
AcDbBlockReference
  2
Block_18
 10
0.0
 20
0.0
 30
0.0
  0
INSERT
  5
135
330
70
100
AcDbEntity
  8
レイヤー 1
100
AcDbBlockReference
  2
Block_19
 10
0.0
 20
0.0
 30
0.0
  0
INSERT
  5
13C
330
70
100
AcDbEntity
  8
レイヤー 1
100
AcDbBlockReference
  2
Block_20
 10
0.0
 20
0.0
 30
0.0
  0
INSERT
  5
143
330
70
100
AcDbEntity
  8
レイヤー 1
100
AcDbBlockReference
  2
Block_21
 10
0.0
 20
0.0
 30
0.0
  0
INSERT
  5
14A
330
70
100
AcDbEntity
  8
レイヤー 1
100
AcDbBlockReference
  2
Block_22
 10
0.0
 20
0.0
 30
0.0
  0
INSERT
  5
151
330
70
100
AcDbEntity
  8
レイヤー 1
100
AcDbBlockReference
  2
Block_23
 10
0.0
 20
0.0
 30
0.0
  0
INSERT
  5
158
330
70
100
AcDbEntity
  8
レイヤー 1
100
AcDbBlockReference
  2
Block_24
 10
0.0
 20
0.0
 30
0.0
  0
ELLIPSE
  5
15D
330
70
100
AcDbEntity
  8
レイヤー 1
 62
   250
420
  2299925
370
     9
100
AcDbEllipse
 10
129.4674583495131
 20
-150.4902801746081
 30
0.0
 11
0.0
 21
0.5678814326467892
 31
0.0
210
0.0
220
0.0
230
1.0
 40
0.7043723628646418
 41
0.0
 42
6.283185307179586
  0
ENDSEC
  0
SECTION
  2
OBJECTS
  0
DICTIONARY
  5
C
330
0
100
AcDbDictionary
281
     1
  3
ACAD_COLOR
350
63
  3
ACAD_DETAILVIEWSTYLE
350
6A
  3
ACAD_GROUP
350
D
  3
ACAD_LAYOUT
350
62
  3
ACAD_MATERIAL
350
10
  3
ACAD_MLEADERSTYLE
350
66
  3
ACAD_MLINESTYLE
350
5F
  3
ACAD_PLOTSETTINGS
350
61
  3
ACAD_PLOTSTYLENAME
350
E
  3
ACAD_SCALELIST
350
42
  3
ACAD_SECTIONVIEWSTYLE
350
68
  3
ACAD_TABLESTYLE
350
64
  3
ACAD_VISUALSTYLE
350
29
  3
ACDB_RECOMPOSE_DATA
350
166
  3
AcDbVariableDictionary
350
15E
  0
DICTIONARY
  5
63
102
{ACAD_REACTORS
330
C
102
}
330
C
100
AcDbDictionary
281
     1
  0
DICTIONARY
  5
6A
102
{ACAD_REACTORS
330
C
102
}
330
C
100
AcDbDictionary
281
     1
  3
Imperial24
350
6B
  0
DICTIONARY
  5
D
102
{ACAD_REACTORS
330
C
102
}
330
C
100
AcDbDictionary
281
     1
  0
DICTIONARY
  5
62
102
{ACAD_REACTORS
330
C
102
}
330
C
100
AcDbDictionary
281
     1
  3
Layout1
350
6F
  3
Layout2
350
77
  3
Model
350
73
  0
DICTIONARY
  5
10
102
{ACAD_REACTORS
330
C
102
}
330
C
100
AcDbDictionary
281
     1
  3
ByBlock
350
19
  3
ByLayer
350
11
  3
Global
350
21
  0
DICTIONARY
  5
66
102
{ACAD_REACTORS
330
C
102
}
330
C
100
AcDbDictionary
281
     1
  3
Standard
350
67
  0
DICTIONARY
  5
5F
102
{ACAD_REACTORS
330
C
102
}
330
C
100
AcDbDictionary
281
     1
  3
Standard
350
60
  0
DICTIONARY
  5
61
102
{ACAD_REACTORS
330
C
102
}
330
C
100
AcDbDictionary
281
     1
  0
ACDBDICTIONARYWDFLT
  5
E
102
{ACAD_REACTORS
330
C
102
}
330
C
100
AcDbDictionary
281
     1
  3
Normal
350
F
100
AcDbDictionaryWithDefault
340
F
  0
DICTIONARY
  5
42
102
{ACAD_REACTORS
330
C
102
}
330
C
100
AcDbDictionary
281
     1
  3
A0
350
43
  3
A1
350
44
  3
A2
350
45
  3
A3
350
46
  3
A4
350
47
  3
A5
350
48
  3
A6
350
49
  3
A7
350
4A
  3
A8
350
4B
  3
A9
350
4C
  3
B0
350
4D
  3
B1
350
4E
  3
B2
350
4F
  3
B3
350
50
  3
B4
350
51
  3
B5
350
52
  3
B6
350
53
  0
DICTIONARY
  5
68
102
{ACAD_REACTORS
330
C
102
}
330
C
100
AcDbDictionary
281
     1
  3
Imperial24
350
69
  0
DICTIONARY
  5
64
102
{ACAD_REACTORS
330
C
102
}
330
C
100
AcDbDictionary
281
     1
  3
Standard
350
65
  0
DICTIONARY
  5
29
102
{ACAD_REACTORS
330
C
102
}
330
C
100
AcDbDictionary
281
     1
  3
2dWireframe
350
2F
  3
Basic
350
2E
  3
Brighten
350
35
  3
ColorChange
350
39
  3
Conceptual
350
32
  3
Dim
350
34
  3
EdgeColorOff
350
41
  3
Facepattern
350
38
  3
Flat
350
2A
  3
FlatWithEdges
350
2B
  3
Gouraud
350
2C
  3
GouraudWithEdges
350
2D
  3
Hidden
350
31
  3
JitterOff
350
3F
  3
Linepattern
350
37
  3
OverhangOff
350
40
  3
Realistic
350
33
  3
Shaded
350
3E
  3
Shaded with edges
350
3D
  3
Shades of Gray
350
3A
  3
Sketchy
350
3B
  3
Thicken
350
36
  3
Wireframe
350
30
  3
X-Ray
350
3C
  0
XRECORD
  5
166
102
{ACAD_REACTORS
330
C
102
}
330
C
100
AcDbXrecord
280
     1
 90
        1
330
65
  0
DICTIONARY
  5
15E
102
{ACAD_REACTORS
330
C
102
}
330
C
100
AcDbDictionary
281
     1
  3
CANNOSCALE
350
163
  3
CMLEADERSTYLE
350
160
  3
CTABLESTYLE
350
15F
  3
CVIEWDETAILSTYLE
350
161
  3
CVIEWSECTIONSTYLE
350
162
  0
ACDBDETAILVIEWSTYLE
  5
6B
102
{ACAD_XDICTIONARY
360
19B
102
}
102
{ACAD_REACTORS
330
6A
102
}
330
6A
100
AcDbModelDocViewStyle
 70
     0
  3
Imperial24
290
     0
100
AcDbDetailViewStyle
 70
     0
 71
     0
 90
        3
 71
     1
340
55
 62
   256
 40
0.24
340
0
 62
   256
 40
0.24
300

 40
0.36
280
     3
 71
     2
340
5D
 90
       25
 62
   256
 71
     3
340
55
 62
   256
 40
0.24
 90
        1
 40
0.75
 90
        1
300
%<\AcVar ViewType \f "%tc1">% %<\AcVar ViewDetailId>%\PSCALE %<\AcVar ViewScale \f "%sn">%
 71
     4
340
5D
 90
       25
 62
   256
340
5D
 90
       25
 62
   256
280
     0
  0
LAYOUT
  5
6F
102
{ACAD_REACTORS
330
62
102
}
330
62
100
AcDbPlotSettings
  1

  2

  4

  6

 40
0.0
 41
0.0
 42
0.0
 43
0.0
 44
0.0
 45
0.0
 46
0.0
 47
0.0
 48
0.0
 49
0.0
140
0.0
141
0.0
142
1.0
143
1.0
 70
   688
 72
     0
 73
     0
 74
     5
  7

 75
    16
147
1.0
 76
     0
 77
     2
 78
   300
148
0.0
149
0.0
100
AcDbLayout
  1
Layout1
 70
     1
 71
     1
 10
0.0
 20
0.0
 11
12.0
 21
9.0
 12
0.0
 22
0.0
 32
0.0
 14
0.0
 24
0.0
 34
0.0
 15
0.0
 25
0.0
 35
0.0
146
0.0
 13
0.0
 23
0.0
 33
0.0
 16
1.0
 26
0.0
 36
0.0
 17
0.0
 27
1.0
 37
0.0
 76
     0
330
6C
  0
LAYOUT
  5
77
102
{ACAD_REACTORS
330
62
102
}
330
62
100
AcDbPlotSettings
  1

  2

  4

  6

 40
0.0
 41
0.0
 42
0.0
 43
0.0
 44
0.0
 45
0.0
 46
0.0
 47
0.0
 48
0.0
 49
0.0
140
0.0
141
0.0
142
1.0
143
1.0
 70
   688
 72
     0
 73
     0
 74
     5
  7

 75
    16
147
1.0
 76
     0
 77
     2
 78
   300
148
0.0
149
0.0
100
AcDbLayout
  1
Layout2
 70
     1
 71
     2
 10
0.0
 20
0.0
 11
12.0
 21
9.0
 12
0.0
 22
0.0
 32
0.0
 14
0.0
 24
0.0
 34
0.0
 15
0.0
 25
0.0
 35
0.0
146
0.0
 13
0.0
 23
0.0
 33
0.0
 16
1.0
 26
0.0
 36
0.0
 17
0.0
 27
1.0
 37
0.0
 76
     0
330
74
  0
LAYOUT
  5
73
102
{ACAD_REACTORS
330
62
102
}
330
62
100
AcDbPlotSettings
  1

  2

  4

  6

 40
0.0
 41
0.0
 42
0.0
 43
0.0
 44
0.0
 45
0.0
 46
0.0
 47
0.0
 48
0.0
 49
0.0
140
0.0
141
0.0
142
1.0
143
1.0
 70
  1712
 72
     0
 73
     0
 74
     0
  7

 75
     0
147
1.0
 76
     0
 77
     2
 78
   300
148
0.0
149
0.0
100
AcDbLayout
  1
Model
 70
     1
 71
     0
 10
0.0
 20
0.0
 11
12.0
 21
9.0
 12
0.0
 22
0.0
 32
0.0
 14
0.0
 24
0.0
 34
0.0
 15
0.0
 25
0.0
 35
0.0
146
0.0
 13
0.0
 23
0.0
 33
0.0
 16
1.0
 26
0.0
 36
0.0
 17
0.0
 27
1.0
 37
0.0
 76
     0
330
70
  0
MATERIAL
  5
19
102
{ACAD_XDICTIONARY
360
1A
102
}
102
{ACAD_REACTORS
330
10
102
}
330
10
100
AcDbMaterial
  1
ByBlock
 72
     0
 43
0.0208333333333333
 43
0.0
 43
0.0
 43
0.0
 43
0.0
 43
0.0208333333333333
 43
0.0
 43
0.0
 43
0.0
 43
0.0
 43
1.0
 43
0.0
 43
0.0
 43
0.0
 43
0.0
 43
1.0
 77
     0
 47
0.0208333333333333
 47
0.0
 47
0.0
 47
0.0
 47
0.0
 47
0.0208333333333333
 47
0.0
 47
0.0
 47
0.0
 47
0.0
 47
1.0
 47
0.0
 47
0.0
 47
0.0
 47
0.0
 47
1.0
171
     0
 49
0.0208333333333333
 49
0.0
 49
0.0
 49
0.0
 49
0.0
 49
0.0208333333333333
 49
0.0
 49
0.0
 49
0.0
 49
0.0
 49
1.0
 49
0.0
 49
0.0
 49
0.0
 49
0.0
 49
1.0
175
     0
142
0.0208333333333333
142
0.0
142
0.0
142
0.0
142
0.0
142
0.0208333333333333
142
0.0
142
0.0
142
0.0
142
0.0
142
1.0
142
0.0
142
0.0
142
0.0
142
0.0
142
1.0
179
     0
144
0.0208333333333333
144
0.0
144
0.0
144
0.0
144
0.0
144
0.0208333333333333
144
0.0
144
0.0
144
0.0
144
0.0
144
1.0
144
0.0
144
0.0
144
0.0
144
0.0
144
1.0
147
0.0208333333333333
147
0.0
147
0.0
147
0.0
147
0.0
147
0.0208333333333333
147
0.0
147
0.0
147
0.0
147
0.0
147
1.0
147
0.0
147
0.0
147
0.0
147
0.0
147
1.0
  0
MATERIAL
  5
11
102
{ACAD_XDICTIONARY
360
12
102
}
102
{ACAD_REACTORS
330
10
102
}
330
10
100
AcDbMaterial
  1
ByLayer
 72
     0
 43
0.0208333333333333
 43
0.0
 43
0.0
 43
0.0
 43
0.0
 43
0.0208333333333333
 43
0.0
 43
0.0
 43
0.0
 43
0.0
 43
1.0
 43
0.0
 43
0.0
 43
0.0
 43
0.0
 43
1.0
 77
     0
 47
0.0208333333333333
 47
0.0
 47
0.0
 47
0.0
 47
0.0
 47
0.0208333333333333
 47
0.0
 47
0.0
 47
0.0
 47
0.0
 47
1.0
 47
0.0
 47
0.0
 47
0.0
 47
0.0
 47
1.0
171
     0
 49
0.0208333333333333
 49
0.0
 49
0.0
 49
0.0
 49
0.0
 49
0.0208333333333333
 49
0.0
 49
0.0
 49
0.0
 49
0.0
 49
1.0
 49
0.0
 49
0.0
 49
0.0
 49
0.0
 49
1.0
175
     0
142
0.0208333333333333
142
0.0
142
0.0
142
0.0
142
0.0
142
0.0208333333333333
142
0.0
142
0.0
142
0.0
142
0.0
142
1.0
142
0.0
142
0.0
142
0.0
142
0.0
142
1.0
179
     0
144
0.0208333333333333
144
0.0
144
0.0
144
0.0
144
0.0
144
0.0208333333333333
144
0.0
144
0.0
144
0.0
144
0.0
144
1.0
144
0.0
144
0.0
144
0.0
144
0.0
144
1.0
147
0.0208333333333333
147
0.0
147
0.0
147
0.0
147
0.0
147
0.0208333333333333
147
0.0
147
0.0
147
0.0
147
0.0
147
1.0
147
0.0
147
0.0
147
0.0
147
0.0
147
1.0
  0
MATERIAL
  5
21
102
{ACAD_XDICTIONARY
360
22
102
}
102
{ACAD_REACTORS
330
10
102
}
330
10
100
AcDbMaterial
  1
Global
 72
     0
 43
0.0208333333333333
 43
0.0
 43
0.0
 43
0.0
 43
0.0
 43
0.0208333333333333
 43
0.0
 43
0.0
 43
0.0
 43
0.0
 43
1.0
 43
0.0
 43
0.0
 43
0.0
 43
0.0
 43
1.0
 77
     0
 47
0.0208333333333333
 47
0.0
 47
0.0
 47
0.0
 47
0.0
 47
0.0208333333333333
 47
0.0
 47
0.0
 47
0.0
 47
0.0
 47
1.0
 47
0.0
 47
0.0
 47
0.0
 47
0.0
 47
1.0
171
     0
 49
0.0208333333333333
 49
0.0
 49
0.0
 49
0.0
 49
0.0
 49
0.0208333333333333
 49
0.0
 49
0.0
 49
0.0
 49
0.0
 49
1.0
 49
0.0
 49
0.0
 49
0.0
 49
0.0
 49
1.0
175
     0
142
0.0208333333333333
142
0.0
142
0.0
142
0.0
142
0.0
142
0.0208333333333333
142
0.0
142
0.0
142
0.0
142
0.0
142
1.0
142
0.0
142
0.0
142
0.0
142
0.0
142
1.0
179
     0
144
0.0208333333333333
144
0.0
144
0.0
144
0.0
144
0.0
144
0.0208333333333333
144
0.0
144
0.0
144
0.0
144
0.0
144
1.0
144
0.0
144
0.0
144
0.0
144
0.0
144
1.0
147
0.0208333333333333
147
0.0
147
0.0
147
0.0
147
0.0
147
0.0208333333333333
147
0.0
147
0.0
147
0.0
147
0.0
147
1.0
147
0.0
147
0.0
147
0.0
147
0.0
147
1.0
  0
MLEADERSTYLE
  5
67
102
{ACAD_XDICTIONARY
360
197
102
}
102
{ACAD_REACTORS
330
66
102
}
330
66
100
AcDbMLeaderStyle
179
     2
170
     2
171
     1
172
     0
 90
        2
 40
0.0
 41
0.0
173
     1
 91
-1056964608
340
5B
 92
       -2
290
     1
 42
0.09
291
     1
 43
0.36
  3
Standard
 44
0.18
300

342
55
174
     1
178
     6
175
     1
176
     0
 93
-1056964608
 45
0.18
292
     0
297
     0
 46
0.18
 94
-1056964608
 47
1.0
 49
1.0
140
1.0
293
     1
141
0.0
294
     1
177
     0
142
1.0
295
     0
296
     0
143
0.125
271
     0
272
     9
273
     9
  0
MLINESTYLE
  5
60
102
{ACAD_REACTORS
330
5F
102
}
330
5F
100
AcDbMlineStyle
  2
STANDARD
 70
     0
  3

 62
   256
 51
90.0
 52
90.0
 71
     2
 49
0.5
 62
   256
  6
BYLAYER
 49
-0.5
 62
   256
  6
BYLAYER
  0
ACDBPLACEHOLDER
  5
F
102
{ACAD_REACTORS
330
E
102
}
330
E
  0
SCALE
  5
43
102
{ACAD_REACTORS
330
42
102
}
330
42
100
AcDbScale
 70
     0
300
1:1
140
1.0
141
1.0
290
     1
  0
SCALE
  5
44
102
{ACAD_REACTORS
330
42
102
}
330
42
100
AcDbScale
 70
     0
300
1/128" = 1'-0"
140
0.0078125
141
12.0
290
     0
  0
SCALE
  5
45
102
{ACAD_REACTORS
330
42
102
}
330
42
100
AcDbScale
 70
     0
300
1/64" = 1'-0"
140
0.015625
141
12.0
290
     0
  0
SCALE
  5
46
102
{ACAD_REACTORS
330
42
102
}
330
42
100
AcDbScale
 70
     0
300
1/32" = 1'-0"
140
0.03125
141
12.0
290
     0
  0
SCALE
  5
47
102
{ACAD_REACTORS
330
42
102
}
330
42
100
AcDbScale
 70
     0
300
1/16" = 1'-0"
140
0.0625
141
12.0
290
     0
  0
SCALE
  5
48
102
{ACAD_REACTORS
330
42
102
}
330
42
100
AcDbScale
 70
     0
300
3/32" = 1'-0"
140
0.09375
141
12.0
290
     0
  0
SCALE
  5
49
102
{ACAD_REACTORS
330
42
102
}
330
42
100
AcDbScale
 70
     0
300
1/8" = 1'-0"
140
0.125
141
12.0
290
     0
  0
SCALE
  5
4A
102
{ACAD_REACTORS
330
42
102
}
330
42
100
AcDbScale
 70
     0
300
3/16" = 1'-0"
140
0.1875
141
12.0
290
     0
  0
SCALE
  5
4B
102
{ACAD_REACTORS
330
42
102
}
330
42
100
AcDbScale
 70
     0
300
1/4" = 1'-0"
140
0.25
141
12.0
290
     0
  0
SCALE
  5
4C
102
{ACAD_REACTORS
330
42
102
}
330
42
100
AcDbScale
 70
     0
300
3/8" = 1'-0"
140
0.375
141
12.0
290
     0
  0
SCALE
  5
4D
102
{ACAD_REACTORS
330
42
102
}
330
42
100
AcDbScale
 70
     0
300
1/2" = 1'-0"
140
0.5
141
12.0
290
     0
  0
SCALE
  5
4E
102
{ACAD_REACTORS
330
42
102
}
330
42
100
AcDbScale
 70
     0
300
3/4" = 1'-0"
140
0.75
141
12.0
290
     0
  0
SCALE
  5
4F
102
{ACAD_REACTORS
330
42
102
}
330
42
100
AcDbScale
 70
     0
300
1" = 1'-0"
140
1.0
141
12.0
290
     0
  0
SCALE
  5
50
102
{ACAD_REACTORS
330
42
102
}
330
42
100
AcDbScale
 70
     0
300
1-1/2" = 1'-0"
140
1.5
141
12.0
290
     0
  0
SCALE
  5
51
102
{ACAD_REACTORS
330
42
102
}
330
42
100
AcDbScale
 70
     0
300
3" = 1'-0"
140
3.0
141
12.0
290
     0
  0
SCALE
  5
52
102
{ACAD_REACTORS
330
42
102
}
330
42
100
AcDbScale
 70
     0
300
6" = 1'-0"
140
6.0
141
12.0
290
     0
  0
SCALE
  5
53
102
{ACAD_REACTORS
330
42
102
}
330
42
100
AcDbScale
 70
     0
300
1'-0" = 1'-0"
140
12.0
141
12.0
290
     0
  0
ACDBSECTIONVIEWSTYLE
  5
69
102
{ACAD_XDICTIONARY
360
199
102
}
102
{ACAD_REACTORS
330
68
102
}
330
68
100
AcDbModelDocViewStyle
 70
     0
  3
Imperial24
290
     0
100
AcDbSectionViewStyle
 70
     0
 71
     0
 90
       78
 71
     1
340
55
 62
   256
 40
0.24
340
0
340
0
 62
   256
 40
0.24
300
I, O, Q, S, X, Z
 40
0.48
 90
        3
 40
0.18
 90
        1
 71
     2
340
5D
 90
       25
 62
   256
340
5D
 90
       50
 62
   256
 40
0.24
 40
0.0
 40
0.24
 71
     3
340
55
 62
   256
 40
0.24
 90
        1
 40
0.75
 90
        1
300
%<\AcVar ViewType \f "%tc1">% %<\AcVar ViewSectionStartId>%-%<\AcVar ViewSectionEndId>%\PSCALE %<\AcVar ViewScale \f "%sn">%
 71
     4
 62
   256
 62
   257
300
ANSI31
 40
1.0
 90
        0
290
     0
290
     0
 90
        6
 40
0.0
 40
1.570796326794896
 40
0.2617993877991494
 40
1.308996938995747
 40
-0.2617993877991494
 40
1.832595714594046
  0
TABLESTYLE
  5
65
102
{ACAD_XDICTIONARY
360
164
102
}
102
{ACAD_REACTORS
330
64
102
}
330
64
100
AcDbTableStyle
280
     0
  3
Standard
 70
     0
 71
     0
 40
0.06
 41
0.06
280
     0
281
     0
  7
Standard
140
0.18
170
     2
 62
     0
 63
     7
283
     0
 90
      512
 91
        0
  1

274
    -2
284
     1
 64
     0
275
    -2
285
     1
 65
     0
276
    -2
286
     1
 66
     0
277
    -2
287
     1
 67
     0
278
    -2
288
     1
 68
     0
279
    -2
289
     1
 69
     0
  7
Standard
140
0.25
170
     5
 62
     0
 63
     7
283
     0
 90
      512
 91
        0
  1

274
    -2
284
     1
 64
     0
275
    -2
285
     1
 65
     0
276
    -2
286
     1
 66
     0
277
    -2
287
     1
 67
     0
278
    -2
288
     1
 68
     0
279
    -2
289
     1
 69
     0
  7
Standard
140
0.18
170
     5
 62
     0
 63
     7
283
     0
 90
      512
 91
        0
  1

274
    -2
284
     1
 64
     0
275
    -2
285
     1
 65
     0
276
    -2
286
     1
 66
     0
277
    -2
287
     1
 67
     0
278
    -2
288
     1
 68
     0
279
    -2
289
     1
 69
     0
  0
VISUALSTYLE
  5
2F
102
{ACAD_XDICTIONARY
360
171
102
}
102
{ACAD_REACTORS
330
29
102
}
330
29
100
AcDbVisualStyle
  2
2dWireframe
 70
     4
177
     2
291
     0
 71
     0
176
     1
 72
     2
176
     1
 73
     0
176
     1
 90
        0
176
     1
 40
0.6
176
     1
 41
30.0
176
     1
 63
     7
421
 16777215
176
     1
 74
     1
176
     1
 91
        4
176
     1
 64
     7
176
     1
 65
   257
176
     1
 75
     1
176
     1
175
     1
176
     1
 42
1.0
176
     1
 92
        0
176
     1
 66
   257
176
     1
 43
1.0
176
     1
 76
     1
176
     1
 77
     6
176
     1
 78
     2
176
     1
 67
     7
176
     1
 79
     5
176
     1
170
     0
176
     1
171
     0
176
     1
290
     0
176
     1
 93
        1
176
     1
 44
0.0
176
     1
173
     0
176
     1
1001
ACAD
1000
AcDbSavedByObjectVersion
1070
     0
  0
VISUALSTYLE
  5
2E
102
{ACAD_XDICTIONARY
360
16F
102
}
102
{ACAD_REACTORS
330
29
102
}
330
29
100
AcDbVisualStyle
  2
Basic
 70
     7
177
     2
291
     1
 71
     1
176
     1
 72
     0
176
     1
 73
     1
176
     1
 90
        0
176
     1
 40
0.6
176
     1
 41
30.0
176
     1
 63
     7
421
 16777215
176
     1
 74
     0
176
     1
 91
        4
176
     1
 64
     7
176
     1
 65
   257
176
     1
 75
     1
176
     1
175
     1
176
     1
 42
1.0
176
     1
 92
        8
176
     1
 66
     7
176
     1
 43
1.0
176
     1
 76
     1
176
     1
 77
     6
176
     1
 78
     2
176
     1
 67
     7
176
     1
 79
     5
176
     1
170
     0
176
     1
171
     0
176
     1
290
     0
176
     1
 93
        1
176
     1
 44
0.0
176
     1
173
     0
176
     1
1001
ACAD
1000
AcDbSavedByObjectVersion
1070
     0
  0
VISUALSTYLE
  5
35
102
{ACAD_XDICTIONARY
360
17D
102
}
102
{ACAD_REACTORS
330
29
102
}
330
29
100
AcDbVisualStyle
  2
Brighten
 70
    12
177
     2
291
     1
 71
     2
176
     1
 72
     2
176
     1
 73
     0
176
     1
 90
        0
176
     1
 40
0.6
176
     1
 41
30.0
176
     1
 63
     7
421
 16777215
176
     1
 74
     1
176
     1
 91
        4
176
     1
 64
     7
176
     1
 65
   257
176
     1
 75
     1
176
     1
175
     1
176
     1
 42
1.0
176
     1
 92
        8
176
     1
 66
     7
176
     1
 43
1.0
176
     1
 76
     1
176
     1
 77
     6
176
     1
 78
     2
176
     1
 67
     7
176
     1
 79
     5
176
     1
170
     0
176
     1
171
     0
176
     1
290
     0
176
     1
 93
        1
176
     1
 44
50.0
176
     1
173
     0
176
     1
1001
ACAD
1000
AcDbSavedByObjectVersion
1070
     0
  0
VISUALSTYLE
  5
39
102
{ACAD_XDICTIONARY
360
185
102
}
102
{ACAD_REACTORS
330
29
102
}
330
29
100
AcDbVisualStyle
  2
ColorChange
 70
    16
177
     2
291
     1
 71
     2
176
     1
 72
     2
176
     1
 73
     3
176
     1
 90
        0
176
     1
 40
0.6
176
     1
 41
30.0
176
     1
 63
     8
421
  8421504
176
     1
 74
     1
176
     1
 91
        4
176
     1
 64
     7
176
     1
 65
   257
176
     1
 75
     1
176
     1
175
     1
176
     1
 42
1.0
176
     1
 92
        8
176
     1
 66
     8
424
  8421504
176
     1
 43
1.0
176
     1
 76
     1
176
     1
 77
     6
176
     1
 78
     2
176
     1
 67
     7
176
     1
 79
     5
176
     1
170
     0
176
     1
171
     0
176
     1
290
     0
176
     1
 93
        1
176
     1
 44
0.0
176
     1
173
     0
176
     1
1001
ACAD
1000
AcDbSavedByObjectVersion
1070
     0
  0
VISUALSTYLE
  5
32
102
{ACAD_XDICTIONARY
360
177
102
}
102
{ACAD_REACTORS
330
29
102
}
330
29
100
AcDbVisualStyle
  2
Conceptual
 70
     9
177
     2
291
     0
 71
     3
176
     1
 72
     2
176
     1
 73
     0
176
     1
 90
        0
176
     1
 40
0.6
176
     1
 41
30.0
176
     1
 63
     7
421
 16777215
176
     1
 74
     2
176
     1
 91
        2
176
     1
 64
     7
176
     1
 65
   257
176
     1
 75
     1
176
     1
175
     1
176
     1
 42
179.0
176
     1
 92
        8
176
     1
 66
     7
176
     1
 43
1.0
176
     1
 76
     1
176
     1
 77
     6
176
     1
 78
     2
176
     1
 67
     7
176
     1
 79
     3
176
     1
170
     0
176
     1
171
     0
176
     1
290
     0
176
     1
 93
        1
176
     1
 44
0.0
176
     1
173
     0
176
     1
1001
ACAD
1000
AcDbSavedByObjectVersion
1070
     0
  0
VISUALSTYLE
  5
34
102
{ACAD_XDICTIONARY
360
17B
102
}
102
{ACAD_REACTORS
330
29
102
}
330
29
100
AcDbVisualStyle
  2
Dim
 70
    11
177
     2
291
     1
 71
     2
176
     1
 72
     2
176
     1
 73
     0
176
     1
 90
        0
176
     1
 40
0.6
176
     1
 41
30.0
176
     1
 63
     7
421
 16777215
176
     1
 74
     1
176
     1
 91
        4
176
     1
 64
     7
176
     1
 65
   257
176
     1
 75
     1
176
     1
175
     1
176
     1
 42
1.0
176
     1
 92
        8
176
     1
 66
     7
176
     1
 43
1.0
176
     1
 76
     1
176
     1
 77
     6
176
     1
 78
     2
176
     1
 67
     7
176
     1
 79
     5
176
     1
170
     0
176
     1
171
     0
176
     1
290
     0
176
     1
 93
        1
176
     1
 44
-50.0
176
     1
173
     0
176
     1
1001
ACAD
1000
AcDbSavedByObjectVersion
1070
     0
  0
VISUALSTYLE
  5
41
102
{ACAD_XDICTIONARY
360
195
102
}
102
{ACAD_REACTORS
330
29
102
}
330
29
100
AcDbVisualStyle
  2
EdgeColorOff
 70
    22
177
     2
291
     1
 71
     2
176
     0
 72
     2
176
     0
 73
     0
176
     0
 90
        0
176
     0
 40
0.6
176
     0
 41
30.0
176
     0
 63
     7
421
 16777215
176
     0
 74
     1
176
     0
 91
        4
176
     0
 64
     7
176
     0
 65
   257
176
     0
 75
     1
176
     0
175
     1
176
     0
 42
1.0
176
     0
 92
        8
176
     2
 66
     7
176
     0
 43
1.0
176
     0
 76
     1
176
     0
 77
     6
176
     0
 78
     2
176
     0
 67
     7
176
     0
 79
     5
176
     0
170
     0
176
     0
171
     0
176
     0
290
     0
176
     0
 93
        1
176
     0
 44
0.0
176
     0
173
     0
176
     0
1001
ACAD
1000
AcDbSavedByObjectVersion
1070
     0
  0
VISUALSTYLE
  5
38
102
{ACAD_XDICTIONARY
360
183
102
}
102
{ACAD_REACTORS
330
29
102
}
330
29
100
AcDbVisualStyle
  2
Facepattern
 70
    15
177
     2
291
     1
 71
     2
176
     1
 72
     2
176
     1
 73
     0
176
     1
 90
        0
176
     1
 40
0.6
176
     1
 41
30.0
176
     1
 63
     7
421
 16777215
176
     1
 74
     1
176
     1
 91
        4
176
     1
 64
     7
176
     1
 65
   257
176
     1
 75
     1
176
     1
175
     1
176
     1
 42
1.0
176
     1
 92
        8
176
     1
 66
     7
176
     1
 43
1.0
176
     1
 76
     1
176
     1
 77
     6
176
     1
 78
     2
176
     1
 67
     7
176
     1
 79
     5
176
     1
170
     0
176
     1
171
     0
176
     1
290
     0
176
     1
 93
        1
176
     1
 44
0.0
176
     1
173
     0
176
     1
1001
ACAD
1000
AcDbSavedByObjectVersion
1070
     0
  0
VISUALSTYLE
  5
2A
102
{ACAD_XDICTIONARY
360
167
102
}
102
{ACAD_REACTORS
330
29
102
}
330
29
100
AcDbVisualStyle
  2
Flat
 70
     0
177
     2
291
     1
 71
     2
176
     1
 72
     1
176
     1
 73
     1
176
     1
 90
        2
176
     1
 40
0.6
176
     1
 41
30.0
176
     1
 63
     7
421
 16777215
176
     1
 74
     0
176
     1
 91
        0
176
     1
 64
     7
176
     1
 65
   257
176
     1
 75
     1
176
     1
175
     1
176
     1
 42
1.0
176
     1
 92
        8
176
     1
 66
     7
176
     1
 43
1.0
176
     1
 76
     1
176
     1
 77
     6
176
     1
 78
     2
176
     1
 67
     7
176
     1
 79
     5
176
     1
170
     0
176
     1
171
     0
176
     1
290
     0
176
     1
 93
       13
176
     1
 44
0.0
176
     1
173
     0
176
     1
1001
ACAD
1000
AcDbSavedByObjectVersion
1070
     0
  0
VISUALSTYLE
  5
2B
102
{ACAD_XDICTIONARY
360
169
102
}
102
{ACAD_REACTORS
330
29
102
}
330
29
100
AcDbVisualStyle
  2
FlatWithEdges
 70
     1
177
     2
291
     1
 71
     2
176
     1
 72
     1
176
     1
 73
     1
176
     1
 90
        2
176
     1
 40
0.6
176
     1
 41
30.0
176
     1
 63
     7
421
 16777215
176
     1
 74
     1
176
     1
 91
        0
176
     1
 64
     7
176
     1
 65
   257
176
     1
 75
     1
176
     1
175
     1
176
     1
 42
1.0
176
     1
 92
        0
176
     1
 66
   257
176
     1
 43
1.0
176
     1
 76
     1
176
     1
 77
     6
176
     1
 78
     2
176
     1
 67
     7
176
     1
 79
     5
176
     1
170
     0
176
     1
171
     0
176
     1
290
     0
176
     1
 93
       13
176
     1
 44
0.0
176
     1
173
     0
176
     1
1001
ACAD
1000
AcDbSavedByObjectVersion
1070
     0
  0
VISUALSTYLE
  5
2C
102
{ACAD_XDICTIONARY
360
16B
102
}
102
{ACAD_REACTORS
330
29
102
}
330
29
100
AcDbVisualStyle
  2
Gouraud
 70
     2
177
     2
291
     1
 71
     2
176
     1
 72
     2
176
     1
 73
     1
176
     1
 90
        2
176
     1
 40
0.6
176
     1
 41
30.0
176
     1
 63
     7
421
 16777215
176
     1
 74
     0
176
     1
 91
        0
176
     1
 64
     7
176
     1
 65
   257
176
     1
 75
     1
176
     1
175
     1
176
     1
 42
1.0
176
     1
 92
        0
176
     1
 66
     7
176
     1
 43
1.0
176
     1
 76
     1
176
     1
 77
     6
176
     1
 78
     2
176
     1
 67
     7
176
     1
 79
     5
176
     1
170
     0
176
     1
171
     0
176
     1
290
     0
176
     1
 93
       13
176
     1
 44
0.0
176
     1
173
     0
176
     1
1001
ACAD
1000
AcDbSavedByObjectVersion
1070
     0
  0
VISUALSTYLE
  5
2D
102
{ACAD_XDICTIONARY
360
16D
102
}
102
{ACAD_REACTORS
330
29
102
}
330
29
100
AcDbVisualStyle
  2
GouraudWithEdges
 70
     3
177
     2
291
     1
 71
     2
176
     1
 72
     2
176
     1
 73
     1
176
     1
 90
        2
176
     1
 40
0.6
176
     1
 41
30.0
176
     1
 63
     7
421
 16777215
176
     1
 74
     1
176
     1
 91
        0
176
     1
 64
     7
176
     1
 65
   257
176
     1
 75
     1
176
     1
175
     1
176
     1
 42
1.0
176
     1
 92
        0
176
     1
 66
   257
176
     1
 43
1.0
176
     1
 76
     1
176
     1
 77
     6
176
     1
 78
     2
176
     1
 67
     7
176
     1
 79
     5
176
     1
170
     0
176
     1
171
     0
176
     1
290
     0
176
     1
 93
       13
176
     1
 44
0.0
176
     1
173
     0
176
     1
1001
ACAD
1000
AcDbSavedByObjectVersion
1070
     0
  0
VISUALSTYLE
  5
31
102
{ACAD_XDICTIONARY
360
175
102
}
102
{ACAD_REACTORS
330
29
102
}
330
29
100
AcDbVisualStyle
  2
Hidden
 70
     6
177
     2
291
     0
 71
     1
176
     1
 72
     2
176
     1
 73
     2
176
     1
 90
        0
176
     1
 40
0.6
176
     1
 41
30.0
176
     1
 63
     7
421
 16777215
176
     1
 74
     2
176
     1
 91
        2
176
     1
 64
     7
176
     1
 65
   257
176
     1
 75
     2
176
     1
175
     1
176
     1
 42
40.0
176
     1
 92
        0
176
     1
 66
   257
176
     1
 43
1.0
176
     1
 76
     1
176
     1
 77
     6
176
     1
 78
     2
176
     1
 67
     7
176
     1
 79
     3
176
     1
170
     0
176
     1
171
     0
176
     1
290
     0
176
     1
 93
        1
176
     1
 44
0.0
176
     1
173
     0
176
     1
1001
ACAD
1000
AcDbSavedByObjectVersion
1070
     0
  0
VISUALSTYLE
  5
3F
102
{ACAD_XDICTIONARY
360
191
102
}
102
{ACAD_REACTORS
330
29
102
}
330
29
100
AcDbVisualStyle
  2
JitterOff
 70
    20
177
     2
291
     1
 71
     2
176
     0
 72
     2
176
     0
 73
     0
176
     0
 90
        0
176
     0
 40
0.6
176
     0
 41
30.0
176
     0
 63
     7
421
 16777215
176
     0
 74
     1
176
     0
 91
        4
176
     0
 64
     7
176
     0
 65
   257
176
     0
 75
     1
176
     0
175
     1
176
     0
 42
1.0
176
     0
 92
       10
176
     2
 66
     7
176
     0
 43
1.0
176
     0
 76
     1
176
     0
 77
     6
176
     0
 78
     2
176
     0
 67
     7
176
     0
 79
     5
176
     0
170
     0
176
     0
171
     0
176
     0
290
     0
176
     0
 93
        1
176
     0
 44
0.0
176
     0
173
     0
176
     0
1001
ACAD
1000
AcDbSavedByObjectVersion
1070
     0
  0
VISUALSTYLE
  5
37
102
{ACAD_XDICTIONARY
360
181
102
}
102
{ACAD_REACTORS
330
29
102
}
330
29
100
AcDbVisualStyle
  2
Linepattern
 70
    14
177
     2
291
     1
 71
     2
176
     1
 72
     2
176
     1
 73
     0
176
     1
 90
        0
176
     1
 40
0.6
176
     1
 41
30.0
176
     1
 63
     7
421
 16777215
176
     1
 74
     1
176
     1
 91
        4
176
     1
 64
     7
176
     1
 65
   257
176
     1
 75
     7
176
     1
175
     7
176
     1
 42
1.0
176
     1
 92
        8
176
     1
 66
     7
176
     1
 43
1.0
176
     1
 76
     1
176
     1
 77
     6
176
     1
 78
     2
176
     1
 67
     7
176
     1
 79
     5
176
     1
170
     0
176
     1
171
     0
176
     1
290
     0
176
     1
 93
        1
176
     1
 44
0.0
176
     1
173
     0
176
     1
1001
ACAD
1000
AcDbSavedByObjectVersion
1070
     0
  0
VISUALSTYLE
  5
40
102
{ACAD_XDICTIONARY
360
193
102
}
102
{ACAD_REACTORS
330
29
102
}
330
29
100
AcDbVisualStyle
  2
OverhangOff
 70
    21
177
     2
291
     1
 71
     2
176
     0
 72
     2
176
     0
 73
     0
176
     0
 90
        0
176
     0
 40
0.6
176
     0
 41
30.0
176
     0
 63
     7
421
 16777215
176
     0
 74
     1
176
     0
 91
        4
176
     0
 64
     7
176
     0
 65
   257
176
     0
 75
     1
176
     0
175
     1
176
     0
 42
1.0
176
     0
 92
        9
176
     2
 66
     7
176
     0
 43
1.0
176
     0
 76
     1
176
     0
 77
     6
176
     0
 78
     2
176
     0
 67
     7
176
     0
 79
     5
176
     0
170
     0
176
     0
171
     0
176
     0
290
     0
176
     0
 93
        1
176
     0
 44
0.0
176
     0
173
     0
176
     0
1001
ACAD
1000
AcDbSavedByObjectVersion
1070
     0
  0
VISUALSTYLE
  5
33
102
{ACAD_XDICTIONARY
360
179
102
}
102
{ACAD_REACTORS
330
29
102
}
330
29
100
AcDbVisualStyle
  2
Realistic
 70
     8
177
     2
291
     0
 71
     2
176
     1
 72
     3
176
     1
 73
     0
176
     1
 90
        2
176
     1
 40
0.6
176
     1
 41
30.0
176
     1
 63
     7
421
 16777215
176
     1
 74
     0
176
     1
 91
        0
176
     1
 64
     7
176
     1
 65
   257
176
     1
 75
     1
176
     1
175
     1
176
     1
 42
1.0
176
     1
 92
        8
176
     1
 66
   257
176
     1
 43
1.0
176
     1
 76
     1
176
     1
 77
     6
176
     1
 78
     2
176
     1
 67
     7
176
     1
 79
     3
176
     1
170
     0
176
     1
171
     0
176
     1
290
     0
176
     1
 93
       13
176
     1
 44
0.0
176
     1
173
     0
176
     1
1001
ACAD
1000
AcDbSavedByObjectVersion
1070
     0
  0
VISUALSTYLE
  5
3E
102
{ACAD_XDICTIONARY
360
18F
102
}
102
{ACAD_REACTORS
330
29
102
}
330
29
100
AcDbVisualStyle
  2
Shaded
 70
    27
177
     2
291
     0
 71
     2
176
     1
 72
     2
176
     1
 73
     1
176
     1
 90
        2
176
     1
 40
0.6
176
     1
 41
30.0
176
     1
 63
     7
421
 16777215
176
     1
 74
     0
176
     1
 91
        4
176
     1
 64
     7
176
     1
 65
   257
176
     1
 75
     1
176
     1
175
     1
176
     1
 42
1.0
176
     1
 92
        8
176
     1
 66
   257
176
     1
 43
1.0
176
     1
 76
     1
176
     1
 77
     6
176
     1
 78
     2
176
     1
 67
     8
425
  7895160
176
     1
 79
     3
176
     1
170
     0
176
     1
171
     0
176
     1
290
     0
176
     1
 93
        5
176
     1
 44
0.0
176
     1
173
     0
176
     1
1001
ACAD
1000
AcDbSavedByObjectVersion
1070
     0
  0
VISUALSTYLE
  5
3D
102
{ACAD_XDICTIONARY
360
18D
102
}
102
{ACAD_REACTORS
330
29
102
}
330
29
100
AcDbVisualStyle
  2
Shaded with edges
 70
    26
177
     2
291
     0
 71
     2
176
     1
 72
     2
176
     1
 73
     1
176
     1
 90
        2
176
     1
 40
0.6
176
     1
 41
30.0
176
     1
 63
     7
421
 16777215
176
     1
 74
     1
176
     1
 91
        2
176
     1
 64
     7
176
     1
 65
   257
176
     1
 75
     2
176
     1
175
     1
176
     1
 42
1.0
176
     1
 92
        8
176
     1
 66
   257
176
     1
 43
1.0
176
     1
 76
     1
176
     1
 77
     6
176
     1
 78
     2
176
     1
 67
     7
176
     1
 79
     3
176
     1
170
     0
176
     1
171
     0
176
     1
290
     0
176
     1
 93
        5
176
     1
 44
0.0
176
     1
173
     0
176
     1
1001
ACAD
1000
AcDbSavedByObjectVersion
1070
     0
  0
VISUALSTYLE
  5
3A
102
{ACAD_XDICTIONARY
360
187
102
}
102
{ACAD_REACTORS
330
29
102
}
330
29
100
AcDbVisualStyle
  2
Shades of Gray
 70
    23
177
     2
291
     0
 71
     2
176
     1
 72
     2
176
     1
 73
     3
176
     1
 90
        0
176
     1
 40
0.6
176
     1
 41
30.0
176
     1
 63
     7
421
 16777215
176
     1
 74
     2
176
     1
 91
        2
176
     1
 64
     7
176
     1
 65
     7
176
     1
 75
     1
176
     1
175
     1
176
     1
 42
40.0
176
     1
 92
        8
176
     1
 66
     7
176
     1
 43
1.0
176
     1
 76
     1
176
     1
 77
     6
176
     1
 78
     2
176
     1
 67
     7
176
     1
 79
     3
176
     1
170
     0
176
     1
171
     0
176
     1
290
     0
176
     1
 93
        1
176
     1
 44
0.0
176
     1
173
     0
176
     1
1001
ACAD
1000
AcDbSavedByObjectVersion
1070
     0
  0
VISUALSTYLE
  5
3B
102
{ACAD_XDICTIONARY
360
189
102
}
102
{ACAD_REACTORS
330
29
102
}
330
29
100
AcDbVisualStyle
  2
Sketchy
 70
    24
177
     2
291
     0
 71
     1
176
     1
 72
     2
176
     1
 73
     2
176
     1
 90
        0
176
     1
 40
0.6
176
     1
 41
30.0
176
     1
 63
     7
421
 16777215
176
     1
 74
     2
176
     1
 91
        2
176
     1
 64
     7
176
     1
 65
     7
176
     1
 75
     1
176
     1
175
     1
176
     1
 42
40.0
176
     1
 92
       11
176
     1
 66
     7
176
     1
 43
1.0
176
     1
 76
     1
176
     1
 77
     6
176
     1
 78
     2
176
     1
 67
     7
176
     1
 79
     6
176
     1
170
     0
176
     1
171
     0
176
     1
290
     0
176
     1
 93
        1
176
     1
 44
0.0
176
     1
173
     0
176
     1
1001
ACAD
1000
AcDbSavedByObjectVersion
1070
     0
  0
VISUALSTYLE
  5
36
102
{ACAD_XDICTIONARY
360
17F
102
}
102
{ACAD_REACTORS
330
29
102
}
330
29
100
AcDbVisualStyle
  2
Thicken
 70
    13
177
     2
291
     1
 71
     2
176
     1
 72
     2
176
     1
 73
     0
176
     1
 90
        0
176
     1
 40
0.6
176
     1
 41
30.0
176
     1
 63
     7
421
 16777215
176
     1
 74
     1
176
     1
 91
        4
176
     1
 64
     7
176
     1
 65
   257
176
     1
 75
     1
176
     1
175
     1
176
     1
 42
1.0
176
     1
 92
       12
176
     1
 66
     7
176
     1
 43
1.0
176
     1
 76
     1
176
     1
 77
     6
176
     1
 78
     2
176
     1
 67
     7
176
     1
 79
     5
176
     1
170
     0
176
     1
171
     0
176
     1
290
     0
176
     1
 93
        1
176
     1
 44
0.0
176
     1
173
     0
176
     1
1001
ACAD
1000
AcDbSavedByObjectVersion
1070
     0
  0
VISUALSTYLE
  5
30
102
{ACAD_XDICTIONARY
360
173
102
}
102
{ACAD_REACTORS
330
29
102
}
330
29
100
AcDbVisualStyle
  2
Wireframe
 70
     5
177
     2
291
     0
 71
     0
176
     1
 72
     2
176
     1
 73
     0
176
     1
 90
        0
176
     1
 40
0.6
176
     1
 41
30.0
176
     1
 63
     7
421
 16777215
176
     1
 74
     1
176
     1
 91
        4
176
     1
 64
     7
176
     1
 65
   257
176
     1
 75
     1
176
     1
175
     1
176
     1
 42
1.0
176
     1
 92
        0
176
     1
 66
   257
176
     1
 43
1.0
176
     1
 76
     1
176
     1
 77
     6
176
     1
 78
     2
176
     1
 67
     7
176
     1
 79
     3
176
     1
170
     0
176
     1
171
     0
176
     1
290
     0
176
     1
 93
        1
176
     1
 44
0.0
176
     1
173
     0
176
     1
1001
ACAD
1000
AcDbSavedByObjectVersion
1070
     0
  0
VISUALSTYLE
  5
3C
102
{ACAD_XDICTIONARY
360
18B
102
}
102
{ACAD_REACTORS
330
29
102
}
330
29
100
AcDbVisualStyle
  2
X-Ray
 70
    25
177
     2
291
     0
 71
     2
176
     1
 72
     2
176
     1
 73
     1
176
     1
 90
        1
176
     1
 40
0.5
176
     1
 41
30.0
176
     1
 63
     7
421
 16777215
176
     1
 74
     1
176
     1
 91
        0
176
     1
 64
     7
176
     1
 65
   257
176
     1
 75
     1
176
     1
175
     1
176
     1
 42
1.0
176
     1
 92
        8
176
     1
 66
     7
176
     1
 43
1.0
176
     1
 76
     1
176
     1
 77
     6
176
     1
 78
     2
176
     1
 67
     7
176
     1
 79
     3
176
     1
170
     0
176
     1
171
     0
176
     1
290
     0
176
     1
 93
       13
176
     1
 44
0.0
176
     1
173
     0
176
     1
1001
ACAD
1000
AcDbSavedByObjectVersion
1070
     0
  0
DICTIONARYVAR
  5
163
102
{ACAD_REACTORS
330
15E
102
}
330
15E
100
DictionaryVariables
280
     0
  1
1:1
  0
DICTIONARYVAR
  5
160
102
{ACAD_REACTORS
330
15E
102
}
330
15E
100
DictionaryVariables
280
     0
  1
STANDARD
  0
DICTIONARYVAR
  5
15F
102
{ACAD_REACTORS
330
15E
102
}
330
15E
100
DictionaryVariables
280
     0
  1
STANDARD
  0
DICTIONARYVAR
  5
161
102
{ACAD_REACTORS
330
15E
102
}
330
15E
100
DictionaryVariables
280
     0
  1
Imperial24
  0
DICTIONARYVAR
  5
162
102
{ACAD_REACTORS
330
15E
102
}
330
15E
100
DictionaryVariables
280
     0
  1
Imperial24
  0
DICTIONARY
  5
19B
330
6B
100
AcDbDictionary
280
     1
281
     1
  3
ACAD_XREC_ROUNDTRIP
360
19C
  0
DICTIONARY
  5
1A
330
19
100
AcDbDictionary
280
     1
281
     1
  3
BUMPTILE
360
1C
  3
DIFFUSETILE
360
1B
  3
OPACITYTILE
360
1F
  3
REFLECTIONTILE
360
1E
  3
REFRACTIONTILE
360
20
  3
SPECULARTILE
360
1D
  0
DICTIONARY
  5
12
330
11
100
AcDbDictionary
280
     1
281
     1
  3
BUMPTILE
360
14
  3
DIFFUSETILE
360
13
  3
OPACITYTILE
360
17
  3
REFLECTIONTILE
360
16
  3
REFRACTIONTILE
360
18
  3
SPECULARTILE
360
15
  0
DICTIONARY
  5
22
330
21
100
AcDbDictionary
280
     1
281
     1
  3
BUMPTILE
360
24
  3
DIFFUSETILE
360
23
  3
OPACITYTILE
360
27
  3
REFLECTIONTILE
360
26
  3
REFRACTIONTILE
360
28
  3
SPECULARTILE
360
25
  0
DICTIONARY
  5
197
330
67
100
AcDbDictionary
280
     1
281
     1
  3
ACAD_XREC_ROUNDTRIP
360
198
  0
DICTIONARY
  5
199
330
69
100
AcDbDictionary
280
     1
281
     1
  3
ACAD_XREC_ROUNDTRIP
360
19A
  0
DICTIONARY
  5
164
330
65
100
AcDbDictionary
280
     1
281
     1
  3
ACAD_ROUNDTRIP_2008_TABLESTYLE_CELLSTYLEMAP
360
165
  0
DICTIONARY
  5
171
330
2F
100
AcDbDictionary
280
     1
281
     1
  3
ACAD_XREC_ROUNDTRIP
360
172
  0
DICTIONARY
  5
16F
330
2E
100
AcDbDictionary
280
     1
281
     1
  3
ACAD_XREC_ROUNDTRIP
360
170
  0
DICTIONARY
  5
17D
330
35
100
AcDbDictionary
280
     1
281
     1
  3
ACAD_XREC_ROUNDTRIP
360
17E
  0
DICTIONARY
  5
185
330
39
100
AcDbDictionary
280
     1
281
     1
  3
ACAD_XREC_ROUNDTRIP
360
186
  0
DICTIONARY
  5
177
330
32
100
AcDbDictionary
280
     1
281
     1
  3
ACAD_XREC_ROUNDTRIP
360
178
  0
DICTIONARY
  5
17B
330
34
100
AcDbDictionary
280
     1
281
     1
  3
ACAD_XREC_ROUNDTRIP
360
17C
  0
DICTIONARY
  5
195
330
41
100
AcDbDictionary
280
     1
281
     1
  3
ACAD_XREC_ROUNDTRIP
360
196
  0
DICTIONARY
  5
183
330
38
100
AcDbDictionary
280
     1
281
     1
  3
ACAD_XREC_ROUNDTRIP
360
184
  0
DICTIONARY
  5
167
330
2A
100
AcDbDictionary
280
     1
281
     1
  3
ACAD_XREC_ROUNDTRIP
360
168
  0
DICTIONARY
  5
169
330
2B
100
AcDbDictionary
280
     1
281
     1
  3
ACAD_XREC_ROUNDTRIP
360
16A
  0
DICTIONARY
  5
16B
330
2C
100
AcDbDictionary
280
     1
281
     1
  3
ACAD_XREC_ROUNDTRIP
360
16C
  0
DICTIONARY
  5
16D
330
2D
100
AcDbDictionary
280
     1
281
     1
  3
ACAD_XREC_ROUNDTRIP
360
16E
  0
DICTIONARY
  5
175
330
31
100
AcDbDictionary
280
     1
281
     1
  3
ACAD_XREC_ROUNDTRIP
360
176
  0
DICTIONARY
  5
191
330
3F
100
AcDbDictionary
280
     1
281
     1
  3
ACAD_XREC_ROUNDTRIP
360
192
  0
DICTIONARY
  5
181
330
37
100
AcDbDictionary
280
     1
281
     1
  3
ACAD_XREC_ROUNDTRIP
360
182
  0
DICTIONARY
  5
193
330
40
100
AcDbDictionary
280
     1
281
     1
  3
ACAD_XREC_ROUNDTRIP
360
194
  0
DICTIONARY
  5
179
330
33
100
AcDbDictionary
280
     1
281
     1
  3
ACAD_XREC_ROUNDTRIP
360
17A
  0
DICTIONARY
  5
18F
330
3E
100
AcDbDictionary
280
     1
281
     1
  3
ACAD_XREC_ROUNDTRIP
360
190
  0
DICTIONARY
  5
18D
330
3D
100
AcDbDictionary
280
     1
281
     1
  3
ACAD_XREC_ROUNDTRIP
360
18E
  0
DICTIONARY
  5
187
330
3A
100
AcDbDictionary
280
     1
281
     1
  3
ACAD_XREC_ROUNDTRIP
360
188
  0
DICTIONARY
  5
189
330
3B
100
AcDbDictionary
280
     1
281
     1
  3
ACAD_XREC_ROUNDTRIP
360
18A
  0
DICTIONARY
  5
17F
330
36
100
AcDbDictionary
280
     1
281
     1
  3
ACAD_XREC_ROUNDTRIP
360
180
  0
DICTIONARY
  5
173
330
30
100
AcDbDictionary
280
     1
281
     1
  3
ACAD_XREC_ROUNDTRIP
360
174
  0
DICTIONARY
  5
18B
330
3C
100
AcDbDictionary
280
     1
281
     1
  3
ACAD_XREC_ROUNDTRIP
360
18C
  0
XRECORD
  5
19C
102
{ACAD_REACTORS
330
19B
102
}
330
19B
100
AcDbXrecord
280
     1
102
DISPLAYNAME
  1
Imperial24
102
FLAGS
 90
        0
  0
XRECORD
  5
1C
102
{ACAD_REACTORS
330
1A
102
}
330
1A
100
AcDbXrecord
280
     1
270
     1
271
     1
  0
XRECORD
  5
1B
102
{ACAD_REACTORS
330
1A
102
}
330
1A
100
AcDbXrecord
280
     1
270
     1
271
     1
  0
XRECORD
  5
1F
102
{ACAD_REACTORS
330
1A
102
}
330
1A
100
AcDbXrecord
280
     1
270
     1
271
     1
  0
XRECORD
  5
1E
102
{ACAD_REACTORS
330
1A
102
}
330
1A
100
AcDbXrecord
280
     1
270
     1
271
     1
  0
XRECORD
  5
20
102
{ACAD_REACTORS
330
1A
102
}
330
1A
100
AcDbXrecord
280
     1
270
     1
271
     1
  0
XRECORD
  5
1D
102
{ACAD_REACTORS
330
1A
102
}
330
1A
100
AcDbXrecord
280
     1
270
     1
271
     1
  0
XRECORD
  5
14
102
{ACAD_REACTORS
330
12
102
}
330
12
100
AcDbXrecord
280
     1
270
     1
271
     1
  0
XRECORD
  5
13
102
{ACAD_REACTORS
330
12
102
}
330
12
100
AcDbXrecord
280
     1
270
     1
271
     1
  0
XRECORD
  5
17
102
{ACAD_REACTORS
330
12
102
}
330
12
100
AcDbXrecord
280
     1
270
     1
271
     1
  0
XRECORD
  5
16
102
{ACAD_REACTORS
330
12
102
}
330
12
100
AcDbXrecord
280
     1
270
     1
271
     1
  0
XRECORD
  5
18
102
{ACAD_REACTORS
330
12
102
}
330
12
100
AcDbXrecord
280
     1
270
     1
271
     1
  0
XRECORD
  5
15
102
{ACAD_REACTORS
330
12
102
}
330
12
100
AcDbXrecord
280
     1
270
     1
271
     1
  0
XRECORD
  5
24
102
{ACAD_REACTORS
330
22
102
}
330
22
100
AcDbXrecord
280
     1
270
     1
271
     1
  0
XRECORD
  5
23
102
{ACAD_REACTORS
330
22
102
}
330
22
100
AcDbXrecord
280
     1
270
     1
271
     1
  0
XRECORD
  5
27
102
{ACAD_REACTORS
330
22
102
}
330
22
100
AcDbXrecord
280
     1
270
     1
271
     1
  0
XRECORD
  5
26
102
{ACAD_REACTORS
330
22
102
}
330
22
100
AcDbXrecord
280
     1
270
     1
271
     1
  0
XRECORD
  5
28
102
{ACAD_REACTORS
330
22
102
}
330
22
100
AcDbXrecord
280
     1
270
     1
271
     1
  0
XRECORD
  5
25
102
{ACAD_REACTORS
330
22
102
}
330
22
100
AcDbXrecord
280
     1
270
     1
271
     1
  0
XRECORD
  5
198
102
{ACAD_REACTORS
330
197
102
}
330
197
100
AcDbXrecord
280
     1
102
ACAD_ROUNDTRIP_2012_MLEADER_STYLE
298
     1
  0
XRECORD
  5
19A
102
{ACAD_REACTORS
330
199
102
}
330
199
100
AcDbXrecord
280
     1
102
DISPLAYNAME
  1
Imperial24
102
FLAGS
 90
        0
  0
CELLSTYLEMAP
  5
165
102
{ACAD_REACTORS
330
164
102
}
330
164
100
AcDbCellStyleMap
 90
        3
300
CELLSTYLE
  1
TABLEFORMAT_BEGIN
 90
        5
170
     1
 91
        0
 92
    32768
 62
   257
 93
        1
300
CONTENTFORMAT
  1
CONTENTFORMAT_BEGIN
 90
        0
 91
        0
 92
      512
 93
        0
300

 40
0.0
140
1.0
 94
        5
 62
     0
340
55
144
0.25
309
CONTENTFORMAT_END
171
     0
 94
        0
309
TABLEFORMAT_END
  1
CELLSTYLE_BEGIN
 90
        1
 91
        1
300
_TITLE
309
CELLSTYLE_END
300
CELLSTYLE
  1
TABLEFORMAT_BEGIN
 90
        5
170
     1
 91
        0
 92
        0
 62
   257
 93
        1
300
CONTENTFORMAT
  1
CONTENTFORMAT_BEGIN
 90
        0
 91
        0
 92
      512
 93
        0
300

 40
0.0
140
1.0
 94
        5
 62
     0
340
55
144
0.18
309
CONTENTFORMAT_END
171
     0
 94
        0
309
TABLEFORMAT_END
  1
CELLSTYLE_BEGIN
 90
        2
 91
        1
300
_HEADER
309
CELLSTYLE_END
300
CELLSTYLE
  1
TABLEFORMAT_BEGIN
 90
        5
170
     1
 91
        0
 92
        0
 62
   257
 93
        1
300
CONTENTFORMAT
  1
CONTENTFORMAT_BEGIN
 90
        0
 91
        0
 92
      512
 93
        0
300

 40
0.0
140
1.0
 94
        2
 62
     0
340
55
144
0.18
309
CONTENTFORMAT_END
171
     0
 94
        0
309
TABLEFORMAT_END
  1
CELLSTYLE_BEGIN
 90
        3
 91
        2
300
_DATA
309
CELLSTYLE_END
  0
XRECORD
  5
172
102
{ACAD_REACTORS
330
171
102
}
330
171
100
AcDbXrecord
280
     1
102
RTVSPost2010Prop28
280
     1
102
RTVSPost2010PropOp28
 70
     1
102
RTVSPost2010Prop29
280
     1
102
RTVSPost2010PropOp29
 70
     1
102
RTVSPost2010Prop30
280
     0
102
RTVSPost2010PropOp30
 70
     1
102
RTVSPost2010Prop31
280
     0
102
RTVSPost2010PropOp31
 70
     1
102
RTVSPost2010Prop32
280
     0
102
RTVSPost2010PropOp32
 70
     1
102
RTVSPost2010Prop33
280
     0
102
RTVSPost2010PropOp33
 70
     1
102
RTVSPost2010Prop34
280
     0
102
RTVSPost2010PropOp34
 70
     1
102
RTVSPost2010Prop35
280
     0
102
RTVSPost2010PropOp35
 70
     1
102
RTVSPost2010Prop36
280
     0
102
RTVSPost2010PropOp36
 70
     1
102
RTVSPost2010Prop37
 90
       50
102
RTVSPost2010PropOp37
 70
     1
102
RTVSPost2010Prop38
140
0.0
102
RTVSPost2010PropOp38
 70
     1
102
RTVSPost2010Prop39
140
1.0
102
RTVSPost2010PropOp39
 70
     1
102
RTVSPost2010Prop40
 90
        0
102
RTVSPost2010PropOp40
 70
     1
102
RTVSPost2010Prop41ColorIndex
 90
       18
102
RTVSPost2010Prop41ColorRGB
 90
        0
102
RTVSPost2010PropOp41
 70
     1
102
RTVSPost2010Prop42
 90
       50
102
RTVSPost2010PropOp42
 70
     1
102
RTVSPost2010Prop43
 90
        3
102
RTVSPost2010PropOp43
 70
     1
102
RTVSPost2010Prop44ColorIndex
 90
        5
102
RTVSPost2010Prop44ColorRGB
 90
      255
102
RTVSPost2010PropOp44
 70
     1
102
RTVSPost2010Prop45
280
     0
102
RTVSPost2010PropOp45
 70
     1
102
RTVSPost2010Prop46
 90
       50
102
RTVSPost2010PropOp46
 70
     1
102
RTVSPost2010Prop47
 90
       50
102
RTVSPost2010PropOp47
 70
     1
102
RTVSPost2010Prop48
 90
       50
102
RTVSPost2010PropOp48
 70
     1
102
RTVSPost2010Prop49
280
     0
102
RTVSPost2010PropOp49
 70
     1
102
RTVSPost2010Prop50
 90
       50
102
RTVSPost2010PropOp50
 70
     1
102
RTVSPost2010Prop51ColorIndex
 90
      256
102
RTVSPost2010Prop51ColorRGB
 90
-16777216
102
RTVSPost2010PropOp51
 70
     0
102
RTVSPost2010Prop52
140
1.0
102
RTVSPost2010PropOp52
 70
     0
102
RTVSPost2010Prop53
 90
        2
102
RTVSPost2010PropOp53
 70
     1
102
RTVSPost2010Prop54
  1
strokes_ogs.tif
102
RTVSPost2010PropOp54
 70
     1
102
RTVSPost2010Prop55
280
     0
102
RTVSPost2010PropOp55
 70
     1
102
RTVSPost2010Prop56
140
1.0
102
RTVSPost2010PropOp56
 70
     1
102
RTVSPost2010Prop57
140
1.0
102
RTVSPost2010PropOp57
 70
     1
  0
XRECORD
  5
170
102
{ACAD_REACTORS
330
16F
102
}
330
16F
100
AcDbXrecord
280
     1
102
RTVSPost2010Prop28
280
     0
102
RTVSPost2010PropOp28
 70
     1
102
RTVSPost2010Prop29
280
     1
102
RTVSPost2010PropOp29
 70
     1
102
RTVSPost2010Prop30
280
     1
102
RTVSPost2010PropOp30
 70
     1
102
RTVSPost2010Prop31
280
     0
102
RTVSPost2010PropOp31
 70
     1
102
RTVSPost2010Prop32
280
     0
102
RTVSPost2010PropOp32
 70
     1
102
RTVSPost2010Prop33
280
     0
102
RTVSPost2010PropOp33
 70
     1
102
RTVSPost2010Prop34
280
     0
102
RTVSPost2010PropOp34
 70
     1
102
RTVSPost2010Prop35
280
     0
102
RTVSPost2010PropOp35
 70
     1
102
RTVSPost2010Prop36
280
     0
102
RTVSPost2010PropOp36
 70
     1
102
RTVSPost2010Prop37
 90
       50
102
RTVSPost2010PropOp37
 70
     1
102
RTVSPost2010Prop38
140
0.0
102
RTVSPost2010PropOp38
 70
     1
102
RTVSPost2010Prop39
140
1.0
102
RTVSPost2010PropOp39
 70
     1
102
RTVSPost2010Prop40
 90
        0
102
RTVSPost2010PropOp40
 70
     1
102
RTVSPost2010Prop41ColorIndex
 90
       18
102
RTVSPost2010Prop41ColorRGB
 90
        0
102
RTVSPost2010PropOp41
 70
     1
102
RTVSPost2010Prop42
 90
       50
102
RTVSPost2010PropOp42
 70
     1
102
RTVSPost2010Prop43
 90
        3
102
RTVSPost2010PropOp43
 70
     1
102
RTVSPost2010Prop44ColorIndex
 90
        5
102
RTVSPost2010Prop44ColorRGB
 90
      255
102
RTVSPost2010PropOp44
 70
     1
102
RTVSPost2010Prop45
280
     0
102
RTVSPost2010PropOp45
 70
     1
102
RTVSPost2010Prop46
 90
       50
102
RTVSPost2010PropOp46
 70
     1
102
RTVSPost2010Prop47
 90
       50
102
RTVSPost2010PropOp47
 70
     1
102
RTVSPost2010Prop48
 90
       50
102
RTVSPost2010PropOp48
 70
     1
102
RTVSPost2010Prop49
280
     0
102
RTVSPost2010PropOp49
 70
     1
102
RTVSPost2010Prop50
 90
       50
102
RTVSPost2010PropOp50
 70
     1
102
RTVSPost2010Prop51ColorIndex
 90
      256
102
RTVSPost2010Prop51ColorRGB
 90
-16777216
102
RTVSPost2010PropOp51
 70
     0
102
RTVSPost2010Prop52
140
1.0
102
RTVSPost2010PropOp52
 70
     0
102
RTVSPost2010Prop53
 90
        2
102
RTVSPost2010PropOp53
 70
     1
102
RTVSPost2010Prop54
  1
strokes_ogs.tif
102
RTVSPost2010PropOp54
 70
     1
102
RTVSPost2010Prop55
280
     0
102
RTVSPost2010PropOp55
 70
     1
102
RTVSPost2010Prop56
140
1.0
102
RTVSPost2010PropOp56
 70
     1
102
RTVSPost2010Prop57
140
1.0
102
RTVSPost2010PropOp57
 70
     1
  0
XRECORD
  5
17E
102
{ACAD_REACTORS
330
17D
102
}
330
17D
100
AcDbXrecord
280
     1
102
RTVSPost2010Prop28
280
     0
102
RTVSPost2010PropOp28
 70
     1
102
RTVSPost2010Prop29
280
     1
102
RTVSPost2010PropOp29
 70
     1
102
RTVSPost2010Prop30
280
     1
102
RTVSPost2010PropOp30
 70
     1
102
RTVSPost2010Prop31
280
     0
102
RTVSPost2010PropOp31
 70
     1
102
RTVSPost2010Prop32
280
     0
102
RTVSPost2010PropOp32
 70
     1
102
RTVSPost2010Prop33
280
     0
102
RTVSPost2010PropOp33
 70
     1
102
RTVSPost2010Prop34
280
     0
102
RTVSPost2010PropOp34
 70
     1
102
RTVSPost2010Prop35
280
     0
102
RTVSPost2010PropOp35
 70
     1
102
RTVSPost2010Prop36
280
     0
102
RTVSPost2010PropOp36
 70
     1
102
RTVSPost2010Prop37
 90
       50
102
RTVSPost2010PropOp37
 70
     1
102
RTVSPost2010Prop38
140
0.0
102
RTVSPost2010PropOp38
 70
     1
102
RTVSPost2010Prop39
140
1.0
102
RTVSPost2010PropOp39
 70
     1
102
RTVSPost2010Prop40
 90
        0
102
RTVSPost2010PropOp40
 70
     1
102
RTVSPost2010Prop41ColorIndex
 90
       18
102
RTVSPost2010Prop41ColorRGB
 90
        0
102
RTVSPost2010PropOp41
 70
     1
102
RTVSPost2010Prop42
 90
       50
102
RTVSPost2010PropOp42
 70
     1
102
RTVSPost2010Prop43
 90
        3
102
RTVSPost2010PropOp43
 70
     1
102
RTVSPost2010Prop44ColorIndex
 90
        5
102
RTVSPost2010Prop44ColorRGB
 90
      255
102
RTVSPost2010PropOp44
 70
     1
102
RTVSPost2010Prop45
280
     0
102
RTVSPost2010PropOp45
 70
     1
102
RTVSPost2010Prop46
 90
       50
102
RTVSPost2010PropOp46
 70
     1
102
RTVSPost2010Prop47
 90
       50
102
RTVSPost2010PropOp47
 70
     1
102
RTVSPost2010Prop48
 90
       50
102
RTVSPost2010PropOp48
 70
     1
102
RTVSPost2010Prop49
280
     0
102
RTVSPost2010PropOp49
 70
     1
102
RTVSPost2010Prop50
 90
       50
102
RTVSPost2010PropOp50
 70
     1
102
RTVSPost2010Prop51ColorIndex
 90
      256
102
RTVSPost2010Prop51ColorRGB
 90
-16777216
102
RTVSPost2010PropOp51
 70
     0
102
RTVSPost2010Prop52
140
1.0
102
RTVSPost2010PropOp52
 70
     0
102
RTVSPost2010Prop53
 90
        2
102
RTVSPost2010PropOp53
 70
     1
102
RTVSPost2010Prop54
  1
strokes_ogs.tif
102
RTVSPost2010PropOp54
 70
     1
102
RTVSPost2010Prop55
280
     0
102
RTVSPost2010PropOp55
 70
     1
102
RTVSPost2010Prop56
140
1.0
102
RTVSPost2010PropOp56
 70
     1
102
RTVSPost2010Prop57
140
1.0
102
RTVSPost2010PropOp57
 70
     1
  0
XRECORD
  5
186
102
{ACAD_REACTORS
330
185
102
}
330
185
100
AcDbXrecord
280
     1
102
RTVSPost2010Prop28
280
     0
102
RTVSPost2010PropOp28
 70
     1
102
RTVSPost2010Prop29
280
     1
102
RTVSPost2010PropOp29
 70
     1
102
RTVSPost2010Prop30
280
     1
102
RTVSPost2010PropOp30
 70
     1
102
RTVSPost2010Prop31
280
     0
102
RTVSPost2010PropOp31
 70
     1
102
RTVSPost2010Prop32
280
     0
102
RTVSPost2010PropOp32
 70
     1
102
RTVSPost2010Prop33
280
     0
102
RTVSPost2010PropOp33
 70
     1
102
RTVSPost2010Prop34
280
     0
102
RTVSPost2010PropOp34
 70
     1
102
RTVSPost2010Prop35
280
     0
102
RTVSPost2010PropOp35
 70
     1
102
RTVSPost2010Prop36
280
     0
102
RTVSPost2010PropOp36
 70
     1
102
RTVSPost2010Prop37
 90
       50
102
RTVSPost2010PropOp37
 70
     1
102
RTVSPost2010Prop38
140
0.0
102
RTVSPost2010PropOp38
 70
     1
102
RTVSPost2010Prop39
140
1.0
102
RTVSPost2010PropOp39
 70
     1
102
RTVSPost2010Prop40
 90
        0
102
RTVSPost2010PropOp40
 70
     1
102
RTVSPost2010Prop41ColorIndex
 90
       18
102
RTVSPost2010Prop41ColorRGB
 90
        0
102
RTVSPost2010PropOp41
 70
     1
102
RTVSPost2010Prop42
 90
       50
102
RTVSPost2010PropOp42
 70
     1
102
RTVSPost2010Prop43
 90
        3
102
RTVSPost2010PropOp43
 70
     1
102
RTVSPost2010Prop44ColorIndex
 90
        5
102
RTVSPost2010Prop44ColorRGB
 90
      255
102
RTVSPost2010PropOp44
 70
     1
102
RTVSPost2010Prop45
280
     0
102
RTVSPost2010PropOp45
 70
     1
102
RTVSPost2010Prop46
 90
       50
102
RTVSPost2010PropOp46
 70
     1
102
RTVSPost2010Prop47
 90
       50
102
RTVSPost2010PropOp47
 70
     1
102
RTVSPost2010Prop48
 90
       50
102
RTVSPost2010PropOp48
 70
     1
102
RTVSPost2010Prop49
280
     0
102
RTVSPost2010PropOp49
 70
     1
102
RTVSPost2010Prop50
 90
       50
102
RTVSPost2010PropOp50
 70
     1
102
RTVSPost2010Prop51ColorIndex
 90
      256
102
RTVSPost2010Prop51ColorRGB
 90
-16777216
102
RTVSPost2010PropOp51
 70
     0
102
RTVSPost2010Prop52
140
1.0
102
RTVSPost2010PropOp52
 70
     0
102
RTVSPost2010Prop53
 90
        2
102
RTVSPost2010PropOp53
 70
     1
102
RTVSPost2010Prop54
  1
strokes_ogs.tif
102
RTVSPost2010PropOp54
 70
     1
102
RTVSPost2010Prop55
280
     0
102
RTVSPost2010PropOp55
 70
     1
102
RTVSPost2010Prop56
140
1.0
102
RTVSPost2010PropOp56
 70
     1
102
RTVSPost2010Prop57
140
1.0
102
RTVSPost2010PropOp57
 70
     1
  0
XRECORD
  5
178
102
{ACAD_REACTORS
330
177
102
}
330
177
100
AcDbXrecord
280
     1
102
RTVSPost2010Prop28
280
     0
102
RTVSPost2010PropOp28
 70
     1
102
RTVSPost2010Prop29
280
     1
102
RTVSPost2010PropOp29
 70
     1
102
RTVSPost2010Prop30
280
     1
102
RTVSPost2010PropOp30
 70
     1
102
RTVSPost2010Prop31
280
     0
102
RTVSPost2010PropOp31
 70
     1
102
RTVSPost2010Prop32
280
     0
102
RTVSPost2010PropOp32
 70
     1
102
RTVSPost2010Prop33
280
     0
102
RTVSPost2010PropOp33
 70
     1
102
RTVSPost2010Prop34
280
     0
102
RTVSPost2010PropOp34
 70
     1
102
RTVSPost2010Prop35
280
     0
102
RTVSPost2010PropOp35
 70
     1
102
RTVSPost2010Prop36
280
     0
102
RTVSPost2010PropOp36
 70
     1
102
RTVSPost2010Prop37
 90
       50
102
RTVSPost2010PropOp37
 70
     1
102
RTVSPost2010Prop38
140
0.0
102
RTVSPost2010PropOp38
 70
     1
102
RTVSPost2010Prop39
140
1.0
102
RTVSPost2010PropOp39
 70
     1
102
RTVSPost2010Prop40
 90
        0
102
RTVSPost2010PropOp40
 70
     1
102
RTVSPost2010Prop41ColorIndex
 90
       18
102
RTVSPost2010Prop41ColorRGB
 90
        0
102
RTVSPost2010PropOp41
 70
     1
102
RTVSPost2010Prop42
 90
       50
102
RTVSPost2010PropOp42
 70
     1
102
RTVSPost2010Prop43
 90
        3
102
RTVSPost2010PropOp43
 70
     1
102
RTVSPost2010Prop44ColorIndex
 90
        5
102
RTVSPost2010Prop44ColorRGB
 90
      255
102
RTVSPost2010PropOp44
 70
     1
102
RTVSPost2010Prop45
280
     0
102
RTVSPost2010PropOp45
 70
     1
102
RTVSPost2010Prop46
 90
       50
102
RTVSPost2010PropOp46
 70
     1
102
RTVSPost2010Prop47
 90
       50
102
RTVSPost2010PropOp47
 70
     1
102
RTVSPost2010Prop48
 90
       50
102
RTVSPost2010PropOp48
 70
     1
102
RTVSPost2010Prop49
280
     0
102
RTVSPost2010PropOp49
 70
     1
102
RTVSPost2010Prop50
 90
       50
102
RTVSPost2010PropOp50
 70
     1
102
RTVSPost2010Prop51ColorIndex
 90
      256
102
RTVSPost2010Prop51ColorRGB
 90
-16777216
102
RTVSPost2010PropOp51
 70
     0
102
RTVSPost2010Prop52
140
1.0
102
RTVSPost2010PropOp52
 70
     0
102
RTVSPost2010Prop53
 90
        2
102
RTVSPost2010PropOp53
 70
     1
102
RTVSPost2010Prop54
  1
strokes_ogs.tif
102
RTVSPost2010PropOp54
 70
     1
102
RTVSPost2010Prop55
280
     0
102
RTVSPost2010PropOp55
 70
     1
102
RTVSPost2010Prop56
140
1.0
102
RTVSPost2010PropOp56
 70
     1
102
RTVSPost2010Prop57
140
1.0
102
RTVSPost2010PropOp57
 70
     1
  0
XRECORD
  5
17C
102
{ACAD_REACTORS
330
17B
102
}
330
17B
100
AcDbXrecord
280
     1
102
RTVSPost2010Prop28
280
     0
102
RTVSPost2010PropOp28
 70
     1
102
RTVSPost2010Prop29
280
     1
102
RTVSPost2010PropOp29
 70
     1
102
RTVSPost2010Prop30
280
     1
102
RTVSPost2010PropOp30
 70
     1
102
RTVSPost2010Prop31
280
     0
102
RTVSPost2010PropOp31
 70
     1
102
RTVSPost2010Prop32
280
     0
102
RTVSPost2010PropOp32
 70
     1
102
RTVSPost2010Prop33
280
     0
102
RTVSPost2010PropOp33
 70
     1
102
RTVSPost2010Prop34
280
     0
102
RTVSPost2010PropOp34
 70
     1
102
RTVSPost2010Prop35
280
     0
102
RTVSPost2010PropOp35
 70
     1
102
RTVSPost2010Prop36
280
     0
102
RTVSPost2010PropOp36
 70
     1
102
RTVSPost2010Prop37
 90
       50
102
RTVSPost2010PropOp37
 70
     1
102
RTVSPost2010Prop38
140
0.0
102
RTVSPost2010PropOp38
 70
     1
102
RTVSPost2010Prop39
140
1.0
102
RTVSPost2010PropOp39
 70
     1
102
RTVSPost2010Prop40
 90
        0
102
RTVSPost2010PropOp40
 70
     1
102
RTVSPost2010Prop41ColorIndex
 90
       18
102
RTVSPost2010Prop41ColorRGB
 90
        0
102
RTVSPost2010PropOp41
 70
     1
102
RTVSPost2010Prop42
 90
       50
102
RTVSPost2010PropOp42
 70
     1
102
RTVSPost2010Prop43
 90
        3
102
RTVSPost2010PropOp43
 70
     1
102
RTVSPost2010Prop44ColorIndex
 90
        5
102
RTVSPost2010Prop44ColorRGB
 90
      255
102
RTVSPost2010PropOp44
 70
     1
102
RTVSPost2010Prop45
280
     0
102
RTVSPost2010PropOp45
 70
     1
102
RTVSPost2010Prop46
 90
       50
102
RTVSPost2010PropOp46
 70
     1
102
RTVSPost2010Prop47
 90
       50
102
RTVSPost2010PropOp47
 70
     1
102
RTVSPost2010Prop48
 90
       50
102
RTVSPost2010PropOp48
 70
     1
102
RTVSPost2010Prop49
280
     0
102
RTVSPost2010PropOp49
 70
     1
102
RTVSPost2010Prop50
 90
       50
102
RTVSPost2010PropOp50
 70
     1
102
RTVSPost2010Prop51ColorIndex
 90
      256
102
RTVSPost2010Prop51ColorRGB
 90
-16777216
102
RTVSPost2010PropOp51
 70
     0
102
RTVSPost2010Prop52
140
1.0
102
RTVSPost2010PropOp52
 70
     0
102
RTVSPost2010Prop53
 90
        2
102
RTVSPost2010PropOp53
 70
     1
102
RTVSPost2010Prop54
  1
strokes_ogs.tif
102
RTVSPost2010PropOp54
 70
     1
102
RTVSPost2010Prop55
280
     0
102
RTVSPost2010PropOp55
 70
     1
102
RTVSPost2010Prop56
140
1.0
102
RTVSPost2010PropOp56
 70
     1
102
RTVSPost2010Prop57
140
1.0
102
RTVSPost2010PropOp57
 70
     1
  0
XRECORD
  5
196
102
{ACAD_REACTORS
330
195
102
}
330
195
100
AcDbXrecord
280
     1
102
RTVSPost2010Prop28
280
     0
102
RTVSPost2010PropOp28
 70
     0
102
RTVSPost2010Prop29
280
     1
102
RTVSPost2010PropOp29
 70
     0
102
RTVSPost2010Prop30
280
     1
102
RTVSPost2010PropOp30
 70
     0
102
RTVSPost2010Prop31
280
     0
102
RTVSPost2010PropOp31
 70
     0
102
RTVSPost2010Prop32
280
     0
102
RTVSPost2010PropOp32
 70
     0
102
RTVSPost2010Prop33
280
     0
102
RTVSPost2010PropOp33
 70
     0
102
RTVSPost2010Prop34
280
     0
102
RTVSPost2010PropOp34
 70
     0
102
RTVSPost2010Prop35
280
     0
102
RTVSPost2010PropOp35
 70
     0
102
RTVSPost2010Prop36
280
     0
102
RTVSPost2010PropOp36
 70
     0
102
RTVSPost2010Prop37
 90
       50
102
RTVSPost2010PropOp37
 70
     0
102
RTVSPost2010Prop38
140
0.0
102
RTVSPost2010PropOp38
 70
     0
102
RTVSPost2010Prop39
140
1.0
102
RTVSPost2010PropOp39
 70
     0
102
RTVSPost2010Prop40
 90
        0
102
RTVSPost2010PropOp40
 70
     0
102
RTVSPost2010Prop41ColorIndex
 90
       18
102
RTVSPost2010Prop41ColorRGB
 90
        0
102
RTVSPost2010PropOp41
 70
     0
102
RTVSPost2010Prop42
 90
       50
102
RTVSPost2010PropOp42
 70
     0
102
RTVSPost2010Prop43
 90
        3
102
RTVSPost2010PropOp43
 70
     0
102
RTVSPost2010Prop44ColorIndex
 90
        5
102
RTVSPost2010Prop44ColorRGB
 90
      255
102
RTVSPost2010PropOp44
 70
     0
102
RTVSPost2010Prop45
280
     0
102
RTVSPost2010PropOp45
 70
     0
102
RTVSPost2010Prop46
 90
       50
102
RTVSPost2010PropOp46
 70
     0
102
RTVSPost2010Prop47
 90
       50
102
RTVSPost2010PropOp47
 70
     0
102
RTVSPost2010Prop48
 90
       50
102
RTVSPost2010PropOp48
 70
     0
102
RTVSPost2010Prop49
280
     0
102
RTVSPost2010PropOp49
 70
     0
102
RTVSPost2010Prop50
 90
       50
102
RTVSPost2010PropOp50
 70
     0
102
RTVSPost2010Prop51ColorIndex
 90
      256
102
RTVSPost2010Prop51ColorRGB
 90
-16777216
102
RTVSPost2010PropOp51
 70
     0
102
RTVSPost2010Prop52
140
1.0
102
RTVSPost2010PropOp52
 70
     0
102
RTVSPost2010Prop53
 90
        2
102
RTVSPost2010PropOp53
 70
     0
102
RTVSPost2010Prop54
  1
strokes_ogs.tif
102
RTVSPost2010PropOp54
 70
     0
102
RTVSPost2010Prop55
280
     0
102
RTVSPost2010PropOp55
 70
     0
102
RTVSPost2010Prop56
140
1.0
102
RTVSPost2010PropOp56
 70
     0
102
RTVSPost2010Prop57
140
1.0
102
RTVSPost2010PropOp57
 70
     0
  0
XRECORD
  5
184
102
{ACAD_REACTORS
330
183
102
}
330
183
100
AcDbXrecord
280
     1
102
RTVSPost2010Prop28
280
     0
102
RTVSPost2010PropOp28
 70
     1
102
RTVSPost2010Prop29
280
     1
102
RTVSPost2010PropOp29
 70
     1
102
RTVSPost2010Prop30
280
     1
102
RTVSPost2010PropOp30
 70
     1
102
RTVSPost2010Prop31
280
     0
102
RTVSPost2010PropOp31
 70
     1
102
RTVSPost2010Prop32
280
     0
102
RTVSPost2010PropOp32
 70
     1
102
RTVSPost2010Prop33
280
     0
102
RTVSPost2010PropOp33
 70
     1
102
RTVSPost2010Prop34
280
     0
102
RTVSPost2010PropOp34
 70
     1
102
RTVSPost2010Prop35
280
     0
102
RTVSPost2010PropOp35
 70
     1
102
RTVSPost2010Prop36
280
     0
102
RTVSPost2010PropOp36
 70
     1
102
RTVSPost2010Prop37
 90
       50
102
RTVSPost2010PropOp37
 70
     1
102
RTVSPost2010Prop38
140
0.0
102
RTVSPost2010PropOp38
 70
     1
102
RTVSPost2010Prop39
140
1.0
102
RTVSPost2010PropOp39
 70
     1
102
RTVSPost2010Prop40
 90
        0
102
RTVSPost2010PropOp40
 70
     1
102
RTVSPost2010Prop41ColorIndex
 90
       18
102
RTVSPost2010Prop41ColorRGB
 90
        0
102
RTVSPost2010PropOp41
 70
     1
102
RTVSPost2010Prop42
 90
       50
102
RTVSPost2010PropOp42
 70
     1
102
RTVSPost2010Prop43
 90
        3
102
RTVSPost2010PropOp43
 70
     1
102
RTVSPost2010Prop44ColorIndex
 90
        5
102
RTVSPost2010Prop44ColorRGB
 90
      255
102
RTVSPost2010PropOp44
 70
     1
102
RTVSPost2010Prop45
280
     0
102
RTVSPost2010PropOp45
 70
     1
102
RTVSPost2010Prop46
 90
       50
102
RTVSPost2010PropOp46
 70
     1
102
RTVSPost2010Prop47
 90
       50
102
RTVSPost2010PropOp47
 70
     1
102
RTVSPost2010Prop48
 90
       50
102
RTVSPost2010PropOp48
 70
     1
102
RTVSPost2010Prop49
280
     0
102
RTVSPost2010PropOp49
 70
     1
102
RTVSPost2010Prop50
 90
       50
102
RTVSPost2010PropOp50
 70
     1
102
RTVSPost2010Prop51ColorIndex
 90
      256
102
RTVSPost2010Prop51ColorRGB
 90
-16777216
102
RTVSPost2010PropOp51
 70
     0
102
RTVSPost2010Prop52
140
1.0
102
RTVSPost2010PropOp52
 70
     0
102
RTVSPost2010Prop53
 90
        2
102
RTVSPost2010PropOp53
 70
     1
102
RTVSPost2010Prop54
  1
strokes_ogs.tif
102
RTVSPost2010PropOp54
 70
     1
102
RTVSPost2010Prop55
280
     0
102
RTVSPost2010PropOp55
 70
     1
102
RTVSPost2010Prop56
140
1.0
102
RTVSPost2010PropOp56
 70
     1
102
RTVSPost2010Prop57
140
1.0
102
RTVSPost2010PropOp57
 70
     1
  0
XRECORD
  5
168
102
{ACAD_REACTORS
330
167
102
}
330
167
100
AcDbXrecord
280
     1
102
RTVSPost2010Prop28
280
     0
102
RTVSPost2010PropOp28
 70
     1
102
RTVSPost2010Prop29
280
     1
102
RTVSPost2010PropOp29
 70
     1
102
RTVSPost2010Prop30
280
     1
102
RTVSPost2010PropOp30
 70
     1
102
RTVSPost2010Prop31
280
     0
102
RTVSPost2010PropOp31
 70
     1
102
RTVSPost2010Prop32
280
     0
102
RTVSPost2010PropOp32
 70
     1
102
RTVSPost2010Prop33
280
     0
102
RTVSPost2010PropOp33
 70
     1
102
RTVSPost2010Prop34
280
     0
102
RTVSPost2010PropOp34
 70
     1
102
RTVSPost2010Prop35
280
     0
102
RTVSPost2010PropOp35
 70
     1
102
RTVSPost2010Prop36
280
     0
102
RTVSPost2010PropOp36
 70
     1
102
RTVSPost2010Prop37
 90
       50
102
RTVSPost2010PropOp37
 70
     1
102
RTVSPost2010Prop38
140
0.0
102
RTVSPost2010PropOp38
 70
     1
102
RTVSPost2010Prop39
140
1.0
102
RTVSPost2010PropOp39
 70
     1
102
RTVSPost2010Prop40
 90
        0
102
RTVSPost2010PropOp40
 70
     1
102
RTVSPost2010Prop41ColorIndex
 90
       18
102
RTVSPost2010Prop41ColorRGB
 90
        0
102
RTVSPost2010PropOp41
 70
     1
102
RTVSPost2010Prop42
 90
       50
102
RTVSPost2010PropOp42
 70
     1
102
RTVSPost2010Prop43
 90
        3
102
RTVSPost2010PropOp43
 70
     1
102
RTVSPost2010Prop44ColorIndex
 90
        5
102
RTVSPost2010Prop44ColorRGB
 90
      255
102
RTVSPost2010PropOp44
 70
     1
102
RTVSPost2010Prop45
280
     0
102
RTVSPost2010PropOp45
 70
     1
102
RTVSPost2010Prop46
 90
       50
102
RTVSPost2010PropOp46
 70
     1
102
RTVSPost2010Prop47
 90
       50
102
RTVSPost2010PropOp47
 70
     1
102
RTVSPost2010Prop48
 90
       50
102
RTVSPost2010PropOp48
 70
     1
102
RTVSPost2010Prop49
280
     0
102
RTVSPost2010PropOp49
 70
     1
102
RTVSPost2010Prop50
 90
       50
102
RTVSPost2010PropOp50
 70
     1
102
RTVSPost2010Prop51ColorIndex
 90
      256
102
RTVSPost2010Prop51ColorRGB
 90
-16777216
102
RTVSPost2010PropOp51
 70
     0
102
RTVSPost2010Prop52
140
1.0
102
RTVSPost2010PropOp52
 70
     0
102
RTVSPost2010Prop53
 90
        2
102
RTVSPost2010PropOp53
 70
     1
102
RTVSPost2010Prop54
  1
strokes_ogs.tif
102
RTVSPost2010PropOp54
 70
     1
102
RTVSPost2010Prop55
280
     0
102
RTVSPost2010PropOp55
 70
     1
102
RTVSPost2010Prop56
140
1.0
102
RTVSPost2010PropOp56
 70
     1
102
RTVSPost2010Prop57
140
1.0
102
RTVSPost2010PropOp57
 70
     1
  0
XRECORD
  5
16A
102
{ACAD_REACTORS
330
169
102
}
330
169
100
AcDbXrecord
280
     1
102
RTVSPost2010Prop28
280
     0
102
RTVSPost2010PropOp28
 70
     1
102
RTVSPost2010Prop29
280
     1
102
RTVSPost2010PropOp29
 70
     1
102
RTVSPost2010Prop30
280
     1
102
RTVSPost2010PropOp30
 70
     1
102
RTVSPost2010Prop31
280
     0
102
RTVSPost2010PropOp31
 70
     1
102
RTVSPost2010Prop32
280
     0
102
RTVSPost2010PropOp32
 70
     1
102
RTVSPost2010Prop33
280
     0
102
RTVSPost2010PropOp33
 70
     1
102
RTVSPost2010Prop34
280
     0
102
RTVSPost2010PropOp34
 70
     1
102
RTVSPost2010Prop35
280
     0
102
RTVSPost2010PropOp35
 70
     1
102
RTVSPost2010Prop36
280
     0
102
RTVSPost2010PropOp36
 70
     1
102
RTVSPost2010Prop37
 90
       50
102
RTVSPost2010PropOp37
 70
     1
102
RTVSPost2010Prop38
140
0.0
102
RTVSPost2010PropOp38
 70
     1
102
RTVSPost2010Prop39
140
1.0
102
RTVSPost2010PropOp39
 70
     1
102
RTVSPost2010Prop40
 90
        0
102
RTVSPost2010PropOp40
 70
     1
102
RTVSPost2010Prop41ColorIndex
 90
       18
102
RTVSPost2010Prop41ColorRGB
 90
        0
102
RTVSPost2010PropOp41
 70
     1
102
RTVSPost2010Prop42
 90
       50
102
RTVSPost2010PropOp42
 70
     1
102
RTVSPost2010Prop43
 90
        3
102
RTVSPost2010PropOp43
 70
     1
102
RTVSPost2010Prop44ColorIndex
 90
        5
102
RTVSPost2010Prop44ColorRGB
 90
      255
102
RTVSPost2010PropOp44
 70
     1
102
RTVSPost2010Prop45
280
     0
102
RTVSPost2010PropOp45
 70
     1
102
RTVSPost2010Prop46
 90
       50
102
RTVSPost2010PropOp46
 70
     1
102
RTVSPost2010Prop47
 90
       50
102
RTVSPost2010PropOp47
 70
     1
102
RTVSPost2010Prop48
 90
       50
102
RTVSPost2010PropOp48
 70
     1
102
RTVSPost2010Prop49
280
     0
102
RTVSPost2010PropOp49
 70
     1
102
RTVSPost2010Prop50
 90
       50
102
RTVSPost2010PropOp50
 70
     1
102
RTVSPost2010Prop51ColorIndex
 90
      256
102
RTVSPost2010Prop51ColorRGB
 90
-16777216
102
RTVSPost2010PropOp51
 70
     0
102
RTVSPost2010Prop52
140
1.0
102
RTVSPost2010PropOp52
 70
     0
102
RTVSPost2010Prop53
 90
        2
102
RTVSPost2010PropOp53
 70
     1
102
RTVSPost2010Prop54
  1
strokes_ogs.tif
102
RTVSPost2010PropOp54
 70
     1
102
RTVSPost2010Prop55
280
     0
102
RTVSPost2010PropOp55
 70
     1
102
RTVSPost2010Prop56
140
1.0
102
RTVSPost2010PropOp56
 70
     1
102
RTVSPost2010Prop57
140
1.0
102
RTVSPost2010PropOp57
 70
     1
  0
XRECORD
  5
16C
102
{ACAD_REACTORS
330
16B
102
}
330
16B
100
AcDbXrecord
280
     1
102
RTVSPost2010Prop28
280
     0
102
RTVSPost2010PropOp28
 70
     1
102
RTVSPost2010Prop29
280
     1
102
RTVSPost2010PropOp29
 70
     1
102
RTVSPost2010Prop30
280
     1
102
RTVSPost2010PropOp30
 70
     1
102
RTVSPost2010Prop31
280
     0
102
RTVSPost2010PropOp31
 70
     1
102
RTVSPost2010Prop32
280
     0
102
RTVSPost2010PropOp32
 70
     1
102
RTVSPost2010Prop33
280
     0
102
RTVSPost2010PropOp33
 70
     1
102
RTVSPost2010Prop34
280
     0
102
RTVSPost2010PropOp34
 70
     1
102
RTVSPost2010Prop35
280
     0
102
RTVSPost2010PropOp35
 70
     1
102
RTVSPost2010Prop36
280
     0
102
RTVSPost2010PropOp36
 70
     1
102
RTVSPost2010Prop37
 90
       50
102
RTVSPost2010PropOp37
 70
     1
102
RTVSPost2010Prop38
140
0.0
102
RTVSPost2010PropOp38
 70
     1
102
RTVSPost2010Prop39
140
1.0
102
RTVSPost2010PropOp39
 70
     1
102
RTVSPost2010Prop40
 90
        0
102
RTVSPost2010PropOp40
 70
     1
102
RTVSPost2010Prop41ColorIndex
 90
       18
102
RTVSPost2010Prop41ColorRGB
 90
        0
102
RTVSPost2010PropOp41
 70
     1
102
RTVSPost2010Prop42
 90
       50
102
RTVSPost2010PropOp42
 70
     1
102
RTVSPost2010Prop43
 90
        3
102
RTVSPost2010PropOp43
 70
     1
102
RTVSPost2010Prop44ColorIndex
 90
        5
102
RTVSPost2010Prop44ColorRGB
 90
      255
102
RTVSPost2010PropOp44
 70
     1
102
RTVSPost2010Prop45
280
     0
102
RTVSPost2010PropOp45
 70
     1
102
RTVSPost2010Prop46
 90
       50
102
RTVSPost2010PropOp46
 70
     1
102
RTVSPost2010Prop47
 90
       50
102
RTVSPost2010PropOp47
 70
     1
102
RTVSPost2010Prop48
 90
       50
102
RTVSPost2010PropOp48
 70
     1
102
RTVSPost2010Prop49
280
     0
102
RTVSPost2010PropOp49
 70
     1
102
RTVSPost2010Prop50
 90
       50
102
RTVSPost2010PropOp50
 70
     1
102
RTVSPost2010Prop51ColorIndex
 90
      256
102
RTVSPost2010Prop51ColorRGB
 90
-16777216
102
RTVSPost2010PropOp51
 70
     0
102
RTVSPost2010Prop52
140
1.0
102
RTVSPost2010PropOp52
 70
     0
102
RTVSPost2010Prop53
 90
        2
102
RTVSPost2010PropOp53
 70
     1
102
RTVSPost2010Prop54
  1
strokes_ogs.tif
102
RTVSPost2010PropOp54
 70
     1
102
RTVSPost2010Prop55
280
     0
102
RTVSPost2010PropOp55
 70
     1
102
RTVSPost2010Prop56
140
1.0
102
RTVSPost2010PropOp56
 70
     1
102
RTVSPost2010Prop57
140
1.0
102
RTVSPost2010PropOp57
 70
     1
  0
XRECORD
  5
16E
102
{ACAD_REACTORS
330
16D
102
}
330
16D
100
AcDbXrecord
280
     1
102
RTVSPost2010Prop28
280
     0
102
RTVSPost2010PropOp28
 70
     1
102
RTVSPost2010Prop29
280
     1
102
RTVSPost2010PropOp29
 70
     1
102
RTVSPost2010Prop30
280
     1
102
RTVSPost2010PropOp30
 70
     1
102
RTVSPost2010Prop31
280
     0
102
RTVSPost2010PropOp31
 70
     1
102
RTVSPost2010Prop32
280
     0
102
RTVSPost2010PropOp32
 70
     1
102
RTVSPost2010Prop33
280
     0
102
RTVSPost2010PropOp33
 70
     1
102
RTVSPost2010Prop34
280
     0
102
RTVSPost2010PropOp34
 70
     1
102
RTVSPost2010Prop35
280
     0
102
RTVSPost2010PropOp35
 70
     1
102
RTVSPost2010Prop36
280
     0
102
RTVSPost2010PropOp36
 70
     1
102
RTVSPost2010Prop37
 90
       50
102
RTVSPost2010PropOp37
 70
     1
102
RTVSPost2010Prop38
140
0.0
102
RTVSPost2010PropOp38
 70
     1
102
RTVSPost2010Prop39
140
1.0
102
RTVSPost2010PropOp39
 70
     1
102
RTVSPost2010Prop40
 90
        0
102
RTVSPost2010PropOp40
 70
     1
102
RTVSPost2010Prop41ColorIndex
 90
       18
102
RTVSPost2010Prop41ColorRGB
 90
        0
102
RTVSPost2010PropOp41
 70
     1
102
RTVSPost2010Prop42
 90
       50
102
RTVSPost2010PropOp42
 70
     1
102
RTVSPost2010Prop43
 90
        3
102
RTVSPost2010PropOp43
 70
     1
102
RTVSPost2010Prop44ColorIndex
 90
        5
102
RTVSPost2010Prop44ColorRGB
 90
      255
102
RTVSPost2010PropOp44
 70
     1
102
RTVSPost2010Prop45
280
     0
102
RTVSPost2010PropOp45
 70
     1
102
RTVSPost2010Prop46
 90
       50
102
RTVSPost2010PropOp46
 70
     1
102
RTVSPost2010Prop47
 90
       50
102
RTVSPost2010PropOp47
 70
     1
102
RTVSPost2010Prop48
 90
       50
102
RTVSPost2010PropOp48
 70
     1
102
RTVSPost2010Prop49
280
     0
102
RTVSPost2010PropOp49
 70
     1
102
RTVSPost2010Prop50
 90
       50
102
RTVSPost2010PropOp50
 70
     1
102
RTVSPost2010Prop51ColorIndex
 90
      256
102
RTVSPost2010Prop51ColorRGB
 90
-16777216
102
RTVSPost2010PropOp51
 70
     0
102
RTVSPost2010Prop52
140
1.0
102
RTVSPost2010PropOp52
 70
     0
102
RTVSPost2010Prop53
 90
        2
102
RTVSPost2010PropOp53
 70
     1
102
RTVSPost2010Prop54
  1
strokes_ogs.tif
102
RTVSPost2010PropOp54
 70
     1
102
RTVSPost2010Prop55
280
     0
102
RTVSPost2010PropOp55
 70
     1
102
RTVSPost2010Prop56
140
1.0
102
RTVSPost2010PropOp56
 70
     1
102
RTVSPost2010Prop57
140
1.0
102
RTVSPost2010PropOp57
 70
     1
  0
XRECORD
  5
176
102
{ACAD_REACTORS
330
175
102
}
330
175
100
AcDbXrecord
280
     1
102
RTVSPost2010Prop28
280
     0
102
RTVSPost2010PropOp28
 70
     1
102
RTVSPost2010Prop29
280
     1
102
RTVSPost2010PropOp29
 70
     1
102
RTVSPost2010Prop30
280
     1
102
RTVSPost2010PropOp30
 70
     1
102
RTVSPost2010Prop31
280
     0
102
RTVSPost2010PropOp31
 70
     1
102
RTVSPost2010Prop32
280
     0
102
RTVSPost2010PropOp32
 70
     1
102
RTVSPost2010Prop33
280
     0
102
RTVSPost2010PropOp33
 70
     1
102
RTVSPost2010Prop34
280
     0
102
RTVSPost2010PropOp34
 70
     1
102
RTVSPost2010Prop35
280
     0
102
RTVSPost2010PropOp35
 70
     1
102
RTVSPost2010Prop36
280
     0
102
RTVSPost2010PropOp36
 70
     1
102
RTVSPost2010Prop37
 90
       50
102
RTVSPost2010PropOp37
 70
     1
102
RTVSPost2010Prop38
140
0.0
102
RTVSPost2010PropOp38
 70
     1
102
RTVSPost2010Prop39
140
1.0
102
RTVSPost2010PropOp39
 70
     1
102
RTVSPost2010Prop40
 90
        0
102
RTVSPost2010PropOp40
 70
     1
102
RTVSPost2010Prop41ColorIndex
 90
       18
102
RTVSPost2010Prop41ColorRGB
 90
        0
102
RTVSPost2010PropOp41
 70
     1
102
RTVSPost2010Prop42
 90
       50
102
RTVSPost2010PropOp42
 70
     1
102
RTVSPost2010Prop43
 90
        3
102
RTVSPost2010PropOp43
 70
     1
102
RTVSPost2010Prop44ColorIndex
 90
        5
102
RTVSPost2010Prop44ColorRGB
 90
      255
102
RTVSPost2010PropOp44
 70
     1
102
RTVSPost2010Prop45
280
     0
102
RTVSPost2010PropOp45
 70
     1
102
RTVSPost2010Prop46
 90
       50
102
RTVSPost2010PropOp46
 70
     1
102
RTVSPost2010Prop47
 90
       50
102
RTVSPost2010PropOp47
 70
     1
102
RTVSPost2010Prop48
 90
       50
102
RTVSPost2010PropOp48
 70
     1
102
RTVSPost2010Prop49
280
     0
102
RTVSPost2010PropOp49
 70
     1
102
RTVSPost2010Prop50
 90
       50
102
RTVSPost2010PropOp50
 70
     1
102
RTVSPost2010Prop51ColorIndex
 90
      256
102
RTVSPost2010Prop51ColorRGB
 90
-16777216
102
RTVSPost2010PropOp51
 70
     0
102
RTVSPost2010Prop52
140
1.0
102
RTVSPost2010PropOp52
 70
     0
102
RTVSPost2010Prop53
 90
        2
102
RTVSPost2010PropOp53
 70
     1
102
RTVSPost2010Prop54
  1
strokes_ogs.tif
102
RTVSPost2010PropOp54
 70
     1
102
RTVSPost2010Prop55
280
     0
102
RTVSPost2010PropOp55
 70
     1
102
RTVSPost2010Prop56
140
1.0
102
RTVSPost2010PropOp56
 70
     1
102
RTVSPost2010Prop57
140
1.0
102
RTVSPost2010PropOp57
 70
     1
  0
XRECORD
  5
192
102
{ACAD_REACTORS
330
191
102
}
330
191
100
AcDbXrecord
280
     1
102
RTVSPost2010Prop28
280
     0
102
RTVSPost2010PropOp28
 70
     0
102
RTVSPost2010Prop29
280
     1
102
RTVSPost2010PropOp29
 70
     0
102
RTVSPost2010Prop30
280
     1
102
RTVSPost2010PropOp30
 70
     0
102
RTVSPost2010Prop31
280
     0
102
RTVSPost2010PropOp31
 70
     0
102
RTVSPost2010Prop32
280
     0
102
RTVSPost2010PropOp32
 70
     0
102
RTVSPost2010Prop33
280
     0
102
RTVSPost2010PropOp33
 70
     0
102
RTVSPost2010Prop34
280
     0
102
RTVSPost2010PropOp34
 70
     0
102
RTVSPost2010Prop35
280
     0
102
RTVSPost2010PropOp35
 70
     0
102
RTVSPost2010Prop36
280
     0
102
RTVSPost2010PropOp36
 70
     0
102
RTVSPost2010Prop37
 90
       50
102
RTVSPost2010PropOp37
 70
     0
102
RTVSPost2010Prop38
140
0.0
102
RTVSPost2010PropOp38
 70
     0
102
RTVSPost2010Prop39
140
1.0
102
RTVSPost2010PropOp39
 70
     0
102
RTVSPost2010Prop40
 90
        0
102
RTVSPost2010PropOp40
 70
     0
102
RTVSPost2010Prop41ColorIndex
 90
       18
102
RTVSPost2010Prop41ColorRGB
 90
        0
102
RTVSPost2010PropOp41
 70
     0
102
RTVSPost2010Prop42
 90
       50
102
RTVSPost2010PropOp42
 70
     0
102
RTVSPost2010Prop43
 90
        3
102
RTVSPost2010PropOp43
 70
     0
102
RTVSPost2010Prop44ColorIndex
 90
        5
102
RTVSPost2010Prop44ColorRGB
 90
      255
102
RTVSPost2010PropOp44
 70
     0
102
RTVSPost2010Prop45
280
     0
102
RTVSPost2010PropOp45
 70
     0
102
RTVSPost2010Prop46
 90
       50
102
RTVSPost2010PropOp46
 70
     0
102
RTVSPost2010Prop47
 90
       50
102
RTVSPost2010PropOp47
 70
     0
102
RTVSPost2010Prop48
 90
       50
102
RTVSPost2010PropOp48
 70
     0
102
RTVSPost2010Prop49
280
     0
102
RTVSPost2010PropOp49
 70
     0
102
RTVSPost2010Prop50
 90
       50
102
RTVSPost2010PropOp50
 70
     0
102
RTVSPost2010Prop51ColorIndex
 90
      256
102
RTVSPost2010Prop51ColorRGB
 90
-16777216
102
RTVSPost2010PropOp51
 70
     0
102
RTVSPost2010Prop52
140
1.0
102
RTVSPost2010PropOp52
 70
     0
102
RTVSPost2010Prop53
 90
        2
102
RTVSPost2010PropOp53
 70
     0
102
RTVSPost2010Prop54
  1
strokes_ogs.tif
102
RTVSPost2010PropOp54
 70
     0
102
RTVSPost2010Prop55
280
     0
102
RTVSPost2010PropOp55
 70
     0
102
RTVSPost2010Prop56
140
1.0
102
RTVSPost2010PropOp56
 70
     0
102
RTVSPost2010Prop57
140
1.0
102
RTVSPost2010PropOp57
 70
     0
  0
XRECORD
  5
182
102
{ACAD_REACTORS
330
181
102
}
330
181
100
AcDbXrecord
280
     1
102
RTVSPost2010Prop28
280
     0
102
RTVSPost2010PropOp28
 70
     1
102
RTVSPost2010Prop29
280
     1
102
RTVSPost2010PropOp29
 70
     1
102
RTVSPost2010Prop30
280
     1
102
RTVSPost2010PropOp30
 70
     1
102
RTVSPost2010Prop31
280
     0
102
RTVSPost2010PropOp31
 70
     1
102
RTVSPost2010Prop32
280
     0
102
RTVSPost2010PropOp32
 70
     1
102
RTVSPost2010Prop33
280
     0
102
RTVSPost2010PropOp33
 70
     1
102
RTVSPost2010Prop34
280
     0
102
RTVSPost2010PropOp34
 70
     1
102
RTVSPost2010Prop35
280
     0
102
RTVSPost2010PropOp35
 70
     1
102
RTVSPost2010Prop36
280
     0
102
RTVSPost2010PropOp36
 70
     1
102
RTVSPost2010Prop37
 90
       50
102
RTVSPost2010PropOp37
 70
     1
102
RTVSPost2010Prop38
140
0.0
102
RTVSPost2010PropOp38
 70
     1
102
RTVSPost2010Prop39
140
1.0
102
RTVSPost2010PropOp39
 70
     1
102
RTVSPost2010Prop40
 90
        0
102
RTVSPost2010PropOp40
 70
     1
102
RTVSPost2010Prop41ColorIndex
 90
       18
102
RTVSPost2010Prop41ColorRGB
 90
        0
102
RTVSPost2010PropOp41
 70
     1
102
RTVSPost2010Prop42
 90
       50
102
RTVSPost2010PropOp42
 70
     1
102
RTVSPost2010Prop43
 90
        3
102
RTVSPost2010PropOp43
 70
     1
102
RTVSPost2010Prop44ColorIndex
 90
        5
102
RTVSPost2010Prop44ColorRGB
 90
      255
102
RTVSPost2010PropOp44
 70
     1
102
RTVSPost2010Prop45
280
     0
102
RTVSPost2010PropOp45
 70
     1
102
RTVSPost2010Prop46
 90
       50
102
RTVSPost2010PropOp46
 70
     1
102
RTVSPost2010Prop47
 90
       50
102
RTVSPost2010PropOp47
 70
     1
102
RTVSPost2010Prop48
 90
       50
102
RTVSPost2010PropOp48
 70
     1
102
RTVSPost2010Prop49
280
     0
102
RTVSPost2010PropOp49
 70
     1
102
RTVSPost2010Prop50
 90
       50
102
RTVSPost2010PropOp50
 70
     1
102
RTVSPost2010Prop51ColorIndex
 90
      256
102
RTVSPost2010Prop51ColorRGB
 90
-16777216
102
RTVSPost2010PropOp51
 70
     0
102
RTVSPost2010Prop52
140
1.0
102
RTVSPost2010PropOp52
 70
     0
102
RTVSPost2010Prop53
 90
        2
102
RTVSPost2010PropOp53
 70
     1
102
RTVSPost2010Prop54
  1
strokes_ogs.tif
102
RTVSPost2010PropOp54
 70
     1
102
RTVSPost2010Prop55
280
     0
102
RTVSPost2010PropOp55
 70
     1
102
RTVSPost2010Prop56
140
1.0
102
RTVSPost2010PropOp56
 70
     1
102
RTVSPost2010Prop57
140
1.0
102
RTVSPost2010PropOp57
 70
     1
  0
XRECORD
  5
194
102
{ACAD_REACTORS
330
193
102
}
330
193
100
AcDbXrecord
280
     1
102
RTVSPost2010Prop28
280
     0
102
RTVSPost2010PropOp28
 70
     0
102
RTVSPost2010Prop29
280
     1
102
RTVSPost2010PropOp29
 70
     0
102
RTVSPost2010Prop30
280
     1
102
RTVSPost2010PropOp30
 70
     0
102
RTVSPost2010Prop31
280
     0
102
RTVSPost2010PropOp31
 70
     0
102
RTVSPost2010Prop32
280
     0
102
RTVSPost2010PropOp32
 70
     0
102
RTVSPost2010Prop33
280
     0
102
RTVSPost2010PropOp33
 70
     0
102
RTVSPost2010Prop34
280
     0
102
RTVSPost2010PropOp34
 70
     0
102
RTVSPost2010Prop35
280
     0
102
RTVSPost2010PropOp35
 70
     0
102
RTVSPost2010Prop36
280
     0
102
RTVSPost2010PropOp36
 70
     0
102
RTVSPost2010Prop37
 90
       50
102
RTVSPost2010PropOp37
 70
     0
102
RTVSPost2010Prop38
140
0.0
102
RTVSPost2010PropOp38
 70
     0
102
RTVSPost2010Prop39
140
1.0
102
RTVSPost2010PropOp39
 70
     0
102
RTVSPost2010Prop40
 90
        0
102
RTVSPost2010PropOp40
 70
     0
102
RTVSPost2010Prop41ColorIndex
 90
       18
102
RTVSPost2010Prop41ColorRGB
 90
        0
102
RTVSPost2010PropOp41
 70
     0
102
RTVSPost2010Prop42
 90
       50
102
RTVSPost2010PropOp42
 70
     0
102
RTVSPost2010Prop43
 90
        3
102
RTVSPost2010PropOp43
 70
     0
102
RTVSPost2010Prop44ColorIndex
 90
        5
102
RTVSPost2010Prop44ColorRGB
 90
      255
102
RTVSPost2010PropOp44
 70
     0
102
RTVSPost2010Prop45
280
     0
102
RTVSPost2010PropOp45
 70
     0
102
RTVSPost2010Prop46
 90
       50
102
RTVSPost2010PropOp46
 70
     0
102
RTVSPost2010Prop47
 90
       50
102
RTVSPost2010PropOp47
 70
     0
102
RTVSPost2010Prop48
 90
       50
102
RTVSPost2010PropOp48
 70
     0
102
RTVSPost2010Prop49
280
     0
102
RTVSPost2010PropOp49
 70
     0
102
RTVSPost2010Prop50
 90
       50
102
RTVSPost2010PropOp50
 70
     0
102
RTVSPost2010Prop51ColorIndex
 90
      256
102
RTVSPost2010Prop51ColorRGB
 90
-16777216
102
RTVSPost2010PropOp51
 70
     0
102
RTVSPost2010Prop52
140
1.0
102
RTVSPost2010PropOp52
 70
     0
102
RTVSPost2010Prop53
 90
        2
102
RTVSPost2010PropOp53
 70
     0
102
RTVSPost2010Prop54
  1
strokes_ogs.tif
102
RTVSPost2010PropOp54
 70
     0
102
RTVSPost2010Prop55
280
     0
102
RTVSPost2010PropOp55
 70
     0
102
RTVSPost2010Prop56
140
1.0
102
RTVSPost2010PropOp56
 70
     0
102
RTVSPost2010Prop57
140
1.0
102
RTVSPost2010PropOp57
 70
     0
  0
XRECORD
  5
17A
102
{ACAD_REACTORS
330
179
102
}
330
179
100
AcDbXrecord
280
     1
102
RTVSPost2010Prop28
280
     0
102
RTVSPost2010PropOp28
 70
     1
102
RTVSPost2010Prop29
280
     1
102
RTVSPost2010PropOp29
 70
     1
102
RTVSPost2010Prop30
280
     1
102
RTVSPost2010PropOp30
 70
     1
102
RTVSPost2010Prop31
280
     0
102
RTVSPost2010PropOp31
 70
     1
102
RTVSPost2010Prop32
280
     0
102
RTVSPost2010PropOp32
 70
     1
102
RTVSPost2010Prop33
280
     0
102
RTVSPost2010PropOp33
 70
     1
102
RTVSPost2010Prop34
280
     0
102
RTVSPost2010PropOp34
 70
     1
102
RTVSPost2010Prop35
280
     0
102
RTVSPost2010PropOp35
 70
     1
102
RTVSPost2010Prop36
280
     0
102
RTVSPost2010PropOp36
 70
     1
102
RTVSPost2010Prop37
 90
       50
102
RTVSPost2010PropOp37
 70
     1
102
RTVSPost2010Prop38
140
0.0
102
RTVSPost2010PropOp38
 70
     1
102
RTVSPost2010Prop39
140
1.0
102
RTVSPost2010PropOp39
 70
     1
102
RTVSPost2010Prop40
 90
        0
102
RTVSPost2010PropOp40
 70
     1
102
RTVSPost2010Prop41ColorIndex
 90
       18
102
RTVSPost2010Prop41ColorRGB
 90
        0
102
RTVSPost2010PropOp41
 70
     1
102
RTVSPost2010Prop42
 90
       50
102
RTVSPost2010PropOp42
 70
     1
102
RTVSPost2010Prop43
 90
        3
102
RTVSPost2010PropOp43
 70
     1
102
RTVSPost2010Prop44ColorIndex
 90
        5
102
RTVSPost2010Prop44ColorRGB
 90
      255
102
RTVSPost2010PropOp44
 70
     1
102
RTVSPost2010Prop45
280
     0
102
RTVSPost2010PropOp45
 70
     1
102
RTVSPost2010Prop46
 90
       50
102
RTVSPost2010PropOp46
 70
     1
102
RTVSPost2010Prop47
 90
       50
102
RTVSPost2010PropOp47
 70
     1
102
RTVSPost2010Prop48
 90
       50
102
RTVSPost2010PropOp48
 70
     1
102
RTVSPost2010Prop49
280
     0
102
RTVSPost2010PropOp49
 70
     1
102
RTVSPost2010Prop50
 90
       50
102
RTVSPost2010PropOp50
 70
     1
102
RTVSPost2010Prop51ColorIndex
 90
      256
102
RTVSPost2010Prop51ColorRGB
 90
-16777216
102
RTVSPost2010PropOp51
 70
     0
102
RTVSPost2010Prop52
140
1.0
102
RTVSPost2010PropOp52
 70
     0
102
RTVSPost2010Prop53
 90
        2
102
RTVSPost2010PropOp53
 70
     1
102
RTVSPost2010Prop54
  1
strokes_ogs.tif
102
RTVSPost2010PropOp54
 70
     1
102
RTVSPost2010Prop55
280
     0
102
RTVSPost2010PropOp55
 70
     1
102
RTVSPost2010Prop56
140
1.0
102
RTVSPost2010PropOp56
 70
     1
102
RTVSPost2010Prop57
140
1.0
102
RTVSPost2010PropOp57
 70
     1
  0
XRECORD
  5
190
102
{ACAD_REACTORS
330
18F
102
}
330
18F
100
AcDbXrecord
280
     1
102
RTVSPost2010Prop28
280
     0
102
RTVSPost2010PropOp28
 70
     1
102
RTVSPost2010Prop29
280
     1
102
RTVSPost2010PropOp29
 70
     1
102
RTVSPost2010Prop30
280
     1
102
RTVSPost2010PropOp30
 70
     1
102
RTVSPost2010Prop31
280
     0
102
RTVSPost2010PropOp31
 70
     1
102
RTVSPost2010Prop32
280
     0
102
RTVSPost2010PropOp32
 70
     1
102
RTVSPost2010Prop33
280
     0
102
RTVSPost2010PropOp33
 70
     1
102
RTVSPost2010Prop34
280
     0
102
RTVSPost2010PropOp34
 70
     1
102
RTVSPost2010Prop35
280
     0
102
RTVSPost2010PropOp35
 70
     1
102
RTVSPost2010Prop36
280
     0
102
RTVSPost2010PropOp36
 70
     1
102
RTVSPost2010Prop37
 90
       50
102
RTVSPost2010PropOp37
 70
     1
102
RTVSPost2010Prop38
140
0.0
102
RTVSPost2010PropOp38
 70
     1
102
RTVSPost2010Prop39
140
1.0
102
RTVSPost2010PropOp39
 70
     1
102
RTVSPost2010Prop40
 90
        0
102
RTVSPost2010PropOp40
 70
     1
102
RTVSPost2010Prop41ColorIndex
 90
       18
102
RTVSPost2010Prop41ColorRGB
 90
        0
102
RTVSPost2010PropOp41
 70
     1
102
RTVSPost2010Prop42
 90
       50
102
RTVSPost2010PropOp42
 70
     1
102
RTVSPost2010Prop43
 90
        3
102
RTVSPost2010PropOp43
 70
     1
102
RTVSPost2010Prop44ColorIndex
 90
        5
102
RTVSPost2010Prop44ColorRGB
 90
      255
102
RTVSPost2010PropOp44
 70
     1
102
RTVSPost2010Prop45
280
     0
102
RTVSPost2010PropOp45
 70
     1
102
RTVSPost2010Prop46
 90
       50
102
RTVSPost2010PropOp46
 70
     1
102
RTVSPost2010Prop47
 90
       50
102
RTVSPost2010PropOp47
 70
     1
102
RTVSPost2010Prop48
 90
       50
102
RTVSPost2010PropOp48
 70
     1
102
RTVSPost2010Prop49
280
     0
102
RTVSPost2010PropOp49
 70
     1
102
RTVSPost2010Prop50
 90
       50
102
RTVSPost2010PropOp50
 70
     1
102
RTVSPost2010Prop51ColorIndex
 90
      256
102
RTVSPost2010Prop51ColorRGB
 90
-16777216
102
RTVSPost2010PropOp51
 70
     0
102
RTVSPost2010Prop52
140
1.0
102
RTVSPost2010PropOp52
 70
     0
102
RTVSPost2010Prop53
 90
        2
102
RTVSPost2010PropOp53
 70
     1
102
RTVSPost2010Prop54
  1
strokes_ogs.tif
102
RTVSPost2010PropOp54
 70
     1
102
RTVSPost2010Prop55
280
     0
102
RTVSPost2010PropOp55
 70
     1
102
RTVSPost2010Prop56
140
1.0
102
RTVSPost2010PropOp56
 70
     1
102
RTVSPost2010Prop57
140
1.0
102
RTVSPost2010PropOp57
 70
     1
  0
XRECORD
  5
18E
102
{ACAD_REACTORS
330
18D
102
}
330
18D
100
AcDbXrecord
280
     1
102
RTVSPost2010Prop28
280
     0
102
RTVSPost2010PropOp28
 70
     1
102
RTVSPost2010Prop29
280
     1
102
RTVSPost2010PropOp29
 70
     1
102
RTVSPost2010Prop30
280
     1
102
RTVSPost2010PropOp30
 70
     1
102
RTVSPost2010Prop31
280
     0
102
RTVSPost2010PropOp31
 70
     1
102
RTVSPost2010Prop32
280
     0
102
RTVSPost2010PropOp32
 70
     1
102
RTVSPost2010Prop33
280
     0
102
RTVSPost2010PropOp33
 70
     1
102
RTVSPost2010Prop34
280
     0
102
RTVSPost2010PropOp34
 70
     1
102
RTVSPost2010Prop35
280
     0
102
RTVSPost2010PropOp35
 70
     1
102
RTVSPost2010Prop36
280
     0
102
RTVSPost2010PropOp36
 70
     1
102
RTVSPost2010Prop37
 90
       50
102
RTVSPost2010PropOp37
 70
     1
102
RTVSPost2010Prop38
140
0.0
102
RTVSPost2010PropOp38
 70
     1
102
RTVSPost2010Prop39
140
1.0
102
RTVSPost2010PropOp39
 70
     1
102
RTVSPost2010Prop40
 90
        0
102
RTVSPost2010PropOp40
 70
     1
102
RTVSPost2010Prop41ColorIndex
 90
       18
102
RTVSPost2010Prop41ColorRGB
 90
        0
102
RTVSPost2010PropOp41
 70
     1
102
RTVSPost2010Prop42
 90
       50
102
RTVSPost2010PropOp42
 70
     1
102
RTVSPost2010Prop43
 90
        3
102
RTVSPost2010PropOp43
 70
     1
102
RTVSPost2010Prop44ColorIndex
 90
        5
102
RTVSPost2010Prop44ColorRGB
 90
      255
102
RTVSPost2010PropOp44
 70
     1
102
RTVSPost2010Prop45
280
     0
102
RTVSPost2010PropOp45
 70
     1
102
RTVSPost2010Prop46
 90
       50
102
RTVSPost2010PropOp46
 70
     1
102
RTVSPost2010Prop47
 90
       50
102
RTVSPost2010PropOp47
 70
     1
102
RTVSPost2010Prop48
 90
       50
102
RTVSPost2010PropOp48
 70
     1
102
RTVSPost2010Prop49
280
     0
102
RTVSPost2010PropOp49
 70
     1
102
RTVSPost2010Prop50
 90
       50
102
RTVSPost2010PropOp50
 70
     1
102
RTVSPost2010Prop51ColorIndex
 90
      256
102
RTVSPost2010Prop51ColorRGB
 90
-16777216
102
RTVSPost2010PropOp51
 70
     0
102
RTVSPost2010Prop52
140
1.0
102
RTVSPost2010PropOp52
 70
     0
102
RTVSPost2010Prop53
 90
        2
102
RTVSPost2010PropOp53
 70
     1
102
RTVSPost2010Prop54
  1
strokes_ogs.tif
102
RTVSPost2010PropOp54
 70
     1
102
RTVSPost2010Prop55
280
     0
102
RTVSPost2010PropOp55
 70
     1
102
RTVSPost2010Prop56
140
1.0
102
RTVSPost2010PropOp56
 70
     1
102
RTVSPost2010Prop57
140
1.0
102
RTVSPost2010PropOp57
 70
     1
  0
XRECORD
  5
188
102
{ACAD_REACTORS
330
187
102
}
330
187
100
AcDbXrecord
280
     1
102
RTVSPost2010Prop28
280
     0
102
RTVSPost2010PropOp28
 70
     1
102
RTVSPost2010Prop29
280
     1
102
RTVSPost2010PropOp29
 70
     1
102
RTVSPost2010Prop30
280
     1
102
RTVSPost2010PropOp30
 70
     1
102
RTVSPost2010Prop31
280
     0
102
RTVSPost2010PropOp31
 70
     1
102
RTVSPost2010Prop32
280
     0
102
RTVSPost2010PropOp32
 70
     1
102
RTVSPost2010Prop33
280
     0
102
RTVSPost2010PropOp33
 70
     1
102
RTVSPost2010Prop34
280
     0
102
RTVSPost2010PropOp34
 70
     1
102
RTVSPost2010Prop35
280
     0
102
RTVSPost2010PropOp35
 70
     1
102
RTVSPost2010Prop36
280
     0
102
RTVSPost2010PropOp36
 70
     1
102
RTVSPost2010Prop37
 90
       50
102
RTVSPost2010PropOp37
 70
     1
102
RTVSPost2010Prop38
140
0.0
102
RTVSPost2010PropOp38
 70
     1
102
RTVSPost2010Prop39
140
1.0
102
RTVSPost2010PropOp39
 70
     1
102
RTVSPost2010Prop40
 90
        0
102
RTVSPost2010PropOp40
 70
     1
102
RTVSPost2010Prop41ColorIndex
 90
       18
102
RTVSPost2010Prop41ColorRGB
 90
        0
102
RTVSPost2010PropOp41
 70
     1
102
RTVSPost2010Prop42
 90
       50
102
RTVSPost2010PropOp42
 70
     1
102
RTVSPost2010Prop43
 90
        3
102
RTVSPost2010PropOp43
 70
     1
102
RTVSPost2010Prop44ColorIndex
 90
        5
102
RTVSPost2010Prop44ColorRGB
 90
      255
102
RTVSPost2010PropOp44
 70
     1
102
RTVSPost2010Prop45
280
     0
102
RTVSPost2010PropOp45
 70
     1
102
RTVSPost2010Prop46
 90
       50
102
RTVSPost2010PropOp46
 70
     1
102
RTVSPost2010Prop47
 90
       50
102
RTVSPost2010PropOp47
 70
     1
102
RTVSPost2010Prop48
 90
       50
102
RTVSPost2010PropOp48
 70
     1
102
RTVSPost2010Prop49
280
     0
102
RTVSPost2010PropOp49
 70
     1
102
RTVSPost2010Prop50
 90
       50
102
RTVSPost2010PropOp50
 70
     1
102
RTVSPost2010Prop51ColorIndex
 90
      256
102
RTVSPost2010Prop51ColorRGB
 90
-16777216
102
RTVSPost2010PropOp51
 70
     0
102
RTVSPost2010Prop52
140
1.0
102
RTVSPost2010PropOp52
 70
     0
102
RTVSPost2010Prop53
 90
        2
102
RTVSPost2010PropOp53
 70
     1
102
RTVSPost2010Prop54
  1
strokes_ogs.tif
102
RTVSPost2010PropOp54
 70
     1
102
RTVSPost2010Prop55
280
     0
102
RTVSPost2010PropOp55
 70
     1
102
RTVSPost2010Prop56
140
1.0
102
RTVSPost2010PropOp56
 70
     1
102
RTVSPost2010Prop57
140
1.0
102
RTVSPost2010PropOp57
 70
     1
  0
XRECORD
  5
18A
102
{ACAD_REACTORS
330
189
102
}
330
189
100
AcDbXrecord
280
     1
102
RTVSPost2010Prop28
280
     0
102
RTVSPost2010PropOp28
 70
     1
102
RTVSPost2010Prop29
280
     1
102
RTVSPost2010PropOp29
 70
     1
102
RTVSPost2010Prop30
280
     1
102
RTVSPost2010PropOp30
 70
     1
102
RTVSPost2010Prop31
280
     0
102
RTVSPost2010PropOp31
 70
     1
102
RTVSPost2010Prop32
280
     0
102
RTVSPost2010PropOp32
 70
     1
102
RTVSPost2010Prop33
280
     0
102
RTVSPost2010PropOp33
 70
     1
102
RTVSPost2010Prop34
280
     0
102
RTVSPost2010PropOp34
 70
     1
102
RTVSPost2010Prop35
280
     0
102
RTVSPost2010PropOp35
 70
     1
102
RTVSPost2010Prop36
280
     0
102
RTVSPost2010PropOp36
 70
     1
102
RTVSPost2010Prop37
 90
       50
102
RTVSPost2010PropOp37
 70
     1
102
RTVSPost2010Prop38
140
0.0
102
RTVSPost2010PropOp38
 70
     1
102
RTVSPost2010Prop39
140
1.0
102
RTVSPost2010PropOp39
 70
     1
102
RTVSPost2010Prop40
 90
        0
102
RTVSPost2010PropOp40
 70
     1
102
RTVSPost2010Prop41ColorIndex
 90
       18
102
RTVSPost2010Prop41ColorRGB
 90
        0
102
RTVSPost2010PropOp41
 70
     1
102
RTVSPost2010Prop42
 90
       50
102
RTVSPost2010PropOp42
 70
     1
102
RTVSPost2010Prop43
 90
        3
102
RTVSPost2010PropOp43
 70
     1
102
RTVSPost2010Prop44ColorIndex
 90
        5
102
RTVSPost2010Prop44ColorRGB
 90
      255
102
RTVSPost2010PropOp44
 70
     1
102
RTVSPost2010Prop45
280
     0
102
RTVSPost2010PropOp45
 70
     1
102
RTVSPost2010Prop46
 90
       50
102
RTVSPost2010PropOp46
 70
     1
102
RTVSPost2010Prop47
 90
       50
102
RTVSPost2010PropOp47
 70
     1
102
RTVSPost2010Prop48
 90
       50
102
RTVSPost2010PropOp48
 70
     1
102
RTVSPost2010Prop49
280
     0
102
RTVSPost2010PropOp49
 70
     1
102
RTVSPost2010Prop50
 90
       50
102
RTVSPost2010PropOp50
 70
     1
102
RTVSPost2010Prop51ColorIndex
 90
      256
102
RTVSPost2010Prop51ColorRGB
 90
-16777216
102
RTVSPost2010PropOp51
 70
     0
102
RTVSPost2010Prop52
140
1.0
102
RTVSPost2010PropOp52
 70
     0
102
RTVSPost2010Prop53
 90
        2
102
RTVSPost2010PropOp53
 70
     1
102
RTVSPost2010Prop54
  1
strokes_ogs.tif
102
RTVSPost2010PropOp54
 70
     1
102
RTVSPost2010Prop55
280
     0
102
RTVSPost2010PropOp55
 70
     1
102
RTVSPost2010Prop56
140
1.0
102
RTVSPost2010PropOp56
 70
     1
102
RTVSPost2010Prop57
140
1.0
102
RTVSPost2010PropOp57
 70
     1
  0
XRECORD
  5
180
102
{ACAD_REACTORS
330
17F
102
}
330
17F
100
AcDbXrecord
280
     1
102
RTVSPost2010Prop28
280
     0
102
RTVSPost2010PropOp28
 70
     1
102
RTVSPost2010Prop29
280
     1
102
RTVSPost2010PropOp29
 70
     1
102
RTVSPost2010Prop30
280
     1
102
RTVSPost2010PropOp30
 70
     1
102
RTVSPost2010Prop31
280
     0
102
RTVSPost2010PropOp31
 70
     1
102
RTVSPost2010Prop32
280
     0
102
RTVSPost2010PropOp32
 70
     1
102
RTVSPost2010Prop33
280
     0
102
RTVSPost2010PropOp33
 70
     1
102
RTVSPost2010Prop34
280
     0
102
RTVSPost2010PropOp34
 70
     1
102
RTVSPost2010Prop35
280
     0
102
RTVSPost2010PropOp35
 70
     1
102
RTVSPost2010Prop36
280
     0
102
RTVSPost2010PropOp36
 70
     1
102
RTVSPost2010Prop37
 90
       50
102
RTVSPost2010PropOp37
 70
     1
102
RTVSPost2010Prop38
140
0.0
102
RTVSPost2010PropOp38
 70
     1
102
RTVSPost2010Prop39
140
1.0
102
RTVSPost2010PropOp39
 70
     1
102
RTVSPost2010Prop40
 90
        0
102
RTVSPost2010PropOp40
 70
     1
102
RTVSPost2010Prop41ColorIndex
 90
       18
102
RTVSPost2010Prop41ColorRGB
 90
        0
102
RTVSPost2010PropOp41
 70
     1
102
RTVSPost2010Prop42
 90
       50
102
RTVSPost2010PropOp42
 70
     1
102
RTVSPost2010Prop43
 90
        3
102
RTVSPost2010PropOp43
 70
     1
102
RTVSPost2010Prop44ColorIndex
 90
        5
102
RTVSPost2010Prop44ColorRGB
 90
      255
102
RTVSPost2010PropOp44
 70
     1
102
RTVSPost2010Prop45
280
     0
102
RTVSPost2010PropOp45
 70
     1
102
RTVSPost2010Prop46
 90
       50
102
RTVSPost2010PropOp46
 70
     1
102
RTVSPost2010Prop47
 90
       50
102
RTVSPost2010PropOp47
 70
     1
102
RTVSPost2010Prop48
 90
       50
102
RTVSPost2010PropOp48
 70
     1
102
RTVSPost2010Prop49
280
     0
102
RTVSPost2010PropOp49
 70
     1
102
RTVSPost2010Prop50
 90
       50
102
RTVSPost2010PropOp50
 70
     1
102
RTVSPost2010Prop51ColorIndex
 90
      256
102
RTVSPost2010Prop51ColorRGB
 90
-16777216
102
RTVSPost2010PropOp51
 70
     0
102
RTVSPost2010Prop52
140
1.0
102
RTVSPost2010PropOp52
 70
     0
102
RTVSPost2010Prop53
 90
        2
102
RTVSPost2010PropOp53
 70
     1
102
RTVSPost2010Prop54
  1
strokes_ogs.tif
102
RTVSPost2010PropOp54
 70
     1
102
RTVSPost2010Prop55
280
     0
102
RTVSPost2010PropOp55
 70
     1
102
RTVSPost2010Prop56
140
1.0
102
RTVSPost2010PropOp56
 70
     1
102
RTVSPost2010Prop57
140
1.0
102
RTVSPost2010PropOp57
 70
     1
  0
XRECORD
  5
174
102
{ACAD_REACTORS
330
173
102
}
330
173
100
AcDbXrecord
280
     1
102
RTVSPost2010Prop28
280
     0
102
RTVSPost2010PropOp28
 70
     1
102
RTVSPost2010Prop29
280
     1
102
RTVSPost2010PropOp29
 70
     1
102
RTVSPost2010Prop30
280
     1
102
RTVSPost2010PropOp30
 70
     1
102
RTVSPost2010Prop31
280
     0
102
RTVSPost2010PropOp31
 70
     1
102
RTVSPost2010Prop32
280
     0
102
RTVSPost2010PropOp32
 70
     1
102
RTVSPost2010Prop33
280
     0
102
RTVSPost2010PropOp33
 70
     1
102
RTVSPost2010Prop34
280
     0
102
RTVSPost2010PropOp34
 70
     1
102
RTVSPost2010Prop35
280
     0
102
RTVSPost2010PropOp35
 70
     1
102
RTVSPost2010Prop36
280
     0
102
RTVSPost2010PropOp36
 70
     1
102
RTVSPost2010Prop37
 90
       50
102
RTVSPost2010PropOp37
 70
     1
102
RTVSPost2010Prop38
140
0.0
102
RTVSPost2010PropOp38
 70
     1
102
RTVSPost2010Prop39
140
1.0
102
RTVSPost2010PropOp39
 70
     1
102
RTVSPost2010Prop40
 90
        0
102
RTVSPost2010PropOp40
 70
     1
102
RTVSPost2010Prop41ColorIndex
 90
       18
102
RTVSPost2010Prop41ColorRGB
 90
        0
102
RTVSPost2010PropOp41
 70
     1
102
RTVSPost2010Prop42
 90
       50
102
RTVSPost2010PropOp42
 70
     1
102
RTVSPost2010Prop43
 90
        3
102
RTVSPost2010PropOp43
 70
     1
102
RTVSPost2010Prop44ColorIndex
 90
        5
102
RTVSPost2010Prop44ColorRGB
 90
      255
102
RTVSPost2010PropOp44
 70
     1
102
RTVSPost2010Prop45
280
     0
102
RTVSPost2010PropOp45
 70
     1
102
RTVSPost2010Prop46
 90
       50
102
RTVSPost2010PropOp46
 70
     1
102
RTVSPost2010Prop47
 90
       50
102
RTVSPost2010PropOp47
 70
     1
102
RTVSPost2010Prop48
 90
       50
102
RTVSPost2010PropOp48
 70
     1
102
RTVSPost2010Prop49
280
     0
102
RTVSPost2010PropOp49
 70
     1
102
RTVSPost2010Prop50
 90
       50
102
RTVSPost2010PropOp50
 70
     1
102
RTVSPost2010Prop51ColorIndex
 90
      256
102
RTVSPost2010Prop51ColorRGB
 90
-16777216
102
RTVSPost2010PropOp51
 70
     0
102
RTVSPost2010Prop52
140
1.0
102
RTVSPost2010PropOp52
 70
     0
102
RTVSPost2010Prop53
 90
        2
102
RTVSPost2010PropOp53
 70
     1
102
RTVSPost2010Prop54
  1
strokes_ogs.tif
102
RTVSPost2010PropOp54
 70
     1
102
RTVSPost2010Prop55
280
     0
102
RTVSPost2010PropOp55
 70
     1
102
RTVSPost2010Prop56
140
1.0
102
RTVSPost2010PropOp56
 70
     1
102
RTVSPost2010Prop57
140
1.0
102
RTVSPost2010PropOp57
 70
     1
  0
XRECORD
  5
18C
102
{ACAD_REACTORS
330
18B
102
}
330
18B
100
AcDbXrecord
280
     1
102
RTVSPost2010Prop28
280
     0
102
RTVSPost2010PropOp28
 70
     1
102
RTVSPost2010Prop29
280
     1
102
RTVSPost2010PropOp29
 70
     1
102
RTVSPost2010Prop30
280
     1
102
RTVSPost2010PropOp30
 70
     1
102
RTVSPost2010Prop31
280
     0
102
RTVSPost2010PropOp31
 70
     1
102
RTVSPost2010Prop32
280
     0
102
RTVSPost2010PropOp32
 70
     1
102
RTVSPost2010Prop33
280
     0
102
RTVSPost2010PropOp33
 70
     1
102
RTVSPost2010Prop34
280
     0
102
RTVSPost2010PropOp34
 70
     1
102
RTVSPost2010Prop35
280
     0
102
RTVSPost2010PropOp35
 70
     1
102
RTVSPost2010Prop36
280
     0
102
RTVSPost2010PropOp36
 70
     1
102
RTVSPost2010Prop37
 90
       50
102
RTVSPost2010PropOp37
 70
     1
102
RTVSPost2010Prop38
140
0.0
102
RTVSPost2010PropOp38
 70
     1
102
RTVSPost2010Prop39
140
1.0
102
RTVSPost2010PropOp39
 70
     1
102
RTVSPost2010Prop40
 90
        0
102
RTVSPost2010PropOp40
 70
     1
102
RTVSPost2010Prop41ColorIndex
 90
       18
102
RTVSPost2010Prop41ColorRGB
 90
        0
102
RTVSPost2010PropOp41
 70
     1
102
RTVSPost2010Prop42
 90
       50
102
RTVSPost2010PropOp42
 70
     1
102
RTVSPost2010Prop43
 90
        3
102
RTVSPost2010PropOp43
 70
     1
102
RTVSPost2010Prop44ColorIndex
 90
        5
102
RTVSPost2010Prop44ColorRGB
 90
      255
102
RTVSPost2010PropOp44
 70
     1
102
RTVSPost2010Prop45
280
     0
102
RTVSPost2010PropOp45
 70
     1
102
RTVSPost2010Prop46
 90
       50
102
RTVSPost2010PropOp46
 70
     1
102
RTVSPost2010Prop47
 90
       50
102
RTVSPost2010PropOp47
 70
     1
102
RTVSPost2010Prop48
 90
       50
102
RTVSPost2010PropOp48
 70
     1
102
RTVSPost2010Prop49
280
     0
102
RTVSPost2010PropOp49
 70
     1
102
RTVSPost2010Prop50
 90
       50
102
RTVSPost2010PropOp50
 70
     1
102
RTVSPost2010Prop51ColorIndex
 90
      256
102
RTVSPost2010Prop51ColorRGB
 90
-16777216
102
RTVSPost2010PropOp51
 70
     0
102
RTVSPost2010Prop52
140
1.0
102
RTVSPost2010PropOp52
 70
     0
102
RTVSPost2010Prop53
 90
        2
102
RTVSPost2010PropOp53
 70
     1
102
RTVSPost2010Prop54
  1
strokes_ogs.tif
102
RTVSPost2010PropOp54
 70
     1
102
RTVSPost2010Prop55
280
     0
102
RTVSPost2010PropOp55
 70
     1
102
RTVSPost2010Prop56
140
1.0
102
RTVSPost2010PropOp56
 70
     1
102
RTVSPost2010Prop57
140
1.0
102
RTVSPost2010PropOp57
 70
     1
  0
ENDSEC
  0
EOF
