  0
SECTION
  2
HEADER
  9
$ACADVER
  1
AC1024
  9
$ACADMAINTVER
 70
   226
  9
$DWGCODEPAGE
  3
ANSI_932
  9
$INSBASE
 10
0.0
 20
0.0
 30
0.0
  9
$EXTMIN
 10
1.000000000000000E+20
 20
1.000000000000000E+20
 30
1.000000000000000E+20
  9
$EXTMAX
 10
-1.000000000000000E+20
 20
-1.000000000000000E+20
 30
-1.000000000000000E+20
  9
$LIMMIN
 10
0.0
 20
0.0
  9
$LIMMAX
 10
12.0
 20
9.0
  9
$ORTHOMODE
 70
     0
  9
$REGENMODE
 70
     1
  9
$FILLMODE
 70
     1
  9
$QTEXTMODE
 70
     0
  9
$MIRRTEXT
 70
     0
  9
$LTSCALE
 40
1.0
  9
$ATTMODE
 70
     1
  9
$TEXTSIZE
 40
0.2
  9
$TRACEWID
 40
0.05
  9
$TEXTSTYLE
  7
Standard
  9
$CLAYER
  8
0
  9
$CELTYPE
  6
ByLayer
  9
$CECOLOR
 62
   256
  9
$CELTSCALE
 40
1.0
  9
$DISPSILH
 70
     0
  9
$DIMSCALE
 40
1.0
  9
$DIMASZ
 40
0.18
  9
$DIMEXO
 40
0.0625
  9
$DIMDLI
 40
0.38
  9
$DIMRND
 40
0.0
  9
$DIMDLE
 40
0.0
  9
$DIMEXE
 40
0.18
  9
$DIMTP
 40
0.0
  9
$DIMTM
 40
0.0
  9
$DIMTXT
 40
0.18
  9
$DIMCEN
 40
0.09
  9
$DIMTSZ
 40
0.0
  9
$DIMTOL
 70
     0
  9
$DIMLIM
 70
     0
  9
$DIMTIH
 70
     1
  9
$DIMTOH
 70
     1
  9
$DIMSE1
 70
     0
  9
$DIMSE2
 70
     0
  9
$DIMTAD
 70
     0
  9
$DIMZIN
 70
     0
  9
$DIMBLK
  1

  9
$DIMASO
 70
     1
  9
$DIMSHO
 70
     1
  9
$DIMPOST
  1

  9
$DIMAPOST
  1

  9
$DIMALT
 70
     0
  9
$DIMALTD
 70
     2
  9
$DIMALTF
 40
25.4
  9
$DIMLFAC
 40
1.0
  9
$DIMTOFL
 70
     0
  9
$DIMTVP
 40
0.0
  9
$DIMTIX
 70
     0
  9
$DIMSOXD
 70
     0
  9
$DIMSAH
 70
     0
  9
$DIMBLK1
  1

  9
$DIMBLK2
  1

  9
$DIMSTYLE
  2
Standard
  9
$DIMCLRD
 70
     0
  9
$DIMCLRE
 70
     0
  9
$DIMCLRT
 70
     0
  9
$DIMTFAC
 40
1.0
  9
$DIMGAP
 40
0.09
  9
$DIMJUST
 70
     0
  9
$DIMSD1
 70
     0
  9
$DIMSD2
 70
     0
  9
$DIMTOLJ
 70
     1
  9
$DIMTZIN
 70
     0
  9
$DIMALTZ
 70
     0
  9
$DIMALTTZ
 70
     0
  9
$DIMUPT
 70
     0
  9
$DIMDEC
 70
     4
  9
$DIMTDEC
 70
     4
  9
$DIMALTU
 70
     2
  9
$DIMALTTD
 70
     2
  9
$DIMTXSTY
  7
Standard
  9
$DIMAUNIT
 70
     0
  9
$DIMADEC
 70
     0
  9
$DIMALTRND
 40
0.0
  9
$DIMAZIN
 70
     0
  9
$DIMDSEP
 70
    46
  9
$DIMATFIT
 70
     3
  9
$DIMFRAC
 70
     0
  9
$DIMLDRBLK
  1

  9
$DIMLUNIT
 70
     2
  9
$DIMLWD
 70
    -2
  9
$DIMLWE
 70
    -2
  9
$DIMTMOVE
 70
     0
  9
$DIMFXL
 40
1.0
  9
$DIMFXLON
 70
     0
  9
$DIMJOGANG
 40
0.7853981633974483
  9
$DIMTFILL
 70
     0
  9
$DIMTFILLCLR
 70
     0
  9
$DIMARCSYM
 70
     0
  9
$DIMLTYPE
  6

  9
$DIMLTEX1
  6

  9
$DIMLTEX2
  6

  9
$DIMTXTDIRECTION
 70
     0
  9
$LUNITS
 70
     2
  9
$LUPREC
 70
     4
  9
$SKETCHINC
 40
0.1
  9
$FILLETRAD
 40
0.0
  9
$AUNITS
 70
     0
  9
$AUPREC
 70
     0
  9
$MENU
  1
.
  9
$ELEVATION
 40
0.0
  9
$PELEVATION
 40
0.0
  9
$THICKNESS
 40
0.0
  9
$LIMCHECK
 70
     0
  9
$CHAMFERA
 40
0.0
  9
$CHAMFERB
 40
0.0
  9
$CHAMFERC
 40
0.0
  9
$CHAMFERD
 40
0.0
  9
$SKPOLY
 70
     0
  9
$TDCREATE
 40
2459569.488611111
  9
$TDUCREATE
 40
2459569.113611111
  9
$TDUPDATE
 40
2459569.488611111
  9
$TDUUPDATE
 40
2459569.113611111
  9
$TDINDWG
 40
0.0000000000
  9
$TDUSRTIMER
 40
0.0000000000
  9
$USRTIMER
 70
     1
  9
$ANGBASE
 50
0.0
  9
$ANGDIR
 70
     0
  9
$PDMODE
 70
     0
  9
$PDSIZE
 40
0.0
  9
$PLINEWID
 40
0.0
  9
$SPLFRAME
 70
     0
  9
$SPLINETYPE
 70
     6
  9
$SPLINESEGS
 70
     8
  9
$HANDSEED
  5
173
  9
$SURFTAB1
 70
     6
  9
$SURFTAB2
 70
     6
  9
$SURFTYPE
 70
     6
  9
$SURFU
 70
     6
  9
$SURFV
 70
     6
  9
$UCSBASE
  2

  9
$UCSNAME
  2

  9
$UCSORG
 10
0.0
 20
0.0
 30
0.0
  9
$UCSXDIR
 10
1.0
 20
0.0
 30
0.0
  9
$UCSYDIR
 10
0.0
 20
1.0
 30
0.0
  9
$UCSORTHOREF
  2

  9
$UCSORTHOVIEW
 70
     0
  9
$UCSORGTOP
 10
0.0
 20
0.0
 30
0.0
  9
$UCSORGBOTTOM
 10
0.0
 20
0.0
 30
0.0
  9
$UCSORGLEFT
 10
0.0
 20
0.0
 30
0.0
  9
$UCSORGRIGHT
 10
0.0
 20
0.0
 30
0.0
  9
$UCSORGFRONT
 10
0.0
 20
0.0
 30
0.0
  9
$UCSORGBACK
 10
0.0
 20
0.0
 30
0.0
  9
$PUCSBASE
  2

  9
$PUCSNAME
  2

  9
$PUCSORG
 10
0.0
 20
0.0
 30
0.0
  9
$PUCSXDIR
 10
1.0
 20
0.0
 30
0.0
  9
$PUCSYDIR
 10
0.0
 20
1.0
 30
0.0
  9
$PUCSORTHOREF
  2

  9
$PUCSORTHOVIEW
 70
     0
  9
$PUCSORGTOP
 10
0.0
 20
0.0
 30
0.0
  9
$PUCSORGBOTTOM
 10
0.0
 20
0.0
 30
0.0
  9
$PUCSORGLEFT
 10
0.0
 20
0.0
 30
0.0
  9
$PUCSORGRIGHT
 10
0.0
 20
0.0
 30
0.0
  9
$PUCSORGFRONT
 10
0.0
 20
0.0
 30
0.0
  9
$PUCSORGBACK
 10
0.0
 20
0.0
 30
0.0
  9
$USERI1
 70
     0
  9
$USERI2
 70
     0
  9
$USERI3
 70
     0
  9
$USERI4
 70
     0
  9
$USERI5
 70
     0
  9
$USERR1
 40
0.0
  9
$USERR2
 40
0.0
  9
$USERR3
 40
0.0
  9
$USERR4
 40
0.0
  9
$USERR5
 40
0.0
  9
$WORLDVIEW
 70
     1
  9
$SHADEDGE
 70
     3
  9
$SHADEDIF
 70
    70
  9
$TILEMODE
 70
     1
  9
$MAXACTVP
 70
    64
  9
$PINSBASE
 10
0.0
 20
0.0
 30
0.0
  9
$PLIMCHECK
 70
     0
  9
$PEXTMIN
 10
1.000000000000000E+20
 20
1.000000000000000E+20
 30
1.000000000000000E+20
  9
$PEXTMAX
 10
-1.000000000000000E+20
 20
-1.000000000000000E+20
 30
-1.000000000000000E+20
  9
$PLIMMIN
 10
0.0
 20
0.0
  9
$PLIMMAX
 10
12.0
 20
9.0
  9
$UNITMODE
 70
     0
  9
$VISRETAIN
 70
     1
  9
$PLINEGEN
 70
     0
  9
$PSLTSCALE
 70
     1
  9
$TREEDEPTH
 70
  3020
  9
$CMLSTYLE
  2
Standard
  9
$CMLJUST
 70
     0
  9
$CMLSCALE
 40
1.0
  9
$PROXYGRAPHICS
 70
     1
  9
$MEASUREMENT
 70
     0
  9
$CELWEIGHT
370
    -1
  9
$ENDCAPS
280
     0
  9
$JOINSTYLE
280
     0
  9
$LWDISPLAY
290
     1
  9
$INSUNITS
 70
     4
  9
$HYPERLINKBASE
  1

  9
$STYLESHEET
  1

  9
$XEDIT
290
     1
  9
$CEPSNTYPE
380
     0
  9
$PSTYLEMODE
290
     1
  9
$FINGERPRINTGUID
  2
{2CCB03ED-1368-5649-83A7-320425A85D36}
  9
$VERSIONGUID
  2
{AC59D96B-2507-034E-AA77-43762F720591}
  9
$EXTNAMES
290
     1
  9
$PSVPSCALE
 40
0.0
  9
$OLESTARTUP
290
     0
  9
$SORTENTS
280
   127
  9
$INDEXCTL
280
     0
  9
$HIDETEXT
280
     1
  9
$XCLIPFRAME
280
     2
  9
$HALOGAP
280
     0
  9
$OBSCOLOR
 70
   257
  9
$OBSLTYPE
280
     0
  9
$INTERSECTIONDISPLAY
280
     0
  9
$INTERSECTIONCOLOR
 70
   257
  9
$DIMASSOC
280
     2
  9
$PROJECTNAME
  1

  9
$CAMERADISPLAY
290
     0
  9
$LENSLENGTH
 40
50.0
  9
$CAMERAHEIGHT
 40
0.0
  9
$STEPSPERSEC
 40
2.0
  9
$STEPSIZE
 40
6.0
  9
$3DDWFPREC
 40
2.0
  9
$PSOLWIDTH
 40
0.25
  9
$PSOLHEIGHT
 40
4.0
  9
$LOFTANG1
 40
1.570796326794896
  9
$LOFTANG2
 40
1.570796326794896
  9
$LOFTMAG1
 40
0.0
  9
$LOFTMAG2
 40
0.0
  9
$LOFTPARAM
 70
     7
  9
$LOFTNORMALS
280
     1
  9
$LATITUDE
 40
37.795
  9
$LONGITUDE
 40
-122.394
  9
$NORTHDIRECTION
 40
0.0
  9
$TIMEZONE
 70
 -8000
  9
$LIGHTGLYPHDISPLAY
280
     1
  9
$TILEMODELIGHTSYNCH
280
     1
  9
$CMATERIAL
347
11
  9
$SOLIDHIST
280
     0
  9
$SHOWHIST
280
     1
  9
$DWFFRAME
280
     2
  9
$DGNFRAME
280
     0
  9
$REALWORLDSCALE
290
     1
  9
$INTERFERECOLOR
 62
     1
  9
$INTERFEREOBJVS
345
33
  9
$INTERFEREVPVS
346
30
  9
$CSHADOW
280
     0
  9
$SHADOWPLANELOCATION
 40
0.0
  0
ENDSEC
  0
SECTION
  2
CLASSES
  0
CLASS
  1
ACDBDICTIONARYWDFLT
  2
AcDbDictionaryWithDefault
  3
ObjectDBX Classes
 90
        0
 91
        1
280
     0
281
     0
  0
CLASS
  1
MATERIAL
  2
AcDbMaterial
  3
ObjectDBX Classes
 90
     1153
 91
        3
280
     0
281
     0
  0
CLASS
  1
VISUALSTYLE
  2
AcDbVisualStyle
  3
ObjectDBX Classes
 90
     4095
 91
       24
280
     0
281
     0
  0
CLASS
  1
SCALE
  2
AcDbScale
  3
ObjectDBX Classes
 90
     1153
 91
       17
280
     0
281
     0
  0
CLASS
  1
TABLESTYLE
  2
AcDbTableStyle
  3
ObjectDBX Classes
 90
     4095
 91
        1
280
     0
281
     0
  0
CLASS
  1
MLEADERSTYLE
  2
AcDbMLeaderStyle
  3
ACDB_MLEADERSTYLE_CLASS
 90
     4095
 91
        1
280
     0
281
     0
  0
CLASS
  1
ACDBSECTIONVIEWSTYLE
  2
AcDbSectionViewStyle
  3
ObjectDBX Classes
 90
     1025
 91
        1
280
     0
281
     0
  0
CLASS
  1
ACDBDETAILVIEWSTYLE
  2
AcDbDetailViewStyle
  3
ObjectDBX Classes
 90
     1025
 91
        1
280
     0
281
     0
  0
CLASS
  1
DICTIONARYVAR
  2
AcDbDictionaryVar
  3
ObjectDBX Classes
 90
        0
 91
        5
280
     0
281
     0
  0
CLASS
  1
CELLSTYLEMAP
  2
AcDbCellStyleMap
  3
ObjectDBX Classes
 90
     1152
 91
        1
280
     0
281
     0
  0
ENDSEC
  0
SECTION
  2
TABLES
  0
TABLE
  2
VPORT
  5
8
330
0
100
AcDbSymbolTable
 70
     1
  0
VPORT
  5
57
330
8
100
AcDbSymbolTableRecord
100
AcDbViewportTableRecord
  2
*Active
 70
     0
 10
0.0
 20
0.0
 11
1.0
 21
1.0
 12
0.0
 22
0.0
 13
0.0
 23
0.0
 14
1.0
 24
1.0
 15
0.0
 25
0.0
 16
0.0
 26
0.0
 36
1.0
 17
104.9999999737534
 27
-148.4999999628701
 37
0.0
 40
302.939999924255
 41
0.7070707070707534
 42
50.0
 43
0.0
 44
0.0
 50
0.0
 51
0.0
 71
     0
 72
   100
 73
     1
 74
     0
 75
     1
 76
     0
 77
     0
 78
     0
281
     0
 65
     1
110
0.0
120
0.0
130
0.0
111
1.0
121
0.0
131
0.0
112
0.0
122
1.0
132
0.0
 79
     0
146
0.0
 60
     3
 61
     5
292
     1
282
     1
141
0.0
142
0.0
 63
   250
421
  3355443
  0
ENDTAB
  0
TABLE
  2
LTYPE
  5
5
330
0
100
AcDbSymbolTable
 70
     1
  0
LTYPE
  5
5B
330
5
100
AcDbSymbolTableRecord
100
AcDbLinetypeTableRecord
  2
ByBlock
 70
     0
  3

 72
    65
 73
     0
 40
0.0
  0
LTYPE
  5
5C
330
5
100
AcDbSymbolTableRecord
100
AcDbLinetypeTableRecord
  2
ByLayer
 70
     0
  3

 72
    65
 73
     0
 40
0.0
  0
LTYPE
  5
5D
330
5
100
AcDbSymbolTableRecord
100
AcDbLinetypeTableRecord
  2
Continuous
 70
     0
  3
Solid line
 72
    65
 73
     0
 40
0.0
  0
ENDTAB
  0
TABLE
  2
LAYER
  5
2
330
0
100
AcDbSymbolTable
 70
     2
  0
LAYER
  5
54
330
2
100
AcDbSymbolTableRecord
100
AcDbLayerTableRecord
  2
0
 70
     0
 62
     7
  6
Continuous
370
    -3
390
F
347
21
  0
LAYER
  5
78
330
2
100
AcDbSymbolTableRecord
100
AcDbLayerTableRecord
  2
レイヤー 1
 70
     0
 62
     7
  6
Continuous
370
     0
390
F
347
21
  0
ENDTAB
  0
TABLE
  2
STYLE
  5
3
330
0
100
AcDbSymbolTable
 70
     2
  0
STYLE
  5
55
330
3
100
AcDbSymbolTableRecord
100
AcDbTextStyleTableRecord
  2
Standard
 70
     0
 40
0.0
 41
1.0
 50
0.0
 71
     0
 42
0.2
  3
txt
  4

  0
STYLE
  5
5A
330
3
100
AcDbSymbolTableRecord
100
AcDbTextStyleTableRecord
  2
Annotative
 70
     0
 40
0.0
 41
1.0
 50
0.0
 71
     0
 42
0.2
  3
txt
  4

1001
AcadAnnotative
1000
AnnotativeData
1002
{
1070
     1
1070
     1
1002
}
  0
ENDTAB
  0
TABLE
  2
VIEW
  5
6
330
0
100
AcDbSymbolTable
 70
     0
  0
ENDTAB
  0
TABLE
  2
UCS
  5
7
330
0
100
AcDbSymbolTable
 70
     0
  0
ENDTAB
  0
TABLE
  2
APPID
  5
9
330
0
100
AcDbSymbolTable
 70
     2
  0
APPID
  5
56
330
9
100
AcDbSymbolTableRecord
100
AcDbRegAppTableRecord
  2
ACAD
 70
     0
  0
APPID
  5
5E
330
9
100
AcDbSymbolTableRecord
100
AcDbRegAppTableRecord
  2
AcadAnnotative
 70
     0
  0
ENDTAB
  0
TABLE
  2
DIMSTYLE
  5
A
330
0
100
AcDbSymbolTable
 70
     2
100
AcDbDimStyleTable
 71
     0
  0
DIMSTYLE
105
58
330
A
100
AcDbSymbolTableRecord
100
AcDbDimStyleTableRecord
  2
Standard
 70
     0
340
55
  0
DIMSTYLE
105
59
330
A
100
AcDbSymbolTableRecord
100
AcDbDimStyleTableRecord
  2
Annotative
 70
     0
340
55
1001
AcadAnnotative
1000
AnnotativeData
1002
{
1070
     1
1070
     1
1002
}
  0
ENDTAB
  0
TABLE
  2
BLOCK_RECORD
  5
1
330
0
100
AcDbSymbolTable
 70
    23
  0
BLOCK_RECORD
  5
70
330
1
100
AcDbSymbolTableRecord
100
AcDbBlockTableRecord
  2
*Model_Space
340
73
 70
     0
280
     1
281
     0
  0
BLOCK_RECORD
  5
6C
330
1
100
AcDbSymbolTableRecord
100
AcDbBlockTableRecord
  2
*Paper_Space
340
6F
 70
     0
280
     1
281
     0
  0
BLOCK_RECORD
  5
74
330
1
100
AcDbSymbolTableRecord
100
AcDbBlockTableRecord
  2
*Paper_Space0
340
77
 70
     0
280
     1
281
     0
  0
BLOCK_RECORD
  5
79
330
1
100
AcDbSymbolTableRecord
100
AcDbBlockTableRecord
  2
Block_0
340
0
102
{BLKREFS
331
7A
102
}
 70
     0
280
     1
281
     0
  0
BLOCK_RECORD
  5
89
330
1
100
AcDbSymbolTableRecord
100
AcDbBlockTableRecord
  2
Block_1
340
0
102
{BLKREFS
331
8A
102
}
 70
     0
280
     1
281
     0
  0
BLOCK_RECORD
  5
8D
330
1
100
AcDbSymbolTableRecord
100
AcDbBlockTableRecord
  2
Block_2
340
0
102
{BLKREFS
331
8E
102
}
 70
     0
280
     1
281
     0
  0
BLOCK_RECORD
  5
99
330
1
100
AcDbSymbolTableRecord
100
AcDbBlockTableRecord
  2
Block_3
340
0
102
{BLKREFS
331
9A
102
}
 70
     0
280
     1
281
     0
  0
BLOCK_RECORD
  5
9D
330
1
100
AcDbSymbolTableRecord
100
AcDbBlockTableRecord
  2
Block_4
340
0
102
{BLKREFS
331
9E
102
}
 70
     0
280
     1
281
     0
  0
BLOCK_RECORD
  5
A6
330
1
100
AcDbSymbolTableRecord
100
AcDbBlockTableRecord
  2
Block_5
340
0
102
{BLKREFS
331
A7
102
}
 70
     0
280
     1
281
     0
  0
BLOCK_RECORD
  5
AA
330
1
100
AcDbSymbolTableRecord
100
AcDbBlockTableRecord
  2
Block_6
340
0
102
{BLKREFS
331
AB
102
}
 70
     0
280
     1
281
     0
  0
BLOCK_RECORD
  5
B6
330
1
100
AcDbSymbolTableRecord
100
AcDbBlockTableRecord
  2
Block_7
340
0
102
{BLKREFS
331
B7
102
}
 70
     0
280
     1
281
     0
  0
BLOCK_RECORD
  5
BA
330
1
100
AcDbSymbolTableRecord
100
AcDbBlockTableRecord
  2
Block_8
340
0
102
{BLKREFS
331
BB
102
}
 70
     0
280
     1
281
     0
  0
BLOCK_RECORD
  5
D9
330
1
100
AcDbSymbolTableRecord
100
AcDbBlockTableRecord
  2
Block_9
340
0
102
{BLKREFS
331
DA
102
}
 70
     0
280
     1
281
     0
  0
BLOCK_RECORD
  5
E0
330
1
100
AcDbSymbolTableRecord
100
AcDbBlockTableRecord
  2
Block_10
340
0
102
{BLKREFS
331
E1
102
}
 70
     0
280
     1
281
     0
  0
BLOCK_RECORD
  5
E7
330
1
100
AcDbSymbolTableRecord
100
AcDbBlockTableRecord
  2
Block_11
340
0
102
{BLKREFS
331
E8
102
}
 70
     0
280
     1
281
     0
  0
BLOCK_RECORD
  5
EE
330
1
100
AcDbSymbolTableRecord
100
AcDbBlockTableRecord
  2
Block_12
340
0
102
{BLKREFS
331
EF
102
}
 70
     0
280
     1
281
     0
  0
BLOCK_RECORD
  5
F5
330
1
100
AcDbSymbolTableRecord
100
AcDbBlockTableRecord
  2
Block_13
340
0
102
{BLKREFS
331
F6
102
}
 70
     0
280
     1
281
     0
  0
BLOCK_RECORD
  5
FC
330
1
100
AcDbSymbolTableRecord
100
AcDbBlockTableRecord
  2
Block_14
340
0
102
{BLKREFS
331
FD
102
}
 70
     0
280
     1
281
     0
  0
BLOCK_RECORD
  5
103
330
1
100
AcDbSymbolTableRecord
100
AcDbBlockTableRecord
  2
Block_15
340
0
102
{BLKREFS
331
104
102
}
 70
     0
280
     1
281
     0
  0
BLOCK_RECORD
  5
10A
330
1
100
AcDbSymbolTableRecord
100
AcDbBlockTableRecord
  2
Block_16
340
0
102
{BLKREFS
331
10B
102
}
 70
     0
280
     1
281
     0
  0
BLOCK_RECORD
  5
111
330
1
100
AcDbSymbolTableRecord
100
AcDbBlockTableRecord
  2
Block_17
340
0
102
{BLKREFS
331
112
102
}
 70
     0
280
     1
281
     0
  0
BLOCK_RECORD
  5
118
330
1
100
AcDbSymbolTableRecord
100
AcDbBlockTableRecord
  2
Block_18
340
0
102
{BLKREFS
331
119
102
}
 70
     0
280
     1
281
     0
  0
BLOCK_RECORD
  5
11F
330
1
100
AcDbSymbolTableRecord
100
AcDbBlockTableRecord
  2
Block_19
340
0
102
{BLKREFS
331
120
102
}
 70
     0
280
     1
281
     0
  0
BLOCK_RECORD
  5
126
330
1
100
AcDbSymbolTableRecord
100
AcDbBlockTableRecord
  2
Block_20
340
0
102
{BLKREFS
331
127
102
}
 70
     0
280
     1
281
     0
  0
BLOCK_RECORD
  5
12D
330
1
100
AcDbSymbolTableRecord
100
AcDbBlockTableRecord
  2
Block_21
340
0
102
{BLKREFS
331
12E
102
}
 70
     0
280
     1
281
     0
  0
ENDTAB
  0
ENDSEC
  0
SECTION
  2
BLOCKS
  0
BLOCK
  5
71
330
70
100
AcDbEntity
  8
0
100
AcDbBlockBegin
  2
*Model_Space
 70
     0
 10
0.0
 20
0.0
 30
0.0
  3
*Model_Space
  1

  0
ENDBLK
  5
72
330
70
100
AcDbEntity
  8
0
100
AcDbBlockEnd
  0
BLOCK
  5
6D
330
6C
100
AcDbEntity
 67
     1
  8
0
100
AcDbBlockBegin
  2
*Paper_Space
 70
     0
 10
0.0
 20
0.0
 30
0.0
  3
*Paper_Space
  1

  0
ENDBLK
  5
6E
330
6C
100
AcDbEntity
 67
     1
  8
0
100
AcDbBlockEnd
  0
BLOCK
  5
75
330
74
100
AcDbEntity
 67
     1
  8
0
100
AcDbBlockBegin
  2
*Paper_Space0
 70
     0
 10
0.0
 20
0.0
 30
0.0
  3
*Paper_Space0
  1

  0
ENDBLK
  5
76
330
74
100
AcDbEntity
 67
     1
  8
0
100
AcDbBlockEnd
  0
BLOCK
  5
7B
330
79
100
AcDbEntity
  8
0
100
AcDbBlockBegin
  2
Block_0
 70
     0
 10
0.0
 20
0.0
 30
0.0
  3
Block_0
  1

  0
SPLINE
  5
7D
330
79
100
AcDbEntity
  8
レイヤー 1
 62
   250
420
  2299925
370
    25
100
AcDbSpline
210
0.0
220
0.0
230
1.0
 70
     8
 71
     3
 72
    11
 73
     7
 74
     0
 42
0.0000000001
 43
0.0000000001
 40
0.0
 40
0.0
 40
0.0
 40
0.0
 40
1.0
 40
1.0
 40
1.0
 40
2.0
 40
2.0
 40
2.0
 40
2.0
 10
97.77577787260218
 20
-162.4851555304207
 30
0.0
 10
97.77577787260218
 20
-162.4851555304207
 30
0.0
 10
89.77602930553745
 20
-162.4851555304207
 30
0.0
 10
89.77602930553745
 20
-162.4851555304207
 30
0.0
 10
89.77602930553745
 20
-162.4851555304207
 30
0.0
 10
89.77602930553745
 20
-154.4854284952034
 30
0.0
 10
89.77602930553745
 20
-154.4854284952034
 30
0.0
  0
SPLINE
  5
7E
330
79
100
AcDbEntity
  8
レイヤー 1
 62
   250
420
  2299925
370
    25
100
AcDbSpline
210
0.0
220
0.0
230
1.0
 70
     8
 71
     3
 72
    14
 73
    10
 74
     0
 42
0.0000000001
 43
0.0000000001
 40
0.0
 40
0.0
 40
0.0
 40
0.0
 40
1.0
 40
1.0
 40
1.0
 40
2.0
 40
2.0
 40
2.0
 40
3.0
 40
3.0
 40
3.0
 40
3.0
 10
88.77589655432265
 20
-153.4852957439886
 30
0.0
 10
88.77589655432265
 20
-153.4852957439886
 30
0.0
 10
88.77589655432265
 20
-162.4852847215021
 30
0.0
 10
88.77589655432265
 20
-162.4852847215021
 30
0.0
 10
88.77589655432265
 20
-163.0375765914806
 30
0.0
 10
89.22360824447762
 20
-163.4852882816362
 30
0.0
 10
89.77590011445675
 20
-163.4852882816362
 30
0.0
 10
89.77590011445675
 20
-163.4852882816362
 30
0.0
 10
98.77588909197022
 20
-163.4852882816362
 30
0.0
 10
98.77588909197022
 20
-163.4852882816362
 30
0.0
  0
LWPOLYLINE
  5
7F
330
79
100
AcDbEntity
  8
レイヤー 1
 62
   250
420
  2299925
370
    25
100
AcDbPolyline
 90
       10
 70
     1
 43
0.0
 10
124.7758793791849
 20
-162.4852615074798
 10
98.77588871723144
 20
-162.4852615074798
 10
89.77590549741846
 20
-153.4123127038362
 10
89.77590549741846
 20
-127.4853091575597
 10
89.17590193718423
 20
-127.4853091575597
 10
88.77590193728433
 20
-153.8268222862521
 10
88.77588040543754
 20
-153.8268438180988
 10
98.36135760296876
 20
-163.4852865994607
 10
98.36137913481554
 20
-163.4852650676139
 10
124.7758793791849
 20
-163.085265067714
  0
ENDBLK
  5
7C
330
79
100
AcDbEntity
  8
0
100
AcDbBlockEnd
  0
BLOCK
  5
8B
330
89
100
AcDbEntity
  8
0
100
AcDbBlockBegin
  2
Block_1
 70
     0
 10
0.0
 20
0.0
 30
0.0
  3
Block_1
  1

  0
INSERT
  5
8E
330
89
100
AcDbEntity
  8
レイヤー 1
100
AcDbBlockReference
  2
Block_2
 10
0.0
 20
0.0
 30
0.0
  0
ENDBLK
  5
8C
330
89
100
AcDbEntity
  8
0
100
AcDbBlockEnd
  0
BLOCK
  5
8F
330
8D
100
AcDbEntity
  8
0
100
AcDbBlockBegin
  2
Block_2
 70
     0
 10
0.0
 20
0.0
 30
0.0
  3
Block_2
  1

  0
SPLINE
  5
91
330
8D
100
AcDbEntity
  8
レイヤー 1
100
AcDbSpline
210
0.0
220
0.0
230
1.0
 70
     9
 71
     3
 72
    62
 73
    58
 74
     0
 42
0.0000000001
 43
0.0000000001
 40
0.0
 40
0.0
 40
0.0
 40
0.0
 40
1.0
 40
1.0
 40
1.0
 40
2.0
 40
2.0
 40
2.0
 40
3.0
 40
3.0
 40
3.0
 40
4.0
 40
4.0
 40
4.0
 40
5.0
 40
5.0
 40
5.0
 40
6.0
 40
6.0
 40
6.0
 40
7.0
 40
7.0
 40
7.0
 40
8.0
 40
8.0
 40
8.0
 40
9.0
 40
9.0
 40
9.0
 40
10.0
 40
10.0
 40
10.0
 40
11.0
 40
11.0
 40
11.0
 40
12.0
 40
12.0
 40
12.0
 40
13.0
 40
13.0
 40
13.0
 40
14.0
 40
14.0
 40
14.0
 40
15.0
 40
15.0
 40
15.0
 40
16.0
 40
16.0
 40
16.0
 40
17.0
 40
17.0
 40
17.0
 40
18.0
 40
18.0
 40
18.0
 40
19.0
 40
19.0
 40
19.0
 40
19.0
 10
106.5881537276932
 20
-166.9224554704221
 30
0.0
 10
106.4865234108784
 20
-166.9224554704221
 30
0.0
 10
106.2536349560755
 20
-166.9014403879621
 30
0.0
 10
106.1203097607963
 20
-166.7154052317586
 30
0.0
 10
106.0410725646355
 20
-166.6030951189395
 30
0.0
 10
106.0365939405047
 20
-166.5038763689643
 30
0.0
 10
106.0321153163739
 20
-166.4191270200271
 30
0.0
 10
106.0321153163739
 20
-166.4191270200271
 30
0.0
 10
106.2670708284679
 20
-166.4191270200271
 30
0.0
 10
106.2670708284679
 20
-166.4191270200271
 30
0.0
 10
106.2694823953076
 20
-166.49319657296
 30
0.0
 10
106.2808512104089
 20
-166.7278075755055
 30
0.0
 10
106.5836751035624
 20
-166.7278075755055
 30
0.0
 10
106.7307806807826
 20
-166.7278075755055
 30
0.0
 10
106.8933891876864
 20
-166.6582166467035
 30
0.0
 10
106.8933891876864
 20
-166.4298068160314
 30
0.0
 10
106.8933891876864
 20
-166.31336258863
 30
0.0
 10
106.8527370609604
 20
-166.264786742288
 30
0.0
 10
106.818975125205
 20
-166.2330918638237
 30
0.0
 10
106.7397379290442
 20
-166.1590223108908
 30
0.0
 10
106.6153699820267
 20
-166.1462754575954
 30
0.0
 10
106.5564588492289
 20
-166.1462754575954
 30
0.0
 10
106.536132785866
 20
-166.1462754575954
 30
0.0
 10
106.4978922259797
 20
-166.1483425148865
 30
0.0
 10
106.4682644048065
 20
-166.1524766294688
 30
0.0
 10
106.4682644048065
 20
-166.1524766294688
 30
0.0
 10
106.4682644048065
 20
-165.9578287345522
 30
0.0
 10
106.4682644048065
 20
-165.9578287345522
 30
0.0
 10
106.5089165315325
 20
-165.9643744159742
 30
0.0
 10
106.5543917919378
 20
-165.9664414732653
 30
0.0
 10
106.5609374733597
 20
-165.9664414732653
 30
0.0
 10
106.6312174212588
 20
-165.9664414732653
 30
0.0
 10
106.8437798126988
 20
-165.9450818812568
 30
0.0
 10
106.8437798126988
 20
-165.7084038214201
 30
0.0
 10
106.8437798126988
 20
-165.5306368943812
 30
0.0
 10
106.7035644264491
 20
-165.4755153666172
 30
0.0
 10
106.5860866704021
 20
-165.4755153666172
 30
0.0
 10
106.3032443310631
 20
-165.4755153666172
 30
0.0
 10
106.2942870828014
 20
-165.7084038214201
 30
0.0
 10
106.2898084586706
 20
-165.7800618075133
 30
0.0
 10
106.2898084586706
 20
-165.7800618075133
 30
0.0
 10
106.0727674430998
 20
-165.7800618075133
 30
0.0
 10
106.0727674430998
 20
-165.7800618075133
 30
0.0
 10
106.0817246913615
 20
-165.6553493509473
 30
0.0
 10
106.1110080029861
 20
-165.2788004144094
 30
0.0
 10
106.5995225427945
 20
-165.2788004144094
 30
0.0
 10
106.8393011885679
 20
-165.2788004144094
 30
0.0
 10
107.0969943308646
 20
-165.4059244378152
 30
0.0
 10
107.0969943308646
 20
-165.7018581399981
 30
0.0
 10
107.0969943308646
 20
-165.8882378057502
 30
0.0
 10
106.9950195045012
 20
-165.9705755878476
 30
0.0
 10
106.8889105635555
 20
-166.0318982874851
 30
0.0
 10
106.9543673777753
 20
-166.0594590513671
 30
0.0
 10
107.1490152726919
 20
-166.1397297761734
 30
0.0
 10
107.1490152726919
 20
-166.417059962736
 30
0.0
 10
107.1490152726919
 20
-166.7553683393875
 30
0.0
 10
106.8844319394247
 20
-166.9224554704221
 30
0.0
 10
106.5881537276932
 20
-166.9224554704221
 30
0.0
  0
HATCH
  5
92
330
8D
100
AcDbEntity
  8
レイヤー 1
 62
   250
420
  2299925
440
 33554687
100
AcDbHatch
 10
0.0
 20
0.0
 30
0.0
210
0.0
220
0.0
230
1.0
  2
SOLID
 70
     1
 71
     1
 91
        1
 92
        1
 93
        1
 72
     4
 94
        3
 73
     0
 74
     0
 95
       62
 96
       58
 40
0.0
 40
0.0
 40
0.0
 40
0.0
 40
1.0
 40
1.0
 40
1.0
 40
2.0
 40
2.0
 40
2.0
 40
3.0
 40
3.0
 40
3.0
 40
4.0
 40
4.0
 40
4.0
 40
5.0
 40
5.0
 40
5.0
 40
6.0
 40
6.0
 40
6.0
 40
7.0
 40
7.0
 40
7.0
 40
8.0
 40
8.0
 40
8.0
 40
9.0
 40
9.0
 40
9.0
 40
10.0
 40
10.0
 40
10.0
 40
11.0
 40
11.0
 40
11.0
 40
12.0
 40
12.0
 40
12.0
 40
13.0
 40
13.0
 40
13.0
 40
14.0
 40
14.0
 40
14.0
 40
15.0
 40
15.0
 40
15.0
 40
16.0
 40
16.0
 40
16.0
 40
17.0
 40
17.0
 40
17.0
 40
18.0
 40
18.0
 40
18.0
 40
19.0
 40
19.0
 40
19.0
 40
19.0
 10
106.5881537276932
 20
-166.9224554704221
 10
106.4865234108784
 20
-166.9224554704221
 10
106.2536349560755
 20
-166.9014403879621
 10
106.1203097607963
 20
-166.7154052317586
 10
106.0410725646355
 20
-166.6030951189395
 10
106.0365939405047
 20
-166.5038763689643
 10
106.0321153163739
 20
-166.4191270200271
 10
106.0321153163739
 20
-166.4191270200271
 10
106.2670708284679
 20
-166.4191270200271
 10
106.2670708284679
 20
-166.4191270200271
 10
106.2694823953076
 20
-166.49319657296
 10
106.2808512104089
 20
-166.7278075755055
 10
106.5836751035624
 20
-166.7278075755055
 10
106.7307806807826
 20
-166.7278075755055
 10
106.8933891876864
 20
-166.6582166467035
 10
106.8933891876864
 20
-166.4298068160314
 10
106.8933891876864
 20
-166.31336258863
 10
106.8527370609604
 20
-166.264786742288
 10
106.818975125205
 20
-166.2330918638237
 10
106.7397379290442
 20
-166.1590223108908
 10
106.6153699820267
 20
-166.1462754575954
 10
106.5564588492289
 20
-166.1462754575954
 10
106.536132785866
 20
-166.1462754575954
 10
106.4978922259797
 20
-166.1483425148865
 10
106.4682644048065
 20
-166.1524766294688
 10
106.4682644048065
 20
-166.1524766294688
 10
106.4682644048065
 20
-165.9578287345522
 10
106.4682644048065
 20
-165.9578287345522
 10
106.5089165315325
 20
-165.9643744159742
 10
106.5543917919378
 20
-165.9664414732653
 10
106.5609374733597
 20
-165.9664414732653
 10
106.6312174212588
 20
-165.9664414732653
 10
106.8437798126988
 20
-165.9450818812568
 10
106.8437798126988
 20
-165.7084038214201
 10
106.8437798126988
 20
-165.5306368943812
 10
106.7035644264491
 20
-165.4755153666172
 10
106.5860866704021
 20
-165.4755153666172
 10
106.3032443310631
 20
-165.4755153666172
 10
106.2942870828014
 20
-165.7084038214201
 10
106.2898084586706
 20
-165.7800618075133
 10
106.2898084586706
 20
-165.7800618075133
 10
106.0727674430998
 20
-165.7800618075133
 10
106.0727674430998
 20
-165.7800618075133
 10
106.0817246913615
 20
-165.6553493509473
 10
106.1110080029861
 20
-165.2788004144094
 10
106.5995225427945
 20
-165.2788004144094
 10
106.8393011885679
 20
-165.2788004144094
 10
107.0969943308646
 20
-165.4059244378152
 10
107.0969943308646
 20
-165.7018581399981
 10
107.0969943308646
 20
-165.8882378057502
 10
106.9950195045012
 20
-165.9705755878476
 10
106.8889105635555
 20
-166.0318982874851
 10
106.9543673777753
 20
-166.0594590513671
 10
107.1490152726919
 20
-166.1397297761734
 10
107.1490152726919
 20
-166.417059962736
 10
107.1490152726919
 20
-166.7553683393875
 10
106.8844319394247
 20
-166.9224554704221
 10
106.5881537276932
 20
-166.9224554704221
 97
        0
 97
        1
330
91
 75
     2
 76
     1
 98
        1
 10
0.0
 20
0.0
450
        0
451
        0
460
0.0
461
0.0
452
        0
462
0.0
453
        0
470

  0
SPLINE
  5
93
330
8D
100
AcDbEntity
  8
レイヤー 1
100
AcDbSpline
210
0.0
220
0.0
230
1.0
 70
     9
 71
     3
 72
    17
 73
    13
 74
     0
 42
0.0000000001
 43
0.0000000001
 40
0.0
 40
0.0
 40
0.0
 40
0.0
 40
1.0
 40
1.0
 40
1.0
 40
2.0
 40
2.0
 40
2.0
 40
3.0
 40
3.0
 40
3.0
 40
4.0
 40
4.0
 40
4.0
 40
4.0
 10
107.8776529678222
 20
-166.0635931659494
 30
0.0
 10
107.5972221953229
 20
-166.0635931659494
 30
0.0
 10
107.556570068597
 20
-166.2751220287437
 30
0.0
 10
107.556570068597
 20
-166.3915662561452
 30
0.0
 10
107.556570068597
 20
-166.5672661258929
 30
0.0
 10
107.6582003854118
 20
-166.7302191423452
 30
0.0
 10
107.8549153376196
 20
-166.7302191423452
 30
0.0
 10
107.9837619087679
 20
-166.7302191423452
 30
0.0
 10
108.171519612714
 20
-166.6709634999989
 30
0.0
 10
108.171519612714
 20
-166.3853650842717
 30
0.0
 10
108.171519612714
 20
-166.1610893681819
 30
0.0
 10
108.0223469782027
 20
-166.0635931659494
 30
0.0
 10
107.8776529678222
 20
-166.0635931659494
 30
0.0
  0
SPLINE
  5
94
330
8D
100
AcDbEntity
  8
レイヤー 1
100
AcDbSpline
210
0.0
220
0.0
230
1.0
 70
     9
 71
     3
 72
    32
 73
    28
 74
     0
 42
0.0000000001
 43
0.0000000001
 40
0.0
 40
0.0
 40
0.0
 40
0.0
 40
1.0
 40
1.0
 40
1.0
 40
2.0
 40
2.0
 40
2.0
 40
3.0
 40
3.0
 40
3.0
 40
4.0
 40
4.0
 40
4.0
 40
5.0
 40
5.0
 40
5.0
 40
6.0
 40
6.0
 40
6.0
 40
7.0
 40
7.0
 40
7.0
 40
8.0
 40
8.0
 40
8.0
 40
9.0
 40
9.0
 40
9.0
 40
9.0
 10
107.8593939617504
 20
-166.9224554704221
 30
0.0
 10
107.3078341745619
 20
-166.9224554704221
 30
0.0
 10
107.2988769263003
 20
-166.368484116394
 30
0.0
 10
107.2988769263003
 20
-166.15454368676
 30
0.0
 10
107.2988769263003
 20
-165.9240667987967
 30
0.0
 10
107.3192029896632
 20
-165.2767333571183
 30
0.0
 10
107.9003905980249
 20
-165.2767333571183
 30
0.0
 10
108.0857367351313
 20
-165.2767333571183
 30
0.0
 10
108.3479085015588
 20
-165.3466687954689
 30
0.0
 10
108.3885606282848
 20
-165.678776000247
 30
0.0
 10
108.3885606282848
 20
-165.678776000247
 30
0.0
 10
108.1601507976127
 20
-165.678776000247
 30
0.0
 10
108.1601507976127
 20
-165.678776000247
 30
0.0
 10
108.1487819825114
 20
-165.6215874151918
 30
0.0
 10
108.1150200467559
 20
-165.4734483093261
 30
0.0
 10
107.8979790311852
 20
-165.4734483093261
 30
0.0
 10
107.5858533802216
 20
-165.4734483093261
 30
0.0
 10
107.5431341962045
 20
-165.8014213995218
 30
0.0
 10
107.5293538142635
 20
-166.0064045808942
 30
0.0
 10
107.6289170737872
 20
-165.928200913379
 30
0.0
 10
107.7012640789774
 20
-165.8689452710327
 30
0.0
 10
107.8959119738941
 20
-165.8689452710327
 30
0.0
 10
108.0878037924225
 20
-165.8689452710327
 30
0.0
 10
108.4112982584874
 20
-165.9771212692696
 30
0.0
 10
108.4112982584874
 20
-166.3832980269806
 30
0.0
 10
108.4112982584874
 20
-166.7026583784632
 30
0.0
 10
108.1987358670475
 20
-166.9224554704221
 30
0.0
 10
107.8593939617504
 20
-166.9224554704221
 30
0.0
  0
HATCH
  5
95
330
8D
100
AcDbEntity
  8
レイヤー 1
 62
   250
420
  2299925
440
 33554687
100
AcDbHatch
 10
0.0
 20
0.0
 30
0.0
210
0.0
220
0.0
230
1.0
  2
SOLID
 70
     1
 71
     1
 91
        2
 92
        1
 93
        1
 72
     4
 94
        3
 73
     0
 74
     0
 95
       17
 96
       13
 40
0.0
 40
0.0
 40
0.0
 40
0.0
 40
1.0
 40
1.0
 40
1.0
 40
2.0
 40
2.0
 40
2.0
 40
3.0
 40
3.0
 40
3.0
 40
4.0
 40
4.0
 40
4.0
 40
4.0
 10
107.8776529678222
 20
-166.0635931659494
 10
107.5972221953229
 20
-166.0635931659494
 10
107.556570068597
 20
-166.2751220287437
 10
107.556570068597
 20
-166.3915662561452
 10
107.556570068597
 20
-166.5672661258929
 10
107.6582003854118
 20
-166.7302191423452
 10
107.8549153376196
 20
-166.7302191423452
 10
107.9837619087679
 20
-166.7302191423452
 10
108.171519612714
 20
-166.6709634999989
 10
108.171519612714
 20
-166.3853650842717
 10
108.171519612714
 20
-166.1610893681819
 10
108.0223469782027
 20
-166.0635931659494
 10
107.8776529678222
 20
-166.0635931659494
 97
        0
 97
        1
330
93
 92
        1
 93
        1
 72
     4
 94
        3
 73
     0
 74
     0
 95
       32
 96
       28
 40
0.0
 40
0.0
 40
0.0
 40
0.0
 40
1.0
 40
1.0
 40
1.0
 40
2.0
 40
2.0
 40
2.0
 40
3.0
 40
3.0
 40
3.0
 40
4.0
 40
4.0
 40
4.0
 40
5.0
 40
5.0
 40
5.0
 40
6.0
 40
6.0
 40
6.0
 40
7.0
 40
7.0
 40
7.0
 40
8.0
 40
8.0
 40
8.0
 40
9.0
 40
9.0
 40
9.0
 40
9.0
 10
107.8593939617504
 20
-166.9224554704221
 10
107.3078341745619
 20
-166.9224554704221
 10
107.2988769263003
 20
-166.368484116394
 10
107.2988769263003
 20
-166.15454368676
 10
107.2988769263003
 20
-165.9240667987967
 10
107.3192029896632
 20
-165.2767333571183
 10
107.9003905980249
 20
-165.2767333571183
 10
108.0857367351313
 20
-165.2767333571183
 10
108.3479085015588
 20
-165.3466687954689
 10
108.3885606282848
 20
-165.678776000247
 10
108.3885606282848
 20
-165.678776000247
 10
108.1601507976127
 20
-165.678776000247
 10
108.1601507976127
 20
-165.678776000247
 10
108.1487819825114
 20
-165.6215874151918
 10
108.1150200467559
 20
-165.4734483093261
 10
107.8979790311852
 20
-165.4734483093261
 10
107.5858533802216
 20
-165.4734483093261
 10
107.5431341962045
 20
-165.8014213995218
 10
107.5293538142635
 20
-166.0064045808942
 10
107.6289170737872
 20
-165.928200913379
 10
107.7012640789774
 20
-165.8689452710327
 10
107.8959119738941
 20
-165.8689452710327
 10
108.0878037924225
 20
-165.8689452710327
 10
108.4112982584874
 20
-165.9771212692696
 10
108.4112982584874
 20
-166.3832980269806
 10
108.4112982584874
 20
-166.7026583784632
 10
108.1987358670475
 20
-166.9224554704221
 10
107.8593939617504
 20
-166.9224554704221
 97
        0
 97
        1
330
94
 75
     2
 76
     1
 98
        1
 10
0.0
 20
0.0
450
        0
451
        0
460
0.0
461
0.0
452
        0
462
0.0
453
        0
470

  0
ENDBLK
  5
90
330
8D
100
AcDbEntity
  8
0
100
AcDbBlockEnd
  0
BLOCK
  5
9B
330
99
100
AcDbEntity
  8
0
100
AcDbBlockBegin
  2
Block_3
 70
     0
 10
0.0
 20
0.0
 30
0.0
  3
Block_3
  1

  0
INSERT
  5
9E
330
99
100
AcDbEntity
  8
レイヤー 1
100
AcDbBlockReference
  2
Block_4
 10
0.0
 20
0.0
 30
0.0
  0
ENDBLK
  5
9C
330
99
100
AcDbEntity
  8
0
100
AcDbBlockEnd
  0
BLOCK
  5
9F
330
9D
100
AcDbEntity
  8
0
100
AcDbBlockBegin
  2
Block_4
 70
     0
 10
0.0
 20
0.0
 30
0.0
  3
Block_4
  1

  0
SPLINE
  5
A1
330
9D
100
AcDbEntity
  8
レイヤー 1
100
AcDbSpline
210
0.0
220
0.0
230
1.0
 70
    11
 71
     3
 72
    26
 73
    22
 74
     0
 42
0.0000000001
 43
0.0000000001
 40
0.0
 40
0.0
 40
0.0
 40
0.0
 40
1.0
 40
1.0
 40
1.0
 40
2.0
 40
2.0
 40
2.0
 40
3.0
 40
3.0
 40
3.0
 40
4.0
 40
4.0
 40
4.0
 40
5.0
 40
5.0
 40
5.0
 40
6.0
 40
6.0
 40
6.0
 40
7.0
 40
7.0
 40
7.0
 40
7.0
 10
84.06343042603275
 20
-159.2660752640029
 30
0.0
 10
84.06343042603275
 20
-159.2660752640029
 30
0.0
 10
82.95910506823593
 20
-159.2660752640029
 30
0.0
 10
82.95910506823593
 20
-159.2660752640029
 30
0.0
 10
82.95910506823593
 20
-159.2660752640029
 30
0.0
 10
82.95910506823593
 20
-159.618508532144
 30
0.0
 10
82.95910506823593
 20
-159.618508532144
 30
0.0
 10
82.95910506823593
 20
-159.618508532144
 30
0.0
 10
82.81113821714445
 20
-159.618508532144
 30
0.0
 10
82.81113821714445
 20
-159.618508532144
 30
0.0
 10
82.79632430655786
 20
-159.2636636971632
 30
0.0
 10
82.63337129010555
 20
-159.2140543221756
 30
0.0
 10
82.5191663747695
 20
-159.1823594437113
 30
0.0
 10
82.5191663747695
 20
-159.1823594437113
 30
0.0
 10
82.5191663747695
 20
-159.0262966182295
 30
0.0
 10
82.5191663747695
 20
-159.0262966182295
 30
0.0
 10
82.5191663747695
 20
-159.0262966182295
 30
0.0
 10
84.06343042603275
 20
-159.0262966182295
 30
0.0
 10
84.06343042603275
 20
-159.0262966182295
 30
0.0
 10
84.06343042603275
 20
-159.0262966182295
 30
0.0
 10
84.06343042603275
 20
-159.2660752640029
 30
0.0
 10
84.06343042603275
 20
-159.2660752640029
 30
0.0
  0
HATCH
  5
A2
330
9D
100
AcDbEntity
  8
レイヤー 1
 62
   250
420
  2299925
440
 33554687
100
AcDbHatch
 10
0.0
 20
0.0
 30
0.0
210
0.0
220
0.0
230
1.0
  2
SOLID
 70
     1
 71
     1
 91
        1
 92
        1
 93
        1
 72
     4
 94
        3
 73
     0
 74
     0
 95
       26
 96
       22
 40
0.0
 40
0.0
 40
0.0
 40
0.0
 40
1.0
 40
1.0
 40
1.0
 40
2.0
 40
2.0
 40
2.0
 40
3.0
 40
3.0
 40
3.0
 40
4.0
 40
4.0
 40
4.0
 40
5.0
 40
5.0
 40
5.0
 40
6.0
 40
6.0
 40
6.0
 40
7.0
 40
7.0
 40
7.0
 40
7.0
 10
84.06343042603275
 20
-159.2660752640029
 10
84.06343042603275
 20
-159.2660752640029
 10
82.95910506823593
 20
-159.2660752640029
 10
82.95910506823593
 20
-159.2660752640029
 10
82.95910506823593
 20
-159.2660752640029
 10
82.95910506823593
 20
-159.618508532144
 10
82.95910506823593
 20
-159.618508532144
 10
82.95910506823593
 20
-159.618508532144
 10
82.81113821714445
 20
-159.618508532144
 10
82.81113821714445
 20
-159.618508532144
 10
82.79632430655786
 20
-159.2636636971632
 10
82.63337129010555
 20
-159.2140543221756
 10
82.5191663747695
 20
-159.1823594437113
 10
82.5191663747695
 20
-159.1823594437113
 10
82.5191663747695
 20
-159.0262966182295
 10
82.5191663747695
 20
-159.0262966182295
 10
82.5191663747695
 20
-159.0262966182295
 10
84.06343042603275
 20
-159.0262966182295
 10
84.06343042603275
 20
-159.0262966182295
 10
84.06343042603275
 20
-159.0262966182295
 10
84.06343042603275
 20
-159.2660752640029
 10
84.06343042603275
 20
-159.2660752640029
 97
        0
 97
        1
330
A1
 75
     2
 76
     1
 98
        1
 10
0.0
 20
0.0
450
        0
451
        0
460
0.0
461
0.0
452
        0
462
0.0
453
        0
470

  0
SPLINE
  5
A3
330
9D
100
AcDbEntity
  8
レイヤー 1
100
AcDbSpline
210
0.0
220
0.0
230
1.0
 70
     9
 71
     3
 72
    17
 73
    13
 74
     0
 42
0.0000000001
 43
0.0000000001
 40
0.0
 40
0.0
 40
0.0
 40
0.0
 40
1.0
 40
1.0
 40
1.0
 40
2.0
 40
2.0
 40
2.0
 40
3.0
 40
3.0
 40
3.0
 40
4.0
 40
4.0
 40
4.0
 40
4.0
 10
82.6629991112787
 20
-157.9562499605109
 30
0.0
 10
82.6629991112787
 20
-158.2229003510693
 30
0.0
 10
82.94653046971475
 20
-158.2725097260569
 30
0.0
 10
83.29121227301401
 20
-158.2725097260569
 30
0.0
 10
83.61074487927092
 20
-158.2725097260569
 30
0.0
 10
83.91959768952357
 20
-158.2342691661706
 30
0.0
 10
83.91959768952357
 20
-157.9562499605109
 30
0.0
 10
83.91959768952357
 20
-157.6916666272437
 30
0.0
 10
83.63813338837866
 20
-157.6396456854165
 30
0.0
 10
83.29121227301401
 20
-157.6396456854165
 30
0.0
 10
82.97185192153134
 20
-157.6396456854165
 30
0.0
 10
82.6629991112787
 20
-157.6802978121424
 30
0.0
 10
82.6629991112787
 20
-157.9562499605109
 30
0.0
  0
SPLINE
  5
A4
330
9D
100
AcDbEntity
  8
レイヤー 1
100
AcDbSpline
210
0.0
220
0.0
230
1.0
 70
     9
 71
     3
 72
    29
 73
    25
 74
     0
 42
0.0000000001
 43
0.0000000001
 40
0.0
 40
0.0
 40
0.0
 40
0.0
 40
1.0
 40
1.0
 40
1.0
 40
2.0
 40
2.0
 40
2.0
 40
3.0
 40
3.0
 40
3.0
 40
4.0
 40
4.0
 40
4.0
 40
5.0
 40
5.0
 40
5.0
 40
6.0
 40
6.0
 40
6.0
 40
7.0
 40
7.0
 40
7.0
 40
8.0
 40
8.0
 40
8.0
 40
8.0
 10
83.88566349899386
 20
-157.5311251776311
 30
0.0
 10
84.09512530449706
 20
-157.646535876387
 30
0.0
 10
84.1142455844402
 20
-157.8318820134934
 30
0.0
 10
84.1142455844402
 20
-157.9562499605109
 30
0.0
 10
84.1142455844402
 20
-158.1278157156764
 30
0.0
 10
84.06773679538932
 20
-158.2793999170274
 30
0.0
 10
83.88566349899386
 20
-158.3810302338422
 30
0.0
 10
83.69101560407726
 20
-158.4919623084673
 30
0.0
 10
83.45416528946632
 20
-158.5122883718302
 30
0.0
 10
83.29121227301401
 20
-158.5122883718302
 30
0.0
 10
83.14737953650483
 20
-158.5122883718302
 30
0.0
 10
82.89571531130732
 20
-158.4940293657584
 30
0.0
 10
82.69676104703414
 20
-158.3810302338422
 30
0.0
 10
82.49367266817868
 20
-158.2659640446349
 30
0.0
 10
82.47041827365324
 20
-158.0940537799209
 30
0.0
 10
82.47041827365324
 20
-157.9562499605109
 30
0.0
 10
82.47041827365324
 20
-157.7864067530881
 30
0.0
 10
82.51486000541296
 20
-157.632755494446
 30
0.0
 10
82.69676104703414
 20
-157.5311251776311
 30
0.0
 10
82.88934188465962
 20
-157.4246717271369
 30
0.0
 10
83.11775171533168
 20
-157.3998670396431
 30
0.0
 10
83.29121227301401
 20
-157.3998670396431
 30
0.0
 10
83.46260577340519
 20
-157.3998670396431
 30
0.0
 10
83.69325491614267
 20
-157.4226046698457
 30
0.0
 10
83.88566349899386
 20
-157.5311251776311
 30
0.0
  0
HATCH
  5
A5
330
9D
100
AcDbEntity
  8
レイヤー 1
 62
   250
420
  2299925
440
 33554687
100
AcDbHatch
 10
0.0
 20
0.0
 30
0.0
210
0.0
220
0.0
230
1.0
  2
SOLID
 70
     1
 71
     1
 91
        2
 92
        1
 93
        1
 72
     4
 94
        3
 73
     0
 74
     0
 95
       17
 96
       13
 40
0.0
 40
0.0
 40
0.0
 40
0.0
 40
1.0
 40
1.0
 40
1.0
 40
2.0
 40
2.0
 40
2.0
 40
3.0
 40
3.0
 40
3.0
 40
4.0
 40
4.0
 40
4.0
 40
4.0
 10
82.6629991112787
 20
-157.9562499605109
 10
82.6629991112787
 20
-158.2229003510693
 10
82.94653046971475
 20
-158.2725097260569
 10
83.29121227301401
 20
-158.2725097260569
 10
83.61074487927092
 20
-158.2725097260569
 10
83.91959768952357
 20
-158.2342691661706
 10
83.91959768952357
 20
-157.9562499605109
 10
83.91959768952357
 20
-157.6916666272437
 10
83.63813338837866
 20
-157.6396456854165
 10
83.29121227301401
 20
-157.6396456854165
 10
82.97185192153134
 20
-157.6396456854165
 10
82.6629991112787
 20
-157.6802978121424
 10
82.6629991112787
 20
-157.9562499605109
 97
        0
 97
        1
330
A3
 92
        1
 93
        1
 72
     4
 94
        3
 73
     0
 74
     0
 95
       29
 96
       25
 40
0.0
 40
0.0
 40
0.0
 40
0.0
 40
1.0
 40
1.0
 40
1.0
 40
2.0
 40
2.0
 40
2.0
 40
3.0
 40
3.0
 40
3.0
 40
4.0
 40
4.0
 40
4.0
 40
5.0
 40
5.0
 40
5.0
 40
6.0
 40
6.0
 40
6.0
 40
7.0
 40
7.0
 40
7.0
 40
8.0
 40
8.0
 40
8.0
 40
8.0
 10
83.88566349899386
 20
-157.5311251776311
 10
84.09512530449706
 20
-157.646535876387
 10
84.1142455844402
 20
-157.8318820134934
 10
84.1142455844402
 20
-157.9562499605109
 10
84.1142455844402
 20
-158.1278157156764
 10
84.06773679538932
 20
-158.2793999170274
 10
83.88566349899386
 20
-158.3810302338422
 10
83.69101560407726
 20
-158.4919623084673
 10
83.45416528946632
 20
-158.5122883718302
 10
83.29121227301401
 20
-158.5122883718302
 10
83.14737953650483
 20
-158.5122883718302
 10
82.89571531130732
 20
-158.4940293657584
 10
82.69676104703414
 20
-158.3810302338422
 10
82.49367266817868
 20
-158.2659640446349
 10
82.47041827365324
 20
-158.0940537799209
 10
82.47041827365324
 20
-157.9562499605109
 10
82.47041827365324
 20
-157.7864067530881
 10
82.51486000541296
 20
-157.632755494446
 10
82.69676104703414
 20
-157.5311251776311
 10
82.88934188465962
 20
-157.4246717271369
 10
83.11775171533168
 20
-157.3998670396431
 10
83.29121227301401
 20
-157.3998670396431
 10
83.46260577340519
 20
-157.3998670396431
 10
83.69325491614267
 20
-157.4226046698457
 10
83.88566349899386
 20
-157.5311251776311
 97
        0
 97
        1
330
A4
 75
     2
 76
     1
 98
        1
 10
0.0
 20
0.0
450
        0
451
        0
460
0.0
461
0.0
452
        0
462
0.0
453
        0
470

  0
ENDBLK
  5
A0
330
9D
100
AcDbEntity
  8
0
100
AcDbBlockEnd
  0
BLOCK
  5
A8
330
A6
100
AcDbEntity
  8
0
100
AcDbBlockBegin
  2
Block_5
 70
     0
 10
0.0
 20
0.0
 30
0.0
  3
Block_5
  1

  0
INSERT
  5
AB
330
A6
100
AcDbEntity
  8
レイヤー 1
100
AcDbBlockReference
  2
Block_6
 10
0.0
 20
0.0
 30
0.0
  0
ENDBLK
  5
A9
330
A6
100
AcDbEntity
  8
0
100
AcDbBlockEnd
  0
BLOCK
  5
AC
330
AA
100
AcDbEntity
  8
0
100
AcDbBlockBegin
  2
Block_6
 70
     0
 10
0.0
 20
0.0
 30
0.0
  3
Block_6
  1

  0
SPLINE
  5
AE
330
AA
100
AcDbEntity
  8
レイヤー 1
100
AcDbSpline
210
0.0
220
0.0
230
1.0
 70
     9
 71
     3
 72
    20
 73
    16
 74
     0
 42
0.0000000001
 43
0.0000000001
 40
0.0
 40
0.0
 40
0.0
 40
0.0
 40
1.0
 40
1.0
 40
1.0
 40
2.0
 40
2.0
 40
2.0
 40
3.0
 40
3.0
 40
3.0
 40
4.0
 40
4.0
 40
4.0
 40
5.0
 40
5.0
 40
5.0
 40
5.0
 10
84.69009329479971
 20
-167.4371527359185
 30
0.0
 10
84.69009329479971
 20
-167.4371527359185
 30
0.0
 10
84.21535913693228
 20
-167.4371527359185
 30
0.0
 10
84.21535913693228
 20
-167.4371527359185
 30
0.0
 10
84.21535913693228
 20
-167.4371527359185
 30
0.0
 10
84.21535913693228
 20
-167.9173990465623
 30
0.0
 10
84.21535913693228
 20
-167.9173990465623
 30
0.0
 10
84.21535913693228
 20
-167.9173990465623
 30
0.0
 10
84.68802623750855
 20
-167.9173990465623
 30
0.0
 10
84.68802623750855
 20
-167.9173990465623
 30
0.0
 10
84.79413517845426
 20
-167.9173990465623
 30
0.0
 10
84.93882918883475
 20
-167.8412624363383
 30
0.0
 10
84.93882918883475
 20
-167.6700411907213
 30
0.0
 10
84.93882918883475
 20
-167.5914930136577
 30
0.0
 10
84.90265568623961
 20
-167.4371527359185
 30
0.0
 10
84.69009329479971
 20
-167.4371527359185
 30
0.0
  0
SPLINE
  5
AF
330
AA
100
AcDbEntity
  8
レイヤー 1
100
AcDbSpline
210
0.0
220
0.0
230
1.0
 70
     9
 71
     3
 72
    44
 73
    40
 74
     0
 42
0.0000000001
 43
0.0000000001
 40
0.0
 40
0.0
 40
0.0
 40
0.0
 40
1.0
 40
1.0
 40
1.0
 40
2.0
 40
2.0
 40
2.0
 40
3.0
 40
3.0
 40
3.0
 40
4.0
 40
4.0
 40
4.0
 40
5.0
 40
5.0
 40
5.0
 40
6.0
 40
6.0
 40
6.0
 40
7.0
 40
7.0
 40
7.0
 40
8.0
 40
8.0
 40
8.0
 40
9.0
 40
9.0
 40
9.0
 40
10.0
 40
10.0
 40
10.0
 40
11.0
 40
11.0
 40
11.0
 40
12.0
 40
12.0
 40
12.0
 40
13.0
 40
13.0
 40
13.0
 40
13.0
 10
84.95915525219771
 20
-168.7700601791616
 30
0.0
 10
84.93435056470392
 20
-168.7256184474019
 30
0.0
 10
84.91161293450126
 20
-168.6725639769291
 30
0.0
 10
84.90954587721011
 20
-168.4420870889659
 30
0.0
 10
84.90506725307929
 20
-168.1988633477072
 30
0.0
 10
84.84167749615069
 20
-168.1289279093566
 30
0.0
 10
84.65185273491343
 20
-168.1289279093566
 30
0.0
 10
84.65185273491343
 20
-168.1289279093566
 30
0.0
 10
84.21535913693228
 20
-168.1289279093566
 30
0.0
 10
84.21535913693228
 20
-168.1289279093566
 30
0.0
 10
84.21535913693228
 20
-168.1289279093566
 30
0.0
 10
84.21535913693228
 20
-168.7700601791616
 30
0.0
 10
84.21535913693228
 20
-168.7700601791616
 30
0.0
 10
84.21535913693228
 20
-168.7700601791616
 30
0.0
 10
83.96455618560608
 20
-168.7700601791616
 30
0.0
 10
83.96455618560608
 20
-168.7700601791616
 30
0.0
 10
83.96455618560608
 20
-168.7700601791616
 30
0.0
 10
83.96455618560608
 20
-167.2256238731241
 30
0.0
 10
83.96455618560608
 20
-167.2256238731241
 30
0.0
 10
83.96455618560608
 20
-167.2256238731241
 30
0.0
 10
84.68561467066889
 20
-167.2256238731241
 30
0.0
 10
84.68561467066889
 20
-167.2256238731241
 30
0.0
 10
85.01358776086467
 20
-167.2256238731241
 30
0.0
 10
85.19204370700061
 20
-167.3968451187411
 30
0.0
 10
85.19204370700061
 20
-167.6531602228436
 30
0.0
 10
85.19204370700061
 20
-167.7038031264768
 30
0.0
 10
85.18308645873895
 20
-167.7861409085743
 30
0.0
 10
85.1355441410425
 20
-167.8667561429291
 30
0.0
 10
85.07215438411391
 20
-167.9704535170351
 30
0.0
 10
85.00221894576332
 20
-167.989401542204
 30
0.0
 10
84.93641762199507
 20
-168.0062825100818
 30
0.0
 10
85.08352319921524
 20
-168.0486571845503
 30
0.0
 10
85.15587020440547
 20
-168.0972330308923
 30
0.0
 10
85.16034882853629
 20
-168.4124592677927
 30
0.0
 10
85.16482745266712
 20
-168.6832437729333
 30
0.0
 10
85.20341252210192
 20
-168.7149386513976
 30
0.0
 10
85.27575952729218
 20
-168.7700601791616
 30
0.0
 10
85.27575952729218
 20
-168.7700601791616
 30
0.0
 10
84.95915525219771
 20
-168.7700601791616
 30
0.0
 10
84.95915525219771
 20
-168.7700601791616
 30
0.0
  0
HATCH
  5
B0
330
AA
100
AcDbEntity
  8
レイヤー 1
 62
   250
420
  2299925
440
 33554687
100
AcDbHatch
 10
0.0
 20
0.0
 30
0.0
210
0.0
220
0.0
230
1.0
  2
SOLID
 70
     1
 71
     1
 91
        2
 92
        1
 93
        1
 72
     4
 94
        3
 73
     0
 74
     0
 95
       20
 96
       16
 40
0.0
 40
0.0
 40
0.0
 40
0.0
 40
1.0
 40
1.0
 40
1.0
 40
2.0
 40
2.0
 40
2.0
 40
3.0
 40
3.0
 40
3.0
 40
4.0
 40
4.0
 40
4.0
 40
5.0
 40
5.0
 40
5.0
 40
5.0
 10
84.69009329479971
 20
-167.4371527359185
 10
84.69009329479971
 20
-167.4371527359185
 10
84.21535913693228
 20
-167.4371527359185
 10
84.21535913693228
 20
-167.4371527359185
 10
84.21535913693228
 20
-167.4371527359185
 10
84.21535913693228
 20
-167.9173990465623
 10
84.21535913693228
 20
-167.9173990465623
 10
84.21535913693228
 20
-167.9173990465623
 10
84.68802623750855
 20
-167.9173990465623
 10
84.68802623750855
 20
-167.9173990465623
 10
84.79413517845426
 20
-167.9173990465623
 10
84.93882918883475
 20
-167.8412624363383
 10
84.93882918883475
 20
-167.6700411907213
 10
84.93882918883475
 20
-167.5914930136577
 10
84.90265568623961
 20
-167.4371527359185
 10
84.69009329479971
 20
-167.4371527359185
 97
        0
 97
        1
330
AE
 92
        1
 93
        1
 72
     4
 94
        3
 73
     0
 74
     0
 95
       44
 96
       40
 40
0.0
 40
0.0
 40
0.0
 40
0.0
 40
1.0
 40
1.0
 40
1.0
 40
2.0
 40
2.0
 40
2.0
 40
3.0
 40
3.0
 40
3.0
 40
4.0
 40
4.0
 40
4.0
 40
5.0
 40
5.0
 40
5.0
 40
6.0
 40
6.0
 40
6.0
 40
7.0
 40
7.0
 40
7.0
 40
8.0
 40
8.0
 40
8.0
 40
9.0
 40
9.0
 40
9.0
 40
10.0
 40
10.0
 40
10.0
 40
11.0
 40
11.0
 40
11.0
 40
12.0
 40
12.0
 40
12.0
 40
13.0
 40
13.0
 40
13.0
 40
13.0
 10
84.95915525219771
 20
-168.7700601791616
 10
84.93435056470392
 20
-168.7256184474019
 10
84.91161293450126
 20
-168.6725639769291
 10
84.90954587721011
 20
-168.4420870889659
 10
84.90506725307929
 20
-168.1988633477072
 10
84.84167749615069
 20
-168.1289279093566
 10
84.65185273491343
 20
-168.1289279093566
 10
84.65185273491343
 20
-168.1289279093566
 10
84.21535913693228
 20
-168.1289279093566
 10
84.21535913693228
 20
-168.1289279093566
 10
84.21535913693228
 20
-168.1289279093566
 10
84.21535913693228
 20
-168.7700601791616
 10
84.21535913693228
 20
-168.7700601791616
 10
84.21535913693228
 20
-168.7700601791616
 10
83.96455618560608
 20
-168.7700601791616
 10
83.96455618560608
 20
-168.7700601791616
 10
83.96455618560608
 20
-168.7700601791616
 10
83.96455618560608
 20
-167.2256238731241
 10
83.96455618560608
 20
-167.2256238731241
 10
83.96455618560608
 20
-167.2256238731241
 10
84.68561467066889
 20
-167.2256238731241
 10
84.68561467066889
 20
-167.2256238731241
 10
85.01358776086467
 20
-167.2256238731241
 10
85.19204370700061
 20
-167.3968451187411
 10
85.19204370700061
 20
-167.6531602228436
 10
85.19204370700061
 20
-167.7038031264768
 10
85.18308645873895
 20
-167.7861409085743
 10
85.1355441410425
 20
-167.8667561429291
 10
85.07215438411391
 20
-167.9704535170351
 10
85.00221894576332
 20
-167.989401542204
 10
84.93641762199507
 20
-168.0062825100818
 10
85.08352319921524
 20
-168.0486571845503
 10
85.15587020440547
 20
-168.0972330308923
 10
85.16034882853629
 20
-168.4124592677927
 10
85.16482745266712
 20
-168.6832437729333
 10
85.20341252210192
 20
-168.7149386513976
 10
85.27575952729218
 20
-168.7700601791616
 10
85.27575952729218
 20
-168.7700601791616
 10
84.95915525219771
 20
-168.7700601791616
 10
84.95915525219771
 20
-168.7700601791616
 97
        0
 97
        1
330
AF
 75
     2
 76
     1
 98
        1
 10
0.0
 20
0.0
450
        0
451
        0
460
0.0
461
0.0
452
        0
462
0.0
453
        0
470

  0
SPLINE
  5
B1
330
AA
100
AcDbEntity
  8
レイヤー 1
100
AcDbSpline
210
0.0
220
0.0
230
1.0
 70
    11
 71
     3
 72
    26
 73
    22
 74
     0
 42
0.0000000001
 43
0.0000000001
 40
0.0
 40
0.0
 40
0.0
 40
0.0
 40
1.0
 40
1.0
 40
1.0
 40
2.0
 40
2.0
 40
2.0
 40
3.0
 40
3.0
 40
3.0
 40
4.0
 40
4.0
 40
4.0
 40
5.0
 40
5.0
 40
5.0
 40
6.0
 40
6.0
 40
6.0
 40
7.0
 40
7.0
 40
7.0
 40
7.0
 10
85.90724552973847
 20
-168.7700601791616
 30
0.0
 10
85.90724552973847
 20
-168.7700601791616
 30
0.0
 10
85.90724552973847
 20
-167.6655625665905
 30
0.0
 10
85.90724552973847
 20
-167.6655625665905
 30
0.0
 10
85.90724552973847
 20
-167.6655625665905
 30
0.0
 10
85.5548122615974
 20
-167.6655625665905
 30
0.0
 10
85.5548122615974
 20
-167.6655625665905
 30
0.0
 10
85.5548122615974
 20
-167.6655625665905
 30
0.0
 10
85.5548122615974
 20
-167.5177679702733
 30
0.0
 10
85.5548122615974
 20
-167.5177679702733
 30
0.0
 10
85.90965709657814
 20
-167.5029540596868
 30
0.0
 10
85.95926647156574
 20
-167.3400010432344
 30
0.0
 10
85.99096135003005
 20
-167.2256238731241
 30
0.0
 10
85.99096135003005
 20
-167.2256238731241
 30
0.0
 10
86.14702417551185
 20
-167.2256238731241
 30
0.0
 10
86.14702417551185
 20
-167.2256238731241
 30
0.0
 10
86.14702417551185
 20
-167.2256238731241
 30
0.0
 10
86.14702417551185
 20
-168.7700601791616
 30
0.0
 10
86.14702417551185
 20
-168.7700601791616
 30
0.0
 10
86.14702417551185
 20
-168.7700601791616
 30
0.0
 10
85.90724552973847
 20
-168.7700601791616
 30
0.0
 10
85.90724552973847
 20
-168.7700601791616
 30
0.0
  0
HATCH
  5
B2
330
AA
100
AcDbEntity
  8
レイヤー 1
 62
   250
420
  2299925
440
 33554687
100
AcDbHatch
 10
0.0
 20
0.0
 30
0.0
210
0.0
220
0.0
230
1.0
  2
SOLID
 70
     1
 71
     1
 91
        1
 92
        1
 93
        1
 72
     4
 94
        3
 73
     0
 74
     0
 95
       26
 96
       22
 40
0.0
 40
0.0
 40
0.0
 40
0.0
 40
1.0
 40
1.0
 40
1.0
 40
2.0
 40
2.0
 40
2.0
 40
3.0
 40
3.0
 40
3.0
 40
4.0
 40
4.0
 40
4.0
 40
5.0
 40
5.0
 40
5.0
 40
6.0
 40
6.0
 40
6.0
 40
7.0
 40
7.0
 40
7.0
 40
7.0
 10
85.90724552973847
 20
-168.7700601791616
 10
85.90724552973847
 20
-168.7700601791616
 10
85.90724552973847
 20
-167.6655625665905
 10
85.90724552973847
 20
-167.6655625665905
 10
85.90724552973847
 20
-167.6655625665905
 10
85.5548122615974
 20
-167.6655625665905
 10
85.5548122615974
 20
-167.6655625665905
 10
85.5548122615974
 20
-167.6655625665905
 10
85.5548122615974
 20
-167.5177679702733
 10
85.5548122615974
 20
-167.5177679702733
 10
85.90965709657814
 20
-167.5029540596868
 10
85.95926647156574
 20
-167.3400010432344
 10
85.99096135003005
 20
-167.2256238731241
 10
85.99096135003005
 20
-167.2256238731241
 10
86.14702417551185
 20
-167.2256238731241
 10
86.14702417551185
 20
-167.2256238731241
 10
86.14702417551185
 20
-167.2256238731241
 10
86.14702417551185
 20
-168.7700601791616
 10
86.14702417551185
 20
-168.7700601791616
 10
86.14702417551185
 20
-168.7700601791616
 10
85.90724552973847
 20
-168.7700601791616
 10
85.90724552973847
 20
-168.7700601791616
 97
        0
 97
        1
330
B1
 75
     2
 76
     1
 98
        1
 10
0.0
 20
0.0
450
        0
451
        0
460
0.0
461
0.0
452
        0
462
0.0
453
        0
470

  0
ENDBLK
  5
AD
330
AA
100
AcDbEntity
  8
0
100
AcDbBlockEnd
  0
BLOCK
  5
B8
330
B6
100
AcDbEntity
  8
0
100
AcDbBlockBegin
  2
Block_7
 70
     0
 10
0.0
 20
0.0
 30
0.0
  3
Block_7
  1

  0
INSERT
  5
BB
330
B6
100
AcDbEntity
  8
レイヤー 1
100
AcDbBlockReference
  2
Block_8
 10
0.0
 20
0.0
 30
0.0
  0
ENDBLK
  5
B9
330
B6
100
AcDbEntity
  8
0
100
AcDbBlockEnd
  0
BLOCK
  5
BC
330
BA
100
AcDbEntity
  8
0
100
AcDbBlockBegin
  2
Block_8
 70
     0
 10
0.0
 20
0.0
 30
0.0
  3
Block_8
  1

  0
SPLINE
  5
BE
330
BA
100
AcDbEntity
  8
レイヤー 1
100
AcDbSpline
210
0.0
220
0.0
230
1.0
 70
     9
 71
     3
 72
    41
 73
    37
 74
     0
 42
0.0000000001
 43
0.0000000001
 40
0.0
 40
0.0
 40
0.0
 40
0.0
 40
1.0
 40
1.0
 40
1.0
 40
2.0
 40
2.0
 40
2.0
 40
3.0
 40
3.0
 40
3.0
 40
4.0
 40
4.0
 40
4.0
 40
5.0
 40
5.0
 40
5.0
 40
6.0
 40
6.0
 40
6.0
 40
7.0
 40
7.0
 40
7.0
 40
8.0
 40
8.0
 40
8.0
 40
9.0
 40
9.0
 40
9.0
 40
10.0
 40
10.0
 40
10.0
 40
11.0
 40
11.0
 40
11.0
 40
12.0
 40
12.0
 40
12.0
 40
12.0
 10
94.3012206795497
 20
-153.248526979917
 30
0.0
 10
94.04352753725301
 20
-153.1131347273467
 30
0.0
 10
93.85370277601575
 20
-152.8168565156152
 30
0.0
 10
93.81063908245012
 20
-152.6876654349183
 30
0.0
 10
93.68179251130177
 20
-152.9522487681856
 30
0.0
 10
93.50747067974813
 20
-153.1300156952244
 30
0.0
 10
93.31316729438006
 20
-153.2440483557862
 30
0.0
 10
93.31316729438006
 20
-153.2440483557862
 30
0.0
 10
93.10301646977981
 20
-153.1065890459247
 30
0.0
 10
93.10301646977981
 20
-153.1065890459247
 30
0.0
 10
93.1774305322612
 20
-153.0814398488824
 30
0.0
 10
93.33349335774302
 20
-153.0197726396964
 30
0.0
 10
93.46475149573103
 20
-152.8654323619572
 30
0.0
 10
93.59807669101021
 20
-152.7090250269269
 30
0.0
 10
93.6931613264031
 20
-152.476136572124
 30
0.0
 10
93.6931613264031
 20
-152.2160318629877
 30
0.0
 10
93.6931613264031
 20
-152.1144015461728
 30
0.0
 10
93.67938094446211
 20
-152.0427435600796
 30
0.0
 10
93.66801212936078
 20
-151.9958902614802
 30
0.0
 10
93.66801212936078
 20
-151.9958902614802
 30
0.0
 10
93.88746471177119
 20
-152.0172498534887
 30
0.0
 10
93.88746471177119
 20
-152.0172498534887
 30
0.0
 10
93.91020234197384
 20
-152.0193169107799
 30
0.0
 10
93.93259546262797
 20
-152.021383968071
 30
0.0
 10
93.93259546262797
 20
-152.0427435600796
 30
0.0
 10
93.93259546262797
 20
-152.0616915852484
 30
0.0
 10
93.92122664752664
 20
-152.069959814413
 30
0.0
 10
93.88505314493151
 20
-152.0913194064216
 30
0.0
 10
93.87609589666986
 20
-152.2921684732117
 30
0.0
 10
93.93707408675879
 20
-152.5353922144703
 30
0.0
 10
94.00287541052707
 20
-152.655970556454
 30
0.0
 10
94.1000271032111
 20
-152.8316704262018
 30
0.0
 10
94.30811087052019
 20
-153.0115044105318
 30
0.0
 10
94.45280488090068
 20
-153.068692995587
 30
0.0
 10
94.45280488090068
 20
-153.068692995587
 30
0.0
 10
94.3012206795497
 20
-153.248526979917
 30
0.0
 10
94.3012206795497
 20
-153.248526979917
 30
0.0
  0
SPLINE
  5
BF
330
BA
100
AcDbEntity
  8
レイヤー 1
100
AcDbSpline
210
0.0
220
0.0
230
1.0
 70
    11
 71
     3
 72
    17
 73
    13
 74
     0
 42
0.0000000001
 43
0.0000000001
 40
0.0
 40
0.0
 40
0.0
 40
0.0
 40
1.0
 40
1.0
 40
1.0
 40
2.0
 40
2.0
 40
2.0
 40
3.0
 40
3.0
 40
3.0
 40
4.0
 40
4.0
 40
4.0
 40
4.0
 10
93.13677840553525
 20
-152.2901014159205
 30
0.0
 10
93.13677840553525
 20
-152.2901014159205
 30
0.0
 10
92.96521265036981
 20
-152.2901014159205
 30
0.0
 10
92.96521265036981
 20
-152.2901014159205
 30
0.0
 10
92.96521265036981
 20
-152.2901014159205
 30
0.0
 10
92.96521265036981
 20
-152.4192924966174
 30
0.0
 10
92.96521265036981
 20
-152.4192924966174
 30
0.0
 10
92.96521265036981
 20
-152.4192924966174
 30
0.0
 10
93.13677840553525
 20
-152.4192924966174
 30
0.0
 10
93.13677840553525
 20
-152.4192924966174
 30
0.0
 10
93.13677840553525
 20
-152.4192924966174
 30
0.0
 10
93.13677840553525
 20
-152.2901014159205
 30
0.0
 10
93.13677840553525
 20
-152.2901014159205
 30
0.0
  0
SPLINE
  5
C0
330
BA
100
AcDbEntity
  8
レイヤー 1
100
AcDbSpline
210
0.0
220
0.0
230
1.0
 70
    11
 71
     3
 72
    17
 73
    13
 74
     0
 42
0.0000000001
 43
0.0000000001
 40
0.0
 40
0.0
 40
0.0
 40
0.0
 40
1.0
 40
1.0
 40
1.0
 40
2.0
 40
2.0
 40
2.0
 40
3.0
 40
3.0
 40
3.0
 40
4.0
 40
4.0
 40
4.0
 40
4.0
 10
93.13677840553525
 20
-152.0172498534887
 30
0.0
 10
93.13677840553525
 20
-152.0172498534887
 30
0.0
 10
92.96521265036981
 20
-152.0172498534887
 30
0.0
 10
92.96521265036981
 20
-152.0172498534887
 30
0.0
 10
92.96521265036981
 20
-152.0172498534887
 30
0.0
 10
92.96521265036981
 20
-152.1460964246371
 30
0.0
 10
92.96521265036981
 20
-152.1460964246371
 30
0.0
 10
92.96521265036981
 20
-152.1460964246371
 30
0.0
 10
93.13677840553525
 20
-152.1460964246371
 30
0.0
 10
93.13677840553525
 20
-152.1460964246371
 30
0.0
 10
93.13677840553525
 20
-152.1460964246371
 30
0.0
 10
93.13677840553525
 20
-152.0172498534887
 30
0.0
 10
93.13677840553525
 20
-152.0172498534887
 30
0.0
  0
SPLINE
  5
C1
330
BA
100
AcDbEntity
  8
レイヤー 1
100
AcDbSpline
210
0.0
220
0.0
230
1.0
 70
    11
 71
     3
 72
    17
 73
    13
 74
     0
 42
0.0000000001
 43
0.0000000001
 40
0.0
 40
0.0
 40
0.0
 40
0.0
 40
1.0
 40
1.0
 40
1.0
 40
2.0
 40
2.0
 40
2.0
 40
3.0
 40
3.0
 40
3.0
 40
4.0
 40
4.0
 40
4.0
 40
4.0
 10
92.78193357055451
 20
-152.2901014159205
 30
0.0
 10
92.78193357055451
 20
-152.2901014159205
 30
0.0
 10
92.61243487268023
 20
-152.2901014159205
 30
0.0
 10
92.61243487268023
 20
-152.2901014159205
 30
0.0
 10
92.61243487268023
 20
-152.2901014159205
 30
0.0
 10
92.61243487268023
 20
-152.4192924966174
 30
0.0
 10
92.61243487268023
 20
-152.4192924966174
 30
0.0
 10
92.61243487268023
 20
-152.4192924966174
 30
0.0
 10
92.78193357055451
 20
-152.4192924966174
 30
0.0
 10
92.78193357055451
 20
-152.4192924966174
 30
0.0
 10
92.78193357055451
 20
-152.4192924966174
 30
0.0
 10
92.78193357055451
 20
-152.2901014159205
 30
0.0
 10
92.78193357055451
 20
-152.2901014159205
 30
0.0
  0
SPLINE
  5
C2
330
BA
100
AcDbEntity
  8
レイヤー 1
100
AcDbSpline
210
0.0
220
0.0
230
1.0
 70
    11
 71
     3
 72
    17
 73
    13
 74
     0
 42
0.0000000001
 43
0.0000000001
 40
0.0
 40
0.0
 40
0.0
 40
0.0
 40
1.0
 40
1.0
 40
1.0
 40
2.0
 40
2.0
 40
2.0
 40
3.0
 40
3.0
 40
3.0
 40
4.0
 40
4.0
 40
4.0
 40
4.0
 10
92.78193357055451
 20
-152.0172498534887
 30
0.0
 10
92.78193357055451
 20
-152.0172498534887
 30
0.0
 10
92.61243487268023
 20
-152.0172498534887
 30
0.0
 10
92.61243487268023
 20
-152.0172498534887
 30
0.0
 10
92.61243487268023
 20
-152.0172498534887
 30
0.0
 10
92.61243487268023
 20
-152.1460964246371
 30
0.0
 10
92.61243487268023
 20
-152.1460964246371
 30
0.0
 10
92.61243487268023
 20
-152.1460964246371
 30
0.0
 10
92.78193357055451
 20
-152.1460964246371
 30
0.0
 10
92.78193357055451
 20
-152.1460964246371
 30
0.0
 10
92.78193357055451
 20
-152.1460964246371
 30
0.0
 10
92.78193357055451
 20
-152.0172498534887
 30
0.0
 10
92.78193357055451
 20
-152.0172498534887
 30
0.0
  0
SPLINE
  5
C3
330
BA
100
AcDbEntity
  8
レイヤー 1
100
AcDbSpline
210
0.0
220
0.0
230
1.0
 70
     9
 71
     3
 72
   197
 73
   193
 74
     0
 42
0.0000000001
 43
0.0000000001
 40
0.0
 40
0.0
 40
0.0
 40
0.0
 40
1.0
 40
1.0
 40
1.0
 40
2.0
 40
2.0
 40
2.0
 40
3.0
 40
3.0
 40
3.0
 40
4.0
 40
4.0
 40
4.0
 40
5.0
 40
5.0
 40
5.0
 40
6.0
 40
6.0
 40
6.0
 40
7.0
 40
7.0
 40
7.0
 40
8.0
 40
8.0
 40
8.0
 40
9.0
 40
9.0
 40
9.0
 40
10.0
 40
10.0
 40
10.0
 40
11.0
 40
11.0
 40
11.0
 40
12.0
 40
12.0
 40
12.0
 40
13.0
 40
13.0
 40
13.0
 40
14.0
 40
14.0
 40
14.0
 40
15.0
 40
15.0
 40
15.0
 40
16.0
 40
16.0
 40
16.0
 40
17.0
 40
17.0
 40
17.0
 40
18.0
 40
18.0
 40
18.0
 40
19.0
 40
19.0
 40
19.0
 40
20.0
 40
20.0
 40
20.0
 40
21.0
 40
21.0
 40
21.0
 40
22.0
 40
22.0
 40
22.0
 40
23.0
 40
23.0
 40
23.0
 40
24.0
 40
24.0
 40
24.0
 40
25.0
 40
25.0
 40
25.0
 40
26.0
 40
26.0
 40
26.0
 40
27.0
 40
27.0
 40
27.0
 40
28.0
 40
28.0
 40
28.0
 40
29.0
 40
29.0
 40
29.0
 40
30.0
 40
30.0
 40
30.0
 40
31.0
 40
31.0
 40
31.0
 40
32.0
 40
32.0
 40
32.0
 40
33.0
 40
33.0
 40
33.0
 40
34.0
 40
34.0
 40
34.0
 40
35.0
 40
35.0
 40
35.0
 40
36.0
 40
36.0
 40
36.0
 40
37.0
 40
37.0
 40
37.0
 40
38.0
 40
38.0
 40
38.0
 40
39.0
 40
39.0
 40
39.0
 40
40.0
 40
40.0
 40
40.0
 40
41.0
 40
41.0
 40
41.0
 40
42.0
 40
42.0
 40
42.0
 40
43.0
 40
43.0
 40
43.0
 40
44.0
 40
44.0
 40
44.0
 40
45.0
 40
45.0
 40
45.0
 40
46.0
 40
46.0
 40
46.0
 40
47.0
 40
47.0
 40
47.0
 40
48.0
 40
48.0
 40
48.0
 40
49.0
 40
49.0
 40
49.0
 40
50.0
 40
50.0
 40
50.0
 40
51.0
 40
51.0
 40
51.0
 40
52.0
 40
52.0
 40
52.0
 40
53.0
 40
53.0
 40
53.0
 40
54.0
 40
54.0
 40
54.0
 40
55.0
 40
55.0
 40
55.0
 40
56.0
 40
56.0
 40
56.0
 40
57.0
 40
57.0
 40
57.0
 40
58.0
 40
58.0
 40
58.0
 40
59.0
 40
59.0
 40
59.0
 40
60.0
 40
60.0
 40
60.0
 40
61.0
 40
61.0
 40
61.0
 40
62.0
 40
62.0
 40
62.0
 40
63.0
 40
63.0
 40
63.0
 40
64.0
 40
64.0
 40
64.0
 40
64.0
 10
94.39148218126325
 20
-151.8925373969227
 30
0.0
 10
94.38045787571045
 20
-151.9218207085473
 30
0.0
 10
94.35530867866813
 20
-151.9686740071467
 30
0.0
 10
94.34428437311533
 20
-151.9958902614802
 30
0.0
 10
94.34428437311533
 20
-151.9958902614802
 30
0.0
 10
94.27848304934704
 20
-152.1485079914768
 30
0.0
 10
94.27848304934704
 20
-152.1485079914768
 30
0.0
 10
94.26745874379426
 20
-152.1736571885191
 30
0.0
 10
94.21543780196698
 20
-152.2859673013382
 30
0.0
 10
94.20165742002598
 20
-152.3090494410894
 30
0.0
 10
94.19959036273482
 20
-152.3155951225114
 30
0.0
 10
94.19511173860399
 20
-152.323863351676
 30
0.0
 10
94.19270017176433
 20
-152.3304090330979
 30
0.0
 10
94.19270017176433
 20
-152.3304090330979
 30
0.0
 10
93.96876896522309
 20
-152.2773545626251
 30
0.0
 10
93.96876896522309
 20
-152.2773545626251
 30
0.0
 10
94.05248478551467
 20
-152.1674560166456
 30
0.0
 10
94.11794159973441
 20
-152.0320637640753
 30
0.0
 10
94.15204804503838
 20
-151.9218207085473
 30
0.0
 10
94.15204804503838
 20
-151.9218207085473
 30
0.0
 10
93.6545762569683
 20
-151.9218207085473
 30
0.0
 10
93.6545762569683
 20
-151.9218207085473
 30
0.0
 10
93.56879337938558
 20
-152.0868407822908
 30
0.0
 10
93.49644637419535
 20
-152.1653889593545
 30
0.0
 10
93.46027287160021
 20
-152.2053520669834
 30
0.0
 10
93.46027287160021
 20
-152.2053520669834
 30
0.0
 10
93.3290147336122
 20
-152.1398952527636
 30
0.0
 10
93.3290147336122
 20
-152.1398952527636
 30
0.0
 10
93.3290147336122
 20
-152.1398952527636
 30
0.0
 10
93.3290147336122
 20
-152.3111164983805
 30
0.0
 10
93.3290147336122
 20
-152.3111164983805
 30
0.0
 10
93.3290147336122
 20
-152.4192924966174
 30
0.0
 10
93.33142630045186
 20
-152.4678683429594
 30
0.0
 10
93.34245060600467
 20
-152.5736327743566
 30
0.0
 10
93.2656249766836
 20
-152.5715657170654
 30
0.0
 10
93.24323185602947
 20
-152.5715657170654
 30
0.0
 10
93.02377927361906
 20
-152.5715657170654
 30
0.0
 10
93.02377927361906
 20
-152.5715657170654
 30
0.0
 10
92.96521265036981
 20
-152.5715657170654
 30
0.0
 10
92.96521265036981
 20
-152.5715657170654
 30
0.0
 10
92.96521265036981
 20
-152.5715657170654
 30
0.0
 10
92.96521265036981
 20
-152.7069579696357
 30
0.0
 10
92.96521265036981
 20
-152.7069579696357
 30
0.0
 10
92.96521265036981
 20
-152.7069579696357
 30
0.0
 10
93.04203827969088
 20
-152.7069579696357
 30
0.0
 10
93.04203827969088
 20
-152.7069579696357
 30
0.0
 10
93.11197371804146
 20
-152.7069579696357
 30
0.0
 10
93.26803654352326
 20
-152.7024793455049
 30
0.0
 10
93.38103567543946
 20
-152.6942111163403
 30
0.0
 10
93.38103567543946
 20
-152.6942111163403
 30
0.0
 10
93.38103567543946
 20
-152.8719780433792
 30
0.0
 10
93.38103567543946
 20
-152.8719780433792
 30
0.0
 10
93.27699379178492
 20
-152.8654323619572
 30
0.0
 10
93.10749509391063
 20
-152.8612982473749
 30
0.0
 10
93.04203827969088
 20
-152.8612982473749
 30
0.0
 10
93.04203827969088
 20
-152.8612982473749
 30
0.0
 10
92.96521265036981
 20
-152.8612982473749
 30
0.0
 10
92.96521265036981
 20
-152.8612982473749
 30
0.0
 10
92.96727970766097
 20
-152.9501817108944
 30
0.0
 10
92.9717583317918
 20
-153.1892713375707
 30
0.0
 10
92.97416989863146
 20
-153.2633408905036
 30
0.0
 10
92.97416989863146
 20
-153.2633408905036
 30
0.0
 10
92.75919594035187
 20
-153.2633408905036
 30
0.0
 10
92.75919594035187
 20
-153.2633408905036
 30
0.0
 10
92.77297632229288
 20
-153.0494004608696
 30
0.0
 10
92.77297632229288
 20
-153.0197726396964
 30
0.0
 10
92.7774549464237
 20
-152.8612982473749
 30
0.0
 10
92.7774549464237
 20
-152.8612982473749
 30
0.0
 10
92.70269637439378
 20
-152.8612982473749
 30
0.0
 10
92.70269637439378
 20
-152.8612982473749
 30
0.0
 10
92.64171818430485
 20
-152.8612982473749
 30
0.0
 10
92.47910967740105
 20
-152.8654323619572
 30
0.0
 10
92.36128741180552
 20
-152.8719780433792
 30
0.0
 10
92.36128741180552
 20
-152.8719780433792
 30
0.0
 10
92.36128741180552
 20
-152.6942111163403
 30
0.0
 10
92.36128741180552
 20
-152.6942111163403
 30
0.0
 10
92.47428654372169
 20
-152.7024793455049
 30
0.0
 10
92.62828231191237
 20
-152.7069579696357
 30
0.0
 10
92.70269637439378
 20
-152.7069579696357
 30
0.0
 10
92.70269637439378
 20
-152.7069579696357
 30
0.0
 10
92.78193357055451
 20
-152.7069579696357
 30
0.0
 10
92.78193357055451
 20
-152.7069579696357
 30
0.0
 10
92.78193357055451
 20
-152.7069579696357
 30
0.0
 10
92.78193357055451
 20
-152.5715657170654
 30
0.0
 10
92.78193357055451
 20
-152.5715657170654
 30
0.0
 10
92.78193357055451
 20
-152.5715657170654
 30
0.0
 10
92.73439125285808
 20
-152.5715657170654
 30
0.0
 10
92.73439125285808
 20
-152.5715657170654
 30
0.0
 10
92.65308699940616
 20
-152.5715657170654
 30
0.0
 10
92.44741479893676
 20
-152.5736327743566
 30
0.0
 10
92.41124129634163
 20
-152.5736327743566
 30
0.0
 10
92.41778697776361
 20
-152.5016302787149
 30
0.0
 10
92.42708873557379
 20
-152.4213595539085
 30
0.0
 10
92.42708873557379
 20
-152.3007812119248
 30
0.0
 10
92.42708873557379
 20
-152.3007812119248
 30
0.0
 10
92.42708873557379
 20
-152.1271483994682
 30
0.0
 10
92.42708873557379
 20
-152.1271483994682
 30
0.0
 10
92.42708873557379
 20
-152.0551459038265
 30
0.0
 10
92.41778697776361
 20
-151.9345675618427
 30
0.0
 10
92.41124129634163
 20
-151.8542968370364
 30
0.0
 10
92.4946126070847
 20
-151.8584309516187
 30
0.0
 10
92.53560924335916
 20
-151.8604980089099
 30
0.0
 10
92.67100149592947
 20
-151.8604980089099
 30
0.0
 10
92.67100149592947
 20
-151.8604980089099
 30
0.0
 10
92.78193357055451
 20
-151.8604980089099
 30
0.0
 10
92.78193357055451
 20
-151.8604980089099
 30
0.0
 10
92.78193357055451
 20
-151.8604980089099
 30
0.0
 10
92.78193357055451
 20
-151.7147704698838
 30
0.0
 10
92.78193357055451
 20
-151.7147704698838
 30
0.0
 10
92.78193357055451
 20
-151.7147704698838
 30
0.0
 10
92.69821775026295
 20
-151.7147704698838
 30
0.0
 10
92.69821775026295
 20
-151.7147704698838
 30
0.0
 10
92.63930661746519
 20
-151.7147704698838
 30
0.0
 10
92.45637204719841
 20
-151.7189045844661
 30
0.0
 10
92.36576603593634
 20
-151.7251057563395
 30
0.0
 10
92.36576603593634
 20
-151.7251057563395
 30
0.0
 10
92.36576603593634
 20
-151.5476833388492
 30
0.0
 10
92.36576603593634
 20
-151.5476833388492
 30
0.0
 10
92.45396048035873
 20
-151.5538845107226
 30
0.0
 10
92.62828231191237
 20
-151.5580186253049
 30
0.0
 10
92.69821775026295
 20
-151.5580186253049
 30
0.0
 10
92.69821775026295
 20
-151.5580186253049
 30
0.0
 10
92.78193357055451
 20
-151.5580186253049
 30
0.0
 10
92.78193357055451
 20
-151.5580186253049
 30
0.0
 10
92.78193357055451
 20
-151.5242566895495
 30
0.0
 10
92.7774549464237
 20
-151.3699164118103
 30
0.0
 10
92.7774549464237
 20
-151.338221533346
 30
0.0
 10
92.7774549464237
 20
-151.338221533346
 30
0.0
 10
92.98760577102394
 20
-151.3551025012237
 30
0.0
 10
92.98760577102394
 20
-151.3551025012237
 30
0.0
 10
93.00586477709577
 20
-151.3571695585149
 30
0.0
 10
93.02825789774988
 20
-151.359236615806
 30
0.0
 10
93.02825789774988
 20
-151.380251698266
 30
0.0
 10
93.02825789774988
 20
-151.4036783475657
 30
0.0
 10
93.00586477709577
 20
-151.4122910862789
 30
0.0
 10
92.97623695592262
 20
-151.4246934300258
 30
0.0
 10
92.97623695592262
 20
-151.4460530220343
 30
0.0
 10
92.97416989863146
 20
-151.5411376574272
 30
0.0
 10
92.97416989863146
 20
-151.5580186253049
 30
0.0
 10
92.97416989863146
 20
-151.5580186253049
 30
0.0
 10
93.03755965556005
 20
-151.5580186253049
 30
0.0
 10
93.03755965556005
 20
-151.5580186253049
 30
0.0
 10
93.10990666075031
 20
-151.5580186253049
 30
0.0
 10
93.26355791939246
 20
-151.5538845107226
 30
0.0
 10
93.37655705130863
 20
-151.5476833388492
 30
0.0
 10
93.37655705130863
 20
-151.5476833388492
 30
0.0
 10
93.37655705130863
 20
-151.7251057563395
 30
0.0
 10
93.37655705130863
 20
-151.7251057563395
 30
0.0
 10
93.27251516765409
 20
-151.7189045844661
 30
0.0
 10
93.10508352707095
 20
-151.7147704698838
 30
0.0
 10
93.03755965556005
 20
-151.7147704698838
 30
0.0
 10
93.03755965556005
 20
-151.7147704698838
 30
0.0
 10
92.96521265036981
 20
-151.7147704698838
 30
0.0
 10
92.96521265036981
 20
-151.7147704698838
 30
0.0
 10
92.96521265036981
 20
-151.7147704698838
 30
0.0
 10
92.96521265036981
 20
-151.8604980089099
 30
0.0
 10
92.96521265036981
 20
-151.8604980089099
 30
0.0
 10
92.96521265036981
 20
-151.8604980089099
 30
0.0
 10
93.0396267128512
 20
-151.8604980089099
 30
0.0
 10
93.0396267128512
 20
-151.8604980089099
 30
0.0
 10
93.20016816246385
 20
-151.8604980089099
 30
0.0
 10
93.27699379178492
 20
-151.8563638943276
 30
0.0
 10
93.34245060600467
 20
-151.8542968370364
 30
0.0
 10
93.33349335774302
 20
-151.9493814724293
 30
0.0
 10
93.33142630045186
 20
-152.027929649493
 30
0.0
 10
93.3290147336122
 20
-152.0658256998308
 30
0.0
 10
93.49403480735565
 20
-151.8542968370364
 30
0.0
 10
93.60703393927186
 20
-151.6069389811955
 30
0.0
 10
93.62529294534368
 20
-151.3444227052194
 30
0.0
 10
93.62529294534368
 20
-151.3444227052194
 30
0.0
 10
93.8557698333069
 20
-151.3950656088526
 30
0.0
 10
93.8557698333069
 20
-151.3950656088526
 30
0.0
 10
93.87161727253904
 20
-151.3995442329834
 30
0.0
 10
93.88746471177119
 20
-151.4057454048569
 30
0.0
 10
93.88746471177119
 20
-151.4226263727346
 30
0.0
 10
93.88746471177119
 20
-151.4395073406123
 30
0.0
 10
93.88298608764037
 20
-151.441918907452
 30
0.0
 10
93.82855357897343
 20
-151.462933989912
 30
0.0
 10
93.81063908245012
 20
-151.5390706001361
 30
0.0
 10
93.78342282811663
 20
-151.6300211209467
 30
0.0
 10
93.73140188628937
 20
-151.7571451443524
 30
0.0
 10
93.73140188628937
 20
-151.7571451443524
 30
0.0
 10
94.09313691224062
 20
-151.7571451443524
 30
0.0
 10
94.09313691224062
 20
-151.7571451443524
 30
0.0
 10
94.13378903896655
 20
-151.7571451443524
 30
0.0
 10
94.27193736792508
 20
-151.7526665202215
 30
0.0
 10
94.32395830975234
 20
-151.7464653483481
 30
0.0
 10
94.32395830975234
 20
-151.7464653483481
 30
0.0
 10
94.42317705972754
 20
-151.8160562771501
 30
0.0
 10
94.42317705972754
 20
-151.8160562771501
 30
0.0
 10
94.41421981146589
 20
-151.8374158691587
 30
0.0
 10
94.40732962049539
 20
-151.8563638943276
 30
0.0
 10
94.39148218126325
 20
-151.8925373969227
 30
0.0
  0
HATCH
  5
C4
330
BA
100
AcDbEntity
  8
レイヤー 1
 62
   250
420
  2299925
440
 33554687
100
AcDbHatch
 10
0.0
 20
0.0
 30
0.0
210
0.0
220
0.0
230
1.0
  2
SOLID
 70
     1
 71
     1
 91
        6
 92
        1
 93
        1
 72
     4
 94
        3
 73
     0
 74
     0
 95
       41
 96
       37
 40
0.0
 40
0.0
 40
0.0
 40
0.0
 40
1.0
 40
1.0
 40
1.0
 40
2.0
 40
2.0
 40
2.0
 40
3.0
 40
3.0
 40
3.0
 40
4.0
 40
4.0
 40
4.0
 40
5.0
 40
5.0
 40
5.0
 40
6.0
 40
6.0
 40
6.0
 40
7.0
 40
7.0
 40
7.0
 40
8.0
 40
8.0
 40
8.0
 40
9.0
 40
9.0
 40
9.0
 40
10.0
 40
10.0
 40
10.0
 40
11.0
 40
11.0
 40
11.0
 40
12.0
 40
12.0
 40
12.0
 40
12.0
 10
94.3012206795497
 20
-153.248526979917
 10
94.04352753725301
 20
-153.1131347273467
 10
93.85370277601575
 20
-152.8168565156152
 10
93.81063908245012
 20
-152.6876654349183
 10
93.68179251130177
 20
-152.9522487681856
 10
93.50747067974813
 20
-153.1300156952244
 10
93.31316729438006
 20
-153.2440483557862
 10
93.31316729438006
 20
-153.2440483557862
 10
93.10301646977981
 20
-153.1065890459247
 10
93.10301646977981
 20
-153.1065890459247
 10
93.1774305322612
 20
-153.0814398488824
 10
93.33349335774302
 20
-153.0197726396964
 10
93.46475149573103
 20
-152.8654323619572
 10
93.59807669101021
 20
-152.7090250269269
 10
93.6931613264031
 20
-152.476136572124
 10
93.6931613264031
 20
-152.2160318629877
 10
93.6931613264031
 20
-152.1144015461728
 10
93.67938094446211
 20
-152.0427435600796
 10
93.66801212936078
 20
-151.9958902614802
 10
93.66801212936078
 20
-151.9958902614802
 10
93.88746471177119
 20
-152.0172498534887
 10
93.88746471177119
 20
-152.0172498534887
 10
93.91020234197384
 20
-152.0193169107799
 10
93.93259546262797
 20
-152.021383968071
 10
93.93259546262797
 20
-152.0427435600796
 10
93.93259546262797
 20
-152.0616915852484
 10
93.92122664752664
 20
-152.069959814413
 10
93.88505314493151
 20
-152.0913194064216
 10
93.87609589666986
 20
-152.2921684732117
 10
93.93707408675879
 20
-152.5353922144703
 10
94.00287541052707
 20
-152.655970556454
 10
94.1000271032111
 20
-152.8316704262018
 10
94.30811087052019
 20
-153.0115044105318
 10
94.45280488090068
 20
-153.068692995587
 10
94.45280488090068
 20
-153.068692995587
 10
94.3012206795497
 20
-153.248526979917
 10
94.3012206795497
 20
-153.248526979917
 97
        0
 97
        1
330
BE
 92
        1
 93
        1
 72
     4
 94
        3
 73
     0
 74
     0
 95
       17
 96
       13
 40
0.0
 40
0.0
 40
0.0
 40
0.0
 40
1.0
 40
1.0
 40
1.0
 40
2.0
 40
2.0
 40
2.0
 40
3.0
 40
3.0
 40
3.0
 40
4.0
 40
4.0
 40
4.0
 40
4.0
 10
93.13677840553525
 20
-152.2901014159205
 10
93.13677840553525
 20
-152.2901014159205
 10
92.96521265036981
 20
-152.2901014159205
 10
92.96521265036981
 20
-152.2901014159205
 10
92.96521265036981
 20
-152.2901014159205
 10
92.96521265036981
 20
-152.4192924966174
 10
92.96521265036981
 20
-152.4192924966174
 10
92.96521265036981
 20
-152.4192924966174
 10
93.13677840553525
 20
-152.4192924966174
 10
93.13677840553525
 20
-152.4192924966174
 10
93.13677840553525
 20
-152.4192924966174
 10
93.13677840553525
 20
-152.2901014159205
 10
93.13677840553525
 20
-152.2901014159205
 97
        0
 97
        1
330
BF
 92
        1
 93
        1
 72
     4
 94
        3
 73
     0
 74
     0
 95
       17
 96
       13
 40
0.0
 40
0.0
 40
0.0
 40
0.0
 40
1.0
 40
1.0
 40
1.0
 40
2.0
 40
2.0
 40
2.0
 40
3.0
 40
3.0
 40
3.0
 40
4.0
 40
4.0
 40
4.0
 40
4.0
 10
93.13677840553525
 20
-152.0172498534887
 10
93.13677840553525
 20
-152.0172498534887
 10
92.96521265036981
 20
-152.0172498534887
 10
92.96521265036981
 20
-152.0172498534887
 10
92.96521265036981
 20
-152.0172498534887
 10
92.96521265036981
 20
-152.1460964246371
 10
92.96521265036981
 20
-152.1460964246371
 10
92.96521265036981
 20
-152.1460964246371
 10
93.13677840553525
 20
-152.1460964246371
 10
93.13677840553525
 20
-152.1460964246371
 10
93.13677840553525
 20
-152.1460964246371
 10
93.13677840553525
 20
-152.0172498534887
 10
93.13677840553525
 20
-152.0172498534887
 97
        0
 97
        1
330
C0
 92
        1
 93
        1
 72
     4
 94
        3
 73
     0
 74
     0
 95
       17
 96
       13
 40
0.0
 40
0.0
 40
0.0
 40
0.0
 40
1.0
 40
1.0
 40
1.0
 40
2.0
 40
2.0
 40
2.0
 40
3.0
 40
3.0
 40
3.0
 40
4.0
 40
4.0
 40
4.0
 40
4.0
 10
92.78193357055451
 20
-152.2901014159205
 10
92.78193357055451
 20
-152.2901014159205
 10
92.61243487268023
 20
-152.2901014159205
 10
92.61243487268023
 20
-152.2901014159205
 10
92.61243487268023
 20
-152.2901014159205
 10
92.61243487268023
 20
-152.4192924966174
 10
92.61243487268023
 20
-152.4192924966174
 10
92.61243487268023
 20
-152.4192924966174
 10
92.78193357055451
 20
-152.4192924966174
 10
92.78193357055451
 20
-152.4192924966174
 10
92.78193357055451
 20
-152.4192924966174
 10
92.78193357055451
 20
-152.2901014159205
 10
92.78193357055451
 20
-152.2901014159205
 97
        0
 97
        1
330
C1
 92
        1
 93
        1
 72
     4
 94
        3
 73
     0
 74
     0
 95
       17
 96
       13
 40
0.0
 40
0.0
 40
0.0
 40
0.0
 40
1.0
 40
1.0
 40
1.0
 40
2.0
 40
2.0
 40
2.0
 40
3.0
 40
3.0
 40
3.0
 40
4.0
 40
4.0
 40
4.0
 40
4.0
 10
92.78193357055451
 20
-152.0172498534887
 10
92.78193357055451
 20
-152.0172498534887
 10
92.61243487268023
 20
-152.0172498534887
 10
92.61243487268023
 20
-152.0172498534887
 10
92.61243487268023
 20
-152.0172498534887
 10
92.61243487268023
 20
-152.1460964246371
 10
92.61243487268023
 20
-152.1460964246371
 10
92.61243487268023
 20
-152.1460964246371
 10
92.78193357055451
 20
-152.1460964246371
 10
92.78193357055451
 20
-152.1460964246371
 10
92.78193357055451
 20
-152.1460964246371
 10
92.78193357055451
 20
-152.0172498534887
 10
92.78193357055451
 20
-152.0172498534887
 97
        0
 97
        1
330
C2
 92
        1
 93
        1
 72
     4
 94
        3
 73
     0
 74
     0
 95
      197
 96
      193
 40
0.0
 40
0.0
 40
0.0
 40
0.0
 40
1.0
 40
1.0
 40
1.0
 40
2.0
 40
2.0
 40
2.0
 40
3.0
 40
3.0
 40
3.0
 40
4.0
 40
4.0
 40
4.0
 40
5.0
 40
5.0
 40
5.0
 40
6.0
 40
6.0
 40
6.0
 40
7.0
 40
7.0
 40
7.0
 40
8.0
 40
8.0
 40
8.0
 40
9.0
 40
9.0
 40
9.0
 40
10.0
 40
10.0
 40
10.0
 40
11.0
 40
11.0
 40
11.0
 40
12.0
 40
12.0
 40
12.0
 40
13.0
 40
13.0
 40
13.0
 40
14.0
 40
14.0
 40
14.0
 40
15.0
 40
15.0
 40
15.0
 40
16.0
 40
16.0
 40
16.0
 40
17.0
 40
17.0
 40
17.0
 40
18.0
 40
18.0
 40
18.0
 40
19.0
 40
19.0
 40
19.0
 40
20.0
 40
20.0
 40
20.0
 40
21.0
 40
21.0
 40
21.0
 40
22.0
 40
22.0
 40
22.0
 40
23.0
 40
23.0
 40
23.0
 40
24.0
 40
24.0
 40
24.0
 40
25.0
 40
25.0
 40
25.0
 40
26.0
 40
26.0
 40
26.0
 40
27.0
 40
27.0
 40
27.0
 40
28.0
 40
28.0
 40
28.0
 40
29.0
 40
29.0
 40
29.0
 40
30.0
 40
30.0
 40
30.0
 40
31.0
 40
31.0
 40
31.0
 40
32.0
 40
32.0
 40
32.0
 40
33.0
 40
33.0
 40
33.0
 40
34.0
 40
34.0
 40
34.0
 40
35.0
 40
35.0
 40
35.0
 40
36.0
 40
36.0
 40
36.0
 40
37.0
 40
37.0
 40
37.0
 40
38.0
 40
38.0
 40
38.0
 40
39.0
 40
39.0
 40
39.0
 40
40.0
 40
40.0
 40
40.0
 40
41.0
 40
41.0
 40
41.0
 40
42.0
 40
42.0
 40
42.0
 40
43.0
 40
43.0
 40
43.0
 40
44.0
 40
44.0
 40
44.0
 40
45.0
 40
45.0
 40
45.0
 40
46.0
 40
46.0
 40
46.0
 40
47.0
 40
47.0
 40
47.0
 40
48.0
 40
48.0
 40
48.0
 40
49.0
 40
49.0
 40
49.0
 40
50.0
 40
50.0
 40
50.0
 40
51.0
 40
51.0
 40
51.0
 40
52.0
 40
52.0
 40
52.0
 40
53.0
 40
53.0
 40
53.0
 40
54.0
 40
54.0
 40
54.0
 40
55.0
 40
55.0
 40
55.0
 40
56.0
 40
56.0
 40
56.0
 40
57.0
 40
57.0
 40
57.0
 40
58.0
 40
58.0
 40
58.0
 40
59.0
 40
59.0
 40
59.0
 40
60.0
 40
60.0
 40
60.0
 40
61.0
 40
61.0
 40
61.0
 40
62.0
 40
62.0
 40
62.0
 40
63.0
 40
63.0
 40
63.0
 40
64.0
 40
64.0
 40
64.0
 40
64.0
 10
94.39148218126325
 20
-151.8925373969227
 10
94.38045787571045
 20
-151.9218207085473
 10
94.35530867866813
 20
-151.9686740071467
 10
94.34428437311533
 20
-151.9958902614802
 10
94.34428437311533
 20
-151.9958902614802
 10
94.27848304934704
 20
-152.1485079914768
 10
94.27848304934704
 20
-152.1485079914768
 10
94.26745874379426
 20
-152.1736571885191
 10
94.21543780196698
 20
-152.2859673013382
 10
94.20165742002598
 20
-152.3090494410894
 10
94.19959036273482
 20
-152.3155951225114
 10
94.19511173860399
 20
-152.323863351676
 10
94.19270017176433
 20
-152.3304090330979
 10
94.19270017176433
 20
-152.3304090330979
 10
93.96876896522309
 20
-152.2773545626251
 10
93.96876896522309
 20
-152.2773545626251
 10
94.05248478551467
 20
-152.1674560166456
 10
94.11794159973441
 20
-152.0320637640753
 10
94.15204804503838
 20
-151.9218207085473
 10
94.15204804503838
 20
-151.9218207085473
 10
93.6545762569683
 20
-151.9218207085473
 10
93.6545762569683
 20
-151.9218207085473
 10
93.56879337938558
 20
-152.0868407822908
 10
93.49644637419535
 20
-152.1653889593545
 10
93.46027287160021
 20
-152.2053520669834
 10
93.46027287160021
 20
-152.2053520669834
 10
93.3290147336122
 20
-152.1398952527636
 10
93.3290147336122
 20
-152.1398952527636
 10
93.3290147336122
 20
-152.1398952527636
 10
93.3290147336122
 20
-152.3111164983805
 10
93.3290147336122
 20
-152.3111164983805
 10
93.3290147336122
 20
-152.4192924966174
 10
93.33142630045186
 20
-152.4678683429594
 10
93.34245060600467
 20
-152.5736327743566
 10
93.2656249766836
 20
-152.5715657170654
 10
93.24323185602947
 20
-152.5715657170654
 10
93.02377927361906
 20
-152.5715657170654
 10
93.02377927361906
 20
-152.5715657170654
 10
92.96521265036981
 20
-152.5715657170654
 10
92.96521265036981
 20
-152.5715657170654
 10
92.96521265036981
 20
-152.5715657170654
 10
92.96521265036981
 20
-152.7069579696357
 10
92.96521265036981
 20
-152.7069579696357
 10
92.96521265036981
 20
-152.7069579696357
 10
93.04203827969088
 20
-152.7069579696357
 10
93.04203827969088
 20
-152.7069579696357
 10
93.11197371804146
 20
-152.7069579696357
 10
93.26803654352326
 20
-152.7024793455049
 10
93.38103567543946
 20
-152.6942111163403
 10
93.38103567543946
 20
-152.6942111163403
 10
93.38103567543946
 20
-152.8719780433792
 10
93.38103567543946
 20
-152.8719780433792
 10
93.27699379178492
 20
-152.8654323619572
 10
93.10749509391063
 20
-152.8612982473749
 10
93.04203827969088
 20
-152.8612982473749
 10
93.04203827969088
 20
-152.8612982473749
 10
92.96521265036981
 20
-152.8612982473749
 10
92.96521265036981
 20
-152.8612982473749
 10
92.96727970766097
 20
-152.9501817108944
 10
92.9717583317918
 20
-153.1892713375707
 10
92.97416989863146
 20
-153.2633408905036
 10
92.97416989863146
 20
-153.2633408905036
 10
92.75919594035187
 20
-153.2633408905036
 10
92.75919594035187
 20
-153.2633408905036
 10
92.77297632229288
 20
-153.0494004608696
 10
92.77297632229288
 20
-153.0197726396964
 10
92.7774549464237
 20
-152.8612982473749
 10
92.7774549464237
 20
-152.8612982473749
 10
92.70269637439378
 20
-152.8612982473749
 10
92.70269637439378
 20
-152.8612982473749
 10
92.64171818430485
 20
-152.8612982473749
 10
92.47910967740105
 20
-152.8654323619572
 10
92.36128741180552
 20
-152.8719780433792
 10
92.36128741180552
 20
-152.8719780433792
 10
92.36128741180552
 20
-152.6942111163403
 10
92.36128741180552
 20
-152.6942111163403
 10
92.47428654372169
 20
-152.7024793455049
 10
92.62828231191237
 20
-152.7069579696357
 10
92.70269637439378
 20
-152.7069579696357
 10
92.70269637439378
 20
-152.7069579696357
 10
92.78193357055451
 20
-152.7069579696357
 10
92.78193357055451
 20
-152.7069579696357
 10
92.78193357055451
 20
-152.7069579696357
 10
92.78193357055451
 20
-152.5715657170654
 10
92.78193357055451
 20
-152.5715657170654
 10
92.78193357055451
 20
-152.5715657170654
 10
92.73439125285808
 20
-152.5715657170654
 10
92.73439125285808
 20
-152.5715657170654
 10
92.65308699940616
 20
-152.5715657170654
 10
92.44741479893676
 20
-152.5736327743566
 10
92.41124129634163
 20
-152.5736327743566
 10
92.41778697776361
 20
-152.5016302787149
 10
92.42708873557379
 20
-152.4213595539085
 10
92.42708873557379
 20
-152.3007812119248
 10
92.42708873557379
 20
-152.3007812119248
 10
92.42708873557379
 20
-152.1271483994682
 10
92.42708873557379
 20
-152.1271483994682
 10
92.42708873557379
 20
-152.0551459038265
 10
92.41778697776361
 20
-151.9345675618427
 10
92.41124129634163
 20
-151.8542968370364
 10
92.4946126070847
 20
-151.8584309516187
 10
92.53560924335916
 20
-151.8604980089099
 10
92.67100149592947
 20
-151.8604980089099
 10
92.67100149592947
 20
-151.8604980089099
 10
92.78193357055451
 20
-151.8604980089099
 10
92.78193357055451
 20
-151.8604980089099
 10
92.78193357055451
 20
-151.8604980089099
 10
92.78193357055451
 20
-151.7147704698838
 10
92.78193357055451
 20
-151.7147704698838
 10
92.78193357055451
 20
-151.7147704698838
 10
92.69821775026295
 20
-151.7147704698838
 10
92.69821775026295
 20
-151.7147704698838
 10
92.63930661746519
 20
-151.7147704698838
 10
92.45637204719841
 20
-151.7189045844661
 10
92.36576603593634
 20
-151.7251057563395
 10
92.36576603593634
 20
-151.7251057563395
 10
92.36576603593634
 20
-151.5476833388492
 10
92.36576603593634
 20
-151.5476833388492
 10
92.45396048035873
 20
-151.5538845107226
 10
92.62828231191237
 20
-151.5580186253049
 10
92.69821775026295
 20
-151.5580186253049
 10
92.69821775026295
 20
-151.5580186253049
 10
92.78193357055451
 20
-151.5580186253049
 10
92.78193357055451
 20
-151.5580186253049
 10
92.78193357055451
 20
-151.5242566895495
 10
92.7774549464237
 20
-151.3699164118103
 10
92.7774549464237
 20
-151.338221533346
 10
92.7774549464237
 20
-151.338221533346
 10
92.98760577102394
 20
-151.3551025012237
 10
92.98760577102394
 20
-151.3551025012237
 10
93.00586477709577
 20
-151.3571695585149
 10
93.02825789774988
 20
-151.359236615806
 10
93.02825789774988
 20
-151.380251698266
 10
93.02825789774988
 20
-151.4036783475657
 10
93.00586477709577
 20
-151.4122910862789
 10
92.97623695592262
 20
-151.4246934300258
 10
92.97623695592262
 20
-151.4460530220343
 10
92.97416989863146
 20
-151.5411376574272
 10
92.97416989863146
 20
-151.5580186253049
 10
92.97416989863146
 20
-151.5580186253049
 10
93.03755965556005
 20
-151.5580186253049
 10
93.03755965556005
 20
-151.5580186253049
 10
93.10990666075031
 20
-151.5580186253049
 10
93.26355791939246
 20
-151.5538845107226
 10
93.37655705130863
 20
-151.5476833388492
 10
93.37655705130863
 20
-151.5476833388492
 10
93.37655705130863
 20
-151.7251057563395
 10
93.37655705130863
 20
-151.7251057563395
 10
93.27251516765409
 20
-151.7189045844661
 10
93.10508352707095
 20
-151.7147704698838
 10
93.03755965556005
 20
-151.7147704698838
 10
93.03755965556005
 20
-151.7147704698838
 10
92.96521265036981
 20
-151.7147704698838
 10
92.96521265036981
 20
-151.7147704698838
 10
92.96521265036981
 20
-151.7147704698838
 10
92.96521265036981
 20
-151.8604980089099
 10
92.96521265036981
 20
-151.8604980089099
 10
92.96521265036981
 20
-151.8604980089099
 10
93.0396267128512
 20
-151.8604980089099
 10
93.0396267128512
 20
-151.8604980089099
 10
93.20016816246385
 20
-151.8604980089099
 10
93.27699379178492
 20
-151.8563638943276
 10
93.34245060600467
 20
-151.8542968370364
 10
93.33349335774302
 20
-151.9493814724293
 10
93.33142630045186
 20
-152.027929649493
 10
93.3290147336122
 20
-152.0658256998308
 10
93.49403480735565
 20
-151.8542968370364
 10
93.60703393927186
 20
-151.6069389811955
 10
93.62529294534368
 20
-151.3444227052194
 10
93.62529294534368
 20
-151.3444227052194
 10
93.8557698333069
 20
-151.3950656088526
 10
93.8557698333069
 20
-151.3950656088526
 10
93.87161727253904
 20
-151.3995442329834
 10
93.88746471177119
 20
-151.4057454048569
 10
93.88746471177119
 20
-151.4226263727346
 10
93.88746471177119
 20
-151.4395073406123
 10
93.88298608764037
 20
-151.441918907452
 10
93.82855357897343
 20
-151.462933989912
 10
93.81063908245012
 20
-151.5390706001361
 10
93.78342282811663
 20
-151.6300211209467
 10
93.73140188628937
 20
-151.7571451443524
 10
93.73140188628937
 20
-151.7571451443524
 10
94.09313691224062
 20
-151.7571451443524
 10
94.09313691224062
 20
-151.7571451443524
 10
94.13378903896655
 20
-151.7571451443524
 10
94.27193736792508
 20
-151.7526665202215
 10
94.32395830975234
 20
-151.7464653483481
 10
94.32395830975234
 20
-151.7464653483481
 10
94.42317705972754
 20
-151.8160562771501
 10
94.42317705972754
 20
-151.8160562771501
 10
94.41421981146589
 20
-151.8374158691587
 10
94.40732962049539
 20
-151.8563638943276
 10
94.39148218126325
 20
-151.8925373969227
 97
        0
 97
        1
330
C3
 75
     2
 76
     1
 98
        1
 10
0.0
 20
0.0
450
        0
451
        0
460
0.0
461
0.0
452
        0
462
0.0
453
        0
470

  0
SPLINE
  5
C5
330
BA
100
AcDbEntity
  8
レイヤー 1
100
AcDbSpline
210
0.0
220
0.0
230
1.0
 70
     9
 71
     3
 72
    74
 73
    70
 74
     0
 42
0.0000000001
 43
0.0000000001
 40
0.0
 40
0.0
 40
0.0
 40
0.0
 40
1.0
 40
1.0
 40
1.0
 40
2.0
 40
2.0
 40
2.0
 40
3.0
 40
3.0
 40
3.0
 40
4.0
 40
4.0
 40
4.0
 40
5.0
 40
5.0
 40
5.0
 40
6.0
 40
6.0
 40
6.0
 40
7.0
 40
7.0
 40
7.0
 40
8.0
 40
8.0
 40
8.0
 40
9.0
 40
9.0
 40
9.0
 40
10.0
 40
10.0
 40
10.0
 40
11.0
 40
11.0
 40
11.0
 40
12.0
 40
12.0
 40
12.0
 40
13.0
 40
13.0
 40
13.0
 40
14.0
 40
14.0
 40
14.0
 40
15.0
 40
15.0
 40
15.0
 40
16.0
 40
16.0
 40
16.0
 40
17.0
 40
17.0
 40
17.0
 40
18.0
 40
18.0
 40
18.0
 40
19.0
 40
19.0
 40
19.0
 40
20.0
 40
20.0
 40
20.0
 40
21.0
 40
21.0
 40
21.0
 40
22.0
 40
22.0
 40
22.0
 40
23.0
 40
23.0
 40
23.0
 40
23.0
 10
96.4867892553922
 20
-151.7950411946901
 30
0.0
 10
96.4867892553922
 20
-151.7950411946901
 30
0.0
 10
96.31487899067822
 20
-151.7950411946901
 30
0.0
 10
96.31487899067822
 20
-151.7950411946901
 30
0.0
 10
96.31487899067822
 20
-151.7950411946901
 30
0.0
 10
96.31487899067822
 20
-151.9094183648004
 30
0.0
 10
96.31487899067822
 20
-151.9094183648004
 30
0.0
 10
96.31487899067822
 20
-151.9493814724293
 30
0.0
 10
96.32176918164873
 20
-152.0234510253622
 30
0.0
 10
96.32624780577955
 20
-152.048944731953
 30
0.0
 10
96.32624780577955
 20
-152.048944731953
 30
0.0
 10
96.10007728717292
 20
-152.048944731953
 30
0.0
 10
96.10007728717292
 20
-152.048944731953
 30
0.0
 10
96.11144610227423
 20
-151.9834879177333
 30
0.0
 10
96.11368541433964
 20
-151.924232275387
 30
0.0
 10
96.11368541433964
 20
-151.9218207085473
 30
0.0
 10
96.11368541433964
 20
-151.9218207085473
 30
0.0
 10
96.11368541433964
 20
-151.7991753092724
 30
0.0
 10
96.11368541433964
 20
-151.7991753092724
 30
0.0
 10
96.11368541433964
 20
-151.7991753092724
 30
0.0
 10
95.9214490862627
 20
-151.7991753092724
 30
0.0
 10
95.9214490862627
 20
-151.7991753092724
 30
0.0
 10
95.90112302289972
 20
-151.8584309516187
 30
0.0
 10
95.85151364791213
 20
-152.0045030001933
 30
0.0
 10
95.72938501296002
 20
-152.0868407822908
 30
0.0
 10
95.72938501296002
 20
-152.0868407822908
 30
0.0
 10
95.56212562715113
 20
-151.9810763508936
 30
0.0
 10
95.56212562715113
 20
-151.9810763508936
 30
0.0
 10
95.64119056853762
 20
-151.9345675618427
 30
0.0
 10
95.76555851555514
 20
-151.8604980089099
 30
0.0
 10
95.76555851555514
 20
-151.5390706001361
 30
0.0
 10
95.76555851555514
 20
-151.4839490723721
 30
0.0
 10
95.76090763665005
 20
-151.4395073406123
 30
0.0
 10
95.75866832458464
 20
-151.4016112902746
 30
0.0
 10
95.8401448328108
 20
-151.4098795194392
 30
0.0
 10
95.91920977419729
 20
-151.4164252008612
 30
0.0
 10
95.98707815525671
 20
-151.4164252008612
 30
0.0
 10
96.17707517126824
 20
-151.4164252008612
 30
0.0
 10
96.3894653079339
 20
-151.3571695585149
 30
0.0
 10
96.45509437692791
 20
-151.3275417373417
 30
0.0
 10
96.45509437692791
 20
-151.3275417373417
 30
0.0
 10
96.59065888427248
 20
-151.462933989912
 30
0.0
 10
96.59065888427248
 20
-151.462933989912
 30
0.0
 10
96.59530976317757
 20
-151.4670681044943
 30
0.0
 10
96.59754907524298
 20
-151.4756808432075
 30
0.0
 10
96.59754907524298
 20
-151.4818820150809
 30
0.0
 10
96.59754907524298
 20
-151.5032416070894
 30
0.0
 10
96.58170163601084
 20
-151.5094427789629
 30
0.0
 10
96.56361488471326
 20
-151.5094427789629
 30
0.0
 10
96.54104950928488
 20
-151.5094427789629
 30
0.0
 10
96.52520207005274
 20
-151.5011745497983
 30
0.0
 10
96.50487600668975
 20
-151.490494753794
 30
0.0
 10
96.31935761480905
 20
-151.5476833388492
 30
0.0
 10
96.08646916000616
 20
-151.5728325358915
 30
0.0
 10
95.94418671646534
 20
-151.5748995931826
 30
0.0
 10
95.94418671646534
 20
-151.5748995931826
 30
0.0
 10
95.93953583756025
 20
-151.6575818848286
 30
0.0
 10
95.93953583756025
 20
-151.6575818848286
 30
0.0
 10
95.93953583756025
 20
-151.6575818848286
 30
0.0
 10
96.23116317038665
 20
-151.6575818848286
 30
0.0
 10
96.23116317038665
 20
-151.6575818848286
 30
0.0
 10
96.29231361524984
 20
-151.6575818848286
 30
0.0
 10
96.57257213297491
 20
-151.6386338596598
 30
0.0
 10
96.62011445067136
 20
-151.6320881782378
 30
0.0
 10
96.62011445067136
 20
-151.6320881782378
 30
0.0
 10
96.62011445067136
 20
-151.8012423665636
 30
0.0
 10
96.62011445067136
 20
-151.8012423665636
 30
0.0
 10
96.58394094807626
 20
-151.7971082519813
 30
0.0
 10
96.57033282090949
 20
-151.7950411946901
 30
0.0
 10
96.4867892553922
 20
-151.7950411946901
 30
0.0
  0
SPLINE
  5
C6
330
BA
100
AcDbEntity
  8
レイヤー 1
100
AcDbSpline
210
0.0
220
0.0
230
1.0
 70
    11
 71
     3
 72
    17
 73
    13
 74
     0
 42
0.0000000001
 43
0.0000000001
 40
0.0
 40
0.0
 40
0.0
 40
0.0
 40
1.0
 40
1.0
 40
1.0
 40
2.0
 40
2.0
 40
2.0
 40
3.0
 40
3.0
 40
3.0
 40
4.0
 40
4.0
 40
4.0
 40
4.0
 10
96.14761960486935
 20
-152.7386528481
 30
0.0
 10
96.14761960486935
 20
-152.7386528481
 30
0.0
 10
95.17317434686644
 20
-152.7386528481
 30
0.0
 10
95.17317434686644
 20
-152.7386528481
 30
0.0
 10
95.17317434686644
 20
-152.7386528481
 30
0.0
 10
95.17317434686644
 20
-152.8464843367884
 30
0.0
 10
95.17317434686644
 20
-152.8464843367884
 30
0.0
 10
95.17317434686644
 20
-152.8464843367884
 30
0.0
 10
96.14761960486935
 20
-152.8464843367884
 30
0.0
 10
96.14761960486935
 20
-152.8464843367884
 30
0.0
 10
96.14761960486935
 20
-152.8464843367884
 30
0.0
 10
96.14761960486935
 20
-152.7386528481
 30
0.0
 10
96.14761960486935
 20
-152.7386528481
 30
0.0
  0
SPLINE
  5
C7
330
BA
100
AcDbEntity
  8
レイヤー 1
100
AcDbSpline
210
0.0
220
0.0
230
1.0
 70
    11
 71
     3
 72
    17
 73
    13
 74
     0
 42
0.0000000001
 43
0.0000000001
 40
0.0
 40
0.0
 40
0.0
 40
0.0
 40
1.0
 40
1.0
 40
1.0
 40
2.0
 40
2.0
 40
2.0
 40
3.0
 40
3.0
 40
3.0
 40
4.0
 40
4.0
 40
4.0
 40
4.0
 10
96.14761960486935
 20
-152.4930175400017
 30
0.0
 10
96.14761960486935
 20
-152.4930175400017
 30
0.0
 10
95.17317434686644
 20
-152.4930175400017
 30
0.0
 10
95.17317434686644
 20
-152.4930175400017
 30
0.0
 10
95.17317434686644
 20
-152.4930175400017
 30
0.0
 10
95.17317434686644
 20
-152.6032605955297
 30
0.0
 10
95.17317434686644
 20
-152.6032605955297
 30
0.0
 10
95.17317434686644
 20
-152.6032605955297
 30
0.0
 10
96.14761960486935
 20
-152.6032605955297
 30
0.0
 10
96.14761960486935
 20
-152.6032605955297
 30
0.0
 10
96.14761960486935
 20
-152.6032605955297
 30
0.0
 10
96.14761960486935
 20
-152.4930175400017
 30
0.0
 10
96.14761960486935
 20
-152.4930175400017
 30
0.0
  0
SPLINE
  5
C8
330
BA
100
AcDbEntity
  8
レイヤー 1
100
AcDbSpline
210
0.0
220
0.0
230
1.0
 70
    11
 71
     3
 72
    17
 73
    13
 74
     0
 42
0.0000000001
 43
0.0000000001
 40
0.0
 40
0.0
 40
0.0
 40
0.0
 40
1.0
 40
1.0
 40
1.0
 40
2.0
 40
2.0
 40
2.0
 40
3.0
 40
3.0
 40
3.0
 40
4.0
 40
4.0
 40
4.0
 40
4.0
 10
96.14761960486935
 20
-152.2477267414519
 30
0.0
 10
96.14761960486935
 20
-152.2477267414519
 30
0.0
 10
95.17317434686644
 20
-152.2477267414519
 30
0.0
 10
95.17317434686644
 20
-152.2477267414519
 30
0.0
 10
95.17317434686644
 20
-152.2477267414519
 30
0.0
 10
95.17317434686644
 20
-152.3600368542711
 30
0.0
 10
95.17317434686644
 20
-152.3600368542711
 30
0.0
 10
95.17317434686644
 20
-152.3600368542711
 30
0.0
 10
96.14761960486935
 20
-152.3600368542711
 30
0.0
 10
96.14761960486935
 20
-152.3600368542711
 30
0.0
 10
96.14761960486935
 20
-152.3600368542711
 30
0.0
 10
96.14761960486935
 20
-152.2477267414519
 30
0.0
 10
96.14761960486935
 20
-152.2477267414519
 30
0.0
  0
SPLINE
  5
C9
330
BA
100
AcDbEntity
  8
レイヤー 1
100
AcDbSpline
210
0.0
220
0.0
230
1.0
 70
     9
 71
     3
 72
    74
 73
    70
 74
     0
 42
0.0000000001
 43
0.0000000001
 40
0.0
 40
0.0
 40
0.0
 40
0.0
 40
1.0
 40
1.0
 40
1.0
 40
2.0
 40
2.0
 40
2.0
 40
3.0
 40
3.0
 40
3.0
 40
4.0
 40
4.0
 40
4.0
 40
5.0
 40
5.0
 40
5.0
 40
6.0
 40
6.0
 40
6.0
 40
7.0
 40
7.0
 40
7.0
 40
8.0
 40
8.0
 40
8.0
 40
9.0
 40
9.0
 40
9.0
 40
10.0
 40
10.0
 40
10.0
 40
11.0
 40
11.0
 40
11.0
 40
12.0
 40
12.0
 40
12.0
 40
13.0
 40
13.0
 40
13.0
 40
14.0
 40
14.0
 40
14.0
 40
15.0
 40
15.0
 40
15.0
 40
16.0
 40
16.0
 40
16.0
 40
17.0
 40
17.0
 40
17.0
 40
18.0
 40
18.0
 40
18.0
 40
19.0
 40
19.0
 40
19.0
 40
20.0
 40
20.0
 40
20.0
 40
21.0
 40
21.0
 40
21.0
 40
22.0
 40
22.0
 40
22.0
 40
23.0
 40
23.0
 40
23.0
 40
23.0
 10
96.47318112822546
 20
-153.2822889156725
 30
0.0
 10
96.24477129755341
 20
-153.2716091196682
 30
0.0
 10
96.02996959404807
 20
-153.1847927134399
 30
0.0
 10
95.84238414487622
 20
-153.0642143714562
 30
0.0
 10
95.84238414487622
 20
-153.0642143714562
 30
0.0
 10
95.94642602853076
 20
-152.9777424747764
 30
0.0
 10
95.94642602853076
 20
-152.9777424747764
 30
0.0
 10
95.94642602853076
 20
-152.9777424747764
 30
0.0
 10
95.35645342668173
 20
-152.9777424747764
 30
0.0
 10
95.35645342668173
 20
-152.9777424747764
 30
0.0
 10
95.35645342668173
 20
-152.9777424747764
 30
0.0
 10
95.44223630426444
 20
-153.041132231705
 30
0.0
 10
95.44223630426444
 20
-153.041132231705
 30
0.0
 10
95.44912649523494
 20
-153.0452663462873
 30
0.0
 10
95.46015080078774
 20
-153.0559461422916
 30
0.0
 10
95.46015080078774
 20
-153.0707600528781
 30
0.0
 10
95.46015080078774
 20
-153.1110676700556
 30
0.0
 10
95.38125811417552
 20
-153.1045219886336
 30
0.0
 10
95.36541067494338
 20
-153.1024549313424
 30
0.0
 10
95.11908634774801
 20
-153.241981298495
 30
0.0
 10
94.96509057955734
 20
-153.2736761769593
 30
0.0
 10
94.85450301448082
 20
-153.2905571448371
 30
0.0
 10
94.85450301448082
 20
-153.2905571448371
 30
0.0
 10
94.7163546855223
 20
-153.1131347273467
 30
0.0
 10
94.7163546855223
 20
-153.1131347273467
 30
0.0
 10
94.98093801878949
 20
-153.0814398488824
 30
0.0
 10
95.08945852657486
 20
-153.034586550283
 30
0.0
 10
95.18454316196775
 20
-152.9818765893587
 30
0.0
 10
95.105305965807
 20
-152.9839436466498
 30
0.0
 10
94.98334958562917
 20
-152.986010703941
 30
0.0
 10
94.9492431403252
 20
-152.9880777612321
 30
0.0
 10
94.96509057955734
 20
-152.8991942977127
 30
0.0
 10
94.96750214639702
 20
-152.7703477265643
 30
0.0
 10
94.96750214639702
 20
-152.6962781736315
 30
0.0
 10
94.96750214639702
 20
-152.6962781736315
 30
0.0
 10
94.96750214639702
 20
-152.3958658473177
 30
0.0
 10
94.96750214639702
 20
-152.3958658473177
 30
0.0
 10
94.96750214639702
 20
-152.296302587794
 30
0.0
 10
94.96061195542651
 20
-152.1970838378187
 30
0.0
 10
94.9492431403252
 20
-152.0995876355862
 30
0.0
 10
95.05776364811056
 20
-152.1061333170082
 30
0.0
 10
95.30443248485445
 20
-152.1123344888816
 30
0.0
 10
95.41949867406179
 20
-152.1123344888816
 30
0.0
 10
95.41949867406179
 20
-152.1123344888816
 30
0.0
 10
95.8718397112751
 20
-152.1123344888816
 30
0.0
 10
95.8718397112751
 20
-152.1123344888816
 30
0.0
 10
95.99844697035804
 20
-152.1123344888816
 30
0.0
 10
96.04357772121481
 20
-152.1123344888816
 30
0.0
 10
96.1317721656372
 20
-152.1082003742993
 30
0.0
 10
96.29007430318443
 20
-152.1016546928773
 30
0.0
 10
96.30816105448198
 20
-152.1016546928773
 30
0.0
 10
96.35794268424385
 20
-152.0995876355862
 30
0.0
 10
96.34881318120795
 20
-152.180202869941
 30
0.0
 10
96.34433455707712
 20
-152.3386772622625
 30
0.0
 10
96.34433455707712
 20
-152.4213595539085
 30
0.0
 10
96.34433455707712
 20
-152.4213595539085
 30
0.0
 10
96.34433455707712
 20
-152.7069579696357
 30
0.0
 10
96.34433455707712
 20
-152.7069579696357
 30
0.0
 10
96.34433455707712
 20
-152.7786159557289
 30
0.0
 10
96.34657386914254
 20
-152.909874093717
 30
0.0
 10
96.35794268424385
 20
-152.9880777612321
 30
0.0
 10
96.28094480014851
 20
-152.9839436466498
 30
0.0
 10
96.14985891693477
 20
-152.9818765893587
 30
0.0
 10
96.06614309664319
 20
-152.9798095320675
 30
0.0
 10
96.18379310746448
 20
-153.0473334035784
 30
0.0
 10
96.34657386914254
 20
-153.0983208167601
 30
0.0
 10
96.57257213297491
 20
-153.1024549313424
 30
0.0
 10
96.57257213297491
 20
-153.1024549313424
 30
0.0
 10
96.47318112822546
 20
-153.2822889156725
 30
0.0
 10
96.47318112822546
 20
-153.2822889156725
 30
0.0
  0
SPLINE
  5
CA
330
BA
100
AcDbEntity
  8
レイヤー 1
100
AcDbSpline
210
0.0
220
0.0
230
1.0
 70
     9
 71
     3
 72
    71
 73
    67
 74
     0
 42
0.0000000001
 43
0.0000000001
 40
0.0
 40
0.0
 40
0.0
 40
0.0
 40
1.0
 40
1.0
 40
1.0
 40
2.0
 40
2.0
 40
2.0
 40
3.0
 40
3.0
 40
3.0
 40
4.0
 40
4.0
 40
4.0
 40
5.0
 40
5.0
 40
5.0
 40
6.0
 40
6.0
 40
6.0
 40
7.0
 40
7.0
 40
7.0
 40
8.0
 40
8.0
 40
8.0
 40
9.0
 40
9.0
 40
9.0
 40
10.0
 40
10.0
 40
10.0
 40
11.0
 40
11.0
 40
11.0
 40
12.0
 40
12.0
 40
12.0
 40
13.0
 40
13.0
 40
13.0
 40
14.0
 40
14.0
 40
14.0
 40
15.0
 40
15.0
 40
15.0
 40
16.0
 40
16.0
 40
16.0
 40
17.0
 40
17.0
 40
17.0
 40
18.0
 40
18.0
 40
18.0
 40
19.0
 40
19.0
 40
19.0
 40
20.0
 40
20.0
 40
20.0
 40
21.0
 40
21.0
 40
21.0
 40
22.0
 40
22.0
 40
22.0
 40
22.0
 10
95.57780081160903
 20
-151.5156439508363
 30
0.0
 10
95.56212562715113
 20
-151.5156439508363
 30
0.0
 10
95.54851749998439
 20
-151.511509836254
 30
0.0
 10
95.52130124565094
 20
-151.5032416070894
 30
0.0
 10
95.36988929907421
 20
-151.5497503961403
 30
0.0
 10
95.18454316196775
 20
-151.566631364018
 30
0.0
 10
95.03537052745643
 20
-151.5707654786003
 30
0.0
 10
95.03537052745643
 20
-151.5707654786003
 30
0.0
 10
95.03295896061677
 20
-151.6596489421198
 30
0.0
 10
95.03295896061677
 20
-151.6596489421198
 30
0.0
 10
95.03295896061677
 20
-151.6596489421198
 30
0.0
 10
95.31097816627642
 20
-151.6596489421198
 30
0.0
 10
95.31097816627642
 20
-151.6596489421198
 30
0.0
 10
95.36747773223451
 20
-151.6596489421198
 30
0.0
 10
95.56212562715113
 20
-151.6510362034067
 30
0.0
 10
95.60949569007332
 20
-151.6448350315332
 30
0.0
 10
95.60949569007332
 20
-151.6448350315332
 30
0.0
 10
95.60949569007332
 20
-151.8057209906944
 30
0.0
 10
95.60949569007332
 20
-151.8057209906944
 30
0.0
 10
95.5507568120498
 20
-151.7991753092724
 30
0.0
 10
95.41743161677064
 20
-151.7971082519813
 30
0.0
 10
95.3767794900447
 20
-151.7991753092724
 30
0.0
 10
95.3767794900447
 20
-151.7991753092724
 30
0.0
 10
95.3767794900447
 20
-151.9094183648004
 30
0.0
 10
95.3767794900447
 20
-151.9094183648004
 30
0.0
 10
95.3767794900447
 20
-151.9559271538513
 30
0.0
 10
95.37884654733586
 20
-152.0193169107799
 30
0.0
 10
95.38573673830635
 20
-152.0572129611176
 30
0.0
 10
95.38573673830635
 20
-152.0572129611176
 30
0.0
 10
95.18006453783693
 20
-152.0572129611176
 30
0.0
 10
95.18006453783693
 20
-152.0572129611176
 30
0.0
 10
95.18661021925892
 20
-152.0172498534887
 30
0.0
 10
95.1935004102294
 20
-151.9345675618427
 30
0.0
 10
95.1935004102294
 20
-151.9197536512562
 30
0.0
 10
95.1935004102294
 20
-151.9197536512562
 30
0.0
 10
95.1935004102294
 20
-151.7991753092724
 30
0.0
 10
95.1935004102294
 20
-151.7991753092724
 30
0.0
 10
95.1935004102294
 20
-151.7991753092724
 30
0.0
 10
95.01711152138462
 20
-151.7991753092724
 30
0.0
 10
95.01711152138462
 20
-151.7991753092724
 30
0.0
 10
94.97198077052784
 20
-152.0193169107799
 30
0.0
 10
94.91306963773007
 20
-152.0995876355862
 30
0.0
 10
94.80007050581388
 20
-152.1991508951099
 30
0.0
 10
94.80007050581388
 20
-152.1991508951099
 30
0.0
 10
94.62161455967793
 20
-152.0847737249996
 30
0.0
 10
94.62161455967793
 20
-152.0847737249996
 30
0.0
 10
94.68948294073735
 20
-152.0361978786576
 30
0.0
 10
94.85002439035
 20
-151.924232275387
 30
0.0
 10
94.85002439035
 20
-151.5748995931826
 30
0.0
 10
94.85002439035
 20
-151.4925618110852
 30
0.0
 10
94.84072263253983
 20
-151.4460530220343
 30
0.0
 10
94.83176538427818
 20
-151.3974771756923
 30
0.0
 10
94.98782820976
 20
-151.4122910862789
 30
0.0
 10
95.00367564899214
 20
-151.4122910862789
 30
0.0
 10
95.04191620887842
 20
-151.4122910862789
 30
0.0
 10
95.15732690763428
 20
-151.4122910862789
 30
0.0
 10
95.30891110898528
 20
-151.3950656088526
 30
0.0
 10
95.48082137369924
 20
-151.3337429092151
 30
0.0
 10
95.48082137369924
 20
-151.3337429092151
 30
0.0
 10
95.60277775387708
 20
-151.4650010472032
 30
0.0
 10
95.60277775387708
 20
-151.4650010472032
 30
0.0
 10
95.60949569007332
 20
-151.4715467286252
 30
0.0
 10
95.61397431420415
 20
-151.4798149577898
 30
0.0
 10
95.61397431420415
 20
-151.4884276965029
 30
0.0
 10
95.61397431420415
 20
-151.511509836254
 30
0.0
 10
95.59364825084117
 20
-151.5156439508363
 30
0.0
 10
95.57780081160903
 20
-151.5156439508363
 30
0.0
  0
HATCH
  5
CB
330
BA
100
AcDbEntity
  8
レイヤー 1
 62
   250
420
  2299925
440
 33554687
100
AcDbHatch
 10
0.0
 20
0.0
 30
0.0
210
0.0
220
0.0
230
1.0
  2
SOLID
 70
     1
 71
     1
 91
        6
 92
        1
 93
        1
 72
     4
 94
        3
 73
     0
 74
     0
 95
       74
 96
       70
 40
0.0
 40
0.0
 40
0.0
 40
0.0
 40
1.0
 40
1.0
 40
1.0
 40
2.0
 40
2.0
 40
2.0
 40
3.0
 40
3.0
 40
3.0
 40
4.0
 40
4.0
 40
4.0
 40
5.0
 40
5.0
 40
5.0
 40
6.0
 40
6.0
 40
6.0
 40
7.0
 40
7.0
 40
7.0
 40
8.0
 40
8.0
 40
8.0
 40
9.0
 40
9.0
 40
9.0
 40
10.0
 40
10.0
 40
10.0
 40
11.0
 40
11.0
 40
11.0
 40
12.0
 40
12.0
 40
12.0
 40
13.0
 40
13.0
 40
13.0
 40
14.0
 40
14.0
 40
14.0
 40
15.0
 40
15.0
 40
15.0
 40
16.0
 40
16.0
 40
16.0
 40
17.0
 40
17.0
 40
17.0
 40
18.0
 40
18.0
 40
18.0
 40
19.0
 40
19.0
 40
19.0
 40
20.0
 40
20.0
 40
20.0
 40
21.0
 40
21.0
 40
21.0
 40
22.0
 40
22.0
 40
22.0
 40
23.0
 40
23.0
 40
23.0
 40
23.0
 10
96.4867892553922
 20
-151.7950411946901
 10
96.4867892553922
 20
-151.7950411946901
 10
96.31487899067822
 20
-151.7950411946901
 10
96.31487899067822
 20
-151.7950411946901
 10
96.31487899067822
 20
-151.7950411946901
 10
96.31487899067822
 20
-151.9094183648004
 10
96.31487899067822
 20
-151.9094183648004
 10
96.31487899067822
 20
-151.9493814724293
 10
96.32176918164873
 20
-152.0234510253622
 10
96.32624780577955
 20
-152.048944731953
 10
96.32624780577955
 20
-152.048944731953
 10
96.10007728717292
 20
-152.048944731953
 10
96.10007728717292
 20
-152.048944731953
 10
96.11144610227423
 20
-151.9834879177333
 10
96.11368541433964
 20
-151.924232275387
 10
96.11368541433964
 20
-151.9218207085473
 10
96.11368541433964
 20
-151.9218207085473
 10
96.11368541433964
 20
-151.7991753092724
 10
96.11368541433964
 20
-151.7991753092724
 10
96.11368541433964
 20
-151.7991753092724
 10
95.9214490862627
 20
-151.7991753092724
 10
95.9214490862627
 20
-151.7991753092724
 10
95.90112302289972
 20
-151.8584309516187
 10
95.85151364791213
 20
-152.0045030001933
 10
95.72938501296002
 20
-152.0868407822908
 10
95.72938501296002
 20
-152.0868407822908
 10
95.56212562715113
 20
-151.9810763508936
 10
95.56212562715113
 20
-151.9810763508936
 10
95.64119056853762
 20
-151.9345675618427
 10
95.76555851555514
 20
-151.8604980089099
 10
95.76555851555514
 20
-151.5390706001361
 10
95.76555851555514
 20
-151.4839490723721
 10
95.76090763665005
 20
-151.4395073406123
 10
95.75866832458464
 20
-151.4016112902746
 10
95.8401448328108
 20
-151.4098795194392
 10
95.91920977419729
 20
-151.4164252008612
 10
95.98707815525671
 20
-151.4164252008612
 10
96.17707517126824
 20
-151.4164252008612
 10
96.3894653079339
 20
-151.3571695585149
 10
96.45509437692791
 20
-151.3275417373417
 10
96.45509437692791
 20
-151.3275417373417
 10
96.59065888427248
 20
-151.462933989912
 10
96.59065888427248
 20
-151.462933989912
 10
96.59530976317757
 20
-151.4670681044943
 10
96.59754907524298
 20
-151.4756808432075
 10
96.59754907524298
 20
-151.4818820150809
 10
96.59754907524298
 20
-151.5032416070894
 10
96.58170163601084
 20
-151.5094427789629
 10
96.56361488471326
 20
-151.5094427789629
 10
96.54104950928488
 20
-151.5094427789629
 10
96.52520207005274
 20
-151.5011745497983
 10
96.50487600668975
 20
-151.490494753794
 10
96.31935761480905
 20
-151.5476833388492
 10
96.08646916000616
 20
-151.5728325358915
 10
95.94418671646534
 20
-151.5748995931826
 10
95.94418671646534
 20
-151.5748995931826
 10
95.93953583756025
 20
-151.6575818848286
 10
95.93953583756025
 20
-151.6575818848286
 10
95.93953583756025
 20
-151.6575818848286
 10
96.23116317038665
 20
-151.6575818848286
 10
96.23116317038665
 20
-151.6575818848286
 10
96.29231361524984
 20
-151.6575818848286
 10
96.57257213297491
 20
-151.6386338596598
 10
96.62011445067136
 20
-151.6320881782378
 10
96.62011445067136
 20
-151.6320881782378
 10
96.62011445067136
 20
-151.8012423665636
 10
96.62011445067136
 20
-151.8012423665636
 10
96.58394094807626
 20
-151.7971082519813
 10
96.57033282090949
 20
-151.7950411946901
 10
96.4867892553922
 20
-151.7950411946901
 97
        0
 97
        1
330
C5
 92
        1
 93
        1
 72
     4
 94
        3
 73
     0
 74
     0
 95
       17
 96
       13
 40
0.0
 40
0.0
 40
0.0
 40
0.0
 40
1.0
 40
1.0
 40
1.0
 40
2.0
 40
2.0
 40
2.0
 40
3.0
 40
3.0
 40
3.0
 40
4.0
 40
4.0
 40
4.0
 40
4.0
 10
96.14761960486935
 20
-152.7386528481
 10
96.14761960486935
 20
-152.7386528481
 10
95.17317434686644
 20
-152.7386528481
 10
95.17317434686644
 20
-152.7386528481
 10
95.17317434686644
 20
-152.7386528481
 10
95.17317434686644
 20
-152.8464843367884
 10
95.17317434686644
 20
-152.8464843367884
 10
95.17317434686644
 20
-152.8464843367884
 10
96.14761960486935
 20
-152.8464843367884
 10
96.14761960486935
 20
-152.8464843367884
 10
96.14761960486935
 20
-152.8464843367884
 10
96.14761960486935
 20
-152.7386528481
 10
96.14761960486935
 20
-152.7386528481
 97
        0
 97
        1
330
C6
 92
        1
 93
        1
 72
     4
 94
        3
 73
     0
 74
     0
 95
       17
 96
       13
 40
0.0
 40
0.0
 40
0.0
 40
0.0
 40
1.0
 40
1.0
 40
1.0
 40
2.0
 40
2.0
 40
2.0
 40
3.0
 40
3.0
 40
3.0
 40
4.0
 40
4.0
 40
4.0
 40
4.0
 10
96.14761960486935
 20
-152.4930175400017
 10
96.14761960486935
 20
-152.4930175400017
 10
95.17317434686644
 20
-152.4930175400017
 10
95.17317434686644
 20
-152.4930175400017
 10
95.17317434686644
 20
-152.4930175400017
 10
95.17317434686644
 20
-152.6032605955297
 10
95.17317434686644
 20
-152.6032605955297
 10
95.17317434686644
 20
-152.6032605955297
 10
96.14761960486935
 20
-152.6032605955297
 10
96.14761960486935
 20
-152.6032605955297
 10
96.14761960486935
 20
-152.6032605955297
 10
96.14761960486935
 20
-152.4930175400017
 10
96.14761960486935
 20
-152.4930175400017
 97
        0
 97
        1
330
C7
 92
        1
 93
        1
 72
     4
 94
        3
 73
     0
 74
     0
 95
       17
 96
       13
 40
0.0
 40
0.0
 40
0.0
 40
0.0
 40
1.0
 40
1.0
 40
1.0
 40
2.0
 40
2.0
 40
2.0
 40
3.0
 40
3.0
 40
3.0
 40
4.0
 40
4.0
 40
4.0
 40
4.0
 10
96.14761960486935
 20
-152.2477267414519
 10
96.14761960486935
 20
-152.2477267414519
 10
95.17317434686644
 20
-152.2477267414519
 10
95.17317434686644
 20
-152.2477267414519
 10
95.17317434686644
 20
-152.2477267414519
 10
95.17317434686644
 20
-152.3600368542711
 10
95.17317434686644
 20
-152.3600368542711
 10
95.17317434686644
 20
-152.3600368542711
 10
96.14761960486935
 20
-152.3600368542711
 10
96.14761960486935
 20
-152.3600368542711
 10
96.14761960486935
 20
-152.3600368542711
 10
96.14761960486935
 20
-152.2477267414519
 10
96.14761960486935
 20
-152.2477267414519
 97
        0
 97
        1
330
C8
 92
        1
 93
        1
 72
     4
 94
        3
 73
     0
 74
     0
 95
       74
 96
       70
 40
0.0
 40
0.0
 40
0.0
 40
0.0
 40
1.0
 40
1.0
 40
1.0
 40
2.0
 40
2.0
 40
2.0
 40
3.0
 40
3.0
 40
3.0
 40
4.0
 40
4.0
 40
4.0
 40
5.0
 40
5.0
 40
5.0
 40
6.0
 40
6.0
 40
6.0
 40
7.0
 40
7.0
 40
7.0
 40
8.0
 40
8.0
 40
8.0
 40
9.0
 40
9.0
 40
9.0
 40
10.0
 40
10.0
 40
10.0
 40
11.0
 40
11.0
 40
11.0
 40
12.0
 40
12.0
 40
12.0
 40
13.0
 40
13.0
 40
13.0
 40
14.0
 40
14.0
 40
14.0
 40
15.0
 40
15.0
 40
15.0
 40
16.0
 40
16.0
 40
16.0
 40
17.0
 40
17.0
 40
17.0
 40
18.0
 40
18.0
 40
18.0
 40
19.0
 40
19.0
 40
19.0
 40
20.0
 40
20.0
 40
20.0
 40
21.0
 40
21.0
 40
21.0
 40
22.0
 40
22.0
 40
22.0
 40
23.0
 40
23.0
 40
23.0
 40
23.0
 10
96.47318112822546
 20
-153.2822889156725
 10
96.24477129755341
 20
-153.2716091196682
 10
96.02996959404807
 20
-153.1847927134399
 10
95.84238414487622
 20
-153.0642143714562
 10
95.84238414487622
 20
-153.0642143714562
 10
95.94642602853076
 20
-152.9777424747764
 10
95.94642602853076
 20
-152.9777424747764
 10
95.94642602853076
 20
-152.9777424747764
 10
95.35645342668173
 20
-152.9777424747764
 10
95.35645342668173
 20
-152.9777424747764
 10
95.35645342668173
 20
-152.9777424747764
 10
95.44223630426444
 20
-153.041132231705
 10
95.44223630426444
 20
-153.041132231705
 10
95.44912649523494
 20
-153.0452663462873
 10
95.46015080078774
 20
-153.0559461422916
 10
95.46015080078774
 20
-153.0707600528781
 10
95.46015080078774
 20
-153.1110676700556
 10
95.38125811417552
 20
-153.1045219886336
 10
95.36541067494338
 20
-153.1024549313424
 10
95.11908634774801
 20
-153.241981298495
 10
94.96509057955734
 20
-153.2736761769593
 10
94.85450301448082
 20
-153.2905571448371
 10
94.85450301448082
 20
-153.2905571448371
 10
94.7163546855223
 20
-153.1131347273467
 10
94.7163546855223
 20
-153.1131347273467
 10
94.98093801878949
 20
-153.0814398488824
 10
95.08945852657486
 20
-153.034586550283
 10
95.18454316196775
 20
-152.9818765893587
 10
95.105305965807
 20
-152.9839436466498
 10
94.98334958562917
 20
-152.986010703941
 10
94.9492431403252
 20
-152.9880777612321
 10
94.96509057955734
 20
-152.8991942977127
 10
94.96750214639702
 20
-152.7703477265643
 10
94.96750214639702
 20
-152.6962781736315
 10
94.96750214639702
 20
-152.6962781736315
 10
94.96750214639702
 20
-152.3958658473177
 10
94.96750214639702
 20
-152.3958658473177
 10
94.96750214639702
 20
-152.296302587794
 10
94.96061195542651
 20
-152.1970838378187
 10
94.9492431403252
 20
-152.0995876355862
 10
95.05776364811056
 20
-152.1061333170082
 10
95.30443248485445
 20
-152.1123344888816
 10
95.41949867406179
 20
-152.1123344888816
 10
95.41949867406179
 20
-152.1123344888816
 10
95.8718397112751
 20
-152.1123344888816
 10
95.8718397112751
 20
-152.1123344888816
 10
95.99844697035804
 20
-152.1123344888816
 10
96.04357772121481
 20
-152.1123344888816
 10
96.1317721656372
 20
-152.1082003742993
 10
96.29007430318443
 20
-152.1016546928773
 10
96.30816105448198
 20
-152.1016546928773
 10
96.35794268424385
 20
-152.0995876355862
 10
96.34881318120795
 20
-152.180202869941
 10
96.34433455707712
 20
-152.3386772622625
 10
96.34433455707712
 20
-152.4213595539085
 10
96.34433455707712
 20
-152.4213595539085
 10
96.34433455707712
 20
-152.7069579696357
 10
96.34433455707712
 20
-152.7069579696357
 10
96.34433455707712
 20
-152.7786159557289
 10
96.34657386914254
 20
-152.909874093717
 10
96.35794268424385
 20
-152.9880777612321
 10
96.28094480014851
 20
-152.9839436466498
 10
96.14985891693477
 20
-152.9818765893587
 10
96.06614309664319
 20
-152.9798095320675
 10
96.18379310746448
 20
-153.0473334035784
 10
96.34657386914254
 20
-153.0983208167601
 10
96.57257213297491
 20
-153.1024549313424
 10
96.57257213297491
 20
-153.1024549313424
 10
96.47318112822546
 20
-153.2822889156725
 10
96.47318112822546
 20
-153.2822889156725
 97
        0
 97
        1
330
C9
 92
        1
 93
        1
 72
     4
 94
        3
 73
     0
 74
     0
 95
       71
 96
       67
 40
0.0
 40
0.0
 40
0.0
 40
0.0
 40
1.0
 40
1.0
 40
1.0
 40
2.0
 40
2.0
 40
2.0
 40
3.0
 40
3.0
 40
3.0
 40
4.0
 40
4.0
 40
4.0
 40
5.0
 40
5.0
 40
5.0
 40
6.0
 40
6.0
 40
6.0
 40
7.0
 40
7.0
 40
7.0
 40
8.0
 40
8.0
 40
8.0
 40
9.0
 40
9.0
 40
9.0
 40
10.0
 40
10.0
 40
10.0
 40
11.0
 40
11.0
 40
11.0
 40
12.0
 40
12.0
 40
12.0
 40
13.0
 40
13.0
 40
13.0
 40
14.0
 40
14.0
 40
14.0
 40
15.0
 40
15.0
 40
15.0
 40
16.0
 40
16.0
 40
16.0
 40
17.0
 40
17.0
 40
17.0
 40
18.0
 40
18.0
 40
18.0
 40
19.0
 40
19.0
 40
19.0
 40
20.0
 40
20.0
 40
20.0
 40
21.0
 40
21.0
 40
21.0
 40
22.0
 40
22.0
 40
22.0
 40
22.0
 10
95.57780081160903
 20
-151.5156439508363
 10
95.56212562715113
 20
-151.5156439508363
 10
95.54851749998439
 20
-151.511509836254
 10
95.52130124565094
 20
-151.5032416070894
 10
95.36988929907421
 20
-151.5497503961403
 10
95.18454316196775
 20
-151.566631364018
 10
95.03537052745643
 20
-151.5707654786003
 10
95.03537052745643
 20
-151.5707654786003
 10
95.03295896061677
 20
-151.6596489421198
 10
95.03295896061677
 20
-151.6596489421198
 10
95.03295896061677
 20
-151.6596489421198
 10
95.31097816627642
 20
-151.6596489421198
 10
95.31097816627642
 20
-151.6596489421198
 10
95.36747773223451
 20
-151.6596489421198
 10
95.56212562715113
 20
-151.6510362034067
 10
95.60949569007332
 20
-151.6448350315332
 10
95.60949569007332
 20
-151.6448350315332
 10
95.60949569007332
 20
-151.8057209906944
 10
95.60949569007332
 20
-151.8057209906944
 10
95.5507568120498
 20
-151.7991753092724
 10
95.41743161677064
 20
-151.7971082519813
 10
95.3767794900447
 20
-151.7991753092724
 10
95.3767794900447
 20
-151.7991753092724
 10
95.3767794900447
 20
-151.9094183648004
 10
95.3767794900447
 20
-151.9094183648004
 10
95.3767794900447
 20
-151.9559271538513
 10
95.37884654733586
 20
-152.0193169107799
 10
95.38573673830635
 20
-152.0572129611176
 10
95.38573673830635
 20
-152.0572129611176
 10
95.18006453783693
 20
-152.0572129611176
 10
95.18006453783693
 20
-152.0572129611176
 10
95.18661021925892
 20
-152.0172498534887
 10
95.1935004102294
 20
-151.9345675618427
 10
95.1935004102294
 20
-151.9197536512562
 10
95.1935004102294
 20
-151.9197536512562
 10
95.1935004102294
 20
-151.7991753092724
 10
95.1935004102294
 20
-151.7991753092724
 10
95.1935004102294
 20
-151.7991753092724
 10
95.01711152138462
 20
-151.7991753092724
 10
95.01711152138462
 20
-151.7991753092724
 10
94.97198077052784
 20
-152.0193169107799
 10
94.91306963773007
 20
-152.0995876355862
 10
94.80007050581388
 20
-152.1991508951099
 10
94.80007050581388
 20
-152.1991508951099
 10
94.62161455967793
 20
-152.0847737249996
 10
94.62161455967793
 20
-152.0847737249996
 10
94.68948294073735
 20
-152.0361978786576
 10
94.85002439035
 20
-151.924232275387
 10
94.85002439035
 20
-151.5748995931826
 10
94.85002439035
 20
-151.4925618110852
 10
94.84072263253983
 20
-151.4460530220343
 10
94.83176538427818
 20
-151.3974771756923
 10
94.98782820976
 20
-151.4122910862789
 10
95.00367564899214
 20
-151.4122910862789
 10
95.04191620887842
 20
-151.4122910862789
 10
95.15732690763428
 20
-151.4122910862789
 10
95.30891110898528
 20
-151.3950656088526
 10
95.48082137369924
 20
-151.3337429092151
 10
95.48082137369924
 20
-151.3337429092151
 10
95.60277775387708
 20
-151.4650010472032
 10
95.60277775387708
 20
-151.4650010472032
 10
95.60949569007332
 20
-151.4715467286252
 10
95.61397431420415
 20
-151.4798149577898
 10
95.61397431420415
 20
-151.4884276965029
 10
95.61397431420415
 20
-151.511509836254
 10
95.59364825084117
 20
-151.5156439508363
 10
95.57780081160903
 20
-151.5156439508363
 97
        0
 97
        1
330
CA
 75
     2
 76
     1
 98
        1
 10
0.0
 20
0.0
450
        0
451
        0
460
0.0
461
0.0
452
        0
462
0.0
453
        0
470

  0
ENDBLK
  5
BD
330
BA
100
AcDbEntity
  8
0
100
AcDbBlockEnd
  0
BLOCK
  5
DB
330
D9
100
AcDbEntity
  8
0
100
AcDbBlockBegin
  2
Block_9
 70
     0
 10
0.0
 20
0.0
 30
0.0
  3
Block_9
  1

  0
ELLIPSE
  5
DD
330
D9
100
AcDbEntity
  8
レイヤー 1
 62
   250
420
  2299925
370
     9
100
AcDbEllipse
 10
115.4339753819286
 20
-148.0083505697184
 30
0.0
 11
0.7928625538434908
 21
0.0
 31
0.0
210
0.0
220
0.0
230
1.0
 40
0.4451720467927304
 41
0.0
 42
6.283185307179585
  0
ELLIPSE
  5
DE
330
D9
100
AcDbEntity
  8
レイヤー 1
 62
   250
420
  2299925
370
     9
100
AcDbEllipse
 10
112.3535875399358
 20
-148.0083505670901
 30
0.0
 11
0.8303440422906822
 21
0.0
 31
0.0
210
0.0
220
0.0
230
1.0
 40
0.4250771101411189
 41
0.0
 42
6.283185307179585
  0
ELLIPSE
  5
DF
330
D9
100
AcDbEntity
  8
レイヤー 1
 62
   250
420
  2299925
370
     9
100
AcDbEllipse
 10
118.5060773673255
 20
-148.0083505723465
 30
0.0
 11
0.7453204703851599
 21
0.0
 31
0.0
210
0.0
220
0.0
230
1.0
 40
0.473568431224946
 41
0.0
 42
6.283185307179585
  0
ENDBLK
  5
DC
330
D9
100
AcDbEntity
  8
0
100
AcDbBlockEnd
  0
BLOCK
  5
E2
330
E0
100
AcDbEntity
  8
0
100
AcDbBlockBegin
  2
Block_10
 70
     0
 10
0.0
 20
0.0
 30
0.0
  3
Block_10
  1

  0
ELLIPSE
  5
E4
330
E0
100
AcDbEntity
  8
レイヤー 1
 62
   250
420
  2299925
370
     9
100
AcDbEllipse
 10
116.798709391696
 20
-146.6056241787801
 30
0.0
 11
0.7928625538434908
 21
0.0
 31
0.0
210
0.0
220
0.0
230
1.0
 40
0.4451720467928315
 41
0.0
 42
6.283185307179585
  0
ELLIPSE
  5
E5
330
E0
100
AcDbEntity
  8
レイヤー 1
 62
   250
420
  2299925
370
     9
100
AcDbEllipse
 10
113.7183215497033
 20
-146.6056241761519
 30
0.0
 11
0.8303440422906822
 21
0.0
 31
0.0
210
0.0
220
0.0
230
1.0
 40
0.4250771101409257
 41
0.0
 42
6.283185307179585
  0
ELLIPSE
  5
E6
330
E0
100
AcDbEntity
  8
レイヤー 1
 62
   250
420
  2299925
370
     9
100
AcDbEllipse
 10
119.870811377093
 20
-146.6056241814084
 30
0.0
 11
0.7453204703851599
 21
0.0
 31
0.0
210
0.0
220
0.0
230
1.0
 40
0.4735684312247308
 41
0.0
 42
6.283185307179585
  0
ENDBLK
  5
E3
330
E0
100
AcDbEntity
  8
0
100
AcDbBlockEnd
  0
BLOCK
  5
E9
330
E7
100
AcDbEntity
  8
0
100
AcDbBlockBegin
  2
Block_11
 70
     0
 10
0.0
 20
0.0
 30
0.0
  3
Block_11
  1

  0
ELLIPSE
  5
EB
330
E7
100
AcDbEntity
  8
レイヤー 1
 62
   250
420
  2299925
370
     9
100
AcDbEllipse
 10
118.2430812892071
 20
-145.2076236773196
 30
0.0
 11
0.7928625538434908
 21
0.0
 31
0.0
210
0.0
220
0.0
230
1.0
 40
0.4451720467925281
 41
0.0
 42
6.283185307179585
  0
ELLIPSE
  5
EC
330
E7
100
AcDbEntity
  8
レイヤー 1
 62
   250
420
  2299925
370
     9
100
AcDbEllipse
 10
115.1626934472143
 20
-145.2076236746911
 30
0.0
 11
0.8303440422906822
 21
0.0
 31
0.0
210
0.0
220
0.0
230
1.0
 40
0.4250771101410223
 41
0.0
 42
6.283185307179585
  0
ELLIPSE
  5
ED
330
E7
100
AcDbEntity
  8
レイヤー 1
 62
   250
420
  2299925
370
     9
100
AcDbEllipse
 10
121.315183274604
 20
-145.2076236799478
 30
0.0
 11
0.7453204703851599
 21
0.0
 31
0.0
210
0.0
220
0.0
230
1.0
 40
0.4735684312245155
 41
0.0
 42
6.283185307179585
  0
ENDBLK
  5
EA
330
E7
100
AcDbEntity
  8
0
100
AcDbBlockEnd
  0
BLOCK
  5
F0
330
EE
100
AcDbEntity
  8
0
100
AcDbBlockBegin
  2
Block_12
 70
     0
 10
0.0
 20
0.0
 30
0.0
  3
Block_12
  1

  0
ELLIPSE
  5
F2
330
EE
100
AcDbEntity
  8
レイヤー 1
 62
   250
420
  2299925
370
     9
100
AcDbEllipse
 10
119.4854451154441
 20
-143.8644017040894
 30
0.0
 11
0.7928625538434908
 21
0.0
 31
0.0
210
0.0
220
0.0
230
1.0
 40
0.4451720467924269
 41
0.0
 42
6.283185307179585
  0
ELLIPSE
  5
F3
330
EE
100
AcDbEntity
  8
レイヤー 1
 62
   250
420
  2299925
370
     9
100
AcDbEllipse
 10
116.4050572734514
 20
-143.8644017014612
 30
0.0
 11
0.8303440422906822
 21
0.0
 31
0.0
210
0.0
220
0.0
230
1.0
 40
0.4250771101410223
 41
0.0
 42
6.283185307179585
  0
ELLIPSE
  5
F4
330
EE
100
AcDbEntity
  8
レイヤー 1
 62
   250
420
  2299925
370
     9
100
AcDbEllipse
 10
122.557547100841
 20
-143.8644017067178
 30
0.0
 11
0.7453204703851599
 21
0.0
 31
0.0
210
0.0
220
0.0
230
1.0
 40
0.4735684312246232
 41
0.0
 42
6.283185307179585
  0
ENDBLK
  5
F1
330
EE
100
AcDbEntity
  8
0
100
AcDbBlockEnd
  0
BLOCK
  5
F7
330
F5
100
AcDbEntity
  8
0
100
AcDbBlockBegin
  2
Block_13
 70
     0
 10
0.0
 20
0.0
 30
0.0
  3
Block_13
  1

  0
ELLIPSE
  5
F9
330
F5
100
AcDbEntity
  8
レイヤー 1
 62
   250
420
  2299925
370
     9
100
AcDbEllipse
 10
120.9145446044007
 20
-142.5008051632206
 30
0.0
 11
0.7928625538434908
 21
0.0
 31
0.0
210
0.0
220
0.0
230
1.0
 40
0.4451720467927304
 41
0.0
 42
6.283185307179585
  0
ELLIPSE
  5
FA
330
F5
100
AcDbEntity
  8
レイヤー 1
 62
   250
420
  2299925
370
     9
100
AcDbEllipse
 10
117.834156762408
 20
-142.5008051605922
 30
0.0
 11
0.8303440422906822
 21
0.0
 31
0.0
210
0.0
220
0.0
230
1.0
 40
0.4250771101411189
 41
0.0
 42
6.283185307179585
  0
ELLIPSE
  5
FB
330
F5
100
AcDbEntity
  8
レイヤー 1
 62
   250
420
  2299925
370
     9
100
AcDbEllipse
 10
123.9866465897976
 20
-142.500805165849
 30
0.0
 11
0.7453204703851599
 21
0.0
 31
0.0
210
0.0
220
0.0
230
1.0
 40
0.4735684312245155
 41
0.0
 42
6.283185307179585
  0
ENDBLK
  5
F8
330
F5
100
AcDbEntity
  8
0
100
AcDbBlockEnd
  0
BLOCK
  5
FE
330
FC
100
AcDbEntity
  8
0
100
AcDbBlockBegin
  2
Block_14
 70
     0
 10
0.0
 20
0.0
 30
0.0
  3
Block_14
  1

  0
ELLIPSE
  5
100
330
FC
100
AcDbEntity
  8
レイヤー 1
 62
   250
420
  2299925
370
     9
100
AcDbEllipse
 10
122.0546923632188
 20
-141.1755756893149
 30
0.0
 11
0.7928625538434908
 21
0.0
 31
0.0
210
0.0
220
0.0
230
1.0
 40
0.4451720467924269
 41
0.0
 42
6.283185307179585
  0
ELLIPSE
  5
101
330
FC
100
AcDbEntity
  8
レイヤー 1
 62
   250
420
  2299925
370
     9
100
AcDbEllipse
 10
118.974304521226
 20
-141.1755756866866
 30
0.0
 11
0.8303440422906822
 21
0.0
 31
0.0
210
0.0
220
0.0
230
1.0
 40
0.4250771101410223
 41
0.0
 42
6.283185307179585
  0
ELLIPSE
  5
102
330
FC
100
AcDbEntity
  8
レイヤー 1
 62
   250
420
  2299925
370
     9
100
AcDbEllipse
 10
125.0417266321891
 20
-141.1755757149377
 30
0.0
 11
0.7453204703851599
 21
0.0
 31
0.0
210
0.0
220
0.0
230
1.0
 40
0.4735684312245155
 41
0.0
 42
6.283185307179585
  0
ENDBLK
  5
FF
330
FC
100
AcDbEntity
  8
0
100
AcDbBlockEnd
  0
BLOCK
  5
105
330
103
100
AcDbEntity
  8
0
100
AcDbBlockBegin
  2
Block_15
 70
     0
 10
0.0
 20
0.0
 30
0.0
  3
Block_15
  1

  0
ELLIPSE
  5
107
330
103
100
AcDbEntity
  8
レイヤー 1
 62
   250
420
  2299925
370
     9
100
AcDbEllipse
 10
122.9769724315054
 20
-139.7605607248918
 30
0.0
 11
0.7928625538434908
 21
0.0
 31
0.0
210
0.0
220
0.0
230
1.0
 40
0.4451720467929328
 41
0.0
 42
6.283185307179585
  0
ELLIPSE
  5
108
330
103
100
AcDbEntity
  8
レイヤー 1
 62
   250
420
  2299925
370
     9
100
AcDbEllipse
 10
120.1510593239561
 20
-139.8590460857618
 30
0.0
 11
0.8303440422906822
 21
0.0
 31
0.0
210
0.0
220
0.0
230
1.0
 40
0.4250771101415053
 41
0.0
 42
6.283185307179585
  0
ELLIPSE
  5
109
330
103
100
AcDbEntity
  8
レイヤー 1
 62
   250
420
  2299925
370
     9
100
AcDbEllipse
 10
126.0490744169428
 20
-139.8590460910189
 30
0.0
 11
0.7453204703851599
 21
0.0
 31
0.0
210
0.0
220
0.0
230
1.0
 40
0.4735684312245155
 41
0.0
 42
6.283185307179585
  0
ENDBLK
  5
106
330
103
100
AcDbEntity
  8
0
100
AcDbBlockEnd
  0
BLOCK
  5
10C
330
10A
100
AcDbEntity
  8
0
100
AcDbBlockBegin
  2
Block_16
 70
     0
 10
0.0
 20
0.0
 30
0.0
  3
Block_16
  1

  0
ELLIPSE
  5
10E
330
10A
100
AcDbEntity
  8
レイヤー 1
 62
   250
420
  2299925
370
    13
100
AcDbEllipse
 10
106.3675374585969
 20
-141.6103357700045
 30
0.0
 11
0.0
 21
0.7098517908087271
 31
0.0
210
0.0
220
0.0
230
1.0
 40
0.704372362863725
 41
0.0
 42
6.283185307179586
  0
ELLIPSE
  5
10F
330
10A
100
AcDbEntity
  8
レイヤー 1
 62
   250
420
  2299925
370
    13
100
AcDbEllipse
 10
106.3389347731492
 20
-138.8066295814232
 30
0.0
 11
0.0
 21
0.6912513519061855
 31
0.0
210
0.0
220
0.0
230
1.0
 40
0.7233258666277568
 41
0.0
 42
6.283185307179586
  0
ELLIPSE
  5
110
330
10A
100
AcDbEntity
  8
レイヤー 1
 62
   250
420
  2299925
370
    13
100
AcDbEllipse
 10
106.313097412347
 20
-136.1869386894769
 30
0.0
 11
0.0
 21
0.7068667223951866
 31
0.0
210
0.0
220
0.0
230
1.0
 40
0.7073468977019627
 41
0.0
 42
6.283185307179586
  0
ENDBLK
  5
10D
330
10A
100
AcDbEntity
  8
0
100
AcDbBlockEnd
  0
BLOCK
  5
113
330
111
100
AcDbEntity
  8
0
100
AcDbBlockBegin
  2
Block_17
 70
     0
 10
0.0
 20
0.0
 30
0.0
  3
Block_17
  1

  0
ELLIPSE
  5
115
330
111
100
AcDbEntity
  8
レイヤー 1
 62
   250
420
  2299925
370
    13
100
AcDbEllipse
 10
108.05510957845
 20
-140.3077636486212
 30
0.0
 11
0.0
 21
0.7098517908085667
 31
0.0
210
0.0
220
0.0
230
1.0
 40
0.7043723628638842
 41
0.0
 42
6.283185307179586
  0
ELLIPSE
  5
116
330
111
100
AcDbEntity
  8
レイヤー 1
 62
   250
420
  2299925
370
    13
100
AcDbEllipse
 10
108.0265068930022
 20
-137.5040574600397
 30
0.0
 11
0.0
 21
0.6912513519065062
 31
0.0
210
0.0
220
0.0
230
1.0
 40
0.7233258666274211
 41
0.0
 42
6.283185307179586
  0
ELLIPSE
  5
117
330
111
100
AcDbEntity
  8
レイヤー 1
 62
   250
420
  2299925
370
    13
100
AcDbEllipse
 10
108.0006695322
 20
-134.8843665680934
 30
0.0
 11
0.0
 21
0.7068667223954272
 31
0.0
210
0.0
220
0.0
230
1.0
 40
0.707346897701722
 41
0.0
 42
6.283185307179586
  0
ENDBLK
  5
114
330
111
100
AcDbEntity
  8
0
100
AcDbBlockEnd
  0
BLOCK
  5
11A
330
118
100
AcDbEntity
  8
0
100
AcDbBlockBegin
  2
Block_18
 70
     0
 10
0.0
 20
0.0
 30
0.0
  3
Block_18
  1

  0
ELLIPSE
  5
11C
330
118
100
AcDbEntity
  8
レイヤー 1
 62
   250
420
  2299925
370
    13
100
AcDbEllipse
 10
109.4955036643978
 20
-138.8673695626732
 30
0.0
 11
0.0
 21
0.709851790808647
 31
0.0
210
0.0
220
0.0
230
1.0
 40
0.7043723628638045
 41
0.0
 42
6.283185307179586
  0
ELLIPSE
  5
11D
330
118
100
AcDbEntity
  8
レイヤー 1
 62
   250
420
  2299925
370
    13
100
AcDbEllipse
 10
109.4669009789501
 20
-136.0636633740921
 30
0.0
 11
0.0
 21
0.6912513519062658
 31
0.0
210
0.0
220
0.0
230
1.0
 40
0.7233258666276729
 41
0.0
 42
6.283185307179586
  0
ELLIPSE
  5
11E
330
118
100
AcDbEntity
  8
レイヤー 1
 62
   250
420
  2299925
370
    13
100
AcDbEllipse
 10
109.4410636181479
 20
-133.4439724821455
 30
0.0
 11
0.0
 21
0.7068667223951866
 31
0.0
210
0.0
220
0.0
230
1.0
 40
0.7073468977019627
 41
0.0
 42
6.283185307179586
  0
ENDBLK
  5
11B
330
118
100
AcDbEntity
  8
0
100
AcDbBlockEnd
  0
BLOCK
  5
121
330
11F
100
AcDbEntity
  8
0
100
AcDbBlockBegin
  2
Block_19
 70
     0
 10
0.0
 20
0.0
 30
0.0
  3
Block_19
  1

  0
ELLIPSE
  5
123
330
11F
100
AcDbEntity
  8
レイヤー 1
 62
   250
420
  2299925
370
    13
100
AcDbEllipse
 10
110.9446265591704
 20
-137.4182466679005
 30
0.0
 11
0.0
 21
0.7098517908088074
 31
0.0
210
0.0
220
0.0
230
1.0
 40
0.7043723628636453
 41
0.0
 42
6.283185307179586
  0
ELLIPSE
  5
124
330
11F
100
AcDbEntity
  8
レイヤー 1
 62
   250
420
  2299925
370
    13
100
AcDbEllipse
 10
110.9160238737226
 20
-134.614540479319
 30
0.0
 11
0.0
 21
0.6912513519061054
 31
0.0
210
0.0
220
0.0
230
1.0
 40
0.7233258666278407
 41
0.0
 42
6.283185307179586
  0
ELLIPSE
  5
125
330
11F
100
AcDbEntity
  8
レイヤー 1
 62
   250
420
  2299925
370
    13
100
AcDbEllipse
 10
110.8901865129204
 20
-131.9948495873731
 30
0.0
 11
0.0
 21
0.706866722395347
 31
0.0
210
0.0
220
0.0
230
1.0
 40
0.7073468977018022
 41
0.0
 42
6.283185307179586
  0
ENDBLK
  5
122
330
11F
100
AcDbEntity
  8
0
100
AcDbBlockEnd
  0
BLOCK
  5
128
330
126
100
AcDbEntity
  8
0
100
AcDbBlockBegin
  2
Block_20
 70
     0
 10
0.0
 20
0.0
 30
0.0
  3
Block_20
  1

  0
ELLIPSE
  5
12A
330
126
100
AcDbEntity
  8
レイヤー 1
 62
   250
420
  2299925
370
    13
100
AcDbEllipse
 10
112.2911827541193
 20
-136.0716904729516
 30
0.0
 11
0.0
 21
0.7098517908084866
 31
0.0
210
0.0
220
0.0
230
1.0
 40
0.7043723628639637
 41
0.0
 42
6.283185307179586
  0
ELLIPSE
  5
12B
330
126
100
AcDbEntity
  8
レイヤー 1
 62
   250
420
  2299925
370
    13
100
AcDbEllipse
 10
112.2625800686716
 20
-133.2679842843703
 30
0.0
 11
0.0
 21
0.6912513519065062
 31
0.0
210
0.0
220
0.0
230
1.0
 40
0.7233258666274211
 41
0.0
 42
6.283185307179586
  0
ELLIPSE
  5
12C
330
126
100
AcDbEntity
  8
レイヤー 1
 62
   250
420
  2299925
370
    13
100
AcDbEllipse
 10
112.236742707869
 20
-130.6482933924241
 30
0.0
 11
0.0
 21
0.7068667223954272
 31
0.0
210
0.0
220
0.0
230
1.0
 40
0.7073468977012681
 41
0.0
 42
6.283185307179586
  0
ENDBLK
  5
129
330
126
100
AcDbEntity
  8
0
100
AcDbBlockEnd
  0
BLOCK
  5
12F
330
12D
100
AcDbEntity
  8
0
100
AcDbBlockBegin
  2
Block_21
 70
     0
 10
0.0
 20
0.0
 30
0.0
  3
Block_21
  1

  0
ELLIPSE
  5
131
330
12D
100
AcDbEntity
  8
レイヤー 1
 62
   250
420
  2299925
370
    13
100
AcDbEllipse
 10
113.7690729689431
 20
-134.7338002575714
 30
0.0
 11
0.0
 21
0.7098517908087271
 31
0.0
210
0.0
220
0.0
230
1.0
 40
0.704372362863725
 41
0.0
 42
6.283185307179586
  0
ELLIPSE
  5
132
330
12D
100
AcDbEntity
  8
レイヤー 1
 62
   250
420
  2299925
370
    13
100
AcDbEllipse
 10
113.7404702834958
 20
-131.93009406899
 30
0.0
 11
0.0
 21
0.6912513519065062
 31
0.0
210
0.0
220
0.0
230
1.0
 40
0.7233258666281174
 41
0.0
 42
6.283185307179586
  0
ENDBLK
  5
130
330
12D
100
AcDbEntity
  8
0
100
AcDbBlockEnd
  0
ENDSEC
  0
SECTION
  2
ENTITIES
  0
INSERT
  5
7A
330
70
100
AcDbEntity
  8
レイヤー 1
100
AcDbBlockReference
  2
Block_0
 10
0.0
 20
0.0
 30
0.0
  0
LWPOLYLINE
  5
80
330
70
100
AcDbEntity
  8
レイヤー 1
 62
   250
420
  2299925
370
    25
100
AcDbPolyline
 90
        1
 70
     0
 43
0.0
 10
125.6152907436388
 20
-162.5851093291946
  0
LWPOLYLINE
  5
81
330
70
100
AcDbEntity
  8
レイヤー 1
 62
   250
420
  2299925
370
    25
100
AcDbPolyline
 90
        1
 70
     0
 43
0.0
 10
125.6152907436388
 20
-163.0853129275444
  0
SPLINE
  5
82
330
70
100
AcDbEntity
  8
レイヤー 1
 62
   250
420
  2299925
370
     9
100
AcDbSpline
210
0.0
220
0.0
230
1.0
 70
     9
 71
     3
 72
    17
 73
    13
 74
     0
 42
0.0000000001
 43
0.0000000001
 40
0.0
 40
0.0
 40
0.0
 40
0.0
 40
1.0
 40
1.0
 40
1.0
 40
2.0
 40
2.0
 40
2.0
 40
3.0
 40
3.0
 40
3.0
 40
4.0
 40
4.0
 40
4.0
 40
4.0
 10
124.8757860748461
 20
-167.5853108682955
 30
0.0
 10
124.8757860748461
 20
-167.5298542030436
 30
0.0
 10
124.8310185759882
 20
-167.4850514264089
 30
0.0
 10
124.7758794107283
 20
-167.4850514264089
 30
0.0
 10
124.7207755232452
 20
-167.4850514264089
 30
0.0
 10
124.6759727466104
 20
-167.5298542030436
 30
0.0
 10
124.6759727466104
 20
-167.5853108682955
 30
0.0
 10
124.6759727466104
 20
-167.6404147557786
 30
0.0
 10
124.7207755232452
 20
-167.6852175324133
 30
0.0
 10
124.7758794107283
 20
-167.6852175324133
 30
0.0
 10
124.8310185759882
 20
-167.6852175324133
 30
0.0
 10
124.8757860748461
 20
-167.6404147557786
 30
0.0
 10
124.8757860748461
 20
-167.5853108682955
 30
0.0
  0
SPLINE
  5
83
330
70
100
AcDbEntity
  8
レイヤー 1
 62
   250
420
  2299925
370
     9
100
AcDbSpline
210
0.0
220
0.0
230
1.0
 70
     9
 71
     3
 72
    17
 73
    13
 74
     0
 42
0.0000000001
 43
0.0000000001
 40
0.0
 40
0.0
 40
0.0
 40
0.0
 40
1.0
 40
1.0
 40
1.0
 40
2.0
 40
2.0
 40
2.0
 40
3.0
 40
3.0
 40
3.0
 40
4.0
 40
4.0
 40
4.0
 40
4.0
 10
84.87692063400523
 20
-163.5851990259024
 30
0.0
 10
84.87692063400523
 20
-163.5297361338232
 30
0.0
 10
84.83211785623915
 20
-163.4852861338342
 30
0.0
 10
84.77701396736391
 20
-163.4852861338342
 30
0.0
 10
84.72120452293346
 20
-163.4852861338342
 30
0.0
 10
84.67640174516674
 20
-163.5297361338232
 30
0.0
 10
84.67640174516674
 20
-163.5851990259024
 30
0.0
 10
84.67640174516674
 20
-163.6403381911624
 30
0.0
 10
84.72120452293346
 20
-163.6851056900202
 30
0.0
 10
84.77701396736391
 20
-163.6851056900202
 30
0.0
 10
84.83211785623915
 20
-163.6851056900202
 30
0.0
 10
84.87692063400523
 20
-163.6403381911624
 30
0.0
 10
84.87692063400523
 20
-163.5851990259024
 30
0.0
  0
SPLINE
  5
84
330
70
100
AcDbEntity
  8
レイヤー 1
 62
   250
420
  2299925
370
     9
100
AcDbSpline
210
0.0
220
0.0
230
1.0
 70
     9
 71
     3
 72
    17
 73
    13
 74
     0
 42
0.0000000001
 43
0.0000000001
 40
0.0
 40
0.0
 40
0.0
 40
0.0
 40
1.0
 40
1.0
 40
1.0
 40
2.0
 40
2.0
 40
2.0
 40
3.0
 40
3.0
 40
3.0
 40
4.0
 40
4.0
 40
4.0
 40
4.0
 10
88.87667979967243
 20
-167.5853108682955
 30
0.0
 10
88.87667979967243
 20
-167.5298542030436
 30
0.0
 10
88.83187702190602
 20
-167.4850514264089
 30
0.0
 10
88.77677313303079
 20
-167.4850514264089
 30
0.0
 10
88.72163396637803
 20
-167.4850514264089
 30
0.0
 10
88.67686646638883
 20
-167.5298542030436
 30
0.0
 10
88.67686646638883
 20
-167.5853108682955
 30
0.0
 10
88.67686646638883
 20
-167.6404147557786
 30
0.0
 10
88.72163396637803
 20
-167.6852175324133
 30
0.0
 10
88.77677313303079
 20
-167.6852175324133
 30
0.0
 10
88.83187702190602
 20
-167.6852175324133
 30
0.0
 10
88.87667979967243
 20
-167.6404147557786
 30
0.0
 10
88.87667979967243
 20
-167.5853108682955
 30
0.0
  0
SPLINE
  5
85
330
70
100
AcDbEntity
  8
レイヤー 1
 62
   250
420
  2299925
370
     9
100
AcDbSpline
210
0.0
220
0.0
230
1.0
 70
     9
 71
     3
 72
    17
 73
    13
 74
     0
 42
0.0000000001
 43
0.0000000001
 40
0.0
 40
0.0
 40
0.0
 40
0.0
 40
1.0
 40
1.0
 40
1.0
 40
2.0
 40
2.0
 40
2.0
 40
3.0
 40
3.0
 40
3.0
 40
4.0
 40
4.0
 40
4.0
 40
4.0
 10
84.87692063400523
 20
-153.6192294734117
 30
0.0
 10
84.87692063400523
 20
-153.5637728081599
 30
0.0
 10
84.83211785623915
 20
-153.5189700315251
 30
0.0
 10
84.77701396736391
 20
-153.5189700315251
 30
0.0
 10
84.72120452293346
 20
-153.5189700315251
 30
0.0
 10
84.67640174516674
 20
-153.5637728081599
 30
0.0
 10
84.67640174516674
 20
-153.6192294734117
 30
0.0
 10
84.67640174516674
 20
-153.6743333608948
 30
0.0
 10
84.72120452293346
 20
-153.7191361375295
 30
0.0
 10
84.77701396736391
 20
-153.7191361375295
 30
0.0
 10
84.83211785623915
 20
-153.7191361375295
 30
0.0
 10
84.87692063400523
 20
-153.6743333608948
 30
0.0
 10
84.87692063400523
 20
-153.6192294734117
 30
0.0
  0
LINE
  5
86
330
70
100
AcDbEntity
  8
レイヤー 1
 62
   250
420
  2299925
370
     9
100
AcDbLine
 10
88.77677313539001
 20
-167.5853108682955
 30
0.0
 11
124.8371338504287
 21
-167.5853108682955
 31
0.0
  0
LINE
  5
87
330
70
100
AcDbEntity
  8
レイヤー 1
 62
   250
420
  2299925
370
     9
100
AcDbLine
 10
88.77677313303079
 20
-165.3253106481751
 30
0.0
 11
88.77677313303079
 21
-168.5850830650114
 31
0.0
  0
LINE
  5
88
330
70
100
AcDbEntity
  8
レイヤー 1
 62
   250
420
  2299925
370
     9
100
AcDbLine
 10
124.7758794107283
 20
-165.6250306405286
 30
0.0
 11
124.7758794107283
 21
-168.5850830650114
 31
0.0
  0
INSERT
  5
8A
330
70
100
AcDbEntity
  8
レイヤー 1
100
AcDbBlockReference
  2
Block_1
 10
0.0
 20
0.0
 30
0.0
  0
LINE
  5
96
330
70
100
AcDbEntity
  8
レイヤー 1
 62
   250
420
  2299925
370
     9
100
AcDbLine
 10
84.77701396736391
 20
-153.5848462282656
 30
0.0
 11
84.77701396736391
 21
-163.5848462257659
 31
0.0
  0
LINE
  5
97
330
70
100
AcDbEntity
  8
レイヤー 1
 62
   250
420
  2299925
370
     9
100
AcDbLine
 10
86.74071618909509
 20
-153.5875147519986
 30
0.0
 11
83.78136924539067
 21
-153.5875147519986
 31
0.0
  0
LINE
  5
98
330
70
100
AcDbEntity
  8
レイヤー 1
 62
   250
420
  2299925
370
     9
100
AcDbLine
 10
87.03697896679903
 20
-163.5851990259024
 30
0.0
 11
83.77653618983616
 21
-163.5851990259024
 31
0.0
  0
INSERT
  5
9A
330
70
100
AcDbEntity
  8
レイヤー 1
100
AcDbBlockReference
  2
Block_3
 10
0.0
 20
0.0
 30
0.0
  0
INSERT
  5
A7
330
70
100
AcDbEntity
  8
レイヤー 1
100
AcDbBlockReference
  2
Block_5
 10
0.0
 20
0.0
 30
0.0
  0
LINE
  5
B3
330
70
100
AcDbEntity
  8
レイヤー 1
 62
   250
420
  2299925
370
     9
100
AcDbLine
 10
88.19166051533677
 20
-164.1703117118857
 30
0.0
 11
87.32588901185192
 21
-164.6706865810965
 31
0.0
  0
LINE
  5
B4
330
70
100
AcDbEntity
  8
レイヤー 1
 62
   250
420
  2299925
370
     9
100
AcDbLine
 10
88.19166051533677
 20
-164.1703117118857
 30
0.0
 11
85.59563713045617
 21
-166.7663390502096
 31
0.0
  0
LINE
  5
B5
330
70
100
AcDbEntity
  8
レイヤー 1
 62
   250
420
  2299925
370
     9
100
AcDbLine
 10
88.19166051533677
 20
-164.1703117118857
 30
0.0
 11
87.69178454911402
 21
-165.036582118409
 31
0.0
  0
INSERT
  5
B7
330
70
100
AcDbEntity
  8
レイヤー 1
100
AcDbBlockReference
  2
Block_7
 10
0.0
 20
0.0
 30
0.0
  0
LINE
  5
CC
330
70
100
AcDbEntity
  8
レイヤー 1
 62
   250
420
  2299925
370
     9
100
AcDbLine
 10
89.99655527271874
 20
-158.1121158250367
 30
0.0
 11
90.86232677624852
 21
-157.6117409559029
 31
0.0
  0
LINE
  5
CD
330
70
100
AcDbEntity
  8
レイヤー 1
 62
   250
420
  2299925
370
     9
100
AcDbLine
 10
89.99655527271874
 20
-158.1121158250367
 30
0.0
 11
94.40417053420242
 21
-153.7045007547039
 31
0.0
  0
LINE
  5
CE
330
70
100
AcDbEntity
  8
レイヤー 1
 62
   250
420
  2299925
370
     9
100
AcDbLine
 10
89.99655527271874
 20
-158.1121158250367
 30
0.0
 11
90.49643123901912
 21
-157.2458454185589
 31
0.0
  0
LINE
  5
CF
330
70
100
AcDbEntity
  8
レイヤー 1
 62
   250
420
  2299925
370
     9
100
AcDbLine
 10
104.9977792020586
 20
-149.157849098184
 30
0.0
 11
108.5514552572435
 21
-149.157849098184
 31
0.0
  0
LINE
  5
D0
330
70
100
AcDbEntity
  8
レイヤー 1
 62
   250
420
  2299925
370
     9
100
AcDbLine
 10
108.9241282623221
 20
-149.4990760644701
 30
0.0
 11
104.5975165453532
 21
-149.5577438657596
 31
0.0
  0
LINE
  5
D1
330
70
100
AcDbEntity
  8
レイヤー 1
 62
   250
420
  2299925
370
     9
100
AcDbLine
 10
104.9977792015597
 20
-145.8888087350879
 30
0.0
 11
104.9977792015597
 21
-149.1578490772338
 31
0.0
  0
LINE
  5
D2
330
70
100
AcDbEntity
  8
レイヤー 1
 62
   250
420
  2299925
370
     9
100
AcDbLine
 10
104.6518982661051
 20
-145.5714054080951
 30
0.0
 11
104.5981384238821
 21
-149.5458048466944
 31
0.0
  0
LWPOLYLINE
  5
D3
330
70
100
AcDbEntity
  8
レイヤー 1
 62
   250
420
  2299925
370
     9
100
AcDbPolyline
 90
        8
 70
     1
 43
0.0
 10
109.0733447646984
 20
-149.1475934564959
 10
104.9978164869431
 20
-145.4265926162693
 10
104.9980332280435
 20
-134.7578489922893
 10
104.7979517836496
 20
-134.7578489922893
 10
104.6558329315552
 20
-145.5611665017678
 10
108.9297654096856
 20
-149.4964690849857
 10
119.333277357014
 20
-149.357930537524
 10
119.333277357014
 20
-149.157849098184
  0
LINE
  5
D4
330
70
100
AcDbEntity
  8
レイヤー 1
 62
   250
420
  2299925
370
     9
100
AcDbLine
 10
104.9977792020586
 20
-149.157849098184
 30
0.0
 11
106.7085380670825
 21
-147.4470902331601
 31
0.0
  0
LINE
  5
D5
330
70
100
AcDbEntity
  8
レイヤー 1
 62
   250
420
  2299925
370
    13
100
AcDbLine
 10
104.9978164869431
 20
-145.4265926162693
 30
0.0
 11
117.2538127160709
 21
-133.317984284172
 31
0.0
  0
LINE
  5
D6
330
70
100
AcDbEntity
  8
レイヤー 1
 62
   250
420
  2299925
370
     9
100
AcDbLine
 10
109.084602149796
 20
-149.1312055247906
 30
0.0
 11
120.0082185530965
 21
-138.2075891214904
 31
0.0
  0
LINE
  5
D7
330
70
100
AcDbEntity
  8
レイヤー 1
 62
   250
420
  2299925
370
     9
100
AcDbLine
 10
104.831428037563
 20
-134.7578490061751
 30
0.0
 11
113.1839315821219
 21
-128.1929960072949
 31
0.0
  0
LINE
  5
D8
330
70
100
AcDbEntity
  8
レイヤー 1
 62
   250
420
  2299925
370
    13
100
AcDbLine
 10
119.3332773659516
 20
-149.330791454302
 30
0.0
 11
128.3646474668359
 21
-139.3722884502207
 31
0.0
  0
INSERT
  5
DA
330
70
100
AcDbEntity
  8
レイヤー 1
100
AcDbBlockReference
  2
Block_9
 10
0.0
 20
0.0
 30
0.0
  0
INSERT
  5
E1
330
70
100
AcDbEntity
  8
レイヤー 1
100
AcDbBlockReference
  2
Block_10
 10
0.0
 20
0.0
 30
0.0
  0
INSERT
  5
E8
330
70
100
AcDbEntity
  8
レイヤー 1
100
AcDbBlockReference
  2
Block_11
 10
0.0
 20
0.0
 30
0.0
  0
INSERT
  5
EF
330
70
100
AcDbEntity
  8
レイヤー 1
100
AcDbBlockReference
  2
Block_12
 10
0.0
 20
0.0
 30
0.0
  0
INSERT
  5
F6
330
70
100
AcDbEntity
  8
レイヤー 1
100
AcDbBlockReference
  2
Block_13
 10
0.0
 20
0.0
 30
0.0
  0
INSERT
  5
FD
330
70
100
AcDbEntity
  8
レイヤー 1
100
AcDbBlockReference
  2
Block_14
 10
0.0
 20
0.0
 30
0.0
  0
INSERT
  5
104
330
70
100
AcDbEntity
  8
レイヤー 1
100
AcDbBlockReference
  2
Block_15
 10
0.0
 20
0.0
 30
0.0
  0
INSERT
  5
10B
330
70
100
AcDbEntity
  8
レイヤー 1
100
AcDbBlockReference
  2
Block_16
 10
0.0
 20
0.0
 30
0.0
  0
INSERT
  5
112
330
70
100
AcDbEntity
  8
レイヤー 1
100
AcDbBlockReference
  2
Block_17
 10
0.0
 20
0.0
 30
0.0
  0
INSERT
  5
119
330
70
100
AcDbEntity
  8
レイヤー 1
100
AcDbBlockReference
  2
Block_18
 10
0.0
 20
0.0
 30
0.0
  0
INSERT
  5
120
330
70
100
AcDbEntity
  8
レイヤー 1
100
AcDbBlockReference
  2
Block_19
 10
0.0
 20
0.0
 30
0.0
  0
INSERT
  5
127
330
70
100
AcDbEntity
  8
レイヤー 1
100
AcDbBlockReference
  2
Block_20
 10
0.0
 20
0.0
 30
0.0
  0
INSERT
  5
12E
330
70
100
AcDbEntity
  8
レイヤー 1
100
AcDbBlockReference
  2
Block_21
 10
0.0
 20
0.0
 30
0.0
  0
ELLIPSE
  5
133
330
70
100
AcDbEntity
  8
レイヤー 1
 62
   250
420
  2299925
370
    13
100
AcDbEllipse
 10
115.015668995052
 20
-133.4872042314624
 30
0.0
 11
0.0
 21
0.7098517908087271
 31
0.0
210
0.0
220
0.0
230
1.0
 40
0.704372362863725
 41
0.0
 42
6.283185307179586
  0
ENDSEC
  0
SECTION
  2
OBJECTS
  0
DICTIONARY
  5
C
330
0
100
AcDbDictionary
281
     1
  3
ACAD_COLOR
350
63
  3
ACAD_DETAILVIEWSTYLE
350
6A
  3
ACAD_GROUP
350
D
  3
ACAD_LAYOUT
350
62
  3
ACAD_MATERIAL
350
10
  3
ACAD_MLEADERSTYLE
350
66
  3
ACAD_MLINESTYLE
350
5F
  3
ACAD_PLOTSETTINGS
350
61
  3
ACAD_PLOTSTYLENAME
350
E
  3
ACAD_SCALELIST
350
42
  3
ACAD_SECTIONVIEWSTYLE
350
68
  3
ACAD_TABLESTYLE
350
64
  3
ACAD_VISUALSTYLE
350
29
  3
ACDB_RECOMPOSE_DATA
350
13C
  3
AcDbVariableDictionary
350
134
  0
DICTIONARY
  5
63
102
{ACAD_REACTORS
330
C
102
}
330
C
100
AcDbDictionary
281
     1
  0
DICTIONARY
  5
6A
102
{ACAD_REACTORS
330
C
102
}
330
C
100
AcDbDictionary
281
     1
  3
Imperial24
350
6B
  0
DICTIONARY
  5
D
102
{ACAD_REACTORS
330
C
102
}
330
C
100
AcDbDictionary
281
     1
  0
DICTIONARY
  5
62
102
{ACAD_REACTORS
330
C
102
}
330
C
100
AcDbDictionary
281
     1
  3
Layout1
350
6F
  3
Layout2
350
77
  3
Model
350
73
  0
DICTIONARY
  5
10
102
{ACAD_REACTORS
330
C
102
}
330
C
100
AcDbDictionary
281
     1
  3
ByBlock
350
19
  3
ByLayer
350
11
  3
Global
350
21
  0
DICTIONARY
  5
66
102
{ACAD_REACTORS
330
C
102
}
330
C
100
AcDbDictionary
281
     1
  3
Standard
350
67
  0
DICTIONARY
  5
5F
102
{ACAD_REACTORS
330
C
102
}
330
C
100
AcDbDictionary
281
     1
  3
Standard
350
60
  0
DICTIONARY
  5
61
102
{ACAD_REACTORS
330
C
102
}
330
C
100
AcDbDictionary
281
     1
  0
ACDBDICTIONARYWDFLT
  5
E
102
{ACAD_REACTORS
330
C
102
}
330
C
100
AcDbDictionary
281
     1
  3
Normal
350
F
100
AcDbDictionaryWithDefault
340
F
  0
DICTIONARY
  5
42
102
{ACAD_REACTORS
330
C
102
}
330
C
100
AcDbDictionary
281
     1
  3
A0
350
43
  3
A1
350
44
  3
A2
350
45
  3
A3
350
46
  3
A4
350
47
  3
A5
350
48
  3
A6
350
49
  3
A7
350
4A
  3
A8
350
4B
  3
A9
350
4C
  3
B0
350
4D
  3
B1
350
4E
  3
B2
350
4F
  3
B3
350
50
  3
B4
350
51
  3
B5
350
52
  3
B6
350
53
  0
DICTIONARY
  5
68
102
{ACAD_REACTORS
330
C
102
}
330
C
100
AcDbDictionary
281
     1
  3
Imperial24
350
69
  0
DICTIONARY
  5
64
102
{ACAD_REACTORS
330
C
102
}
330
C
100
AcDbDictionary
281
     1
  3
Standard
350
65
  0
DICTIONARY
  5
29
102
{ACAD_REACTORS
330
C
102
}
330
C
100
AcDbDictionary
281
     1
  3
2dWireframe
350
2F
  3
Basic
350
2E
  3
Brighten
350
35
  3
ColorChange
350
39
  3
Conceptual
350
32
  3
Dim
350
34
  3
EdgeColorOff
350
41
  3
Facepattern
350
38
  3
Flat
350
2A
  3
FlatWithEdges
350
2B
  3
Gouraud
350
2C
  3
GouraudWithEdges
350
2D
  3
Hidden
350
31
  3
JitterOff
350
3F
  3
Linepattern
350
37
  3
OverhangOff
350
40
  3
Realistic
350
33
  3
Shaded
350
3E
  3
Shaded with edges
350
3D
  3
Shades of Gray
350
3A
  3
Sketchy
350
3B
  3
Thicken
350
36
  3
Wireframe
350
30
  3
X-Ray
350
3C
  0
XRECORD
  5
13C
102
{ACAD_REACTORS
330
C
102
}
330
C
100
AcDbXrecord
280
     1
 90
        1
330
65
  0
DICTIONARY
  5
134
102
{ACAD_REACTORS
330
C
102
}
330
C
100
AcDbDictionary
281
     1
  3
CANNOSCALE
350
139
  3
CMLEADERSTYLE
350
136
  3
CTABLESTYLE
350
135
  3
CVIEWDETAILSTYLE
350
137
  3
CVIEWSECTIONSTYLE
350
138
  0
ACDBDETAILVIEWSTYLE
  5
6B
102
{ACAD_XDICTIONARY
360
171
102
}
102
{ACAD_REACTORS
330
6A
102
}
330
6A
100
AcDbModelDocViewStyle
 70
     0
  3
Imperial24
290
     0
100
AcDbDetailViewStyle
 70
     0
 71
     0
 90
        3
 71
     1
340
55
 62
   256
 40
0.24
340
0
 62
   256
 40
0.24
300

 40
0.36
280
     3
 71
     2
340
5D
 90
       25
 62
   256
 71
     3
340
55
 62
   256
 40
0.24
 90
        1
 40
0.75
 90
        1
300
%<\AcVar ViewType \f "%tc1">% %<\AcVar ViewDetailId>%\PSCALE %<\AcVar ViewScale \f "%sn">%
 71
     4
340
5D
 90
       25
 62
   256
340
5D
 90
       25
 62
   256
280
     0
  0
LAYOUT
  5
6F
102
{ACAD_REACTORS
330
62
102
}
330
62
100
AcDbPlotSettings
  1

  2

  4

  6

 40
0.0
 41
0.0
 42
0.0
 43
0.0
 44
0.0
 45
0.0
 46
0.0
 47
0.0
 48
0.0
 49
0.0
140
0.0
141
0.0
142
1.0
143
1.0
 70
   688
 72
     0
 73
     0
 74
     5
  7

 75
    16
147
1.0
 76
     0
 77
     2
 78
   300
148
0.0
149
0.0
100
AcDbLayout
  1
Layout1
 70
     1
 71
     1
 10
0.0
 20
0.0
 11
12.0
 21
9.0
 12
0.0
 22
0.0
 32
0.0
 14
0.0
 24
0.0
 34
0.0
 15
0.0
 25
0.0
 35
0.0
146
0.0
 13
0.0
 23
0.0
 33
0.0
 16
1.0
 26
0.0
 36
0.0
 17
0.0
 27
1.0
 37
0.0
 76
     0
330
6C
  0
LAYOUT
  5
77
102
{ACAD_REACTORS
330
62
102
}
330
62
100
AcDbPlotSettings
  1

  2

  4

  6

 40
0.0
 41
0.0
 42
0.0
 43
0.0
 44
0.0
 45
0.0
 46
0.0
 47
0.0
 48
0.0
 49
0.0
140
0.0
141
0.0
142
1.0
143
1.0
 70
   688
 72
     0
 73
     0
 74
     5
  7

 75
    16
147
1.0
 76
     0
 77
     2
 78
   300
148
0.0
149
0.0
100
AcDbLayout
  1
Layout2
 70
     1
 71
     2
 10
0.0
 20
0.0
 11
12.0
 21
9.0
 12
0.0
 22
0.0
 32
0.0
 14
0.0
 24
0.0
 34
0.0
 15
0.0
 25
0.0
 35
0.0
146
0.0
 13
0.0
 23
0.0
 33
0.0
 16
1.0
 26
0.0
 36
0.0
 17
0.0
 27
1.0
 37
0.0
 76
     0
330
74
  0
LAYOUT
  5
73
102
{ACAD_REACTORS
330
62
102
}
330
62
100
AcDbPlotSettings
  1

  2

  4

  6

 40
0.0
 41
0.0
 42
0.0
 43
0.0
 44
0.0
 45
0.0
 46
0.0
 47
0.0
 48
0.0
 49
0.0
140
0.0
141
0.0
142
1.0
143
1.0
 70
  1712
 72
     0
 73
     0
 74
     0
  7

 75
     0
147
1.0
 76
     0
 77
     2
 78
   300
148
0.0
149
0.0
100
AcDbLayout
  1
Model
 70
     1
 71
     0
 10
0.0
 20
0.0
 11
12.0
 21
9.0
 12
0.0
 22
0.0
 32
0.0
 14
0.0
 24
0.0
 34
0.0
 15
0.0
 25
0.0
 35
0.0
146
0.0
 13
0.0
 23
0.0
 33
0.0
 16
1.0
 26
0.0
 36
0.0
 17
0.0
 27
1.0
 37
0.0
 76
     0
330
70
  0
MATERIAL
  5
19
102
{ACAD_XDICTIONARY
360
1A
102
}
102
{ACAD_REACTORS
330
10
102
}
330
10
100
AcDbMaterial
  1
ByBlock
 72
     0
 43
0.0208333333333333
 43
0.0
 43
0.0
 43
0.0
 43
0.0
 43
0.0208333333333333
 43
0.0
 43
0.0
 43
0.0
 43
0.0
 43
1.0
 43
0.0
 43
0.0
 43
0.0
 43
0.0
 43
1.0
 77
     0
 47
0.0208333333333333
 47
0.0
 47
0.0
 47
0.0
 47
0.0
 47
0.0208333333333333
 47
0.0
 47
0.0
 47
0.0
 47
0.0
 47
1.0
 47
0.0
 47
0.0
 47
0.0
 47
0.0
 47
1.0
171
     0
 49
0.0208333333333333
 49
0.0
 49
0.0
 49
0.0
 49
0.0
 49
0.0208333333333333
 49
0.0
 49
0.0
 49
0.0
 49
0.0
 49
1.0
 49
0.0
 49
0.0
 49
0.0
 49
0.0
 49
1.0
175
     0
142
0.0208333333333333
142
0.0
142
0.0
142
0.0
142
0.0
142
0.0208333333333333
142
0.0
142
0.0
142
0.0
142
0.0
142
1.0
142
0.0
142
0.0
142
0.0
142
0.0
142
1.0
179
     0
144
0.0208333333333333
144
0.0
144
0.0
144
0.0
144
0.0
144
0.0208333333333333
144
0.0
144
0.0
144
0.0
144
0.0
144
1.0
144
0.0
144
0.0
144
0.0
144
0.0
144
1.0
147
0.0208333333333333
147
0.0
147
0.0
147
0.0
147
0.0
147
0.0208333333333333
147
0.0
147
0.0
147
0.0
147
0.0
147
1.0
147
0.0
147
0.0
147
0.0
147
0.0
147
1.0
  0
MATERIAL
  5
11
102
{ACAD_XDICTIONARY
360
12
102
}
102
{ACAD_REACTORS
330
10
102
}
330
10
100
AcDbMaterial
  1
ByLayer
 72
     0
 43
0.0208333333333333
 43
0.0
 43
0.0
 43
0.0
 43
0.0
 43
0.0208333333333333
 43
0.0
 43
0.0
 43
0.0
 43
0.0
 43
1.0
 43
0.0
 43
0.0
 43
0.0
 43
0.0
 43
1.0
 77
     0
 47
0.0208333333333333
 47
0.0
 47
0.0
 47
0.0
 47
0.0
 47
0.0208333333333333
 47
0.0
 47
0.0
 47
0.0
 47
0.0
 47
1.0
 47
0.0
 47
0.0
 47
0.0
 47
0.0
 47
1.0
171
     0
 49
0.0208333333333333
 49
0.0
 49
0.0
 49
0.0
 49
0.0
 49
0.0208333333333333
 49
0.0
 49
0.0
 49
0.0
 49
0.0
 49
1.0
 49
0.0
 49
0.0
 49
0.0
 49
0.0
 49
1.0
175
     0
142
0.0208333333333333
142
0.0
142
0.0
142
0.0
142
0.0
142
0.0208333333333333
142
0.0
142
0.0
142
0.0
142
0.0
142
1.0
142
0.0
142
0.0
142
0.0
142
0.0
142
1.0
179
     0
144
0.0208333333333333
144
0.0
144
0.0
144
0.0
144
0.0
144
0.0208333333333333
144
0.0
144
0.0
144
0.0
144
0.0
144
1.0
144
0.0
144
0.0
144
0.0
144
0.0
144
1.0
147
0.0208333333333333
147
0.0
147
0.0
147
0.0
147
0.0
147
0.0208333333333333
147
0.0
147
0.0
147
0.0
147
0.0
147
1.0
147
0.0
147
0.0
147
0.0
147
0.0
147
1.0
  0
MATERIAL
  5
21
102
{ACAD_XDICTIONARY
360
22
102
}
102
{ACAD_REACTORS
330
10
102
}
330
10
100
AcDbMaterial
  1
Global
 72
     0
 43
0.0208333333333333
 43
0.0
 43
0.0
 43
0.0
 43
0.0
 43
0.0208333333333333
 43
0.0
 43
0.0
 43
0.0
 43
0.0
 43
1.0
 43
0.0
 43
0.0
 43
0.0
 43
0.0
 43
1.0
 77
     0
 47
0.0208333333333333
 47
0.0
 47
0.0
 47
0.0
 47
0.0
 47
0.0208333333333333
 47
0.0
 47
0.0
 47
0.0
 47
0.0
 47
1.0
 47
0.0
 47
0.0
 47
0.0
 47
0.0
 47
1.0
171
     0
 49
0.0208333333333333
 49
0.0
 49
0.0
 49
0.0
 49
0.0
 49
0.0208333333333333
 49
0.0
 49
0.0
 49
0.0
 49
0.0
 49
1.0
 49
0.0
 49
0.0
 49
0.0
 49
0.0
 49
1.0
175
     0
142
0.0208333333333333
142
0.0
142
0.0
142
0.0
142
0.0
142
0.0208333333333333
142
0.0
142
0.0
142
0.0
142
0.0
142
1.0
142
0.0
142
0.0
142
0.0
142
0.0
142
1.0
179
     0
144
0.0208333333333333
144
0.0
144
0.0
144
0.0
144
0.0
144
0.0208333333333333
144
0.0
144
0.0
144
0.0
144
0.0
144
1.0
144
0.0
144
0.0
144
0.0
144
0.0
144
1.0
147
0.0208333333333333
147
0.0
147
0.0
147
0.0
147
0.0
147
0.0208333333333333
147
0.0
147
0.0
147
0.0
147
0.0
147
1.0
147
0.0
147
0.0
147
0.0
147
0.0
147
1.0
  0
MLEADERSTYLE
  5
67
102
{ACAD_XDICTIONARY
360
16D
102
}
102
{ACAD_REACTORS
330
66
102
}
330
66
100
AcDbMLeaderStyle
179
     2
170
     2
171
     1
172
     0
 90
        2
 40
0.0
 41
0.0
173
     1
 91
-1056964608
340
5B
 92
       -2
290
     1
 42
0.09
291
     1
 43
0.36
  3
Standard
 44
0.18
300

342
55
174
     1
178
     6
175
     1
176
     0
 93
-1056964608
 45
0.18
292
     0
297
     0
 46
0.18
 94
-1056964608
 47
1.0
 49
1.0
140
1.0
293
     1
141
0.0
294
     1
177
     0
142
1.0
295
     0
296
     0
143
0.125
271
     0
272
     9
273
     9
  0
MLINESTYLE
  5
60
102
{ACAD_REACTORS
330
5F
102
}
330
5F
100
AcDbMlineStyle
  2
STANDARD
 70
     0
  3

 62
   256
 51
90.0
 52
90.0
 71
     2
 49
0.5
 62
   256
  6
BYLAYER
 49
-0.5
 62
   256
  6
BYLAYER
  0
ACDBPLACEHOLDER
  5
F
102
{ACAD_REACTORS
330
E
102
}
330
E
  0
SCALE
  5
43
102
{ACAD_REACTORS
330
42
102
}
330
42
100
AcDbScale
 70
     0
300
1:1
140
1.0
141
1.0
290
     1
  0
SCALE
  5
44
102
{ACAD_REACTORS
330
42
102
}
330
42
100
AcDbScale
 70
     0
300
1/128" = 1'-0"
140
0.0078125
141
12.0
290
     0
  0
SCALE
  5
45
102
{ACAD_REACTORS
330
42
102
}
330
42
100
AcDbScale
 70
     0
300
1/64" = 1'-0"
140
0.015625
141
12.0
290
     0
  0
SCALE
  5
46
102
{ACAD_REACTORS
330
42
102
}
330
42
100
AcDbScale
 70
     0
300
1/32" = 1'-0"
140
0.03125
141
12.0
290
     0
  0
SCALE
  5
47
102
{ACAD_REACTORS
330
42
102
}
330
42
100
AcDbScale
 70
     0
300
1/16" = 1'-0"
140
0.0625
141
12.0
290
     0
  0
SCALE
  5
48
102
{ACAD_REACTORS
330
42
102
}
330
42
100
AcDbScale
 70
     0
300
3/32" = 1'-0"
140
0.09375
141
12.0
290
     0
  0
SCALE
  5
49
102
{ACAD_REACTORS
330
42
102
}
330
42
100
AcDbScale
 70
     0
300
1/8" = 1'-0"
140
0.125
141
12.0
290
     0
  0
SCALE
  5
4A
102
{ACAD_REACTORS
330
42
102
}
330
42
100
AcDbScale
 70
     0
300
3/16" = 1'-0"
140
0.1875
141
12.0
290
     0
  0
SCALE
  5
4B
102
{ACAD_REACTORS
330
42
102
}
330
42
100
AcDbScale
 70
     0
300
1/4" = 1'-0"
140
0.25
141
12.0
290
     0
  0
SCALE
  5
4C
102
{ACAD_REACTORS
330
42
102
}
330
42
100
AcDbScale
 70
     0
300
3/8" = 1'-0"
140
0.375
141
12.0
290
     0
  0
SCALE
  5
4D
102
{ACAD_REACTORS
330
42
102
}
330
42
100
AcDbScale
 70
     0
300
1/2" = 1'-0"
140
0.5
141
12.0
290
     0
  0
SCALE
  5
4E
102
{ACAD_REACTORS
330
42
102
}
330
42
100
AcDbScale
 70
     0
300
3/4" = 1'-0"
140
0.75
141
12.0
290
     0
  0
SCALE
  5
4F
102
{ACAD_REACTORS
330
42
102
}
330
42
100
AcDbScale
 70
     0
300
1" = 1'-0"
140
1.0
141
12.0
290
     0
  0
SCALE
  5
50
102
{ACAD_REACTORS
330
42
102
}
330
42
100
AcDbScale
 70
     0
300
1-1/2" = 1'-0"
140
1.5
141
12.0
290
     0
  0
SCALE
  5
51
102
{ACAD_REACTORS
330
42
102
}
330
42
100
AcDbScale
 70
     0
300
3" = 1'-0"
140
3.0
141
12.0
290
     0
  0
SCALE
  5
52
102
{ACAD_REACTORS
330
42
102
}
330
42
100
AcDbScale
 70
     0
300
6" = 1'-0"
140
6.0
141
12.0
290
     0
  0
SCALE
  5
53
102
{ACAD_REACTORS
330
42
102
}
330
42
100
AcDbScale
 70
     0
300
1'-0" = 1'-0"
140
12.0
141
12.0
290
     0
  0
ACDBSECTIONVIEWSTYLE
  5
69
102
{ACAD_XDICTIONARY
360
16F
102
}
102
{ACAD_REACTORS
330
68
102
}
330
68
100
AcDbModelDocViewStyle
 70
     0
  3
Imperial24
290
     0
100
AcDbSectionViewStyle
 70
     0
 71
     0
 90
       78
 71
     1
340
55
 62
   256
 40
0.24
340
0
340
0
 62
   256
 40
0.24
300
I, O, Q, S, X, Z
 40
0.48
 90
        3
 40
0.18
 90
        1
 71
     2
340
5D
 90
       25
 62
   256
340
5D
 90
       50
 62
   256
 40
0.24
 40
0.0
 40
0.24
 71
     3
340
55
 62
   256
 40
0.24
 90
        1
 40
0.75
 90
        1
300
%<\AcVar ViewType \f "%tc1">% %<\AcVar ViewSectionStartId>%-%<\AcVar ViewSectionEndId>%\PSCALE %<\AcVar ViewScale \f "%sn">%
 71
     4
 62
   256
 62
   257
300
ANSI31
 40
1.0
 90
        0
290
     0
290
     0
 90
        6
 40
0.0
 40
1.570796326794896
 40
0.2617993877991494
 40
1.308996938995747
 40
-0.2617993877991494
 40
1.832595714594046
  0
TABLESTYLE
  5
65
102
{ACAD_XDICTIONARY
360
13A
102
}
102
{ACAD_REACTORS
330
64
102
}
330
64
100
AcDbTableStyle
280
     0
  3
Standard
 70
     0
 71
     0
 40
0.06
 41
0.06
280
     0
281
     0
  7
Standard
140
0.18
170
     2
 62
     0
 63
     7
283
     0
 90
      512
 91
        0
  1

274
    -2
284
     1
 64
     0
275
    -2
285
     1
 65
     0
276
    -2
286
     1
 66
     0
277
    -2
287
     1
 67
     0
278
    -2
288
     1
 68
     0
279
    -2
289
     1
 69
     0
  7
Standard
140
0.25
170
     5
 62
     0
 63
     7
283
     0
 90
      512
 91
        0
  1

274
    -2
284
     1
 64
     0
275
    -2
285
     1
 65
     0
276
    -2
286
     1
 66
     0
277
    -2
287
     1
 67
     0
278
    -2
288
     1
 68
     0
279
    -2
289
     1
 69
     0
  7
Standard
140
0.18
170
     5
 62
     0
 63
     7
283
     0
 90
      512
 91
        0
  1

274
    -2
284
     1
 64
     0
275
    -2
285
     1
 65
     0
276
    -2
286
     1
 66
     0
277
    -2
287
     1
 67
     0
278
    -2
288
     1
 68
     0
279
    -2
289
     1
 69
     0
  0
VISUALSTYLE
  5
2F
102
{ACAD_XDICTIONARY
360
147
102
}
102
{ACAD_REACTORS
330
29
102
}
330
29
100
AcDbVisualStyle
  2
2dWireframe
 70
     4
177
     2
291
     0
 71
     0
176
     1
 72
     2
176
     1
 73
     0
176
     1
 90
        0
176
     1
 40
0.6
176
     1
 41
30.0
176
     1
 63
     7
421
 16777215
176
     1
 74
     1
176
     1
 91
        4
176
     1
 64
     7
176
     1
 65
   257
176
     1
 75
     1
176
     1
175
     1
176
     1
 42
1.0
176
     1
 92
        0
176
     1
 66
   257
176
     1
 43
1.0
176
     1
 76
     1
176
     1
 77
     6
176
     1
 78
     2
176
     1
 67
     7
176
     1
 79
     5
176
     1
170
     0
176
     1
171
     0
176
     1
290
     0
176
     1
 93
        1
176
     1
 44
0.0
176
     1
173
     0
176
     1
1001
ACAD
1000
AcDbSavedByObjectVersion
1070
     0
  0
VISUALSTYLE
  5
2E
102
{ACAD_XDICTIONARY
360
145
102
}
102
{ACAD_REACTORS
330
29
102
}
330
29
100
AcDbVisualStyle
  2
Basic
 70
     7
177
     2
291
     1
 71
     1
176
     1
 72
     0
176
     1
 73
     1
176
     1
 90
        0
176
     1
 40
0.6
176
     1
 41
30.0
176
     1
 63
     7
421
 16777215
176
     1
 74
     0
176
     1
 91
        4
176
     1
 64
     7
176
     1
 65
   257
176
     1
 75
     1
176
     1
175
     1
176
     1
 42
1.0
176
     1
 92
        8
176
     1
 66
     7
176
     1
 43
1.0
176
     1
 76
     1
176
     1
 77
     6
176
     1
 78
     2
176
     1
 67
     7
176
     1
 79
     5
176
     1
170
     0
176
     1
171
     0
176
     1
290
     0
176
     1
 93
        1
176
     1
 44
0.0
176
     1
173
     0
176
     1
1001
ACAD
1000
AcDbSavedByObjectVersion
1070
     0
  0
VISUALSTYLE
  5
35
102
{ACAD_XDICTIONARY
360
153
102
}
102
{ACAD_REACTORS
330
29
102
}
330
29
100
AcDbVisualStyle
  2
Brighten
 70
    12
177
     2
291
     1
 71
     2
176
     1
 72
     2
176
     1
 73
     0
176
     1
 90
        0
176
     1
 40
0.6
176
     1
 41
30.0
176
     1
 63
     7
421
 16777215
176
     1
 74
     1
176
     1
 91
        4
176
     1
 64
     7
176
     1
 65
   257
176
     1
 75
     1
176
     1
175
     1
176
     1
 42
1.0
176
     1
 92
        8
176
     1
 66
     7
176
     1
 43
1.0
176
     1
 76
     1
176
     1
 77
     6
176
     1
 78
     2
176
     1
 67
     7
176
     1
 79
     5
176
     1
170
     0
176
     1
171
     0
176
     1
290
     0
176
     1
 93
        1
176
     1
 44
50.0
176
     1
173
     0
176
     1
1001
ACAD
1000
AcDbSavedByObjectVersion
1070
     0
  0
VISUALSTYLE
  5
39
102
{ACAD_XDICTIONARY
360
15B
102
}
102
{ACAD_REACTORS
330
29
102
}
330
29
100
AcDbVisualStyle
  2
ColorChange
 70
    16
177
     2
291
     1
 71
     2
176
     1
 72
     2
176
     1
 73
     3
176
     1
 90
        0
176
     1
 40
0.6
176
     1
 41
30.0
176
     1
 63
     8
421
  8421504
176
     1
 74
     1
176
     1
 91
        4
176
     1
 64
     7
176
     1
 65
   257
176
     1
 75
     1
176
     1
175
     1
176
     1
 42
1.0
176
     1
 92
        8
176
     1
 66
     8
424
  8421504
176
     1
 43
1.0
176
     1
 76
     1
176
     1
 77
     6
176
     1
 78
     2
176
     1
 67
     7
176
     1
 79
     5
176
     1
170
     0
176
     1
171
     0
176
     1
290
     0
176
     1
 93
        1
176
     1
 44
0.0
176
     1
173
     0
176
     1
1001
ACAD
1000
AcDbSavedByObjectVersion
1070
     0
  0
VISUALSTYLE
  5
32
102
{ACAD_XDICTIONARY
360
14D
102
}
102
{ACAD_REACTORS
330
29
102
}
330
29
100
AcDbVisualStyle
  2
Conceptual
 70
     9
177
     2
291
     0
 71
     3
176
     1
 72
     2
176
     1
 73
     0
176
     1
 90
        0
176
     1
 40
0.6
176
     1
 41
30.0
176
     1
 63
     7
421
 16777215
176
     1
 74
     2
176
     1
 91
        2
176
     1
 64
     7
176
     1
 65
   257
176
     1
 75
     1
176
     1
175
     1
176
     1
 42
179.0
176
     1
 92
        8
176
     1
 66
     7
176
     1
 43
1.0
176
     1
 76
     1
176
     1
 77
     6
176
     1
 78
     2
176
     1
 67
     7
176
     1
 79
     3
176
     1
170
     0
176
     1
171
     0
176
     1
290
     0
176
     1
 93
        1
176
     1
 44
0.0
176
     1
173
     0
176
     1
1001
ACAD
1000
AcDbSavedByObjectVersion
1070
     0
  0
VISUALSTYLE
  5
34
102
{ACAD_XDICTIONARY
360
151
102
}
102
{ACAD_REACTORS
330
29
102
}
330
29
100
AcDbVisualStyle
  2
Dim
 70
    11
177
     2
291
     1
 71
     2
176
     1
 72
     2
176
     1
 73
     0
176
     1
 90
        0
176
     1
 40
0.6
176
     1
 41
30.0
176
     1
 63
     7
421
 16777215
176
     1
 74
     1
176
     1
 91
        4
176
     1
 64
     7
176
     1
 65
   257
176
     1
 75
     1
176
     1
175
     1
176
     1
 42
1.0
176
     1
 92
        8
176
     1
 66
     7
176
     1
 43
1.0
176
     1
 76
     1
176
     1
 77
     6
176
     1
 78
     2
176
     1
 67
     7
176
     1
 79
     5
176
     1
170
     0
176
     1
171
     0
176
     1
290
     0
176
     1
 93
        1
176
     1
 44
-50.0
176
     1
173
     0
176
     1
1001
ACAD
1000
AcDbSavedByObjectVersion
1070
     0
  0
VISUALSTYLE
  5
41
102
{ACAD_XDICTIONARY
360
16B
102
}
102
{ACAD_REACTORS
330
29
102
}
330
29
100
AcDbVisualStyle
  2
EdgeColorOff
 70
    22
177
     2
291
     1
 71
     2
176
     0
 72
     2
176
     0
 73
     0
176
     0
 90
        0
176
     0
 40
0.6
176
     0
 41
30.0
176
     0
 63
     7
421
 16777215
176
     0
 74
     1
176
     0
 91
        4
176
     0
 64
     7
176
     0
 65
   257
176
     0
 75
     1
176
     0
175
     1
176
     0
 42
1.0
176
     0
 92
        8
176
     2
 66
     7
176
     0
 43
1.0
176
     0
 76
     1
176
     0
 77
     6
176
     0
 78
     2
176
     0
 67
     7
176
     0
 79
     5
176
     0
170
     0
176
     0
171
     0
176
     0
290
     0
176
     0
 93
        1
176
     0
 44
0.0
176
     0
173
     0
176
     0
1001
ACAD
1000
AcDbSavedByObjectVersion
1070
     0
  0
VISUALSTYLE
  5
38
102
{ACAD_XDICTIONARY
360
159
102
}
102
{ACAD_REACTORS
330
29
102
}
330
29
100
AcDbVisualStyle
  2
Facepattern
 70
    15
177
     2
291
     1
 71
     2
176
     1
 72
     2
176
     1
 73
     0
176
     1
 90
        0
176
     1
 40
0.6
176
     1
 41
30.0
176
     1
 63
     7
421
 16777215
176
     1
 74
     1
176
     1
 91
        4
176
     1
 64
     7
176
     1
 65
   257
176
     1
 75
     1
176
     1
175
     1
176
     1
 42
1.0
176
     1
 92
        8
176
     1
 66
     7
176
     1
 43
1.0
176
     1
 76
     1
176
     1
 77
     6
176
     1
 78
     2
176
     1
 67
     7
176
     1
 79
     5
176
     1
170
     0
176
     1
171
     0
176
     1
290
     0
176
     1
 93
        1
176
     1
 44
0.0
176
     1
173
     0
176
     1
1001
ACAD
1000
AcDbSavedByObjectVersion
1070
     0
  0
VISUALSTYLE
  5
2A
102
{ACAD_XDICTIONARY
360
13D
102
}
102
{ACAD_REACTORS
330
29
102
}
330
29
100
AcDbVisualStyle
  2
Flat
 70
     0
177
     2
291
     1
 71
     2
176
     1
 72
     1
176
     1
 73
     1
176
     1
 90
        2
176
     1
 40
0.6
176
     1
 41
30.0
176
     1
 63
     7
421
 16777215
176
     1
 74
     0
176
     1
 91
        0
176
     1
 64
     7
176
     1
 65
   257
176
     1
 75
     1
176
     1
175
     1
176
     1
 42
1.0
176
     1
 92
        8
176
     1
 66
     7
176
     1
 43
1.0
176
     1
 76
     1
176
     1
 77
     6
176
     1
 78
     2
176
     1
 67
     7
176
     1
 79
     5
176
     1
170
     0
176
     1
171
     0
176
     1
290
     0
176
     1
 93
       13
176
     1
 44
0.0
176
     1
173
     0
176
     1
1001
ACAD
1000
AcDbSavedByObjectVersion
1070
     0
  0
VISUALSTYLE
  5
2B
102
{ACAD_XDICTIONARY
360
13F
102
}
102
{ACAD_REACTORS
330
29
102
}
330
29
100
AcDbVisualStyle
  2
FlatWithEdges
 70
     1
177
     2
291
     1
 71
     2
176
     1
 72
     1
176
     1
 73
     1
176
     1
 90
        2
176
     1
 40
0.6
176
     1
 41
30.0
176
     1
 63
     7
421
 16777215
176
     1
 74
     1
176
     1
 91
        0
176
     1
 64
     7
176
     1
 65
   257
176
     1
 75
     1
176
     1
175
     1
176
     1
 42
1.0
176
     1
 92
        0
176
     1
 66
   257
176
     1
 43
1.0
176
     1
 76
     1
176
     1
 77
     6
176
     1
 78
     2
176
     1
 67
     7
176
     1
 79
     5
176
     1
170
     0
176
     1
171
     0
176
     1
290
     0
176
     1
 93
       13
176
     1
 44
0.0
176
     1
173
     0
176
     1
1001
ACAD
1000
AcDbSavedByObjectVersion
1070
     0
  0
VISUALSTYLE
  5
2C
102
{ACAD_XDICTIONARY
360
141
102
}
102
{ACAD_REACTORS
330
29
102
}
330
29
100
AcDbVisualStyle
  2
Gouraud
 70
     2
177
     2
291
     1
 71
     2
176
     1
 72
     2
176
     1
 73
     1
176
     1
 90
        2
176
     1
 40
0.6
176
     1
 41
30.0
176
     1
 63
     7
421
 16777215
176
     1
 74
     0
176
     1
 91
        0
176
     1
 64
     7
176
     1
 65
   257
176
     1
 75
     1
176
     1
175
     1
176
     1
 42
1.0
176
     1
 92
        0
176
     1
 66
     7
176
     1
 43
1.0
176
     1
 76
     1
176
     1
 77
     6
176
     1
 78
     2
176
     1
 67
     7
176
     1
 79
     5
176
     1
170
     0
176
     1
171
     0
176
     1
290
     0
176
     1
 93
       13
176
     1
 44
0.0
176
     1
173
     0
176
     1
1001
ACAD
1000
AcDbSavedByObjectVersion
1070
     0
  0
VISUALSTYLE
  5
2D
102
{ACAD_XDICTIONARY
360
143
102
}
102
{ACAD_REACTORS
330
29
102
}
330
29
100
AcDbVisualStyle
  2
GouraudWithEdges
 70
     3
177
     2
291
     1
 71
     2
176
     1
 72
     2
176
     1
 73
     1
176
     1
 90
        2
176
     1
 40
0.6
176
     1
 41
30.0
176
     1
 63
     7
421
 16777215
176
     1
 74
     1
176
     1
 91
        0
176
     1
 64
     7
176
     1
 65
   257
176
     1
 75
     1
176
     1
175
     1
176
     1
 42
1.0
176
     1
 92
        0
176
     1
 66
   257
176
     1
 43
1.0
176
     1
 76
     1
176
     1
 77
     6
176
     1
 78
     2
176
     1
 67
     7
176
     1
 79
     5
176
     1
170
     0
176
     1
171
     0
176
     1
290
     0
176
     1
 93
       13
176
     1
 44
0.0
176
     1
173
     0
176
     1
1001
ACAD
1000
AcDbSavedByObjectVersion
1070
     0
  0
VISUALSTYLE
  5
31
102
{ACAD_XDICTIONARY
360
14B
102
}
102
{ACAD_REACTORS
330
29
102
}
330
29
100
AcDbVisualStyle
  2
Hidden
 70
     6
177
     2
291
     0
 71
     1
176
     1
 72
     2
176
     1
 73
     2
176
     1
 90
        0
176
     1
 40
0.6
176
     1
 41
30.0
176
     1
 63
     7
421
 16777215
176
     1
 74
     2
176
     1
 91
        2
176
     1
 64
     7
176
     1
 65
   257
176
     1
 75
     2
176
     1
175
     1
176
     1
 42
40.0
176
     1
 92
        0
176
     1
 66
   257
176
     1
 43
1.0
176
     1
 76
     1
176
     1
 77
     6
176
     1
 78
     2
176
     1
 67
     7
176
     1
 79
     3
176
     1
170
     0
176
     1
171
     0
176
     1
290
     0
176
     1
 93
        1
176
     1
 44
0.0
176
     1
173
     0
176
     1
1001
ACAD
1000
AcDbSavedByObjectVersion
1070
     0
  0
VISUALSTYLE
  5
3F
102
{ACAD_XDICTIONARY
360
167
102
}
102
{ACAD_REACTORS
330
29
102
}
330
29
100
AcDbVisualStyle
  2
JitterOff
 70
    20
177
     2
291
     1
 71
     2
176
     0
 72
     2
176
     0
 73
     0
176
     0
 90
        0
176
     0
 40
0.6
176
     0
 41
30.0
176
     0
 63
     7
421
 16777215
176
     0
 74
     1
176
     0
 91
        4
176
     0
 64
     7
176
     0
 65
   257
176
     0
 75
     1
176
     0
175
     1
176
     0
 42
1.0
176
     0
 92
       10
176
     2
 66
     7
176
     0
 43
1.0
176
     0
 76
     1
176
     0
 77
     6
176
     0
 78
     2
176
     0
 67
     7
176
     0
 79
     5
176
     0
170
     0
176
     0
171
     0
176
     0
290
     0
176
     0
 93
        1
176
     0
 44
0.0
176
     0
173
     0
176
     0
1001
ACAD
1000
AcDbSavedByObjectVersion
1070
     0
  0
VISUALSTYLE
  5
37
102
{ACAD_XDICTIONARY
360
157
102
}
102
{ACAD_REACTORS
330
29
102
}
330
29
100
AcDbVisualStyle
  2
Linepattern
 70
    14
177
     2
291
     1
 71
     2
176
     1
 72
     2
176
     1
 73
     0
176
     1
 90
        0
176
     1
 40
0.6
176
     1
 41
30.0
176
     1
 63
     7
421
 16777215
176
     1
 74
     1
176
     1
 91
        4
176
     1
 64
     7
176
     1
 65
   257
176
     1
 75
     7
176
     1
175
     7
176
     1
 42
1.0
176
     1
 92
        8
176
     1
 66
     7
176
     1
 43
1.0
176
     1
 76
     1
176
     1
 77
     6
176
     1
 78
     2
176
     1
 67
     7
176
     1
 79
     5
176
     1
170
     0
176
     1
171
     0
176
     1
290
     0
176
     1
 93
        1
176
     1
 44
0.0
176
     1
173
     0
176
     1
1001
ACAD
1000
AcDbSavedByObjectVersion
1070
     0
  0
VISUALSTYLE
  5
40
102
{ACAD_XDICTIONARY
360
169
102
}
102
{ACAD_REACTORS
330
29
102
}
330
29
100
AcDbVisualStyle
  2
OverhangOff
 70
    21
177
     2
291
     1
 71
     2
176
     0
 72
     2
176
     0
 73
     0
176
     0
 90
        0
176
     0
 40
0.6
176
     0
 41
30.0
176
     0
 63
     7
421
 16777215
176
     0
 74
     1
176
     0
 91
        4
176
     0
 64
     7
176
     0
 65
   257
176
     0
 75
     1
176
     0
175
     1
176
     0
 42
1.0
176
     0
 92
        9
176
     2
 66
     7
176
     0
 43
1.0
176
     0
 76
     1
176
     0
 77
     6
176
     0
 78
     2
176
     0
 67
     7
176
     0
 79
     5
176
     0
170
     0
176
     0
171
     0
176
     0
290
     0
176
     0
 93
        1
176
     0
 44
0.0
176
     0
173
     0
176
     0
1001
ACAD
1000
AcDbSavedByObjectVersion
1070
     0
  0
VISUALSTYLE
  5
33
102
{ACAD_XDICTIONARY
360
14F
102
}
102
{ACAD_REACTORS
330
29
102
}
330
29
100
AcDbVisualStyle
  2
Realistic
 70
     8
177
     2
291
     0
 71
     2
176
     1
 72
     3
176
     1
 73
     0
176
     1
 90
        2
176
     1
 40
0.6
176
     1
 41
30.0
176
     1
 63
     7
421
 16777215
176
     1
 74
     0
176
     1
 91
        0
176
     1
 64
     7
176
     1
 65
   257
176
     1
 75
     1
176
     1
175
     1
176
     1
 42
1.0
176
     1
 92
        8
176
     1
 66
   257
176
     1
 43
1.0
176
     1
 76
     1
176
     1
 77
     6
176
     1
 78
     2
176
     1
 67
     7
176
     1
 79
     3
176
     1
170
     0
176
     1
171
     0
176
     1
290
     0
176
     1
 93
       13
176
     1
 44
0.0
176
     1
173
     0
176
     1
1001
ACAD
1000
AcDbSavedByObjectVersion
1070
     0
  0
VISUALSTYLE
  5
3E
102
{ACAD_XDICTIONARY
360
165
102
}
102
{ACAD_REACTORS
330
29
102
}
330
29
100
AcDbVisualStyle
  2
Shaded
 70
    27
177
     2
291
     0
 71
     2
176
     1
 72
     2
176
     1
 73
     1
176
     1
 90
        2
176
     1
 40
0.6
176
     1
 41
30.0
176
     1
 63
     7
421
 16777215
176
     1
 74
     0
176
     1
 91
        4
176
     1
 64
     7
176
     1
 65
   257
176
     1
 75
     1
176
     1
175
     1
176
     1
 42
1.0
176
     1
 92
        8
176
     1
 66
   257
176
     1
 43
1.0
176
     1
 76
     1
176
     1
 77
     6
176
     1
 78
     2
176
     1
 67
     8
425
  7895160
176
     1
 79
     3
176
     1
170
     0
176
     1
171
     0
176
     1
290
     0
176
     1
 93
        5
176
     1
 44
0.0
176
     1
173
     0
176
     1
1001
ACAD
1000
AcDbSavedByObjectVersion
1070
     0
  0
VISUALSTYLE
  5
3D
102
{ACAD_XDICTIONARY
360
163
102
}
102
{ACAD_REACTORS
330
29
102
}
330
29
100
AcDbVisualStyle
  2
Shaded with edges
 70
    26
177
     2
291
     0
 71
     2
176
     1
 72
     2
176
     1
 73
     1
176
     1
 90
        2
176
     1
 40
0.6
176
     1
 41
30.0
176
     1
 63
     7
421
 16777215
176
     1
 74
     1
176
     1
 91
        2
176
     1
 64
     7
176
     1
 65
   257
176
     1
 75
     2
176
     1
175
     1
176
     1
 42
1.0
176
     1
 92
        8
176
     1
 66
   257
176
     1
 43
1.0
176
     1
 76
     1
176
     1
 77
     6
176
     1
 78
     2
176
     1
 67
     7
176
     1
 79
     3
176
     1
170
     0
176
     1
171
     0
176
     1
290
     0
176
     1
 93
        5
176
     1
 44
0.0
176
     1
173
     0
176
     1
1001
ACAD
1000
AcDbSavedByObjectVersion
1070
     0
  0
VISUALSTYLE
  5
3A
102
{ACAD_XDICTIONARY
360
15D
102
}
102
{ACAD_REACTORS
330
29
102
}
330
29
100
AcDbVisualStyle
  2
Shades of Gray
 70
    23
177
     2
291
     0
 71
     2
176
     1
 72
     2
176
     1
 73
     3
176
     1
 90
        0
176
     1
 40
0.6
176
     1
 41
30.0
176
     1
 63
     7
421
 16777215
176
     1
 74
     2
176
     1
 91
        2
176
     1
 64
     7
176
     1
 65
     7
176
     1
 75
     1
176
     1
175
     1
176
     1
 42
40.0
176
     1
 92
        8
176
     1
 66
     7
176
     1
 43
1.0
176
     1
 76
     1
176
     1
 77
     6
176
     1
 78
     2
176
     1
 67
     7
176
     1
 79
     3
176
     1
170
     0
176
     1
171
     0
176
     1
290
     0
176
     1
 93
        1
176
     1
 44
0.0
176
     1
173
     0
176
     1
1001
ACAD
1000
AcDbSavedByObjectVersion
1070
     0
  0
VISUALSTYLE
  5
3B
102
{ACAD_XDICTIONARY
360
15F
102
}
102
{ACAD_REACTORS
330
29
102
}
330
29
100
AcDbVisualStyle
  2
Sketchy
 70
    24
177
     2
291
     0
 71
     1
176
     1
 72
     2
176
     1
 73
     2
176
     1
 90
        0
176
     1
 40
0.6
176
     1
 41
30.0
176
     1
 63
     7
421
 16777215
176
     1
 74
     2
176
     1
 91
        2
176
     1
 64
     7
176
     1
 65
     7
176
     1
 75
     1
176
     1
175
     1
176
     1
 42
40.0
176
     1
 92
       11
176
     1
 66
     7
176
     1
 43
1.0
176
     1
 76
     1
176
     1
 77
     6
176
     1
 78
     2
176
     1
 67
     7
176
     1
 79
     6
176
     1
170
     0
176
     1
171
     0
176
     1
290
     0
176
     1
 93
        1
176
     1
 44
0.0
176
     1
173
     0
176
     1
1001
ACAD
1000
AcDbSavedByObjectVersion
1070
     0
  0
VISUALSTYLE
  5
36
102
{ACAD_XDICTIONARY
360
155
102
}
102
{ACAD_REACTORS
330
29
102
}
330
29
100
AcDbVisualStyle
  2
Thicken
 70
    13
177
     2
291
     1
 71
     2
176
     1
 72
     2
176
     1
 73
     0
176
     1
 90
        0
176
     1
 40
0.6
176
     1
 41
30.0
176
     1
 63
     7
421
 16777215
176
     1
 74
     1
176
     1
 91
        4
176
     1
 64
     7
176
     1
 65
   257
176
     1
 75
     1
176
     1
175
     1
176
     1
 42
1.0
176
     1
 92
       12
176
     1
 66
     7
176
     1
 43
1.0
176
     1
 76
     1
176
     1
 77
     6
176
     1
 78
     2
176
     1
 67
     7
176
     1
 79
     5
176
     1
170
     0
176
     1
171
     0
176
     1
290
     0
176
     1
 93
        1
176
     1
 44
0.0
176
     1
173
     0
176
     1
1001
ACAD
1000
AcDbSavedByObjectVersion
1070
     0
  0
VISUALSTYLE
  5
30
102
{ACAD_XDICTIONARY
360
149
102
}
102
{ACAD_REACTORS
330
29
102
}
330
29
100
AcDbVisualStyle
  2
Wireframe
 70
     5
177
     2
291
     0
 71
     0
176
     1
 72
     2
176
     1
 73
     0
176
     1
 90
        0
176
     1
 40
0.6
176
     1
 41
30.0
176
     1
 63
     7
421
 16777215
176
     1
 74
     1
176
     1
 91
        4
176
     1
 64
     7
176
     1
 65
   257
176
     1
 75
     1
176
     1
175
     1
176
     1
 42
1.0
176
     1
 92
        0
176
     1
 66
   257
176
     1
 43
1.0
176
     1
 76
     1
176
     1
 77
     6
176
     1
 78
     2
176
     1
 67
     7
176
     1
 79
     3
176
     1
170
     0
176
     1
171
     0
176
     1
290
     0
176
     1
 93
        1
176
     1
 44
0.0
176
     1
173
     0
176
     1
1001
ACAD
1000
AcDbSavedByObjectVersion
1070
     0
  0
VISUALSTYLE
  5
3C
102
{ACAD_XDICTIONARY
360
161
102
}
102
{ACAD_REACTORS
330
29
102
}
330
29
100
AcDbVisualStyle
  2
X-Ray
 70
    25
177
     2
291
     0
 71
     2
176
     1
 72
     2
176
     1
 73
     1
176
     1
 90
        1
176
     1
 40
0.5
176
     1
 41
30.0
176
     1
 63
     7
421
 16777215
176
     1
 74
     1
176
     1
 91
        0
176
     1
 64
     7
176
     1
 65
   257
176
     1
 75
     1
176
     1
175
     1
176
     1
 42
1.0
176
     1
 92
        8
176
     1
 66
     7
176
     1
 43
1.0
176
     1
 76
     1
176
     1
 77
     6
176
     1
 78
     2
176
     1
 67
     7
176
     1
 79
     3
176
     1
170
     0
176
     1
171
     0
176
     1
290
     0
176
     1
 93
       13
176
     1
 44
0.0
176
     1
173
     0
176
     1
1001
ACAD
1000
AcDbSavedByObjectVersion
1070
     0
  0
DICTIONARYVAR
  5
139
102
{ACAD_REACTORS
330
134
102
}
330
134
100
DictionaryVariables
280
     0
  1
1:1
  0
DICTIONARYVAR
  5
136
102
{ACAD_REACTORS
330
134
102
}
330
134
100
DictionaryVariables
280
     0
  1
STANDARD
  0
DICTIONARYVAR
  5
135
102
{ACAD_REACTORS
330
134
102
}
330
134
100
DictionaryVariables
280
     0
  1
STANDARD
  0
DICTIONARYVAR
  5
137
102
{ACAD_REACTORS
330
134
102
}
330
134
100
DictionaryVariables
280
     0
  1
Imperial24
  0
DICTIONARYVAR
  5
138
102
{ACAD_REACTORS
330
134
102
}
330
134
100
DictionaryVariables
280
     0
  1
Imperial24
  0
DICTIONARY
  5
171
330
6B
100
AcDbDictionary
280
     1
281
     1
  3
ACAD_XREC_ROUNDTRIP
360
172
  0
DICTIONARY
  5
1A
330
19
100
AcDbDictionary
280
     1
281
     1
  3
BUMPTILE
360
1C
  3
DIFFUSETILE
360
1B
  3
OPACITYTILE
360
1F
  3
REFLECTIONTILE
360
1E
  3
REFRACTIONTILE
360
20
  3
SPECULARTILE
360
1D
  0
DICTIONARY
  5
12
330
11
100
AcDbDictionary
280
     1
281
     1
  3
BUMPTILE
360
14
  3
DIFFUSETILE
360
13
  3
OPACITYTILE
360
17
  3
REFLECTIONTILE
360
16
  3
REFRACTIONTILE
360
18
  3
SPECULARTILE
360
15
  0
DICTIONARY
  5
22
330
21
100
AcDbDictionary
280
     1
281
     1
  3
BUMPTILE
360
24
  3
DIFFUSETILE
360
23
  3
OPACITYTILE
360
27
  3
REFLECTIONTILE
360
26
  3
REFRACTIONTILE
360
28
  3
SPECULARTILE
360
25
  0
DICTIONARY
  5
16D
330
67
100
AcDbDictionary
280
     1
281
     1
  3
ACAD_XREC_ROUNDTRIP
360
16E
  0
DICTIONARY
  5
16F
330
69
100
AcDbDictionary
280
     1
281
     1
  3
ACAD_XREC_ROUNDTRIP
360
170
  0
DICTIONARY
  5
13A
330
65
100
AcDbDictionary
280
     1
281
     1
  3
ACAD_ROUNDTRIP_2008_TABLESTYLE_CELLSTYLEMAP
360
13B
  0
DICTIONARY
  5
147
330
2F
100
AcDbDictionary
280
     1
281
     1
  3
ACAD_XREC_ROUNDTRIP
360
148
  0
DICTIONARY
  5
145
330
2E
100
AcDbDictionary
280
     1
281
     1
  3
ACAD_XREC_ROUNDTRIP
360
146
  0
DICTIONARY
  5
153
330
35
100
AcDbDictionary
280
     1
281
     1
  3
ACAD_XREC_ROUNDTRIP
360
154
  0
DICTIONARY
  5
15B
330
39
100
AcDbDictionary
280
     1
281
     1
  3
ACAD_XREC_ROUNDTRIP
360
15C
  0
DICTIONARY
  5
14D
330
32
100
AcDbDictionary
280
     1
281
     1
  3
ACAD_XREC_ROUNDTRIP
360
14E
  0
DICTIONARY
  5
151
330
34
100
AcDbDictionary
280
     1
281
     1
  3
ACAD_XREC_ROUNDTRIP
360
152
  0
DICTIONARY
  5
16B
330
41
100
AcDbDictionary
280
     1
281
     1
  3
ACAD_XREC_ROUNDTRIP
360
16C
  0
DICTIONARY
  5
159
330
38
100
AcDbDictionary
280
     1
281
     1
  3
ACAD_XREC_ROUNDTRIP
360
15A
  0
DICTIONARY
  5
13D
330
2A
100
AcDbDictionary
280
     1
281
     1
  3
ACAD_XREC_ROUNDTRIP
360
13E
  0
DICTIONARY
  5
13F
330
2B
100
AcDbDictionary
280
     1
281
     1
  3
ACAD_XREC_ROUNDTRIP
360
140
  0
DICTIONARY
  5
141
330
2C
100
AcDbDictionary
280
     1
281
     1
  3
ACAD_XREC_ROUNDTRIP
360
142
  0
DICTIONARY
  5
143
330
2D
100
AcDbDictionary
280
     1
281
     1
  3
ACAD_XREC_ROUNDTRIP
360
144
  0
DICTIONARY
  5
14B
330
31
100
AcDbDictionary
280
     1
281
     1
  3
ACAD_XREC_ROUNDTRIP
360
14C
  0
DICTIONARY
  5
167
330
3F
100
AcDbDictionary
280
     1
281
     1
  3
ACAD_XREC_ROUNDTRIP
360
168
  0
DICTIONARY
  5
157
330
37
100
AcDbDictionary
280
     1
281
     1
  3
ACAD_XREC_ROUNDTRIP
360
158
  0
DICTIONARY
  5
169
330
40
100
AcDbDictionary
280
     1
281
     1
  3
ACAD_XREC_ROUNDTRIP
360
16A
  0
DICTIONARY
  5
14F
330
33
100
AcDbDictionary
280
     1
281
     1
  3
ACAD_XREC_ROUNDTRIP
360
150
  0
DICTIONARY
  5
165
330
3E
100
AcDbDictionary
280
     1
281
     1
  3
ACAD_XREC_ROUNDTRIP
360
166
  0
DICTIONARY
  5
163
330
3D
100
AcDbDictionary
280
     1
281
     1
  3
ACAD_XREC_ROUNDTRIP
360
164
  0
DICTIONARY
  5
15D
330
3A
100
AcDbDictionary
280
     1
281
     1
  3
ACAD_XREC_ROUNDTRIP
360
15E
  0
DICTIONARY
  5
15F
330
3B
100
AcDbDictionary
280
     1
281
     1
  3
ACAD_XREC_ROUNDTRIP
360
160
  0
DICTIONARY
  5
155
330
36
100
AcDbDictionary
280
     1
281
     1
  3
ACAD_XREC_ROUNDTRIP
360
156
  0
DICTIONARY
  5
149
330
30
100
AcDbDictionary
280
     1
281
     1
  3
ACAD_XREC_ROUNDTRIP
360
14A
  0
DICTIONARY
  5
161
330
3C
100
AcDbDictionary
280
     1
281
     1
  3
ACAD_XREC_ROUNDTRIP
360
162
  0
XRECORD
  5
172
102
{ACAD_REACTORS
330
171
102
}
330
171
100
AcDbXrecord
280
     1
102
DISPLAYNAME
  1
Imperial24
102
FLAGS
 90
        0
  0
XRECORD
  5
1C
102
{ACAD_REACTORS
330
1A
102
}
330
1A
100
AcDbXrecord
280
     1
270
     1
271
     1
  0
XRECORD
  5
1B
102
{ACAD_REACTORS
330
1A
102
}
330
1A
100
AcDbXrecord
280
     1
270
     1
271
     1
  0
XRECORD
  5
1F
102
{ACAD_REACTORS
330
1A
102
}
330
1A
100
AcDbXrecord
280
     1
270
     1
271
     1
  0
XRECORD
  5
1E
102
{ACAD_REACTORS
330
1A
102
}
330
1A
100
AcDbXrecord
280
     1
270
     1
271
     1
  0
XRECORD
  5
20
102
{ACAD_REACTORS
330
1A
102
}
330
1A
100
AcDbXrecord
280
     1
270
     1
271
     1
  0
XRECORD
  5
1D
102
{ACAD_REACTORS
330
1A
102
}
330
1A
100
AcDbXrecord
280
     1
270
     1
271
     1
  0
XRECORD
  5
14
102
{ACAD_REACTORS
330
12
102
}
330
12
100
AcDbXrecord
280
     1
270
     1
271
     1
  0
XRECORD
  5
13
102
{ACAD_REACTORS
330
12
102
}
330
12
100
AcDbXrecord
280
     1
270
     1
271
     1
  0
XRECORD
  5
17
102
{ACAD_REACTORS
330
12
102
}
330
12
100
AcDbXrecord
280
     1
270
     1
271
     1
  0
XRECORD
  5
16
102
{ACAD_REACTORS
330
12
102
}
330
12
100
AcDbXrecord
280
     1
270
     1
271
     1
  0
XRECORD
  5
18
102
{ACAD_REACTORS
330
12
102
}
330
12
100
AcDbXrecord
280
     1
270
     1
271
     1
  0
XRECORD
  5
15
102
{ACAD_REACTORS
330
12
102
}
330
12
100
AcDbXrecord
280
     1
270
     1
271
     1
  0
XRECORD
  5
24
102
{ACAD_REACTORS
330
22
102
}
330
22
100
AcDbXrecord
280
     1
270
     1
271
     1
  0
XRECORD
  5
23
102
{ACAD_REACTORS
330
22
102
}
330
22
100
AcDbXrecord
280
     1
270
     1
271
     1
  0
XRECORD
  5
27
102
{ACAD_REACTORS
330
22
102
}
330
22
100
AcDbXrecord
280
     1
270
     1
271
     1
  0
XRECORD
  5
26
102
{ACAD_REACTORS
330
22
102
}
330
22
100
AcDbXrecord
280
     1
270
     1
271
     1
  0
XRECORD
  5
28
102
{ACAD_REACTORS
330
22
102
}
330
22
100
AcDbXrecord
280
     1
270
     1
271
     1
  0
XRECORD
  5
25
102
{ACAD_REACTORS
330
22
102
}
330
22
100
AcDbXrecord
280
     1
270
     1
271
     1
  0
XRECORD
  5
16E
102
{ACAD_REACTORS
330
16D
102
}
330
16D
100
AcDbXrecord
280
     1
102
ACAD_ROUNDTRIP_2012_MLEADER_STYLE
298
     1
  0
XRECORD
  5
170
102
{ACAD_REACTORS
330
16F
102
}
330
16F
100
AcDbXrecord
280
     1
102
DISPLAYNAME
  1
Imperial24
102
FLAGS
 90
        0
  0
CELLSTYLEMAP
  5
13B
102
{ACAD_REACTORS
330
13A
102
}
330
13A
100
AcDbCellStyleMap
 90
        3
300
CELLSTYLE
  1
TABLEFORMAT_BEGIN
 90
        5
170
     1
 91
        0
 92
    32768
 62
   257
 93
        1
300
CONTENTFORMAT
  1
CONTENTFORMAT_BEGIN
 90
        0
 91
        0
 92
      512
 93
        0
300

 40
0.0
140
1.0
 94
        5
 62
     0
340
55
144
0.25
309
CONTENTFORMAT_END
171
     0
 94
        0
309
TABLEFORMAT_END
  1
CELLSTYLE_BEGIN
 90
        1
 91
        1
300
_TITLE
309
CELLSTYLE_END
300
CELLSTYLE
  1
TABLEFORMAT_BEGIN
 90
        5
170
     1
 91
        0
 92
        0
 62
   257
 93
        1
300
CONTENTFORMAT
  1
CONTENTFORMAT_BEGIN
 90
        0
 91
        0
 92
      512
 93
        0
300

 40
0.0
140
1.0
 94
        5
 62
     0
340
55
144
0.18
309
CONTENTFORMAT_END
171
     0
 94
        0
309
TABLEFORMAT_END
  1
CELLSTYLE_BEGIN
 90
        2
 91
        1
300
_HEADER
309
CELLSTYLE_END
300
CELLSTYLE
  1
TABLEFORMAT_BEGIN
 90
        5
170
     1
 91
        0
 92
        0
 62
   257
 93
        1
300
CONTENTFORMAT
  1
CONTENTFORMAT_BEGIN
 90
        0
 91
        0
 92
      512
 93
        0
300

 40
0.0
140
1.0
 94
        2
 62
     0
340
55
144
0.18
309
CONTENTFORMAT_END
171
     0
 94
        0
309
TABLEFORMAT_END
  1
CELLSTYLE_BEGIN
 90
        3
 91
        2
300
_DATA
309
CELLSTYLE_END
  0
XRECORD
  5
148
102
{ACAD_REACTORS
330
147
102
}
330
147
100
AcDbXrecord
280
     1
102
RTVSPost2010Prop28
280
     1
102
RTVSPost2010PropOp28
 70
     1
102
RTVSPost2010Prop29
280
     1
102
RTVSPost2010PropOp29
 70
     1
102
RTVSPost2010Prop30
280
     0
102
RTVSPost2010PropOp30
 70
     1
102
RTVSPost2010Prop31
280
     0
102
RTVSPost2010PropOp31
 70
     1
102
RTVSPost2010Prop32
280
     0
102
RTVSPost2010PropOp32
 70
     1
102
RTVSPost2010Prop33
280
     0
102
RTVSPost2010PropOp33
 70
     1
102
RTVSPost2010Prop34
280
     0
102
RTVSPost2010PropOp34
 70
     1
102
RTVSPost2010Prop35
280
     0
102
RTVSPost2010PropOp35
 70
     1
102
RTVSPost2010Prop36
280
     0
102
RTVSPost2010PropOp36
 70
     1
102
RTVSPost2010Prop37
 90
       50
102
RTVSPost2010PropOp37
 70
     1
102
RTVSPost2010Prop38
140
0.0
102
RTVSPost2010PropOp38
 70
     1
102
RTVSPost2010Prop39
140
1.0
102
RTVSPost2010PropOp39
 70
     1
102
RTVSPost2010Prop40
 90
        0
102
RTVSPost2010PropOp40
 70
     1
102
RTVSPost2010Prop41ColorIndex
 90
       18
102
RTVSPost2010Prop41ColorRGB
 90
        0
102
RTVSPost2010PropOp41
 70
     1
102
RTVSPost2010Prop42
 90
       50
102
RTVSPost2010PropOp42
 70
     1
102
RTVSPost2010Prop43
 90
        3
102
RTVSPost2010PropOp43
 70
     1
102
RTVSPost2010Prop44ColorIndex
 90
        5
102
RTVSPost2010Prop44ColorRGB
 90
      255
102
RTVSPost2010PropOp44
 70
     1
102
RTVSPost2010Prop45
280
     0
102
RTVSPost2010PropOp45
 70
     1
102
RTVSPost2010Prop46
 90
       50
102
RTVSPost2010PropOp46
 70
     1
102
RTVSPost2010Prop47
 90
       50
102
RTVSPost2010PropOp47
 70
     1
102
RTVSPost2010Prop48
 90
       50
102
RTVSPost2010PropOp48
 70
     1
102
RTVSPost2010Prop49
280
     0
102
RTVSPost2010PropOp49
 70
     1
102
RTVSPost2010Prop50
 90
       50
102
RTVSPost2010PropOp50
 70
     1
102
RTVSPost2010Prop51ColorIndex
 90
      256
102
RTVSPost2010Prop51ColorRGB
 90
-16777216
102
RTVSPost2010PropOp51
 70
     0
102
RTVSPost2010Prop52
140
1.0
102
RTVSPost2010PropOp52
 70
     0
102
RTVSPost2010Prop53
 90
        2
102
RTVSPost2010PropOp53
 70
     1
102
RTVSPost2010Prop54
  1
strokes_ogs.tif
102
RTVSPost2010PropOp54
 70
     1
102
RTVSPost2010Prop55
280
     0
102
RTVSPost2010PropOp55
 70
     1
102
RTVSPost2010Prop56
140
1.0
102
RTVSPost2010PropOp56
 70
     1
102
RTVSPost2010Prop57
140
1.0
102
RTVSPost2010PropOp57
 70
     1
  0
XRECORD
  5
146
102
{ACAD_REACTORS
330
145
102
}
330
145
100
AcDbXrecord
280
     1
102
RTVSPost2010Prop28
280
     0
102
RTVSPost2010PropOp28
 70
     1
102
RTVSPost2010Prop29
280
     1
102
RTVSPost2010PropOp29
 70
     1
102
RTVSPost2010Prop30
280
     1
102
RTVSPost2010PropOp30
 70
     1
102
RTVSPost2010Prop31
280
     0
102
RTVSPost2010PropOp31
 70
     1
102
RTVSPost2010Prop32
280
     0
102
RTVSPost2010PropOp32
 70
     1
102
RTVSPost2010Prop33
280
     0
102
RTVSPost2010PropOp33
 70
     1
102
RTVSPost2010Prop34
280
     0
102
RTVSPost2010PropOp34
 70
     1
102
RTVSPost2010Prop35
280
     0
102
RTVSPost2010PropOp35
 70
     1
102
RTVSPost2010Prop36
280
     0
102
RTVSPost2010PropOp36
 70
     1
102
RTVSPost2010Prop37
 90
       50
102
RTVSPost2010PropOp37
 70
     1
102
RTVSPost2010Prop38
140
0.0
102
RTVSPost2010PropOp38
 70
     1
102
RTVSPost2010Prop39
140
1.0
102
RTVSPost2010PropOp39
 70
     1
102
RTVSPost2010Prop40
 90
        0
102
RTVSPost2010PropOp40
 70
     1
102
RTVSPost2010Prop41ColorIndex
 90
       18
102
RTVSPost2010Prop41ColorRGB
 90
        0
102
RTVSPost2010PropOp41
 70
     1
102
RTVSPost2010Prop42
 90
       50
102
RTVSPost2010PropOp42
 70
     1
102
RTVSPost2010Prop43
 90
        3
102
RTVSPost2010PropOp43
 70
     1
102
RTVSPost2010Prop44ColorIndex
 90
        5
102
RTVSPost2010Prop44ColorRGB
 90
      255
102
RTVSPost2010PropOp44
 70
     1
102
RTVSPost2010Prop45
280
     0
102
RTVSPost2010PropOp45
 70
     1
102
RTVSPost2010Prop46
 90
       50
102
RTVSPost2010PropOp46
 70
     1
102
RTVSPost2010Prop47
 90
       50
102
RTVSPost2010PropOp47
 70
     1
102
RTVSPost2010Prop48
 90
       50
102
RTVSPost2010PropOp48
 70
     1
102
RTVSPost2010Prop49
280
     0
102
RTVSPost2010PropOp49
 70
     1
102
RTVSPost2010Prop50
 90
       50
102
RTVSPost2010PropOp50
 70
     1
102
RTVSPost2010Prop51ColorIndex
 90
      256
102
RTVSPost2010Prop51ColorRGB
 90
-16777216
102
RTVSPost2010PropOp51
 70
     0
102
RTVSPost2010Prop52
140
1.0
102
RTVSPost2010PropOp52
 70
     0
102
RTVSPost2010Prop53
 90
        2
102
RTVSPost2010PropOp53
 70
     1
102
RTVSPost2010Prop54
  1
strokes_ogs.tif
102
RTVSPost2010PropOp54
 70
     1
102
RTVSPost2010Prop55
280
     0
102
RTVSPost2010PropOp55
 70
     1
102
RTVSPost2010Prop56
140
1.0
102
RTVSPost2010PropOp56
 70
     1
102
RTVSPost2010Prop57
140
1.0
102
RTVSPost2010PropOp57
 70
     1
  0
XRECORD
  5
154
102
{ACAD_REACTORS
330
153
102
}
330
153
100
AcDbXrecord
280
     1
102
RTVSPost2010Prop28
280
     0
102
RTVSPost2010PropOp28
 70
     1
102
RTVSPost2010Prop29
280
     1
102
RTVSPost2010PropOp29
 70
     1
102
RTVSPost2010Prop30
280
     1
102
RTVSPost2010PropOp30
 70
     1
102
RTVSPost2010Prop31
280
     0
102
RTVSPost2010PropOp31
 70
     1
102
RTVSPost2010Prop32
280
     0
102
RTVSPost2010PropOp32
 70
     1
102
RTVSPost2010Prop33
280
     0
102
RTVSPost2010PropOp33
 70
     1
102
RTVSPost2010Prop34
280
     0
102
RTVSPost2010PropOp34
 70
     1
102
RTVSPost2010Prop35
280
     0
102
RTVSPost2010PropOp35
 70
     1
102
RTVSPost2010Prop36
280
     0
102
RTVSPost2010PropOp36
 70
     1
102
RTVSPost2010Prop37
 90
       50
102
RTVSPost2010PropOp37
 70
     1
102
RTVSPost2010Prop38
140
0.0
102
RTVSPost2010PropOp38
 70
     1
102
RTVSPost2010Prop39
140
1.0
102
RTVSPost2010PropOp39
 70
     1
102
RTVSPost2010Prop40
 90
        0
102
RTVSPost2010PropOp40
 70
     1
102
RTVSPost2010Prop41ColorIndex
 90
       18
102
RTVSPost2010Prop41ColorRGB
 90
        0
102
RTVSPost2010PropOp41
 70
     1
102
RTVSPost2010Prop42
 90
       50
102
RTVSPost2010PropOp42
 70
     1
102
RTVSPost2010Prop43
 90
        3
102
RTVSPost2010PropOp43
 70
     1
102
RTVSPost2010Prop44ColorIndex
 90
        5
102
RTVSPost2010Prop44ColorRGB
 90
      255
102
RTVSPost2010PropOp44
 70
     1
102
RTVSPost2010Prop45
280
     0
102
RTVSPost2010PropOp45
 70
     1
102
RTVSPost2010Prop46
 90
       50
102
RTVSPost2010PropOp46
 70
     1
102
RTVSPost2010Prop47
 90
       50
102
RTVSPost2010PropOp47
 70
     1
102
RTVSPost2010Prop48
 90
       50
102
RTVSPost2010PropOp48
 70
     1
102
RTVSPost2010Prop49
280
     0
102
RTVSPost2010PropOp49
 70
     1
102
RTVSPost2010Prop50
 90
       50
102
RTVSPost2010PropOp50
 70
     1
102
RTVSPost2010Prop51ColorIndex
 90
      256
102
RTVSPost2010Prop51ColorRGB
 90
-16777216
102
RTVSPost2010PropOp51
 70
     0
102
RTVSPost2010Prop52
140
1.0
102
RTVSPost2010PropOp52
 70
     0
102
RTVSPost2010Prop53
 90
        2
102
RTVSPost2010PropOp53
 70
     1
102
RTVSPost2010Prop54
  1
strokes_ogs.tif
102
RTVSPost2010PropOp54
 70
     1
102
RTVSPost2010Prop55
280
     0
102
RTVSPost2010PropOp55
 70
     1
102
RTVSPost2010Prop56
140
1.0
102
RTVSPost2010PropOp56
 70
     1
102
RTVSPost2010Prop57
140
1.0
102
RTVSPost2010PropOp57
 70
     1
  0
XRECORD
  5
15C
102
{ACAD_REACTORS
330
15B
102
}
330
15B
100
AcDbXrecord
280
     1
102
RTVSPost2010Prop28
280
     0
102
RTVSPost2010PropOp28
 70
     1
102
RTVSPost2010Prop29
280
     1
102
RTVSPost2010PropOp29
 70
     1
102
RTVSPost2010Prop30
280
     1
102
RTVSPost2010PropOp30
 70
     1
102
RTVSPost2010Prop31
280
     0
102
RTVSPost2010PropOp31
 70
     1
102
RTVSPost2010Prop32
280
     0
102
RTVSPost2010PropOp32
 70
     1
102
RTVSPost2010Prop33
280
     0
102
RTVSPost2010PropOp33
 70
     1
102
RTVSPost2010Prop34
280
     0
102
RTVSPost2010PropOp34
 70
     1
102
RTVSPost2010Prop35
280
     0
102
RTVSPost2010PropOp35
 70
     1
102
RTVSPost2010Prop36
280
     0
102
RTVSPost2010PropOp36
 70
     1
102
RTVSPost2010Prop37
 90
       50
102
RTVSPost2010PropOp37
 70
     1
102
RTVSPost2010Prop38
140
0.0
102
RTVSPost2010PropOp38
 70
     1
102
RTVSPost2010Prop39
140
1.0
102
RTVSPost2010PropOp39
 70
     1
102
RTVSPost2010Prop40
 90
        0
102
RTVSPost2010PropOp40
 70
     1
102
RTVSPost2010Prop41ColorIndex
 90
       18
102
RTVSPost2010Prop41ColorRGB
 90
        0
102
RTVSPost2010PropOp41
 70
     1
102
RTVSPost2010Prop42
 90
       50
102
RTVSPost2010PropOp42
 70
     1
102
RTVSPost2010Prop43
 90
        3
102
RTVSPost2010PropOp43
 70
     1
102
RTVSPost2010Prop44ColorIndex
 90
        5
102
RTVSPost2010Prop44ColorRGB
 90
      255
102
RTVSPost2010PropOp44
 70
     1
102
RTVSPost2010Prop45
280
     0
102
RTVSPost2010PropOp45
 70
     1
102
RTVSPost2010Prop46
 90
       50
102
RTVSPost2010PropOp46
 70
     1
102
RTVSPost2010Prop47
 90
       50
102
RTVSPost2010PropOp47
 70
     1
102
RTVSPost2010Prop48
 90
       50
102
RTVSPost2010PropOp48
 70
     1
102
RTVSPost2010Prop49
280
     0
102
RTVSPost2010PropOp49
 70
     1
102
RTVSPost2010Prop50
 90
       50
102
RTVSPost2010PropOp50
 70
     1
102
RTVSPost2010Prop51ColorIndex
 90
      256
102
RTVSPost2010Prop51ColorRGB
 90
-16777216
102
RTVSPost2010PropOp51
 70
     0
102
RTVSPost2010Prop52
140
1.0
102
RTVSPost2010PropOp52
 70
     0
102
RTVSPost2010Prop53
 90
        2
102
RTVSPost2010PropOp53
 70
     1
102
RTVSPost2010Prop54
  1
strokes_ogs.tif
102
RTVSPost2010PropOp54
 70
     1
102
RTVSPost2010Prop55
280
     0
102
RTVSPost2010PropOp55
 70
     1
102
RTVSPost2010Prop56
140
1.0
102
RTVSPost2010PropOp56
 70
     1
102
RTVSPost2010Prop57
140
1.0
102
RTVSPost2010PropOp57
 70
     1
  0
XRECORD
  5
14E
102
{ACAD_REACTORS
330
14D
102
}
330
14D
100
AcDbXrecord
280
     1
102
RTVSPost2010Prop28
280
     0
102
RTVSPost2010PropOp28
 70
     1
102
RTVSPost2010Prop29
280
     1
102
RTVSPost2010PropOp29
 70
     1
102
RTVSPost2010Prop30
280
     1
102
RTVSPost2010PropOp30
 70
     1
102
RTVSPost2010Prop31
280
     0
102
RTVSPost2010PropOp31
 70
     1
102
RTVSPost2010Prop32
280
     0
102
RTVSPost2010PropOp32
 70
     1
102
RTVSPost2010Prop33
280
     0
102
RTVSPost2010PropOp33
 70
     1
102
RTVSPost2010Prop34
280
     0
102
RTVSPost2010PropOp34
 70
     1
102
RTVSPost2010Prop35
280
     0
102
RTVSPost2010PropOp35
 70
     1
102
RTVSPost2010Prop36
280
     0
102
RTVSPost2010PropOp36
 70
     1
102
RTVSPost2010Prop37
 90
       50
102
RTVSPost2010PropOp37
 70
     1
102
RTVSPost2010Prop38
140
0.0
102
RTVSPost2010PropOp38
 70
     1
102
RTVSPost2010Prop39
140
1.0
102
RTVSPost2010PropOp39
 70
     1
102
RTVSPost2010Prop40
 90
        0
102
RTVSPost2010PropOp40
 70
     1
102
RTVSPost2010Prop41ColorIndex
 90
       18
102
RTVSPost2010Prop41ColorRGB
 90
        0
102
RTVSPost2010PropOp41
 70
     1
102
RTVSPost2010Prop42
 90
       50
102
RTVSPost2010PropOp42
 70
     1
102
RTVSPost2010Prop43
 90
        3
102
RTVSPost2010PropOp43
 70
     1
102
RTVSPost2010Prop44ColorIndex
 90
        5
102
RTVSPost2010Prop44ColorRGB
 90
      255
102
RTVSPost2010PropOp44
 70
     1
102
RTVSPost2010Prop45
280
     0
102
RTVSPost2010PropOp45
 70
     1
102
RTVSPost2010Prop46
 90
       50
102
RTVSPost2010PropOp46
 70
     1
102
RTVSPost2010Prop47
 90
       50
102
RTVSPost2010PropOp47
 70
     1
102
RTVSPost2010Prop48
 90
       50
102
RTVSPost2010PropOp48
 70
     1
102
RTVSPost2010Prop49
280
     0
102
RTVSPost2010PropOp49
 70
     1
102
RTVSPost2010Prop50
 90
       50
102
RTVSPost2010PropOp50
 70
     1
102
RTVSPost2010Prop51ColorIndex
 90
      256
102
RTVSPost2010Prop51ColorRGB
 90
-16777216
102
RTVSPost2010PropOp51
 70
     0
102
RTVSPost2010Prop52
140
1.0
102
RTVSPost2010PropOp52
 70
     0
102
RTVSPost2010Prop53
 90
        2
102
RTVSPost2010PropOp53
 70
     1
102
RTVSPost2010Prop54
  1
strokes_ogs.tif
102
RTVSPost2010PropOp54
 70
     1
102
RTVSPost2010Prop55
280
     0
102
RTVSPost2010PropOp55
 70
     1
102
RTVSPost2010Prop56
140
1.0
102
RTVSPost2010PropOp56
 70
     1
102
RTVSPost2010Prop57
140
1.0
102
RTVSPost2010PropOp57
 70
     1
  0
XRECORD
  5
152
102
{ACAD_REACTORS
330
151
102
}
330
151
100
AcDbXrecord
280
     1
102
RTVSPost2010Prop28
280
     0
102
RTVSPost2010PropOp28
 70
     1
102
RTVSPost2010Prop29
280
     1
102
RTVSPost2010PropOp29
 70
     1
102
RTVSPost2010Prop30
280
     1
102
RTVSPost2010PropOp30
 70
     1
102
RTVSPost2010Prop31
280
     0
102
RTVSPost2010PropOp31
 70
     1
102
RTVSPost2010Prop32
280
     0
102
RTVSPost2010PropOp32
 70
     1
102
RTVSPost2010Prop33
280
     0
102
RTVSPost2010PropOp33
 70
     1
102
RTVSPost2010Prop34
280
     0
102
RTVSPost2010PropOp34
 70
     1
102
RTVSPost2010Prop35
280
     0
102
RTVSPost2010PropOp35
 70
     1
102
RTVSPost2010Prop36
280
     0
102
RTVSPost2010PropOp36
 70
     1
102
RTVSPost2010Prop37
 90
       50
102
RTVSPost2010PropOp37
 70
     1
102
RTVSPost2010Prop38
140
0.0
102
RTVSPost2010PropOp38
 70
     1
102
RTVSPost2010Prop39
140
1.0
102
RTVSPost2010PropOp39
 70
     1
102
RTVSPost2010Prop40
 90
        0
102
RTVSPost2010PropOp40
 70
     1
102
RTVSPost2010Prop41ColorIndex
 90
       18
102
RTVSPost2010Prop41ColorRGB
 90
        0
102
RTVSPost2010PropOp41
 70
     1
102
RTVSPost2010Prop42
 90
       50
102
RTVSPost2010PropOp42
 70
     1
102
RTVSPost2010Prop43
 90
        3
102
RTVSPost2010PropOp43
 70
     1
102
RTVSPost2010Prop44ColorIndex
 90
        5
102
RTVSPost2010Prop44ColorRGB
 90
      255
102
RTVSPost2010PropOp44
 70
     1
102
RTVSPost2010Prop45
280
     0
102
RTVSPost2010PropOp45
 70
     1
102
RTVSPost2010Prop46
 90
       50
102
RTVSPost2010PropOp46
 70
     1
102
RTVSPost2010Prop47
 90
       50
102
RTVSPost2010PropOp47
 70
     1
102
RTVSPost2010Prop48
 90
       50
102
RTVSPost2010PropOp48
 70
     1
102
RTVSPost2010Prop49
280
     0
102
RTVSPost2010PropOp49
 70
     1
102
RTVSPost2010Prop50
 90
       50
102
RTVSPost2010PropOp50
 70
     1
102
RTVSPost2010Prop51ColorIndex
 90
      256
102
RTVSPost2010Prop51ColorRGB
 90
-16777216
102
RTVSPost2010PropOp51
 70
     0
102
RTVSPost2010Prop52
140
1.0
102
RTVSPost2010PropOp52
 70
     0
102
RTVSPost2010Prop53
 90
        2
102
RTVSPost2010PropOp53
 70
     1
102
RTVSPost2010Prop54
  1
strokes_ogs.tif
102
RTVSPost2010PropOp54
 70
     1
102
RTVSPost2010Prop55
280
     0
102
RTVSPost2010PropOp55
 70
     1
102
RTVSPost2010Prop56
140
1.0
102
RTVSPost2010PropOp56
 70
     1
102
RTVSPost2010Prop57
140
1.0
102
RTVSPost2010PropOp57
 70
     1
  0
XRECORD
  5
16C
102
{ACAD_REACTORS
330
16B
102
}
330
16B
100
AcDbXrecord
280
     1
102
RTVSPost2010Prop28
280
     0
102
RTVSPost2010PropOp28
 70
     0
102
RTVSPost2010Prop29
280
     1
102
RTVSPost2010PropOp29
 70
     0
102
RTVSPost2010Prop30
280
     1
102
RTVSPost2010PropOp30
 70
     0
102
RTVSPost2010Prop31
280
     0
102
RTVSPost2010PropOp31
 70
     0
102
RTVSPost2010Prop32
280
     0
102
RTVSPost2010PropOp32
 70
     0
102
RTVSPost2010Prop33
280
     0
102
RTVSPost2010PropOp33
 70
     0
102
RTVSPost2010Prop34
280
     0
102
RTVSPost2010PropOp34
 70
     0
102
RTVSPost2010Prop35
280
     0
102
RTVSPost2010PropOp35
 70
     0
102
RTVSPost2010Prop36
280
     0
102
RTVSPost2010PropOp36
 70
     0
102
RTVSPost2010Prop37
 90
       50
102
RTVSPost2010PropOp37
 70
     0
102
RTVSPost2010Prop38
140
0.0
102
RTVSPost2010PropOp38
 70
     0
102
RTVSPost2010Prop39
140
1.0
102
RTVSPost2010PropOp39
 70
     0
102
RTVSPost2010Prop40
 90
        0
102
RTVSPost2010PropOp40
 70
     0
102
RTVSPost2010Prop41ColorIndex
 90
       18
102
RTVSPost2010Prop41ColorRGB
 90
        0
102
RTVSPost2010PropOp41
 70
     0
102
RTVSPost2010Prop42
 90
       50
102
RTVSPost2010PropOp42
 70
     0
102
RTVSPost2010Prop43
 90
        3
102
RTVSPost2010PropOp43
 70
     0
102
RTVSPost2010Prop44ColorIndex
 90
        5
102
RTVSPost2010Prop44ColorRGB
 90
      255
102
RTVSPost2010PropOp44
 70
     0
102
RTVSPost2010Prop45
280
     0
102
RTVSPost2010PropOp45
 70
     0
102
RTVSPost2010Prop46
 90
       50
102
RTVSPost2010PropOp46
 70
     0
102
RTVSPost2010Prop47
 90
       50
102
RTVSPost2010PropOp47
 70
     0
102
RTVSPost2010Prop48
 90
       50
102
RTVSPost2010PropOp48
 70
     0
102
RTVSPost2010Prop49
280
     0
102
RTVSPost2010PropOp49
 70
     0
102
RTVSPost2010Prop50
 90
       50
102
RTVSPost2010PropOp50
 70
     0
102
RTVSPost2010Prop51ColorIndex
 90
      256
102
RTVSPost2010Prop51ColorRGB
 90
-16777216
102
RTVSPost2010PropOp51
 70
     0
102
RTVSPost2010Prop52
140
1.0
102
RTVSPost2010PropOp52
 70
     0
102
RTVSPost2010Prop53
 90
        2
102
RTVSPost2010PropOp53
 70
     0
102
RTVSPost2010Prop54
  1
strokes_ogs.tif
102
RTVSPost2010PropOp54
 70
     0
102
RTVSPost2010Prop55
280
     0
102
RTVSPost2010PropOp55
 70
     0
102
RTVSPost2010Prop56
140
1.0
102
RTVSPost2010PropOp56
 70
     0
102
RTVSPost2010Prop57
140
1.0
102
RTVSPost2010PropOp57
 70
     0
  0
XRECORD
  5
15A
102
{ACAD_REACTORS
330
159
102
}
330
159
100
AcDbXrecord
280
     1
102
RTVSPost2010Prop28
280
     0
102
RTVSPost2010PropOp28
 70
     1
102
RTVSPost2010Prop29
280
     1
102
RTVSPost2010PropOp29
 70
     1
102
RTVSPost2010Prop30
280
     1
102
RTVSPost2010PropOp30
 70
     1
102
RTVSPost2010Prop31
280
     0
102
RTVSPost2010PropOp31
 70
     1
102
RTVSPost2010Prop32
280
     0
102
RTVSPost2010PropOp32
 70
     1
102
RTVSPost2010Prop33
280
     0
102
RTVSPost2010PropOp33
 70
     1
102
RTVSPost2010Prop34
280
     0
102
RTVSPost2010PropOp34
 70
     1
102
RTVSPost2010Prop35
280
     0
102
RTVSPost2010PropOp35
 70
     1
102
RTVSPost2010Prop36
280
     0
102
RTVSPost2010PropOp36
 70
     1
102
RTVSPost2010Prop37
 90
       50
102
RTVSPost2010PropOp37
 70
     1
102
RTVSPost2010Prop38
140
0.0
102
RTVSPost2010PropOp38
 70
     1
102
RTVSPost2010Prop39
140
1.0
102
RTVSPost2010PropOp39
 70
     1
102
RTVSPost2010Prop40
 90
        0
102
RTVSPost2010PropOp40
 70
     1
102
RTVSPost2010Prop41ColorIndex
 90
       18
102
RTVSPost2010Prop41ColorRGB
 90
        0
102
RTVSPost2010PropOp41
 70
     1
102
RTVSPost2010Prop42
 90
       50
102
RTVSPost2010PropOp42
 70
     1
102
RTVSPost2010Prop43
 90
        3
102
RTVSPost2010PropOp43
 70
     1
102
RTVSPost2010Prop44ColorIndex
 90
        5
102
RTVSPost2010Prop44ColorRGB
 90
      255
102
RTVSPost2010PropOp44
 70
     1
102
RTVSPost2010Prop45
280
     0
102
RTVSPost2010PropOp45
 70
     1
102
RTVSPost2010Prop46
 90
       50
102
RTVSPost2010PropOp46
 70
     1
102
RTVSPost2010Prop47
 90
       50
102
RTVSPost2010PropOp47
 70
     1
102
RTVSPost2010Prop48
 90
       50
102
RTVSPost2010PropOp48
 70
     1
102
RTVSPost2010Prop49
280
     0
102
RTVSPost2010PropOp49
 70
     1
102
RTVSPost2010Prop50
 90
       50
102
RTVSPost2010PropOp50
 70
     1
102
RTVSPost2010Prop51ColorIndex
 90
      256
102
RTVSPost2010Prop51ColorRGB
 90
-16777216
102
RTVSPost2010PropOp51
 70
     0
102
RTVSPost2010Prop52
140
1.0
102
RTVSPost2010PropOp52
 70
     0
102
RTVSPost2010Prop53
 90
        2
102
RTVSPost2010PropOp53
 70
     1
102
RTVSPost2010Prop54
  1
strokes_ogs.tif
102
RTVSPost2010PropOp54
 70
     1
102
RTVSPost2010Prop55
280
     0
102
RTVSPost2010PropOp55
 70
     1
102
RTVSPost2010Prop56
140
1.0
102
RTVSPost2010PropOp56
 70
     1
102
RTVSPost2010Prop57
140
1.0
102
RTVSPost2010PropOp57
 70
     1
  0
XRECORD
  5
13E
102
{ACAD_REACTORS
330
13D
102
}
330
13D
100
AcDbXrecord
280
     1
102
RTVSPost2010Prop28
280
     0
102
RTVSPost2010PropOp28
 70
     1
102
RTVSPost2010Prop29
280
     1
102
RTVSPost2010PropOp29
 70
     1
102
RTVSPost2010Prop30
280
     1
102
RTVSPost2010PropOp30
 70
     1
102
RTVSPost2010Prop31
280
     0
102
RTVSPost2010PropOp31
 70
     1
102
RTVSPost2010Prop32
280
     0
102
RTVSPost2010PropOp32
 70
     1
102
RTVSPost2010Prop33
280
     0
102
RTVSPost2010PropOp33
 70
     1
102
RTVSPost2010Prop34
280
     0
102
RTVSPost2010PropOp34
 70
     1
102
RTVSPost2010Prop35
280
     0
102
RTVSPost2010PropOp35
 70
     1
102
RTVSPost2010Prop36
280
     0
102
RTVSPost2010PropOp36
 70
     1
102
RTVSPost2010Prop37
 90
       50
102
RTVSPost2010PropOp37
 70
     1
102
RTVSPost2010Prop38
140
0.0
102
RTVSPost2010PropOp38
 70
     1
102
RTVSPost2010Prop39
140
1.0
102
RTVSPost2010PropOp39
 70
     1
102
RTVSPost2010Prop40
 90
        0
102
RTVSPost2010PropOp40
 70
     1
102
RTVSPost2010Prop41ColorIndex
 90
       18
102
RTVSPost2010Prop41ColorRGB
 90
        0
102
RTVSPost2010PropOp41
 70
     1
102
RTVSPost2010Prop42
 90
       50
102
RTVSPost2010PropOp42
 70
     1
102
RTVSPost2010Prop43
 90
        3
102
RTVSPost2010PropOp43
 70
     1
102
RTVSPost2010Prop44ColorIndex
 90
        5
102
RTVSPost2010Prop44ColorRGB
 90
      255
102
RTVSPost2010PropOp44
 70
     1
102
RTVSPost2010Prop45
280
     0
102
RTVSPost2010PropOp45
 70
     1
102
RTVSPost2010Prop46
 90
       50
102
RTVSPost2010PropOp46
 70
     1
102
RTVSPost2010Prop47
 90
       50
102
RTVSPost2010PropOp47
 70
     1
102
RTVSPost2010Prop48
 90
       50
102
RTVSPost2010PropOp48
 70
     1
102
RTVSPost2010Prop49
280
     0
102
RTVSPost2010PropOp49
 70
     1
102
RTVSPost2010Prop50
 90
       50
102
RTVSPost2010PropOp50
 70
     1
102
RTVSPost2010Prop51ColorIndex
 90
      256
102
RTVSPost2010Prop51ColorRGB
 90
-16777216
102
RTVSPost2010PropOp51
 70
     0
102
RTVSPost2010Prop52
140
1.0
102
RTVSPost2010PropOp52
 70
     0
102
RTVSPost2010Prop53
 90
        2
102
RTVSPost2010PropOp53
 70
     1
102
RTVSPost2010Prop54
  1
strokes_ogs.tif
102
RTVSPost2010PropOp54
 70
     1
102
RTVSPost2010Prop55
280
     0
102
RTVSPost2010PropOp55
 70
     1
102
RTVSPost2010Prop56
140
1.0
102
RTVSPost2010PropOp56
 70
     1
102
RTVSPost2010Prop57
140
1.0
102
RTVSPost2010PropOp57
 70
     1
  0
XRECORD
  5
140
102
{ACAD_REACTORS
330
13F
102
}
330
13F
100
AcDbXrecord
280
     1
102
RTVSPost2010Prop28
280
     0
102
RTVSPost2010PropOp28
 70
     1
102
RTVSPost2010Prop29
280
     1
102
RTVSPost2010PropOp29
 70
     1
102
RTVSPost2010Prop30
280
     1
102
RTVSPost2010PropOp30
 70
     1
102
RTVSPost2010Prop31
280
     0
102
RTVSPost2010PropOp31
 70
     1
102
RTVSPost2010Prop32
280
     0
102
RTVSPost2010PropOp32
 70
     1
102
RTVSPost2010Prop33
280
     0
102
RTVSPost2010PropOp33
 70
     1
102
RTVSPost2010Prop34
280
     0
102
RTVSPost2010PropOp34
 70
     1
102
RTVSPost2010Prop35
280
     0
102
RTVSPost2010PropOp35
 70
     1
102
RTVSPost2010Prop36
280
     0
102
RTVSPost2010PropOp36
 70
     1
102
RTVSPost2010Prop37
 90
       50
102
RTVSPost2010PropOp37
 70
     1
102
RTVSPost2010Prop38
140
0.0
102
RTVSPost2010PropOp38
 70
     1
102
RTVSPost2010Prop39
140
1.0
102
RTVSPost2010PropOp39
 70
     1
102
RTVSPost2010Prop40
 90
        0
102
RTVSPost2010PropOp40
 70
     1
102
RTVSPost2010Prop41ColorIndex
 90
       18
102
RTVSPost2010Prop41ColorRGB
 90
        0
102
RTVSPost2010PropOp41
 70
     1
102
RTVSPost2010Prop42
 90
       50
102
RTVSPost2010PropOp42
 70
     1
102
RTVSPost2010Prop43
 90
        3
102
RTVSPost2010PropOp43
 70
     1
102
RTVSPost2010Prop44ColorIndex
 90
        5
102
RTVSPost2010Prop44ColorRGB
 90
      255
102
RTVSPost2010PropOp44
 70
     1
102
RTVSPost2010Prop45
280
     0
102
RTVSPost2010PropOp45
 70
     1
102
RTVSPost2010Prop46
 90
       50
102
RTVSPost2010PropOp46
 70
     1
102
RTVSPost2010Prop47
 90
       50
102
RTVSPost2010PropOp47
 70
     1
102
RTVSPost2010Prop48
 90
       50
102
RTVSPost2010PropOp48
 70
     1
102
RTVSPost2010Prop49
280
     0
102
RTVSPost2010PropOp49
 70
     1
102
RTVSPost2010Prop50
 90
       50
102
RTVSPost2010PropOp50
 70
     1
102
RTVSPost2010Prop51ColorIndex
 90
      256
102
RTVSPost2010Prop51ColorRGB
 90
-16777216
102
RTVSPost2010PropOp51
 70
     0
102
RTVSPost2010Prop52
140
1.0
102
RTVSPost2010PropOp52
 70
     0
102
RTVSPost2010Prop53
 90
        2
102
RTVSPost2010PropOp53
 70
     1
102
RTVSPost2010Prop54
  1
strokes_ogs.tif
102
RTVSPost2010PropOp54
 70
     1
102
RTVSPost2010Prop55
280
     0
102
RTVSPost2010PropOp55
 70
     1
102
RTVSPost2010Prop56
140
1.0
102
RTVSPost2010PropOp56
 70
     1
102
RTVSPost2010Prop57
140
1.0
102
RTVSPost2010PropOp57
 70
     1
  0
XRECORD
  5
142
102
{ACAD_REACTORS
330
141
102
}
330
141
100
AcDbXrecord
280
     1
102
RTVSPost2010Prop28
280
     0
102
RTVSPost2010PropOp28
 70
     1
102
RTVSPost2010Prop29
280
     1
102
RTVSPost2010PropOp29
 70
     1
102
RTVSPost2010Prop30
280
     1
102
RTVSPost2010PropOp30
 70
     1
102
RTVSPost2010Prop31
280
     0
102
RTVSPost2010PropOp31
 70
     1
102
RTVSPost2010Prop32
280
     0
102
RTVSPost2010PropOp32
 70
     1
102
RTVSPost2010Prop33
280
     0
102
RTVSPost2010PropOp33
 70
     1
102
RTVSPost2010Prop34
280
     0
102
RTVSPost2010PropOp34
 70
     1
102
RTVSPost2010Prop35
280
     0
102
RTVSPost2010PropOp35
 70
     1
102
RTVSPost2010Prop36
280
     0
102
RTVSPost2010PropOp36
 70
     1
102
RTVSPost2010Prop37
 90
       50
102
RTVSPost2010PropOp37
 70
     1
102
RTVSPost2010Prop38
140
0.0
102
RTVSPost2010PropOp38
 70
     1
102
RTVSPost2010Prop39
140
1.0
102
RTVSPost2010PropOp39
 70
     1
102
RTVSPost2010Prop40
 90
        0
102
RTVSPost2010PropOp40
 70
     1
102
RTVSPost2010Prop41ColorIndex
 90
       18
102
RTVSPost2010Prop41ColorRGB
 90
        0
102
RTVSPost2010PropOp41
 70
     1
102
RTVSPost2010Prop42
 90
       50
102
RTVSPost2010PropOp42
 70
     1
102
RTVSPost2010Prop43
 90
        3
102
RTVSPost2010PropOp43
 70
     1
102
RTVSPost2010Prop44ColorIndex
 90
        5
102
RTVSPost2010Prop44ColorRGB
 90
      255
102
RTVSPost2010PropOp44
 70
     1
102
RTVSPost2010Prop45
280
     0
102
RTVSPost2010PropOp45
 70
     1
102
RTVSPost2010Prop46
 90
       50
102
RTVSPost2010PropOp46
 70
     1
102
RTVSPost2010Prop47
 90
       50
102
RTVSPost2010PropOp47
 70
     1
102
RTVSPost2010Prop48
 90
       50
102
RTVSPost2010PropOp48
 70
     1
102
RTVSPost2010Prop49
280
     0
102
RTVSPost2010PropOp49
 70
     1
102
RTVSPost2010Prop50
 90
       50
102
RTVSPost2010PropOp50
 70
     1
102
RTVSPost2010Prop51ColorIndex
 90
      256
102
RTVSPost2010Prop51ColorRGB
 90
-16777216
102
RTVSPost2010PropOp51
 70
     0
102
RTVSPost2010Prop52
140
1.0
102
RTVSPost2010PropOp52
 70
     0
102
RTVSPost2010Prop53
 90
        2
102
RTVSPost2010PropOp53
 70
     1
102
RTVSPost2010Prop54
  1
strokes_ogs.tif
102
RTVSPost2010PropOp54
 70
     1
102
RTVSPost2010Prop55
280
     0
102
RTVSPost2010PropOp55
 70
     1
102
RTVSPost2010Prop56
140
1.0
102
RTVSPost2010PropOp56
 70
     1
102
RTVSPost2010Prop57
140
1.0
102
RTVSPost2010PropOp57
 70
     1
  0
XRECORD
  5
144
102
{ACAD_REACTORS
330
143
102
}
330
143
100
AcDbXrecord
280
     1
102
RTVSPost2010Prop28
280
     0
102
RTVSPost2010PropOp28
 70
     1
102
RTVSPost2010Prop29
280
     1
102
RTVSPost2010PropOp29
 70
     1
102
RTVSPost2010Prop30
280
     1
102
RTVSPost2010PropOp30
 70
     1
102
RTVSPost2010Prop31
280
     0
102
RTVSPost2010PropOp31
 70
     1
102
RTVSPost2010Prop32
280
     0
102
RTVSPost2010PropOp32
 70
     1
102
RTVSPost2010Prop33
280
     0
102
RTVSPost2010PropOp33
 70
     1
102
RTVSPost2010Prop34
280
     0
102
RTVSPost2010PropOp34
 70
     1
102
RTVSPost2010Prop35
280
     0
102
RTVSPost2010PropOp35
 70
     1
102
RTVSPost2010Prop36
280
     0
102
RTVSPost2010PropOp36
 70
     1
102
RTVSPost2010Prop37
 90
       50
102
RTVSPost2010PropOp37
 70
     1
102
RTVSPost2010Prop38
140
0.0
102
RTVSPost2010PropOp38
 70
     1
102
RTVSPost2010Prop39
140
1.0
102
RTVSPost2010PropOp39
 70
     1
102
RTVSPost2010Prop40
 90
        0
102
RTVSPost2010PropOp40
 70
     1
102
RTVSPost2010Prop41ColorIndex
 90
       18
102
RTVSPost2010Prop41ColorRGB
 90
        0
102
RTVSPost2010PropOp41
 70
     1
102
RTVSPost2010Prop42
 90
       50
102
RTVSPost2010PropOp42
 70
     1
102
RTVSPost2010Prop43
 90
        3
102
RTVSPost2010PropOp43
 70
     1
102
RTVSPost2010Prop44ColorIndex
 90
        5
102
RTVSPost2010Prop44ColorRGB
 90
      255
102
RTVSPost2010PropOp44
 70
     1
102
RTVSPost2010Prop45
280
     0
102
RTVSPost2010PropOp45
 70
     1
102
RTVSPost2010Prop46
 90
       50
102
RTVSPost2010PropOp46
 70
     1
102
RTVSPost2010Prop47
 90
       50
102
RTVSPost2010PropOp47
 70
     1
102
RTVSPost2010Prop48
 90
       50
102
RTVSPost2010PropOp48
 70
     1
102
RTVSPost2010Prop49
280
     0
102
RTVSPost2010PropOp49
 70
     1
102
RTVSPost2010Prop50
 90
       50
102
RTVSPost2010PropOp50
 70
     1
102
RTVSPost2010Prop51ColorIndex
 90
      256
102
RTVSPost2010Prop51ColorRGB
 90
-16777216
102
RTVSPost2010PropOp51
 70
     0
102
RTVSPost2010Prop52
140
1.0
102
RTVSPost2010PropOp52
 70
     0
102
RTVSPost2010Prop53
 90
        2
102
RTVSPost2010PropOp53
 70
     1
102
RTVSPost2010Prop54
  1
strokes_ogs.tif
102
RTVSPost2010PropOp54
 70
     1
102
RTVSPost2010Prop55
280
     0
102
RTVSPost2010PropOp55
 70
     1
102
RTVSPost2010Prop56
140
1.0
102
RTVSPost2010PropOp56
 70
     1
102
RTVSPost2010Prop57
140
1.0
102
RTVSPost2010PropOp57
 70
     1
  0
XRECORD
  5
14C
102
{ACAD_REACTORS
330
14B
102
}
330
14B
100
AcDbXrecord
280
     1
102
RTVSPost2010Prop28
280
     0
102
RTVSPost2010PropOp28
 70
     1
102
RTVSPost2010Prop29
280
     1
102
RTVSPost2010PropOp29
 70
     1
102
RTVSPost2010Prop30
280
     1
102
RTVSPost2010PropOp30
 70
     1
102
RTVSPost2010Prop31
280
     0
102
RTVSPost2010PropOp31
 70
     1
102
RTVSPost2010Prop32
280
     0
102
RTVSPost2010PropOp32
 70
     1
102
RTVSPost2010Prop33
280
     0
102
RTVSPost2010PropOp33
 70
     1
102
RTVSPost2010Prop34
280
     0
102
RTVSPost2010PropOp34
 70
     1
102
RTVSPost2010Prop35
280
     0
102
RTVSPost2010PropOp35
 70
     1
102
RTVSPost2010Prop36
280
     0
102
RTVSPost2010PropOp36
 70
     1
102
RTVSPost2010Prop37
 90
       50
102
RTVSPost2010PropOp37
 70
     1
102
RTVSPost2010Prop38
140
0.0
102
RTVSPost2010PropOp38
 70
     1
102
RTVSPost2010Prop39
140
1.0
102
RTVSPost2010PropOp39
 70
     1
102
RTVSPost2010Prop40
 90
        0
102
RTVSPost2010PropOp40
 70
     1
102
RTVSPost2010Prop41ColorIndex
 90
       18
102
RTVSPost2010Prop41ColorRGB
 90
        0
102
RTVSPost2010PropOp41
 70
     1
102
RTVSPost2010Prop42
 90
       50
102
RTVSPost2010PropOp42
 70
     1
102
RTVSPost2010Prop43
 90
        3
102
RTVSPost2010PropOp43
 70
     1
102
RTVSPost2010Prop44ColorIndex
 90
        5
102
RTVSPost2010Prop44ColorRGB
 90
      255
102
RTVSPost2010PropOp44
 70
     1
102
RTVSPost2010Prop45
280
     0
102
RTVSPost2010PropOp45
 70
     1
102
RTVSPost2010Prop46
 90
       50
102
RTVSPost2010PropOp46
 70
     1
102
RTVSPost2010Prop47
 90
       50
102
RTVSPost2010PropOp47
 70
     1
102
RTVSPost2010Prop48
 90
       50
102
RTVSPost2010PropOp48
 70
     1
102
RTVSPost2010Prop49
280
     0
102
RTVSPost2010PropOp49
 70
     1
102
RTVSPost2010Prop50
 90
       50
102
RTVSPost2010PropOp50
 70
     1
102
RTVSPost2010Prop51ColorIndex
 90
      256
102
RTVSPost2010Prop51ColorRGB
 90
-16777216
102
RTVSPost2010PropOp51
 70
     0
102
RTVSPost2010Prop52
140
1.0
102
RTVSPost2010PropOp52
 70
     0
102
RTVSPost2010Prop53
 90
        2
102
RTVSPost2010PropOp53
 70
     1
102
RTVSPost2010Prop54
  1
strokes_ogs.tif
102
RTVSPost2010PropOp54
 70
     1
102
RTVSPost2010Prop55
280
     0
102
RTVSPost2010PropOp55
 70
     1
102
RTVSPost2010Prop56
140
1.0
102
RTVSPost2010PropOp56
 70
     1
102
RTVSPost2010Prop57
140
1.0
102
RTVSPost2010PropOp57
 70
     1
  0
XRECORD
  5
168
102
{ACAD_REACTORS
330
167
102
}
330
167
100
AcDbXrecord
280
     1
102
RTVSPost2010Prop28
280
     0
102
RTVSPost2010PropOp28
 70
     0
102
RTVSPost2010Prop29
280
     1
102
RTVSPost2010PropOp29
 70
     0
102
RTVSPost2010Prop30
280
     1
102
RTVSPost2010PropOp30
 70
     0
102
RTVSPost2010Prop31
280
     0
102
RTVSPost2010PropOp31
 70
     0
102
RTVSPost2010Prop32
280
     0
102
RTVSPost2010PropOp32
 70
     0
102
RTVSPost2010Prop33
280
     0
102
RTVSPost2010PropOp33
 70
     0
102
RTVSPost2010Prop34
280
     0
102
RTVSPost2010PropOp34
 70
     0
102
RTVSPost2010Prop35
280
     0
102
RTVSPost2010PropOp35
 70
     0
102
RTVSPost2010Prop36
280
     0
102
RTVSPost2010PropOp36
 70
     0
102
RTVSPost2010Prop37
 90
       50
102
RTVSPost2010PropOp37
 70
     0
102
RTVSPost2010Prop38
140
0.0
102
RTVSPost2010PropOp38
 70
     0
102
RTVSPost2010Prop39
140
1.0
102
RTVSPost2010PropOp39
 70
     0
102
RTVSPost2010Prop40
 90
        0
102
RTVSPost2010PropOp40
 70
     0
102
RTVSPost2010Prop41ColorIndex
 90
       18
102
RTVSPost2010Prop41ColorRGB
 90
        0
102
RTVSPost2010PropOp41
 70
     0
102
RTVSPost2010Prop42
 90
       50
102
RTVSPost2010PropOp42
 70
     0
102
RTVSPost2010Prop43
 90
        3
102
RTVSPost2010PropOp43
 70
     0
102
RTVSPost2010Prop44ColorIndex
 90
        5
102
RTVSPost2010Prop44ColorRGB
 90
      255
102
RTVSPost2010PropOp44
 70
     0
102
RTVSPost2010Prop45
280
     0
102
RTVSPost2010PropOp45
 70
     0
102
RTVSPost2010Prop46
 90
       50
102
RTVSPost2010PropOp46
 70
     0
102
RTVSPost2010Prop47
 90
       50
102
RTVSPost2010PropOp47
 70
     0
102
RTVSPost2010Prop48
 90
       50
102
RTVSPost2010PropOp48
 70
     0
102
RTVSPost2010Prop49
280
     0
102
RTVSPost2010PropOp49
 70
     0
102
RTVSPost2010Prop50
 90
       50
102
RTVSPost2010PropOp50
 70
     0
102
RTVSPost2010Prop51ColorIndex
 90
      256
102
RTVSPost2010Prop51ColorRGB
 90
-16777216
102
RTVSPost2010PropOp51
 70
     0
102
RTVSPost2010Prop52
140
1.0
102
RTVSPost2010PropOp52
 70
     0
102
RTVSPost2010Prop53
 90
        2
102
RTVSPost2010PropOp53
 70
     0
102
RTVSPost2010Prop54
  1
strokes_ogs.tif
102
RTVSPost2010PropOp54
 70
     0
102
RTVSPost2010Prop55
280
     0
102
RTVSPost2010PropOp55
 70
     0
102
RTVSPost2010Prop56
140
1.0
102
RTVSPost2010PropOp56
 70
     0
102
RTVSPost2010Prop57
140
1.0
102
RTVSPost2010PropOp57
 70
     0
  0
XRECORD
  5
158
102
{ACAD_REACTORS
330
157
102
}
330
157
100
AcDbXrecord
280
     1
102
RTVSPost2010Prop28
280
     0
102
RTVSPost2010PropOp28
 70
     1
102
RTVSPost2010Prop29
280
     1
102
RTVSPost2010PropOp29
 70
     1
102
RTVSPost2010Prop30
280
     1
102
RTVSPost2010PropOp30
 70
     1
102
RTVSPost2010Prop31
280
     0
102
RTVSPost2010PropOp31
 70
     1
102
RTVSPost2010Prop32
280
     0
102
RTVSPost2010PropOp32
 70
     1
102
RTVSPost2010Prop33
280
     0
102
RTVSPost2010PropOp33
 70
     1
102
RTVSPost2010Prop34
280
     0
102
RTVSPost2010PropOp34
 70
     1
102
RTVSPost2010Prop35
280
     0
102
RTVSPost2010PropOp35
 70
     1
102
RTVSPost2010Prop36
280
     0
102
RTVSPost2010PropOp36
 70
     1
102
RTVSPost2010Prop37
 90
       50
102
RTVSPost2010PropOp37
 70
     1
102
RTVSPost2010Prop38
140
0.0
102
RTVSPost2010PropOp38
 70
     1
102
RTVSPost2010Prop39
140
1.0
102
RTVSPost2010PropOp39
 70
     1
102
RTVSPost2010Prop40
 90
        0
102
RTVSPost2010PropOp40
 70
     1
102
RTVSPost2010Prop41ColorIndex
 90
       18
102
RTVSPost2010Prop41ColorRGB
 90
        0
102
RTVSPost2010PropOp41
 70
     1
102
RTVSPost2010Prop42
 90
       50
102
RTVSPost2010PropOp42
 70
     1
102
RTVSPost2010Prop43
 90
        3
102
RTVSPost2010PropOp43
 70
     1
102
RTVSPost2010Prop44ColorIndex
 90
        5
102
RTVSPost2010Prop44ColorRGB
 90
      255
102
RTVSPost2010PropOp44
 70
     1
102
RTVSPost2010Prop45
280
     0
102
RTVSPost2010PropOp45
 70
     1
102
RTVSPost2010Prop46
 90
       50
102
RTVSPost2010PropOp46
 70
     1
102
RTVSPost2010Prop47
 90
       50
102
RTVSPost2010PropOp47
 70
     1
102
RTVSPost2010Prop48
 90
       50
102
RTVSPost2010PropOp48
 70
     1
102
RTVSPost2010Prop49
280
     0
102
RTVSPost2010PropOp49
 70
     1
102
RTVSPost2010Prop50
 90
       50
102
RTVSPost2010PropOp50
 70
     1
102
RTVSPost2010Prop51ColorIndex
 90
      256
102
RTVSPost2010Prop51ColorRGB
 90
-16777216
102
RTVSPost2010PropOp51
 70
     0
102
RTVSPost2010Prop52
140
1.0
102
RTVSPost2010PropOp52
 70
     0
102
RTVSPost2010Prop53
 90
        2
102
RTVSPost2010PropOp53
 70
     1
102
RTVSPost2010Prop54
  1
strokes_ogs.tif
102
RTVSPost2010PropOp54
 70
     1
102
RTVSPost2010Prop55
280
     0
102
RTVSPost2010PropOp55
 70
     1
102
RTVSPost2010Prop56
140
1.0
102
RTVSPost2010PropOp56
 70
     1
102
RTVSPost2010Prop57
140
1.0
102
RTVSPost2010PropOp57
 70
     1
  0
XRECORD
  5
16A
102
{ACAD_REACTORS
330
169
102
}
330
169
100
AcDbXrecord
280
     1
102
RTVSPost2010Prop28
280
     0
102
RTVSPost2010PropOp28
 70
     0
102
RTVSPost2010Prop29
280
     1
102
RTVSPost2010PropOp29
 70
     0
102
RTVSPost2010Prop30
280
     1
102
RTVSPost2010PropOp30
 70
     0
102
RTVSPost2010Prop31
280
     0
102
RTVSPost2010PropOp31
 70
     0
102
RTVSPost2010Prop32
280
     0
102
RTVSPost2010PropOp32
 70
     0
102
RTVSPost2010Prop33
280
     0
102
RTVSPost2010PropOp33
 70
     0
102
RTVSPost2010Prop34
280
     0
102
RTVSPost2010PropOp34
 70
     0
102
RTVSPost2010Prop35
280
     0
102
RTVSPost2010PropOp35
 70
     0
102
RTVSPost2010Prop36
280
     0
102
RTVSPost2010PropOp36
 70
     0
102
RTVSPost2010Prop37
 90
       50
102
RTVSPost2010PropOp37
 70
     0
102
RTVSPost2010Prop38
140
0.0
102
RTVSPost2010PropOp38
 70
     0
102
RTVSPost2010Prop39
140
1.0
102
RTVSPost2010PropOp39
 70
     0
102
RTVSPost2010Prop40
 90
        0
102
RTVSPost2010PropOp40
 70
     0
102
RTVSPost2010Prop41ColorIndex
 90
       18
102
RTVSPost2010Prop41ColorRGB
 90
        0
102
RTVSPost2010PropOp41
 70
     0
102
RTVSPost2010Prop42
 90
       50
102
RTVSPost2010PropOp42
 70
     0
102
RTVSPost2010Prop43
 90
        3
102
RTVSPost2010PropOp43
 70
     0
102
RTVSPost2010Prop44ColorIndex
 90
        5
102
RTVSPost2010Prop44ColorRGB
 90
      255
102
RTVSPost2010PropOp44
 70
     0
102
RTVSPost2010Prop45
280
     0
102
RTVSPost2010PropOp45
 70
     0
102
RTVSPost2010Prop46
 90
       50
102
RTVSPost2010PropOp46
 70
     0
102
RTVSPost2010Prop47
 90
       50
102
RTVSPost2010PropOp47
 70
     0
102
RTVSPost2010Prop48
 90
       50
102
RTVSPost2010PropOp48
 70
     0
102
RTVSPost2010Prop49
280
     0
102
RTVSPost2010PropOp49
 70
     0
102
RTVSPost2010Prop50
 90
       50
102
RTVSPost2010PropOp50
 70
     0
102
RTVSPost2010Prop51ColorIndex
 90
      256
102
RTVSPost2010Prop51ColorRGB
 90
-16777216
102
RTVSPost2010PropOp51
 70
     0
102
RTVSPost2010Prop52
140
1.0
102
RTVSPost2010PropOp52
 70
     0
102
RTVSPost2010Prop53
 90
        2
102
RTVSPost2010PropOp53
 70
     0
102
RTVSPost2010Prop54
  1
strokes_ogs.tif
102
RTVSPost2010PropOp54
 70
     0
102
RTVSPost2010Prop55
280
     0
102
RTVSPost2010PropOp55
 70
     0
102
RTVSPost2010Prop56
140
1.0
102
RTVSPost2010PropOp56
 70
     0
102
RTVSPost2010Prop57
140
1.0
102
RTVSPost2010PropOp57
 70
     0
  0
XRECORD
  5
150
102
{ACAD_REACTORS
330
14F
102
}
330
14F
100
AcDbXrecord
280
     1
102
RTVSPost2010Prop28
280
     0
102
RTVSPost2010PropOp28
 70
     1
102
RTVSPost2010Prop29
280
     1
102
RTVSPost2010PropOp29
 70
     1
102
RTVSPost2010Prop30
280
     1
102
RTVSPost2010PropOp30
 70
     1
102
RTVSPost2010Prop31
280
     0
102
RTVSPost2010PropOp31
 70
     1
102
RTVSPost2010Prop32
280
     0
102
RTVSPost2010PropOp32
 70
     1
102
RTVSPost2010Prop33
280
     0
102
RTVSPost2010PropOp33
 70
     1
102
RTVSPost2010Prop34
280
     0
102
RTVSPost2010PropOp34
 70
     1
102
RTVSPost2010Prop35
280
     0
102
RTVSPost2010PropOp35
 70
     1
102
RTVSPost2010Prop36
280
     0
102
RTVSPost2010PropOp36
 70
     1
102
RTVSPost2010Prop37
 90
       50
102
RTVSPost2010PropOp37
 70
     1
102
RTVSPost2010Prop38
140
0.0
102
RTVSPost2010PropOp38
 70
     1
102
RTVSPost2010Prop39
140
1.0
102
RTVSPost2010PropOp39
 70
     1
102
RTVSPost2010Prop40
 90
        0
102
RTVSPost2010PropOp40
 70
     1
102
RTVSPost2010Prop41ColorIndex
 90
       18
102
RTVSPost2010Prop41ColorRGB
 90
        0
102
RTVSPost2010PropOp41
 70
     1
102
RTVSPost2010Prop42
 90
       50
102
RTVSPost2010PropOp42
 70
     1
102
RTVSPost2010Prop43
 90
        3
102
RTVSPost2010PropOp43
 70
     1
102
RTVSPost2010Prop44ColorIndex
 90
        5
102
RTVSPost2010Prop44ColorRGB
 90
      255
102
RTVSPost2010PropOp44
 70
     1
102
RTVSPost2010Prop45
280
     0
102
RTVSPost2010PropOp45
 70
     1
102
RTVSPost2010Prop46
 90
       50
102
RTVSPost2010PropOp46
 70
     1
102
RTVSPost2010Prop47
 90
       50
102
RTVSPost2010PropOp47
 70
     1
102
RTVSPost2010Prop48
 90
       50
102
RTVSPost2010PropOp48
 70
     1
102
RTVSPost2010Prop49
280
     0
102
RTVSPost2010PropOp49
 70
     1
102
RTVSPost2010Prop50
 90
       50
102
RTVSPost2010PropOp50
 70
     1
102
RTVSPost2010Prop51ColorIndex
 90
      256
102
RTVSPost2010Prop51ColorRGB
 90
-16777216
102
RTVSPost2010PropOp51
 70
     0
102
RTVSPost2010Prop52
140
1.0
102
RTVSPost2010PropOp52
 70
     0
102
RTVSPost2010Prop53
 90
        2
102
RTVSPost2010PropOp53
 70
     1
102
RTVSPost2010Prop54
  1
strokes_ogs.tif
102
RTVSPost2010PropOp54
 70
     1
102
RTVSPost2010Prop55
280
     0
102
RTVSPost2010PropOp55
 70
     1
102
RTVSPost2010Prop56
140
1.0
102
RTVSPost2010PropOp56
 70
     1
102
RTVSPost2010Prop57
140
1.0
102
RTVSPost2010PropOp57
 70
     1
  0
XRECORD
  5
166
102
{ACAD_REACTORS
330
165
102
}
330
165
100
AcDbXrecord
280
     1
102
RTVSPost2010Prop28
280
     0
102
RTVSPost2010PropOp28
 70
     1
102
RTVSPost2010Prop29
280
     1
102
RTVSPost2010PropOp29
 70
     1
102
RTVSPost2010Prop30
280
     1
102
RTVSPost2010PropOp30
 70
     1
102
RTVSPost2010Prop31
280
     0
102
RTVSPost2010PropOp31
 70
     1
102
RTVSPost2010Prop32
280
     0
102
RTVSPost2010PropOp32
 70
     1
102
RTVSPost2010Prop33
280
     0
102
RTVSPost2010PropOp33
 70
     1
102
RTVSPost2010Prop34
280
     0
102
RTVSPost2010PropOp34
 70
     1
102
RTVSPost2010Prop35
280
     0
102
RTVSPost2010PropOp35
 70
     1
102
RTVSPost2010Prop36
280
     0
102
RTVSPost2010PropOp36
 70
     1
102
RTVSPost2010Prop37
 90
       50
102
RTVSPost2010PropOp37
 70
     1
102
RTVSPost2010Prop38
140
0.0
102
RTVSPost2010PropOp38
 70
     1
102
RTVSPost2010Prop39
140
1.0
102
RTVSPost2010PropOp39
 70
     1
102
RTVSPost2010Prop40
 90
        0
102
RTVSPost2010PropOp40
 70
     1
102
RTVSPost2010Prop41ColorIndex
 90
       18
102
RTVSPost2010Prop41ColorRGB
 90
        0
102
RTVSPost2010PropOp41
 70
     1
102
RTVSPost2010Prop42
 90
       50
102
RTVSPost2010PropOp42
 70
     1
102
RTVSPost2010Prop43
 90
        3
102
RTVSPost2010PropOp43
 70
     1
102
RTVSPost2010Prop44ColorIndex
 90
        5
102
RTVSPost2010Prop44ColorRGB
 90
      255
102
RTVSPost2010PropOp44
 70
     1
102
RTVSPost2010Prop45
280
     0
102
RTVSPost2010PropOp45
 70
     1
102
RTVSPost2010Prop46
 90
       50
102
RTVSPost2010PropOp46
 70
     1
102
RTVSPost2010Prop47
 90
       50
102
RTVSPost2010PropOp47
 70
     1
102
RTVSPost2010Prop48
 90
       50
102
RTVSPost2010PropOp48
 70
     1
102
RTVSPost2010Prop49
280
     0
102
RTVSPost2010PropOp49
 70
     1
102
RTVSPost2010Prop50
 90
       50
102
RTVSPost2010PropOp50
 70
     1
102
RTVSPost2010Prop51ColorIndex
 90
      256
102
RTVSPost2010Prop51ColorRGB
 90
-16777216
102
RTVSPost2010PropOp51
 70
     0
102
RTVSPost2010Prop52
140
1.0
102
RTVSPost2010PropOp52
 70
     0
102
RTVSPost2010Prop53
 90
        2
102
RTVSPost2010PropOp53
 70
     1
102
RTVSPost2010Prop54
  1
strokes_ogs.tif
102
RTVSPost2010PropOp54
 70
     1
102
RTVSPost2010Prop55
280
     0
102
RTVSPost2010PropOp55
 70
     1
102
RTVSPost2010Prop56
140
1.0
102
RTVSPost2010PropOp56
 70
     1
102
RTVSPost2010Prop57
140
1.0
102
RTVSPost2010PropOp57
 70
     1
  0
XRECORD
  5
164
102
{ACAD_REACTORS
330
163
102
}
330
163
100
AcDbXrecord
280
     1
102
RTVSPost2010Prop28
280
     0
102
RTVSPost2010PropOp28
 70
     1
102
RTVSPost2010Prop29
280
     1
102
RTVSPost2010PropOp29
 70
     1
102
RTVSPost2010Prop30
280
     1
102
RTVSPost2010PropOp30
 70
     1
102
RTVSPost2010Prop31
280
     0
102
RTVSPost2010PropOp31
 70
     1
102
RTVSPost2010Prop32
280
     0
102
RTVSPost2010PropOp32
 70
     1
102
RTVSPost2010Prop33
280
     0
102
RTVSPost2010PropOp33
 70
     1
102
RTVSPost2010Prop34
280
     0
102
RTVSPost2010PropOp34
 70
     1
102
RTVSPost2010Prop35
280
     0
102
RTVSPost2010PropOp35
 70
     1
102
RTVSPost2010Prop36
280
     0
102
RTVSPost2010PropOp36
 70
     1
102
RTVSPost2010Prop37
 90
       50
102
RTVSPost2010PropOp37
 70
     1
102
RTVSPost2010Prop38
140
0.0
102
RTVSPost2010PropOp38
 70
     1
102
RTVSPost2010Prop39
140
1.0
102
RTVSPost2010PropOp39
 70
     1
102
RTVSPost2010Prop40
 90
        0
102
RTVSPost2010PropOp40
 70
     1
102
RTVSPost2010Prop41ColorIndex
 90
       18
102
RTVSPost2010Prop41ColorRGB
 90
        0
102
RTVSPost2010PropOp41
 70
     1
102
RTVSPost2010Prop42
 90
       50
102
RTVSPost2010PropOp42
 70
     1
102
RTVSPost2010Prop43
 90
        3
102
RTVSPost2010PropOp43
 70
     1
102
RTVSPost2010Prop44ColorIndex
 90
        5
102
RTVSPost2010Prop44ColorRGB
 90
      255
102
RTVSPost2010PropOp44
 70
     1
102
RTVSPost2010Prop45
280
     0
102
RTVSPost2010PropOp45
 70
     1
102
RTVSPost2010Prop46
 90
       50
102
RTVSPost2010PropOp46
 70
     1
102
RTVSPost2010Prop47
 90
       50
102
RTVSPost2010PropOp47
 70
     1
102
RTVSPost2010Prop48
 90
       50
102
RTVSPost2010PropOp48
 70
     1
102
RTVSPost2010Prop49
280
     0
102
RTVSPost2010PropOp49
 70
     1
102
RTVSPost2010Prop50
 90
       50
102
RTVSPost2010PropOp50
 70
     1
102
RTVSPost2010Prop51ColorIndex
 90
      256
102
RTVSPost2010Prop51ColorRGB
 90
-16777216
102
RTVSPost2010PropOp51
 70
     0
102
RTVSPost2010Prop52
140
1.0
102
RTVSPost2010PropOp52
 70
     0
102
RTVSPost2010Prop53
 90
        2
102
RTVSPost2010PropOp53
 70
     1
102
RTVSPost2010Prop54
  1
strokes_ogs.tif
102
RTVSPost2010PropOp54
 70
     1
102
RTVSPost2010Prop55
280
     0
102
RTVSPost2010PropOp55
 70
     1
102
RTVSPost2010Prop56
140
1.0
102
RTVSPost2010PropOp56
 70
     1
102
RTVSPost2010Prop57
140
1.0
102
RTVSPost2010PropOp57
 70
     1
  0
XRECORD
  5
15E
102
{ACAD_REACTORS
330
15D
102
}
330
15D
100
AcDbXrecord
280
     1
102
RTVSPost2010Prop28
280
     0
102
RTVSPost2010PropOp28
 70
     1
102
RTVSPost2010Prop29
280
     1
102
RTVSPost2010PropOp29
 70
     1
102
RTVSPost2010Prop30
280
     1
102
RTVSPost2010PropOp30
 70
     1
102
RTVSPost2010Prop31
280
     0
102
RTVSPost2010PropOp31
 70
     1
102
RTVSPost2010Prop32
280
     0
102
RTVSPost2010PropOp32
 70
     1
102
RTVSPost2010Prop33
280
     0
102
RTVSPost2010PropOp33
 70
     1
102
RTVSPost2010Prop34
280
     0
102
RTVSPost2010PropOp34
 70
     1
102
RTVSPost2010Prop35
280
     0
102
RTVSPost2010PropOp35
 70
     1
102
RTVSPost2010Prop36
280
     0
102
RTVSPost2010PropOp36
 70
     1
102
RTVSPost2010Prop37
 90
       50
102
RTVSPost2010PropOp37
 70
     1
102
RTVSPost2010Prop38
140
0.0
102
RTVSPost2010PropOp38
 70
     1
102
RTVSPost2010Prop39
140
1.0
102
RTVSPost2010PropOp39
 70
     1
102
RTVSPost2010Prop40
 90
        0
102
RTVSPost2010PropOp40
 70
     1
102
RTVSPost2010Prop41ColorIndex
 90
       18
102
RTVSPost2010Prop41ColorRGB
 90
        0
102
RTVSPost2010PropOp41
 70
     1
102
RTVSPost2010Prop42
 90
       50
102
RTVSPost2010PropOp42
 70
     1
102
RTVSPost2010Prop43
 90
        3
102
RTVSPost2010PropOp43
 70
     1
102
RTVSPost2010Prop44ColorIndex
 90
        5
102
RTVSPost2010Prop44ColorRGB
 90
      255
102
RTVSPost2010PropOp44
 70
     1
102
RTVSPost2010Prop45
280
     0
102
RTVSPost2010PropOp45
 70
     1
102
RTVSPost2010Prop46
 90
       50
102
RTVSPost2010PropOp46
 70
     1
102
RTVSPost2010Prop47
 90
       50
102
RTVSPost2010PropOp47
 70
     1
102
RTVSPost2010Prop48
 90
       50
102
RTVSPost2010PropOp48
 70
     1
102
RTVSPost2010Prop49
280
     0
102
RTVSPost2010PropOp49
 70
     1
102
RTVSPost2010Prop50
 90
       50
102
RTVSPost2010PropOp50
 70
     1
102
RTVSPost2010Prop51ColorIndex
 90
      256
102
RTVSPost2010Prop51ColorRGB
 90
-16777216
102
RTVSPost2010PropOp51
 70
     0
102
RTVSPost2010Prop52
140
1.0
102
RTVSPost2010PropOp52
 70
     0
102
RTVSPost2010Prop53
 90
        2
102
RTVSPost2010PropOp53
 70
     1
102
RTVSPost2010Prop54
  1
strokes_ogs.tif
102
RTVSPost2010PropOp54
 70
     1
102
RTVSPost2010Prop55
280
     0
102
RTVSPost2010PropOp55
 70
     1
102
RTVSPost2010Prop56
140
1.0
102
RTVSPost2010PropOp56
 70
     1
102
RTVSPost2010Prop57
140
1.0
102
RTVSPost2010PropOp57
 70
     1
  0
XRECORD
  5
160
102
{ACAD_REACTORS
330
15F
102
}
330
15F
100
AcDbXrecord
280
     1
102
RTVSPost2010Prop28
280
     0
102
RTVSPost2010PropOp28
 70
     1
102
RTVSPost2010Prop29
280
     1
102
RTVSPost2010PropOp29
 70
     1
102
RTVSPost2010Prop30
280
     1
102
RTVSPost2010PropOp30
 70
     1
102
RTVSPost2010Prop31
280
     0
102
RTVSPost2010PropOp31
 70
     1
102
RTVSPost2010Prop32
280
     0
102
RTVSPost2010PropOp32
 70
     1
102
RTVSPost2010Prop33
280
     0
102
RTVSPost2010PropOp33
 70
     1
102
RTVSPost2010Prop34
280
     0
102
RTVSPost2010PropOp34
 70
     1
102
RTVSPost2010Prop35
280
     0
102
RTVSPost2010PropOp35
 70
     1
102
RTVSPost2010Prop36
280
     0
102
RTVSPost2010PropOp36
 70
     1
102
RTVSPost2010Prop37
 90
       50
102
RTVSPost2010PropOp37
 70
     1
102
RTVSPost2010Prop38
140
0.0
102
RTVSPost2010PropOp38
 70
     1
102
RTVSPost2010Prop39
140
1.0
102
RTVSPost2010PropOp39
 70
     1
102
RTVSPost2010Prop40
 90
        0
102
RTVSPost2010PropOp40
 70
     1
102
RTVSPost2010Prop41ColorIndex
 90
       18
102
RTVSPost2010Prop41ColorRGB
 90
        0
102
RTVSPost2010PropOp41
 70
     1
102
RTVSPost2010Prop42
 90
       50
102
RTVSPost2010PropOp42
 70
     1
102
RTVSPost2010Prop43
 90
        3
102
RTVSPost2010PropOp43
 70
     1
102
RTVSPost2010Prop44ColorIndex
 90
        5
102
RTVSPost2010Prop44ColorRGB
 90
      255
102
RTVSPost2010PropOp44
 70
     1
102
RTVSPost2010Prop45
280
     0
102
RTVSPost2010PropOp45
 70
     1
102
RTVSPost2010Prop46
 90
       50
102
RTVSPost2010PropOp46
 70
     1
102
RTVSPost2010Prop47
 90
       50
102
RTVSPost2010PropOp47
 70
     1
102
RTVSPost2010Prop48
 90
       50
102
RTVSPost2010PropOp48
 70
     1
102
RTVSPost2010Prop49
280
     0
102
RTVSPost2010PropOp49
 70
     1
102
RTVSPost2010Prop50
 90
       50
102
RTVSPost2010PropOp50
 70
     1
102
RTVSPost2010Prop51ColorIndex
 90
      256
102
RTVSPost2010Prop51ColorRGB
 90
-16777216
102
RTVSPost2010PropOp51
 70
     0
102
RTVSPost2010Prop52
140
1.0
102
RTVSPost2010PropOp52
 70
     0
102
RTVSPost2010Prop53
 90
        2
102
RTVSPost2010PropOp53
 70
     1
102
RTVSPost2010Prop54
  1
strokes_ogs.tif
102
RTVSPost2010PropOp54
 70
     1
102
RTVSPost2010Prop55
280
     0
102
RTVSPost2010PropOp55
 70
     1
102
RTVSPost2010Prop56
140
1.0
102
RTVSPost2010PropOp56
 70
     1
102
RTVSPost2010Prop57
140
1.0
102
RTVSPost2010PropOp57
 70
     1
  0
XRECORD
  5
156
102
{ACAD_REACTORS
330
155
102
}
330
155
100
AcDbXrecord
280
     1
102
RTVSPost2010Prop28
280
     0
102
RTVSPost2010PropOp28
 70
     1
102
RTVSPost2010Prop29
280
     1
102
RTVSPost2010PropOp29
 70
     1
102
RTVSPost2010Prop30
280
     1
102
RTVSPost2010PropOp30
 70
     1
102
RTVSPost2010Prop31
280
     0
102
RTVSPost2010PropOp31
 70
     1
102
RTVSPost2010Prop32
280
     0
102
RTVSPost2010PropOp32
 70
     1
102
RTVSPost2010Prop33
280
     0
102
RTVSPost2010PropOp33
 70
     1
102
RTVSPost2010Prop34
280
     0
102
RTVSPost2010PropOp34
 70
     1
102
RTVSPost2010Prop35
280
     0
102
RTVSPost2010PropOp35
 70
     1
102
RTVSPost2010Prop36
280
     0
102
RTVSPost2010PropOp36
 70
     1
102
RTVSPost2010Prop37
 90
       50
102
RTVSPost2010PropOp37
 70
     1
102
RTVSPost2010Prop38
140
0.0
102
RTVSPost2010PropOp38
 70
     1
102
RTVSPost2010Prop39
140
1.0
102
RTVSPost2010PropOp39
 70
     1
102
RTVSPost2010Prop40
 90
        0
102
RTVSPost2010PropOp40
 70
     1
102
RTVSPost2010Prop41ColorIndex
 90
       18
102
RTVSPost2010Prop41ColorRGB
 90
        0
102
RTVSPost2010PropOp41
 70
     1
102
RTVSPost2010Prop42
 90
       50
102
RTVSPost2010PropOp42
 70
     1
102
RTVSPost2010Prop43
 90
        3
102
RTVSPost2010PropOp43
 70
     1
102
RTVSPost2010Prop44ColorIndex
 90
        5
102
RTVSPost2010Prop44ColorRGB
 90
      255
102
RTVSPost2010PropOp44
 70
     1
102
RTVSPost2010Prop45
280
     0
102
RTVSPost2010PropOp45
 70
     1
102
RTVSPost2010Prop46
 90
       50
102
RTVSPost2010PropOp46
 70
     1
102
RTVSPost2010Prop47
 90
       50
102
RTVSPost2010PropOp47
 70
     1
102
RTVSPost2010Prop48
 90
       50
102
RTVSPost2010PropOp48
 70
     1
102
RTVSPost2010Prop49
280
     0
102
RTVSPost2010PropOp49
 70
     1
102
RTVSPost2010Prop50
 90
       50
102
RTVSPost2010PropOp50
 70
     1
102
RTVSPost2010Prop51ColorIndex
 90
      256
102
RTVSPost2010Prop51ColorRGB
 90
-16777216
102
RTVSPost2010PropOp51
 70
     0
102
RTVSPost2010Prop52
140
1.0
102
RTVSPost2010PropOp52
 70
     0
102
RTVSPost2010Prop53
 90
        2
102
RTVSPost2010PropOp53
 70
     1
102
RTVSPost2010Prop54
  1
strokes_ogs.tif
102
RTVSPost2010PropOp54
 70
     1
102
RTVSPost2010Prop55
280
     0
102
RTVSPost2010PropOp55
 70
     1
102
RTVSPost2010Prop56
140
1.0
102
RTVSPost2010PropOp56
 70
     1
102
RTVSPost2010Prop57
140
1.0
102
RTVSPost2010PropOp57
 70
     1
  0
XRECORD
  5
14A
102
{ACAD_REACTORS
330
149
102
}
330
149
100
AcDbXrecord
280
     1
102
RTVSPost2010Prop28
280
     0
102
RTVSPost2010PropOp28
 70
     1
102
RTVSPost2010Prop29
280
     1
102
RTVSPost2010PropOp29
 70
     1
102
RTVSPost2010Prop30
280
     1
102
RTVSPost2010PropOp30
 70
     1
102
RTVSPost2010Prop31
280
     0
102
RTVSPost2010PropOp31
 70
     1
102
RTVSPost2010Prop32
280
     0
102
RTVSPost2010PropOp32
 70
     1
102
RTVSPost2010Prop33
280
     0
102
RTVSPost2010PropOp33
 70
     1
102
RTVSPost2010Prop34
280
     0
102
RTVSPost2010PropOp34
 70
     1
102
RTVSPost2010Prop35
280
     0
102
RTVSPost2010PropOp35
 70
     1
102
RTVSPost2010Prop36
280
     0
102
RTVSPost2010PropOp36
 70
     1
102
RTVSPost2010Prop37
 90
       50
102
RTVSPost2010PropOp37
 70
     1
102
RTVSPost2010Prop38
140
0.0
102
RTVSPost2010PropOp38
 70
     1
102
RTVSPost2010Prop39
140
1.0
102
RTVSPost2010PropOp39
 70
     1
102
RTVSPost2010Prop40
 90
        0
102
RTVSPost2010PropOp40
 70
     1
102
RTVSPost2010Prop41ColorIndex
 90
       18
102
RTVSPost2010Prop41ColorRGB
 90
        0
102
RTVSPost2010PropOp41
 70
     1
102
RTVSPost2010Prop42
 90
       50
102
RTVSPost2010PropOp42
 70
     1
102
RTVSPost2010Prop43
 90
        3
102
RTVSPost2010PropOp43
 70
     1
102
RTVSPost2010Prop44ColorIndex
 90
        5
102
RTVSPost2010Prop44ColorRGB
 90
      255
102
RTVSPost2010PropOp44
 70
     1
102
RTVSPost2010Prop45
280
     0
102
RTVSPost2010PropOp45
 70
     1
102
RTVSPost2010Prop46
 90
       50
102
RTVSPost2010PropOp46
 70
     1
102
RTVSPost2010Prop47
 90
       50
102
RTVSPost2010PropOp47
 70
     1
102
RTVSPost2010Prop48
 90
       50
102
RTVSPost2010PropOp48
 70
     1
102
RTVSPost2010Prop49
280
     0
102
RTVSPost2010PropOp49
 70
     1
102
RTVSPost2010Prop50
 90
       50
102
RTVSPost2010PropOp50
 70
     1
102
RTVSPost2010Prop51ColorIndex
 90
      256
102
RTVSPost2010Prop51ColorRGB
 90
-16777216
102
RTVSPost2010PropOp51
 70
     0
102
RTVSPost2010Prop52
140
1.0
102
RTVSPost2010PropOp52
 70
     0
102
RTVSPost2010Prop53
 90
        2
102
RTVSPost2010PropOp53
 70
     1
102
RTVSPost2010Prop54
  1
strokes_ogs.tif
102
RTVSPost2010PropOp54
 70
     1
102
RTVSPost2010Prop55
280
     0
102
RTVSPost2010PropOp55
 70
     1
102
RTVSPost2010Prop56
140
1.0
102
RTVSPost2010PropOp56
 70
     1
102
RTVSPost2010Prop57
140
1.0
102
RTVSPost2010PropOp57
 70
     1
  0
XRECORD
  5
162
102
{ACAD_REACTORS
330
161
102
}
330
161
100
AcDbXrecord
280
     1
102
RTVSPost2010Prop28
280
     0
102
RTVSPost2010PropOp28
 70
     1
102
RTVSPost2010Prop29
280
     1
102
RTVSPost2010PropOp29
 70
     1
102
RTVSPost2010Prop30
280
     1
102
RTVSPost2010PropOp30
 70
     1
102
RTVSPost2010Prop31
280
     0
102
RTVSPost2010PropOp31
 70
     1
102
RTVSPost2010Prop32
280
     0
102
RTVSPost2010PropOp32
 70
     1
102
RTVSPost2010Prop33
280
     0
102
RTVSPost2010PropOp33
 70
     1
102
RTVSPost2010Prop34
280
     0
102
RTVSPost2010PropOp34
 70
     1
102
RTVSPost2010Prop35
280
     0
102
RTVSPost2010PropOp35
 70
     1
102
RTVSPost2010Prop36
280
     0
102
RTVSPost2010PropOp36
 70
     1
102
RTVSPost2010Prop37
 90
       50
102
RTVSPost2010PropOp37
 70
     1
102
RTVSPost2010Prop38
140
0.0
102
RTVSPost2010PropOp38
 70
     1
102
RTVSPost2010Prop39
140
1.0
102
RTVSPost2010PropOp39
 70
     1
102
RTVSPost2010Prop40
 90
        0
102
RTVSPost2010PropOp40
 70
     1
102
RTVSPost2010Prop41ColorIndex
 90
       18
102
RTVSPost2010Prop41ColorRGB
 90
        0
102
RTVSPost2010PropOp41
 70
     1
102
RTVSPost2010Prop42
 90
       50
102
RTVSPost2010PropOp42
 70
     1
102
RTVSPost2010Prop43
 90
        3
102
RTVSPost2010PropOp43
 70
     1
102
RTVSPost2010Prop44ColorIndex
 90
        5
102
RTVSPost2010Prop44ColorRGB
 90
      255
102
RTVSPost2010PropOp44
 70
     1
102
RTVSPost2010Prop45
280
     0
102
RTVSPost2010PropOp45
 70
     1
102
RTVSPost2010Prop46
 90
       50
102
RTVSPost2010PropOp46
 70
     1
102
RTVSPost2010Prop47
 90
       50
102
RTVSPost2010PropOp47
 70
     1
102
RTVSPost2010Prop48
 90
       50
102
RTVSPost2010PropOp48
 70
     1
102
RTVSPost2010Prop49
280
     0
102
RTVSPost2010PropOp49
 70
     1
102
RTVSPost2010Prop50
 90
       50
102
RTVSPost2010PropOp50
 70
     1
102
RTVSPost2010Prop51ColorIndex
 90
      256
102
RTVSPost2010Prop51ColorRGB
 90
-16777216
102
RTVSPost2010PropOp51
 70
     0
102
RTVSPost2010Prop52
140
1.0
102
RTVSPost2010PropOp52
 70
     0
102
RTVSPost2010Prop53
 90
        2
102
RTVSPost2010PropOp53
 70
     1
102
RTVSPost2010Prop54
  1
strokes_ogs.tif
102
RTVSPost2010PropOp54
 70
     1
102
RTVSPost2010Prop55
280
     0
102
RTVSPost2010PropOp55
 70
     1
102
RTVSPost2010Prop56
140
1.0
102
RTVSPost2010PropOp56
 70
     1
102
RTVSPost2010Prop57
140
1.0
102
RTVSPost2010PropOp57
 70
     1
  0
ENDSEC
  0
EOF
