  0
SECTION
  2
HEADER
  9
$ACADVER
  1
AC1024
  9
$ACADMAINTVER
 70
   226
  9
$DWGCODEPAGE
  3
ANSI_932
  9
$INSBASE
 10
0.0
 20
0.0
 30
0.0
  9
$EXTMIN
 10
1.000000000000000E+20
 20
1.000000000000000E+20
 30
1.000000000000000E+20
  9
$EXTMAX
 10
-1.000000000000000E+20
 20
-1.000000000000000E+20
 30
-1.000000000000000E+20
  9
$LIMMIN
 10
0.0
 20
0.0
  9
$LIMMAX
 10
12.0
 20
9.0
  9
$ORTHOMODE
 70
     0
  9
$REGENMODE
 70
     1
  9
$FILLMODE
 70
     1
  9
$QTEXTMODE
 70
     0
  9
$MIRRTEXT
 70
     0
  9
$LTSCALE
 40
1.0
  9
$ATTMODE
 70
     1
  9
$TEXTSIZE
 40
0.2
  9
$TRACEWID
 40
0.05
  9
$TEXTSTYLE
  7
Standard
  9
$CLAYER
  8
0
  9
$CELTYPE
  6
ByLayer
  9
$CECOLOR
 62
   256
  9
$CELTSCALE
 40
1.0
  9
$DISPSILH
 70
     0
  9
$DIMSCALE
 40
1.0
  9
$DIMASZ
 40
0.18
  9
$DIMEXO
 40
0.0625
  9
$DIMDLI
 40
0.38
  9
$DIMRND
 40
0.0
  9
$DIMDLE
 40
0.0
  9
$DIMEXE
 40
0.18
  9
$DIMTP
 40
0.0
  9
$DIMTM
 40
0.0
  9
$DIMTXT
 40
0.18
  9
$DIMCEN
 40
0.09
  9
$DIMTSZ
 40
0.0
  9
$DIMTOL
 70
     0
  9
$DIMLIM
 70
     0
  9
$DIMTIH
 70
     1
  9
$DIMTOH
 70
     1
  9
$DIMSE1
 70
     0
  9
$DIMSE2
 70
     0
  9
$DIMTAD
 70
     0
  9
$DIMZIN
 70
     0
  9
$DIMBLK
  1

  9
$DIMASO
 70
     1
  9
$DIMSHO
 70
     1
  9
$DIMPOST
  1

  9
$DIMAPOST
  1

  9
$DIMALT
 70
     0
  9
$DIMALTD
 70
     2
  9
$DIMALTF
 40
25.4
  9
$DIMLFAC
 40
1.0
  9
$DIMTOFL
 70
     0
  9
$DIMTVP
 40
0.0
  9
$DIMTIX
 70
     0
  9
$DIMSOXD
 70
     0
  9
$DIMSAH
 70
     0
  9
$DIMBLK1
  1

  9
$DIMBLK2
  1

  9
$DIMSTYLE
  2
Standard
  9
$DIMCLRD
 70
     0
  9
$DIMCLRE
 70
     0
  9
$DIMCLRT
 70
     0
  9
$DIMTFAC
 40
1.0
  9
$DIMGAP
 40
0.09
  9
$DIMJUST
 70
     0
  9
$DIMSD1
 70
     0
  9
$DIMSD2
 70
     0
  9
$DIMTOLJ
 70
     1
  9
$DIMTZIN
 70
     0
  9
$DIMALTZ
 70
     0
  9
$DIMALTTZ
 70
     0
  9
$DIMUPT
 70
     0
  9
$DIMDEC
 70
     4
  9
$DIMTDEC
 70
     4
  9
$DIMALTU
 70
     2
  9
$DIMALTTD
 70
     2
  9
$DIMTXSTY
  7
Standard
  9
$DIMAUNIT
 70
     0
  9
$DIMADEC
 70
     0
  9
$DIMALTRND
 40
0.0
  9
$DIMAZIN
 70
     0
  9
$DIMDSEP
 70
    46
  9
$DIMATFIT
 70
     3
  9
$DIMFRAC
 70
     0
  9
$DIMLDRBLK
  1

  9
$DIMLUNIT
 70
     2
  9
$DIMLWD
 70
    -2
  9
$DIMLWE
 70
    -2
  9
$DIMTMOVE
 70
     0
  9
$DIMFXL
 40
1.0
  9
$DIMFXLON
 70
     0
  9
$DIMJOGANG
 40
0.7853981633974483
  9
$DIMTFILL
 70
     0
  9
$DIMTFILLCLR
 70
     0
  9
$DIMARCSYM
 70
     0
  9
$DIMLTYPE
  6

  9
$DIMLTEX1
  6

  9
$DIMLTEX2
  6

  9
$DIMTXTDIRECTION
 70
     0
  9
$LUNITS
 70
     2
  9
$LUPREC
 70
     4
  9
$SKETCHINC
 40
0.1
  9
$FILLETRAD
 40
0.0
  9
$AUNITS
 70
     0
  9
$AUPREC
 70
     0
  9
$MENU
  1
.
  9
$ELEVATION
 40
0.0
  9
$PELEVATION
 40
0.0
  9
$THICKNESS
 40
0.0
  9
$LIMCHECK
 70
     0
  9
$CHAMFERA
 40
0.0
  9
$CHAMFERB
 40
0.0
  9
$CHAMFERC
 40
0.0
  9
$CHAMFERD
 40
0.0
  9
$SKPOLY
 70
     0
  9
$TDCREATE
 40
2459569.488611111
  9
$TDUCREATE
 40
2459569.113611111
  9
$TDUPDATE
 40
2459569.488611111
  9
$TDUUPDATE
 40
2459569.113611111
  9
$TDINDWG
 40
0.0000000000
  9
$TDUSRTIMER
 40
0.0000000000
  9
$USRTIMER
 70
     1
  9
$ANGBASE
 50
0.0
  9
$ANGDIR
 70
     0
  9
$PDMODE
 70
     0
  9
$PDSIZE
 40
0.0
  9
$PLINEWID
 40
0.0
  9
$SPLFRAME
 70
     0
  9
$SPLINETYPE
 70
     6
  9
$SPLINESEGS
 70
     8
  9
$HANDSEED
  5
134
  9
$SURFTAB1
 70
     6
  9
$SURFTAB2
 70
     6
  9
$SURFTYPE
 70
     6
  9
$SURFU
 70
     6
  9
$SURFV
 70
     6
  9
$UCSBASE
  2

  9
$UCSNAME
  2

  9
$UCSORG
 10
0.0
 20
0.0
 30
0.0
  9
$UCSXDIR
 10
1.0
 20
0.0
 30
0.0
  9
$UCSYDIR
 10
0.0
 20
1.0
 30
0.0
  9
$UCSORTHOREF
  2

  9
$UCSORTHOVIEW
 70
     0
  9
$UCSORGTOP
 10
0.0
 20
0.0
 30
0.0
  9
$UCSORGBOTTOM
 10
0.0
 20
0.0
 30
0.0
  9
$UCSORGLEFT
 10
0.0
 20
0.0
 30
0.0
  9
$UCSORGRIGHT
 10
0.0
 20
0.0
 30
0.0
  9
$UCSORGFRONT
 10
0.0
 20
0.0
 30
0.0
  9
$UCSORGBACK
 10
0.0
 20
0.0
 30
0.0
  9
$PUCSBASE
  2

  9
$PUCSNAME
  2

  9
$PUCSORG
 10
0.0
 20
0.0
 30
0.0
  9
$PUCSXDIR
 10
1.0
 20
0.0
 30
0.0
  9
$PUCSYDIR
 10
0.0
 20
1.0
 30
0.0
  9
$PUCSORTHOREF
  2

  9
$PUCSORTHOVIEW
 70
     0
  9
$PUCSORGTOP
 10
0.0
 20
0.0
 30
0.0
  9
$PUCSORGBOTTOM
 10
0.0
 20
0.0
 30
0.0
  9
$PUCSORGLEFT
 10
0.0
 20
0.0
 30
0.0
  9
$PUCSORGRIGHT
 10
0.0
 20
0.0
 30
0.0
  9
$PUCSORGFRONT
 10
0.0
 20
0.0
 30
0.0
  9
$PUCSORGBACK
 10
0.0
 20
0.0
 30
0.0
  9
$USERI1
 70
     0
  9
$USERI2
 70
     0
  9
$USERI3
 70
     0
  9
$USERI4
 70
     0
  9
$USERI5
 70
     0
  9
$USERR1
 40
0.0
  9
$USERR2
 40
0.0
  9
$USERR3
 40
0.0
  9
$USERR4
 40
0.0
  9
$USERR5
 40
0.0
  9
$WORLDVIEW
 70
     1
  9
$SHADEDGE
 70
     3
  9
$SHADEDIF
 70
    70
  9
$TILEMODE
 70
     1
  9
$MAXACTVP
 70
    64
  9
$PINSBASE
 10
0.0
 20
0.0
 30
0.0
  9
$PLIMCHECK
 70
     0
  9
$PEXTMIN
 10
1.000000000000000E+20
 20
1.000000000000000E+20
 30
1.000000000000000E+20
  9
$PEXTMAX
 10
-1.000000000000000E+20
 20
-1.000000000000000E+20
 30
-1.000000000000000E+20
  9
$PLIMMIN
 10
0.0
 20
0.0
  9
$PLIMMAX
 10
12.0
 20
9.0
  9
$UNITMODE
 70
     0
  9
$VISRETAIN
 70
     1
  9
$PLINEGEN
 70
     0
  9
$PSLTSCALE
 70
     1
  9
$TREEDEPTH
 70
  3020
  9
$CMLSTYLE
  2
Standard
  9
$CMLJUST
 70
     0
  9
$CMLSCALE
 40
1.0
  9
$PROXYGRAPHICS
 70
     1
  9
$MEASUREMENT
 70
     0
  9
$CELWEIGHT
370
    -1
  9
$ENDCAPS
280
     0
  9
$JOINSTYLE
280
     0
  9
$LWDISPLAY
290
     1
  9
$INSUNITS
 70
     4
  9
$HYPERLINKBASE
  1

  9
$STYLESHEET
  1

  9
$XEDIT
290
     1
  9
$CEPSNTYPE
380
     0
  9
$PSTYLEMODE
290
     1
  9
$FINGERPRINTGUID
  2
{39C21ADC-804E-5547-B35B-EE266F4F3DF8}
  9
$VERSIONGUID
  2
{1F9F1FB2-953F-D94F-9DF2-5400EF27659D}
  9
$EXTNAMES
290
     1
  9
$PSVPSCALE
 40
0.0
  9
$OLESTARTUP
290
     0
  9
$SORTENTS
280
   127
  9
$INDEXCTL
280
     0
  9
$HIDETEXT
280
     1
  9
$XCLIPFRAME
280
     2
  9
$HALOGAP
280
     0
  9
$OBSCOLOR
 70
   257
  9
$OBSLTYPE
280
     0
  9
$INTERSECTIONDISPLAY
280
     0
  9
$INTERSECTIONCOLOR
 70
   257
  9
$DIMASSOC
280
     2
  9
$PROJECTNAME
  1

  9
$CAMERADISPLAY
290
     0
  9
$LENSLENGTH
 40
50.0
  9
$CAMERAHEIGHT
 40
0.0
  9
$STEPSPERSEC
 40
2.0
  9
$STEPSIZE
 40
6.0
  9
$3DDWFPREC
 40
2.0
  9
$PSOLWIDTH
 40
0.25
  9
$PSOLHEIGHT
 40
4.0
  9
$LOFTANG1
 40
1.570796326794896
  9
$LOFTANG2
 40
1.570796326794896
  9
$LOFTMAG1
 40
0.0
  9
$LOFTMAG2
 40
0.0
  9
$LOFTPARAM
 70
     7
  9
$LOFTNORMALS
280
     1
  9
$LATITUDE
 40
37.795
  9
$LONGITUDE
 40
-122.394
  9
$NORTHDIRECTION
 40
0.0
  9
$TIMEZONE
 70
 -8000
  9
$LIGHTGLYPHDISPLAY
280
     1
  9
$TILEMODELIGHTSYNCH
280
     1
  9
$CMATERIAL
347
11
  9
$SOLIDHIST
280
     0
  9
$SHOWHIST
280
     1
  9
$DWFFRAME
280
     2
  9
$DGNFRAME
280
     0
  9
$REALWORLDSCALE
290
     1
  9
$INTERFERECOLOR
 62
     1
  9
$INTERFEREOBJVS
345
33
  9
$INTERFEREVPVS
346
30
  9
$CSHADOW
280
     0
  9
$SHADOWPLANELOCATION
 40
0.0
  0
ENDSEC
  0
SECTION
  2
CLASSES
  0
CLASS
  1
ACDBDICTIONARYWDFLT
  2
AcDbDictionaryWithDefault
  3
ObjectDBX Classes
 90
        0
 91
        1
280
     0
281
     0
  0
CLASS
  1
MATERIAL
  2
AcDbMaterial
  3
ObjectDBX Classes
 90
     1153
 91
        3
280
     0
281
     0
  0
CLASS
  1
VISUALSTYLE
  2
AcDbVisualStyle
  3
ObjectDBX Classes
 90
     4095
 91
       24
280
     0
281
     0
  0
CLASS
  1
SCALE
  2
AcDbScale
  3
ObjectDBX Classes
 90
     1153
 91
       17
280
     0
281
     0
  0
CLASS
  1
TABLESTYLE
  2
AcDbTableStyle
  3
ObjectDBX Classes
 90
     4095
 91
        1
280
     0
281
     0
  0
CLASS
  1
MLEADERSTYLE
  2
AcDbMLeaderStyle
  3
ACDB_MLEADERSTYLE_CLASS
 90
     4095
 91
        1
280
     0
281
     0
  0
CLASS
  1
ACDBSECTIONVIEWSTYLE
  2
AcDbSectionViewStyle
  3
ObjectDBX Classes
 90
     1025
 91
        1
280
     0
281
     0
  0
CLASS
  1
ACDBDETAILVIEWSTYLE
  2
AcDbDetailViewStyle
  3
ObjectDBX Classes
 90
     1025
 91
        1
280
     0
281
     0
  0
CLASS
  1
DICTIONARYVAR
  2
AcDbDictionaryVar
  3
ObjectDBX Classes
 90
        0
 91
        5
280
     0
281
     0
  0
CLASS
  1
CELLSTYLEMAP
  2
AcDbCellStyleMap
  3
ObjectDBX Classes
 90
     1152
 91
        1
280
     0
281
     0
  0
ENDSEC
  0
SECTION
  2
TABLES
  0
TABLE
  2
VPORT
  5
8
330
0
100
AcDbSymbolTable
 70
     1
  0
VPORT
  5
57
330
8
100
AcDbSymbolTableRecord
100
AcDbViewportTableRecord
  2
*Active
 70
     0
 10
0.0
 20
0.0
 11
1.0
 21
1.0
 12
0.0
 22
0.0
 13
0.0
 23
0.0
 14
1.0
 24
1.0
 15
0.0
 25
0.0
 16
0.0
 26
0.0
 36
1.0
 17
104.9999999737534
 27
-148.4999999628701
 37
0.0
 40
302.939999924255
 41
0.7070707070707534
 42
50.0
 43
0.0
 44
0.0
 50
0.0
 51
0.0
 71
     0
 72
   100
 73
     1
 74
     0
 75
     1
 76
     0
 77
     0
 78
     0
281
     0
 65
     1
110
0.0
120
0.0
130
0.0
111
1.0
121
0.0
131
0.0
112
0.0
122
1.0
132
0.0
 79
     0
146
0.0
 60
     3
 61
     5
292
     1
282
     1
141
0.0
142
0.0
 63
   250
421
  3355443
  0
ENDTAB
  0
TABLE
  2
LTYPE
  5
5
330
0
100
AcDbSymbolTable
 70
     3
  0
LTYPE
  5
5B
330
5
100
AcDbSymbolTableRecord
100
AcDbLinetypeTableRecord
  2
ByBlock
 70
     0
  3

 72
    65
 73
     0
 40
0.0
  0
LTYPE
  5
5C
330
5
100
AcDbSymbolTableRecord
100
AcDbLinetypeTableRecord
  2
ByLayer
 70
     0
  3

 72
    65
 73
     0
 40
0.0
  0
LTYPE
  5
5D
330
5
100
AcDbSymbolTableRecord
100
AcDbLinetypeTableRecord
  2
Continuous
 70
     0
  3
Solid line
 72
    65
 73
     0
 40
0.0
  0
LTYPE
  5
D2
330
5
100
AcDbSymbolTableRecord
100
AcDbLinetypeTableRecord
  2
AI-Linetype-0
 70
     0
  3
Adobe Illustrator Linetype No. 0
 72
    65
 73
     2
 40
1.411111110758333
 49
0.7055555553791667
 74
     0
 49
-0.7055555553791667
 74
     0
  0
LTYPE
  5
F1
330
5
100
AcDbSymbolTableRecord
100
AcDbLinetypeTableRecord
  2
AI-Linetype-1
 70
     0
  3
Adobe Illustrator Linetype No. 1
 72
    65
 73
     2
 40
1.411111110758333
 49
0.7055555553791667
 74
     0
 49
-0.7055555553791667
 74
     0
  0
ENDTAB
  0
TABLE
  2
LAYER
  5
2
330
0
100
AcDbSymbolTable
 70
     2
  0
LAYER
  5
54
330
2
100
AcDbSymbolTableRecord
100
AcDbLayerTableRecord
  2
0
 70
     0
 62
     7
  6
Continuous
370
    -3
390
F
347
21
  0
LAYER
  5
78
330
2
100
AcDbSymbolTableRecord
100
AcDbLayerTableRecord
  2
レイヤー 1
 70
     0
 62
     7
  6
Continuous
370
     0
390
F
347
21
  0
ENDTAB
  0
TABLE
  2
STYLE
  5
3
330
0
100
AcDbSymbolTable
 70
     2
  0
STYLE
  5
55
330
3
100
AcDbSymbolTableRecord
100
AcDbTextStyleTableRecord
  2
Standard
 70
     0
 40
0.0
 41
1.0
 50
0.0
 71
     0
 42
0.2
  3
txt
  4

  0
STYLE
  5
5A
330
3
100
AcDbSymbolTableRecord
100
AcDbTextStyleTableRecord
  2
Annotative
 70
     0
 40
0.0
 41
1.0
 50
0.0
 71
     0
 42
0.2
  3
txt
  4

1001
AcadAnnotative
1000
AnnotativeData
1002
{
1070
     1
1070
     1
1002
}
  0
ENDTAB
  0
TABLE
  2
VIEW
  5
6
330
0
100
AcDbSymbolTable
 70
     0
  0
ENDTAB
  0
TABLE
  2
UCS
  5
7
330
0
100
AcDbSymbolTable
 70
     0
  0
ENDTAB
  0
TABLE
  2
APPID
  5
9
330
0
100
AcDbSymbolTable
 70
     2
  0
APPID
  5
56
330
9
100
AcDbSymbolTableRecord
100
AcDbRegAppTableRecord
  2
ACAD
 70
     0
  0
APPID
  5
5E
330
9
100
AcDbSymbolTableRecord
100
AcDbRegAppTableRecord
  2
AcadAnnotative
 70
     0
  0
ENDTAB
  0
TABLE
  2
DIMSTYLE
  5
A
330
0
100
AcDbSymbolTable
 70
     2
100
AcDbDimStyleTable
 71
     0
  0
DIMSTYLE
105
58
330
A
100
AcDbSymbolTableRecord
100
AcDbDimStyleTableRecord
  2
Standard
 70
     0
340
55
  0
DIMSTYLE
105
59
330
A
100
AcDbSymbolTableRecord
100
AcDbDimStyleTableRecord
  2
Annotative
 70
     0
340
55
1001
AcadAnnotative
1000
AnnotativeData
1002
{
1070
     1
1070
     1
1002
}
  0
ENDTAB
  0
TABLE
  2
BLOCK_RECORD
  5
1
330
0
100
AcDbSymbolTable
 70
    12
  0
BLOCK_RECORD
  5
70
330
1
100
AcDbSymbolTableRecord
100
AcDbBlockTableRecord
  2
*Model_Space
340
73
 70
     0
280
     1
281
     0
  0
BLOCK_RECORD
  5
6C
330
1
100
AcDbSymbolTableRecord
100
AcDbBlockTableRecord
  2
*Paper_Space
340
6F
 70
     0
280
     1
281
     0
  0
BLOCK_RECORD
  5
74
330
1
100
AcDbSymbolTableRecord
100
AcDbBlockTableRecord
  2
*Paper_Space0
340
77
 70
     0
280
     1
281
     0
  0
BLOCK_RECORD
  5
79
330
1
100
AcDbSymbolTableRecord
100
AcDbBlockTableRecord
  2
Block_0
340
0
102
{BLKREFS
331
7A
102
}
 70
     0
280
     1
281
     0
  0
BLOCK_RECORD
  5
8B
330
1
100
AcDbSymbolTableRecord
100
AcDbBlockTableRecord
  2
Block_1
340
0
102
{BLKREFS
331
8C
102
}
 70
     0
280
     1
281
     0
  0
BLOCK_RECORD
  5
8F
330
1
100
AcDbSymbolTableRecord
100
AcDbBlockTableRecord
  2
Block_2
340
0
102
{BLKREFS
331
90
102
}
 70
     0
280
     1
281
     0
  0
BLOCK_RECORD
  5
9B
330
1
100
AcDbSymbolTableRecord
100
AcDbBlockTableRecord
  2
Block_3
340
0
102
{BLKREFS
331
9C
102
}
 70
     0
280
     1
281
     0
  0
BLOCK_RECORD
  5
9F
330
1
100
AcDbSymbolTableRecord
100
AcDbBlockTableRecord
  2
Block_4
340
0
102
{BLKREFS
331
A0
102
}
 70
     0
280
     1
281
     0
  0
BLOCK_RECORD
  5
A8
330
1
100
AcDbSymbolTableRecord
100
AcDbBlockTableRecord
  2
Block_5
340
0
102
{BLKREFS
331
A9
102
}
 70
     0
280
     1
281
     0
  0
BLOCK_RECORD
  5
AC
330
1
100
AcDbSymbolTableRecord
100
AcDbBlockTableRecord
  2
Block_6
340
0
102
{BLKREFS
331
AD
102
}
 70
     0
280
     1
281
     0
  0
BLOCK_RECORD
  5
B8
330
1
100
AcDbSymbolTableRecord
100
AcDbBlockTableRecord
  2
Block_7
340
0
102
{BLKREFS
331
B9
102
}
 70
     0
280
     1
281
     0
  0
BLOCK_RECORD
  5
BC
330
1
100
AcDbSymbolTableRecord
100
AcDbBlockTableRecord
  2
Block_8
340
0
102
{BLKREFS
331
BD
102
}
 70
     0
280
     1
281
     0
  0
BLOCK_RECORD
  5
D6
330
1
100
AcDbSymbolTableRecord
100
AcDbBlockTableRecord
  2
Block_9
340
0
102
{BLKREFS
331
D7
102
}
 70
     0
280
     1
281
     0
  0
BLOCK_RECORD
  5
DA
330
1
100
AcDbSymbolTableRecord
100
AcDbBlockTableRecord
  2
Block_10
340
0
102
{BLKREFS
331
DB
102
}
 70
     0
280
     1
281
     0
  0
ENDTAB
  0
ENDSEC
  0
SECTION
  2
BLOCKS
  0
BLOCK
  5
71
330
70
100
AcDbEntity
  8
0
100
AcDbBlockBegin
  2
*Model_Space
 70
     0
 10
0.0
 20
0.0
 30
0.0
  3
*Model_Space
  1

  0
ENDBLK
  5
72
330
70
100
AcDbEntity
  8
0
100
AcDbBlockEnd
  0
BLOCK
  5
6D
330
6C
100
AcDbEntity
 67
     1
  8
0
100
AcDbBlockBegin
  2
*Paper_Space
 70
     0
 10
0.0
 20
0.0
 30
0.0
  3
*Paper_Space
  1

  0
ENDBLK
  5
6E
330
6C
100
AcDbEntity
 67
     1
  8
0
100
AcDbBlockEnd
  0
BLOCK
  5
75
330
74
100
AcDbEntity
 67
     1
  8
0
100
AcDbBlockBegin
  2
*Paper_Space0
 70
     0
 10
0.0
 20
0.0
 30
0.0
  3
*Paper_Space0
  1

  0
ENDBLK
  5
76
330
74
100
AcDbEntity
 67
     1
  8
0
100
AcDbBlockEnd
  0
BLOCK
  5
7B
330
79
100
AcDbEntity
  8
0
100
AcDbBlockBegin
  2
Block_0
 70
     0
 10
0.0
 20
0.0
 30
0.0
  3
Block_0
  1

  0
SPLINE
  5
7D
330
79
100
AcDbEntity
  8
レイヤー 1
 62
   250
420
  2299925
370
    25
100
AcDbSpline
210
0.0
220
0.0
230
1.0
 70
     8
 71
     3
 72
    11
 73
     7
 74
     0
 42
0.0000000001
 43
0.0000000001
 40
0.0
 40
0.0
 40
0.0
 40
0.0
 40
1.0
 40
1.0
 40
1.0
 40
2.0
 40
2.0
 40
2.0
 40
2.0
 10
99.18186532095965
 20
-162.9729964883839
 30
0.0
 10
99.18186532095965
 20
-162.9729964883839
 30
0.0
 10
91.18211675389458
 20
-162.9729964883839
 30
0.0
 10
91.18211675389458
 20
-162.9729964883839
 30
0.0
 10
91.18211675389458
 20
-162.9729964883839
 30
0.0
 10
91.18211675389458
 20
-154.9732694531659
 30
0.0
 10
91.18211675389458
 20
-154.9732694531659
 30
0.0
  0
SPLINE
  5
7E
330
79
100
AcDbEntity
  8
レイヤー 1
 62
   250
420
  2299925
370
    25
100
AcDbSpline
210
0.0
220
0.0
230
1.0
 70
     8
 71
     3
 72
    14
 73
    10
 74
     0
 42
0.0000000001
 43
0.0000000001
 40
0.0
 40
0.0
 40
0.0
 40
0.0
 40
1.0
 40
1.0
 40
1.0
 40
2.0
 40
2.0
 40
2.0
 40
3.0
 40
3.0
 40
3.0
 40
3.0
 10
90.1819840026801
 20
-153.9731367019511
 30
0.0
 10
90.1819840026801
 20
-153.9731367019511
 30
0.0
 10
90.1819840026801
 20
-162.9731256794646
 30
0.0
 10
90.1819840026801
 20
-162.9731256794646
 30
0.0
 10
90.1819840026801
 20
-163.5254175494437
 30
0.0
 10
90.62969569283477
 20
-163.9731292395987
 30
0.0
 10
91.18198756281389
 20
-163.9731292395987
 30
0.0
 10
91.18198756281389
 20
-163.9731292395987
 30
0.0
 10
100.1819765403276
 20
-163.9731292395987
 30
0.0
 10
100.1819765403276
 20
-163.9731292395987
 30
0.0
  0
LWPOLYLINE
  5
7F
330
79
100
AcDbEntity
  8
レイヤー 1
 62
   250
420
  2299925
370
    25
100
AcDbPolyline
 90
       10
 70
     1
 43
0.0
 10
126.1819668275421
 20
-162.9731024654422
 10
100.1819761655886
 20
-162.9731024654422
 10
91.18199294577559
 20
-153.9001536617987
 10
91.18199294577559
 20
-127.9731501155225
 10
90.5819893855414
 20
-127.9731501155225
 10
90.18198938564147
 20
-154.3146632442146
 10
90.18196785379469
 20
-154.3146847760614
 10
99.76744505132591
 20
-163.9731275574232
 10
99.76746658317301
 20
-163.9731060255764
 10
126.1819668275421
 20
-163.5731060256765
  0
ENDBLK
  5
7C
330
79
100
AcDbEntity
  8
0
100
AcDbBlockEnd
  0
BLOCK
  5
8D
330
8B
100
AcDbEntity
  8
0
100
AcDbBlockBegin
  2
Block_1
 70
     0
 10
0.0
 20
0.0
 30
0.0
  3
Block_1
  1

  0
INSERT
  5
90
330
8B
100
AcDbEntity
  8
レイヤー 1
100
AcDbBlockReference
  2
Block_2
 10
0.0
 20
0.0
 30
0.0
  0
ENDBLK
  5
8E
330
8B
100
AcDbEntity
  8
0
100
AcDbBlockEnd
  0
BLOCK
  5
91
330
8F
100
AcDbEntity
  8
0
100
AcDbBlockBegin
  2
Block_2
 70
     0
 10
0.0
 20
0.0
 30
0.0
  3
Block_2
  1

  0
SPLINE
  5
93
330
8F
100
AcDbEntity
  8
レイヤー 1
100
AcDbSpline
210
0.0
220
0.0
230
1.0
 70
     9
 71
     3
 72
    62
 73
    58
 74
     0
 42
0.0000000001
 43
0.0000000001
 40
0.0
 40
0.0
 40
0.0
 40
0.0
 40
1.0
 40
1.0
 40
1.0
 40
2.0
 40
2.0
 40
2.0
 40
3.0
 40
3.0
 40
3.0
 40
4.0
 40
4.0
 40
4.0
 40
5.0
 40
5.0
 40
5.0
 40
6.0
 40
6.0
 40
6.0
 40
7.0
 40
7.0
 40
7.0
 40
8.0
 40
8.0
 40
8.0
 40
9.0
 40
9.0
 40
9.0
 40
10.0
 40
10.0
 40
10.0
 40
11.0
 40
11.0
 40
11.0
 40
12.0
 40
12.0
 40
12.0
 40
13.0
 40
13.0
 40
13.0
 40
14.0
 40
14.0
 40
14.0
 40
15.0
 40
15.0
 40
15.0
 40
16.0
 40
16.0
 40
16.0
 40
17.0
 40
17.0
 40
17.0
 40
18.0
 40
18.0
 40
18.0
 40
19.0
 40
19.0
 40
19.0
 40
19.0
 10
107.9944417047722
 20
-167.3107177316098
 30
0.0
 10
107.8928113879573
 20
-167.3107177316098
 30
0.0
 10
107.6599229331544
 20
-167.2897026491498
 30
0.0
 10
107.5265977378753
 20
-167.1036674929463
 30
0.0
 10
107.4473605417145
 20
-166.9913573801272
 30
0.0
 10
107.4428819175837
 20
-166.8921386301519
 30
0.0
 10
107.4384032934529
 20
-166.8073892812148
 30
0.0
 10
107.4384032934529
 20
-166.8073892812148
 30
0.0
 10
107.6733588055469
 20
-166.8073892812148
 30
0.0
 10
107.6733588055469
 20
-166.8073892812148
 30
0.0
 10
107.6757703723866
 20
-166.8814588341477
 30
0.0
 10
107.6871391874879
 20
-167.1160698366932
 30
0.0
 10
107.9899630806414
 20
-167.1160698366932
 30
0.0
 10
108.1370686578615
 20
-167.1160698366932
 30
0.0
 10
108.2996771647653
 20
-167.0464789078911
 30
0.0
 10
108.2996771647653
 20
-166.8180690772191
 30
0.0
 10
108.2996771647653
 20
-166.7016248498176
 30
0.0
 10
108.2590250380394
 20
-166.6530490034756
 30
0.0
 10
108.2252631022839
 20
-166.6213541250113
 30
0.0
 10
108.1460259061232
 20
-166.5472845720785
 30
0.0
 10
108.0216579591057
 20
-166.534537718783
 30
0.0
 10
107.9627468263079
 20
-166.534537718783
 30
0.0
 10
107.9424207629449
 20
-166.534537718783
 30
0.0
 10
107.9041802030587
 20
-166.5366047760742
 30
0.0
 10
107.8745523818855
 20
-166.5407388906564
 30
0.0
 10
107.8745523818855
 20
-166.5407388906564
 30
0.0
 10
107.8745523818855
 20
-166.3460909957398
 30
0.0
 10
107.8745523818855
 20
-166.3460909957398
 30
0.0
 10
107.9152045086114
 20
-166.3526366771618
 30
0.0
 10
107.9606797690167
 20
-166.354703734453
 30
0.0
 10
107.9672254504387
 20
-166.354703734453
 30
0.0
 10
108.0375053983378
 20
-166.354703734453
 30
0.0
 10
108.2500677897777
 20
-166.3333441424444
 30
0.0
 10
108.2500677897777
 20
-166.0966660826078
 30
0.0
 10
108.2500677897777
 20
-165.9188991555688
 30
0.0
 10
108.1098524035281
 20
-165.8637776278049
 30
0.0
 10
107.9923746474811
 20
-165.8637776278049
 30
0.0
 10
107.7095323081421
 20
-165.8637776278049
 30
0.0
 10
107.7005750598804
 20
-166.0966660826078
 30
0.0
 10
107.6960964357496
 20
-166.1683240687009
 30
0.0
 10
107.6960964357496
 20
-166.1683240687009
 30
0.0
 10
107.4790554201788
 20
-166.1683240687009
 30
0.0
 10
107.4790554201788
 20
-166.1683240687009
 30
0.0
 10
107.4880126684405
 20
-166.0436116121349
 30
0.0
 10
107.5172959800651
 20
-165.6670626755971
 30
0.0
 10
108.0058105198735
 20
-165.6670626755971
 30
0.0
 10
108.2455891656469
 20
-165.6670626755971
 30
0.0
 10
108.5032823079436
 20
-165.7941866990028
 30
0.0
 10
108.5032823079436
 20
-166.0901204011858
 30
0.0
 10
108.5032823079436
 20
-166.2765000669378
 30
0.0
 10
108.4013074815802
 20
-166.3588378490353
 30
0.0
 10
108.2951985406345
 20
-166.4201605486727
 30
0.0
 10
108.3606553548543
 20
-166.4477213125547
 30
0.0
 10
108.5553032497709
 20
-166.527992037361
 30
0.0
 10
108.5553032497709
 20
-166.8053222239237
 30
0.0
 10
108.5553032497709
 20
-167.1436306005752
 30
0.0
 10
108.2907199165037
 20
-167.3107177316098
 30
0.0
 10
107.9944417047722
 20
-167.3107177316098
 30
0.0
  0
HATCH
  5
94
330
8F
100
AcDbEntity
  8
レイヤー 1
 62
   250
420
  2299925
440
 33554687
100
AcDbHatch
 10
0.0
 20
0.0
 30
0.0
210
0.0
220
0.0
230
1.0
  2
SOLID
 70
     1
 71
     1
 91
        1
 92
        1
 93
        1
 72
     4
 94
        3
 73
     0
 74
     0
 95
       62
 96
       58
 40
0.0
 40
0.0
 40
0.0
 40
0.0
 40
1.0
 40
1.0
 40
1.0
 40
2.0
 40
2.0
 40
2.0
 40
3.0
 40
3.0
 40
3.0
 40
4.0
 40
4.0
 40
4.0
 40
5.0
 40
5.0
 40
5.0
 40
6.0
 40
6.0
 40
6.0
 40
7.0
 40
7.0
 40
7.0
 40
8.0
 40
8.0
 40
8.0
 40
9.0
 40
9.0
 40
9.0
 40
10.0
 40
10.0
 40
10.0
 40
11.0
 40
11.0
 40
11.0
 40
12.0
 40
12.0
 40
12.0
 40
13.0
 40
13.0
 40
13.0
 40
14.0
 40
14.0
 40
14.0
 40
15.0
 40
15.0
 40
15.0
 40
16.0
 40
16.0
 40
16.0
 40
17.0
 40
17.0
 40
17.0
 40
18.0
 40
18.0
 40
18.0
 40
19.0
 40
19.0
 40
19.0
 40
19.0
 10
107.9944417047722
 20
-167.3107177316098
 10
107.8928113879573
 20
-167.3107177316098
 10
107.6599229331544
 20
-167.2897026491498
 10
107.5265977378753
 20
-167.1036674929463
 10
107.4473605417145
 20
-166.9913573801272
 10
107.4428819175837
 20
-166.8921386301519
 10
107.4384032934529
 20
-166.8073892812148
 10
107.4384032934529
 20
-166.8073892812148
 10
107.6733588055469
 20
-166.8073892812148
 10
107.6733588055469
 20
-166.8073892812148
 10
107.6757703723866
 20
-166.8814588341477
 10
107.6871391874879
 20
-167.1160698366932
 10
107.9899630806414
 20
-167.1160698366932
 10
108.1370686578615
 20
-167.1160698366932
 10
108.2996771647653
 20
-167.0464789078911
 10
108.2996771647653
 20
-166.8180690772191
 10
108.2996771647653
 20
-166.7016248498176
 10
108.2590250380394
 20
-166.6530490034756
 10
108.2252631022839
 20
-166.6213541250113
 10
108.1460259061232
 20
-166.5472845720785
 10
108.0216579591057
 20
-166.534537718783
 10
107.9627468263079
 20
-166.534537718783
 10
107.9424207629449
 20
-166.534537718783
 10
107.9041802030587
 20
-166.5366047760742
 10
107.8745523818855
 20
-166.5407388906564
 10
107.8745523818855
 20
-166.5407388906564
 10
107.8745523818855
 20
-166.3460909957398
 10
107.8745523818855
 20
-166.3460909957398
 10
107.9152045086114
 20
-166.3526366771618
 10
107.9606797690167
 20
-166.354703734453
 10
107.9672254504387
 20
-166.354703734453
 10
108.0375053983378
 20
-166.354703734453
 10
108.2500677897777
 20
-166.3333441424444
 10
108.2500677897777
 20
-166.0966660826078
 10
108.2500677897777
 20
-165.9188991555688
 10
108.1098524035281
 20
-165.8637776278049
 10
107.9923746474811
 20
-165.8637776278049
 10
107.7095323081421
 20
-165.8637776278049
 10
107.7005750598804
 20
-166.0966660826078
 10
107.6960964357496
 20
-166.1683240687009
 10
107.6960964357496
 20
-166.1683240687009
 10
107.4790554201788
 20
-166.1683240687009
 10
107.4790554201788
 20
-166.1683240687009
 10
107.4880126684405
 20
-166.0436116121349
 10
107.5172959800651
 20
-165.6670626755971
 10
108.0058105198735
 20
-165.6670626755971
 10
108.2455891656469
 20
-165.6670626755971
 10
108.5032823079436
 20
-165.7941866990028
 10
108.5032823079436
 20
-166.0901204011858
 10
108.5032823079436
 20
-166.2765000669378
 10
108.4013074815802
 20
-166.3588378490353
 10
108.2951985406345
 20
-166.4201605486727
 10
108.3606553548543
 20
-166.4477213125547
 10
108.5553032497709
 20
-166.527992037361
 10
108.5553032497709
 20
-166.8053222239237
 10
108.5553032497709
 20
-167.1436306005752
 10
108.2907199165037
 20
-167.3107177316098
 10
107.9944417047722
 20
-167.3107177316098
 97
        0
 97
        1
330
93
 75
     2
 76
     1
 98
        1
 10
0.0
 20
0.0
450
        0
451
        0
460
0.0
461
0.0
452
        0
462
0.0
453
        0
470

  0
SPLINE
  5
95
330
8F
100
AcDbEntity
  8
レイヤー 1
100
AcDbSpline
210
0.0
220
0.0
230
1.0
 70
     9
 71
     3
 72
    17
 73
    13
 74
     0
 42
0.0000000001
 43
0.0000000001
 40
0.0
 40
0.0
 40
0.0
 40
0.0
 40
1.0
 40
1.0
 40
1.0
 40
2.0
 40
2.0
 40
2.0
 40
3.0
 40
3.0
 40
3.0
 40
4.0
 40
4.0
 40
4.0
 40
4.0
 10
109.2839409449012
 20
-166.451855427137
 30
0.0
 10
109.0035101724019
 20
-166.451855427137
 30
0.0
 10
108.9628580456759
 20
-166.6633842899313
 30
0.0
 10
108.9628580456759
 20
-166.7798285173328
 30
0.0
 10
108.9628580456759
 20
-166.9555283870805
 30
0.0
 10
109.0644883624908
 20
-167.1184814035329
 30
0.0
 10
109.2612033146986
 20
-167.1184814035329
 30
0.0
 10
109.3900498858469
 20
-167.1184814035329
 30
0.0
 10
109.577807589793
 20
-167.0592257611866
 30
0.0
 10
109.577807589793
 20
-166.7736273454593
 30
0.0
 10
109.577807589793
 20
-166.5493516293696
 30
0.0
 10
109.4286349552817
 20
-166.451855427137
 30
0.0
 10
109.2839409449012
 20
-166.451855427137
 30
0.0
  0
SPLINE
  5
96
330
8F
100
AcDbEntity
  8
レイヤー 1
100
AcDbSpline
210
0.0
220
0.0
230
1.0
 70
     9
 71
     3
 72
    32
 73
    28
 74
     0
 42
0.0000000001
 43
0.0000000001
 40
0.0
 40
0.0
 40
0.0
 40
0.0
 40
1.0
 40
1.0
 40
1.0
 40
2.0
 40
2.0
 40
2.0
 40
3.0
 40
3.0
 40
3.0
 40
4.0
 40
4.0
 40
4.0
 40
5.0
 40
5.0
 40
5.0
 40
6.0
 40
6.0
 40
6.0
 40
7.0
 40
7.0
 40
7.0
 40
8.0
 40
8.0
 40
8.0
 40
9.0
 40
9.0
 40
9.0
 40
9.0
 10
109.2656819388294
 20
-167.3107177316098
 30
0.0
 10
108.7141221516409
 20
-167.3107177316098
 30
0.0
 10
108.7051649033792
 20
-166.7567463775816
 30
0.0
 10
108.7051649033792
 20
-166.5428059479476
 30
0.0
 10
108.7051649033792
 20
-166.3123290599844
 30
0.0
 10
108.7254909667422
 20
-165.664995618306
 30
0.0
 10
109.3066785751039
 20
-165.664995618306
 30
0.0
 10
109.4920247122103
 20
-165.664995618306
 30
0.0
 10
109.7541964786378
 20
-165.7349310566566
 30
0.0
 10
109.7948486053638
 20
-166.0670382614346
 30
0.0
 10
109.7948486053638
 20
-166.0670382614346
 30
0.0
 10
109.5664387746917
 20
-166.0670382614346
 30
0.0
 10
109.5664387746917
 20
-166.0670382614346
 30
0.0
 10
109.5550699595904
 20
-166.0098496763795
 30
0.0
 10
109.5213080238349
 20
-165.8617105705137
 30
0.0
 10
109.3042670082642
 20
-165.8617105705137
 30
0.0
 10
108.9921413573005
 20
-165.8617105705137
 30
0.0
 10
108.9494221732834
 20
-166.1896836607095
 30
0.0
 10
108.9356417913424
 20
-166.3946668420819
 30
0.0
 10
109.0352050508662
 20
-166.3164631745667
 30
0.0
 10
109.1075520560564
 20
-166.2572075322204
 30
0.0
 10
109.302199950973
 20
-166.2572075322204
 30
0.0
 10
109.4940917695015
 20
-166.2572075322204
 30
0.0
 10
109.8175862355664
 20
-166.3653835304573
 30
0.0
 10
109.8175862355664
 20
-166.7715602881682
 30
0.0
 10
109.8175862355664
 20
-167.0909206396508
 30
0.0
 10
109.6050238441265
 20
-167.3107177316098
 30
0.0
 10
109.2656819388294
 20
-167.3107177316098
 30
0.0
  0
HATCH
  5
97
330
8F
100
AcDbEntity
  8
レイヤー 1
 62
   250
420
  2299925
440
 33554687
100
AcDbHatch
 10
0.0
 20
0.0
 30
0.0
210
0.0
220
0.0
230
1.0
  2
SOLID
 70
     1
 71
     1
 91
        2
 92
        1
 93
        1
 72
     4
 94
        3
 73
     0
 74
     0
 95
       17
 96
       13
 40
0.0
 40
0.0
 40
0.0
 40
0.0
 40
1.0
 40
1.0
 40
1.0
 40
2.0
 40
2.0
 40
2.0
 40
3.0
 40
3.0
 40
3.0
 40
4.0
 40
4.0
 40
4.0
 40
4.0
 10
109.2839409449012
 20
-166.451855427137
 10
109.0035101724019
 20
-166.451855427137
 10
108.9628580456759
 20
-166.6633842899313
 10
108.9628580456759
 20
-166.7798285173328
 10
108.9628580456759
 20
-166.9555283870805
 10
109.0644883624908
 20
-167.1184814035329
 10
109.2612033146986
 20
-167.1184814035329
 10
109.3900498858469
 20
-167.1184814035329
 10
109.577807589793
 20
-167.0592257611866
 10
109.577807589793
 20
-166.7736273454593
 10
109.577807589793
 20
-166.5493516293696
 10
109.4286349552817
 20
-166.451855427137
 10
109.2839409449012
 20
-166.451855427137
 97
        0
 97
        1
330
95
 92
        1
 93
        1
 72
     4
 94
        3
 73
     0
 74
     0
 95
       32
 96
       28
 40
0.0
 40
0.0
 40
0.0
 40
0.0
 40
1.0
 40
1.0
 40
1.0
 40
2.0
 40
2.0
 40
2.0
 40
3.0
 40
3.0
 40
3.0
 40
4.0
 40
4.0
 40
4.0
 40
5.0
 40
5.0
 40
5.0
 40
6.0
 40
6.0
 40
6.0
 40
7.0
 40
7.0
 40
7.0
 40
8.0
 40
8.0
 40
8.0
 40
9.0
 40
9.0
 40
9.0
 40
9.0
 10
109.2656819388294
 20
-167.3107177316098
 10
108.7141221516409
 20
-167.3107177316098
 10
108.7051649033792
 20
-166.7567463775816
 10
108.7051649033792
 20
-166.5428059479476
 10
108.7051649033792
 20
-166.3123290599844
 10
108.7254909667422
 20
-165.664995618306
 10
109.3066785751039
 20
-165.664995618306
 10
109.4920247122103
 20
-165.664995618306
 10
109.7541964786378
 20
-165.7349310566566
 10
109.7948486053638
 20
-166.0670382614346
 10
109.7948486053638
 20
-166.0670382614346
 10
109.5664387746917
 20
-166.0670382614346
 10
109.5664387746917
 20
-166.0670382614346
 10
109.5550699595904
 20
-166.0098496763795
 10
109.5213080238349
 20
-165.8617105705137
 10
109.3042670082642
 20
-165.8617105705137
 10
108.9921413573005
 20
-165.8617105705137
 10
108.9494221732834
 20
-166.1896836607095
 10
108.9356417913424
 20
-166.3946668420819
 10
109.0352050508662
 20
-166.3164631745667
 10
109.1075520560564
 20
-166.2572075322204
 10
109.302199950973
 20
-166.2572075322204
 10
109.4940917695015
 20
-166.2572075322204
 10
109.8175862355664
 20
-166.3653835304573
 10
109.8175862355664
 20
-166.7715602881682
 10
109.8175862355664
 20
-167.0909206396508
 10
109.6050238441265
 20
-167.3107177316098
 10
109.2656819388294
 20
-167.3107177316098
 97
        0
 97
        1
330
96
 75
     2
 76
     1
 98
        1
 10
0.0
 20
0.0
450
        0
451
        0
460
0.0
461
0.0
452
        0
462
0.0
453
        0
470

  0
ENDBLK
  5
92
330
8F
100
AcDbEntity
  8
0
100
AcDbBlockEnd
  0
BLOCK
  5
9D
330
9B
100
AcDbEntity
  8
0
100
AcDbBlockBegin
  2
Block_3
 70
     0
 10
0.0
 20
0.0
 30
0.0
  3
Block_3
  1

  0
INSERT
  5
A0
330
9B
100
AcDbEntity
  8
レイヤー 1
100
AcDbBlockReference
  2
Block_4
 10
0.0
 20
0.0
 30
0.0
  0
ENDBLK
  5
9E
330
9B
100
AcDbEntity
  8
0
100
AcDbBlockEnd
  0
BLOCK
  5
A1
330
9F
100
AcDbEntity
  8
0
100
AcDbBlockBegin
  2
Block_4
 70
     0
 10
0.0
 20
0.0
 30
0.0
  3
Block_4
  1

  0
SPLINE
  5
A3
330
9F
100
AcDbEntity
  8
レイヤー 1
100
AcDbSpline
210
0.0
220
0.0
230
1.0
 70
    11
 71
     3
 72
    26
 73
    22
 74
     0
 42
0.0000000001
 43
0.0000000001
 40
0.0
 40
0.0
 40
0.0
 40
0.0
 40
1.0
 40
1.0
 40
1.0
 40
2.0
 40
2.0
 40
2.0
 40
3.0
 40
3.0
 40
3.0
 40
4.0
 40
4.0
 40
4.0
 40
5.0
 40
5.0
 40
5.0
 40
6.0
 40
6.0
 40
6.0
 40
7.0
 40
7.0
 40
7.0
 40
7.0
 10
85.46937389356321
 20
-159.6546820347391
 30
0.0
 10
85.46937389356321
 20
-159.6546820347391
 30
0.0
 10
84.36504853576638
 20
-159.6546820347391
 30
0.0
 10
84.36504853576638
 20
-159.6546820347391
 30
0.0
 10
84.36504853576638
 20
-159.6546820347391
 30
0.0
 10
84.36504853576638
 20
-160.0071153028802
 30
0.0
 10
84.36504853576638
 20
-160.0071153028802
 30
0.0
 10
84.36504853576638
 20
-160.0071153028802
 30
0.0
 10
84.21708168467489
 20
-160.0071153028802
 30
0.0
 10
84.21708168467489
 20
-160.0071153028802
 30
0.0
 10
84.20226777408833
 20
-159.6522704678994
 30
0.0
 10
84.03931475763601
 20
-159.6026610929118
 30
0.0
 10
83.92510984229998
 20
-159.5709662144475
 30
0.0
 10
83.92510984229998
 20
-159.5709662144475
 30
0.0
 10
83.92510984229998
 20
-159.4149033889657
 30
0.0
 10
83.92510984229998
 20
-159.4149033889657
 30
0.0
 10
83.92510984229998
 20
-159.4149033889657
 30
0.0
 10
85.46937389356321
 20
-159.4149033889657
 30
0.0
 10
85.46937389356321
 20
-159.4149033889657
 30
0.0
 10
85.46937389356321
 20
-159.4149033889657
 30
0.0
 10
85.46937389356321
 20
-159.6546820347391
 30
0.0
 10
85.46937389356321
 20
-159.6546820347391
 30
0.0
  0
HATCH
  5
A4
330
9F
100
AcDbEntity
  8
レイヤー 1
 62
   250
420
  2299925
440
 33554687
100
AcDbHatch
 10
0.0
 20
0.0
 30
0.0
210
0.0
220
0.0
230
1.0
  2
SOLID
 70
     1
 71
     1
 91
        1
 92
        1
 93
        1
 72
     4
 94
        3
 73
     0
 74
     0
 95
       26
 96
       22
 40
0.0
 40
0.0
 40
0.0
 40
0.0
 40
1.0
 40
1.0
 40
1.0
 40
2.0
 40
2.0
 40
2.0
 40
3.0
 40
3.0
 40
3.0
 40
4.0
 40
4.0
 40
4.0
 40
5.0
 40
5.0
 40
5.0
 40
6.0
 40
6.0
 40
6.0
 40
7.0
 40
7.0
 40
7.0
 40
7.0
 10
85.46937389356321
 20
-159.6546820347391
 10
85.46937389356321
 20
-159.6546820347391
 10
84.36504853576638
 20
-159.6546820347391
 10
84.36504853576638
 20
-159.6546820347391
 10
84.36504853576638
 20
-159.6546820347391
 10
84.36504853576638
 20
-160.0071153028802
 10
84.36504853576638
 20
-160.0071153028802
 10
84.36504853576638
 20
-160.0071153028802
 10
84.21708168467489
 20
-160.0071153028802
 10
84.21708168467489
 20
-160.0071153028802
 10
84.20226777408833
 20
-159.6522704678994
 10
84.03931475763601
 20
-159.6026610929118
 10
83.92510984229998
 20
-159.5709662144475
 10
83.92510984229998
 20
-159.5709662144475
 10
83.92510984229998
 20
-159.4149033889657
 10
83.92510984229998
 20
-159.4149033889657
 10
83.92510984229998
 20
-159.4149033889657
 10
85.46937389356321
 20
-159.4149033889657
 10
85.46937389356321
 20
-159.4149033889657
 10
85.46937389356321
 20
-159.4149033889657
 10
85.46937389356321
 20
-159.6546820347391
 10
85.46937389356321
 20
-159.6546820347391
 97
        0
 97
        1
330
A3
 75
     2
 76
     1
 98
        1
 10
0.0
 20
0.0
450
        0
451
        0
460
0.0
461
0.0
452
        0
462
0.0
453
        0
470

  0
SPLINE
  5
A5
330
9F
100
AcDbEntity
  8
レイヤー 1
100
AcDbSpline
210
0.0
220
0.0
230
1.0
 70
     9
 71
     3
 72
    17
 73
    13
 74
     0
 42
0.0000000001
 43
0.0000000001
 40
0.0
 40
0.0
 40
0.0
 40
0.0
 40
1.0
 40
1.0
 40
1.0
 40
2.0
 40
2.0
 40
2.0
 40
3.0
 40
3.0
 40
3.0
 40
4.0
 40
4.0
 40
4.0
 40
4.0
 10
84.06894257880916
 20
-158.3448567312471
 30
0.0
 10
84.06894257880916
 20
-158.6115071218054
 30
0.0
 10
84.35247393724521
 20
-158.661116496793
 30
0.0
 10
84.69715574054445
 20
-158.661116496793
 30
0.0
 10
85.01668834680138
 20
-158.661116496793
 30
0.0
 10
85.32554115705403
 20
-158.6228759369068
 30
0.0
 10
85.32554115705403
 20
-158.3448567312471
 30
0.0
 10
85.32554115705403
 20
-158.0802733979799
 30
0.0
 10
85.04407685590912
 20
-158.0282524561527
 30
0.0
 10
84.69715574054445
 20
-158.0282524561527
 30
0.0
 10
84.3777953890618
 20
-158.0282524561527
 30
0.0
 10
84.06894257880916
 20
-158.0689045828786
 30
0.0
 10
84.06894257880916
 20
-158.3448567312471
 30
0.0
  0
SPLINE
  5
A6
330
9F
100
AcDbEntity
  8
レイヤー 1
100
AcDbSpline
210
0.0
220
0.0
230
1.0
 70
     9
 71
     3
 72
    29
 73
    25
 74
     0
 42
0.0000000001
 43
0.0000000001
 40
0.0
 40
0.0
 40
0.0
 40
0.0
 40
1.0
 40
1.0
 40
1.0
 40
2.0
 40
2.0
 40
2.0
 40
3.0
 40
3.0
 40
3.0
 40
4.0
 40
4.0
 40
4.0
 40
5.0
 40
5.0
 40
5.0
 40
6.0
 40
6.0
 40
6.0
 40
7.0
 40
7.0
 40
7.0
 40
8.0
 40
8.0
 40
8.0
 40
8.0
 10
85.29160696652432
 20
-157.9197319483673
 30
0.0
 10
85.5010687720275
 20
-158.0351426471231
 30
0.0
 10
85.52018905197064
 20
-158.2204887842296
 30
0.0
 10
85.52018905197064
 20
-158.3448567312471
 30
0.0
 10
85.52018905197064
 20
-158.5164224864126
 30
0.0
 10
85.47368026291978
 20
-158.6680066877635
 30
0.0
 10
85.29160696652432
 20
-158.7696370045784
 30
0.0
 10
85.09695907160772
 20
-158.8805690792034
 30
0.0
 10
84.86010875699678
 20
-158.9008951425664
 30
0.0
 10
84.69715574054445
 20
-158.9008951425664
 30
0.0
 10
84.55332300403528
 20
-158.9008951425664
 30
0.0
 10
84.30165877883778
 20
-158.8826361364946
 30
0.0
 10
84.1027045145646
 20
-158.7696370045784
 30
0.0
 10
83.89961613570912
 20
-158.6545708153711
 30
0.0
 10
83.87636174118368
 20
-158.4826605506571
 30
0.0
 10
83.87636174118368
 20
-158.3448567312471
 30
0.0
 10
83.87636174118368
 20
-158.1750135238243
 30
0.0
 10
83.92080347294342
 20
-158.0213622651822
 30
0.0
 10
84.1027045145646
 20
-157.9197319483673
 30
0.0
 10
84.29528535219008
 20
-157.8132784978731
 30
0.0
 10
84.52369518286214
 20
-157.7884738103793
 30
0.0
 10
84.69715574054445
 20
-157.7884738103793
 30
0.0
 10
84.86854924093565
 20
-157.7884738103793
 30
0.0
 10
85.09919838367313
 20
-157.8112114405819
 30
0.0
 10
85.29160696652432
 20
-157.9197319483673
 30
0.0
  0
HATCH
  5
A7
330
9F
100
AcDbEntity
  8
レイヤー 1
 62
   250
420
  2299925
440
 33554687
100
AcDbHatch
 10
0.0
 20
0.0
 30
0.0
210
0.0
220
0.0
230
1.0
  2
SOLID
 70
     1
 71
     1
 91
        2
 92
        1
 93
        1
 72
     4
 94
        3
 73
     0
 74
     0
 95
       17
 96
       13
 40
0.0
 40
0.0
 40
0.0
 40
0.0
 40
1.0
 40
1.0
 40
1.0
 40
2.0
 40
2.0
 40
2.0
 40
3.0
 40
3.0
 40
3.0
 40
4.0
 40
4.0
 40
4.0
 40
4.0
 10
84.06894257880916
 20
-158.3448567312471
 10
84.06894257880916
 20
-158.6115071218054
 10
84.35247393724521
 20
-158.661116496793
 10
84.69715574054445
 20
-158.661116496793
 10
85.01668834680138
 20
-158.661116496793
 10
85.32554115705403
 20
-158.6228759369068
 10
85.32554115705403
 20
-158.3448567312471
 10
85.32554115705403
 20
-158.0802733979799
 10
85.04407685590912
 20
-158.0282524561527
 10
84.69715574054445
 20
-158.0282524561527
 10
84.3777953890618
 20
-158.0282524561527
 10
84.06894257880916
 20
-158.0689045828786
 10
84.06894257880916
 20
-158.3448567312471
 97
        0
 97
        1
330
A5
 92
        1
 93
        1
 72
     4
 94
        3
 73
     0
 74
     0
 95
       29
 96
       25
 40
0.0
 40
0.0
 40
0.0
 40
0.0
 40
1.0
 40
1.0
 40
1.0
 40
2.0
 40
2.0
 40
2.0
 40
3.0
 40
3.0
 40
3.0
 40
4.0
 40
4.0
 40
4.0
 40
5.0
 40
5.0
 40
5.0
 40
6.0
 40
6.0
 40
6.0
 40
7.0
 40
7.0
 40
7.0
 40
8.0
 40
8.0
 40
8.0
 40
8.0
 10
85.29160696652432
 20
-157.9197319483673
 10
85.5010687720275
 20
-158.0351426471231
 10
85.52018905197064
 20
-158.2204887842296
 10
85.52018905197064
 20
-158.3448567312471
 10
85.52018905197064
 20
-158.5164224864126
 10
85.47368026291978
 20
-158.6680066877635
 10
85.29160696652432
 20
-158.7696370045784
 10
85.09695907160772
 20
-158.8805690792034
 10
84.86010875699678
 20
-158.9008951425664
 10
84.69715574054445
 20
-158.9008951425664
 10
84.55332300403528
 20
-158.9008951425664
 10
84.30165877883778
 20
-158.8826361364946
 10
84.1027045145646
 20
-158.7696370045784
 10
83.89961613570912
 20
-158.6545708153711
 10
83.87636174118368
 20
-158.4826605506571
 10
83.87636174118368
 20
-158.3448567312471
 10
83.87636174118368
 20
-158.1750135238243
 10
83.92080347294342
 20
-158.0213622651822
 10
84.1027045145646
 20
-157.9197319483673
 10
84.29528535219008
 20
-157.8132784978731
 10
84.52369518286214
 20
-157.7884738103793
 10
84.69715574054445
 20
-157.7884738103793
 10
84.86854924093565
 20
-157.7884738103793
 10
85.09919838367313
 20
-157.8112114405819
 10
85.29160696652432
 20
-157.9197319483673
 97
        0
 97
        1
330
A6
 75
     2
 76
     1
 98
        1
 10
0.0
 20
0.0
450
        0
451
        0
460
0.0
461
0.0
452
        0
462
0.0
453
        0
470

  0
ENDBLK
  5
A2
330
9F
100
AcDbEntity
  8
0
100
AcDbBlockEnd
  0
BLOCK
  5
AA
330
A8
100
AcDbEntity
  8
0
100
AcDbBlockBegin
  2
Block_5
 70
     0
 10
0.0
 20
0.0
 30
0.0
  3
Block_5
  1

  0
INSERT
  5
AD
330
A8
100
AcDbEntity
  8
レイヤー 1
100
AcDbBlockReference
  2
Block_6
 10
0.0
 20
0.0
 30
0.0
  0
ENDBLK
  5
AB
330
A8
100
AcDbEntity
  8
0
100
AcDbBlockEnd
  0
BLOCK
  5
AE
330
AC
100
AcDbEntity
  8
0
100
AcDbBlockBegin
  2
Block_6
 70
     0
 10
0.0
 20
0.0
 30
0.0
  3
Block_6
  1

  0
SPLINE
  5
B0
330
AC
100
AcDbEntity
  8
レイヤー 1
100
AcDbSpline
210
0.0
220
0.0
230
1.0
 70
     9
 71
     3
 72
    20
 73
    16
 74
     0
 42
0.0000000001
 43
0.0000000001
 40
0.0
 40
0.0
 40
0.0
 40
0.0
 40
1.0
 40
1.0
 40
1.0
 40
2.0
 40
2.0
 40
2.0
 40
3.0
 40
3.0
 40
3.0
 40
4.0
 40
4.0
 40
4.0
 40
5.0
 40
5.0
 40
5.0
 40
5.0
 10
86.09638127187869
 20
-167.8257595066547
 30
0.0
 10
86.09638127187869
 20
-167.8257595066547
 30
0.0
 10
85.62164711401125
 20
-167.8257595066547
 30
0.0
 10
85.62164711401125
 20
-167.8257595066547
 30
0.0
 10
85.62164711401125
 20
-167.8257595066547
 30
0.0
 10
85.62164711401125
 20
-168.3060058172985
 30
0.0
 10
85.62164711401125
 20
-168.3060058172985
 30
0.0
 10
85.62164711401125
 20
-168.3060058172985
 30
0.0
 10
86.09431421458754
 20
-168.3060058172985
 30
0.0
 10
86.09431421458754
 20
-168.3060058172985
 30
0.0
 10
86.20042315553323
 20
-168.3060058172985
 30
0.0
 10
86.34511716591372
 20
-168.2298692070745
 30
0.0
 10
86.34511716591372
 20
-168.058303451909
 30
0.0
 10
86.34511716591372
 20
-167.9800997843939
 30
0.0
 10
86.3089436633186
 20
-167.8257595066547
 30
0.0
 10
86.09638127187869
 20
-167.8257595066547
 30
0.0
  0
SPLINE
  5
B1
330
AC
100
AcDbEntity
  8
レイヤー 1
100
AcDbSpline
210
0.0
220
0.0
230
1.0
 70
     9
 71
     3
 72
    44
 73
    40
 74
     0
 42
0.0000000001
 43
0.0000000001
 40
0.0
 40
0.0
 40
0.0
 40
0.0
 40
1.0
 40
1.0
 40
1.0
 40
2.0
 40
2.0
 40
2.0
 40
3.0
 40
3.0
 40
3.0
 40
4.0
 40
4.0
 40
4.0
 40
5.0
 40
5.0
 40
5.0
 40
6.0
 40
6.0
 40
6.0
 40
7.0
 40
7.0
 40
7.0
 40
8.0
 40
8.0
 40
8.0
 40
9.0
 40
9.0
 40
9.0
 40
10.0
 40
10.0
 40
10.0
 40
11.0
 40
11.0
 40
11.0
 40
12.0
 40
12.0
 40
12.0
 40
13.0
 40
13.0
 40
13.0
 40
13.0
 10
86.36544322927669
 20
-169.1583224403493
 30
0.0
 10
86.3406385417829
 20
-169.1138807085896
 30
0.0
 10
86.31790091158025
 20
-169.0611707476652
 30
0.0
 10
86.31583385428909
 20
-168.8303493501535
 30
0.0
 10
86.31135523015826
 20
-168.5871256088949
 30
0.0
 10
86.24796547322969
 20
-168.5175346800928
 30
0.0
 10
86.0581407119924
 20
-168.5175346800928
 30
0.0
 10
86.0581407119924
 20
-168.5175346800928
 30
0.0
 10
85.62164711401125
 20
-168.5175346800928
 30
0.0
 10
85.62164711401125
 20
-168.5175346800928
 30
0.0
 10
85.62164711401125
 20
-168.5175346800928
 30
0.0
 10
85.62164711401125
 20
-169.1583224403493
 30
0.0
 10
85.62164711401125
 20
-169.1583224403493
 30
0.0
 10
85.62164711401125
 20
-169.1583224403493
 30
0.0
 10
85.37084416268507
 20
-169.1583224403493
 30
0.0
 10
85.37084416268507
 20
-169.1583224403493
 30
0.0
 10
85.37084416268507
 20
-169.1583224403493
 30
0.0
 10
85.37084416268507
 20
-167.6142306438603
 30
0.0
 10
85.37084416268507
 20
-167.6142306438603
 30
0.0
 10
85.37084416268507
 20
-167.6142306438603
 30
0.0
 10
86.09190264774786
 20
-167.6142306438603
 30
0.0
 10
86.09190264774786
 20
-167.6142306438603
 30
0.0
 10
86.41987573794365
 20
-167.6142306438603
 30
0.0
 10
86.59833168407958
 20
-167.7854518894772
 30
0.0
 10
86.59833168407958
 20
-168.0414224840313
 30
0.0
 10
86.59833168407958
 20
-168.0920653876645
 30
0.0
 10
86.58937443581795
 20
-168.1747476793105
 30
0.0
 10
86.54183211812149
 20
-168.2550184041168
 30
0.0
 10
86.47844236119288
 20
-168.3587157782228
 30
0.0
 10
86.40850692284232
 20
-168.3776638033917
 30
0.0
 10
86.34270559907404
 20
-168.3945447712694
 30
0.0
 10
86.48981117629421
 20
-168.436919445738
 30
0.0
 10
86.56215818148446
 20
-168.4858398016285
 30
0.0
 10
86.56663680561528
 20
-168.8007215289804
 30
0.0
 10
86.57111542974611
 20
-169.071506034121
 30
0.0
 10
86.60970049918091
 20
-169.1035454221338
 30
0.0
 10
86.68204750437116
 20
-169.1583224403493
 30
0.0
 10
86.68204750437116
 20
-169.1583224403493
 30
0.0
 10
86.36544322927669
 20
-169.1583224403493
 30
0.0
 10
86.36544322927669
 20
-169.1583224403493
 30
0.0
  0
HATCH
  5
B2
330
AC
100
AcDbEntity
  8
レイヤー 1
 62
   250
420
  2299925
440
 33554687
100
AcDbHatch
 10
0.0
 20
0.0
 30
0.0
210
0.0
220
0.0
230
1.0
  2
SOLID
 70
     1
 71
     1
 91
        2
 92
        1
 93
        1
 72
     4
 94
        3
 73
     0
 74
     0
 95
       20
 96
       16
 40
0.0
 40
0.0
 40
0.0
 40
0.0
 40
1.0
 40
1.0
 40
1.0
 40
2.0
 40
2.0
 40
2.0
 40
3.0
 40
3.0
 40
3.0
 40
4.0
 40
4.0
 40
4.0
 40
5.0
 40
5.0
 40
5.0
 40
5.0
 10
86.09638127187869
 20
-167.8257595066547
 10
86.09638127187869
 20
-167.8257595066547
 10
85.62164711401125
 20
-167.8257595066547
 10
85.62164711401125
 20
-167.8257595066547
 10
85.62164711401125
 20
-167.8257595066547
 10
85.62164711401125
 20
-168.3060058172985
 10
85.62164711401125
 20
-168.3060058172985
 10
85.62164711401125
 20
-168.3060058172985
 10
86.09431421458754
 20
-168.3060058172985
 10
86.09431421458754
 20
-168.3060058172985
 10
86.20042315553323
 20
-168.3060058172985
 10
86.34511716591372
 20
-168.2298692070745
 10
86.34511716591372
 20
-168.058303451909
 10
86.34511716591372
 20
-167.9800997843939
 10
86.3089436633186
 20
-167.8257595066547
 10
86.09638127187869
 20
-167.8257595066547
 97
        0
 97
        1
330
B0
 92
        1
 93
        1
 72
     4
 94
        3
 73
     0
 74
     0
 95
       44
 96
       40
 40
0.0
 40
0.0
 40
0.0
 40
0.0
 40
1.0
 40
1.0
 40
1.0
 40
2.0
 40
2.0
 40
2.0
 40
3.0
 40
3.0
 40
3.0
 40
4.0
 40
4.0
 40
4.0
 40
5.0
 40
5.0
 40
5.0
 40
6.0
 40
6.0
 40
6.0
 40
7.0
 40
7.0
 40
7.0
 40
8.0
 40
8.0
 40
8.0
 40
9.0
 40
9.0
 40
9.0
 40
10.0
 40
10.0
 40
10.0
 40
11.0
 40
11.0
 40
11.0
 40
12.0
 40
12.0
 40
12.0
 40
13.0
 40
13.0
 40
13.0
 40
13.0
 10
86.36544322927669
 20
-169.1583224403493
 10
86.3406385417829
 20
-169.1138807085896
 10
86.31790091158025
 20
-169.0611707476652
 10
86.31583385428909
 20
-168.8303493501535
 10
86.31135523015826
 20
-168.5871256088949
 10
86.24796547322969
 20
-168.5175346800928
 10
86.0581407119924
 20
-168.5175346800928
 10
86.0581407119924
 20
-168.5175346800928
 10
85.62164711401125
 20
-168.5175346800928
 10
85.62164711401125
 20
-168.5175346800928
 10
85.62164711401125
 20
-168.5175346800928
 10
85.62164711401125
 20
-169.1583224403493
 10
85.62164711401125
 20
-169.1583224403493
 10
85.62164711401125
 20
-169.1583224403493
 10
85.37084416268507
 20
-169.1583224403493
 10
85.37084416268507
 20
-169.1583224403493
 10
85.37084416268507
 20
-169.1583224403493
 10
85.37084416268507
 20
-167.6142306438603
 10
85.37084416268507
 20
-167.6142306438603
 10
85.37084416268507
 20
-167.6142306438603
 10
86.09190264774786
 20
-167.6142306438603
 10
86.09190264774786
 20
-167.6142306438603
 10
86.41987573794365
 20
-167.6142306438603
 10
86.59833168407958
 20
-167.7854518894772
 10
86.59833168407958
 20
-168.0414224840313
 10
86.59833168407958
 20
-168.0920653876645
 10
86.58937443581795
 20
-168.1747476793105
 10
86.54183211812149
 20
-168.2550184041168
 10
86.47844236119288
 20
-168.3587157782228
 10
86.40850692284232
 20
-168.3776638033917
 10
86.34270559907404
 20
-168.3945447712694
 10
86.48981117629421
 20
-168.436919445738
 10
86.56215818148446
 20
-168.4858398016285
 10
86.56663680561528
 20
-168.8007215289804
 10
86.57111542974611
 20
-169.071506034121
 10
86.60970049918091
 20
-169.1035454221338
 10
86.68204750437116
 20
-169.1583224403493
 10
86.68204750437116
 20
-169.1583224403493
 10
86.36544322927669
 20
-169.1583224403493
 10
86.36544322927669
 20
-169.1583224403493
 97
        0
 97
        1
330
B1
 75
     2
 76
     1
 98
        1
 10
0.0
 20
0.0
450
        0
451
        0
460
0.0
461
0.0
452
        0
462
0.0
453
        0
470

  0
SPLINE
  5
B3
330
AC
100
AcDbEntity
  8
レイヤー 1
100
AcDbSpline
210
0.0
220
0.0
230
1.0
 70
    11
 71
     3
 72
    26
 73
    22
 74
     0
 42
0.0000000001
 43
0.0000000001
 40
0.0
 40
0.0
 40
0.0
 40
0.0
 40
1.0
 40
1.0
 40
1.0
 40
2.0
 40
2.0
 40
2.0
 40
3.0
 40
3.0
 40
3.0
 40
4.0
 40
4.0
 40
4.0
 40
5.0
 40
5.0
 40
5.0
 40
6.0
 40
6.0
 40
6.0
 40
7.0
 40
7.0
 40
7.0
 40
7.0
 10
87.31353350681745
 20
-169.1583224403493
 30
0.0
 10
87.31353350681745
 20
-169.1583224403493
 30
0.0
 10
87.31353350681745
 20
-168.0541693373267
 30
0.0
 10
87.31353350681745
 20
-168.0541693373267
 30
0.0
 10
87.31353350681745
 20
-168.0541693373267
 30
0.0
 10
86.96110023867639
 20
-168.0541693373267
 30
0.0
 10
86.96110023867639
 20
-168.0541693373267
 30
0.0
 10
86.96110023867639
 20
-168.0541693373267
 30
0.0
 10
86.96110023867639
 20
-167.906030231461
 30
0.0
 10
86.96110023867639
 20
-167.906030231461
 30
0.0
 10
87.31594507365713
 20
-167.8912163208744
 30
0.0
 10
87.36555444864473
 20
-167.7282633044221
 30
0.0
 10
87.39724932710903
 20
-167.6142306438603
 30
0.0
 10
87.39724932710903
 20
-167.6142306438603
 30
0.0
 10
87.55331215259085
 20
-167.6142306438603
 30
0.0
 10
87.55331215259085
 20
-167.6142306438603
 30
0.0
 10
87.55331215259085
 20
-167.6142306438603
 30
0.0
 10
87.55331215259085
 20
-169.1583224403493
 30
0.0
 10
87.55331215259085
 20
-169.1583224403493
 30
0.0
 10
87.55331215259085
 20
-169.1583224403493
 30
0.0
 10
87.31353350681745
 20
-169.1583224403493
 30
0.0
 10
87.31353350681745
 20
-169.1583224403493
 30
0.0
  0
HATCH
  5
B4
330
AC
100
AcDbEntity
  8
レイヤー 1
 62
   250
420
  2299925
440
 33554687
100
AcDbHatch
 10
0.0
 20
0.0
 30
0.0
210
0.0
220
0.0
230
1.0
  2
SOLID
 70
     1
 71
     1
 91
        1
 92
        1
 93
        1
 72
     4
 94
        3
 73
     0
 74
     0
 95
       26
 96
       22
 40
0.0
 40
0.0
 40
0.0
 40
0.0
 40
1.0
 40
1.0
 40
1.0
 40
2.0
 40
2.0
 40
2.0
 40
3.0
 40
3.0
 40
3.0
 40
4.0
 40
4.0
 40
4.0
 40
5.0
 40
5.0
 40
5.0
 40
6.0
 40
6.0
 40
6.0
 40
7.0
 40
7.0
 40
7.0
 40
7.0
 10
87.31353350681745
 20
-169.1583224403493
 10
87.31353350681745
 20
-169.1583224403493
 10
87.31353350681745
 20
-168.0541693373267
 10
87.31353350681745
 20
-168.0541693373267
 10
87.31353350681745
 20
-168.0541693373267
 10
86.96110023867639
 20
-168.0541693373267
 10
86.96110023867639
 20
-168.0541693373267
 10
86.96110023867639
 20
-168.0541693373267
 10
86.96110023867639
 20
-167.906030231461
 10
86.96110023867639
 20
-167.906030231461
 10
87.31594507365713
 20
-167.8912163208744
 10
87.36555444864473
 20
-167.7282633044221
 10
87.39724932710903
 20
-167.6142306438603
 10
87.39724932710903
 20
-167.6142306438603
 10
87.55331215259085
 20
-167.6142306438603
 10
87.55331215259085
 20
-167.6142306438603
 10
87.55331215259085
 20
-167.6142306438603
 10
87.55331215259085
 20
-169.1583224403493
 10
87.55331215259085
 20
-169.1583224403493
 10
87.55331215259085
 20
-169.1583224403493
 10
87.31353350681745
 20
-169.1583224403493
 10
87.31353350681745
 20
-169.1583224403493
 97
        0
 97
        1
330
B3
 75
     2
 76
     1
 98
        1
 10
0.0
 20
0.0
450
        0
451
        0
460
0.0
461
0.0
452
        0
462
0.0
453
        0
470

  0
ENDBLK
  5
AF
330
AC
100
AcDbEntity
  8
0
100
AcDbBlockEnd
  0
BLOCK
  5
BA
330
B8
100
AcDbEntity
  8
0
100
AcDbBlockBegin
  2
Block_7
 70
     0
 10
0.0
 20
0.0
 30
0.0
  3
Block_7
  1

  0
INSERT
  5
BD
330
B8
100
AcDbEntity
  8
レイヤー 1
100
AcDbBlockReference
  2
Block_8
 10
0.0
 20
0.0
 30
0.0
  0
ENDBLK
  5
BB
330
B8
100
AcDbEntity
  8
0
100
AcDbBlockEnd
  0
BLOCK
  5
BE
330
BC
100
AcDbEntity
  8
0
100
AcDbBlockBegin
  2
Block_8
 70
     0
 10
0.0
 20
0.0
 30
0.0
  3
Block_8
  1

  0
SPLINE
  5
C0
330
BC
100
AcDbEntity
  8
レイヤー 1
100
AcDbSpline
210
0.0
220
0.0
230
1.0
 70
     9
 71
     3
 72
    41
 73
    37
 74
     0
 42
0.0000000001
 43
0.0000000001
 40
0.0
 40
0.0
 40
0.0
 40
0.0
 40
1.0
 40
1.0
 40
1.0
 40
2.0
 40
2.0
 40
2.0
 40
3.0
 40
3.0
 40
3.0
 40
4.0
 40
4.0
 40
4.0
 40
5.0
 40
5.0
 40
5.0
 40
6.0
 40
6.0
 40
6.0
 40
7.0
 40
7.0
 40
7.0
 40
8.0
 40
8.0
 40
8.0
 40
9.0
 40
9.0
 40
9.0
 40
10.0
 40
10.0
 40
10.0
 40
11.0
 40
11.0
 40
11.0
 40
12.0
 40
12.0
 40
12.0
 40
12.0
 10
95.70750865662867
 20
-153.6367892411047
 30
0.0
 10
95.44981551433201
 20
-153.5013969885343
 30
0.0
 10
95.25999075309472
 20
-153.2051187768029
 30
0.0
 10
95.21692705952911
 20
-153.075927696106
 30
0.0
 10
95.08808048838076
 20
-153.3405110293732
 30
0.0
 10
94.9137586568271
 20
-153.5182779564121
 30
0.0
 10
94.71945527145903
 20
-153.6323106169739
 30
0.0
 10
94.71945527145903
 20
-153.6323106169739
 30
0.0
 10
94.50930444685878
 20
-153.4948513071124
 30
0.0
 10
94.50930444685878
 20
-153.4948513071124
 30
0.0
 10
94.58371850934019
 20
-153.46970211007
 30
0.0
 10
94.739781334822
 20
-153.4080349008841
 30
0.0
 10
94.87103947281003
 20
-153.2536946231449
 30
0.0
 10
95.00436466808919
 20
-153.0972872881146
 30
0.0
 10
95.09944930348209
 20
-152.8643988333117
 30
0.0
 10
95.09944930348209
 20
-152.6042941241753
 30
0.0
 10
95.09944930348209
 20
-152.5026638073604
 30
0.0
 10
95.08566892154108
 20
-152.4310058212672
 30
0.0
 10
95.07430010643977
 20
-152.3841525226678
 30
0.0
 10
95.07430010643977
 20
-152.3841525226678
 30
0.0
 10
95.29375268885017
 20
-152.4055121146764
 30
0.0
 10
95.29375268885017
 20
-152.4055121146764
 30
0.0
 10
95.31649031905283
 20
-152.4075791719675
 30
0.0
 10
95.33888343970694
 20
-152.4096462292587
 30
0.0
 10
95.33888343970694
 20
-152.4310058212672
 30
0.0
 10
95.33888343970694
 20
-152.4499538464361
 30
0.0
 10
95.32751462460563
 20
-152.4582220756007
 30
0.0
 10
95.29134112201051
 20
-152.4795816676092
 30
0.0
 10
95.28238387374885
 20
-152.6804307343993
 30
0.0
 10
95.34336206383777
 20
-152.9236544756579
 30
0.0
 10
95.40916338760604
 20
-153.0442328176417
 30
0.0
 10
95.5063150802901
 20
-153.2199326873894
 30
0.0
 10
95.71439884759918
 20
-153.3997666717195
 30
0.0
 10
95.85909285797967
 20
-153.4569552567746
 30
0.0
 10
95.85909285797967
 20
-153.4569552567746
 30
0.0
 10
95.70750865662867
 20
-153.6367892411047
 30
0.0
 10
95.70750865662867
 20
-153.6367892411047
 30
0.0
  0
SPLINE
  5
C1
330
BC
100
AcDbEntity
  8
レイヤー 1
100
AcDbSpline
210
0.0
220
0.0
230
1.0
 70
    11
 71
     3
 72
    17
 73
    13
 74
     0
 42
0.0000000001
 43
0.0000000001
 40
0.0
 40
0.0
 40
0.0
 40
0.0
 40
1.0
 40
1.0
 40
1.0
 40
2.0
 40
2.0
 40
2.0
 40
3.0
 40
3.0
 40
3.0
 40
4.0
 40
4.0
 40
4.0
 40
4.0
 10
94.54306638261424
 20
-152.6783636771082
 30
0.0
 10
94.54306638261424
 20
-152.6783636771082
 30
0.0
 10
94.3715006274488
 20
-152.6783636771082
 30
0.0
 10
94.3715006274488
 20
-152.6783636771082
 30
0.0
 10
94.3715006274488
 20
-152.6783636771082
 30
0.0
 10
94.3715006274488
 20
-152.807554757805
 30
0.0
 10
94.3715006274488
 20
-152.807554757805
 30
0.0
 10
94.3715006274488
 20
-152.807554757805
 30
0.0
 10
94.54306638261424
 20
-152.807554757805
 30
0.0
 10
94.54306638261424
 20
-152.807554757805
 30
0.0
 10
94.54306638261424
 20
-152.807554757805
 30
0.0
 10
94.54306638261424
 20
-152.6783636771082
 30
0.0
 10
94.54306638261424
 20
-152.6783636771082
 30
0.0
  0
SPLINE
  5
C2
330
BC
100
AcDbEntity
  8
レイヤー 1
100
AcDbSpline
210
0.0
220
0.0
230
1.0
 70
    11
 71
     3
 72
    17
 73
    13
 74
     0
 42
0.0000000001
 43
0.0000000001
 40
0.0
 40
0.0
 40
0.0
 40
0.0
 40
1.0
 40
1.0
 40
1.0
 40
2.0
 40
2.0
 40
2.0
 40
3.0
 40
3.0
 40
3.0
 40
4.0
 40
4.0
 40
4.0
 40
4.0
 10
94.54306638261424
 20
-152.4055121146764
 30
0.0
 10
94.54306638261424
 20
-152.4055121146764
 30
0.0
 10
94.3715006274488
 20
-152.4055121146764
 30
0.0
 10
94.3715006274488
 20
-152.4055121146764
 30
0.0
 10
94.3715006274488
 20
-152.4055121146764
 30
0.0
 10
94.3715006274488
 20
-152.5343586858247
 30
0.0
 10
94.3715006274488
 20
-152.5343586858247
 30
0.0
 10
94.3715006274488
 20
-152.5343586858247
 30
0.0
 10
94.54306638261424
 20
-152.5343586858247
 30
0.0
 10
94.54306638261424
 20
-152.5343586858247
 30
0.0
 10
94.54306638261424
 20
-152.5343586858247
 30
0.0
 10
94.54306638261424
 20
-152.4055121146764
 30
0.0
 10
94.54306638261424
 20
-152.4055121146764
 30
0.0
  0
SPLINE
  5
C3
330
BC
100
AcDbEntity
  8
レイヤー 1
100
AcDbSpline
210
0.0
220
0.0
230
1.0
 70
    11
 71
     3
 72
    17
 73
    13
 74
     0
 42
0.0000000001
 43
0.0000000001
 40
0.0
 40
0.0
 40
0.0
 40
0.0
 40
1.0
 40
1.0
 40
1.0
 40
2.0
 40
2.0
 40
2.0
 40
3.0
 40
3.0
 40
3.0
 40
4.0
 40
4.0
 40
4.0
 40
4.0
 10
94.18822154763351
 20
-152.6783636771082
 30
0.0
 10
94.18822154763351
 20
-152.6783636771082
 30
0.0
 10
94.01872284975921
 20
-152.6783636771082
 30
0.0
 10
94.01872284975921
 20
-152.6783636771082
 30
0.0
 10
94.01872284975921
 20
-152.6783636771082
 30
0.0
 10
94.01872284975921
 20
-152.807554757805
 30
0.0
 10
94.01872284975921
 20
-152.807554757805
 30
0.0
 10
94.01872284975921
 20
-152.807554757805
 30
0.0
 10
94.18822154763351
 20
-152.807554757805
 30
0.0
 10
94.18822154763351
 20
-152.807554757805
 30
0.0
 10
94.18822154763351
 20
-152.807554757805
 30
0.0
 10
94.18822154763351
 20
-152.6783636771082
 30
0.0
 10
94.18822154763351
 20
-152.6783636771082
 30
0.0
  0
SPLINE
  5
C4
330
BC
100
AcDbEntity
  8
レイヤー 1
100
AcDbSpline
210
0.0
220
0.0
230
1.0
 70
    11
 71
     3
 72
    17
 73
    13
 74
     0
 42
0.0000000001
 43
0.0000000001
 40
0.0
 40
0.0
 40
0.0
 40
0.0
 40
1.0
 40
1.0
 40
1.0
 40
2.0
 40
2.0
 40
2.0
 40
3.0
 40
3.0
 40
3.0
 40
4.0
 40
4.0
 40
4.0
 40
4.0
 10
94.18822154763351
 20
-152.4055121146764
 30
0.0
 10
94.18822154763351
 20
-152.4055121146764
 30
0.0
 10
94.01872284975921
 20
-152.4055121146764
 30
0.0
 10
94.01872284975921
 20
-152.4055121146764
 30
0.0
 10
94.01872284975921
 20
-152.4055121146764
 30
0.0
 10
94.01872284975921
 20
-152.5343586858247
 30
0.0
 10
94.01872284975921
 20
-152.5343586858247
 30
0.0
 10
94.01872284975921
 20
-152.5343586858247
 30
0.0
 10
94.18822154763351
 20
-152.5343586858247
 30
0.0
 10
94.18822154763351
 20
-152.5343586858247
 30
0.0
 10
94.18822154763351
 20
-152.5343586858247
 30
0.0
 10
94.18822154763351
 20
-152.4055121146764
 30
0.0
 10
94.18822154763351
 20
-152.4055121146764
 30
0.0
  0
SPLINE
  5
C5
330
BC
100
AcDbEntity
  8
レイヤー 1
100
AcDbSpline
210
0.0
220
0.0
230
1.0
 70
     9
 71
     3
 72
   197
 73
   193
 74
     0
 42
0.0000000001
 43
0.0000000001
 40
0.0
 40
0.0
 40
0.0
 40
0.0
 40
1.0
 40
1.0
 40
1.0
 40
2.0
 40
2.0
 40
2.0
 40
3.0
 40
3.0
 40
3.0
 40
4.0
 40
4.0
 40
4.0
 40
5.0
 40
5.0
 40
5.0
 40
6.0
 40
6.0
 40
6.0
 40
7.0
 40
7.0
 40
7.0
 40
8.0
 40
8.0
 40
8.0
 40
9.0
 40
9.0
 40
9.0
 40
10.0
 40
10.0
 40
10.0
 40
11.0
 40
11.0
 40
11.0
 40
12.0
 40
12.0
 40
12.0
 40
13.0
 40
13.0
 40
13.0
 40
14.0
 40
14.0
 40
14.0
 40
15.0
 40
15.0
 40
15.0
 40
16.0
 40
16.0
 40
16.0
 40
17.0
 40
17.0
 40
17.0
 40
18.0
 40
18.0
 40
18.0
 40
19.0
 40
19.0
 40
19.0
 40
20.0
 40
20.0
 40
20.0
 40
21.0
 40
21.0
 40
21.0
 40
22.0
 40
22.0
 40
22.0
 40
23.0
 40
23.0
 40
23.0
 40
24.0
 40
24.0
 40
24.0
 40
25.0
 40
25.0
 40
25.0
 40
26.0
 40
26.0
 40
26.0
 40
27.0
 40
27.0
 40
27.0
 40
28.0
 40
28.0
 40
28.0
 40
29.0
 40
29.0
 40
29.0
 40
30.0
 40
30.0
 40
30.0
 40
31.0
 40
31.0
 40
31.0
 40
32.0
 40
32.0
 40
32.0
 40
33.0
 40
33.0
 40
33.0
 40
34.0
 40
34.0
 40
34.0
 40
35.0
 40
35.0
 40
35.0
 40
36.0
 40
36.0
 40
36.0
 40
37.0
 40
37.0
 40
37.0
 40
38.0
 40
38.0
 40
38.0
 40
39.0
 40
39.0
 40
39.0
 40
40.0
 40
40.0
 40
40.0
 40
41.0
 40
41.0
 40
41.0
 40
42.0
 40
42.0
 40
42.0
 40
43.0
 40
43.0
 40
43.0
 40
44.0
 40
44.0
 40
44.0
 40
45.0
 40
45.0
 40
45.0
 40
46.0
 40
46.0
 40
46.0
 40
47.0
 40
47.0
 40
47.0
 40
48.0
 40
48.0
 40
48.0
 40
49.0
 40
49.0
 40
49.0
 40
50.0
 40
50.0
 40
50.0
 40
51.0
 40
51.0
 40
51.0
 40
52.0
 40
52.0
 40
52.0
 40
53.0
 40
53.0
 40
53.0
 40
54.0
 40
54.0
 40
54.0
 40
55.0
 40
55.0
 40
55.0
 40
56.0
 40
56.0
 40
56.0
 40
57.0
 40
57.0
 40
57.0
 40
58.0
 40
58.0
 40
58.0
 40
59.0
 40
59.0
 40
59.0
 40
60.0
 40
60.0
 40
60.0
 40
61.0
 40
61.0
 40
61.0
 40
62.0
 40
62.0
 40
62.0
 40
63.0
 40
63.0
 40
63.0
 40
64.0
 40
64.0
 40
64.0
 40
64.0
 10
95.79777015834222
 20
-152.2807996581103
 30
0.0
 10
95.78674585278942
 20
-152.310082969735
 30
0.0
 10
95.7615966557471
 20
-152.3569362683343
 30
0.0
 10
95.7505723501943
 20
-152.3841525226678
 30
0.0
 10
95.7505723501943
 20
-152.3841525226678
 30
0.0
 10
95.68477102642603
 20
-152.5367702526644
 30
0.0
 10
95.68477102642603
 20
-152.5367702526644
 30
0.0
 10
95.67374672087323
 20
-152.5619194497067
 30
0.0
 10
95.62172577904595
 20
-152.6742295625258
 30
0.0
 10
95.60794539710496
 20
-152.697311702277
 30
0.0
 10
95.60587833981381
 20
-152.703857383699
 30
0.0
 10
95.60139971568299
 20
-152.7121256128636
 30
0.0
 10
95.59898814884332
 20
-152.7186712942856
 30
0.0
 10
95.59898814884332
 20
-152.7186712942856
 30
0.0
 10
95.37505694230206
 20
-152.6656168238127
 30
0.0
 10
95.37505694230206
 20
-152.6656168238127
 30
0.0
 10
95.45877276259364
 20
-152.5557182778333
 30
0.0
 10
95.5242295768134
 20
-152.420326025263
 30
0.0
 10
95.55833602211736
 20
-152.310082969735
 30
0.0
 10
95.55833602211736
 20
-152.310082969735
 30
0.0
 10
95.06086423404729
 20
-152.310082969735
 30
0.0
 10
95.06086423404729
 20
-152.310082969735
 30
0.0
 10
94.97508135646457
 20
-152.4751030434784
 30
0.0
 10
94.90273435127432
 20
-152.5536512205421
 30
0.0
 10
94.8665608486792
 20
-152.593614328171
 30
0.0
 10
94.8665608486792
 20
-152.593614328171
 30
0.0
 10
94.73530271069117
 20
-152.5281575139513
 30
0.0
 10
94.73530271069117
 20
-152.5281575139513
 30
0.0
 10
94.73530271069117
 20
-152.5281575139513
 30
0.0
 10
94.73530271069117
 20
-152.6993787595682
 30
0.0
 10
94.73530271069117
 20
-152.6993787595682
 30
0.0
 10
94.73530271069117
 20
-152.807554757805
 30
0.0
 10
94.73771427753085
 20
-152.8561306041471
 30
0.0
 10
94.74873858308365
 20
-152.9618950355442
 30
0.0
 10
94.67191295376258
 20
-152.9598279782531
 30
0.0
 10
94.64951983310845
 20
-152.9598279782531
 30
0.0
 10
94.43006725069805
 20
-152.9598279782531
 30
0.0
 10
94.43006725069805
 20
-152.9598279782531
 30
0.0
 10
94.3715006274488
 20
-152.9598279782531
 30
0.0
 10
94.3715006274488
 20
-152.9598279782531
 30
0.0
 10
94.3715006274488
 20
-152.9598279782531
 30
0.0
 10
94.3715006274488
 20
-153.0952202308234
 30
0.0
 10
94.3715006274488
 20
-153.0952202308234
 30
0.0
 10
94.3715006274488
 20
-153.0952202308234
 30
0.0
 10
94.44832625676985
 20
-153.0952202308234
 30
0.0
 10
94.44832625676985
 20
-153.0952202308234
 30
0.0
 10
94.51826169512044
 20
-153.0952202308234
 30
0.0
 10
94.67432452060226
 20
-153.0907416066926
 30
0.0
 10
94.78732365251845
 20
-153.082473377528
 30
0.0
 10
94.78732365251845
 20
-153.082473377528
 30
0.0
 10
94.78732365251845
 20
-153.2602403045669
 30
0.0
 10
94.78732365251845
 20
-153.2602403045669
 30
0.0
 10
94.68328176886391
 20
-153.2536946231449
 30
0.0
 10
94.51378307098961
 20
-153.2495605085626
 30
0.0
 10
94.44832625676985
 20
-153.2495605085626
 30
0.0
 10
94.44832625676985
 20
-153.2495605085626
 30
0.0
 10
94.3715006274488
 20
-153.2495605085626
 30
0.0
 10
94.3715006274488
 20
-153.2495605085626
 30
0.0
 10
94.37356768473994
 20
-153.338443972082
 30
0.0
 10
94.37804630887077
 20
-153.5775335987584
 30
0.0
 10
94.38045787571045
 20
-153.6516031516912
 30
0.0
 10
94.38045787571045
 20
-153.6516031516912
 30
0.0
 10
94.16548391743086
 20
-153.6516031516912
 30
0.0
 10
94.16548391743086
 20
-153.6516031516912
 30
0.0
 10
94.17926429937185
 20
-153.4376627220573
 30
0.0
 10
94.17926429937185
 20
-153.4080349008841
 30
0.0
 10
94.18374292350268
 20
-153.2495605085626
 30
0.0
 10
94.18374292350268
 20
-153.2495605085626
 30
0.0
 10
94.10898435147275
 20
-153.2495605085626
 30
0.0
 10
94.10898435147275
 20
-153.2495605085626
 30
0.0
 10
94.04800616138384
 20
-153.2495605085626
 30
0.0
 10
93.88539765448005
 20
-153.2536946231449
 30
0.0
 10
93.76757538888449
 20
-153.2602403045669
 30
0.0
 10
93.76757538888449
 20
-153.2602403045669
 30
0.0
 10
93.76757538888449
 20
-153.082473377528
 30
0.0
 10
93.76757538888449
 20
-153.082473377528
 30
0.0
 10
93.88057452080069
 20
-153.0907416066926
 30
0.0
 10
94.03457028899136
 20
-153.0952202308234
 30
0.0
 10
94.10898435147275
 20
-153.0952202308234
 30
0.0
 10
94.10898435147275
 20
-153.0952202308234
 30
0.0
 10
94.18822154763351
 20
-153.0952202308234
 30
0.0
 10
94.18822154763351
 20
-153.0952202308234
 30
0.0
 10
94.18822154763351
 20
-153.0952202308234
 30
0.0
 10
94.18822154763351
 20
-152.9598279782531
 30
0.0
 10
94.18822154763351
 20
-152.9598279782531
 30
0.0
 10
94.18822154763351
 20
-152.9598279782531
 30
0.0
 10
94.14067922993707
 20
-152.9598279782531
 30
0.0
 10
94.14067922993707
 20
-152.9598279782531
 30
0.0
 10
94.05937497648515
 20
-152.9598279782531
 30
0.0
 10
93.85370277601575
 20
-152.9618950355442
 30
0.0
 10
93.81752927342061
 20
-152.9618950355442
 30
0.0
 10
93.8240749548426
 20
-152.8898925399025
 30
0.0
 10
93.83337671265277
 20
-152.8096218150962
 30
0.0
 10
93.83337671265277
 20
-152.6890434731124
 30
0.0
 10
93.83337671265277
 20
-152.6890434731124
 30
0.0
 10
93.83337671265277
 20
-152.5154106606558
 30
0.0
 10
93.83337671265277
 20
-152.5154106606558
 30
0.0
 10
93.83337671265277
 20
-152.4434081650141
 30
0.0
 10
93.8240749548426
 20
-152.3228298230304
 30
0.0
 10
93.81752927342061
 20
-152.2425590982241
 30
0.0
 10
93.90090058416367
 20
-152.2466932128063
 30
0.0
 10
93.94189722043813
 20
-152.2487602700975
 30
0.0
 10
94.07728947300846
 20
-152.2487602700975
 30
0.0
 10
94.07728947300846
 20
-152.2487602700975
 30
0.0
 10
94.18822154763351
 20
-152.2487602700975
 30
0.0
 10
94.18822154763351
 20
-152.2487602700975
 30
0.0
 10
94.18822154763351
 20
-152.2487602700975
 30
0.0
 10
94.18822154763351
 20
-152.1030327310714
 30
0.0
 10
94.18822154763351
 20
-152.1030327310714
 30
0.0
 10
94.18822154763351
 20
-152.1030327310714
 30
0.0
 10
94.10450572734193
 20
-152.1030327310714
 30
0.0
 10
94.10450572734193
 20
-152.1030327310714
 30
0.0
 10
94.04559459454416
 20
-152.1030327310714
 30
0.0
 10
93.86266002427738
 20
-152.1071668456538
 30
0.0
 10
93.77205401301532
 20
-152.1133680175272
 30
0.0
 10
93.77205401301532
 20
-152.1133680175272
 30
0.0
 10
93.77205401301532
 20
-151.9359456000368
 30
0.0
 10
93.77205401301532
 20
-151.9359456000368
 30
0.0
 10
93.86024845743772
 20
-151.9421467719103
 30
0.0
 10
94.03457028899136
 20
-151.9462808864926
 30
0.0
 10
94.10450572734193
 20
-151.9462808864926
 30
0.0
 10
94.10450572734193
 20
-151.9462808864926
 30
0.0
 10
94.18822154763351
 20
-151.9462808864926
 30
0.0
 10
94.18822154763351
 20
-151.9462808864926
 30
0.0
 10
94.18822154763351
 20
-151.9125189507371
 30
0.0
 10
94.18374292350268
 20
-151.7581786729979
 30
0.0
 10
94.18374292350268
 20
-151.7264837945336
 30
0.0
 10
94.18374292350268
 20
-151.7264837945336
 30
0.0
 10
94.39389374810293
 20
-151.7433647624113
 30
0.0
 10
94.39389374810293
 20
-151.7433647624113
 30
0.0
 10
94.41215275417475
 20
-151.7454318197025
 30
0.0
 10
94.43454587482888
 20
-151.7474988769937
 30
0.0
 10
94.43454587482888
 20
-151.7685139594537
 30
0.0
 10
94.43454587482888
 20
-151.7919406087534
 30
0.0
 10
94.41215275417475
 20
-151.8005533474665
 30
0.0
 10
94.3825249330016
 20
-151.8129556912134
 30
0.0
 10
94.3825249330016
 20
-151.834315283222
 30
0.0
 10
94.38045787571045
 20
-151.9293999186148
 30
0.0
 10
94.38045787571045
 20
-151.9462808864926
 30
0.0
 10
94.38045787571045
 20
-151.9462808864926
 30
0.0
 10
94.44384763263904
 20
-151.9462808864926
 30
0.0
 10
94.44384763263904
 20
-151.9462808864926
 30
0.0
 10
94.51619463782929
 20
-151.9462808864926
 30
0.0
 10
94.66984589647143
 20
-151.9421467719103
 30
0.0
 10
94.78284502838763
 20
-151.9359456000368
 30
0.0
 10
94.78284502838763
 20
-151.9359456000368
 30
0.0
 10
94.78284502838763
 20
-152.1133680175272
 30
0.0
 10
94.78284502838763
 20
-152.1133680175272
 30
0.0
 10
94.67880314473308
 20
-152.1071668456538
 30
0.0
 10
94.51137150414993
 20
-152.1030327310714
 30
0.0
 10
94.44384763263904
 20
-152.1030327310714
 30
0.0
 10
94.44384763263904
 20
-152.1030327310714
 30
0.0
 10
94.3715006274488
 20
-152.1030327310714
 30
0.0
 10
94.3715006274488
 20
-152.1030327310714
 30
0.0
 10
94.3715006274488
 20
-152.1030327310714
 30
0.0
 10
94.3715006274488
 20
-152.2487602700975
 30
0.0
 10
94.3715006274488
 20
-152.2487602700975
 30
0.0
 10
94.3715006274488
 20
-152.2487602700975
 30
0.0
 10
94.44591468993019
 20
-152.2487602700975
 30
0.0
 10
94.44591468993019
 20
-152.2487602700975
 30
0.0
 10
94.60645613954282
 20
-152.2487602700975
 30
0.0
 10
94.68328176886391
 20
-152.2446261555152
 30
0.0
 10
94.74873858308365
 20
-152.2425590982241
 30
0.0
 10
94.739781334822
 20
-152.3376437336169
 30
0.0
 10
94.73771427753085
 20
-152.4161919106806
 30
0.0
 10
94.73530271069117
 20
-152.4540879610184
 30
0.0
 10
94.90032278443464
 20
-152.2425590982241
 30
0.0
 10
95.01332191635084
 20
-151.9952012423831
 30
0.0
 10
95.03158092242266
 20
-151.7326849664071
 30
0.0
 10
95.03158092242266
 20
-151.7326849664071
 30
0.0
 10
95.26205781038589
 20
-151.7833278700403
 30
0.0
 10
95.26205781038589
 20
-151.7833278700403
 30
0.0
 10
95.27790524961803
 20
-151.7878064941711
 30
0.0
 10
95.29375268885017
 20
-151.7940076660445
 30
0.0
 10
95.29375268885017
 20
-151.8108886339222
 30
0.0
 10
95.29375268885017
 20
-151.8277696018
 30
0.0
 10
95.28927406471934
 20
-151.8301811686397
 30
0.0
 10
95.2348415560524
 20
-151.8511962510997
 30
0.0
 10
95.21692705952911
 20
-151.9273328613237
 30
0.0
 10
95.18971080519563
 20
-152.0182833821343
 30
0.0
 10
95.13768986336836
 20
-152.14540740554
 30
0.0
 10
95.13768986336836
 20
-152.14540740554
 30
0.0
 10
95.49942488931959
 20
-152.14540740554
 30
0.0
 10
95.49942488931959
 20
-152.14540740554
 30
0.0
 10
95.54007701604554
 20
-152.14540740554
 30
0.0
 10
95.67822534500406
 20
-152.1409287814092
 30
0.0
 10
95.73024628683134
 20
-152.1347276095357
 30
0.0
 10
95.73024628683134
 20
-152.1347276095357
 30
0.0
 10
95.82946503680652
 20
-152.2043185383378
 30
0.0
 10
95.82946503680652
 20
-152.2043185383378
 30
0.0
 10
95.82050778854487
 20
-152.2256781303463
 30
0.0
 10
95.81361759757438
 20
-152.2446261555152
 30
0.0
 10
95.79777015834222
 20
-152.2807996581103
 30
0.0
  0
HATCH
  5
C6
330
BC
100
AcDbEntity
  8
レイヤー 1
 62
   250
420
  2299925
440
 33554687
100
AcDbHatch
 10
0.0
 20
0.0
 30
0.0
210
0.0
220
0.0
230
1.0
  2
SOLID
 70
     1
 71
     1
 91
        6
 92
        1
 93
        1
 72
     4
 94
        3
 73
     0
 74
     0
 95
       41
 96
       37
 40
0.0
 40
0.0
 40
0.0
 40
0.0
 40
1.0
 40
1.0
 40
1.0
 40
2.0
 40
2.0
 40
2.0
 40
3.0
 40
3.0
 40
3.0
 40
4.0
 40
4.0
 40
4.0
 40
5.0
 40
5.0
 40
5.0
 40
6.0
 40
6.0
 40
6.0
 40
7.0
 40
7.0
 40
7.0
 40
8.0
 40
8.0
 40
8.0
 40
9.0
 40
9.0
 40
9.0
 40
10.0
 40
10.0
 40
10.0
 40
11.0
 40
11.0
 40
11.0
 40
12.0
 40
12.0
 40
12.0
 40
12.0
 10
95.70750865662867
 20
-153.6367892411047
 10
95.44981551433201
 20
-153.5013969885343
 10
95.25999075309472
 20
-153.2051187768029
 10
95.21692705952911
 20
-153.075927696106
 10
95.08808048838076
 20
-153.3405110293732
 10
94.9137586568271
 20
-153.5182779564121
 10
94.71945527145903
 20
-153.6323106169739
 10
94.71945527145903
 20
-153.6323106169739
 10
94.50930444685878
 20
-153.4948513071124
 10
94.50930444685878
 20
-153.4948513071124
 10
94.58371850934019
 20
-153.46970211007
 10
94.739781334822
 20
-153.4080349008841
 10
94.87103947281003
 20
-153.2536946231449
 10
95.00436466808919
 20
-153.0972872881146
 10
95.09944930348209
 20
-152.8643988333117
 10
95.09944930348209
 20
-152.6042941241753
 10
95.09944930348209
 20
-152.5026638073604
 10
95.08566892154108
 20
-152.4310058212672
 10
95.07430010643977
 20
-152.3841525226678
 10
95.07430010643977
 20
-152.3841525226678
 10
95.29375268885017
 20
-152.4055121146764
 10
95.29375268885017
 20
-152.4055121146764
 10
95.31649031905283
 20
-152.4075791719675
 10
95.33888343970694
 20
-152.4096462292587
 10
95.33888343970694
 20
-152.4310058212672
 10
95.33888343970694
 20
-152.4499538464361
 10
95.32751462460563
 20
-152.4582220756007
 10
95.29134112201051
 20
-152.4795816676092
 10
95.28238387374885
 20
-152.6804307343993
 10
95.34336206383777
 20
-152.9236544756579
 10
95.40916338760604
 20
-153.0442328176417
 10
95.5063150802901
 20
-153.2199326873894
 10
95.71439884759918
 20
-153.3997666717195
 10
95.85909285797967
 20
-153.4569552567746
 10
95.85909285797967
 20
-153.4569552567746
 10
95.70750865662867
 20
-153.6367892411047
 10
95.70750865662867
 20
-153.6367892411047
 97
        0
 97
        1
330
C0
 92
        1
 93
        1
 72
     4
 94
        3
 73
     0
 74
     0
 95
       17
 96
       13
 40
0.0
 40
0.0
 40
0.0
 40
0.0
 40
1.0
 40
1.0
 40
1.0
 40
2.0
 40
2.0
 40
2.0
 40
3.0
 40
3.0
 40
3.0
 40
4.0
 40
4.0
 40
4.0
 40
4.0
 10
94.54306638261424
 20
-152.6783636771082
 10
94.54306638261424
 20
-152.6783636771082
 10
94.3715006274488
 20
-152.6783636771082
 10
94.3715006274488
 20
-152.6783636771082
 10
94.3715006274488
 20
-152.6783636771082
 10
94.3715006274488
 20
-152.807554757805
 10
94.3715006274488
 20
-152.807554757805
 10
94.3715006274488
 20
-152.807554757805
 10
94.54306638261424
 20
-152.807554757805
 10
94.54306638261424
 20
-152.807554757805
 10
94.54306638261424
 20
-152.807554757805
 10
94.54306638261424
 20
-152.6783636771082
 10
94.54306638261424
 20
-152.6783636771082
 97
        0
 97
        1
330
C1
 92
        1
 93
        1
 72
     4
 94
        3
 73
     0
 74
     0
 95
       17
 96
       13
 40
0.0
 40
0.0
 40
0.0
 40
0.0
 40
1.0
 40
1.0
 40
1.0
 40
2.0
 40
2.0
 40
2.0
 40
3.0
 40
3.0
 40
3.0
 40
4.0
 40
4.0
 40
4.0
 40
4.0
 10
94.54306638261424
 20
-152.4055121146764
 10
94.54306638261424
 20
-152.4055121146764
 10
94.3715006274488
 20
-152.4055121146764
 10
94.3715006274488
 20
-152.4055121146764
 10
94.3715006274488
 20
-152.4055121146764
 10
94.3715006274488
 20
-152.5343586858247
 10
94.3715006274488
 20
-152.5343586858247
 10
94.3715006274488
 20
-152.5343586858247
 10
94.54306638261424
 20
-152.5343586858247
 10
94.54306638261424
 20
-152.5343586858247
 10
94.54306638261424
 20
-152.5343586858247
 10
94.54306638261424
 20
-152.4055121146764
 10
94.54306638261424
 20
-152.4055121146764
 97
        0
 97
        1
330
C2
 92
        1
 93
        1
 72
     4
 94
        3
 73
     0
 74
     0
 95
       17
 96
       13
 40
0.0
 40
0.0
 40
0.0
 40
0.0
 40
1.0
 40
1.0
 40
1.0
 40
2.0
 40
2.0
 40
2.0
 40
3.0
 40
3.0
 40
3.0
 40
4.0
 40
4.0
 40
4.0
 40
4.0
 10
94.18822154763351
 20
-152.6783636771082
 10
94.18822154763351
 20
-152.6783636771082
 10
94.01872284975921
 20
-152.6783636771082
 10
94.01872284975921
 20
-152.6783636771082
 10
94.01872284975921
 20
-152.6783636771082
 10
94.01872284975921
 20
-152.807554757805
 10
94.01872284975921
 20
-152.807554757805
 10
94.01872284975921
 20
-152.807554757805
 10
94.18822154763351
 20
-152.807554757805
 10
94.18822154763351
 20
-152.807554757805
 10
94.18822154763351
 20
-152.807554757805
 10
94.18822154763351
 20
-152.6783636771082
 10
94.18822154763351
 20
-152.6783636771082
 97
        0
 97
        1
330
C3
 92
        1
 93
        1
 72
     4
 94
        3
 73
     0
 74
     0
 95
       17
 96
       13
 40
0.0
 40
0.0
 40
0.0
 40
0.0
 40
1.0
 40
1.0
 40
1.0
 40
2.0
 40
2.0
 40
2.0
 40
3.0
 40
3.0
 40
3.0
 40
4.0
 40
4.0
 40
4.0
 40
4.0
 10
94.18822154763351
 20
-152.4055121146764
 10
94.18822154763351
 20
-152.4055121146764
 10
94.01872284975921
 20
-152.4055121146764
 10
94.01872284975921
 20
-152.4055121146764
 10
94.01872284975921
 20
-152.4055121146764
 10
94.01872284975921
 20
-152.5343586858247
 10
94.01872284975921
 20
-152.5343586858247
 10
94.01872284975921
 20
-152.5343586858247
 10
94.18822154763351
 20
-152.5343586858247
 10
94.18822154763351
 20
-152.5343586858247
 10
94.18822154763351
 20
-152.5343586858247
 10
94.18822154763351
 20
-152.4055121146764
 10
94.18822154763351
 20
-152.4055121146764
 97
        0
 97
        1
330
C4
 92
        1
 93
        1
 72
     4
 94
        3
 73
     0
 74
     0
 95
      197
 96
      193
 40
0.0
 40
0.0
 40
0.0
 40
0.0
 40
1.0
 40
1.0
 40
1.0
 40
2.0
 40
2.0
 40
2.0
 40
3.0
 40
3.0
 40
3.0
 40
4.0
 40
4.0
 40
4.0
 40
5.0
 40
5.0
 40
5.0
 40
6.0
 40
6.0
 40
6.0
 40
7.0
 40
7.0
 40
7.0
 40
8.0
 40
8.0
 40
8.0
 40
9.0
 40
9.0
 40
9.0
 40
10.0
 40
10.0
 40
10.0
 40
11.0
 40
11.0
 40
11.0
 40
12.0
 40
12.0
 40
12.0
 40
13.0
 40
13.0
 40
13.0
 40
14.0
 40
14.0
 40
14.0
 40
15.0
 40
15.0
 40
15.0
 40
16.0
 40
16.0
 40
16.0
 40
17.0
 40
17.0
 40
17.0
 40
18.0
 40
18.0
 40
18.0
 40
19.0
 40
19.0
 40
19.0
 40
20.0
 40
20.0
 40
20.0
 40
21.0
 40
21.0
 40
21.0
 40
22.0
 40
22.0
 40
22.0
 40
23.0
 40
23.0
 40
23.0
 40
24.0
 40
24.0
 40
24.0
 40
25.0
 40
25.0
 40
25.0
 40
26.0
 40
26.0
 40
26.0
 40
27.0
 40
27.0
 40
27.0
 40
28.0
 40
28.0
 40
28.0
 40
29.0
 40
29.0
 40
29.0
 40
30.0
 40
30.0
 40
30.0
 40
31.0
 40
31.0
 40
31.0
 40
32.0
 40
32.0
 40
32.0
 40
33.0
 40
33.0
 40
33.0
 40
34.0
 40
34.0
 40
34.0
 40
35.0
 40
35.0
 40
35.0
 40
36.0
 40
36.0
 40
36.0
 40
37.0
 40
37.0
 40
37.0
 40
38.0
 40
38.0
 40
38.0
 40
39.0
 40
39.0
 40
39.0
 40
40.0
 40
40.0
 40
40.0
 40
41.0
 40
41.0
 40
41.0
 40
42.0
 40
42.0
 40
42.0
 40
43.0
 40
43.0
 40
43.0
 40
44.0
 40
44.0
 40
44.0
 40
45.0
 40
45.0
 40
45.0
 40
46.0
 40
46.0
 40
46.0
 40
47.0
 40
47.0
 40
47.0
 40
48.0
 40
48.0
 40
48.0
 40
49.0
 40
49.0
 40
49.0
 40
50.0
 40
50.0
 40
50.0
 40
51.0
 40
51.0
 40
51.0
 40
52.0
 40
52.0
 40
52.0
 40
53.0
 40
53.0
 40
53.0
 40
54.0
 40
54.0
 40
54.0
 40
55.0
 40
55.0
 40
55.0
 40
56.0
 40
56.0
 40
56.0
 40
57.0
 40
57.0
 40
57.0
 40
58.0
 40
58.0
 40
58.0
 40
59.0
 40
59.0
 40
59.0
 40
60.0
 40
60.0
 40
60.0
 40
61.0
 40
61.0
 40
61.0
 40
62.0
 40
62.0
 40
62.0
 40
63.0
 40
63.0
 40
63.0
 40
64.0
 40
64.0
 40
64.0
 40
64.0
 10
95.79777015834222
 20
-152.2807996581103
 10
95.78674585278942
 20
-152.310082969735
 10
95.7615966557471
 20
-152.3569362683343
 10
95.7505723501943
 20
-152.3841525226678
 10
95.7505723501943
 20
-152.3841525226678
 10
95.68477102642603
 20
-152.5367702526644
 10
95.68477102642603
 20
-152.5367702526644
 10
95.67374672087323
 20
-152.5619194497067
 10
95.62172577904595
 20
-152.6742295625258
 10
95.60794539710496
 20
-152.697311702277
 10
95.60587833981381
 20
-152.703857383699
 10
95.60139971568299
 20
-152.7121256128636
 10
95.59898814884332
 20
-152.7186712942856
 10
95.59898814884332
 20
-152.7186712942856
 10
95.37505694230206
 20
-152.6656168238127
 10
95.37505694230206
 20
-152.6656168238127
 10
95.45877276259364
 20
-152.5557182778333
 10
95.5242295768134
 20
-152.420326025263
 10
95.55833602211736
 20
-152.310082969735
 10
95.55833602211736
 20
-152.310082969735
 10
95.06086423404729
 20
-152.310082969735
 10
95.06086423404729
 20
-152.310082969735
 10
94.97508135646457
 20
-152.4751030434784
 10
94.90273435127432
 20
-152.5536512205421
 10
94.8665608486792
 20
-152.593614328171
 10
94.8665608486792
 20
-152.593614328171
 10
94.73530271069117
 20
-152.5281575139513
 10
94.73530271069117
 20
-152.5281575139513
 10
94.73530271069117
 20
-152.5281575139513
 10
94.73530271069117
 20
-152.6993787595682
 10
94.73530271069117
 20
-152.6993787595682
 10
94.73530271069117
 20
-152.807554757805
 10
94.73771427753085
 20
-152.8561306041471
 10
94.74873858308365
 20
-152.9618950355442
 10
94.67191295376258
 20
-152.9598279782531
 10
94.64951983310845
 20
-152.9598279782531
 10
94.43006725069805
 20
-152.9598279782531
 10
94.43006725069805
 20
-152.9598279782531
 10
94.3715006274488
 20
-152.9598279782531
 10
94.3715006274488
 20
-152.9598279782531
 10
94.3715006274488
 20
-152.9598279782531
 10
94.3715006274488
 20
-153.0952202308234
 10
94.3715006274488
 20
-153.0952202308234
 10
94.3715006274488
 20
-153.0952202308234
 10
94.44832625676985
 20
-153.0952202308234
 10
94.44832625676985
 20
-153.0952202308234
 10
94.51826169512044
 20
-153.0952202308234
 10
94.67432452060226
 20
-153.0907416066926
 10
94.78732365251845
 20
-153.082473377528
 10
94.78732365251845
 20
-153.082473377528
 10
94.78732365251845
 20
-153.2602403045669
 10
94.78732365251845
 20
-153.2602403045669
 10
94.68328176886391
 20
-153.2536946231449
 10
94.51378307098961
 20
-153.2495605085626
 10
94.44832625676985
 20
-153.2495605085626
 10
94.44832625676985
 20
-153.2495605085626
 10
94.3715006274488
 20
-153.2495605085626
 10
94.3715006274488
 20
-153.2495605085626
 10
94.37356768473994
 20
-153.338443972082
 10
94.37804630887077
 20
-153.5775335987584
 10
94.38045787571045
 20
-153.6516031516912
 10
94.38045787571045
 20
-153.6516031516912
 10
94.16548391743086
 20
-153.6516031516912
 10
94.16548391743086
 20
-153.6516031516912
 10
94.17926429937185
 20
-153.4376627220573
 10
94.17926429937185
 20
-153.4080349008841
 10
94.18374292350268
 20
-153.2495605085626
 10
94.18374292350268
 20
-153.2495605085626
 10
94.10898435147275
 20
-153.2495605085626
 10
94.10898435147275
 20
-153.2495605085626
 10
94.04800616138384
 20
-153.2495605085626
 10
93.88539765448005
 20
-153.2536946231449
 10
93.76757538888449
 20
-153.2602403045669
 10
93.76757538888449
 20
-153.2602403045669
 10
93.76757538888449
 20
-153.082473377528
 10
93.76757538888449
 20
-153.082473377528
 10
93.88057452080069
 20
-153.0907416066926
 10
94.03457028899136
 20
-153.0952202308234
 10
94.10898435147275
 20
-153.0952202308234
 10
94.10898435147275
 20
-153.0952202308234
 10
94.18822154763351
 20
-153.0952202308234
 10
94.18822154763351
 20
-153.0952202308234
 10
94.18822154763351
 20
-153.0952202308234
 10
94.18822154763351
 20
-152.9598279782531
 10
94.18822154763351
 20
-152.9598279782531
 10
94.18822154763351
 20
-152.9598279782531
 10
94.14067922993707
 20
-152.9598279782531
 10
94.14067922993707
 20
-152.9598279782531
 10
94.05937497648515
 20
-152.9598279782531
 10
93.85370277601575
 20
-152.9618950355442
 10
93.81752927342061
 20
-152.9618950355442
 10
93.8240749548426
 20
-152.8898925399025
 10
93.83337671265277
 20
-152.8096218150962
 10
93.83337671265277
 20
-152.6890434731124
 10
93.83337671265277
 20
-152.6890434731124
 10
93.83337671265277
 20
-152.5154106606558
 10
93.83337671265277
 20
-152.5154106606558
 10
93.83337671265277
 20
-152.4434081650141
 10
93.8240749548426
 20
-152.3228298230304
 10
93.81752927342061
 20
-152.2425590982241
 10
93.90090058416367
 20
-152.2466932128063
 10
93.94189722043813
 20
-152.2487602700975
 10
94.07728947300846
 20
-152.2487602700975
 10
94.07728947300846
 20
-152.2487602700975
 10
94.18822154763351
 20
-152.2487602700975
 10
94.18822154763351
 20
-152.2487602700975
 10
94.18822154763351
 20
-152.2487602700975
 10
94.18822154763351
 20
-152.1030327310714
 10
94.18822154763351
 20
-152.1030327310714
 10
94.18822154763351
 20
-152.1030327310714
 10
94.10450572734193
 20
-152.1030327310714
 10
94.10450572734193
 20
-152.1030327310714
 10
94.04559459454416
 20
-152.1030327310714
 10
93.86266002427738
 20
-152.1071668456538
 10
93.77205401301532
 20
-152.1133680175272
 10
93.77205401301532
 20
-152.1133680175272
 10
93.77205401301532
 20
-151.9359456000368
 10
93.77205401301532
 20
-151.9359456000368
 10
93.86024845743772
 20
-151.9421467719103
 10
94.03457028899136
 20
-151.9462808864926
 10
94.10450572734193
 20
-151.9462808864926
 10
94.10450572734193
 20
-151.9462808864926
 10
94.18822154763351
 20
-151.9462808864926
 10
94.18822154763351
 20
-151.9462808864926
 10
94.18822154763351
 20
-151.9125189507371
 10
94.18374292350268
 20
-151.7581786729979
 10
94.18374292350268
 20
-151.7264837945336
 10
94.18374292350268
 20
-151.7264837945336
 10
94.39389374810293
 20
-151.7433647624113
 10
94.39389374810293
 20
-151.7433647624113
 10
94.41215275417475
 20
-151.7454318197025
 10
94.43454587482888
 20
-151.7474988769937
 10
94.43454587482888
 20
-151.7685139594537
 10
94.43454587482888
 20
-151.7919406087534
 10
94.41215275417475
 20
-151.8005533474665
 10
94.3825249330016
 20
-151.8129556912134
 10
94.3825249330016
 20
-151.834315283222
 10
94.38045787571045
 20
-151.9293999186148
 10
94.38045787571045
 20
-151.9462808864926
 10
94.38045787571045
 20
-151.9462808864926
 10
94.44384763263904
 20
-151.9462808864926
 10
94.44384763263904
 20
-151.9462808864926
 10
94.51619463782929
 20
-151.9462808864926
 10
94.66984589647143
 20
-151.9421467719103
 10
94.78284502838763
 20
-151.9359456000368
 10
94.78284502838763
 20
-151.9359456000368
 10
94.78284502838763
 20
-152.1133680175272
 10
94.78284502838763
 20
-152.1133680175272
 10
94.67880314473308
 20
-152.1071668456538
 10
94.51137150414993
 20
-152.1030327310714
 10
94.44384763263904
 20
-152.1030327310714
 10
94.44384763263904
 20
-152.1030327310714
 10
94.3715006274488
 20
-152.1030327310714
 10
94.3715006274488
 20
-152.1030327310714
 10
94.3715006274488
 20
-152.1030327310714
 10
94.3715006274488
 20
-152.2487602700975
 10
94.3715006274488
 20
-152.2487602700975
 10
94.3715006274488
 20
-152.2487602700975
 10
94.44591468993019
 20
-152.2487602700975
 10
94.44591468993019
 20
-152.2487602700975
 10
94.60645613954282
 20
-152.2487602700975
 10
94.68328176886391
 20
-152.2446261555152
 10
94.74873858308365
 20
-152.2425590982241
 10
94.739781334822
 20
-152.3376437336169
 10
94.73771427753085
 20
-152.4161919106806
 10
94.73530271069117
 20
-152.4540879610184
 10
94.90032278443464
 20
-152.2425590982241
 10
95.01332191635084
 20
-151.9952012423831
 10
95.03158092242266
 20
-151.7326849664071
 10
95.03158092242266
 20
-151.7326849664071
 10
95.26205781038589
 20
-151.7833278700403
 10
95.26205781038589
 20
-151.7833278700403
 10
95.27790524961803
 20
-151.7878064941711
 10
95.29375268885017
 20
-151.7940076660445
 10
95.29375268885017
 20
-151.8108886339222
 10
95.29375268885017
 20
-151.8277696018
 10
95.28927406471934
 20
-151.8301811686397
 10
95.2348415560524
 20
-151.8511962510997
 10
95.21692705952911
 20
-151.9273328613237
 10
95.18971080519563
 20
-152.0182833821343
 10
95.13768986336836
 20
-152.14540740554
 10
95.13768986336836
 20
-152.14540740554
 10
95.49942488931959
 20
-152.14540740554
 10
95.49942488931959
 20
-152.14540740554
 10
95.54007701604554
 20
-152.14540740554
 10
95.67822534500406
 20
-152.1409287814092
 10
95.73024628683134
 20
-152.1347276095357
 10
95.73024628683134
 20
-152.1347276095357
 10
95.82946503680652
 20
-152.2043185383378
 10
95.82946503680652
 20
-152.2043185383378
 10
95.82050778854487
 20
-152.2256781303463
 10
95.81361759757438
 20
-152.2446261555152
 10
95.79777015834222
 20
-152.2807996581103
 97
        0
 97
        1
330
C5
 75
     2
 76
     1
 98
        1
 10
0.0
 20
0.0
450
        0
451
        0
460
0.0
461
0.0
452
        0
462
0.0
453
        0
470

  0
SPLINE
  5
C7
330
BC
100
AcDbEntity
  8
レイヤー 1
100
AcDbSpline
210
0.0
220
0.0
230
1.0
 70
     9
 71
     3
 72
    74
 73
    70
 74
     0
 42
0.0000000001
 43
0.0000000001
 40
0.0
 40
0.0
 40
0.0
 40
0.0
 40
1.0
 40
1.0
 40
1.0
 40
2.0
 40
2.0
 40
2.0
 40
3.0
 40
3.0
 40
3.0
 40
4.0
 40
4.0
 40
4.0
 40
5.0
 40
5.0
 40
5.0
 40
6.0
 40
6.0
 40
6.0
 40
7.0
 40
7.0
 40
7.0
 40
8.0
 40
8.0
 40
8.0
 40
9.0
 40
9.0
 40
9.0
 40
10.0
 40
10.0
 40
10.0
 40
11.0
 40
11.0
 40
11.0
 40
12.0
 40
12.0
 40
12.0
 40
13.0
 40
13.0
 40
13.0
 40
14.0
 40
14.0
 40
14.0
 40
15.0
 40
15.0
 40
15.0
 40
16.0
 40
16.0
 40
16.0
 40
17.0
 40
17.0
 40
17.0
 40
18.0
 40
18.0
 40
18.0
 40
19.0
 40
19.0
 40
19.0
 40
20.0
 40
20.0
 40
20.0
 40
21.0
 40
21.0
 40
21.0
 40
22.0
 40
22.0
 40
22.0
 40
23.0
 40
23.0
 40
23.0
 40
23.0
 10
97.89307723247119
 20
-152.1833034558778
 30
0.0
 10
97.89307723247119
 20
-152.1833034558778
 30
0.0
 10
97.72116696775722
 20
-152.1833034558778
 30
0.0
 10
97.72116696775722
 20
-152.1833034558778
 30
0.0
 10
97.72116696775722
 20
-152.1833034558778
 30
0.0
 10
97.72116696775722
 20
-152.297680625988
 30
0.0
 10
97.72116696775722
 20
-152.297680625988
 30
0.0
 10
97.72116696775722
 20
-152.3376437336169
 30
0.0
 10
97.7280571587277
 20
-152.4117132865498
 30
0.0
 10
97.73253578285853
 20
-152.4372069931407
 30
0.0
 10
97.73253578285853
 20
-152.4372069931407
 30
0.0
 10
97.50636526425189
 20
-152.4372069931407
 30
0.0
 10
97.50636526425189
 20
-152.4372069931407
 30
0.0
 10
97.51773407935321
 20
-152.3717501789209
 30
0.0
 10
97.51997339141862
 20
-152.3124945365746
 30
0.0
 10
97.51997339141862
 20
-152.310082969735
 30
0.0
 10
97.51997339141862
 20
-152.310082969735
 30
0.0
 10
97.51997339141862
 20
-152.1874375704601
 30
0.0
 10
97.51997339141862
 20
-152.1874375704601
 30
0.0
 10
97.51997339141862
 20
-152.1874375704601
 30
0.0
 10
97.32773706334169
 20
-152.1874375704601
 30
0.0
 10
97.32773706334169
 20
-152.1874375704601
 30
0.0
 10
97.30741099997871
 20
-152.2466932128063
 30
0.0
 10
97.25780162499111
 20
-152.392765261381
 30
0.0
 10
97.135672990039
 20
-152.4751030434784
 30
0.0
 10
97.135672990039
 20
-152.4751030434784
 30
0.0
 10
96.96841360423013
 20
-152.3693386120813
 30
0.0
 10
96.96841360423013
 20
-152.3693386120813
 30
0.0
 10
97.04747854561661
 20
-152.3228298230304
 30
0.0
 10
97.17184649263414
 20
-152.2487602700975
 30
0.0
 10
97.17184649263414
 20
-151.9273328613237
 30
0.0
 10
97.17184649263414
 20
-151.8722113335597
 30
0.0
 10
97.16719561372904
 20
-151.8277696018
 30
0.0
 10
97.16495630166363
 20
-151.7898735514622
 30
0.0
 10
97.24643280988978
 20
-151.7981417806268
 30
0.0
 10
97.32549775127628
 20
-151.8046874620488
 30
0.0
 10
97.39336613233568
 20
-151.8046874620488
 30
0.0
 10
97.58336314834721
 20
-151.8046874620488
 30
0.0
 10
97.79575328501287
 20
-151.7454318197025
 30
0.0
 10
97.86138235400688
 20
-151.7158039985294
 30
0.0
 10
97.86138235400688
 20
-151.7158039985294
 30
0.0
 10
97.99694686135147
 20
-151.8511962510997
 30
0.0
 10
97.99694686135147
 20
-151.8511962510997
 30
0.0
 10
98.00159774025654
 20
-151.855330365682
 30
0.0
 10
98.00383705232196
 20
-151.8639431043951
 30
0.0
 10
98.00383705232196
 20
-151.8701442762685
 30
0.0
 10
98.00383705232196
 20
-151.8915038682771
 30
0.0
 10
97.98798961308982
 20
-151.8977050401506
 30
0.0
 10
97.96990286179225
 20
-151.8977050401506
 30
0.0
 10
97.94733748636387
 20
-151.8977050401506
 30
0.0
 10
97.93149004713171
 20
-151.889436810986
 30
0.0
 10
97.91116398376875
 20
-151.8787570149817
 30
0.0
 10
97.72564559188804
 20
-151.9359456000368
 30
0.0
 10
97.49275713708515
 20
-151.9610947970791
 30
0.0
 10
97.35047469354434
 20
-151.9631618543703
 30
0.0
 10
97.35047469354434
 20
-151.9631618543703
 30
0.0
 10
97.34582381463924
 20
-152.0458441460163
 30
0.0
 10
97.34582381463924
 20
-152.0458441460163
 30
0.0
 10
97.34582381463924
 20
-152.0458441460163
 30
0.0
 10
97.63745114746564
 20
-152.0458441460163
 30
0.0
 10
97.63745114746564
 20
-152.0458441460163
 30
0.0
 10
97.69860159232884
 20
-152.0458441460163
 30
0.0
 10
97.9788601100539
 20
-152.0268961208474
 30
0.0
 10
98.02640242775035
 20
-152.0203504394254
 30
0.0
 10
98.02640242775035
 20
-152.0203504394254
 30
0.0
 10
98.02640242775035
 20
-152.1895046277512
 30
0.0
 10
98.02640242775035
 20
-152.1895046277512
 30
0.0
 10
97.99022892515523
 20
-152.1853705131689
 30
0.0
 10
97.97662079798849
 20
-152.1833034558778
 30
0.0
 10
97.89307723247119
 20
-152.1833034558778
 30
0.0
  0
SPLINE
  5
C8
330
BC
100
AcDbEntity
  8
レイヤー 1
100
AcDbSpline
210
0.0
220
0.0
230
1.0
 70
    11
 71
     3
 72
    17
 73
    13
 74
     0
 42
0.0000000001
 43
0.0000000001
 40
0.0
 40
0.0
 40
0.0
 40
0.0
 40
1.0
 40
1.0
 40
1.0
 40
2.0
 40
2.0
 40
2.0
 40
3.0
 40
3.0
 40
3.0
 40
4.0
 40
4.0
 40
4.0
 40
4.0
 10
97.55390758194835
 20
-153.1269151092877
 30
0.0
 10
97.55390758194835
 20
-153.1269151092877
 30
0.0
 10
96.57946232394543
 20
-153.1269151092877
 30
0.0
 10
96.57946232394543
 20
-153.1269151092877
 30
0.0
 10
96.57946232394543
 20
-153.1269151092877
 30
0.0
 10
96.57946232394543
 20
-153.234746597976
 30
0.0
 10
96.57946232394543
 20
-153.234746597976
 30
0.0
 10
96.57946232394543
 20
-153.234746597976
 30
0.0
 10
97.55390758194835
 20
-153.234746597976
 30
0.0
 10
97.55390758194835
 20
-153.234746597976
 30
0.0
 10
97.55390758194835
 20
-153.234746597976
 30
0.0
 10
97.55390758194835
 20
-153.1269151092877
 30
0.0
 10
97.55390758194835
 20
-153.1269151092877
 30
0.0
  0
SPLINE
  5
C9
330
BC
100
AcDbEntity
  8
レイヤー 1
100
AcDbSpline
210
0.0
220
0.0
230
1.0
 70
    11
 71
     3
 72
    17
 73
    13
 74
     0
 42
0.0000000001
 43
0.0000000001
 40
0.0
 40
0.0
 40
0.0
 40
0.0
 40
1.0
 40
1.0
 40
1.0
 40
2.0
 40
2.0
 40
2.0
 40
3.0
 40
3.0
 40
3.0
 40
4.0
 40
4.0
 40
4.0
 40
4.0
 10
97.55390758194835
 20
-152.8812798011894
 30
0.0
 10
97.55390758194835
 20
-152.8812798011894
 30
0.0
 10
96.57946232394543
 20
-152.8812798011894
 30
0.0
 10
96.57946232394543
 20
-152.8812798011894
 30
0.0
 10
96.57946232394543
 20
-152.8812798011894
 30
0.0
 10
96.57946232394543
 20
-152.9915228567174
 30
0.0
 10
96.57946232394543
 20
-152.9915228567174
 30
0.0
 10
96.57946232394543
 20
-152.9915228567174
 30
0.0
 10
97.55390758194835
 20
-152.9915228567174
 30
0.0
 10
97.55390758194835
 20
-152.9915228567174
 30
0.0
 10
97.55390758194835
 20
-152.9915228567174
 30
0.0
 10
97.55390758194835
 20
-152.8812798011894
 30
0.0
 10
97.55390758194835
 20
-152.8812798011894
 30
0.0
  0
SPLINE
  5
CA
330
BC
100
AcDbEntity
  8
レイヤー 1
100
AcDbSpline
210
0.0
220
0.0
230
1.0
 70
    11
 71
     3
 72
    17
 73
    13
 74
     0
 42
0.0000000001
 43
0.0000000001
 40
0.0
 40
0.0
 40
0.0
 40
0.0
 40
1.0
 40
1.0
 40
1.0
 40
2.0
 40
2.0
 40
2.0
 40
3.0
 40
3.0
 40
3.0
 40
4.0
 40
4.0
 40
4.0
 40
4.0
 10
97.55390758194835
 20
-152.6359890026396
 30
0.0
 10
97.55390758194835
 20
-152.6359890026396
 30
0.0
 10
96.57946232394543
 20
-152.6359890026396
 30
0.0
 10
96.57946232394543
 20
-152.6359890026396
 30
0.0
 10
96.57946232394543
 20
-152.6359890026396
 30
0.0
 10
96.57946232394543
 20
-152.7482991154587
 30
0.0
 10
96.57946232394543
 20
-152.7482991154587
 30
0.0
 10
96.57946232394543
 20
-152.7482991154587
 30
0.0
 10
97.55390758194835
 20
-152.7482991154587
 30
0.0
 10
97.55390758194835
 20
-152.7482991154587
 30
0.0
 10
97.55390758194835
 20
-152.7482991154587
 30
0.0
 10
97.55390758194835
 20
-152.6359890026396
 30
0.0
 10
97.55390758194835
 20
-152.6359890026396
 30
0.0
  0
SPLINE
  5
CB
330
BC
100
AcDbEntity
  8
レイヤー 1
100
AcDbSpline
210
0.0
220
0.0
230
1.0
 70
     9
 71
     3
 72
    74
 73
    70
 74
     0
 42
0.0000000001
 43
0.0000000001
 40
0.0
 40
0.0
 40
0.0
 40
0.0
 40
1.0
 40
1.0
 40
1.0
 40
2.0
 40
2.0
 40
2.0
 40
3.0
 40
3.0
 40
3.0
 40
4.0
 40
4.0
 40
4.0
 40
5.0
 40
5.0
 40
5.0
 40
6.0
 40
6.0
 40
6.0
 40
7.0
 40
7.0
 40
7.0
 40
8.0
 40
8.0
 40
8.0
 40
9.0
 40
9.0
 40
9.0
 40
10.0
 40
10.0
 40
10.0
 40
11.0
 40
11.0
 40
11.0
 40
12.0
 40
12.0
 40
12.0
 40
13.0
 40
13.0
 40
13.0
 40
14.0
 40
14.0
 40
14.0
 40
15.0
 40
15.0
 40
15.0
 40
16.0
 40
16.0
 40
16.0
 40
17.0
 40
17.0
 40
17.0
 40
18.0
 40
18.0
 40
18.0
 40
19.0
 40
19.0
 40
19.0
 40
20.0
 40
20.0
 40
20.0
 40
21.0
 40
21.0
 40
21.0
 40
22.0
 40
22.0
 40
22.0
 40
23.0
 40
23.0
 40
23.0
 40
23.0
 10
97.87946910530443
 20
-153.6705511768601
 30
0.0
 10
97.65105927463238
 20
-153.6598713808558
 30
0.0
 10
97.43625757112706
 20
-153.5730549746276
 30
0.0
 10
97.24867212195519
 20
-153.4524766326438
 30
0.0
 10
97.24867212195519
 20
-153.4524766326438
 30
0.0
 10
97.35271400560975
 20
-153.366004735964
 30
0.0
 10
97.35271400560975
 20
-153.366004735964
 30
0.0
 10
97.35271400560975
 20
-153.366004735964
 30
0.0
 10
96.76274140376072
 20
-153.366004735964
 30
0.0
 10
96.76274140376072
 20
-153.366004735964
 30
0.0
 10
96.76274140376072
 20
-153.366004735964
 30
0.0
 10
96.84852428134343
 20
-153.4293944928927
 30
0.0
 10
96.84852428134343
 20
-153.4293944928927
 30
0.0
 10
96.85541447231393
 20
-153.4335286074749
 30
0.0
 10
96.86643877786673
 20
-153.4442084034792
 30
0.0
 10
96.86643877786673
 20
-153.4590223140658
 30
0.0
 10
96.86643877786673
 20
-153.4993299312432
 30
0.0
 10
96.78754609125451
 20
-153.4927842498212
 30
0.0
 10
96.77169865202236
 20
-153.4907171925301
 30
0.0
 10
96.525374324827
 20
-153.6302435596827
 30
0.0
 10
96.37137855663633
 20
-153.661938438147
 30
0.0
 10
96.2607909915598
 20
-153.6788194060247
 30
0.0
 10
96.2607909915598
 20
-153.6788194060247
 30
0.0
 10
96.1226426626013
 20
-153.5013969885343
 30
0.0
 10
96.1226426626013
 20
-153.5013969885343
 30
0.0
 10
96.38722599586849
 20
-153.46970211007
 30
0.0
 10
96.49574650365385
 20
-153.4228488114707
 30
0.0
 10
96.59083113904674
 20
-153.3701388505464
 30
0.0
 10
96.51159394288599
 20
-153.3722059078375
 30
0.0
 10
96.38963756270815
 20
-153.3742729651286
 30
0.0
 10
96.35553111740419
 20
-153.3763400224198
 30
0.0
 10
96.37137855663633
 20
-153.2874565589003
 30
0.0
 10
96.37379012347601
 20
-153.158609987752
 30
0.0
 10
96.37379012347601
 20
-153.0845404348191
 30
0.0
 10
96.37379012347601
 20
-153.0845404348191
 30
0.0
 10
96.37379012347601
 20
-152.7841281085053
 30
0.0
 10
96.37379012347601
 20
-152.7841281085053
 30
0.0
 10
96.37379012347601
 20
-152.6845648489816
 30
0.0
 10
96.3668999325055
 20
-152.5853460990064
 30
0.0
 10
96.35553111740419
 20
-152.4878498967738
 30
0.0
 10
96.46405162518954
 20
-152.4943955781958
 30
0.0
 10
96.71072046193344
 20
-152.5005967500693
 30
0.0
 10
96.82578665114078
 20
-152.5005967500693
 30
0.0
 10
96.82578665114078
 20
-152.5005967500693
 30
0.0
 10
97.27812768835409
 20
-152.5005967500693
 30
0.0
 10
97.27812768835409
 20
-152.5005967500693
 30
0.0
 10
97.40473494743703
 20
-152.5005967500693
 30
0.0
 10
97.44986569829379
 20
-152.5005967500693
 30
0.0
 10
97.53806014271619
 20
-152.496462635487
 30
0.0
 10
97.69636228026342
 20
-152.489916954065
 30
0.0
 10
97.71444903156098
 20
-152.489916954065
 30
0.0
 10
97.76423066132284
 20
-152.4878498967738
 30
0.0
 10
97.75510115828693
 20
-152.5684651311287
 30
0.0
 10
97.7506225341561
 20
-152.7269395234502
 30
0.0
 10
97.7506225341561
 20
-152.8096218150962
 30
0.0
 10
97.7506225341561
 20
-152.8096218150962
 30
0.0
 10
97.7506225341561
 20
-153.0952202308234
 30
0.0
 10
97.7506225341561
 20
-153.0952202308234
 30
0.0
 10
97.7506225341561
 20
-153.1668782169166
 30
0.0
 10
97.75286184622151
 20
-153.2981363549046
 30
0.0
 10
97.76423066132284
 20
-153.3763400224198
 30
0.0
 10
97.68723277722751
 20
-153.3722059078375
 30
0.0
 10
97.55614689401376
 20
-153.3701388505464
 30
0.0
 10
97.47243107372218
 20
-153.3680717932552
 30
0.0
 10
97.59008108454345
 20
-153.4355956647661
 30
0.0
 10
97.75286184622151
 20
-153.4865830779478
 30
0.0
 10
97.9788601100539
 20
-153.4907171925301
 30
0.0
 10
97.9788601100539
 20
-153.4907171925301
 30
0.0
 10
97.87946910530443
 20
-153.6705511768601
 30
0.0
 10
97.87946910530443
 20
-153.6705511768601
 30
0.0
  0
SPLINE
  5
CC
330
BC
100
AcDbEntity
  8
レイヤー 1
100
AcDbSpline
210
0.0
220
0.0
230
1.0
 70
     9
 71
     3
 72
    71
 73
    67
 74
     0
 42
0.0000000001
 43
0.0000000001
 40
0.0
 40
0.0
 40
0.0
 40
0.0
 40
1.0
 40
1.0
 40
1.0
 40
2.0
 40
2.0
 40
2.0
 40
3.0
 40
3.0
 40
3.0
 40
4.0
 40
4.0
 40
4.0
 40
5.0
 40
5.0
 40
5.0
 40
6.0
 40
6.0
 40
6.0
 40
7.0
 40
7.0
 40
7.0
 40
8.0
 40
8.0
 40
8.0
 40
9.0
 40
9.0
 40
9.0
 40
10.0
 40
10.0
 40
10.0
 40
11.0
 40
11.0
 40
11.0
 40
12.0
 40
12.0
 40
12.0
 40
13.0
 40
13.0
 40
13.0
 40
14.0
 40
14.0
 40
14.0
 40
15.0
 40
15.0
 40
15.0
 40
16.0
 40
16.0
 40
16.0
 40
17.0
 40
17.0
 40
17.0
 40
18.0
 40
18.0
 40
18.0
 40
19.0
 40
19.0
 40
19.0
 40
20.0
 40
20.0
 40
20.0
 40
21.0
 40
21.0
 40
21.0
 40
22.0
 40
22.0
 40
22.0
 40
22.0
 10
96.98408878868802
 20
-151.903906212024
 30
0.0
 10
96.96841360423013
 20
-151.903906212024
 30
0.0
 10
96.95480547706338
 20
-151.8997720974417
 30
0.0
 10
96.92758922272991
 20
-151.8915038682771
 30
0.0
 10
96.77617727615318
 20
-151.938012657328
 30
0.0
 10
96.59083113904674
 20
-151.9548936252057
 30
0.0
 10
96.44165850453543
 20
-151.959027739788
 30
0.0
 10
96.44165850453543
 20
-151.959027739788
 30
0.0
 10
96.43924693769575
 20
-152.0479112033074
 30
0.0
 10
96.43924693769575
 20
-152.0479112033074
 30
0.0
 10
96.43924693769575
 20
-152.0479112033074
 30
0.0
 10
96.71726614335542
 20
-152.0479112033074
 30
0.0
 10
96.71726614335542
 20
-152.0479112033074
 30
0.0
 10
96.7737657093135
 20
-152.0479112033074
 30
0.0
 10
96.96841360423013
 20
-152.0392984645943
 30
0.0
 10
97.01578366715231
 20
-152.0330972927209
 30
0.0
 10
97.01578366715231
 20
-152.0330972927209
 30
0.0
 10
97.01578366715231
 20
-152.193983251882
 30
0.0
 10
97.01578366715231
 20
-152.193983251882
 30
0.0
 10
96.9570447891288
 20
-152.1874375704601
 30
0.0
 10
96.82371959384964
 20
-152.1853705131689
 30
0.0
 10
96.78306746712369
 20
-152.1874375704601
 30
0.0
 10
96.78306746712369
 20
-152.1874375704601
 30
0.0
 10
96.78306746712369
 20
-152.297680625988
 30
0.0
 10
96.78306746712369
 20
-152.297680625988
 30
0.0
 10
96.78306746712369
 20
-152.3441894150389
 30
0.0
 10
96.78513452441483
 20
-152.4075791719675
 30
0.0
 10
96.79202471538534
 20
-152.4454752223053
 30
0.0
 10
96.79202471538534
 20
-152.4454752223053
 30
0.0
 10
96.58635251491592
 20
-152.4454752223053
 30
0.0
 10
96.58635251491592
 20
-152.4454752223053
 30
0.0
 10
96.59289819633789
 20
-152.4055121146764
 30
0.0
 10
96.5997883873084
 20
-152.3228298230304
 30
0.0
 10
96.5997883873084
 20
-152.3080159124438
 30
0.0
 10
96.5997883873084
 20
-152.3080159124438
 30
0.0
 10
96.5997883873084
 20
-152.1874375704601
 30
0.0
 10
96.5997883873084
 20
-152.1874375704601
 30
0.0
 10
96.5997883873084
 20
-152.1874375704601
 30
0.0
 10
96.42339949846359
 20
-152.1874375704601
 30
0.0
 10
96.42339949846359
 20
-152.1874375704601
 30
0.0
 10
96.37826874760683
 20
-152.4075791719675
 30
0.0
 10
96.31935761480905
 20
-152.4878498967738
 30
0.0
 10
96.20635848289285
 20
-152.5874131562976
 30
0.0
 10
96.20635848289285
 20
-152.5874131562976
 30
0.0
 10
96.02790253675692
 20
-152.4730359861873
 30
0.0
 10
96.02790253675692
 20
-152.4730359861873
 30
0.0
 10
96.09577091781634
 20
-152.4244601398453
 30
0.0
 10
96.25631236742897
 20
-152.3124945365746
 30
0.0
 10
96.25631236742897
 20
-151.9631618543703
 30
0.0
 10
96.25631236742897
 20
-151.8808240722728
 30
0.0
 10
96.24701060961882
 20
-151.834315283222
 30
0.0
 10
96.23805336135717
 20
-151.7857394368799
 30
0.0
 10
96.39411618683897
 20
-151.8005533474665
 30
0.0
 10
96.40996362607111
 20
-151.8005533474665
 30
0.0
 10
96.4482041859574
 20
-151.8005533474665
 30
0.0
 10
96.56361488471326
 20
-151.8005533474665
 30
0.0
 10
96.71519908606427
 20
-151.7833278700403
 30
0.0
 10
96.88710935077823
 20
-151.7220051704028
 30
0.0
 10
96.88710935077823
 20
-151.7220051704028
 30
0.0
 10
97.00906573095608
 20
-151.8532633083908
 30
0.0
 10
97.00906573095608
 20
-151.8532633083908
 30
0.0
 10
97.01578366715231
 20
-151.8598089898128
 30
0.0
 10
97.02026229128314
 20
-151.8680772189774
 30
0.0
 10
97.02026229128314
 20
-151.8766899576905
 30
0.0
 10
97.02026229128314
 20
-151.8997720974417
 30
0.0
 10
96.99993622792016
 20
-151.903906212024
 30
0.0
 10
96.98408878868802
 20
-151.903906212024
 30
0.0
  0
HATCH
  5
CD
330
BC
100
AcDbEntity
  8
レイヤー 1
 62
   250
420
  2299925
440
 33554687
100
AcDbHatch
 10
0.0
 20
0.0
 30
0.0
210
0.0
220
0.0
230
1.0
  2
SOLID
 70
     1
 71
     1
 91
        6
 92
        1
 93
        1
 72
     4
 94
        3
 73
     0
 74
     0
 95
       74
 96
       70
 40
0.0
 40
0.0
 40
0.0
 40
0.0
 40
1.0
 40
1.0
 40
1.0
 40
2.0
 40
2.0
 40
2.0
 40
3.0
 40
3.0
 40
3.0
 40
4.0
 40
4.0
 40
4.0
 40
5.0
 40
5.0
 40
5.0
 40
6.0
 40
6.0
 40
6.0
 40
7.0
 40
7.0
 40
7.0
 40
8.0
 40
8.0
 40
8.0
 40
9.0
 40
9.0
 40
9.0
 40
10.0
 40
10.0
 40
10.0
 40
11.0
 40
11.0
 40
11.0
 40
12.0
 40
12.0
 40
12.0
 40
13.0
 40
13.0
 40
13.0
 40
14.0
 40
14.0
 40
14.0
 40
15.0
 40
15.0
 40
15.0
 40
16.0
 40
16.0
 40
16.0
 40
17.0
 40
17.0
 40
17.0
 40
18.0
 40
18.0
 40
18.0
 40
19.0
 40
19.0
 40
19.0
 40
20.0
 40
20.0
 40
20.0
 40
21.0
 40
21.0
 40
21.0
 40
22.0
 40
22.0
 40
22.0
 40
23.0
 40
23.0
 40
23.0
 40
23.0
 10
97.89307723247119
 20
-152.1833034558778
 10
97.89307723247119
 20
-152.1833034558778
 10
97.72116696775722
 20
-152.1833034558778
 10
97.72116696775722
 20
-152.1833034558778
 10
97.72116696775722
 20
-152.1833034558778
 10
97.72116696775722
 20
-152.297680625988
 10
97.72116696775722
 20
-152.297680625988
 10
97.72116696775722
 20
-152.3376437336169
 10
97.7280571587277
 20
-152.4117132865498
 10
97.73253578285853
 20
-152.4372069931407
 10
97.73253578285853
 20
-152.4372069931407
 10
97.50636526425189
 20
-152.4372069931407
 10
97.50636526425189
 20
-152.4372069931407
 10
97.51773407935321
 20
-152.3717501789209
 10
97.51997339141862
 20
-152.3124945365746
 10
97.51997339141862
 20
-152.310082969735
 10
97.51997339141862
 20
-152.310082969735
 10
97.51997339141862
 20
-152.1874375704601
 10
97.51997339141862
 20
-152.1874375704601
 10
97.51997339141862
 20
-152.1874375704601
 10
97.32773706334169
 20
-152.1874375704601
 10
97.32773706334169
 20
-152.1874375704601
 10
97.30741099997871
 20
-152.2466932128063
 10
97.25780162499111
 20
-152.392765261381
 10
97.135672990039
 20
-152.4751030434784
 10
97.135672990039
 20
-152.4751030434784
 10
96.96841360423013
 20
-152.3693386120813
 10
96.96841360423013
 20
-152.3693386120813
 10
97.04747854561661
 20
-152.3228298230304
 10
97.17184649263414
 20
-152.2487602700975
 10
97.17184649263414
 20
-151.9273328613237
 10
97.17184649263414
 20
-151.8722113335597
 10
97.16719561372904
 20
-151.8277696018
 10
97.16495630166363
 20
-151.7898735514622
 10
97.24643280988978
 20
-151.7981417806268
 10
97.32549775127628
 20
-151.8046874620488
 10
97.39336613233568
 20
-151.8046874620488
 10
97.58336314834721
 20
-151.8046874620488
 10
97.79575328501287
 20
-151.7454318197025
 10
97.86138235400688
 20
-151.7158039985294
 10
97.86138235400688
 20
-151.7158039985294
 10
97.99694686135147
 20
-151.8511962510997
 10
97.99694686135147
 20
-151.8511962510997
 10
98.00159774025654
 20
-151.855330365682
 10
98.00383705232196
 20
-151.8639431043951
 10
98.00383705232196
 20
-151.8701442762685
 10
98.00383705232196
 20
-151.8915038682771
 10
97.98798961308982
 20
-151.8977050401506
 10
97.96990286179225
 20
-151.8977050401506
 10
97.94733748636387
 20
-151.8977050401506
 10
97.93149004713171
 20
-151.889436810986
 10
97.91116398376875
 20
-151.8787570149817
 10
97.72564559188804
 20
-151.9359456000368
 10
97.49275713708515
 20
-151.9610947970791
 10
97.35047469354434
 20
-151.9631618543703
 10
97.35047469354434
 20
-151.9631618543703
 10
97.34582381463924
 20
-152.0458441460163
 10
97.34582381463924
 20
-152.0458441460163
 10
97.34582381463924
 20
-152.0458441460163
 10
97.63745114746564
 20
-152.0458441460163
 10
97.63745114746564
 20
-152.0458441460163
 10
97.69860159232884
 20
-152.0458441460163
 10
97.9788601100539
 20
-152.0268961208474
 10
98.02640242775035
 20
-152.0203504394254
 10
98.02640242775035
 20
-152.0203504394254
 10
98.02640242775035
 20
-152.1895046277512
 10
98.02640242775035
 20
-152.1895046277512
 10
97.99022892515523
 20
-152.1853705131689
 10
97.97662079798849
 20
-152.1833034558778
 10
97.89307723247119
 20
-152.1833034558778
 97
        0
 97
        1
330
C7
 92
        1
 93
        1
 72
     4
 94
        3
 73
     0
 74
     0
 95
       17
 96
       13
 40
0.0
 40
0.0
 40
0.0
 40
0.0
 40
1.0
 40
1.0
 40
1.0
 40
2.0
 40
2.0
 40
2.0
 40
3.0
 40
3.0
 40
3.0
 40
4.0
 40
4.0
 40
4.0
 40
4.0
 10
97.55390758194835
 20
-153.1269151092877
 10
97.55390758194835
 20
-153.1269151092877
 10
96.57946232394543
 20
-153.1269151092877
 10
96.57946232394543
 20
-153.1269151092877
 10
96.57946232394543
 20
-153.1269151092877
 10
96.57946232394543
 20
-153.234746597976
 10
96.57946232394543
 20
-153.234746597976
 10
96.57946232394543
 20
-153.234746597976
 10
97.55390758194835
 20
-153.234746597976
 10
97.55390758194835
 20
-153.234746597976
 10
97.55390758194835
 20
-153.234746597976
 10
97.55390758194835
 20
-153.1269151092877
 10
97.55390758194835
 20
-153.1269151092877
 97
        0
 97
        1
330
C8
 92
        1
 93
        1
 72
     4
 94
        3
 73
     0
 74
     0
 95
       17
 96
       13
 40
0.0
 40
0.0
 40
0.0
 40
0.0
 40
1.0
 40
1.0
 40
1.0
 40
2.0
 40
2.0
 40
2.0
 40
3.0
 40
3.0
 40
3.0
 40
4.0
 40
4.0
 40
4.0
 40
4.0
 10
97.55390758194835
 20
-152.8812798011894
 10
97.55390758194835
 20
-152.8812798011894
 10
96.57946232394543
 20
-152.8812798011894
 10
96.57946232394543
 20
-152.8812798011894
 10
96.57946232394543
 20
-152.8812798011894
 10
96.57946232394543
 20
-152.9915228567174
 10
96.57946232394543
 20
-152.9915228567174
 10
96.57946232394543
 20
-152.9915228567174
 10
97.55390758194835
 20
-152.9915228567174
 10
97.55390758194835
 20
-152.9915228567174
 10
97.55390758194835
 20
-152.9915228567174
 10
97.55390758194835
 20
-152.8812798011894
 10
97.55390758194835
 20
-152.8812798011894
 97
        0
 97
        1
330
C9
 92
        1
 93
        1
 72
     4
 94
        3
 73
     0
 74
     0
 95
       17
 96
       13
 40
0.0
 40
0.0
 40
0.0
 40
0.0
 40
1.0
 40
1.0
 40
1.0
 40
2.0
 40
2.0
 40
2.0
 40
3.0
 40
3.0
 40
3.0
 40
4.0
 40
4.0
 40
4.0
 40
4.0
 10
97.55390758194835
 20
-152.6359890026396
 10
97.55390758194835
 20
-152.6359890026396
 10
96.57946232394543
 20
-152.6359890026396
 10
96.57946232394543
 20
-152.6359890026396
 10
96.57946232394543
 20
-152.6359890026396
 10
96.57946232394543
 20
-152.7482991154587
 10
96.57946232394543
 20
-152.7482991154587
 10
96.57946232394543
 20
-152.7482991154587
 10
97.55390758194835
 20
-152.7482991154587
 10
97.55390758194835
 20
-152.7482991154587
 10
97.55390758194835
 20
-152.7482991154587
 10
97.55390758194835
 20
-152.6359890026396
 10
97.55390758194835
 20
-152.6359890026396
 97
        0
 97
        1
330
CA
 92
        1
 93
        1
 72
     4
 94
        3
 73
     0
 74
     0
 95
       74
 96
       70
 40
0.0
 40
0.0
 40
0.0
 40
0.0
 40
1.0
 40
1.0
 40
1.0
 40
2.0
 40
2.0
 40
2.0
 40
3.0
 40
3.0
 40
3.0
 40
4.0
 40
4.0
 40
4.0
 40
5.0
 40
5.0
 40
5.0
 40
6.0
 40
6.0
 40
6.0
 40
7.0
 40
7.0
 40
7.0
 40
8.0
 40
8.0
 40
8.0
 40
9.0
 40
9.0
 40
9.0
 40
10.0
 40
10.0
 40
10.0
 40
11.0
 40
11.0
 40
11.0
 40
12.0
 40
12.0
 40
12.0
 40
13.0
 40
13.0
 40
13.0
 40
14.0
 40
14.0
 40
14.0
 40
15.0
 40
15.0
 40
15.0
 40
16.0
 40
16.0
 40
16.0
 40
17.0
 40
17.0
 40
17.0
 40
18.0
 40
18.0
 40
18.0
 40
19.0
 40
19.0
 40
19.0
 40
20.0
 40
20.0
 40
20.0
 40
21.0
 40
21.0
 40
21.0
 40
22.0
 40
22.0
 40
22.0
 40
23.0
 40
23.0
 40
23.0
 40
23.0
 10
97.87946910530443
 20
-153.6705511768601
 10
97.65105927463238
 20
-153.6598713808558
 10
97.43625757112706
 20
-153.5730549746276
 10
97.24867212195519
 20
-153.4524766326438
 10
97.24867212195519
 20
-153.4524766326438
 10
97.35271400560975
 20
-153.366004735964
 10
97.35271400560975
 20
-153.366004735964
 10
97.35271400560975
 20
-153.366004735964
 10
96.76274140376072
 20
-153.366004735964
 10
96.76274140376072
 20
-153.366004735964
 10
96.76274140376072
 20
-153.366004735964
 10
96.84852428134343
 20
-153.4293944928927
 10
96.84852428134343
 20
-153.4293944928927
 10
96.85541447231393
 20
-153.4335286074749
 10
96.86643877786673
 20
-153.4442084034792
 10
96.86643877786673
 20
-153.4590223140658
 10
96.86643877786673
 20
-153.4993299312432
 10
96.78754609125451
 20
-153.4927842498212
 10
96.77169865202236
 20
-153.4907171925301
 10
96.525374324827
 20
-153.6302435596827
 10
96.37137855663633
 20
-153.661938438147
 10
96.2607909915598
 20
-153.6788194060247
 10
96.2607909915598
 20
-153.6788194060247
 10
96.1226426626013
 20
-153.5013969885343
 10
96.1226426626013
 20
-153.5013969885343
 10
96.38722599586849
 20
-153.46970211007
 10
96.49574650365385
 20
-153.4228488114707
 10
96.59083113904674
 20
-153.3701388505464
 10
96.51159394288599
 20
-153.3722059078375
 10
96.38963756270815
 20
-153.3742729651286
 10
96.35553111740419
 20
-153.3763400224198
 10
96.37137855663633
 20
-153.2874565589003
 10
96.37379012347601
 20
-153.158609987752
 10
96.37379012347601
 20
-153.0845404348191
 10
96.37379012347601
 20
-153.0845404348191
 10
96.37379012347601
 20
-152.7841281085053
 10
96.37379012347601
 20
-152.7841281085053
 10
96.37379012347601
 20
-152.6845648489816
 10
96.3668999325055
 20
-152.5853460990064
 10
96.35553111740419
 20
-152.4878498967738
 10
96.46405162518954
 20
-152.4943955781958
 10
96.71072046193344
 20
-152.5005967500693
 10
96.82578665114078
 20
-152.5005967500693
 10
96.82578665114078
 20
-152.5005967500693
 10
97.27812768835409
 20
-152.5005967500693
 10
97.27812768835409
 20
-152.5005967500693
 10
97.40473494743703
 20
-152.5005967500693
 10
97.44986569829379
 20
-152.5005967500693
 10
97.53806014271619
 20
-152.496462635487
 10
97.69636228026342
 20
-152.489916954065
 10
97.71444903156098
 20
-152.489916954065
 10
97.76423066132284
 20
-152.4878498967738
 10
97.75510115828693
 20
-152.5684651311287
 10
97.7506225341561
 20
-152.7269395234502
 10
97.7506225341561
 20
-152.8096218150962
 10
97.7506225341561
 20
-152.8096218150962
 10
97.7506225341561
 20
-153.0952202308234
 10
97.7506225341561
 20
-153.0952202308234
 10
97.7506225341561
 20
-153.1668782169166
 10
97.75286184622151
 20
-153.2981363549046
 10
97.76423066132284
 20
-153.3763400224198
 10
97.68723277722751
 20
-153.3722059078375
 10
97.55614689401376
 20
-153.3701388505464
 10
97.47243107372218
 20
-153.3680717932552
 10
97.59008108454345
 20
-153.4355956647661
 10
97.75286184622151
 20
-153.4865830779478
 10
97.9788601100539
 20
-153.4907171925301
 10
97.9788601100539
 20
-153.4907171925301
 10
97.87946910530443
 20
-153.6705511768601
 10
97.87946910530443
 20
-153.6705511768601
 97
        0
 97
        1
330
CB
 92
        1
 93
        1
 72
     4
 94
        3
 73
     0
 74
     0
 95
       71
 96
       67
 40
0.0
 40
0.0
 40
0.0
 40
0.0
 40
1.0
 40
1.0
 40
1.0
 40
2.0
 40
2.0
 40
2.0
 40
3.0
 40
3.0
 40
3.0
 40
4.0
 40
4.0
 40
4.0
 40
5.0
 40
5.0
 40
5.0
 40
6.0
 40
6.0
 40
6.0
 40
7.0
 40
7.0
 40
7.0
 40
8.0
 40
8.0
 40
8.0
 40
9.0
 40
9.0
 40
9.0
 40
10.0
 40
10.0
 40
10.0
 40
11.0
 40
11.0
 40
11.0
 40
12.0
 40
12.0
 40
12.0
 40
13.0
 40
13.0
 40
13.0
 40
14.0
 40
14.0
 40
14.0
 40
15.0
 40
15.0
 40
15.0
 40
16.0
 40
16.0
 40
16.0
 40
17.0
 40
17.0
 40
17.0
 40
18.0
 40
18.0
 40
18.0
 40
19.0
 40
19.0
 40
19.0
 40
20.0
 40
20.0
 40
20.0
 40
21.0
 40
21.0
 40
21.0
 40
22.0
 40
22.0
 40
22.0
 40
22.0
 10
96.98408878868802
 20
-151.903906212024
 10
96.96841360423013
 20
-151.903906212024
 10
96.95480547706338
 20
-151.8997720974417
 10
96.92758922272991
 20
-151.8915038682771
 10
96.77617727615318
 20
-151.938012657328
 10
96.59083113904674
 20
-151.9548936252057
 10
96.44165850453543
 20
-151.959027739788
 10
96.44165850453543
 20
-151.959027739788
 10
96.43924693769575
 20
-152.0479112033074
 10
96.43924693769575
 20
-152.0479112033074
 10
96.43924693769575
 20
-152.0479112033074
 10
96.71726614335542
 20
-152.0479112033074
 10
96.71726614335542
 20
-152.0479112033074
 10
96.7737657093135
 20
-152.0479112033074
 10
96.96841360423013
 20
-152.0392984645943
 10
97.01578366715231
 20
-152.0330972927209
 10
97.01578366715231
 20
-152.0330972927209
 10
97.01578366715231
 20
-152.193983251882
 10
97.01578366715231
 20
-152.193983251882
 10
96.9570447891288
 20
-152.1874375704601
 10
96.82371959384964
 20
-152.1853705131689
 10
96.78306746712369
 20
-152.1874375704601
 10
96.78306746712369
 20
-152.1874375704601
 10
96.78306746712369
 20
-152.297680625988
 10
96.78306746712369
 20
-152.297680625988
 10
96.78306746712369
 20
-152.3441894150389
 10
96.78513452441483
 20
-152.4075791719675
 10
96.79202471538534
 20
-152.4454752223053
 10
96.79202471538534
 20
-152.4454752223053
 10
96.58635251491592
 20
-152.4454752223053
 10
96.58635251491592
 20
-152.4454752223053
 10
96.59289819633789
 20
-152.4055121146764
 10
96.5997883873084
 20
-152.3228298230304
 10
96.5997883873084
 20
-152.3080159124438
 10
96.5997883873084
 20
-152.3080159124438
 10
96.5997883873084
 20
-152.1874375704601
 10
96.5997883873084
 20
-152.1874375704601
 10
96.5997883873084
 20
-152.1874375704601
 10
96.42339949846359
 20
-152.1874375704601
 10
96.42339949846359
 20
-152.1874375704601
 10
96.37826874760683
 20
-152.4075791719675
 10
96.31935761480905
 20
-152.4878498967738
 10
96.20635848289285
 20
-152.5874131562976
 10
96.20635848289285
 20
-152.5874131562976
 10
96.02790253675692
 20
-152.4730359861873
 10
96.02790253675692
 20
-152.4730359861873
 10
96.09577091781634
 20
-152.4244601398453
 10
96.25631236742897
 20
-152.3124945365746
 10
96.25631236742897
 20
-151.9631618543703
 10
96.25631236742897
 20
-151.8808240722728
 10
96.24701060961882
 20
-151.834315283222
 10
96.23805336135717
 20
-151.7857394368799
 10
96.39411618683897
 20
-151.8005533474665
 10
96.40996362607111
 20
-151.8005533474665
 10
96.4482041859574
 20
-151.8005533474665
 10
96.56361488471326
 20
-151.8005533474665
 10
96.71519908606427
 20
-151.7833278700403
 10
96.88710935077823
 20
-151.7220051704028
 10
96.88710935077823
 20
-151.7220051704028
 10
97.00906573095608
 20
-151.8532633083908
 10
97.00906573095608
 20
-151.8532633083908
 10
97.01578366715231
 20
-151.8598089898128
 10
97.02026229128314
 20
-151.8680772189774
 10
97.02026229128314
 20
-151.8766899576905
 10
97.02026229128314
 20
-151.8997720974417
 10
96.99993622792016
 20
-151.903906212024
 10
96.98408878868802
 20
-151.903906212024
 97
        0
 97
        1
330
CC
 75
     2
 76
     1
 98
        1
 10
0.0
 20
0.0
450
        0
451
        0
460
0.0
461
0.0
452
        0
462
0.0
453
        0
470

  0
ENDBLK
  5
BF
330
BC
100
AcDbEntity
  8
0
100
AcDbBlockEnd
  0
BLOCK
  5
D8
330
D6
100
AcDbEntity
  8
0
100
AcDbBlockBegin
  2
Block_9
 70
     0
 10
0.0
 20
0.0
 30
0.0
  3
Block_9
  1

  0
INSERT
  5
DB
330
D6
100
AcDbEntity
  8
レイヤー 1
100
AcDbBlockReference
  2
Block_10
 10
0.0
 20
0.0
 30
0.0
  0
ENDBLK
  5
D9
330
D6
100
AcDbEntity
  8
0
100
AcDbBlockEnd
  0
BLOCK
  5
DC
330
DA
100
AcDbEntity
  8
0
100
AcDbBlockBegin
  2
Block_10
 70
     0
 10
0.0
 20
0.0
 30
0.0
  3
Block_10
  1

  0
SPLINE
  5
DE
330
DA
100
AcDbEntity
  8
レイヤー 1
100
AcDbSpline
210
0.0
220
0.0
230
1.0
 70
     9
 71
     3
 72
    17
 73
    13
 74
     0
 42
0.0000000001
 43
0.0000000001
 40
0.0
 40
0.0
 40
0.0
 40
0.0
 40
1.0
 40
1.0
 40
1.0
 40
2.0
 40
2.0
 40
2.0
 40
3.0
 40
3.0
 40
3.0
 40
4.0
 40
4.0
 40
4.0
 40
4.0
 10
115.5729627532248
 20
-135.5448703003152
 30
0.0
 10
115.5581488426382
 20
-135.574325866714
 30
0.0
 10
115.5137071108785
 20
-135.6675156995901
 30
0.0
 10
115.5044053530683
 20
-135.6864637247589
 30
0.0
 10
115.6711479745544
 20
-135.7457193671052
 30
0.0
 10
115.6897514901748
 20
-135.7520927937529
 30
0.0
 10
115.7527967375548
 20
-135.7796535576349
 30
0.0
 10
115.8006835647998
 20
-135.6928371514066
 30
0.0
 10
115.8213541377113
 20
-135.6187675984738
 30
0.0
 10
115.8341009910067
 20
-135.5448703003152
 30
0.0
 10
115.8341009910067
 20
-135.5448703003152
 30
0.0
 10
115.5729627532248
 20
-135.5448703003152
 30
0.0
 10
115.5729627532248
 20
-135.5448703003152
 30
0.0
  0
SPLINE
  5
DF
330
DA
100
AcDbEntity
  8
レイヤー 1
100
AcDbSpline
210
0.0
220
0.0
230
1.0
 70
    11
 71
     3
 72
    20
 73
    16
 74
     0
 42
0.0000000001
 43
0.0000000001
 40
0.0
 40
0.0
 40
0.0
 40
0.0
 40
1.0
 40
1.0
 40
1.0
 40
2.0
 40
2.0
 40
2.0
 40
3.0
 40
3.0
 40
3.0
 40
4.0
 40
4.0
 40
4.0
 40
5.0
 40
5.0
 40
5.0
 40
5.0
 10
115.5174967159123
 20
-134.6944484797812
 30
0.0
 10
115.5174967159123
 20
-134.6944484797812
 30
0.0
 10
115.4899359520303
 20
-134.6944484797812
 30
0.0
 10
115.4899359520303
 20
-134.6944484797812
 30
0.0
 10
115.5305880787562
 20
-134.7938394845307
 30
0.0
 10
115.5581488426382
 20
-134.874110209337
 30
0.0
 10
115.5877766638114
 20
-135.0010619779685
 30
0.0
 10
115.5877766638114
 20
-135.0010619779685
 30
0.0
 10
115.769333195884
 20
-135.0010619779685
 30
0.0
 10
115.769333195884
 20
-135.0010619779685
 30
0.0
 10
115.7972384693146
 20
-134.9080443998667
 30
0.0
 10
115.8175645326775
 20
-134.8234673057038
 30
0.0
 10
115.8378905960405
 20
-134.6944484797812
 30
0.0
 10
115.8378905960405
 20
-134.6944484797812
 30
0.0
 10
115.5174967159123
 20
-134.6944484797812
 30
0.0
 10
115.5174967159123
 20
-134.6944484797812
 30
0.0
  0
SPLINE
  5
E0
330
DA
100
AcDbEntity
  8
レイヤー 1
100
AcDbSpline
210
0.0
220
0.0
230
1.0
 70
     9
 71
     3
 72
   242
 73
   238
 74
     0
 42
0.0000000001
 43
0.0000000001
 40
0.0
 40
0.0
 40
0.0
 40
0.0
 40
1.0
 40
1.0
 40
1.0
 40
2.0
 40
2.0
 40
2.0
 40
3.0
 40
3.0
 40
3.0
 40
4.0
 40
4.0
 40
4.0
 40
5.0
 40
5.0
 40
5.0
 40
6.0
 40
6.0
 40
6.0
 40
7.0
 40
7.0
 40
7.0
 40
8.0
 40
8.0
 40
8.0
 40
9.0
 40
9.0
 40
9.0
 40
10.0
 40
10.0
 40
10.0
 40
11.0
 40
11.0
 40
11.0
 40
12.0
 40
12.0
 40
12.0
 40
13.0
 40
13.0
 40
13.0
 40
14.0
 40
14.0
 40
14.0
 40
15.0
 40
15.0
 40
15.0
 40
16.0
 40
16.0
 40
16.0
 40
17.0
 40
17.0
 40
17.0
 40
18.0
 40
18.0
 40
18.0
 40
19.0
 40
19.0
 40
19.0
 40
20.0
 40
20.0
 40
20.0
 40
21.0
 40
21.0
 40
21.0
 40
22.0
 40
22.0
 40
22.0
 40
23.0
 40
23.0
 40
23.0
 40
24.0
 40
24.0
 40
24.0
 40
25.0
 40
25.0
 40
25.0
 40
26.0
 40
26.0
 40
26.0
 40
27.0
 40
27.0
 40
27.0
 40
28.0
 40
28.0
 40
28.0
 40
29.0
 40
29.0
 40
29.0
 40
30.0
 40
30.0
 40
30.0
 40
31.0
 40
31.0
 40
31.0
 40
32.0
 40
32.0
 40
32.0
 40
33.0
 40
33.0
 40
33.0
 40
34.0
 40
34.0
 40
34.0
 40
35.0
 40
35.0
 40
35.0
 40
36.0
 40
36.0
 40
36.0
 40
37.0
 40
37.0
 40
37.0
 40
38.0
 40
38.0
 40
38.0
 40
39.0
 40
39.0
 40
39.0
 40
40.0
 40
40.0
 40
40.0
 40
41.0
 40
41.0
 40
41.0
 40
42.0
 40
42.0
 40
42.0
 40
43.0
 40
43.0
 40
43.0
 40
44.0
 40
44.0
 40
44.0
 40
45.0
 40
45.0
 40
45.0
 40
46.0
 40
46.0
 40
46.0
 40
47.0
 40
47.0
 40
47.0
 40
48.0
 40
48.0
 40
48.0
 40
49.0
 40
49.0
 40
49.0
 40
50.0
 40
50.0
 40
50.0
 40
51.0
 40
51.0
 40
51.0
 40
52.0
 40
52.0
 40
52.0
 40
53.0
 40
53.0
 40
53.0
 40
54.0
 40
54.0
 40
54.0
 40
55.0
 40
55.0
 40
55.0
 40
56.0
 40
56.0
 40
56.0
 40
57.0
 40
57.0
 40
57.0
 40
58.0
 40
58.0
 40
58.0
 40
59.0
 40
59.0
 40
59.0
 40
60.0
 40
60.0
 40
60.0
 40
61.0
 40
61.0
 40
61.0
 40
62.0
 40
62.0
 40
62.0
 40
63.0
 40
63.0
 40
63.0
 40
64.0
 40
64.0
 40
64.0
 40
65.0
 40
65.0
 40
65.0
 40
66.0
 40
66.0
 40
66.0
 40
67.0
 40
67.0
 40
67.0
 40
68.0
 40
68.0
 40
68.0
 40
69.0
 40
69.0
 40
69.0
 40
70.0
 40
70.0
 40
70.0
 40
71.0
 40
71.0
 40
71.0
 40
72.0
 40
72.0
 40
72.0
 40
73.0
 40
73.0
 40
73.0
 40
74.0
 40
74.0
 40
74.0
 40
75.0
 40
75.0
 40
75.0
 40
76.0
 40
76.0
 40
76.0
 40
77.0
 40
77.0
 40
77.0
 40
78.0
 40
78.0
 40
78.0
 40
79.0
 40
79.0
 40
79.0
 40
79.0
 10
116.0673339553581
 20
-135.1597086250642
 30
0.0
 10
116.0673339553581
 20
-135.1597086250642
 30
0.0
 10
115.8454698061081
 20
-135.1597086250642
 30
0.0
 10
115.8454698061081
 20
-135.1597086250642
 30
0.0
 10
115.8454698061081
 20
-135.1597086250642
 30
0.0
 10
115.6025905743979
 20
-135.1597086250642
 30
0.0
 10
115.6025905743979
 20
-135.1597086250642
 30
0.0
 10
115.6025905743979
 20
-135.1597086250642
 30
0.0
 10
115.7138671585715
 20
-135.2020832995328
 30
0.0
 10
115.7138671585715
 20
-135.2020832995328
 30
0.0
 10
115.7231689163817
 20
-135.2063896688894
 30
0.0
 10
115.7341932219345
 20
-135.2125908407628
 30
0.0
 10
115.7341932219345
 20
-135.2253376940582
 30
0.0
 10
115.7341932219345
 20
-135.2465250312925
 30
0.0
 10
115.706287948504
 20
-135.2528984579402
 30
0.0
 10
115.6880289424321
 20
-135.2570325725225
 30
0.0
 10
115.678727184622
 20
-135.280286967048
 30
0.0
 10
115.6525444589341
 20
-135.345916036042
 30
0.0
 10
115.6360080006049
 20
-135.3903577678017
 30
0.0
 10
115.6360080006049
 20
-135.3903577678017
 30
0.0
 10
115.87303056999
 20
-135.3903577678017
 30
0.0
 10
115.87303056999
 20
-135.3903577678017
 30
0.0
 10
115.9526122756993
 20
-135.3903577678017
 30
0.0
 10
116.1248670499618
 20
-135.3860513984451
 30
0.0
 10
116.2488904874308
 20
-135.3776109145063
 30
0.0
 10
116.2488904874308
 20
-135.3776109145063
 30
0.0
 10
116.2488904874308
 20
-135.5553778415452
 30
0.0
 10
116.2488904874308
 20
-135.5553778415452
 30
0.0
 10
116.1768879917891
 20
-135.5510714721886
 30
0.0
 10
116.1582844761688
 20
-135.5510714721886
 30
0.0
 10
116.0008436124928
 20
-135.5469373576063
 30
0.0
 10
115.9729383390623
 20
-135.7012776353455
 30
0.0
 10
115.9343532696275
 20
-135.7817206149261
 30
0.0
 10
115.8954236906442
 20
-135.8514837985024
 30
0.0
 10
116.0008436124928
 20
-135.9107394408487
 30
0.0
 10
116.093516681046
 20
-135.9784355671338
 30
0.0
 10
116.1841226923081
 20
-136.0609456040056
 30
0.0
 10
116.1841226923081
 20
-136.0609456040056
 30
0.0
 10
116.0804253182021
 20
-136.2280327350402
 30
0.0
 10
116.0804253182021
 20
-136.2280327350402
 30
0.0
 10
116.0600992548391
 20
-136.2090847098713
 30
0.0
 10
116.0490749492863
 20
-136.2006442259324
 30
0.0
 10
115.9508897279567
 20
-136.1158948769953
 30
0.0
 10
115.9081705439396
 20
-136.0778265718833
 30
0.0
 10
115.8564941116609
 20
-136.0419975788367
 30
0.0
 10
115.7862141637618
 20
-135.997555847077
 30
0.0
 10
115.6008680266553
 20
-136.1837632580547
 30
0.0
 10
115.4213785518738
 20
-136.2070176525802
 30
0.0
 10
115.1674750146109
 20
-136.2366454737533
 30
0.0
 10
115.1674750146109
 20
-136.2366454737533
 30
0.0
 10
115.0768690033488
 20
-136.0568114894233
 30
0.0
 10
115.0768690033488
 20
-136.0568114894233
 30
0.0
 10
115.35454369946
 20
-136.0525051200667
 30
0.0
 10
115.5081949581021
 20
-136.0271836682501
 30
0.0
 10
115.6415201533813
 20
-135.9171128674964
 30
0.0
 10
115.5378227792752
 20
-135.866297709089
 30
0.0
 10
115.4603081308571
 20
-135.8389091999812
 30
0.0
 10
115.4286132523928
 20
-135.8261623466858
 30
0.0
 10
115.4120767940636
 20
-135.8537231105678
 30
0.0
 10
115.3989854312197
 20
-135.8726711357367
 30
0.0
 10
115.3748697628229
 20
-135.9066053262664
 30
0.0
 10
115.3748697628229
 20
-135.9066053262664
 30
0.0
 10
115.2026149885605
 20
-135.8240952893946
 30
0.0
 10
115.2026149885605
 20
-135.8240952893946
 30
0.0
 10
115.2749619937507
 20
-135.7436523098141
 30
0.0
 10
115.3287054833206
 20
-135.6483954196469
 30
0.0
 10
115.3786593678567
 20
-135.5469373576063
 30
0.0
 10
115.2119167463706
 20
-135.5510714721886
 30
0.0
 10
115.1936577402988
 20
-135.5510714721886
 30
0.0
 10
115.1213107351085
 20
-135.5553778415452
 30
0.0
 10
115.1213107351085
 20
-135.5553778415452
 30
0.0
 10
115.1213107351085
 20
-135.3776109145063
 30
0.0
 10
115.1213107351085
 20
-135.3776109145063
 30
0.0
 10
115.2436116248349
 20
-135.383984341154
 30
0.0
 10
115.4268907046502
 20
-135.3882907105105
 30
0.0
 10
115.4489393157558
 20
-135.3882907105105
 30
0.0
 10
115.4637532263424
 20
-135.3543565199808
 30
0.0
 10
115.5119845631359
 20
-135.2337781779971
 30
0.0
 10
115.5285210214651
 20
-135.1597086250642
 30
0.0
 10
115.5119845631359
 20
-135.1597086250642
 30
0.0
 10
115.3562662472026
 20
-135.1660820517119
 30
0.0
 10
115.1860785302312
 20
-135.1788289050074
 30
0.0
 10
115.1860785302312
 20
-135.1788289050074
 30
0.0
 10
115.1860785302312
 20
-135.3121541002865
 30
0.0
 10
115.1860785302312
 20
-135.3121541002865
 30
0.0
 10
115.1433593462142
 20
-135.3374755521031
 30
0.0
 10
115.0916829139354
 20
-135.3691704305674
 30
0.0
 10
114.9748941769854
 20
-135.4347994995614
 30
0.0
 10
114.9748941769854
 20
-135.4347994995614
 30
0.0
 10
114.9748941769854
 20
-135.5806992933618
 30
0.0
 10
114.9748941769854
 20
-135.5806992933618
 30
0.0
 10
114.9748941769854
 20
-135.5806992933618
 30
0.0
 10
114.9748941769854
 20
-136.0483710054844
 30
0.0
 10
114.9748941769854
 20
-136.0483710054844
 30
0.0
 10
114.9748941769854
 20
-136.1751505193416
 30
0.0
 10
114.9435438080697
 20
-136.2344061616879
 30
0.0
 10
114.6954969331317
 20
-136.225965677749
 30
0.0
 10
114.6954969331317
 20
-136.225965677749
 30
0.0
 10
114.6045464123211
 20
-136.0187431843113
 30
0.0
 10
114.6045464123211
 20
-136.0187431843113
 30
0.0
 10
114.6603569591821
 20
-136.0313177828324
 30
0.0
 10
114.7027316336507
 20
-136.035624152189
 30
0.0
 10
114.7378716076002
 20
-136.035624152189
 30
0.0
 10
114.8047064600141
 20
-136.035624152189
 30
0.0
 10
114.8140082178243
 20
-136.0123697576635
 30
0.0
 10
114.8140082178243
 20
-135.9467406886695
 30
0.0
 10
114.8140082178243
 20
-135.9467406886695
 30
0.0
 10
114.8140082178243
 20
-135.5173095364331
 30
0.0
 10
114.8140082178243
 20
-135.5173095364331
 30
0.0
 10
114.7285698497901
 20
-135.5574448988363
 30
0.0
 10
114.7137559392035
 20
-135.563818325484
 30
0.0
 10
114.6731038124775
 20
-135.5829386054272
 30
0.0
 10
114.6693142074438
 20
-135.6039536878872
 30
0.0
 10
114.6658691119585
 20
-135.6335815090603
 30
0.0
 10
114.6489881440808
 20
-135.6335815090603
 30
0.0
 10
114.6417534435618
 20
-135.6335815090603
 30
0.0
 10
114.6324516857516
 20
-135.629447394478
 30
0.0
 10
114.6269395329752
 20
-135.6061929999526
 30
0.0
 10
114.6269395329752
 20
-135.6061929999526
 30
0.0
 10
114.5804307439243
 20
-135.4136121623271
 30
0.0
 10
114.5804307439243
 20
-135.4136121623271
 30
0.0
 10
114.7082437864271
 20
-135.3671033732763
 30
0.0
 10
114.7657768810308
 20
-135.3438489787508
 30
0.0
 10
114.8140082178243
 20
-135.3226616415165
 30
0.0
 10
114.8140082178243
 20
-135.3226616415165
 30
0.0
 10
114.8140082178243
 20
-134.9101114571578
 30
0.0
 10
114.8140082178243
 20
-134.9101114571578
 30
0.0
 10
114.8140082178243
 20
-134.9101114571578
 30
0.0
 10
114.7674994287734
 20
-134.9101114571578
 30
0.0
 10
114.7674994287734
 20
-134.9101114571578
 30
0.0
 10
114.7674994287734
 20
-134.9101114571578
 30
0.0
 10
114.6989420286169
 20
-134.9101114571578
 30
0.0
 10
114.6989420286169
 20
-134.9101114571578
 30
0.0
 10
114.6396863862706
 20
-134.9101114571578
 30
0.0
 10
114.6324516857516
 20
-134.9101114571578
 30
0.0
 10
114.6011013168358
 20
-134.9164848838056
 30
0.0
 10
114.6011013168358
 20
-134.9164848838056
 30
0.0
 10
114.6011013168358
 20
-134.7218369888889
 30
0.0
 10
114.6011013168358
 20
-134.7218369888889
 30
0.0
 10
114.624872475684
 20
-134.7282104155367
 30
0.0
 10
114.6324516857516
 20
-134.7282104155367
 30
0.0
 10
114.6934298758405
 20
-134.7282104155367
 30
0.0
 10
114.6934298758405
 20
-134.7282104155367
 30
0.0
 10
114.8102186127905
 20
-134.7282104155367
 30
0.0
 10
114.8102186127905
 20
-134.7282104155367
 30
0.0
 10
114.8102186127905
 20
-134.6584472319604
 30
0.0
 10
114.8102186127905
 20
-134.5759371950886
 30
0.0
 10
114.8084960650479
 20
-134.5716308257321
 30
0.0
 10
114.8009168549803
 20
-134.391796841402
 30
0.0
 10
114.8009168549803
 20
-134.3728488162332
 30
0.0
 10
114.7991943072377
 20
-134.3263400271823
 30
0.0
 10
114.7991943072377
 20
-134.3263400271823
 30
0.0
 10
114.9879855398294
 20
-134.3347805111211
 30
0.0
 10
114.9879855398294
 20
-134.3347805111211
 30
0.0
 10
114.9972872976396
 20
-134.3347805111211
 30
0.0
 10
115.0158908132599
 20
-134.3368475684123
 30
0.0
 10
115.0158908132599
 20
-134.35372853629
 30
0.0
 10
115.0158908132599
 20
-134.3728488162332
 30
0.0
 10
115.002799450416
 20
-134.3833563574632
 30
0.0
 10
114.9804063297618
 20
-134.4024766374063
 30
0.0
 10
114.9804063297618
 20
-134.4531195410395
 30
0.0
 10
114.9748941769854
 20
-134.6817016264858
 30
0.0
 10
114.9769612342766
 20
-134.7282104155367
 30
0.0
 10
115.0896158566443
 20
-134.7282104155367
 30
0.0
 10
115.1009846717456
 20
-134.7282104155367
 30
0.0
 10
115.1860785302312
 20
-134.7197699315978
 30
0.0
 10
115.1860785302312
 20
-134.7197699315978
 30
0.0
 10
115.1860785302312
 20
-134.9144178265144
 30
0.0
 10
115.1860785302312
 20
-134.9144178265144
 30
0.0
 10
115.1526611040243
 20
-134.912178514449
 30
0.0
 10
115.093405461678
 20
-134.9080443998667
 30
0.0
 10
114.9748941769854
 20
-134.9101114571578
 30
0.0
 10
114.9748941769854
 20
-134.9101114571578
 30
0.0
 10
114.9748941769854
 20
-135.2485920885837
 30
0.0
 10
114.9748941769854
 20
-135.2485920885837
 30
0.0
 10
115.0231255137789
 20
-135.2253376940582
 30
0.0
 10
115.0806586083826
 20
-135.1977769301762
 30
0.0
 10
115.1230332828512
 20
-135.1745225356508
 30
0.0
 10
115.1230332828512
 20
-135.1745225356508
 30
0.0
 10
115.1230332828512
 20
-134.9969278633862
 30
0.0
 10
115.1230332828512
 20
-134.9969278633862
 30
0.0
 10
115.2232855614719
 20
-135.0095024619073
 30
0.0
 10
115.3266384260294
 20
-135.0095024619073
 30
0.0
 10
115.4286132523928
 20
-135.0095024619073
 30
0.0
 10
115.4082871890299
 20
-134.9144178265144
 30
0.0
 10
115.3841715206331
 20
-134.8319077896427
 30
0.0
 10
115.3287054833206
 20
-134.6985825943635
 30
0.0
 10
115.2897759043373
 20
-134.7006496516547
 30
0.0
 10
115.217428899147
 20
-134.7049560210112
 30
0.0
 10
115.1843559824886
 20
-134.7070230783024
 30
0.0
 10
115.1843559824886
 20
-134.7070230783024
 30
0.0
 10
115.1843559824886
 20
-134.5271890939723
 30
0.0
 10
115.1843559824886
 20
-134.5271890939723
 30
0.0
 10
115.293565509371
 20
-134.5356295779112
 30
0.0
 10
115.445149710722
 20
-134.5399359472678
 30
0.0
 10
115.5174967159123
 20
-134.5399359472678
 30
0.0
 10
115.5174967159123
 20
-134.5399359472678
 30
0.0
 10
115.5898437211025
 20
-134.5399359472678
 30
0.0
 10
115.5898437211025
 20
-134.5399359472678
 30
0.0
 10
115.5898437211025
 20
-134.3769829308155
 30
0.0
 10
115.5898437211025
 20
-134.3664753895855
 30
0.0
 10
115.5877766638114
 20
-134.3115261165957
 30
0.0
 10
115.5877766638114
 20
-134.3115261165957
 30
0.0
 10
115.7841471064706
 20
-134.3368475684123
 30
0.0
 10
115.7841471064706
 20
-134.3368475684123
 30
0.0
 10
115.7879367115044
 20
-134.3368475684123
 30
0.0
 10
115.8065402271247
 20
-134.3389146257034
 30
0.0
 10
115.8065402271247
 20
-134.3557955935812
 30
0.0
 10
115.8065402271247
 20
-134.3706095041677
 30
0.0
 10
115.7972384693146
 20
-134.3792222428809
 30
0.0
 10
115.7731228009178
 20
-134.3940361534674
 30
0.0
 10
115.7676106481414
 20
-134.4594929676872
 30
0.0
 10
115.7655435908503
 20
-134.4806803049215
 30
0.0
 10
115.7655435908503
 20
-134.5399359472678
 30
0.0
 10
115.7655435908503
 20
-134.5399359472678
 30
0.0
 10
115.8489149015933
 20
-134.5399359472678
 30
0.0
 10
115.8489149015933
 20
-134.5399359472678
 30
0.0
 10
115.9212619067836
 20
-134.5399359472678
 30
0.0
 10
116.0731906176831
 20
-134.5356295779112
 30
0.0
 10
116.1824001445655
 20
-134.5271890939723
 30
0.0
 10
116.1824001445655
 20
-134.5271890939723
 30
0.0
 10
116.1824001445655
 20
-134.7070230783024
 30
0.0
 10
116.1824001445655
 20
-134.7070230783024
 30
0.0
 10
116.1562174188776
 20
-134.7049560210112
 30
0.0
 10
116.0528645543201
 20
-134.7006496516547
 30
0.0
 10
116.017380070822
 20
-134.6985825943635
 30
0.0
 10
116.0046332175266
 20
-134.749397752771
 30
0.0
 10
115.9750053963535
 20
-134.8615356108159
 30
0.0
 10
115.9174723017498
 20
-135.0010619779685
 30
0.0
 10
115.9546793329905
 20
-135.0010619779685
 30
0.0
 10
116.1972140551521
 20
-134.9821139527996
 30
0.0
 10
116.250957544722
 20
-134.9798746407342
 30
0.0
 10
116.250957544722
 20
-134.9798746407342
 30
0.0
 10
116.250957544722
 20
-135.1640149944208
 30
0.0
 10
116.250957544722
 20
-135.1640149944208
 30
0.0
 10
116.2247748190341
 20
-135.1640149944208
 30
0.0
 10
116.2099609084475
 20
-135.1597086250642
 30
0.0
 10
116.0673339553581
 20
-135.1597086250642
 30
0.0
  0
HATCH
  5
E1
330
DA
100
AcDbEntity
  8
レイヤー 1
 62
   250
420
  2299925
440
 33554687
100
AcDbHatch
 10
0.0
 20
0.0
 30
0.0
210
0.0
220
0.0
230
1.0
  2
SOLID
 70
     1
 71
     1
 91
        3
 92
        1
 93
        1
 72
     4
 94
        3
 73
     0
 74
     0
 95
       17
 96
       13
 40
0.0
 40
0.0
 40
0.0
 40
0.0
 40
1.0
 40
1.0
 40
1.0
 40
2.0
 40
2.0
 40
2.0
 40
3.0
 40
3.0
 40
3.0
 40
4.0
 40
4.0
 40
4.0
 40
4.0
 10
115.5729627532248
 20
-135.5448703003152
 10
115.5581488426382
 20
-135.574325866714
 10
115.5137071108785
 20
-135.6675156995901
 10
115.5044053530683
 20
-135.6864637247589
 10
115.6711479745544
 20
-135.7457193671052
 10
115.6897514901748
 20
-135.7520927937529
 10
115.7527967375548
 20
-135.7796535576349
 10
115.8006835647998
 20
-135.6928371514066
 10
115.8213541377113
 20
-135.6187675984738
 10
115.8341009910067
 20
-135.5448703003152
 10
115.8341009910067
 20
-135.5448703003152
 10
115.5729627532248
 20
-135.5448703003152
 10
115.5729627532248
 20
-135.5448703003152
 97
        0
 97
        1
330
DE
 92
        1
 93
        1
 72
     4
 94
        3
 73
     0
 74
     0
 95
       20
 96
       16
 40
0.0
 40
0.0
 40
0.0
 40
0.0
 40
1.0
 40
1.0
 40
1.0
 40
2.0
 40
2.0
 40
2.0
 40
3.0
 40
3.0
 40
3.0
 40
4.0
 40
4.0
 40
4.0
 40
5.0
 40
5.0
 40
5.0
 40
5.0
 10
115.5174967159123
 20
-134.6944484797812
 10
115.5174967159123
 20
-134.6944484797812
 10
115.4899359520303
 20
-134.6944484797812
 10
115.4899359520303
 20
-134.6944484797812
 10
115.5305880787562
 20
-134.7938394845307
 10
115.5581488426382
 20
-134.874110209337
 10
115.5877766638114
 20
-135.0010619779685
 10
115.5877766638114
 20
-135.0010619779685
 10
115.769333195884
 20
-135.0010619779685
 10
115.769333195884
 20
-135.0010619779685
 10
115.7972384693146
 20
-134.9080443998667
 10
115.8175645326775
 20
-134.8234673057038
 10
115.8378905960405
 20
-134.6944484797812
 10
115.8378905960405
 20
-134.6944484797812
 10
115.5174967159123
 20
-134.6944484797812
 10
115.5174967159123
 20
-134.6944484797812
 97
        0
 97
        1
330
DF
 92
        1
 93
        1
 72
     4
 94
        3
 73
     0
 74
     0
 95
      242
 96
      238
 40
0.0
 40
0.0
 40
0.0
 40
0.0
 40
1.0
 40
1.0
 40
1.0
 40
2.0
 40
2.0
 40
2.0
 40
3.0
 40
3.0
 40
3.0
 40
4.0
 40
4.0
 40
4.0
 40
5.0
 40
5.0
 40
5.0
 40
6.0
 40
6.0
 40
6.0
 40
7.0
 40
7.0
 40
7.0
 40
8.0
 40
8.0
 40
8.0
 40
9.0
 40
9.0
 40
9.0
 40
10.0
 40
10.0
 40
10.0
 40
11.0
 40
11.0
 40
11.0
 40
12.0
 40
12.0
 40
12.0
 40
13.0
 40
13.0
 40
13.0
 40
14.0
 40
14.0
 40
14.0
 40
15.0
 40
15.0
 40
15.0
 40
16.0
 40
16.0
 40
16.0
 40
17.0
 40
17.0
 40
17.0
 40
18.0
 40
18.0
 40
18.0
 40
19.0
 40
19.0
 40
19.0
 40
20.0
 40
20.0
 40
20.0
 40
21.0
 40
21.0
 40
21.0
 40
22.0
 40
22.0
 40
22.0
 40
23.0
 40
23.0
 40
23.0
 40
24.0
 40
24.0
 40
24.0
 40
25.0
 40
25.0
 40
25.0
 40
26.0
 40
26.0
 40
26.0
 40
27.0
 40
27.0
 40
27.0
 40
28.0
 40
28.0
 40
28.0
 40
29.0
 40
29.0
 40
29.0
 40
30.0
 40
30.0
 40
30.0
 40
31.0
 40
31.0
 40
31.0
 40
32.0
 40
32.0
 40
32.0
 40
33.0
 40
33.0
 40
33.0
 40
34.0
 40
34.0
 40
34.0
 40
35.0
 40
35.0
 40
35.0
 40
36.0
 40
36.0
 40
36.0
 40
37.0
 40
37.0
 40
37.0
 40
38.0
 40
38.0
 40
38.0
 40
39.0
 40
39.0
 40
39.0
 40
40.0
 40
40.0
 40
40.0
 40
41.0
 40
41.0
 40
41.0
 40
42.0
 40
42.0
 40
42.0
 40
43.0
 40
43.0
 40
43.0
 40
44.0
 40
44.0
 40
44.0
 40
45.0
 40
45.0
 40
45.0
 40
46.0
 40
46.0
 40
46.0
 40
47.0
 40
47.0
 40
47.0
 40
48.0
 40
48.0
 40
48.0
 40
49.0
 40
49.0
 40
49.0
 40
50.0
 40
50.0
 40
50.0
 40
51.0
 40
51.0
 40
51.0
 40
52.0
 40
52.0
 40
52.0
 40
53.0
 40
53.0
 40
53.0
 40
54.0
 40
54.0
 40
54.0
 40
55.0
 40
55.0
 40
55.0
 40
56.0
 40
56.0
 40
56.0
 40
57.0
 40
57.0
 40
57.0
 40
58.0
 40
58.0
 40
58.0
 40
59.0
 40
59.0
 40
59.0
 40
60.0
 40
60.0
 40
60.0
 40
61.0
 40
61.0
 40
61.0
 40
62.0
 40
62.0
 40
62.0
 40
63.0
 40
63.0
 40
63.0
 40
64.0
 40
64.0
 40
64.0
 40
65.0
 40
65.0
 40
65.0
 40
66.0
 40
66.0
 40
66.0
 40
67.0
 40
67.0
 40
67.0
 40
68.0
 40
68.0
 40
68.0
 40
69.0
 40
69.0
 40
69.0
 40
70.0
 40
70.0
 40
70.0
 40
71.0
 40
71.0
 40
71.0
 40
72.0
 40
72.0
 40
72.0
 40
73.0
 40
73.0
 40
73.0
 40
74.0
 40
74.0
 40
74.0
 40
75.0
 40
75.0
 40
75.0
 40
76.0
 40
76.0
 40
76.0
 40
77.0
 40
77.0
 40
77.0
 40
78.0
 40
78.0
 40
78.0
 40
79.0
 40
79.0
 40
79.0
 40
79.0
 10
116.0673339553581
 20
-135.1597086250642
 10
116.0673339553581
 20
-135.1597086250642
 10
115.8454698061081
 20
-135.1597086250642
 10
115.8454698061081
 20
-135.1597086250642
 10
115.8454698061081
 20
-135.1597086250642
 10
115.6025905743979
 20
-135.1597086250642
 10
115.6025905743979
 20
-135.1597086250642
 10
115.6025905743979
 20
-135.1597086250642
 10
115.7138671585715
 20
-135.2020832995328
 10
115.7138671585715
 20
-135.2020832995328
 10
115.7231689163817
 20
-135.2063896688894
 10
115.7341932219345
 20
-135.2125908407628
 10
115.7341932219345
 20
-135.2253376940582
 10
115.7341932219345
 20
-135.2465250312925
 10
115.706287948504
 20
-135.2528984579402
 10
115.6880289424321
 20
-135.2570325725225
 10
115.678727184622
 20
-135.280286967048
 10
115.6525444589341
 20
-135.345916036042
 10
115.6360080006049
 20
-135.3903577678017
 10
115.6360080006049
 20
-135.3903577678017
 10
115.87303056999
 20
-135.3903577678017
 10
115.87303056999
 20
-135.3903577678017
 10
115.9526122756993
 20
-135.3903577678017
 10
116.1248670499618
 20
-135.3860513984451
 10
116.2488904874308
 20
-135.3776109145063
 10
116.2488904874308
 20
-135.3776109145063
 10
116.2488904874308
 20
-135.5553778415452
 10
116.2488904874308
 20
-135.5553778415452
 10
116.1768879917891
 20
-135.5510714721886
 10
116.1582844761688
 20
-135.5510714721886
 10
116.0008436124928
 20
-135.5469373576063
 10
115.9729383390623
 20
-135.7012776353455
 10
115.9343532696275
 20
-135.7817206149261
 10
115.8954236906442
 20
-135.8514837985024
 10
116.0008436124928
 20
-135.9107394408487
 10
116.093516681046
 20
-135.9784355671338
 10
116.1841226923081
 20
-136.0609456040056
 10
116.1841226923081
 20
-136.0609456040056
 10
116.0804253182021
 20
-136.2280327350402
 10
116.0804253182021
 20
-136.2280327350402
 10
116.0600992548391
 20
-136.2090847098713
 10
116.0490749492863
 20
-136.2006442259324
 10
115.9508897279567
 20
-136.1158948769953
 10
115.9081705439396
 20
-136.0778265718833
 10
115.8564941116609
 20
-136.0419975788367
 10
115.7862141637618
 20
-135.997555847077
 10
115.6008680266553
 20
-136.1837632580547
 10
115.4213785518738
 20
-136.2070176525802
 10
115.1674750146109
 20
-136.2366454737533
 10
115.1674750146109
 20
-136.2366454737533
 10
115.0768690033488
 20
-136.0568114894233
 10
115.0768690033488
 20
-136.0568114894233
 10
115.35454369946
 20
-136.0525051200667
 10
115.5081949581021
 20
-136.0271836682501
 10
115.6415201533813
 20
-135.9171128674964
 10
115.5378227792752
 20
-135.866297709089
 10
115.4603081308571
 20
-135.8389091999812
 10
115.4286132523928
 20
-135.8261623466858
 10
115.4120767940636
 20
-135.8537231105678
 10
115.3989854312197
 20
-135.8726711357367
 10
115.3748697628229
 20
-135.9066053262664
 10
115.3748697628229
 20
-135.9066053262664
 10
115.2026149885605
 20
-135.8240952893946
 10
115.2026149885605
 20
-135.8240952893946
 10
115.2749619937507
 20
-135.7436523098141
 10
115.3287054833206
 20
-135.6483954196469
 10
115.3786593678567
 20
-135.5469373576063
 10
115.2119167463706
 20
-135.5510714721886
 10
115.1936577402988
 20
-135.5510714721886
 10
115.1213107351085
 20
-135.5553778415452
 10
115.1213107351085
 20
-135.5553778415452
 10
115.1213107351085
 20
-135.3776109145063
 10
115.1213107351085
 20
-135.3776109145063
 10
115.2436116248349
 20
-135.383984341154
 10
115.4268907046502
 20
-135.3882907105105
 10
115.4489393157558
 20
-135.3882907105105
 10
115.4637532263424
 20
-135.3543565199808
 10
115.5119845631359
 20
-135.2337781779971
 10
115.5285210214651
 20
-135.1597086250642
 10
115.5119845631359
 20
-135.1597086250642
 10
115.3562662472026
 20
-135.1660820517119
 10
115.1860785302312
 20
-135.1788289050074
 10
115.1860785302312
 20
-135.1788289050074
 10
115.1860785302312
 20
-135.3121541002865
 10
115.1860785302312
 20
-135.3121541002865
 10
115.1433593462142
 20
-135.3374755521031
 10
115.0916829139354
 20
-135.3691704305674
 10
114.9748941769854
 20
-135.4347994995614
 10
114.9748941769854
 20
-135.4347994995614
 10
114.9748941769854
 20
-135.5806992933618
 10
114.9748941769854
 20
-135.5806992933618
 10
114.9748941769854
 20
-135.5806992933618
 10
114.9748941769854
 20
-136.0483710054844
 10
114.9748941769854
 20
-136.0483710054844
 10
114.9748941769854
 20
-136.1751505193416
 10
114.9435438080697
 20
-136.2344061616879
 10
114.6954969331317
 20
-136.225965677749
 10
114.6954969331317
 20
-136.225965677749
 10
114.6045464123211
 20
-136.0187431843113
 10
114.6045464123211
 20
-136.0187431843113
 10
114.6603569591821
 20
-136.0313177828324
 10
114.7027316336507
 20
-136.035624152189
 10
114.7378716076002
 20
-136.035624152189
 10
114.8047064600141
 20
-136.035624152189
 10
114.8140082178243
 20
-136.0123697576635
 10
114.8140082178243
 20
-135.9467406886695
 10
114.8140082178243
 20
-135.9467406886695
 10
114.8140082178243
 20
-135.5173095364331
 10
114.8140082178243
 20
-135.5173095364331
 10
114.7285698497901
 20
-135.5574448988363
 10
114.7137559392035
 20
-135.563818325484
 10
114.6731038124775
 20
-135.5829386054272
 10
114.6693142074438
 20
-135.6039536878872
 10
114.6658691119585
 20
-135.6335815090603
 10
114.6489881440808
 20
-135.6335815090603
 10
114.6417534435618
 20
-135.6335815090603
 10
114.6324516857516
 20
-135.629447394478
 10
114.6269395329752
 20
-135.6061929999526
 10
114.6269395329752
 20
-135.6061929999526
 10
114.5804307439243
 20
-135.4136121623271
 10
114.5804307439243
 20
-135.4136121623271
 10
114.7082437864271
 20
-135.3671033732763
 10
114.7657768810308
 20
-135.3438489787508
 10
114.8140082178243
 20
-135.3226616415165
 10
114.8140082178243
 20
-135.3226616415165
 10
114.8140082178243
 20
-134.9101114571578
 10
114.8140082178243
 20
-134.9101114571578
 10
114.8140082178243
 20
-134.9101114571578
 10
114.7674994287734
 20
-134.9101114571578
 10
114.7674994287734
 20
-134.9101114571578
 10
114.7674994287734
 20
-134.9101114571578
 10
114.6989420286169
 20
-134.9101114571578
 10
114.6989420286169
 20
-134.9101114571578
 10
114.6396863862706
 20
-134.9101114571578
 10
114.6324516857516
 20
-134.9101114571578
 10
114.6011013168358
 20
-134.9164848838056
 10
114.6011013168358
 20
-134.9164848838056
 10
114.6011013168358
 20
-134.7218369888889
 10
114.6011013168358
 20
-134.7218369888889
 10
114.624872475684
 20
-134.7282104155367
 10
114.6324516857516
 20
-134.7282104155367
 10
114.6934298758405
 20
-134.7282104155367
 10
114.6934298758405
 20
-134.7282104155367
 10
114.8102186127905
 20
-134.7282104155367
 10
114.8102186127905
 20
-134.7282104155367
 10
114.8102186127905
 20
-134.6584472319604
 10
114.8102186127905
 20
-134.5759371950886
 10
114.8084960650479
 20
-134.5716308257321
 10
114.8009168549803
 20
-134.391796841402
 10
114.8009168549803
 20
-134.3728488162332
 10
114.7991943072377
 20
-134.3263400271823
 10
114.7991943072377
 20
-134.3263400271823
 10
114.9879855398294
 20
-134.3347805111211
 10
114.9879855398294
 20
-134.3347805111211
 10
114.9972872976396
 20
-134.3347805111211
 10
115.0158908132599
 20
-134.3368475684123
 10
115.0158908132599
 20
-134.35372853629
 10
115.0158908132599
 20
-134.3728488162332
 10
115.002799450416
 20
-134.3833563574632
 10
114.9804063297618
 20
-134.4024766374063
 10
114.9804063297618
 20
-134.4531195410395
 10
114.9748941769854
 20
-134.6817016264858
 10
114.9769612342766
 20
-134.7282104155367
 10
115.0896158566443
 20
-134.7282104155367
 10
115.1009846717456
 20
-134.7282104155367
 10
115.1860785302312
 20
-134.7197699315978
 10
115.1860785302312
 20
-134.7197699315978
 10
115.1860785302312
 20
-134.9144178265144
 10
115.1860785302312
 20
-134.9144178265144
 10
115.1526611040243
 20
-134.912178514449
 10
115.093405461678
 20
-134.9080443998667
 10
114.9748941769854
 20
-134.9101114571578
 10
114.9748941769854
 20
-134.9101114571578
 10
114.9748941769854
 20
-135.2485920885837
 10
114.9748941769854
 20
-135.2485920885837
 10
115.0231255137789
 20
-135.2253376940582
 10
115.0806586083826
 20
-135.1977769301762
 10
115.1230332828512
 20
-135.1745225356508
 10
115.1230332828512
 20
-135.1745225356508
 10
115.1230332828512
 20
-134.9969278633862
 10
115.1230332828512
 20
-134.9969278633862
 10
115.2232855614719
 20
-135.0095024619073
 10
115.3266384260294
 20
-135.0095024619073
 10
115.4286132523928
 20
-135.0095024619073
 10
115.4082871890299
 20
-134.9144178265144
 10
115.3841715206331
 20
-134.8319077896427
 10
115.3287054833206
 20
-134.6985825943635
 10
115.2897759043373
 20
-134.7006496516547
 10
115.217428899147
 20
-134.7049560210112
 10
115.1843559824886
 20
-134.7070230783024
 10
115.1843559824886
 20
-134.7070230783024
 10
115.1843559824886
 20
-134.5271890939723
 10
115.1843559824886
 20
-134.5271890939723
 10
115.293565509371
 20
-134.5356295779112
 10
115.445149710722
 20
-134.5399359472678
 10
115.5174967159123
 20
-134.5399359472678
 10
115.5174967159123
 20
-134.5399359472678
 10
115.5898437211025
 20
-134.5399359472678
 10
115.5898437211025
 20
-134.5399359472678
 10
115.5898437211025
 20
-134.3769829308155
 10
115.5898437211025
 20
-134.3664753895855
 10
115.5877766638114
 20
-134.3115261165957
 10
115.5877766638114
 20
-134.3115261165957
 10
115.7841471064706
 20
-134.3368475684123
 10
115.7841471064706
 20
-134.3368475684123
 10
115.7879367115044
 20
-134.3368475684123
 10
115.8065402271247
 20
-134.3389146257034
 10
115.8065402271247
 20
-134.3557955935812
 10
115.8065402271247
 20
-134.3706095041677
 10
115.7972384693146
 20
-134.3792222428809
 10
115.7731228009178
 20
-134.3940361534674
 10
115.7676106481414
 20
-134.4594929676872
 10
115.7655435908503
 20
-134.4806803049215
 10
115.7655435908503
 20
-134.5399359472678
 10
115.7655435908503
 20
-134.5399359472678
 10
115.8489149015933
 20
-134.5399359472678
 10
115.8489149015933
 20
-134.5399359472678
 10
115.9212619067836
 20
-134.5399359472678
 10
116.0731906176831
 20
-134.5356295779112
 10
116.1824001445655
 20
-134.5271890939723
 10
116.1824001445655
 20
-134.5271890939723
 10
116.1824001445655
 20
-134.7070230783024
 10
116.1824001445655
 20
-134.7070230783024
 10
116.1562174188776
 20
-134.7049560210112
 10
116.0528645543201
 20
-134.7006496516547
 10
116.017380070822
 20
-134.6985825943635
 10
116.0046332175266
 20
-134.749397752771
 10
115.9750053963535
 20
-134.8615356108159
 10
115.9174723017498
 20
-135.0010619779685
 10
115.9546793329905
 20
-135.0010619779685
 10
116.1972140551521
 20
-134.9821139527996
 10
116.250957544722
 20
-134.9798746407342
 10
116.250957544722
 20
-134.9798746407342
 10
116.250957544722
 20
-135.1640149944208
 10
116.250957544722
 20
-135.1640149944208
 10
116.2247748190341
 20
-135.1640149944208
 10
116.2099609084475
 20
-135.1597086250642
 10
116.0673339553581
 20
-135.1597086250642
 97
        0
 97
        1
330
E0
 75
     2
 76
     1
 98
        1
 10
0.0
 20
0.0
450
        0
451
        0
460
0.0
461
0.0
452
        0
462
0.0
453
        0
470

  0
SPLINE
  5
E2
330
DA
100
AcDbEntity
  8
レイヤー 1
100
AcDbSpline
210
0.0
220
0.0
230
1.0
 70
    11
 71
     3
 72
    17
 73
    13
 74
     0
 42
0.0000000001
 43
0.0000000001
 40
0.0
 40
0.0
 40
0.0
 40
0.0
 40
1.0
 40
1.0
 40
1.0
 40
2.0
 40
2.0
 40
2.0
 40
3.0
 40
3.0
 40
3.0
 40
4.0
 40
4.0
 40
4.0
 40
4.0
 10
117.6937635339446
 20
-135.959487541965
 30
0.0
 10
117.6937635339446
 20
-135.959487541965
 30
0.0
 10
117.0753688943422
 20
-135.959487541965
 30
0.0
 10
117.0753688943422
 20
-135.959487541965
 30
0.0
 10
117.0753688943422
 20
-135.959487541965
 30
0.0
 10
117.0753688943422
 20
-136.073692457301
 30
0.0
 10
117.0753688943422
 20
-136.073692457301
 30
0.0
 10
117.0753688943422
 20
-136.073692457301
 30
0.0
 10
117.6937635339446
 20
-136.073692457301
 30
0.0
 10
117.6937635339446
 20
-136.073692457301
 30
0.0
 10
117.6937635339446
 20
-136.073692457301
 30
0.0
 10
117.6937635339446
 20
-135.959487541965
 30
0.0
 10
117.6937635339446
 20
-135.959487541965
 30
0.0
  0
SPLINE
  5
E3
330
DA
100
AcDbEntity
  8
レイヤー 1
100
AcDbSpline
210
0.0
220
0.0
230
1.0
 70
    11
 71
     3
 72
    17
 73
    13
 74
     0
 42
0.0000000001
 43
0.0000000001
 40
0.0
 40
0.0
 40
0.0
 40
0.0
 40
1.0
 40
1.0
 40
1.0
 40
2.0
 40
2.0
 40
2.0
 40
3.0
 40
3.0
 40
3.0
 40
4.0
 40
4.0
 40
4.0
 40
4.0
 10
117.6937635339446
 20
-135.7160915459321
 30
0.0
 10
117.6937635339446
 20
-135.7160915459321
 30
0.0
 10
117.0753688943422
 20
-135.7160915459321
 30
0.0
 10
117.0753688943422
 20
-135.7160915459321
 30
0.0
 10
117.0753688943422
 20
-135.7160915459321
 30
0.0
 10
117.0753688943422
 20
-135.8304687160424
 30
0.0
 10
117.0753688943422
 20
-135.8304687160424
 30
0.0
 10
117.0753688943422
 20
-135.8304687160424
 30
0.0
 10
117.6937635339446
 20
-135.8304687160424
 30
0.0
 10
117.6937635339446
 20
-135.8304687160424
 30
0.0
 10
117.6937635339446
 20
-135.8304687160424
 30
0.0
 10
117.6937635339446
 20
-135.7160915459321
 30
0.0
 10
117.6937635339446
 20
-135.7160915459321
 30
0.0
  0
SPLINE
  5
E4
330
DA
100
AcDbEntity
  8
レイヤー 1
100
AcDbSpline
210
0.0
220
0.0
230
1.0
 70
    11
 71
     3
 72
    17
 73
    13
 74
     0
 42
0.0000000001
 43
0.0000000001
 40
0.0
 40
0.0
 40
0.0
 40
0.0
 40
1.0
 40
1.0
 40
1.0
 40
2.0
 40
2.0
 40
2.0
 40
3.0
 40
3.0
 40
3.0
 40
4.0
 40
4.0
 40
4.0
 40
4.0
 10
117.6937635339446
 20
-135.4833753459034
 30
0.0
 10
117.6937635339446
 20
-135.4833753459034
 30
0.0
 10
117.0753688943422
 20
-135.4833753459034
 30
0.0
 10
117.0753688943422
 20
-135.4833753459034
 30
0.0
 10
117.0753688943422
 20
-135.4833753459034
 30
0.0
 10
117.0753688943422
 20
-135.591379089366
 30
0.0
 10
117.0753688943422
 20
-135.591379089366
 30
0.0
 10
117.0753688943422
 20
-135.591379089366
 30
0.0
 10
117.6937635339446
 20
-135.591379089366
 30
0.0
 10
117.6937635339446
 20
-135.591379089366
 30
0.0
 10
117.6937635339446
 20
-135.591379089366
 30
0.0
 10
117.6937635339446
 20
-135.4833753459034
 30
0.0
 10
117.6937635339446
 20
-135.4833753459034
 30
0.0
  0
SPLINE
  5
E5
330
DA
100
AcDbEntity
  8
レイヤー 1
100
AcDbSpline
210
0.0
220
0.0
230
1.0
 70
     9
 71
     3
 72
   203
 73
   199
 74
     0
 42
0.0000000001
 43
0.0000000001
 40
0.0
 40
0.0
 40
0.0
 40
0.0
 40
1.0
 40
1.0
 40
1.0
 40
2.0
 40
2.0
 40
2.0
 40
3.0
 40
3.0
 40
3.0
 40
4.0
 40
4.0
 40
4.0
 40
5.0
 40
5.0
 40
5.0
 40
6.0
 40
6.0
 40
6.0
 40
7.0
 40
7.0
 40
7.0
 40
8.0
 40
8.0
 40
8.0
 40
9.0
 40
9.0
 40
9.0
 40
10.0
 40
10.0
 40
10.0
 40
11.0
 40
11.0
 40
11.0
 40
12.0
 40
12.0
 40
12.0
 40
13.0
 40
13.0
 40
13.0
 40
14.0
 40
14.0
 40
14.0
 40
15.0
 40
15.0
 40
15.0
 40
16.0
 40
16.0
 40
16.0
 40
17.0
 40
17.0
 40
17.0
 40
18.0
 40
18.0
 40
18.0
 40
19.0
 40
19.0
 40
19.0
 40
20.0
 40
20.0
 40
20.0
 40
21.0
 40
21.0
 40
21.0
 40
22.0
 40
22.0
 40
22.0
 40
23.0
 40
23.0
 40
23.0
 40
24.0
 40
24.0
 40
24.0
 40
25.0
 40
25.0
 40
25.0
 40
26.0
 40
26.0
 40
26.0
 40
27.0
 40
27.0
 40
27.0
 40
28.0
 40
28.0
 40
28.0
 40
29.0
 40
29.0
 40
29.0
 40
30.0
 40
30.0
 40
30.0
 40
31.0
 40
31.0
 40
31.0
 40
32.0
 40
32.0
 40
32.0
 40
33.0
 40
33.0
 40
33.0
 40
34.0
 40
34.0
 40
34.0
 40
35.0
 40
35.0
 40
35.0
 40
36.0
 40
36.0
 40
36.0
 40
37.0
 40
37.0
 40
37.0
 40
38.0
 40
38.0
 40
38.0
 40
39.0
 40
39.0
 40
39.0
 40
40.0
 40
40.0
 40
40.0
 40
41.0
 40
41.0
 40
41.0
 40
42.0
 40
42.0
 40
42.0
 40
43.0
 40
43.0
 40
43.0
 40
44.0
 40
44.0
 40
44.0
 40
45.0
 40
45.0
 40
45.0
 40
46.0
 40
46.0
 40
46.0
 40
47.0
 40
47.0
 40
47.0
 40
48.0
 40
48.0
 40
48.0
 40
49.0
 40
49.0
 40
49.0
 40
50.0
 40
50.0
 40
50.0
 40
51.0
 40
51.0
 40
51.0
 40
52.0
 40
52.0
 40
52.0
 40
53.0
 40
53.0
 40
53.0
 40
54.0
 40
54.0
 40
54.0
 40
55.0
 40
55.0
 40
55.0
 40
56.0
 40
56.0
 40
56.0
 40
57.0
 40
57.0
 40
57.0
 40
58.0
 40
58.0
 40
58.0
 40
59.0
 40
59.0
 40
59.0
 40
60.0
 40
60.0
 40
60.0
 40
61.0
 40
61.0
 40
61.0
 40
62.0
 40
62.0
 40
62.0
 40
63.0
 40
63.0
 40
63.0
 40
64.0
 40
64.0
 40
64.0
 40
65.0
 40
65.0
 40
65.0
 40
66.0
 40
66.0
 40
66.0
 40
66.0
 10
117.5494140331126
 20
-135.2274047513494
 30
0.0
 10
117.5494140331126
 20
-135.2274047513494
 30
0.0
 10
117.0605549837557
 20
-135.2274047513494
 30
0.0
 10
117.0605549837557
 20
-135.2274047513494
 30
0.0
 10
117.0512532259455
 20
-135.2718464831091
 30
0.0
 10
117.0440185254265
 20
-135.3035413615734
 30
0.0
 10
117.0326497103252
 20
-135.3417819214597
 30
0.0
 10
117.0550428309793
 20
-135.3417819214597
 30
0.0
 10
117.0681341938232
 20
-135.3438489787508
 30
0.0
 10
117.0736463465996
 20
-135.3438489787508
 30
0.0
 10
117.0736463465996
 20
-135.3438489787508
 30
0.0
 10
117.2383219107946
 20
-135.3438489787508
 30
0.0
 10
117.2383219107946
 20
-135.3438489787508
 30
0.0
 10
117.2383219107946
 20
-135.3438489787508
 30
0.0
 10
117.5659504914418
 20
-135.3438489787508
 30
0.0
 10
117.5659504914418
 20
-135.3438489787508
 30
0.0
 10
117.6107367327501
 20
-135.3438489787508
 30
0.0
 10
117.8587836076881
 20
-135.3311021254554
 30
0.0
 10
117.8863443715701
 20
-135.3311021254554
 30
0.0
 10
117.8846218238274
 20
-135.3586628893374
 30
0.0
 10
117.8828992760848
 20
-135.3776109145063
 30
0.0
 10
117.8828992760848
 20
-135.4072387356794
 30
0.0
 10
117.8808322187937
 20
-135.4389336141437
 30
0.0
 10
117.8808322187937
 20
-135.574325866714
 30
0.0
 10
117.8808322187937
 20
-135.601886630596
 30
0.0
 10
117.8808322187937
 20
-135.601886630596
 30
0.0
 10
117.8808322187937
 20
-135.8473496839201
 30
0.0
 10
117.8808322187937
 20
-135.8473496839201
 30
0.0
 10
117.8808322187937
 20
-135.8917914156798
 30
0.0
 10
117.8846218238274
 20
-136.0885063678876
 30
0.0
 10
117.8884114288612
 20
-136.2407795883356
 30
0.0
 10
117.8884114288612
 20
-136.2407795883356
 30
0.0
 10
117.6903184384594
 20
-136.2407795883356
 30
0.0
 10
117.6903184384594
 20
-136.2407795883356
 30
0.0
 10
117.6903184384594
 20
-136.2407795883356
 30
0.0
 10
117.692040986202
 20
-136.2070176525802
 30
0.0
 10
117.692040986202
 20
-136.2070176525802
 30
0.0
 10
117.692040986202
 20
-136.2070176525802
 30
0.0
 10
117.0774359516334
 20
-136.2070176525802
 30
0.0
 10
117.0774359516334
 20
-136.2070176525802
 30
0.0
 10
117.0774359516334
 20
-136.2070176525802
 30
0.0
 10
117.079158499376
 20
-136.2407795883356
 30
0.0
 10
117.079158499376
 20
-136.2407795883356
 30
0.0
 10
117.079158499376
 20
-136.2407795883356
 30
0.0
 10
116.8883002094932
 20
-136.2407795883356
 30
0.0
 10
116.8883002094932
 20
-136.2407795883356
 30
0.0
 10
116.892089814527
 20
-136.1858303153459
 30
0.0
 10
116.892089814527
 20
-136.1730834620505
 30
0.0
 10
116.8976019673034
 20
-136.0588785467144
 30
0.0
 10
116.8996690245945
 20
-136.0313177828324
 30
0.0
 10
116.9013915723371
 20
-135.8981648423275
 30
0.0
 10
116.9013915723371
 20
-135.8790445623844
 30
0.0
 10
116.9013915723371
 20
-135.8790445623844
 30
0.0
 10
116.9013915723371
 20
-135.6759561835289
 30
0.0
 10
116.9013915723371
 20
-135.6759561835289
 30
0.0
 10
116.7790906826108
 20
-135.9255533514353
 30
0.0
 10
116.630951576745
 20
-136.0568114894233
 30
0.0
 10
116.5382785081918
 20
-136.122268303643
 30
0.0
 10
116.5382785081918
 20
-136.122268303643
 30
0.0
 10
116.3866943068408
 20
-135.9827419364904
 30
0.0
 10
116.3866943068408
 20
-135.9827419364904
 30
0.0
 10
116.4642089552589
 20
-135.931926778083
 30
0.0
 10
116.5902994500191
 20
-135.8451103718547
 30
0.0
 10
116.7105332824543
 20
-135.6506347317123
 30
0.0
 10
116.7901149881636
 20
-135.5236829630809
 30
0.0
 10
116.8476480827672
 20
-135.3798502265717
 30
0.0
 10
116.8772759039404
 20
-135.2274047513494
 30
0.0
 10
116.6771158562474
 20
-135.2296440634148
 30
0.0
 10
116.52001950212
 20
-135.2360174900625
 30
0.0
 10
116.4366481913769
 20
-135.2380845473537
 30
0.0
 10
116.4366481913769
 20
-135.2380845473537
 30
0.0
 10
116.4366481913769
 20
-135.0603176203148
 30
0.0
 10
116.4366481913769
 20
-135.0603176203148
 30
0.0
 10
116.6089029656394
 20
-135.0666910469625
 30
0.0
 10
116.8569498405774
 20
-135.070997416319
 30
0.0
 10
116.988552488114
 20
-135.070997416319
 30
0.0
 10
116.988552488114
 20
-135.070997416319
 30
0.0
 10
117.1752766634145
 20
-135.070997416319
 30
0.0
 10
117.1752766634145
 20
-135.070997416319
 30
0.0
 10
117.1752766634145
 20
-135.070997416319
 30
0.0
 10
117.1752766634145
 20
-134.9629936728564
 30
0.0
 10
117.1752766634145
 20
-134.9629936728564
 30
0.0
 10
117.1752766634145
 20
-134.9629936728564
 30
0.0
 10
117.0478081304603
 20
-134.9629936728564
 30
0.0
 10
117.0478081304603
 20
-134.9629936728564
 30
0.0
 10
116.8996690245945
 20
-134.9629936728564
 30
0.0
 10
116.7515299187288
 20
-134.967300042213
 30
0.0
 10
116.6051133606057
 20
-134.9736734688607
 30
0.0
 10
116.6051133606057
 20
-134.9736734688607
 30
0.0
 10
116.6051133606057
 20
-134.8022799684696
 30
0.0
 10
116.6051133606057
 20
-134.8022799684696
 30
0.0
 10
116.7401611036275
 20
-134.8127875096996
 30
0.0
 10
116.9031141200798
 20
-134.8127875096996
 30
0.0
 10
117.0478081304603
 20
-134.8127875096996
 30
0.0
 10
117.0478081304603
 20
-134.8127875096996
 30
0.0
 10
117.1752766634145
 20
-134.8127875096996
 30
0.0
 10
117.1752766634145
 20
-134.8127875096996
 30
0.0
 10
117.1752766634145
 20
-134.8127875096996
 30
0.0
 10
117.1752766634145
 20
-134.6944484797812
 30
0.0
 10
117.1752766634145
 20
-134.6944484797812
 30
0.0
 10
117.1752766634145
 20
-134.6944484797812
 30
0.0
 10
117.0605549837557
 20
-134.6944484797812
 30
0.0
 10
117.0605549837557
 20
-134.6944484797812
 30
0.0
 10
117.0199028570297
 20
-134.6944484797812
 30
0.0
 10
116.8421359299908
 20
-134.7028889637201
 30
0.0
 10
116.8049288987501
 20
-134.7028889637201
 30
0.0
 10
116.6271619717113
 20
-134.7070230783024
 30
0.0
 10
116.5606716288459
 20
-134.7090901355935
 30
0.0
 10
116.4921142286895
 20
-134.711329447659
 30
0.0
 10
116.4921142286895
 20
-134.711329447659
 30
0.0
 10
116.4921142286895
 20
-134.5271890939723
 30
0.0
 10
116.4921142286895
 20
-134.5271890939723
 30
0.0
 10
116.5920219977617
 20
-134.5356295779112
 30
0.0
 10
116.630951576745
 20
-134.5356295779112
 30
0.0
 10
116.9661593674598
 20
-134.5442423166243
 30
0.0
 10
116.9106933301473
 20
-134.4489854264572
 30
0.0
 10
116.8865776617506
 20
-134.4214246625752
 30
0.0
 10
116.8548827832863
 20
-134.3854234147543
 30
0.0
 10
116.8548827832863
 20
-134.3854234147543
 30
0.0
 10
117.0088785514769
 20
-134.3029133778826
 30
0.0
 10
117.0088785514769
 20
-134.3029133778826
 30
0.0
 10
117.0440185254265
 20
-134.3389146257034
 30
0.0
 10
117.0829481044098
 20
-134.381289300172
 30
0.0
 10
117.1477158995325
 20
-134.4911878461515
 30
0.0
 10
117.1477158995325
 20
-134.4911878461515
 30
0.0
 10
117.0478081304603
 20
-134.5463093739155
 30
0.0
 10
117.0478081304603
 20
-134.5463093739155
 30
0.0
 10
117.0478081304603
 20
-134.5463093739155
 30
0.0
 10
117.0567653787219
 20
-134.5463093739155
 30
0.0
 10
117.0567653787219
 20
-134.5463093739155
 30
0.0
 10
117.0567653787219
 20
-134.5463093739155
 30
0.0
 10
117.5142740591631
 20
-134.5463093739155
 30
0.0
 10
117.5142740591631
 20
-134.5463093739155
 30
0.0
 10
117.5142740591631
 20
-134.5463093739155
 30
0.0
 10
117.43090274842
 20
-134.5018676421558
 30
0.0
 10
117.43090274842
 20
-134.5018676421558
 30
0.0
 10
117.4550184168168
 20
-134.4637993370437
 30
0.0
 10
117.5049723013529
 20
-134.3833563574632
 30
0.0
 10
117.5180636641969
 20
-134.3092868045303
 30
0.0
 10
117.5180636641969
 20
-134.3092868045303
 30
0.0
 10
117.7051323490459
 20
-134.3728488162332
 30
0.0
 10
117.7051323490459
 20
-134.3728488162332
 30
0.0
 10
117.712367049565
 20
-134.3749158735243
 30
0.0
 10
117.7309705651853
 20
-134.3854234147543
 30
0.0
 10
117.7309705651853
 20
-134.4066107519886
 30
0.0
 10
117.7309705651853
 20
-134.4446790571006
 30
0.0
 10
117.6734374705816
 20
-134.4446790571006
 30
0.0
 10
117.6569010122524
 20
-134.4446790571006
 30
0.0
 10
117.6475992544423
 20
-134.4637993370437
 30
0.0
 10
117.6272731910793
 20
-134.5039346994469
 30
0.0
 10
117.6014349749399
 20
-134.5442423166243
 30
0.0
 10
117.9511121666928
 20
-134.5378688899766
 30
0.0
 10
117.9772948923807
 20
-134.5356295779112
 30
0.0
 10
118.043785235246
 20
-134.5294284060378
 30
0.0
 10
118.043785235246
 20
-134.5294284060378
 30
0.0
 10
118.043785235246
 20
-134.711329447659
 30
0.0
 10
118.043785235246
 20
-134.711329447659
 30
0.0
 10
118.0272487769168
 20
-134.711329447659
 30
0.0
 10
118.0048556562627
 20
-134.7090901355935
 30
0.0
 10
117.8122748186372
 20
-134.7006496516547
 30
0.0
 10
117.7678330868775
 20
-134.6985825943635
 30
0.0
 10
117.575252249252
 20
-134.6944484797812
 30
0.0
 10
117.5363226702687
 20
-134.6944484797812
 30
0.0
 10
117.5363226702687
 20
-134.6944484797812
 30
0.0
 10
117.347531437677
 20
-134.6944484797812
 30
0.0
 10
117.347531437677
 20
-134.6944484797812
 30
0.0
 10
117.347531437677
 20
-134.6944484797812
 30
0.0
 10
117.347531437677
 20
-134.8127875096996
 30
0.0
 10
117.347531437677
 20
-134.8127875096996
 30
0.0
 10
117.347531437677
 20
-134.8127875096996
 30
0.0
 10
117.4994601485765
 20
-134.8127875096996
 30
0.0
 10
117.4994601485765
 20
-134.8127875096996
 30
0.0
 10
117.6420871016659
 20
-134.8127875096996
 30
0.0
 10
117.8088297231519
 20
-134.8127875096996
 30
0.0
 10
117.9456000139164
 20
-134.8022799684696
 30
0.0
 10
117.9456000139164
 20
-134.8022799684696
 30
0.0
 10
117.9456000139164
 20
-134.9736734688607
 30
0.0
 10
117.9456000139164
 20
-134.9736734688607
 30
0.0
 10
117.7623209341011
 20
-134.9652329849219
 30
0.0
 10
117.5900661598386
 20
-134.9629936728564
 30
0.0
 10
117.4994601485765
 20
-134.9629936728564
 30
0.0
 10
117.4994601485765
 20
-134.9629936728564
 30
0.0
 10
117.347531437677
 20
-134.9629936728564
 30
0.0
 10
117.347531437677
 20
-134.9629936728564
 30
0.0
 10
117.347531437677
 20
-134.9629936728564
 30
0.0
 10
117.347531437677
 20
-135.070997416319
 30
0.0
 10
117.347531437677
 20
-135.070997416319
 30
0.0
 10
117.347531437677
 20
-135.070997416319
 30
0.0
 10
117.5494140331126
 20
-135.070997416319
 30
0.0
 10
117.5494140331126
 20
-135.070997416319
 30
0.0
 10
117.6662027700626
 20
-135.070997416319
 30
0.0
 10
117.9180392500344
 20
-135.0666910469625
 30
0.0
 10
118.1013183298496
 20
-135.0603176203148
 30
0.0
 10
118.1013183298496
 20
-135.0603176203148
 30
0.0
 10
118.1013183298496
 20
-135.2380845473537
 30
0.0
 10
118.1013183298496
 20
-135.2380845473537
 30
0.0
 10
117.9328531606209
 20
-135.2317111207059
 30
0.0
 10
117.6586235599951
 20
-135.2274047513494
 30
0.0
 10
117.5494140331126
 20
-135.2274047513494
 30
0.0
  0
HATCH
  5
E6
330
DA
100
AcDbEntity
  8
レイヤー 1
 62
   250
420
  2299925
440
 33554687
100
AcDbHatch
 10
0.0
 20
0.0
 30
0.0
210
0.0
220
0.0
230
1.0
  2
SOLID
 70
     1
 71
     1
 91
        4
 92
        1
 93
        1
 72
     4
 94
        3
 73
     0
 74
     0
 95
       17
 96
       13
 40
0.0
 40
0.0
 40
0.0
 40
0.0
 40
1.0
 40
1.0
 40
1.0
 40
2.0
 40
2.0
 40
2.0
 40
3.0
 40
3.0
 40
3.0
 40
4.0
 40
4.0
 40
4.0
 40
4.0
 10
117.6937635339446
 20
-135.959487541965
 10
117.6937635339446
 20
-135.959487541965
 10
117.0753688943422
 20
-135.959487541965
 10
117.0753688943422
 20
-135.959487541965
 10
117.0753688943422
 20
-135.959487541965
 10
117.0753688943422
 20
-136.073692457301
 10
117.0753688943422
 20
-136.073692457301
 10
117.0753688943422
 20
-136.073692457301
 10
117.6937635339446
 20
-136.073692457301
 10
117.6937635339446
 20
-136.073692457301
 10
117.6937635339446
 20
-136.073692457301
 10
117.6937635339446
 20
-135.959487541965
 10
117.6937635339446
 20
-135.959487541965
 97
        0
 97
        1
330
E2
 92
        1
 93
        1
 72
     4
 94
        3
 73
     0
 74
     0
 95
       17
 96
       13
 40
0.0
 40
0.0
 40
0.0
 40
0.0
 40
1.0
 40
1.0
 40
1.0
 40
2.0
 40
2.0
 40
2.0
 40
3.0
 40
3.0
 40
3.0
 40
4.0
 40
4.0
 40
4.0
 40
4.0
 10
117.6937635339446
 20
-135.7160915459321
 10
117.6937635339446
 20
-135.7160915459321
 10
117.0753688943422
 20
-135.7160915459321
 10
117.0753688943422
 20
-135.7160915459321
 10
117.0753688943422
 20
-135.7160915459321
 10
117.0753688943422
 20
-135.8304687160424
 10
117.0753688943422
 20
-135.8304687160424
 10
117.0753688943422
 20
-135.8304687160424
 10
117.6937635339446
 20
-135.8304687160424
 10
117.6937635339446
 20
-135.8304687160424
 10
117.6937635339446
 20
-135.8304687160424
 10
117.6937635339446
 20
-135.7160915459321
 10
117.6937635339446
 20
-135.7160915459321
 97
        0
 97
        1
330
E3
 92
        1
 93
        1
 72
     4
 94
        3
 73
     0
 74
     0
 95
       17
 96
       13
 40
0.0
 40
0.0
 40
0.0
 40
0.0
 40
1.0
 40
1.0
 40
1.0
 40
2.0
 40
2.0
 40
2.0
 40
3.0
 40
3.0
 40
3.0
 40
4.0
 40
4.0
 40
4.0
 40
4.0
 10
117.6937635339446
 20
-135.4833753459034
 10
117.6937635339446
 20
-135.4833753459034
 10
117.0753688943422
 20
-135.4833753459034
 10
117.0753688943422
 20
-135.4833753459034
 10
117.0753688943422
 20
-135.4833753459034
 10
117.0753688943422
 20
-135.591379089366
 10
117.0753688943422
 20
-135.591379089366
 10
117.0753688943422
 20
-135.591379089366
 10
117.6937635339446
 20
-135.591379089366
 10
117.6937635339446
 20
-135.591379089366
 10
117.6937635339446
 20
-135.591379089366
 10
117.6937635339446
 20
-135.4833753459034
 10
117.6937635339446
 20
-135.4833753459034
 97
        0
 97
        1
330
E4
 92
        1
 93
        1
 72
     4
 94
        3
 73
     0
 74
     0
 95
      203
 96
      199
 40
0.0
 40
0.0
 40
0.0
 40
0.0
 40
1.0
 40
1.0
 40
1.0
 40
2.0
 40
2.0
 40
2.0
 40
3.0
 40
3.0
 40
3.0
 40
4.0
 40
4.0
 40
4.0
 40
5.0
 40
5.0
 40
5.0
 40
6.0
 40
6.0
 40
6.0
 40
7.0
 40
7.0
 40
7.0
 40
8.0
 40
8.0
 40
8.0
 40
9.0
 40
9.0
 40
9.0
 40
10.0
 40
10.0
 40
10.0
 40
11.0
 40
11.0
 40
11.0
 40
12.0
 40
12.0
 40
12.0
 40
13.0
 40
13.0
 40
13.0
 40
14.0
 40
14.0
 40
14.0
 40
15.0
 40
15.0
 40
15.0
 40
16.0
 40
16.0
 40
16.0
 40
17.0
 40
17.0
 40
17.0
 40
18.0
 40
18.0
 40
18.0
 40
19.0
 40
19.0
 40
19.0
 40
20.0
 40
20.0
 40
20.0
 40
21.0
 40
21.0
 40
21.0
 40
22.0
 40
22.0
 40
22.0
 40
23.0
 40
23.0
 40
23.0
 40
24.0
 40
24.0
 40
24.0
 40
25.0
 40
25.0
 40
25.0
 40
26.0
 40
26.0
 40
26.0
 40
27.0
 40
27.0
 40
27.0
 40
28.0
 40
28.0
 40
28.0
 40
29.0
 40
29.0
 40
29.0
 40
30.0
 40
30.0
 40
30.0
 40
31.0
 40
31.0
 40
31.0
 40
32.0
 40
32.0
 40
32.0
 40
33.0
 40
33.0
 40
33.0
 40
34.0
 40
34.0
 40
34.0
 40
35.0
 40
35.0
 40
35.0
 40
36.0
 40
36.0
 40
36.0
 40
37.0
 40
37.0
 40
37.0
 40
38.0
 40
38.0
 40
38.0
 40
39.0
 40
39.0
 40
39.0
 40
40.0
 40
40.0
 40
40.0
 40
41.0
 40
41.0
 40
41.0
 40
42.0
 40
42.0
 40
42.0
 40
43.0
 40
43.0
 40
43.0
 40
44.0
 40
44.0
 40
44.0
 40
45.0
 40
45.0
 40
45.0
 40
46.0
 40
46.0
 40
46.0
 40
47.0
 40
47.0
 40
47.0
 40
48.0
 40
48.0
 40
48.0
 40
49.0
 40
49.0
 40
49.0
 40
50.0
 40
50.0
 40
50.0
 40
51.0
 40
51.0
 40
51.0
 40
52.0
 40
52.0
 40
52.0
 40
53.0
 40
53.0
 40
53.0
 40
54.0
 40
54.0
 40
54.0
 40
55.0
 40
55.0
 40
55.0
 40
56.0
 40
56.0
 40
56.0
 40
57.0
 40
57.0
 40
57.0
 40
58.0
 40
58.0
 40
58.0
 40
59.0
 40
59.0
 40
59.0
 40
60.0
 40
60.0
 40
60.0
 40
61.0
 40
61.0
 40
61.0
 40
62.0
 40
62.0
 40
62.0
 40
63.0
 40
63.0
 40
63.0
 40
64.0
 40
64.0
 40
64.0
 40
65.0
 40
65.0
 40
65.0
 40
66.0
 40
66.0
 40
66.0
 40
66.0
 10
117.5494140331126
 20
-135.2274047513494
 10
117.5494140331126
 20
-135.2274047513494
 10
117.0605549837557
 20
-135.2274047513494
 10
117.0605549837557
 20
-135.2274047513494
 10
117.0512532259455
 20
-135.2718464831091
 10
117.0440185254265
 20
-135.3035413615734
 10
117.0326497103252
 20
-135.3417819214597
 10
117.0550428309793
 20
-135.3417819214597
 10
117.0681341938232
 20
-135.3438489787508
 10
117.0736463465996
 20
-135.3438489787508
 10
117.0736463465996
 20
-135.3438489787508
 10
117.2383219107946
 20
-135.3438489787508
 10
117.2383219107946
 20
-135.3438489787508
 10
117.2383219107946
 20
-135.3438489787508
 10
117.5659504914418
 20
-135.3438489787508
 10
117.5659504914418
 20
-135.3438489787508
 10
117.6107367327501
 20
-135.3438489787508
 10
117.8587836076881
 20
-135.3311021254554
 10
117.8863443715701
 20
-135.3311021254554
 10
117.8846218238274
 20
-135.3586628893374
 10
117.8828992760848
 20
-135.3776109145063
 10
117.8828992760848
 20
-135.4072387356794
 10
117.8808322187937
 20
-135.4389336141437
 10
117.8808322187937
 20
-135.574325866714
 10
117.8808322187937
 20
-135.601886630596
 10
117.8808322187937
 20
-135.601886630596
 10
117.8808322187937
 20
-135.8473496839201
 10
117.8808322187937
 20
-135.8473496839201
 10
117.8808322187937
 20
-135.8917914156798
 10
117.8846218238274
 20
-136.0885063678876
 10
117.8884114288612
 20
-136.2407795883356
 10
117.8884114288612
 20
-136.2407795883356
 10
117.6903184384594
 20
-136.2407795883356
 10
117.6903184384594
 20
-136.2407795883356
 10
117.6903184384594
 20
-136.2407795883356
 10
117.692040986202
 20
-136.2070176525802
 10
117.692040986202
 20
-136.2070176525802
 10
117.692040986202
 20
-136.2070176525802
 10
117.0774359516334
 20
-136.2070176525802
 10
117.0774359516334
 20
-136.2070176525802
 10
117.0774359516334
 20
-136.2070176525802
 10
117.079158499376
 20
-136.2407795883356
 10
117.079158499376
 20
-136.2407795883356
 10
117.079158499376
 20
-136.2407795883356
 10
116.8883002094932
 20
-136.2407795883356
 10
116.8883002094932
 20
-136.2407795883356
 10
116.892089814527
 20
-136.1858303153459
 10
116.892089814527
 20
-136.1730834620505
 10
116.8976019673034
 20
-136.0588785467144
 10
116.8996690245945
 20
-136.0313177828324
 10
116.9013915723371
 20
-135.8981648423275
 10
116.9013915723371
 20
-135.8790445623844
 10
116.9013915723371
 20
-135.8790445623844
 10
116.9013915723371
 20
-135.6759561835289
 10
116.9013915723371
 20
-135.6759561835289
 10
116.7790906826108
 20
-135.9255533514353
 10
116.630951576745
 20
-136.0568114894233
 10
116.5382785081918
 20
-136.122268303643
 10
116.5382785081918
 20
-136.122268303643
 10
116.3866943068408
 20
-135.9827419364904
 10
116.3866943068408
 20
-135.9827419364904
 10
116.4642089552589
 20
-135.931926778083
 10
116.5902994500191
 20
-135.8451103718547
 10
116.7105332824543
 20
-135.6506347317123
 10
116.7901149881636
 20
-135.5236829630809
 10
116.8476480827672
 20
-135.3798502265717
 10
116.8772759039404
 20
-135.2274047513494
 10
116.6771158562474
 20
-135.2296440634148
 10
116.52001950212
 20
-135.2360174900625
 10
116.4366481913769
 20
-135.2380845473537
 10
116.4366481913769
 20
-135.2380845473537
 10
116.4366481913769
 20
-135.0603176203148
 10
116.4366481913769
 20
-135.0603176203148
 10
116.6089029656394
 20
-135.0666910469625
 10
116.8569498405774
 20
-135.070997416319
 10
116.988552488114
 20
-135.070997416319
 10
116.988552488114
 20
-135.070997416319
 10
117.1752766634145
 20
-135.070997416319
 10
117.1752766634145
 20
-135.070997416319
 10
117.1752766634145
 20
-135.070997416319
 10
117.1752766634145
 20
-134.9629936728564
 10
117.1752766634145
 20
-134.9629936728564
 10
117.1752766634145
 20
-134.9629936728564
 10
117.0478081304603
 20
-134.9629936728564
 10
117.0478081304603
 20
-134.9629936728564
 10
116.8996690245945
 20
-134.9629936728564
 10
116.7515299187288
 20
-134.967300042213
 10
116.6051133606057
 20
-134.9736734688607
 10
116.6051133606057
 20
-134.9736734688607
 10
116.6051133606057
 20
-134.8022799684696
 10
116.6051133606057
 20
-134.8022799684696
 10
116.7401611036275
 20
-134.8127875096996
 10
116.9031141200798
 20
-134.8127875096996
 10
117.0478081304603
 20
-134.8127875096996
 10
117.0478081304603
 20
-134.8127875096996
 10
117.1752766634145
 20
-134.8127875096996
 10
117.1752766634145
 20
-134.8127875096996
 10
117.1752766634145
 20
-134.8127875096996
 10
117.1752766634145
 20
-134.6944484797812
 10
117.1752766634145
 20
-134.6944484797812
 10
117.1752766634145
 20
-134.6944484797812
 10
117.0605549837557
 20
-134.6944484797812
 10
117.0605549837557
 20
-134.6944484797812
 10
117.0199028570297
 20
-134.6944484797812
 10
116.8421359299908
 20
-134.7028889637201
 10
116.8049288987501
 20
-134.7028889637201
 10
116.6271619717113
 20
-134.7070230783024
 10
116.5606716288459
 20
-134.7090901355935
 10
116.4921142286895
 20
-134.711329447659
 10
116.4921142286895
 20
-134.711329447659
 10
116.4921142286895
 20
-134.5271890939723
 10
116.4921142286895
 20
-134.5271890939723
 10
116.5920219977617
 20
-134.5356295779112
 10
116.630951576745
 20
-134.5356295779112
 10
116.9661593674598
 20
-134.5442423166243
 10
116.9106933301473
 20
-134.4489854264572
 10
116.8865776617506
 20
-134.4214246625752
 10
116.8548827832863
 20
-134.3854234147543
 10
116.8548827832863
 20
-134.3854234147543
 10
117.0088785514769
 20
-134.3029133778826
 10
117.0088785514769
 20
-134.3029133778826
 10
117.0440185254265
 20
-134.3389146257034
 10
117.0829481044098
 20
-134.381289300172
 10
117.1477158995325
 20
-134.4911878461515
 10
117.1477158995325
 20
-134.4911878461515
 10
117.0478081304603
 20
-134.5463093739155
 10
117.0478081304603
 20
-134.5463093739155
 10
117.0478081304603
 20
-134.5463093739155
 10
117.0567653787219
 20
-134.5463093739155
 10
117.0567653787219
 20
-134.5463093739155
 10
117.0567653787219
 20
-134.5463093739155
 10
117.5142740591631
 20
-134.5463093739155
 10
117.5142740591631
 20
-134.5463093739155
 10
117.5142740591631
 20
-134.5463093739155
 10
117.43090274842
 20
-134.5018676421558
 10
117.43090274842
 20
-134.5018676421558
 10
117.4550184168168
 20
-134.4637993370437
 10
117.5049723013529
 20
-134.3833563574632
 10
117.5180636641969
 20
-134.3092868045303
 10
117.5180636641969
 20
-134.3092868045303
 10
117.7051323490459
 20
-134.3728488162332
 10
117.7051323490459
 20
-134.3728488162332
 10
117.712367049565
 20
-134.3749158735243
 10
117.7309705651853
 20
-134.3854234147543
 10
117.7309705651853
 20
-134.4066107519886
 10
117.7309705651853
 20
-134.4446790571006
 10
117.6734374705816
 20
-134.4446790571006
 10
117.6569010122524
 20
-134.4446790571006
 10
117.6475992544423
 20
-134.4637993370437
 10
117.6272731910793
 20
-134.5039346994469
 10
117.6014349749399
 20
-134.5442423166243
 10
117.9511121666928
 20
-134.5378688899766
 10
117.9772948923807
 20
-134.5356295779112
 10
118.043785235246
 20
-134.5294284060378
 10
118.043785235246
 20
-134.5294284060378
 10
118.043785235246
 20
-134.711329447659
 10
118.043785235246
 20
-134.711329447659
 10
118.0272487769168
 20
-134.711329447659
 10
118.0048556562627
 20
-134.7090901355935
 10
117.8122748186372
 20
-134.7006496516547
 10
117.7678330868775
 20
-134.6985825943635
 10
117.575252249252
 20
-134.6944484797812
 10
117.5363226702687
 20
-134.6944484797812
 10
117.5363226702687
 20
-134.6944484797812
 10
117.347531437677
 20
-134.6944484797812
 10
117.347531437677
 20
-134.6944484797812
 10
117.347531437677
 20
-134.6944484797812
 10
117.347531437677
 20
-134.8127875096996
 10
117.347531437677
 20
-134.8127875096996
 10
117.347531437677
 20
-134.8127875096996
 10
117.4994601485765
 20
-134.8127875096996
 10
117.4994601485765
 20
-134.8127875096996
 10
117.6420871016659
 20
-134.8127875096996
 10
117.8088297231519
 20
-134.8127875096996
 10
117.9456000139164
 20
-134.8022799684696
 10
117.9456000139164
 20
-134.8022799684696
 10
117.9456000139164
 20
-134.9736734688607
 10
117.9456000139164
 20
-134.9736734688607
 10
117.7623209341011
 20
-134.9652329849219
 10
117.5900661598386
 20
-134.9629936728564
 10
117.4994601485765
 20
-134.9629936728564
 10
117.4994601485765
 20
-134.9629936728564
 10
117.347531437677
 20
-134.9629936728564
 10
117.347531437677
 20
-134.9629936728564
 10
117.347531437677
 20
-134.9629936728564
 10
117.347531437677
 20
-135.070997416319
 10
117.347531437677
 20
-135.070997416319
 10
117.347531437677
 20
-135.070997416319
 10
117.5494140331126
 20
-135.070997416319
 10
117.5494140331126
 20
-135.070997416319
 10
117.6662027700626
 20
-135.070997416319
 10
117.9180392500344
 20
-135.0666910469625
 10
118.1013183298496
 20
-135.0603176203148
 10
118.1013183298496
 20
-135.0603176203148
 10
118.1013183298496
 20
-135.2380845473537
 10
118.1013183298496
 20
-135.2380845473537
 10
117.9328531606209
 20
-135.2317111207059
 10
117.6586235599951
 20
-135.2274047513494
 10
117.5494140331126
 20
-135.2274047513494
 97
        0
 97
        1
330
E5
 75
     2
 76
     1
 98
        1
 10
0.0
 20
0.0
450
        0
451
        0
460
0.0
461
0.0
452
        0
462
0.0
453
        0
470

  0
SPLINE
  5
E7
330
DA
100
AcDbEntity
  8
レイヤー 1
100
AcDbSpline
210
0.0
220
0.0
230
1.0
 70
     9
 71
     3
 72
    29
 73
    25
 74
     0
 42
0.0000000001
 43
0.0000000001
 40
0.0
 40
0.0
 40
0.0
 40
0.0
 40
1.0
 40
1.0
 40
1.0
 40
2.0
 40
2.0
 40
2.0
 40
3.0
 40
3.0
 40
3.0
 40
4.0
 40
4.0
 40
4.0
 40
5.0
 40
5.0
 40
5.0
 40
6.0
 40
6.0
 40
6.0
 40
7.0
 40
7.0
 40
7.0
 40
8.0
 40
8.0
 40
8.0
 40
8.0
 10
119.1923800700283
 20
-134.6753281998381
 30
0.0
 10
119.1923800700283
 20
-134.6753281998381
 30
0.0
 10
118.8830104954528
 20
-134.6753281998381
 30
0.0
 10
118.8830104954528
 20
-134.6753281998381
 30
0.0
 10
118.7848252741232
 20
-134.6753281998381
 30
0.0
 10
118.6625243843969
 20
-134.6817016264858
 30
0.0
 10
118.568128768101
 20
-134.6944484797812
 30
0.0
 10
118.568128768101
 20
-134.6944484797812
 30
0.0
 10
118.568128768101
 20
-134.4594929676872
 30
0.0
 10
118.568128768101
 20
-134.4594929676872
 30
0.0
 10
118.671826142207
 20
-134.4743068782737
 30
0.0
 10
118.8330566109167
 20
-134.4786132476303
 30
0.0
 10
118.8830104954528
 20
-134.4786132476303
 30
0.0
 10
118.8830104954528
 20
-134.4786132476303
 30
0.0
 10
119.1923800700283
 20
-134.4786132476303
 30
0.0
 10
119.1923800700283
 20
-134.4786132476303
 30
0.0
 10
119.2089165283575
 20
-134.4786132476303
 30
0.0
 10
119.3866834553964
 20
-134.4786132476303
 30
0.0
 10
119.5107068928654
 20
-134.4594929676872
 30
0.0
 10
119.5107068928654
 20
-134.4594929676872
 30
0.0
 10
119.5107068928654
 20
-134.6944484797812
 30
0.0
 10
119.5107068928654
 20
-134.6944484797812
 30
0.0
 10
119.3735920925524
 20
-134.6753281998381
 30
0.0
 10
119.2071939806148
 20
-134.6753281998381
 30
0.0
 10
119.1923800700283
 20
-134.6753281998381
 30
0.0
  0
SPLINE
  5
E8
330
DA
100
AcDbEntity
  8
レイヤー 1
100
AcDbSpline
210
0.0
220
0.0
230
1.0
 70
     9
 71
     3
 72
    47
 73
    43
 74
     0
 42
0.0000000001
 43
0.0000000001
 40
0.0
 40
0.0
 40
0.0
 40
0.0
 40
1.0
 40
1.0
 40
1.0
 40
2.0
 40
2.0
 40
2.0
 40
3.0
 40
3.0
 40
3.0
 40
4.0
 40
4.0
 40
4.0
 40
5.0
 40
5.0
 40
5.0
 40
6.0
 40
6.0
 40
6.0
 40
7.0
 40
7.0
 40
7.0
 40
8.0
 40
8.0
 40
8.0
 40
9.0
 40
9.0
 40
9.0
 40
10.0
 40
10.0
 40
10.0
 40
11.0
 40
11.0
 40
11.0
 40
12.0
 40
12.0
 40
12.0
 40
13.0
 40
13.0
 40
13.0
 40
14.0
 40
14.0
 40
14.0
 40
14.0
 10
119.2812635335477
 20
-135.2041503568239
 30
0.0
 10
119.2812635335477
 20
-135.2041503568239
 30
0.0
 10
119.1923800700283
 20
-135.2041503568239
 30
0.0
 10
119.1923800700283
 20
-135.2041503568239
 30
0.0
 10
119.1923800700283
 20
-135.2909667630523
 30
0.0
 10
119.1737765544079
 20
-135.6802625528855
 30
0.0
 10
119.0015217801454
 20
-135.9002318996187
 30
0.0
 10
118.8681965848663
 20
-136.0693860879444
 30
0.0
 10
118.6866400527936
 20
-136.139321526295
 30
0.0
 10
118.6125704998607
 20
-136.1667100354028
 30
0.0
 10
118.6125704998607
 20
-136.1667100354028
 30
0.0
 10
118.4423827828894
 20
-135.9996229043681
 30
0.0
 10
118.4423827828894
 20
-135.9996229043681
 30
0.0
 10
118.5274766413751
 20
-135.9868760510727
 30
0.0
 10
118.6811279000172
 20
-135.9636216565473
 30
0.0
 10
118.8461479737607
 20
-135.7753471882784
 30
0.0
 10
118.9109157688834
 20
-135.7035169474109
 30
0.0
 10
119.0015217801454
 20
-135.563818325484
 30
0.0
 10
119.0015217801454
 20
-135.2041503568239
 30
0.0
 10
119.0015217801454
 20
-135.2041503568239
 30
0.0
 10
118.7996391847098
 20
-135.2041503568239
 30
0.0
 10
118.7996391847098
 20
-135.2041503568239
 30
0.0
 10
118.6366861682575
 20
-135.2041503568239
 30
0.0
 10
118.4737331518052
 20
-135.2084567261805
 30
0.0
 10
118.3107801353528
 20
-135.2232706367671
 30
0.0
 10
118.3107801353528
 20
-135.2232706367671
 30
0.0
 10
118.3107801353528
 20
-135.0033012900339
 30
0.0
 10
118.3107801353528
 20
-135.0033012900339
 30
0.0
 10
118.4754556995478
 20
-135.0181152006205
 30
0.0
 10
118.7255696317769
 20
-135.0222493152027
 30
0.0
 10
118.7996391847098
 20
-135.0222493152027
 30
0.0
 10
118.7996391847098
 20
-135.0222493152027
 30
0.0
 10
119.2812635335477
 20
-135.0222493152027
 30
0.0
 10
119.2812635335477
 20
-135.0222493152027
 30
0.0
 10
119.2977999918769
 20
-135.0222493152027
 30
0.0
 10
119.5754746879881
 20
-135.0222493152027
 30
0.0
 10
119.7756347356811
 20
-135.0033012900339
 30
0.0
 10
119.7756347356811
 20
-135.0033012900339
 30
0.0
 10
119.7756347356811
 20
-135.2232706367671
 30
0.0
 10
119.7756347356811
 20
-135.2232706367671
 30
0.0
 10
119.6106146619376
 20
-135.2084567261805
 30
0.0
 10
119.4459390977427
 20
-135.2041503568239
 30
0.0
 10
119.2812635335477
 20
-135.2041503568239
 30
0.0
  0
HATCH
  5
E9
330
DA
100
AcDbEntity
  8
レイヤー 1
 62
   250
420
  2299925
440
 33554687
100
AcDbHatch
 10
0.0
 20
0.0
 30
0.0
210
0.0
220
0.0
230
1.0
  2
SOLID
 70
     1
 71
     1
 91
        2
 92
        1
 93
        1
 72
     4
 94
        3
 73
     0
 74
     0
 95
       29
 96
       25
 40
0.0
 40
0.0
 40
0.0
 40
0.0
 40
1.0
 40
1.0
 40
1.0
 40
2.0
 40
2.0
 40
2.0
 40
3.0
 40
3.0
 40
3.0
 40
4.0
 40
4.0
 40
4.0
 40
5.0
 40
5.0
 40
5.0
 40
6.0
 40
6.0
 40
6.0
 40
7.0
 40
7.0
 40
7.0
 40
8.0
 40
8.0
 40
8.0
 40
8.0
 10
119.1923800700283
 20
-134.6753281998381
 10
119.1923800700283
 20
-134.6753281998381
 10
118.8830104954528
 20
-134.6753281998381
 10
118.8830104954528
 20
-134.6753281998381
 10
118.7848252741232
 20
-134.6753281998381
 10
118.6625243843969
 20
-134.6817016264858
 10
118.568128768101
 20
-134.6944484797812
 10
118.568128768101
 20
-134.6944484797812
 10
118.568128768101
 20
-134.4594929676872
 10
118.568128768101
 20
-134.4594929676872
 10
118.671826142207
 20
-134.4743068782737
 10
118.8330566109167
 20
-134.4786132476303
 10
118.8830104954528
 20
-134.4786132476303
 10
118.8830104954528
 20
-134.4786132476303
 10
119.1923800700283
 20
-134.4786132476303
 10
119.1923800700283
 20
-134.4786132476303
 10
119.2089165283575
 20
-134.4786132476303
 10
119.3866834553964
 20
-134.4786132476303
 10
119.5107068928654
 20
-134.4594929676872
 10
119.5107068928654
 20
-134.4594929676872
 10
119.5107068928654
 20
-134.6944484797812
 10
119.5107068928654
 20
-134.6944484797812
 10
119.3735920925524
 20
-134.6753281998381
 10
119.2071939806148
 20
-134.6753281998381
 10
119.1923800700283
 20
-134.6753281998381
 97
        0
 97
        1
330
E7
 92
        1
 93
        1
 72
     4
 94
        3
 73
     0
 74
     0
 95
       47
 96
       43
 40
0.0
 40
0.0
 40
0.0
 40
0.0
 40
1.0
 40
1.0
 40
1.0
 40
2.0
 40
2.0
 40
2.0
 40
3.0
 40
3.0
 40
3.0
 40
4.0
 40
4.0
 40
4.0
 40
5.0
 40
5.0
 40
5.0
 40
6.0
 40
6.0
 40
6.0
 40
7.0
 40
7.0
 40
7.0
 40
8.0
 40
8.0
 40
8.0
 40
9.0
 40
9.0
 40
9.0
 40
10.0
 40
10.0
 40
10.0
 40
11.0
 40
11.0
 40
11.0
 40
12.0
 40
12.0
 40
12.0
 40
13.0
 40
13.0
 40
13.0
 40
14.0
 40
14.0
 40
14.0
 40
14.0
 10
119.2812635335477
 20
-135.2041503568239
 10
119.2812635335477
 20
-135.2041503568239
 10
119.1923800700283
 20
-135.2041503568239
 10
119.1923800700283
 20
-135.2041503568239
 10
119.1923800700283
 20
-135.2909667630523
 10
119.1737765544079
 20
-135.6802625528855
 10
119.0015217801454
 20
-135.9002318996187
 10
118.8681965848663
 20
-136.0693860879444
 10
118.6866400527936
 20
-136.139321526295
 10
118.6125704998607
 20
-136.1667100354028
 10
118.6125704998607
 20
-136.1667100354028
 10
118.4423827828894
 20
-135.9996229043681
 10
118.4423827828894
 20
-135.9996229043681
 10
118.5274766413751
 20
-135.9868760510727
 10
118.6811279000172
 20
-135.9636216565473
 10
118.8461479737607
 20
-135.7753471882784
 10
118.9109157688834
 20
-135.7035169474109
 10
119.0015217801454
 20
-135.563818325484
 10
119.0015217801454
 20
-135.2041503568239
 10
119.0015217801454
 20
-135.2041503568239
 10
118.7996391847098
 20
-135.2041503568239
 10
118.7996391847098
 20
-135.2041503568239
 10
118.6366861682575
 20
-135.2041503568239
 10
118.4737331518052
 20
-135.2084567261805
 10
118.3107801353528
 20
-135.2232706367671
 10
118.3107801353528
 20
-135.2232706367671
 10
118.3107801353528
 20
-135.0033012900339
 10
118.3107801353528
 20
-135.0033012900339
 10
118.4754556995478
 20
-135.0181152006205
 10
118.7255696317769
 20
-135.0222493152027
 10
118.7996391847098
 20
-135.0222493152027
 10
118.7996391847098
 20
-135.0222493152027
 10
119.2812635335477
 20
-135.0222493152027
 10
119.2812635335477
 20
-135.0222493152027
 10
119.2977999918769
 20
-135.0222493152027
 10
119.5754746879881
 20
-135.0222493152027
 10
119.7756347356811
 20
-135.0033012900339
 10
119.7756347356811
 20
-135.0033012900339
 10
119.7756347356811
 20
-135.2232706367671
 10
119.7756347356811
 20
-135.2232706367671
 10
119.6106146619376
 20
-135.2084567261805
 10
119.4459390977427
 20
-135.2041503568239
 10
119.2812635335477
 20
-135.2041503568239
 97
        0
 97
        1
330
E8
 75
     2
 76
     1
 98
        1
 10
0.0
 20
0.0
450
        0
451
        0
460
0.0
461
0.0
452
        0
462
0.0
453
        0
470

  0
SPLINE
  5
EA
330
DA
100
AcDbEntity
  8
レイヤー 1
100
AcDbSpline
210
0.0
220
0.0
230
1.0
 70
     9
 71
     3
 72
    29
 73
    25
 74
     0
 42
0.0000000001
 43
0.0000000001
 40
0.0
 40
0.0
 40
0.0
 40
0.0
 40
1.0
 40
1.0
 40
1.0
 40
2.0
 40
2.0
 40
2.0
 40
3.0
 40
3.0
 40
3.0
 40
4.0
 40
4.0
 40
4.0
 40
5.0
 40
5.0
 40
5.0
 40
6.0
 40
6.0
 40
6.0
 40
7.0
 40
7.0
 40
7.0
 40
8.0
 40
8.0
 40
8.0
 40
8.0
 10
120.8980468447755
 20
-135.3671033732763
 30
0.0
 10
120.8980468447755
 20
-135.3671033732763
 30
0.0
 10
120.4739555905412
 20
-135.3671033732763
 30
0.0
 10
120.4739555905412
 20
-135.3671033732763
 30
0.0
 10
120.4498399221445
 20
-135.3671033732763
 30
0.0
 10
120.1718207164848
 20
-135.3671033732763
 30
0.0
 10
119.9868190889269
 20
-135.3924248250928
 30
0.0
 10
119.9868190889269
 20
-135.3924248250928
 30
0.0
 10
119.9868190889269
 20
-135.1619479371297
 30
0.0
 10
119.9868190889269
 20
-135.1619479371297
 30
0.0
 10
120.1256564369824
 20
-135.1852023316551
 30
0.0
 10
120.2923990584686
 20
-135.1872693889462
 30
0.0
 10
120.4739555905412
 20
-135.1872693889462
 30
0.0
 10
120.4739555905412
 20
-135.1872693889462
 30
0.0
 10
120.8980468447755
 20
-135.1872693889462
 30
0.0
 10
120.8980468447755
 20
-135.1872693889462
 30
0.0
 10
121.0606553516793
 20
-135.1872693889462
 30
0.0
 10
121.2239528776801
 20
-135.1852023316551
 30
0.0
 10
121.3848388368413
 20
-135.1619479371297
 30
0.0
 10
121.3848388368413
 20
-135.1619479371297
 30
0.0
 10
121.3848388368413
 20
-135.3924248250928
 30
0.0
 10
121.3848388368413
 20
-135.3924248250928
 30
0.0
 10
121.2239528776801
 20
-135.3691704305674
 30
0.0
 10
121.0072563716579
 20
-135.3671033732763
 30
0.0
 10
120.8980468447755
 20
-135.3671033732763
 30
0.0
  0
HATCH
  5
EB
330
DA
100
AcDbEntity
  8
レイヤー 1
 62
   250
420
  2299925
440
 33554687
100
AcDbHatch
 10
0.0
 20
0.0
 30
0.0
210
0.0
220
0.0
230
1.0
  2
SOLID
 70
     1
 71
     1
 91
        1
 92
        1
 93
        1
 72
     4
 94
        3
 73
     0
 74
     0
 95
       29
 96
       25
 40
0.0
 40
0.0
 40
0.0
 40
0.0
 40
1.0
 40
1.0
 40
1.0
 40
2.0
 40
2.0
 40
2.0
 40
3.0
 40
3.0
 40
3.0
 40
4.0
 40
4.0
 40
4.0
 40
5.0
 40
5.0
 40
5.0
 40
6.0
 40
6.0
 40
6.0
 40
7.0
 40
7.0
 40
7.0
 40
8.0
 40
8.0
 40
8.0
 40
8.0
 10
120.8980468447755
 20
-135.3671033732763
 10
120.8980468447755
 20
-135.3671033732763
 10
120.4739555905412
 20
-135.3671033732763
 10
120.4739555905412
 20
-135.3671033732763
 10
120.4498399221445
 20
-135.3671033732763
 10
120.1718207164848
 20
-135.3671033732763
 10
119.9868190889269
 20
-135.3924248250928
 10
119.9868190889269
 20
-135.3924248250928
 10
119.9868190889269
 20
-135.1619479371297
 10
119.9868190889269
 20
-135.1619479371297
 10
120.1256564369824
 20
-135.1852023316551
 10
120.2923990584686
 20
-135.1872693889462
 10
120.4739555905412
 20
-135.1872693889462
 10
120.4739555905412
 20
-135.1872693889462
 10
120.8980468447755
 20
-135.1872693889462
 10
120.8980468447755
 20
-135.1872693889462
 10
121.0606553516793
 20
-135.1872693889462
 10
121.2239528776801
 20
-135.1852023316551
 10
121.3848388368413
 20
-135.1619479371297
 10
121.3848388368413
 20
-135.1619479371297
 10
121.3848388368413
 20
-135.3924248250928
 10
121.3848388368413
 20
-135.3924248250928
 10
121.2239528776801
 20
-135.3691704305674
 10
121.0072563716579
 20
-135.3671033732763
 10
120.8980468447755
 20
-135.3671033732763
 97
        0
 97
        1
330
EA
 75
     2
 76
     1
 98
        1
 10
0.0
 20
0.0
450
        0
451
        0
460
0.0
461
0.0
452
        0
462
0.0
453
        0
470

  0
SPLINE
  5
EC
330
DA
100
AcDbEntity
  8
レイヤー 1
100
AcDbSpline
210
0.0
220
0.0
230
1.0
 70
     9
 71
     3
 72
    17
 73
    13
 74
     0
 42
0.0000000001
 43
0.0000000001
 40
0.0
 40
0.0
 40
0.0
 40
0.0
 40
1.0
 40
1.0
 40
1.0
 40
2.0
 40
2.0
 40
2.0
 40
3.0
 40
3.0
 40
3.0
 40
4.0
 40
4.0
 40
4.0
 40
4.0
 10
123.0164360586556
 20
-134.4002373253409
 30
0.0
 10
122.9682047218621
 20
-134.4002373253409
 30
0.0
 10
122.9292751428788
 20
-134.4446790571006
 30
0.0
 10
122.9292751428788
 20
-134.4998005848646
 30
0.0
 10
122.9292751428788
 20
-134.5568169151455
 30
0.0
 10
122.9682047218621
 20
-134.6055650162618
 30
0.0
 10
123.0202256636894
 20
-134.6055650162618
 30
0.0
 10
123.0719020959681
 20
-134.6055650162618
 30
0.0
 10
123.1070420699177
 20
-134.5547498578544
 30
0.0
 10
123.1070420699177
 20
-134.5018676421558
 30
0.0
 10
123.1070420699177
 20
-134.4446790571006
 30
0.0
 10
123.0663899431917
 20
-134.4002373253409
 30
0.0
 10
123.0164360586556
 20
-134.4002373253409
 30
0.0
  0
SPLINE
  5
ED
330
DA
100
AcDbEntity
  8
レイヤー 1
100
AcDbSpline
210
0.0
220
0.0
230
1.0
 70
     9
 71
     3
 72
    17
 73
    13
 74
     0
 42
0.0000000001
 43
0.0000000001
 40
0.0
 40
0.0
 40
0.0
 40
0.0
 40
1.0
 40
1.0
 40
1.0
 40
2.0
 40
2.0
 40
2.0
 40
3.0
 40
3.0
 40
3.0
 40
4.0
 40
4.0
 40
4.0
 40
4.0
 10
123.0181586063982
 20
-134.7302774728278
 30
0.0
 10
122.9072265317732
 20
-134.7302774728278
 30
0.0
 10
122.8183430682537
 20
-134.6288194107872
 30
0.0
 10
122.8183430682537
 20
-134.5018676421558
 30
0.0
 10
122.8183430682537
 20
-134.3749158735243
 30
0.0
 10
122.9072265317732
 20
-134.2712184994183
 30
0.0
 10
123.0181586063982
 20
-134.2712184994183
 30
0.0
 10
123.1294351905718
 20
-134.2712184994183
 30
0.0
 10
123.2200412018338
 20
-134.3749158735243
 30
0.0
 10
123.2200412018338
 20
-134.5018676421558
 30
0.0
 10
123.2200412018338
 20
-134.6288194107872
 30
0.0
 10
123.1294351905718
 20
-134.7302774728278
 30
0.0
 10
123.0181586063982
 20
-134.7302774728278
 30
0.0
  0
SPLINE
  5
EE
330
DA
100
AcDbEntity
  8
レイヤー 1
100
AcDbSpline
210
0.0
220
0.0
230
1.0
 70
     9
 71
     3
 72
    44
 73
    40
 74
     0
 42
0.0000000001
 43
0.0000000001
 40
0.0
 40
0.0
 40
0.0
 40
0.0
 40
1.0
 40
1.0
 40
1.0
 40
2.0
 40
2.0
 40
2.0
 40
3.0
 40
3.0
 40
3.0
 40
4.0
 40
4.0
 40
4.0
 40
5.0
 40
5.0
 40
5.0
 40
6.0
 40
6.0
 40
6.0
 40
7.0
 40
7.0
 40
7.0
 40
8.0
 40
8.0
 40
8.0
 40
9.0
 40
9.0
 40
9.0
 40
10.0
 40
10.0
 40
10.0
 40
11.0
 40
11.0
 40
11.0
 40
12.0
 40
12.0
 40
12.0
 40
13.0
 40
13.0
 40
13.0
 40
13.0
 10
122.8348795265829
 20
-134.929231737101
 30
0.0
 10
122.7366943052533
 20
-135.2973401897
 30
0.0
 10
122.6922525734936
 20
-135.4559868367957
 30
0.0
 10
122.5199977992311
 20
-135.705584004702
 30
0.0
 10
122.3591118400699
 20
-135.9362331474395
 30
0.0
 10
122.1517170918579
 20
-136.122268303643
 30
0.0
 10
121.9071153124051
 20
-136.215458136519
 30
0.0
 10
121.9071153124051
 20
-136.215458136519
 30
0.0
 10
121.7386501431764
 20
-136.035624152189
 30
0.0
 10
121.7386501431764
 20
-136.035624152189
 30
0.0
 10
122.2998561977236
 20
-135.8833509317409
 30
0.0
 10
122.5885551993876
 20
-135.3269680108731
 30
0.0
 10
122.6440212367001
 20
-134.8868570626324
 30
0.0
 10
122.6440212367001
 20
-134.8868570626324
 30
0.0
 10
121.973950164819
 20
-134.8868570626324
 30
0.0
 10
121.973950164819
 20
-134.8868570626324
 30
0.0
 10
121.8923014018186
 20
-134.8868570626324
 30
0.0
 10
121.7314154426574
 20
-134.891163431989
 30
0.0
 10
121.5943006423445
 20
-134.9101114571578
 30
0.0
 10
121.5943006423445
 20
-134.9101114571578
 30
0.0
 10
121.5943006423445
 20
-134.6901421104247
 30
0.0
 10
121.5943006423445
 20
-134.6901421104247
 30
0.0
 10
121.67009274302
 20
-134.711329447659
 30
0.0
 10
121.8905788540759
 20
-134.711329447659
 30
0.0
 10
121.9777397698528
 20
-134.711329447659
 30
0.0
 10
121.9777397698528
 20
-134.711329447659
 30
0.0
 10
122.3553222350362
 20
-134.711329447659
 30
0.0
 10
122.3553222350362
 20
-134.711329447659
 30
0.0
 10
122.3925292662768
 20
-134.711329447659
 30
0.0
 10
122.5978569571977
 20
-134.7090901355935
 30
0.0
 10
122.6312743834047
 20
-134.7028889637201
 30
0.0
 10
122.6681369050968
 20
-134.6965155370724
 30
0.0
 10
122.670203962388
 20
-134.6944484797812
 30
0.0
 10
122.7239474519579
 20
-134.6541408626038
 30
0.0
 10
122.7239474519579
 20
-134.6541408626038
 30
0.0
 10
122.8886230161528
 20
-134.8086533951173
 30
0.0
 10
122.8886230161528
 20
-134.8086533951173
 30
0.0
 10
122.8627848000134
 20
-134.8382812162904
 30
0.0
 10
122.8496934371695
 20
-134.8699760947547
 30
0.0
 10
122.8348795265829
 20
-134.929231737101
 30
0.0
  0
HATCH
  5
EF
330
DA
100
AcDbEntity
  8
レイヤー 1
 62
   250
420
  2299925
440
 33554687
100
AcDbHatch
 10
0.0
 20
0.0
 30
0.0
210
0.0
220
0.0
230
1.0
  2
SOLID
 70
     1
 71
     1
 91
        3
 92
        1
 93
        1
 72
     4
 94
        3
 73
     0
 74
     0
 95
       17
 96
       13
 40
0.0
 40
0.0
 40
0.0
 40
0.0
 40
1.0
 40
1.0
 40
1.0
 40
2.0
 40
2.0
 40
2.0
 40
3.0
 40
3.0
 40
3.0
 40
4.0
 40
4.0
 40
4.0
 40
4.0
 10
123.0164360586556
 20
-134.4002373253409
 10
122.9682047218621
 20
-134.4002373253409
 10
122.9292751428788
 20
-134.4446790571006
 10
122.9292751428788
 20
-134.4998005848646
 10
122.9292751428788
 20
-134.5568169151455
 10
122.9682047218621
 20
-134.6055650162618
 10
123.0202256636894
 20
-134.6055650162618
 10
123.0719020959681
 20
-134.6055650162618
 10
123.1070420699177
 20
-134.5547498578544
 10
123.1070420699177
 20
-134.5018676421558
 10
123.1070420699177
 20
-134.4446790571006
 10
123.0663899431917
 20
-134.4002373253409
 10
123.0164360586556
 20
-134.4002373253409
 97
        0
 97
        1
330
EC
 92
        1
 93
        1
 72
     4
 94
        3
 73
     0
 74
     0
 95
       17
 96
       13
 40
0.0
 40
0.0
 40
0.0
 40
0.0
 40
1.0
 40
1.0
 40
1.0
 40
2.0
 40
2.0
 40
2.0
 40
3.0
 40
3.0
 40
3.0
 40
4.0
 40
4.0
 40
4.0
 40
4.0
 10
123.0181586063982
 20
-134.7302774728278
 10
122.9072265317732
 20
-134.7302774728278
 10
122.8183430682537
 20
-134.6288194107872
 10
122.8183430682537
 20
-134.5018676421558
 10
122.8183430682537
 20
-134.3749158735243
 10
122.9072265317732
 20
-134.2712184994183
 10
123.0181586063982
 20
-134.2712184994183
 10
123.1294351905718
 20
-134.2712184994183
 10
123.2200412018338
 20
-134.3749158735243
 10
123.2200412018338
 20
-134.5018676421558
 10
123.2200412018338
 20
-134.6288194107872
 10
123.1294351905718
 20
-134.7302774728278
 10
123.0181586063982
 20
-134.7302774728278
 97
        0
 97
        1
330
ED
 92
        1
 93
        1
 72
     4
 94
        3
 73
     0
 74
     0
 95
       44
 96
       40
 40
0.0
 40
0.0
 40
0.0
 40
0.0
 40
1.0
 40
1.0
 40
1.0
 40
2.0
 40
2.0
 40
2.0
 40
3.0
 40
3.0
 40
3.0
 40
4.0
 40
4.0
 40
4.0
 40
5.0
 40
5.0
 40
5.0
 40
6.0
 40
6.0
 40
6.0
 40
7.0
 40
7.0
 40
7.0
 40
8.0
 40
8.0
 40
8.0
 40
9.0
 40
9.0
 40
9.0
 40
10.0
 40
10.0
 40
10.0
 40
11.0
 40
11.0
 40
11.0
 40
12.0
 40
12.0
 40
12.0
 40
13.0
 40
13.0
 40
13.0
 40
13.0
 10
122.8348795265829
 20
-134.929231737101
 10
122.7366943052533
 20
-135.2973401897
 10
122.6922525734936
 20
-135.4559868367957
 10
122.5199977992311
 20
-135.705584004702
 10
122.3591118400699
 20
-135.9362331474395
 10
122.1517170918579
 20
-136.122268303643
 10
121.9071153124051
 20
-136.215458136519
 10
121.9071153124051
 20
-136.215458136519
 10
121.7386501431764
 20
-136.035624152189
 10
121.7386501431764
 20
-136.035624152189
 10
122.2998561977236
 20
-135.8833509317409
 10
122.5885551993876
 20
-135.3269680108731
 10
122.6440212367001
 20
-134.8868570626324
 10
122.6440212367001
 20
-134.8868570626324
 10
121.973950164819
 20
-134.8868570626324
 10
121.973950164819
 20
-134.8868570626324
 10
121.8923014018186
 20
-134.8868570626324
 10
121.7314154426574
 20
-134.891163431989
 10
121.5943006423445
 20
-134.9101114571578
 10
121.5943006423445
 20
-134.9101114571578
 10
121.5943006423445
 20
-134.6901421104247
 10
121.5943006423445
 20
-134.6901421104247
 10
121.67009274302
 20
-134.711329447659
 10
121.8905788540759
 20
-134.711329447659
 10
121.9777397698528
 20
-134.711329447659
 10
121.9777397698528
 20
-134.711329447659
 10
122.3553222350362
 20
-134.711329447659
 10
122.3553222350362
 20
-134.711329447659
 10
122.3925292662768
 20
-134.711329447659
 10
122.5978569571977
 20
-134.7090901355935
 10
122.6312743834047
 20
-134.7028889637201
 10
122.6681369050968
 20
-134.6965155370724
 10
122.670203962388
 20
-134.6944484797812
 10
122.7239474519579
 20
-134.6541408626038
 10
122.7239474519579
 20
-134.6541408626038
 10
122.8886230161528
 20
-134.8086533951173
 10
122.8886230161528
 20
-134.8086533951173
 10
122.8627848000134
 20
-134.8382812162904
 10
122.8496934371695
 20
-134.8699760947547
 10
122.8348795265829
 20
-134.929231737101
 97
        0
 97
        1
330
EE
 75
     2
 76
     1
 98
        1
 10
0.0
 20
0.0
450
        0
451
        0
460
0.0
461
0.0
452
        0
462
0.0
453
        0
470

  0
ENDBLK
  5
DD
330
DA
100
AcDbEntity
  8
0
100
AcDbBlockEnd
  0
ENDSEC
  0
SECTION
  2
ENTITIES
  0
INSERT
  5
7A
330
70
100
AcDbEntity
  8
レイヤー 1
100
AcDbBlockReference
  2
Block_0
 10
0.0
 20
0.0
 30
0.0
  0
LWPOLYLINE
  5
80
330
70
100
AcDbEntity
  8
レイヤー 1
 62
   250
420
  2299925
370
    25
100
AcDbPolyline
 90
        1
 70
     0
 43
0.0
 10
127.0213835749576
 20
-162.9733924105951
  0
LWPOLYLINE
  5
81
330
70
100
AcDbEntity
  8
レイヤー 1
 62
   250
420
  2299925
370
    25
100
AcDbPolyline
 90
        1
 70
     0
 43
0.0
 10
127.0213835749576
 20
-163.4735960089449
  0
LWPOLYLINE
  5
82
330
70
100
AcDbEntity
  8
レイヤー 1
 62
   250
420
  2299925
370
    25
100
AcDbPolyline
 90
        1
 70
     0
 43
0.0
 10
91.18263818632184
 20
-126.9733923672194
  0
LWPOLYLINE
  5
83
330
70
100
AcDbEntity
  8
レイヤー 1
 62
   250
420
  2299925
370
    25
100
AcDbPolyline
 90
        1
 70
     0
 43
0.0
 10
90.68306957533582
 20
-127.0133929102888
  0
SPLINE
  5
84
330
70
100
AcDbEntity
  8
レイヤー 1
 62
   250
420
  2299925
370
     9
100
AcDbSpline
210
0.0
220
0.0
230
1.0
 70
     9
 71
     3
 72
    17
 73
    13
 74
     0
 42
0.0000000001
 43
0.0000000001
 40
0.0
 40
0.0
 40
0.0
 40
0.0
 40
1.0
 40
1.0
 40
1.0
 40
2.0
 40
2.0
 40
2.0
 40
3.0
 40
3.0
 40
3.0
 40
4.0
 40
4.0
 40
4.0
 40
4.0
 10
126.2818735232033
 20
-167.973593949696
 30
0.0
 10
126.2818735232033
 20
-167.9181372844441
 30
0.0
 10
126.2371060243454
 20
-167.8733345078093
 30
0.0
 10
126.1819668590854
 20
-167.8733345078093
 30
0.0
 10
126.1268629716024
 20
-167.8733345078093
 30
0.0
 10
126.0820601949676
 20
-167.9181372844441
 30
0.0
 10
126.0820601949676
 20
-167.973593949696
 30
0.0
 10
126.0820601949676
 20
-168.028697837179
 30
0.0
 10
126.1268629716024
 20
-168.0735006138138
 30
0.0
 10
126.1819668590854
 20
-168.0735006138138
 30
0.0
 10
126.2371060243454
 20
-168.0735006138138
 30
0.0
 10
126.2818735232033
 20
-168.028697837179
 30
0.0
 10
126.2818735232033
 20
-167.973593949696
 30
0.0
  0
SPLINE
  5
85
330
70
100
AcDbEntity
  8
レイヤー 1
 62
   250
420
  2299925
370
     9
100
AcDbSpline
210
0.0
220
0.0
230
1.0
 70
     9
 71
     3
 72
    17
 73
    13
 74
     0
 42
0.0000000001
 43
0.0000000001
 40
0.0
 40
0.0
 40
0.0
 40
0.0
 40
1.0
 40
1.0
 40
1.0
 40
2.0
 40
2.0
 40
2.0
 40
3.0
 40
3.0
 40
3.0
 40
4.0
 40
4.0
 40
4.0
 40
4.0
 10
86.28301346532406
 20
-163.9734821073029
 30
0.0
 10
86.28301346532406
 20
-163.918019215223
 30
0.0
 10
86.23821068755798
 20
-163.8735692152353
 30
0.0
 10
86.18310679868274
 20
-163.8735692152353
 30
0.0
 10
86.12729735425231
 20
-163.8735692152353
 30
0.0
 10
86.08249457648559
 20
-163.918019215223
 30
0.0
 10
86.08249457648559
 20
-163.9734821073029
 30
0.0
 10
86.08249457648559
 20
-164.0286212725628
 30
0.0
 10
86.12729735425231
 20
-164.0733887714207
 30
0.0
 10
86.18310679868274
 20
-164.0733887714207
 30
0.0
 10
86.23821068755798
 20
-164.0733887714207
 30
0.0
 10
86.28301346532406
 20
-164.0286212725628
 30
0.0
 10
86.28301346532406
 20
-163.9734821073029
 30
0.0
  0
SPLINE
  5
86
330
70
100
AcDbEntity
  8
レイヤー 1
 62
   250
420
  2299925
370
     9
100
AcDbSpline
210
0.0
220
0.0
230
1.0
 70
     9
 71
     3
 72
    17
 73
    13
 74
     0
 42
0.0000000001
 43
0.0000000001
 40
0.0
 40
0.0
 40
0.0
 40
0.0
 40
1.0
 40
1.0
 40
1.0
 40
2.0
 40
2.0
 40
2.0
 40
3.0
 40
3.0
 40
3.0
 40
4.0
 40
4.0
 40
4.0
 40
4.0
 10
90.34335567804822
 20
-167.973593949696
 30
0.0
 10
90.34335567804822
 20
-167.9181372844441
 30
0.0
 10
90.2985529002815
 20
-167.8733345078093
 30
0.0
 10
90.24344901140658
 20
-167.8733345078093
 30
0.0
 10
90.1883098447535
 20
-167.8733345078093
 30
0.0
 10
90.14354234476462
 20
-167.9181372844441
 30
0.0
 10
90.14354234476462
 20
-167.973593949696
 30
0.0
 10
90.14354234476462
 20
-168.028697837179
 30
0.0
 10
90.1883098447535
 20
-168.0735006138138
 30
0.0
 10
90.24344901140658
 20
-168.0735006138138
 30
0.0
 10
90.2985529002815
 20
-168.0735006138138
 30
0.0
 10
90.34335567804822
 20
-168.028697837179
 30
0.0
 10
90.34335567804822
 20
-167.973593949696
 30
0.0
  0
SPLINE
  5
87
330
70
100
AcDbEntity
  8
レイヤー 1
 62
   250
420
  2299925
370
     9
100
AcDbSpline
210
0.0
220
0.0
230
1.0
 70
     9
 71
     3
 72
    17
 73
    13
 74
     0
 42
0.0000000001
 43
0.0000000001
 40
0.0
 40
0.0
 40
0.0
 40
0.0
 40
1.0
 40
1.0
 40
1.0
 40
2.0
 40
2.0
 40
2.0
 40
3.0
 40
3.0
 40
3.0
 40
4.0
 40
4.0
 40
4.0
 40
4.0
 10
86.28301346532406
 20
-154.0075125548122
 30
0.0
 10
86.28301346532406
 20
-153.9520558895603
 30
0.0
 10
86.23821068755798
 20
-153.9072531129256
 30
0.0
 10
86.18310679868274
 20
-153.9072531129256
 30
0.0
 10
86.12729735425231
 20
-153.9072531129256
 30
0.0
 10
86.08249457648559
 20
-153.9520558895603
 30
0.0
 10
86.08249457648559
 20
-154.0075125548122
 30
0.0
 10
86.08249457648559
 20
-154.0626164422952
 30
0.0
 10
86.12729735425231
 20
-154.10741921893
 30
0.0
 10
86.18310679868274
 20
-154.10741921893
 30
0.0
 10
86.23821068755798
 20
-154.10741921893
 30
0.0
 10
86.28301346532406
 20
-154.0626164422952
 30
0.0
 10
86.28301346532406
 20
-154.0075125548122
 30
0.0
  0
LINE
  5
88
330
70
100
AcDbEntity
  8
レイヤー 1
 62
   250
420
  2299925
370
     9
100
AcDbLine
 10
90.24344901376611
 20
-167.973593949696
 30
0.0
 11
126.2432213217201
 21
-167.973593949696
 31
0.0
  0
LINE
  5
89
330
70
100
AcDbEntity
  8
レイヤー 1
 62
   250
420
  2299925
370
     9
100
AcDbLine
 10
90.24344901140658
 20
-165.7135937295756
 30
0.0
 11
90.24344901140658
 21
-168.9733661464119
 31
0.0
  0
LINE
  5
8A
330
70
100
AcDbEntity
  8
レイヤー 1
 62
   250
420
  2299925
370
     9
100
AcDbLine
 10
126.1819668590854
 20
-166.0133137219291
 30
0.0
 11
126.1819668590854
 21
-168.9733661464119
 31
0.0
  0
INSERT
  5
8C
330
70
100
AcDbEntity
  8
レイヤー 1
100
AcDbBlockReference
  2
Block_1
 10
0.0
 20
0.0
 30
0.0
  0
LINE
  5
98
330
70
100
AcDbEntity
  8
レイヤー 1
 62
   250
420
  2299925
370
     9
100
AcDbLine
 10
86.18310679868274
 20
-153.9731293096668
 30
0.0
 11
86.18310679868274
 21
-163.973129307167
 31
0.0
  0
LINE
  5
99
330
70
100
AcDbEntity
  8
レイヤー 1
 62
   250
420
  2299925
370
     9
100
AcDbLine
 10
88.14680902041393
 20
-153.975797833399
 30
0.0
 11
85.1874620767095
 21
-153.975797833399
 31
0.0
  0
LINE
  5
9A
330
70
100
AcDbEntity
  8
レイヤー 1
 62
   250
420
  2299925
370
     9
100
AcDbLine
 10
88.44307179811789
 20
-163.9734821073029
 30
0.0
 11
85.182629021155
 21
-163.9734821073029
 31
0.0
  0
INSERT
  5
9C
330
70
100
AcDbEntity
  8
レイヤー 1
100
AcDbBlockReference
  2
Block_3
 10
0.0
 20
0.0
 30
0.0
  0
INSERT
  5
A9
330
70
100
AcDbEntity
  8
レイヤー 1
100
AcDbBlockReference
  2
Block_5
 10
0.0
 20
0.0
 30
0.0
  0
LINE
  5
B5
330
70
100
AcDbEntity
  8
レイヤー 1
 62
   250
420
  2299925
370
     9
100
AcDbLine
 10
89.59775334665561
 20
-164.5585947932868
 30
0.0
 11
88.73198184317075
 21
-165.0589696624976
 31
0.0
  0
LINE
  5
B6
330
70
100
AcDbEntity
  8
レイヤー 1
 62
   250
420
  2299925
370
     9
100
AcDbLine
 10
89.59775334665561
 20
-164.5585947932868
 30
0.0
 11
87.00172996177501
 21
-167.1546221316107
 31
0.0
  0
LINE
  5
B7
330
70
100
AcDbEntity
  8
レイヤー 1
 62
   250
420
  2299925
370
     9
100
AcDbLine
 10
89.59775334665561
 20
-164.5585947932868
 30
0.0
 11
89.09787738043288
 21
-165.4248651998095
 31
0.0
  0
INSERT
  5
B9
330
70
100
AcDbEntity
  8
レイヤー 1
100
AcDbBlockReference
  2
Block_7
 10
0.0
 20
0.0
 30
0.0
  0
LINE
  5
CE
330
70
100
AcDbEntity
  8
レイヤー 1
 62
   250
420
  2299925
370
     9
100
AcDbLine
 10
91.40264810403758
 20
-158.5003989064372
 30
0.0
 11
92.26841960756734
 21
-158.0000240373046
 31
0.0
  0
LINE
  5
CF
330
70
100
AcDbEntity
  8
レイヤー 1
 62
   250
420
  2299925
370
     9
100
AcDbLine
 10
91.40264810403758
 20
-158.5003989064372
 30
0.0
 11
95.81026336552126
 21
-154.0927838361044
 31
0.0
  0
LINE
  5
D0
330
70
100
AcDbEntity
  8
レイヤー 1
 62
   250
420
  2299925
370
     9
100
AcDbLine
 10
91.40264810403758
 20
-158.5003989064372
 30
0.0
 11
91.90252407033796
 21
-157.6341284999588
 31
0.0
  0
LINE
  5
D1
330
70
100
AcDbEntity
  8
レイヤー 1
  6
AI-Linetype-0
 62
   154
420
    23468
370
    25
100
AcDbLine
 10
111.1825843353139
 20
-162.4052461861731
 30
0.0
 11
126.1819643567364
 21
-162.4052461861731
 31
0.0
  0
LINE
  5
D3
330
70
100
AcDbEntity
  8
レイヤー 1
 62
   250
420
  2299925
370
     9
100
AcDbLine
 10
118.8587775144894
 20
-161.1859902067565
 30
0.0
 11
119.1171519523422
 21
-160.2199788425127
 31
0.0
  0
LINE
  5
D4
330
70
100
AcDbEntity
  8
レイヤー 1
 62
   250
420
  2299925
370
     9
100
AcDbLine
 10
118.8587775144894
 20
-161.185986604443
 30
0.0
 11
118.8587775144894
 21
-137.0127729222557
 31
0.0
  0
LINE
  5
D5
330
70
100
AcDbEntity
  8
レイヤー 1
 62
   250
420
  2299925
370
     9
100
AcDbLine
 10
118.8587775144894
 20
-161.1859902067565
 30
0.0
 11
118.5996975210991
 21
-160.2199788425127
 31
0.0
  0
INSERT
  5
D7
330
70
100
AcDbEntity
  8
レイヤー 1
100
AcDbBlockReference
  2
Block_9
 10
0.0
 20
0.0
 30
0.0
  0
LINE
  5
F0
330
70
100
AcDbEntity
  8
レイヤー 1
  6
AI-Linetype-1
 62
   154
420
    23468
370
    25
100
AcDbLine
 10
91.78758742919619
 20
-142.9725301448103
 30
0.0
 11
91.78758742964506
 21
-127.9731501233879
 31
0.0
  0
LINE
  5
F2
330
70
100
AcDbEntity
  8
レイヤー 1
 62
   250
420
  2299925
370
     9
100
AcDbLine
 10
92.7509481574628
 20
-135.4439459580439
 30
0.0
 11
93.65440475893398
 21
-135.7023203958533
 31
0.0
  0
LINE
  5
F3
330
70
100
AcDbEntity
  8
レイヤー 1
 62
   250
420
  2299925
370
     9
100
AcDbLine
 10
92.75096023874473
 20
-135.4439426592142
 30
0.0
 11
112.8159866573071
 21
-135.443942658138
 31
0.0
  0
LINE
  5
F4
330
70
100
AcDbEntity
  8
レイヤー 1
 62
   250
420
  2299925
370
     9
100
AcDbLine
 10
92.7509481574628
 20
-135.4439459580439
 30
0.0
 11
93.65440475891185
 21
-135.1848659646103
 31
0.0
  0
ENDSEC
  0
SECTION
  2
OBJECTS
  0
DICTIONARY
  5
C
330
0
100
AcDbDictionary
281
     1
  3
ACAD_COLOR
350
63
  3
ACAD_DETAILVIEWSTYLE
350
6A
  3
ACAD_GROUP
350
D
  3
ACAD_LAYOUT
350
62
  3
ACAD_MATERIAL
350
10
  3
ACAD_MLEADERSTYLE
350
66
  3
ACAD_MLINESTYLE
350
5F
  3
ACAD_PLOTSETTINGS
350
61
  3
ACAD_PLOTSTYLENAME
350
E
  3
ACAD_SCALELIST
350
42
  3
ACAD_SECTIONVIEWSTYLE
350
68
  3
ACAD_TABLESTYLE
350
64
  3
ACAD_VISUALSTYLE
350
29
  3
ACDB_RECOMPOSE_DATA
350
FD
  3
AcDbVariableDictionary
350
F5
  0
DICTIONARY
  5
63
102
{ACAD_REACTORS
330
C
102
}
330
C
100
AcDbDictionary
281
     1
  0
DICTIONARY
  5
6A
102
{ACAD_REACTORS
330
C
102
}
330
C
100
AcDbDictionary
281
     1
  3
Imperial24
350
6B
  0
DICTIONARY
  5
D
102
{ACAD_REACTORS
330
C
102
}
330
C
100
AcDbDictionary
281
     1
  0
DICTIONARY
  5
62
102
{ACAD_REACTORS
330
C
102
}
330
C
100
AcDbDictionary
281
     1
  3
Layout1
350
6F
  3
Layout2
350
77
  3
Model
350
73
  0
DICTIONARY
  5
10
102
{ACAD_REACTORS
330
C
102
}
330
C
100
AcDbDictionary
281
     1
  3
ByBlock
350
19
  3
ByLayer
350
11
  3
Global
350
21
  0
DICTIONARY
  5
66
102
{ACAD_REACTORS
330
C
102
}
330
C
100
AcDbDictionary
281
     1
  3
Standard
350
67
  0
DICTIONARY
  5
5F
102
{ACAD_REACTORS
330
C
102
}
330
C
100
AcDbDictionary
281
     1
  3
Standard
350
60
  0
DICTIONARY
  5
61
102
{ACAD_REACTORS
330
C
102
}
330
C
100
AcDbDictionary
281
     1
  0
ACDBDICTIONARYWDFLT
  5
E
102
{ACAD_REACTORS
330
C
102
}
330
C
100
AcDbDictionary
281
     1
  3
Normal
350
F
100
AcDbDictionaryWithDefault
340
F
  0
DICTIONARY
  5
42
102
{ACAD_REACTORS
330
C
102
}
330
C
100
AcDbDictionary
281
     1
  3
A0
350
43
  3
A1
350
44
  3
A2
350
45
  3
A3
350
46
  3
A4
350
47
  3
A5
350
48
  3
A6
350
49
  3
A7
350
4A
  3
A8
350
4B
  3
A9
350
4C
  3
B0
350
4D
  3
B1
350
4E
  3
B2
350
4F
  3
B3
350
50
  3
B4
350
51
  3
B5
350
52
  3
B6
350
53
  0
DICTIONARY
  5
68
102
{ACAD_REACTORS
330
C
102
}
330
C
100
AcDbDictionary
281
     1
  3
Imperial24
350
69
  0
DICTIONARY
  5
64
102
{ACAD_REACTORS
330
C
102
}
330
C
100
AcDbDictionary
281
     1
  3
Standard
350
65
  0
DICTIONARY
  5
29
102
{ACAD_REACTORS
330
C
102
}
330
C
100
AcDbDictionary
281
     1
  3
2dWireframe
350
2F
  3
Basic
350
2E
  3
Brighten
350
35
  3
ColorChange
350
39
  3
Conceptual
350
32
  3
Dim
350
34
  3
EdgeColorOff
350
41
  3
Facepattern
350
38
  3
Flat
350
2A
  3
FlatWithEdges
350
2B
  3
Gouraud
350
2C
  3
GouraudWithEdges
350
2D
  3
Hidden
350
31
  3
JitterOff
350
3F
  3
Linepattern
350
37
  3
OverhangOff
350
40
  3
Realistic
350
33
  3
Shaded
350
3E
  3
Shaded with edges
350
3D
  3
Shades of Gray
350
3A
  3
Sketchy
350
3B
  3
Thicken
350
36
  3
Wireframe
350
30
  3
X-Ray
350
3C
  0
XRECORD
  5
FD
102
{ACAD_REACTORS
330
C
102
}
330
C
100
AcDbXrecord
280
     1
 90
        1
330
65
  0
DICTIONARY
  5
F5
102
{ACAD_REACTORS
330
C
102
}
330
C
100
AcDbDictionary
281
     1
  3
CANNOSCALE
350
FA
  3
CMLEADERSTYLE
350
F7
  3
CTABLESTYLE
350
F6
  3
CVIEWDETAILSTYLE
350
F8
  3
CVIEWSECTIONSTYLE
350
F9
  0
ACDBDETAILVIEWSTYLE
  5
6B
102
{ACAD_XDICTIONARY
360
132
102
}
102
{ACAD_REACTORS
330
6A
102
}
330
6A
100
AcDbModelDocViewStyle
 70
     0
  3
Imperial24
290
     0
100
AcDbDetailViewStyle
 70
     0
 71
     0
 90
        3
 71
     1
340
55
 62
   256
 40
0.24
340
0
 62
   256
 40
0.24
300

 40
0.36
280
     3
 71
     2
340
5D
 90
       25
 62
   256
 71
     3
340
55
 62
   256
 40
0.24
 90
        1
 40
0.75
 90
        1
300
%<\AcVar ViewType \f "%tc1">% %<\AcVar ViewDetailId>%\PSCALE %<\AcVar ViewScale \f "%sn">%
 71
     4
340
5D
 90
       25
 62
   256
340
5D
 90
       25
 62
   256
280
     0
  0
LAYOUT
  5
6F
102
{ACAD_REACTORS
330
62
102
}
330
62
100
AcDbPlotSettings
  1

  2

  4

  6

 40
0.0
 41
0.0
 42
0.0
 43
0.0
 44
0.0
 45
0.0
 46
0.0
 47
0.0
 48
0.0
 49
0.0
140
0.0
141
0.0
142
1.0
143
1.0
 70
   688
 72
     0
 73
     0
 74
     5
  7

 75
    16
147
1.0
 76
     0
 77
     2
 78
   300
148
0.0
149
0.0
100
AcDbLayout
  1
Layout1
 70
     1
 71
     1
 10
0.0
 20
0.0
 11
12.0
 21
9.0
 12
0.0
 22
0.0
 32
0.0
 14
0.0
 24
0.0
 34
0.0
 15
0.0
 25
0.0
 35
0.0
146
0.0
 13
0.0
 23
0.0
 33
0.0
 16
1.0
 26
0.0
 36
0.0
 17
0.0
 27
1.0
 37
0.0
 76
     0
330
6C
  0
LAYOUT
  5
77
102
{ACAD_REACTORS
330
62
102
}
330
62
100
AcDbPlotSettings
  1

  2

  4

  6

 40
0.0
 41
0.0
 42
0.0
 43
0.0
 44
0.0
 45
0.0
 46
0.0
 47
0.0
 48
0.0
 49
0.0
140
0.0
141
0.0
142
1.0
143
1.0
 70
   688
 72
     0
 73
     0
 74
     5
  7

 75
    16
147
1.0
 76
     0
 77
     2
 78
   300
148
0.0
149
0.0
100
AcDbLayout
  1
Layout2
 70
     1
 71
     2
 10
0.0
 20
0.0
 11
12.0
 21
9.0
 12
0.0
 22
0.0
 32
0.0
 14
0.0
 24
0.0
 34
0.0
 15
0.0
 25
0.0
 35
0.0
146
0.0
 13
0.0
 23
0.0
 33
0.0
 16
1.0
 26
0.0
 36
0.0
 17
0.0
 27
1.0
 37
0.0
 76
     0
330
74
  0
LAYOUT
  5
73
102
{ACAD_REACTORS
330
62
102
}
330
62
100
AcDbPlotSettings
  1

  2

  4

  6

 40
0.0
 41
0.0
 42
0.0
 43
0.0
 44
0.0
 45
0.0
 46
0.0
 47
0.0
 48
0.0
 49
0.0
140
0.0
141
0.0
142
1.0
143
1.0
 70
  1712
 72
     0
 73
     0
 74
     0
  7

 75
     0
147
1.0
 76
     0
 77
     2
 78
   300
148
0.0
149
0.0
100
AcDbLayout
  1
Model
 70
     1
 71
     0
 10
0.0
 20
0.0
 11
12.0
 21
9.0
 12
0.0
 22
0.0
 32
0.0
 14
0.0
 24
0.0
 34
0.0
 15
0.0
 25
0.0
 35
0.0
146
0.0
 13
0.0
 23
0.0
 33
0.0
 16
1.0
 26
0.0
 36
0.0
 17
0.0
 27
1.0
 37
0.0
 76
     0
330
70
  0
MATERIAL
  5
19
102
{ACAD_XDICTIONARY
360
1A
102
}
102
{ACAD_REACTORS
330
10
102
}
330
10
100
AcDbMaterial
  1
ByBlock
 72
     0
 43
0.0208333333333333
 43
0.0
 43
0.0
 43
0.0
 43
0.0
 43
0.0208333333333333
 43
0.0
 43
0.0
 43
0.0
 43
0.0
 43
1.0
 43
0.0
 43
0.0
 43
0.0
 43
0.0
 43
1.0
 77
     0
 47
0.0208333333333333
 47
0.0
 47
0.0
 47
0.0
 47
0.0
 47
0.0208333333333333
 47
0.0
 47
0.0
 47
0.0
 47
0.0
 47
1.0
 47
0.0
 47
0.0
 47
0.0
 47
0.0
 47
1.0
171
     0
 49
0.0208333333333333
 49
0.0
 49
0.0
 49
0.0
 49
0.0
 49
0.0208333333333333
 49
0.0
 49
0.0
 49
0.0
 49
0.0
 49
1.0
 49
0.0
 49
0.0
 49
0.0
 49
0.0
 49
1.0
175
     0
142
0.0208333333333333
142
0.0
142
0.0
142
0.0
142
0.0
142
0.0208333333333333
142
0.0
142
0.0
142
0.0
142
0.0
142
1.0
142
0.0
142
0.0
142
0.0
142
0.0
142
1.0
179
     0
144
0.0208333333333333
144
0.0
144
0.0
144
0.0
144
0.0
144
0.0208333333333333
144
0.0
144
0.0
144
0.0
144
0.0
144
1.0
144
0.0
144
0.0
144
0.0
144
0.0
144
1.0
147
0.0208333333333333
147
0.0
147
0.0
147
0.0
147
0.0
147
0.0208333333333333
147
0.0
147
0.0
147
0.0
147
0.0
147
1.0
147
0.0
147
0.0
147
0.0
147
0.0
147
1.0
  0
MATERIAL
  5
11
102
{ACAD_XDICTIONARY
360
12
102
}
102
{ACAD_REACTORS
330
10
102
}
330
10
100
AcDbMaterial
  1
ByLayer
 72
     0
 43
0.0208333333333333
 43
0.0
 43
0.0
 43
0.0
 43
0.0
 43
0.0208333333333333
 43
0.0
 43
0.0
 43
0.0
 43
0.0
 43
1.0
 43
0.0
 43
0.0
 43
0.0
 43
0.0
 43
1.0
 77
     0
 47
0.0208333333333333
 47
0.0
 47
0.0
 47
0.0
 47
0.0
 47
0.0208333333333333
 47
0.0
 47
0.0
 47
0.0
 47
0.0
 47
1.0
 47
0.0
 47
0.0
 47
0.0
 47
0.0
 47
1.0
171
     0
 49
0.0208333333333333
 49
0.0
 49
0.0
 49
0.0
 49
0.0
 49
0.0208333333333333
 49
0.0
 49
0.0
 49
0.0
 49
0.0
 49
1.0
 49
0.0
 49
0.0
 49
0.0
 49
0.0
 49
1.0
175
     0
142
0.0208333333333333
142
0.0
142
0.0
142
0.0
142
0.0
142
0.0208333333333333
142
0.0
142
0.0
142
0.0
142
0.0
142
1.0
142
0.0
142
0.0
142
0.0
142
0.0
142
1.0
179
     0
144
0.0208333333333333
144
0.0
144
0.0
144
0.0
144
0.0
144
0.0208333333333333
144
0.0
144
0.0
144
0.0
144
0.0
144
1.0
144
0.0
144
0.0
144
0.0
144
0.0
144
1.0
147
0.0208333333333333
147
0.0
147
0.0
147
0.0
147
0.0
147
0.0208333333333333
147
0.0
147
0.0
147
0.0
147
0.0
147
1.0
147
0.0
147
0.0
147
0.0
147
0.0
147
1.0
  0
MATERIAL
  5
21
102
{ACAD_XDICTIONARY
360
22
102
}
102
{ACAD_REACTORS
330
10
102
}
330
10
100
AcDbMaterial
  1
Global
 72
     0
 43
0.0208333333333333
 43
0.0
 43
0.0
 43
0.0
 43
0.0
 43
0.0208333333333333
 43
0.0
 43
0.0
 43
0.0
 43
0.0
 43
1.0
 43
0.0
 43
0.0
 43
0.0
 43
0.0
 43
1.0
 77
     0
 47
0.0208333333333333
 47
0.0
 47
0.0
 47
0.0
 47
0.0
 47
0.0208333333333333
 47
0.0
 47
0.0
 47
0.0
 47
0.0
 47
1.0
 47
0.0
 47
0.0
 47
0.0
 47
0.0
 47
1.0
171
     0
 49
0.0208333333333333
 49
0.0
 49
0.0
 49
0.0
 49
0.0
 49
0.0208333333333333
 49
0.0
 49
0.0
 49
0.0
 49
0.0
 49
1.0
 49
0.0
 49
0.0
 49
0.0
 49
0.0
 49
1.0
175
     0
142
0.0208333333333333
142
0.0
142
0.0
142
0.0
142
0.0
142
0.0208333333333333
142
0.0
142
0.0
142
0.0
142
0.0
142
1.0
142
0.0
142
0.0
142
0.0
142
0.0
142
1.0
179
     0
144
0.0208333333333333
144
0.0
144
0.0
144
0.0
144
0.0
144
0.0208333333333333
144
0.0
144
0.0
144
0.0
144
0.0
144
1.0
144
0.0
144
0.0
144
0.0
144
0.0
144
1.0
147
0.0208333333333333
147
0.0
147
0.0
147
0.0
147
0.0
147
0.0208333333333333
147
0.0
147
0.0
147
0.0
147
0.0
147
1.0
147
0.0
147
0.0
147
0.0
147
0.0
147
1.0
  0
MLEADERSTYLE
  5
67
102
{ACAD_XDICTIONARY
360
12E
102
}
102
{ACAD_REACTORS
330
66
102
}
330
66
100
AcDbMLeaderStyle
179
     2
170
     2
171
     1
172
     0
 90
        2
 40
0.0
 41
0.0
173
     1
 91
-1056964608
340
5B
 92
       -2
290
     1
 42
0.09
291
     1
 43
0.36
  3
Standard
 44
0.18
300

342
55
174
     1
178
     6
175
     1
176
     0
 93
-1056964608
 45
0.18
292
     0
297
     0
 46
0.18
 94
-1056964608
 47
1.0
 49
1.0
140
1.0
293
     1
141
0.0
294
     1
177
     0
142
1.0
295
     0
296
     0
143
0.125
271
     0
272
     9
273
     9
  0
MLINESTYLE
  5
60
102
{ACAD_REACTORS
330
5F
102
}
330
5F
100
AcDbMlineStyle
  2
STANDARD
 70
     0
  3

 62
   256
 51
90.0
 52
90.0
 71
     2
 49
0.5
 62
   256
  6
BYLAYER
 49
-0.5
 62
   256
  6
BYLAYER
  0
ACDBPLACEHOLDER
  5
F
102
{ACAD_REACTORS
330
E
102
}
330
E
  0
SCALE
  5
43
102
{ACAD_REACTORS
330
42
102
}
330
42
100
AcDbScale
 70
     0
300
1:1
140
1.0
141
1.0
290
     1
  0
SCALE
  5
44
102
{ACAD_REACTORS
330
42
102
}
330
42
100
AcDbScale
 70
     0
300
1/128" = 1'-0"
140
0.0078125
141
12.0
290
     0
  0
SCALE
  5
45
102
{ACAD_REACTORS
330
42
102
}
330
42
100
AcDbScale
 70
     0
300
1/64" = 1'-0"
140
0.015625
141
12.0
290
     0
  0
SCALE
  5
46
102
{ACAD_REACTORS
330
42
102
}
330
42
100
AcDbScale
 70
     0
300
1/32" = 1'-0"
140
0.03125
141
12.0
290
     0
  0
SCALE
  5
47
102
{ACAD_REACTORS
330
42
102
}
330
42
100
AcDbScale
 70
     0
300
1/16" = 1'-0"
140
0.0625
141
12.0
290
     0
  0
SCALE
  5
48
102
{ACAD_REACTORS
330
42
102
}
330
42
100
AcDbScale
 70
     0
300
3/32" = 1'-0"
140
0.09375
141
12.0
290
     0
  0
SCALE
  5
49
102
{ACAD_REACTORS
330
42
102
}
330
42
100
AcDbScale
 70
     0
300
1/8" = 1'-0"
140
0.125
141
12.0
290
     0
  0
SCALE
  5
4A
102
{ACAD_REACTORS
330
42
102
}
330
42
100
AcDbScale
 70
     0
300
3/16" = 1'-0"
140
0.1875
141
12.0
290
     0
  0
SCALE
  5
4B
102
{ACAD_REACTORS
330
42
102
}
330
42
100
AcDbScale
 70
     0
300
1/4" = 1'-0"
140
0.25
141
12.0
290
     0
  0
SCALE
  5
4C
102
{ACAD_REACTORS
330
42
102
}
330
42
100
AcDbScale
 70
     0
300
3/8" = 1'-0"
140
0.375
141
12.0
290
     0
  0
SCALE
  5
4D
102
{ACAD_REACTORS
330
42
102
}
330
42
100
AcDbScale
 70
     0
300
1/2" = 1'-0"
140
0.5
141
12.0
290
     0
  0
SCALE
  5
4E
102
{ACAD_REACTORS
330
42
102
}
330
42
100
AcDbScale
 70
     0
300
3/4" = 1'-0"
140
0.75
141
12.0
290
     0
  0
SCALE
  5
4F
102
{ACAD_REACTORS
330
42
102
}
330
42
100
AcDbScale
 70
     0
300
1" = 1'-0"
140
1.0
141
12.0
290
     0
  0
SCALE
  5
50
102
{ACAD_REACTORS
330
42
102
}
330
42
100
AcDbScale
 70
     0
300
1-1/2" = 1'-0"
140
1.5
141
12.0
290
     0
  0
SCALE
  5
51
102
{ACAD_REACTORS
330
42
102
}
330
42
100
AcDbScale
 70
     0
300
3" = 1'-0"
140
3.0
141
12.0
290
     0
  0
SCALE
  5
52
102
{ACAD_REACTORS
330
42
102
}
330
42
100
AcDbScale
 70
     0
300
6" = 1'-0"
140
6.0
141
12.0
290
     0
  0
SCALE
  5
53
102
{ACAD_REACTORS
330
42
102
}
330
42
100
AcDbScale
 70
     0
300
1'-0" = 1'-0"
140
12.0
141
12.0
290
     0
  0
ACDBSECTIONVIEWSTYLE
  5
69
102
{ACAD_XDICTIONARY
360
130
102
}
102
{ACAD_REACTORS
330
68
102
}
330
68
100
AcDbModelDocViewStyle
 70
     0
  3
Imperial24
290
     0
100
AcDbSectionViewStyle
 70
     0
 71
     0
 90
       78
 71
     1
340
55
 62
   256
 40
0.24
340
0
340
0
 62
   256
 40
0.24
300
I, O, Q, S, X, Z
 40
0.48
 90
        3
 40
0.18
 90
        1
 71
     2
340
5D
 90
       25
 62
   256
340
5D
 90
       50
 62
   256
 40
0.24
 40
0.0
 40
0.24
 71
     3
340
55
 62
   256
 40
0.24
 90
        1
 40
0.75
 90
        1
300
%<\AcVar ViewType \f "%tc1">% %<\AcVar ViewSectionStartId>%-%<\AcVar ViewSectionEndId>%\PSCALE %<\AcVar ViewScale \f "%sn">%
 71
     4
 62
   256
 62
   257
300
ANSI31
 40
1.0
 90
        0
290
     0
290
     0
 90
        6
 40
0.0
 40
1.570796326794896
 40
0.2617993877991494
 40
1.308996938995747
 40
-0.2617993877991494
 40
1.832595714594046
  0
TABLESTYLE
  5
65
102
{ACAD_XDICTIONARY
360
FB
102
}
102
{ACAD_REACTORS
330
64
102
}
330
64
100
AcDbTableStyle
280
     0
  3
Standard
 70
     0
 71
     0
 40
0.06
 41
0.06
280
     0
281
     0
  7
Standard
140
0.18
170
     2
 62
     0
 63
     7
283
     0
 90
      512
 91
        0
  1

274
    -2
284
     1
 64
     0
275
    -2
285
     1
 65
     0
276
    -2
286
     1
 66
     0
277
    -2
287
     1
 67
     0
278
    -2
288
     1
 68
     0
279
    -2
289
     1
 69
     0
  7
Standard
140
0.25
170
     5
 62
     0
 63
     7
283
     0
 90
      512
 91
        0
  1

274
    -2
284
     1
 64
     0
275
    -2
285
     1
 65
     0
276
    -2
286
     1
 66
     0
277
    -2
287
     1
 67
     0
278
    -2
288
     1
 68
     0
279
    -2
289
     1
 69
     0
  7
Standard
140
0.18
170
     5
 62
     0
 63
     7
283
     0
 90
      512
 91
        0
  1

274
    -2
284
     1
 64
     0
275
    -2
285
     1
 65
     0
276
    -2
286
     1
 66
     0
277
    -2
287
     1
 67
     0
278
    -2
288
     1
 68
     0
279
    -2
289
     1
 69
     0
  0
VISUALSTYLE
  5
2F
102
{ACAD_XDICTIONARY
360
108
102
}
102
{ACAD_REACTORS
330
29
102
}
330
29
100
AcDbVisualStyle
  2
2dWireframe
 70
     4
177
     2
291
     0
 71
     0
176
     1
 72
     2
176
     1
 73
     0
176
     1
 90
        0
176
     1
 40
0.6
176
     1
 41
30.0
176
     1
 63
     7
421
 16777215
176
     1
 74
     1
176
     1
 91
        4
176
     1
 64
     7
176
     1
 65
   257
176
     1
 75
     1
176
     1
175
     1
176
     1
 42
1.0
176
     1
 92
        0
176
     1
 66
   257
176
     1
 43
1.0
176
     1
 76
     1
176
     1
 77
     6
176
     1
 78
     2
176
     1
 67
     7
176
     1
 79
     5
176
     1
170
     0
176
     1
171
     0
176
     1
290
     0
176
     1
 93
        1
176
     1
 44
0.0
176
     1
173
     0
176
     1
1001
ACAD
1000
AcDbSavedByObjectVersion
1070
     0
  0
VISUALSTYLE
  5
2E
102
{ACAD_XDICTIONARY
360
106
102
}
102
{ACAD_REACTORS
330
29
102
}
330
29
100
AcDbVisualStyle
  2
Basic
 70
     7
177
     2
291
     1
 71
     1
176
     1
 72
     0
176
     1
 73
     1
176
     1
 90
        0
176
     1
 40
0.6
176
     1
 41
30.0
176
     1
 63
     7
421
 16777215
176
     1
 74
     0
176
     1
 91
        4
176
     1
 64
     7
176
     1
 65
   257
176
     1
 75
     1
176
     1
175
     1
176
     1
 42
1.0
176
     1
 92
        8
176
     1
 66
     7
176
     1
 43
1.0
176
     1
 76
     1
176
     1
 77
     6
176
     1
 78
     2
176
     1
 67
     7
176
     1
 79
     5
176
     1
170
     0
176
     1
171
     0
176
     1
290
     0
176
     1
 93
        1
176
     1
 44
0.0
176
     1
173
     0
176
     1
1001
ACAD
1000
AcDbSavedByObjectVersion
1070
     0
  0
VISUALSTYLE
  5
35
102
{ACAD_XDICTIONARY
360
114
102
}
102
{ACAD_REACTORS
330
29
102
}
330
29
100
AcDbVisualStyle
  2
Brighten
 70
    12
177
     2
291
     1
 71
     2
176
     1
 72
     2
176
     1
 73
     0
176
     1
 90
        0
176
     1
 40
0.6
176
     1
 41
30.0
176
     1
 63
     7
421
 16777215
176
     1
 74
     1
176
     1
 91
        4
176
     1
 64
     7
176
     1
 65
   257
176
     1
 75
     1
176
     1
175
     1
176
     1
 42
1.0
176
     1
 92
        8
176
     1
 66
     7
176
     1
 43
1.0
176
     1
 76
     1
176
     1
 77
     6
176
     1
 78
     2
176
     1
 67
     7
176
     1
 79
     5
176
     1
170
     0
176
     1
171
     0
176
     1
290
     0
176
     1
 93
        1
176
     1
 44
50.0
176
     1
173
     0
176
     1
1001
ACAD
1000
AcDbSavedByObjectVersion
1070
     0
  0
VISUALSTYLE
  5
39
102
{ACAD_XDICTIONARY
360
11C
102
}
102
{ACAD_REACTORS
330
29
102
}
330
29
100
AcDbVisualStyle
  2
ColorChange
 70
    16
177
     2
291
     1
 71
     2
176
     1
 72
     2
176
     1
 73
     3
176
     1
 90
        0
176
     1
 40
0.6
176
     1
 41
30.0
176
     1
 63
     8
421
  8421504
176
     1
 74
     1
176
     1
 91
        4
176
     1
 64
     7
176
     1
 65
   257
176
     1
 75
     1
176
     1
175
     1
176
     1
 42
1.0
176
     1
 92
        8
176
     1
 66
     8
424
  8421504
176
     1
 43
1.0
176
     1
 76
     1
176
     1
 77
     6
176
     1
 78
     2
176
     1
 67
     7
176
     1
 79
     5
176
     1
170
     0
176
     1
171
     0
176
     1
290
     0
176
     1
 93
        1
176
     1
 44
0.0
176
     1
173
     0
176
     1
1001
ACAD
1000
AcDbSavedByObjectVersion
1070
     0
  0
VISUALSTYLE
  5
32
102
{ACAD_XDICTIONARY
360
10E
102
}
102
{ACAD_REACTORS
330
29
102
}
330
29
100
AcDbVisualStyle
  2
Conceptual
 70
     9
177
     2
291
     0
 71
     3
176
     1
 72
     2
176
     1
 73
     0
176
     1
 90
        0
176
     1
 40
0.6
176
     1
 41
30.0
176
     1
 63
     7
421
 16777215
176
     1
 74
     2
176
     1
 91
        2
176
     1
 64
     7
176
     1
 65
   257
176
     1
 75
     1
176
     1
175
     1
176
     1
 42
179.0
176
     1
 92
        8
176
     1
 66
     7
176
     1
 43
1.0
176
     1
 76
     1
176
     1
 77
     6
176
     1
 78
     2
176
     1
 67
     7
176
     1
 79
     3
176
     1
170
     0
176
     1
171
     0
176
     1
290
     0
176
     1
 93
        1
176
     1
 44
0.0
176
     1
173
     0
176
     1
1001
ACAD
1000
AcDbSavedByObjectVersion
1070
     0
  0
VISUALSTYLE
  5
34
102
{ACAD_XDICTIONARY
360
112
102
}
102
{ACAD_REACTORS
330
29
102
}
330
29
100
AcDbVisualStyle
  2
Dim
 70
    11
177
     2
291
     1
 71
     2
176
     1
 72
     2
176
     1
 73
     0
176
     1
 90
        0
176
     1
 40
0.6
176
     1
 41
30.0
176
     1
 63
     7
421
 16777215
176
     1
 74
     1
176
     1
 91
        4
176
     1
 64
     7
176
     1
 65
   257
176
     1
 75
     1
176
     1
175
     1
176
     1
 42
1.0
176
     1
 92
        8
176
     1
 66
     7
176
     1
 43
1.0
176
     1
 76
     1
176
     1
 77
     6
176
     1
 78
     2
176
     1
 67
     7
176
     1
 79
     5
176
     1
170
     0
176
     1
171
     0
176
     1
290
     0
176
     1
 93
        1
176
     1
 44
-50.0
176
     1
173
     0
176
     1
1001
ACAD
1000
AcDbSavedByObjectVersion
1070
     0
  0
VISUALSTYLE
  5
41
102
{ACAD_XDICTIONARY
360
12C
102
}
102
{ACAD_REACTORS
330
29
102
}
330
29
100
AcDbVisualStyle
  2
EdgeColorOff
 70
    22
177
     2
291
     1
 71
     2
176
     0
 72
     2
176
     0
 73
     0
176
     0
 90
        0
176
     0
 40
0.6
176
     0
 41
30.0
176
     0
 63
     7
421
 16777215
176
     0
 74
     1
176
     0
 91
        4
176
     0
 64
     7
176
     0
 65
   257
176
     0
 75
     1
176
     0
175
     1
176
     0
 42
1.0
176
     0
 92
        8
176
     2
 66
     7
176
     0
 43
1.0
176
     0
 76
     1
176
     0
 77
     6
176
     0
 78
     2
176
     0
 67
     7
176
     0
 79
     5
176
     0
170
     0
176
     0
171
     0
176
     0
290
     0
176
     0
 93
        1
176
     0
 44
0.0
176
     0
173
     0
176
     0
1001
ACAD
1000
AcDbSavedByObjectVersion
1070
     0
  0
VISUALSTYLE
  5
38
102
{ACAD_XDICTIONARY
360
11A
102
}
102
{ACAD_REACTORS
330
29
102
}
330
29
100
AcDbVisualStyle
  2
Facepattern
 70
    15
177
     2
291
     1
 71
     2
176
     1
 72
     2
176
     1
 73
     0
176
     1
 90
        0
176
     1
 40
0.6
176
     1
 41
30.0
176
     1
 63
     7
421
 16777215
176
     1
 74
     1
176
     1
 91
        4
176
     1
 64
     7
176
     1
 65
   257
176
     1
 75
     1
176
     1
175
     1
176
     1
 42
1.0
176
     1
 92
        8
176
     1
 66
     7
176
     1
 43
1.0
176
     1
 76
     1
176
     1
 77
     6
176
     1
 78
     2
176
     1
 67
     7
176
     1
 79
     5
176
     1
170
     0
176
     1
171
     0
176
     1
290
     0
176
     1
 93
        1
176
     1
 44
0.0
176
     1
173
     0
176
     1
1001
ACAD
1000
AcDbSavedByObjectVersion
1070
     0
  0
VISUALSTYLE
  5
2A
102
{ACAD_XDICTIONARY
360
FE
102
}
102
{ACAD_REACTORS
330
29
102
}
330
29
100
AcDbVisualStyle
  2
Flat
 70
     0
177
     2
291
     1
 71
     2
176
     1
 72
     1
176
     1
 73
     1
176
     1
 90
        2
176
     1
 40
0.6
176
     1
 41
30.0
176
     1
 63
     7
421
 16777215
176
     1
 74
     0
176
     1
 91
        0
176
     1
 64
     7
176
     1
 65
   257
176
     1
 75
     1
176
     1
175
     1
176
     1
 42
1.0
176
     1
 92
        8
176
     1
 66
     7
176
     1
 43
1.0
176
     1
 76
     1
176
     1
 77
     6
176
     1
 78
     2
176
     1
 67
     7
176
     1
 79
     5
176
     1
170
     0
176
     1
171
     0
176
     1
290
     0
176
     1
 93
       13
176
     1
 44
0.0
176
     1
173
     0
176
     1
1001
ACAD
1000
AcDbSavedByObjectVersion
1070
     0
  0
VISUALSTYLE
  5
2B
102
{ACAD_XDICTIONARY
360
100
102
}
102
{ACAD_REACTORS
330
29
102
}
330
29
100
AcDbVisualStyle
  2
FlatWithEdges
 70
     1
177
     2
291
     1
 71
     2
176
     1
 72
     1
176
     1
 73
     1
176
     1
 90
        2
176
     1
 40
0.6
176
     1
 41
30.0
176
     1
 63
     7
421
 16777215
176
     1
 74
     1
176
     1
 91
        0
176
     1
 64
     7
176
     1
 65
   257
176
     1
 75
     1
176
     1
175
     1
176
     1
 42
1.0
176
     1
 92
        0
176
     1
 66
   257
176
     1
 43
1.0
176
     1
 76
     1
176
     1
 77
     6
176
     1
 78
     2
176
     1
 67
     7
176
     1
 79
     5
176
     1
170
     0
176
     1
171
     0
176
     1
290
     0
176
     1
 93
       13
176
     1
 44
0.0
176
     1
173
     0
176
     1
1001
ACAD
1000
AcDbSavedByObjectVersion
1070
     0
  0
VISUALSTYLE
  5
2C
102
{ACAD_XDICTIONARY
360
102
102
}
102
{ACAD_REACTORS
330
29
102
}
330
29
100
AcDbVisualStyle
  2
Gouraud
 70
     2
177
     2
291
     1
 71
     2
176
     1
 72
     2
176
     1
 73
     1
176
     1
 90
        2
176
     1
 40
0.6
176
     1
 41
30.0
176
     1
 63
     7
421
 16777215
176
     1
 74
     0
176
     1
 91
        0
176
     1
 64
     7
176
     1
 65
   257
176
     1
 75
     1
176
     1
175
     1
176
     1
 42
1.0
176
     1
 92
        0
176
     1
 66
     7
176
     1
 43
1.0
176
     1
 76
     1
176
     1
 77
     6
176
     1
 78
     2
176
     1
 67
     7
176
     1
 79
     5
176
     1
170
     0
176
     1
171
     0
176
     1
290
     0
176
     1
 93
       13
176
     1
 44
0.0
176
     1
173
     0
176
     1
1001
ACAD
1000
AcDbSavedByObjectVersion
1070
     0
  0
VISUALSTYLE
  5
2D
102
{ACAD_XDICTIONARY
360
104
102
}
102
{ACAD_REACTORS
330
29
102
}
330
29
100
AcDbVisualStyle
  2
GouraudWithEdges
 70
     3
177
     2
291
     1
 71
     2
176
     1
 72
     2
176
     1
 73
     1
176
     1
 90
        2
176
     1
 40
0.6
176
     1
 41
30.0
176
     1
 63
     7
421
 16777215
176
     1
 74
     1
176
     1
 91
        0
176
     1
 64
     7
176
     1
 65
   257
176
     1
 75
     1
176
     1
175
     1
176
     1
 42
1.0
176
     1
 92
        0
176
     1
 66
   257
176
     1
 43
1.0
176
     1
 76
     1
176
     1
 77
     6
176
     1
 78
     2
176
     1
 67
     7
176
     1
 79
     5
176
     1
170
     0
176
     1
171
     0
176
     1
290
     0
176
     1
 93
       13
176
     1
 44
0.0
176
     1
173
     0
176
     1
1001
ACAD
1000
AcDbSavedByObjectVersion
1070
     0
  0
VISUALSTYLE
  5
31
102
{ACAD_XDICTIONARY
360
10C
102
}
102
{ACAD_REACTORS
330
29
102
}
330
29
100
AcDbVisualStyle
  2
Hidden
 70
     6
177
     2
291
     0
 71
     1
176
     1
 72
     2
176
     1
 73
     2
176
     1
 90
        0
176
     1
 40
0.6
176
     1
 41
30.0
176
     1
 63
     7
421
 16777215
176
     1
 74
     2
176
     1
 91
        2
176
     1
 64
     7
176
     1
 65
   257
176
     1
 75
     2
176
     1
175
     1
176
     1
 42
40.0
176
     1
 92
        0
176
     1
 66
   257
176
     1
 43
1.0
176
     1
 76
     1
176
     1
 77
     6
176
     1
 78
     2
176
     1
 67
     7
176
     1
 79
     3
176
     1
170
     0
176
     1
171
     0
176
     1
290
     0
176
     1
 93
        1
176
     1
 44
0.0
176
     1
173
     0
176
     1
1001
ACAD
1000
AcDbSavedByObjectVersion
1070
     0
  0
VISUALSTYLE
  5
3F
102
{ACAD_XDICTIONARY
360
128
102
}
102
{ACAD_REACTORS
330
29
102
}
330
29
100
AcDbVisualStyle
  2
JitterOff
 70
    20
177
     2
291
     1
 71
     2
176
     0
 72
     2
176
     0
 73
     0
176
     0
 90
        0
176
     0
 40
0.6
176
     0
 41
30.0
176
     0
 63
     7
421
 16777215
176
     0
 74
     1
176
     0
 91
        4
176
     0
 64
     7
176
     0
 65
   257
176
     0
 75
     1
176
     0
175
     1
176
     0
 42
1.0
176
     0
 92
       10
176
     2
 66
     7
176
     0
 43
1.0
176
     0
 76
     1
176
     0
 77
     6
176
     0
 78
     2
176
     0
 67
     7
176
     0
 79
     5
176
     0
170
     0
176
     0
171
     0
176
     0
290
     0
176
     0
 93
        1
176
     0
 44
0.0
176
     0
173
     0
176
     0
1001
ACAD
1000
AcDbSavedByObjectVersion
1070
     0
  0
VISUALSTYLE
  5
37
102
{ACAD_XDICTIONARY
360
118
102
}
102
{ACAD_REACTORS
330
29
102
}
330
29
100
AcDbVisualStyle
  2
Linepattern
 70
    14
177
     2
291
     1
 71
     2
176
     1
 72
     2
176
     1
 73
     0
176
     1
 90
        0
176
     1
 40
0.6
176
     1
 41
30.0
176
     1
 63
     7
421
 16777215
176
     1
 74
     1
176
     1
 91
        4
176
     1
 64
     7
176
     1
 65
   257
176
     1
 75
     7
176
     1
175
     7
176
     1
 42
1.0
176
     1
 92
        8
176
     1
 66
     7
176
     1
 43
1.0
176
     1
 76
     1
176
     1
 77
     6
176
     1
 78
     2
176
     1
 67
     7
176
     1
 79
     5
176
     1
170
     0
176
     1
171
     0
176
     1
290
     0
176
     1
 93
        1
176
     1
 44
0.0
176
     1
173
     0
176
     1
1001
ACAD
1000
AcDbSavedByObjectVersion
1070
     0
  0
VISUALSTYLE
  5
40
102
{ACAD_XDICTIONARY
360
12A
102
}
102
{ACAD_REACTORS
330
29
102
}
330
29
100
AcDbVisualStyle
  2
OverhangOff
 70
    21
177
     2
291
     1
 71
     2
176
     0
 72
     2
176
     0
 73
     0
176
     0
 90
        0
176
     0
 40
0.6
176
     0
 41
30.0
176
     0
 63
     7
421
 16777215
176
     0
 74
     1
176
     0
 91
        4
176
     0
 64
     7
176
     0
 65
   257
176
     0
 75
     1
176
     0
175
     1
176
     0
 42
1.0
176
     0
 92
        9
176
     2
 66
     7
176
     0
 43
1.0
176
     0
 76
     1
176
     0
 77
     6
176
     0
 78
     2
176
     0
 67
     7
176
     0
 79
     5
176
     0
170
     0
176
     0
171
     0
176
     0
290
     0
176
     0
 93
        1
176
     0
 44
0.0
176
     0
173
     0
176
     0
1001
ACAD
1000
AcDbSavedByObjectVersion
1070
     0
  0
VISUALSTYLE
  5
33
102
{ACAD_XDICTIONARY
360
110
102
}
102
{ACAD_REACTORS
330
29
102
}
330
29
100
AcDbVisualStyle
  2
Realistic
 70
     8
177
     2
291
     0
 71
     2
176
     1
 72
     3
176
     1
 73
     0
176
     1
 90
        2
176
     1
 40
0.6
176
     1
 41
30.0
176
     1
 63
     7
421
 16777215
176
     1
 74
     0
176
     1
 91
        0
176
     1
 64
     7
176
     1
 65
   257
176
     1
 75
     1
176
     1
175
     1
176
     1
 42
1.0
176
     1
 92
        8
176
     1
 66
   257
176
     1
 43
1.0
176
     1
 76
     1
176
     1
 77
     6
176
     1
 78
     2
176
     1
 67
     7
176
     1
 79
     3
176
     1
170
     0
176
     1
171
     0
176
     1
290
     0
176
     1
 93
       13
176
     1
 44
0.0
176
     1
173
     0
176
     1
1001
ACAD
1000
AcDbSavedByObjectVersion
1070
     0
  0
VISUALSTYLE
  5
3E
102
{ACAD_XDICTIONARY
360
126
102
}
102
{ACAD_REACTORS
330
29
102
}
330
29
100
AcDbVisualStyle
  2
Shaded
 70
    27
177
     2
291
     0
 71
     2
176
     1
 72
     2
176
     1
 73
     1
176
     1
 90
        2
176
     1
 40
0.6
176
     1
 41
30.0
176
     1
 63
     7
421
 16777215
176
     1
 74
     0
176
     1
 91
        4
176
     1
 64
     7
176
     1
 65
   257
176
     1
 75
     1
176
     1
175
     1
176
     1
 42
1.0
176
     1
 92
        8
176
     1
 66
   257
176
     1
 43
1.0
176
     1
 76
     1
176
     1
 77
     6
176
     1
 78
     2
176
     1
 67
     8
425
  7895160
176
     1
 79
     3
176
     1
170
     0
176
     1
171
     0
176
     1
290
     0
176
     1
 93
        5
176
     1
 44
0.0
176
     1
173
     0
176
     1
1001
ACAD
1000
AcDbSavedByObjectVersion
1070
     0
  0
VISUALSTYLE
  5
3D
102
{ACAD_XDICTIONARY
360
124
102
}
102
{ACAD_REACTORS
330
29
102
}
330
29
100
AcDbVisualStyle
  2
Shaded with edges
 70
    26
177
     2
291
     0
 71
     2
176
     1
 72
     2
176
     1
 73
     1
176
     1
 90
        2
176
     1
 40
0.6
176
     1
 41
30.0
176
     1
 63
     7
421
 16777215
176
     1
 74
     1
176
     1
 91
        2
176
     1
 64
     7
176
     1
 65
   257
176
     1
 75
     2
176
     1
175
     1
176
     1
 42
1.0
176
     1
 92
        8
176
     1
 66
   257
176
     1
 43
1.0
176
     1
 76
     1
176
     1
 77
     6
176
     1
 78
     2
176
     1
 67
     7
176
     1
 79
     3
176
     1
170
     0
176
     1
171
     0
176
     1
290
     0
176
     1
 93
        5
176
     1
 44
0.0
176
     1
173
     0
176
     1
1001
ACAD
1000
AcDbSavedByObjectVersion
1070
     0
  0
VISUALSTYLE
  5
3A
102
{ACAD_XDICTIONARY
360
11E
102
}
102
{ACAD_REACTORS
330
29
102
}
330
29
100
AcDbVisualStyle
  2
Shades of Gray
 70
    23
177
     2
291
     0
 71
     2
176
     1
 72
     2
176
     1
 73
     3
176
     1
 90
        0
176
     1
 40
0.6
176
     1
 41
30.0
176
     1
 63
     7
421
 16777215
176
     1
 74
     2
176
     1
 91
        2
176
     1
 64
     7
176
     1
 65
     7
176
     1
 75
     1
176
     1
175
     1
176
     1
 42
40.0
176
     1
 92
        8
176
     1
 66
     7
176
     1
 43
1.0
176
     1
 76
     1
176
     1
 77
     6
176
     1
 78
     2
176
     1
 67
     7
176
     1
 79
     3
176
     1
170
     0
176
     1
171
     0
176
     1
290
     0
176
     1
 93
        1
176
     1
 44
0.0
176
     1
173
     0
176
     1
1001
ACAD
1000
AcDbSavedByObjectVersion
1070
     0
  0
VISUALSTYLE
  5
3B
102
{ACAD_XDICTIONARY
360
120
102
}
102
{ACAD_REACTORS
330
29
102
}
330
29
100
AcDbVisualStyle
  2
Sketchy
 70
    24
177
     2
291
     0
 71
     1
176
     1
 72
     2
176
     1
 73
     2
176
     1
 90
        0
176
     1
 40
0.6
176
     1
 41
30.0
176
     1
 63
     7
421
 16777215
176
     1
 74
     2
176
     1
 91
        2
176
     1
 64
     7
176
     1
 65
     7
176
     1
 75
     1
176
     1
175
     1
176
     1
 42
40.0
176
     1
 92
       11
176
     1
 66
     7
176
     1
 43
1.0
176
     1
 76
     1
176
     1
 77
     6
176
     1
 78
     2
176
     1
 67
     7
176
     1
 79
     6
176
     1
170
     0
176
     1
171
     0
176
     1
290
     0
176
     1
 93
        1
176
     1
 44
0.0
176
     1
173
     0
176
     1
1001
ACAD
1000
AcDbSavedByObjectVersion
1070
     0
  0
VISUALSTYLE
  5
36
102
{ACAD_XDICTIONARY
360
116
102
}
102
{ACAD_REACTORS
330
29
102
}
330
29
100
AcDbVisualStyle
  2
Thicken
 70
    13
177
     2
291
     1
 71
     2
176
     1
 72
     2
176
     1
 73
     0
176
     1
 90
        0
176
     1
 40
0.6
176
     1
 41
30.0
176
     1
 63
     7
421
 16777215
176
     1
 74
     1
176
     1
 91
        4
176
     1
 64
     7
176
     1
 65
   257
176
     1
 75
     1
176
     1
175
     1
176
     1
 42
1.0
176
     1
 92
       12
176
     1
 66
     7
176
     1
 43
1.0
176
     1
 76
     1
176
     1
 77
     6
176
     1
 78
     2
176
     1
 67
     7
176
     1
 79
     5
176
     1
170
     0
176
     1
171
     0
176
     1
290
     0
176
     1
 93
        1
176
     1
 44
0.0
176
     1
173
     0
176
     1
1001
ACAD
1000
AcDbSavedByObjectVersion
1070
     0
  0
VISUALSTYLE
  5
30
102
{ACAD_XDICTIONARY
360
10A
102
}
102
{ACAD_REACTORS
330
29
102
}
330
29
100
AcDbVisualStyle
  2
Wireframe
 70
     5
177
     2
291
     0
 71
     0
176
     1
 72
     2
176
     1
 73
     0
176
     1
 90
        0
176
     1
 40
0.6
176
     1
 41
30.0
176
     1
 63
     7
421
 16777215
176
     1
 74
     1
176
     1
 91
        4
176
     1
 64
     7
176
     1
 65
   257
176
     1
 75
     1
176
     1
175
     1
176
     1
 42
1.0
176
     1
 92
        0
176
     1
 66
   257
176
     1
 43
1.0
176
     1
 76
     1
176
     1
 77
     6
176
     1
 78
     2
176
     1
 67
     7
176
     1
 79
     3
176
     1
170
     0
176
     1
171
     0
176
     1
290
     0
176
     1
 93
        1
176
     1
 44
0.0
176
     1
173
     0
176
     1
1001
ACAD
1000
AcDbSavedByObjectVersion
1070
     0
  0
VISUALSTYLE
  5
3C
102
{ACAD_XDICTIONARY
360
122
102
}
102
{ACAD_REACTORS
330
29
102
}
330
29
100
AcDbVisualStyle
  2
X-Ray
 70
    25
177
     2
291
     0
 71
     2
176
     1
 72
     2
176
     1
 73
     1
176
     1
 90
        1
176
     1
 40
0.5
176
     1
 41
30.0
176
     1
 63
     7
421
 16777215
176
     1
 74
     1
176
     1
 91
        0
176
     1
 64
     7
176
     1
 65
   257
176
     1
 75
     1
176
     1
175
     1
176
     1
 42
1.0
176
     1
 92
        8
176
     1
 66
     7
176
     1
 43
1.0
176
     1
 76
     1
176
     1
 77
     6
176
     1
 78
     2
176
     1
 67
     7
176
     1
 79
     3
176
     1
170
     0
176
     1
171
     0
176
     1
290
     0
176
     1
 93
       13
176
     1
 44
0.0
176
     1
173
     0
176
     1
1001
ACAD
1000
AcDbSavedByObjectVersion
1070
     0
  0
DICTIONARYVAR
  5
FA
102
{ACAD_REACTORS
330
F5
102
}
330
F5
100
DictionaryVariables
280
     0
  1
1:1
  0
DICTIONARYVAR
  5
F7
102
{ACAD_REACTORS
330
F5
102
}
330
F5
100
DictionaryVariables
280
     0
  1
STANDARD
  0
DICTIONARYVAR
  5
F6
102
{ACAD_REACTORS
330
F5
102
}
330
F5
100
DictionaryVariables
280
     0
  1
STANDARD
  0
DICTIONARYVAR
  5
F8
102
{ACAD_REACTORS
330
F5
102
}
330
F5
100
DictionaryVariables
280
     0
  1
Imperial24
  0
DICTIONARYVAR
  5
F9
102
{ACAD_REACTORS
330
F5
102
}
330
F5
100
DictionaryVariables
280
     0
  1
Imperial24
  0
DICTIONARY
  5
132
330
6B
100
AcDbDictionary
280
     1
281
     1
  3
ACAD_XREC_ROUNDTRIP
360
133
  0
DICTIONARY
  5
1A
330
19
100
AcDbDictionary
280
     1
281
     1
  3
BUMPTILE
360
1C
  3
DIFFUSETILE
360
1B
  3
OPACITYTILE
360
1F
  3
REFLECTIONTILE
360
1E
  3
REFRACTIONTILE
360
20
  3
SPECULARTILE
360
1D
  0
DICTIONARY
  5
12
330
11
100
AcDbDictionary
280
     1
281
     1
  3
BUMPTILE
360
14
  3
DIFFUSETILE
360
13
  3
OPACITYTILE
360
17
  3
REFLECTIONTILE
360
16
  3
REFRACTIONTILE
360
18
  3
SPECULARTILE
360
15
  0
DICTIONARY
  5
22
330
21
100
AcDbDictionary
280
     1
281
     1
  3
BUMPTILE
360
24
  3
DIFFUSETILE
360
23
  3
OPACITYTILE
360
27
  3
REFLECTIONTILE
360
26
  3
REFRACTIONTILE
360
28
  3
SPECULARTILE
360
25
  0
DICTIONARY
  5
12E
330
67
100
AcDbDictionary
280
     1
281
     1
  3
ACAD_XREC_ROUNDTRIP
360
12F
  0
DICTIONARY
  5
130
330
69
100
AcDbDictionary
280
     1
281
     1
  3
ACAD_XREC_ROUNDTRIP
360
131
  0
DICTIONARY
  5
FB
330
65
100
AcDbDictionary
280
     1
281
     1
  3
ACAD_ROUNDTRIP_2008_TABLESTYLE_CELLSTYLEMAP
360
FC
  0
DICTIONARY
  5
108
330
2F
100
AcDbDictionary
280
     1
281
     1
  3
ACAD_XREC_ROUNDTRIP
360
109
  0
DICTIONARY
  5
106
330
2E
100
AcDbDictionary
280
     1
281
     1
  3
ACAD_XREC_ROUNDTRIP
360
107
  0
DICTIONARY
  5
114
330
35
100
AcDbDictionary
280
     1
281
     1
  3
ACAD_XREC_ROUNDTRIP
360
115
  0
DICTIONARY
  5
11C
330
39
100
AcDbDictionary
280
     1
281
     1
  3
ACAD_XREC_ROUNDTRIP
360
11D
  0
DICTIONARY
  5
10E
330
32
100
AcDbDictionary
280
     1
281
     1
  3
ACAD_XREC_ROUNDTRIP
360
10F
  0
DICTIONARY
  5
112
330
34
100
AcDbDictionary
280
     1
281
     1
  3
ACAD_XREC_ROUNDTRIP
360
113
  0
DICTIONARY
  5
12C
330
41
100
AcDbDictionary
280
     1
281
     1
  3
ACAD_XREC_ROUNDTRIP
360
12D
  0
DICTIONARY
  5
11A
330
38
100
AcDbDictionary
280
     1
281
     1
  3
ACAD_XREC_ROUNDTRIP
360
11B
  0
DICTIONARY
  5
FE
330
2A
100
AcDbDictionary
280
     1
281
     1
  3
ACAD_XREC_ROUNDTRIP
360
FF
  0
DICTIONARY
  5
100
330
2B
100
AcDbDictionary
280
     1
281
     1
  3
ACAD_XREC_ROUNDTRIP
360
101
  0
DICTIONARY
  5
102
330
2C
100
AcDbDictionary
280
     1
281
     1
  3
ACAD_XREC_ROUNDTRIP
360
103
  0
DICTIONARY
  5
104
330
2D
100
AcDbDictionary
280
     1
281
     1
  3
ACAD_XREC_ROUNDTRIP
360
105
  0
DICTIONARY
  5
10C
330
31
100
AcDbDictionary
280
     1
281
     1
  3
ACAD_XREC_ROUNDTRIP
360
10D
  0
DICTIONARY
  5
128
330
3F
100
AcDbDictionary
280
     1
281
     1
  3
ACAD_XREC_ROUNDTRIP
360
129
  0
DICTIONARY
  5
118
330
37
100
AcDbDictionary
280
     1
281
     1
  3
ACAD_XREC_ROUNDTRIP
360
119
  0
DICTIONARY
  5
12A
330
40
100
AcDbDictionary
280
     1
281
     1
  3
ACAD_XREC_ROUNDTRIP
360
12B
  0
DICTIONARY
  5
110
330
33
100
AcDbDictionary
280
     1
281
     1
  3
ACAD_XREC_ROUNDTRIP
360
111
  0
DICTIONARY
  5
126
330
3E
100
AcDbDictionary
280
     1
281
     1
  3
ACAD_XREC_ROUNDTRIP
360
127
  0
DICTIONARY
  5
124
330
3D
100
AcDbDictionary
280
     1
281
     1
  3
ACAD_XREC_ROUNDTRIP
360
125
  0
DICTIONARY
  5
11E
330
3A
100
AcDbDictionary
280
     1
281
     1
  3
ACAD_XREC_ROUNDTRIP
360
11F
  0
DICTIONARY
  5
120
330
3B
100
AcDbDictionary
280
     1
281
     1
  3
ACAD_XREC_ROUNDTRIP
360
121
  0
DICTIONARY
  5
116
330
36
100
AcDbDictionary
280
     1
281
     1
  3
ACAD_XREC_ROUNDTRIP
360
117
  0
DICTIONARY
  5
10A
330
30
100
AcDbDictionary
280
     1
281
     1
  3
ACAD_XREC_ROUNDTRIP
360
10B
  0
DICTIONARY
  5
122
330
3C
100
AcDbDictionary
280
     1
281
     1
  3
ACAD_XREC_ROUNDTRIP
360
123
  0
XRECORD
  5
133
102
{ACAD_REACTORS
330
132
102
}
330
132
100
AcDbXrecord
280
     1
102
DISPLAYNAME
  1
Imperial24
102
FLAGS
 90
        0
  0
XRECORD
  5
1C
102
{ACAD_REACTORS
330
1A
102
}
330
1A
100
AcDbXrecord
280
     1
270
     1
271
     1
  0
XRECORD
  5
1B
102
{ACAD_REACTORS
330
1A
102
}
330
1A
100
AcDbXrecord
280
     1
270
     1
271
     1
  0
XRECORD
  5
1F
102
{ACAD_REACTORS
330
1A
102
}
330
1A
100
AcDbXrecord
280
     1
270
     1
271
     1
  0
XRECORD
  5
1E
102
{ACAD_REACTORS
330
1A
102
}
330
1A
100
AcDbXrecord
280
     1
270
     1
271
     1
  0
XRECORD
  5
20
102
{ACAD_REACTORS
330
1A
102
}
330
1A
100
AcDbXrecord
280
     1
270
     1
271
     1
  0
XRECORD
  5
1D
102
{ACAD_REACTORS
330
1A
102
}
330
1A
100
AcDbXrecord
280
     1
270
     1
271
     1
  0
XRECORD
  5
14
102
{ACAD_REACTORS
330
12
102
}
330
12
100
AcDbXrecord
280
     1
270
     1
271
     1
  0
XRECORD
  5
13
102
{ACAD_REACTORS
330
12
102
}
330
12
100
AcDbXrecord
280
     1
270
     1
271
     1
  0
XRECORD
  5
17
102
{ACAD_REACTORS
330
12
102
}
330
12
100
AcDbXrecord
280
     1
270
     1
271
     1
  0
XRECORD
  5
16
102
{ACAD_REACTORS
330
12
102
}
330
12
100
AcDbXrecord
280
     1
270
     1
271
     1
  0
XRECORD
  5
18
102
{ACAD_REACTORS
330
12
102
}
330
12
100
AcDbXrecord
280
     1
270
     1
271
     1
  0
XRECORD
  5
15
102
{ACAD_REACTORS
330
12
102
}
330
12
100
AcDbXrecord
280
     1
270
     1
271
     1
  0
XRECORD
  5
24
102
{ACAD_REACTORS
330
22
102
}
330
22
100
AcDbXrecord
280
     1
270
     1
271
     1
  0
XRECORD
  5
23
102
{ACAD_REACTORS
330
22
102
}
330
22
100
AcDbXrecord
280
     1
270
     1
271
     1
  0
XRECORD
  5
27
102
{ACAD_REACTORS
330
22
102
}
330
22
100
AcDbXrecord
280
     1
270
     1
271
     1
  0
XRECORD
  5
26
102
{ACAD_REACTORS
330
22
102
}
330
22
100
AcDbXrecord
280
     1
270
     1
271
     1
  0
XRECORD
  5
28
102
{ACAD_REACTORS
330
22
102
}
330
22
100
AcDbXrecord
280
     1
270
     1
271
     1
  0
XRECORD
  5
25
102
{ACAD_REACTORS
330
22
102
}
330
22
100
AcDbXrecord
280
     1
270
     1
271
     1
  0
XRECORD
  5
12F
102
{ACAD_REACTORS
330
12E
102
}
330
12E
100
AcDbXrecord
280
     1
102
ACAD_ROUNDTRIP_2012_MLEADER_STYLE
298
     1
  0
XRECORD
  5
131
102
{ACAD_REACTORS
330
130
102
}
330
130
100
AcDbXrecord
280
     1
102
DISPLAYNAME
  1
Imperial24
102
FLAGS
 90
        0
  0
CELLSTYLEMAP
  5
FC
102
{ACAD_REACTORS
330
FB
102
}
330
FB
100
AcDbCellStyleMap
 90
        3
300
CELLSTYLE
  1
TABLEFORMAT_BEGIN
 90
        5
170
     1
 91
        0
 92
    32768
 62
   257
 93
        1
300
CONTENTFORMAT
  1
CONTENTFORMAT_BEGIN
 90
        0
 91
        0
 92
      512
 93
        0
300

 40
0.0
140
1.0
 94
        5
 62
     0
340
55
144
0.25
309
CONTENTFORMAT_END
171
     0
 94
        0
309
TABLEFORMAT_END
  1
CELLSTYLE_BEGIN
 90
        1
 91
        1
300
_TITLE
309
CELLSTYLE_END
300
CELLSTYLE
  1
TABLEFORMAT_BEGIN
 90
        5
170
     1
 91
        0
 92
        0
 62
   257
 93
        1
300
CONTENTFORMAT
  1
CONTENTFORMAT_BEGIN
 90
        0
 91
        0
 92
      512
 93
        0
300

 40
0.0
140
1.0
 94
        5
 62
     0
340
55
144
0.18
309
CONTENTFORMAT_END
171
     0
 94
        0
309
TABLEFORMAT_END
  1
CELLSTYLE_BEGIN
 90
        2
 91
        1
300
_HEADER
309
CELLSTYLE_END
300
CELLSTYLE
  1
TABLEFORMAT_BEGIN
 90
        5
170
     1
 91
        0
 92
        0
 62
   257
 93
        1
300
CONTENTFORMAT
  1
CONTENTFORMAT_BEGIN
 90
        0
 91
        0
 92
      512
 93
        0
300

 40
0.0
140
1.0
 94
        2
 62
     0
340
55
144
0.18
309
CONTENTFORMAT_END
171
     0
 94
        0
309
TABLEFORMAT_END
  1
CELLSTYLE_BEGIN
 90
        3
 91
        2
300
_DATA
309
CELLSTYLE_END
  0
XRECORD
  5
109
102
{ACAD_REACTORS
330
108
102
}
330
108
100
AcDbXrecord
280
     1
102
RTVSPost2010Prop28
280
     1
102
RTVSPost2010PropOp28
 70
     1
102
RTVSPost2010Prop29
280
     1
102
RTVSPost2010PropOp29
 70
     1
102
RTVSPost2010Prop30
280
     0
102
RTVSPost2010PropOp30
 70
     1
102
RTVSPost2010Prop31
280
     0
102
RTVSPost2010PropOp31
 70
     1
102
RTVSPost2010Prop32
280
     0
102
RTVSPost2010PropOp32
 70
     1
102
RTVSPost2010Prop33
280
     0
102
RTVSPost2010PropOp33
 70
     1
102
RTVSPost2010Prop34
280
     0
102
RTVSPost2010PropOp34
 70
     1
102
RTVSPost2010Prop35
280
     0
102
RTVSPost2010PropOp35
 70
     1
102
RTVSPost2010Prop36
280
     0
102
RTVSPost2010PropOp36
 70
     1
102
RTVSPost2010Prop37
 90
       50
102
RTVSPost2010PropOp37
 70
     1
102
RTVSPost2010Prop38
140
0.0
102
RTVSPost2010PropOp38
 70
     1
102
RTVSPost2010Prop39
140
1.0
102
RTVSPost2010PropOp39
 70
     1
102
RTVSPost2010Prop40
 90
        0
102
RTVSPost2010PropOp40
 70
     1
102
RTVSPost2010Prop41ColorIndex
 90
       18
102
RTVSPost2010Prop41ColorRGB
 90
        0
102
RTVSPost2010PropOp41
 70
     1
102
RTVSPost2010Prop42
 90
       50
102
RTVSPost2010PropOp42
 70
     1
102
RTVSPost2010Prop43
 90
        3
102
RTVSPost2010PropOp43
 70
     1
102
RTVSPost2010Prop44ColorIndex
 90
        5
102
RTVSPost2010Prop44ColorRGB
 90
      255
102
RTVSPost2010PropOp44
 70
     1
102
RTVSPost2010Prop45
280
     0
102
RTVSPost2010PropOp45
 70
     1
102
RTVSPost2010Prop46
 90
       50
102
RTVSPost2010PropOp46
 70
     1
102
RTVSPost2010Prop47
 90
       50
102
RTVSPost2010PropOp47
 70
     1
102
RTVSPost2010Prop48
 90
       50
102
RTVSPost2010PropOp48
 70
     1
102
RTVSPost2010Prop49
280
     0
102
RTVSPost2010PropOp49
 70
     1
102
RTVSPost2010Prop50
 90
       50
102
RTVSPost2010PropOp50
 70
     1
102
RTVSPost2010Prop51ColorIndex
 90
      256
102
RTVSPost2010Prop51ColorRGB
 90
-16777216
102
RTVSPost2010PropOp51
 70
     0
102
RTVSPost2010Prop52
140
1.0
102
RTVSPost2010PropOp52
 70
     0
102
RTVSPost2010Prop53
 90
        2
102
RTVSPost2010PropOp53
 70
     1
102
RTVSPost2010Prop54
  1
strokes_ogs.tif
102
RTVSPost2010PropOp54
 70
     1
102
RTVSPost2010Prop55
280
     0
102
RTVSPost2010PropOp55
 70
     1
102
RTVSPost2010Prop56
140
1.0
102
RTVSPost2010PropOp56
 70
     1
102
RTVSPost2010Prop57
140
1.0
102
RTVSPost2010PropOp57
 70
     1
  0
XRECORD
  5
107
102
{ACAD_REACTORS
330
106
102
}
330
106
100
AcDbXrecord
280
     1
102
RTVSPost2010Prop28
280
     0
102
RTVSPost2010PropOp28
 70
     1
102
RTVSPost2010Prop29
280
     1
102
RTVSPost2010PropOp29
 70
     1
102
RTVSPost2010Prop30
280
     1
102
RTVSPost2010PropOp30
 70
     1
102
RTVSPost2010Prop31
280
     0
102
RTVSPost2010PropOp31
 70
     1
102
RTVSPost2010Prop32
280
     0
102
RTVSPost2010PropOp32
 70
     1
102
RTVSPost2010Prop33
280
     0
102
RTVSPost2010PropOp33
 70
     1
102
RTVSPost2010Prop34
280
     0
102
RTVSPost2010PropOp34
 70
     1
102
RTVSPost2010Prop35
280
     0
102
RTVSPost2010PropOp35
 70
     1
102
RTVSPost2010Prop36
280
     0
102
RTVSPost2010PropOp36
 70
     1
102
RTVSPost2010Prop37
 90
       50
102
RTVSPost2010PropOp37
 70
     1
102
RTVSPost2010Prop38
140
0.0
102
RTVSPost2010PropOp38
 70
     1
102
RTVSPost2010Prop39
140
1.0
102
RTVSPost2010PropOp39
 70
     1
102
RTVSPost2010Prop40
 90
        0
102
RTVSPost2010PropOp40
 70
     1
102
RTVSPost2010Prop41ColorIndex
 90
       18
102
RTVSPost2010Prop41ColorRGB
 90
        0
102
RTVSPost2010PropOp41
 70
     1
102
RTVSPost2010Prop42
 90
       50
102
RTVSPost2010PropOp42
 70
     1
102
RTVSPost2010Prop43
 90
        3
102
RTVSPost2010PropOp43
 70
     1
102
RTVSPost2010Prop44ColorIndex
 90
        5
102
RTVSPost2010Prop44ColorRGB
 90
      255
102
RTVSPost2010PropOp44
 70
     1
102
RTVSPost2010Prop45
280
     0
102
RTVSPost2010PropOp45
 70
     1
102
RTVSPost2010Prop46
 90
       50
102
RTVSPost2010PropOp46
 70
     1
102
RTVSPost2010Prop47
 90
       50
102
RTVSPost2010PropOp47
 70
     1
102
RTVSPost2010Prop48
 90
       50
102
RTVSPost2010PropOp48
 70
     1
102
RTVSPost2010Prop49
280
     0
102
RTVSPost2010PropOp49
 70
     1
102
RTVSPost2010Prop50
 90
       50
102
RTVSPost2010PropOp50
 70
     1
102
RTVSPost2010Prop51ColorIndex
 90
      256
102
RTVSPost2010Prop51ColorRGB
 90
-16777216
102
RTVSPost2010PropOp51
 70
     0
102
RTVSPost2010Prop52
140
1.0
102
RTVSPost2010PropOp52
 70
     0
102
RTVSPost2010Prop53
 90
        2
102
RTVSPost2010PropOp53
 70
     1
102
RTVSPost2010Prop54
  1
strokes_ogs.tif
102
RTVSPost2010PropOp54
 70
     1
102
RTVSPost2010Prop55
280
     0
102
RTVSPost2010PropOp55
 70
     1
102
RTVSPost2010Prop56
140
1.0
102
RTVSPost2010PropOp56
 70
     1
102
RTVSPost2010Prop57
140
1.0
102
RTVSPost2010PropOp57
 70
     1
  0
XRECORD
  5
115
102
{ACAD_REACTORS
330
114
102
}
330
114
100
AcDbXrecord
280
     1
102
RTVSPost2010Prop28
280
     0
102
RTVSPost2010PropOp28
 70
     1
102
RTVSPost2010Prop29
280
     1
102
RTVSPost2010PropOp29
 70
     1
102
RTVSPost2010Prop30
280
     1
102
RTVSPost2010PropOp30
 70
     1
102
RTVSPost2010Prop31
280
     0
102
RTVSPost2010PropOp31
 70
     1
102
RTVSPost2010Prop32
280
     0
102
RTVSPost2010PropOp32
 70
     1
102
RTVSPost2010Prop33
280
     0
102
RTVSPost2010PropOp33
 70
     1
102
RTVSPost2010Prop34
280
     0
102
RTVSPost2010PropOp34
 70
     1
102
RTVSPost2010Prop35
280
     0
102
RTVSPost2010PropOp35
 70
     1
102
RTVSPost2010Prop36
280
     0
102
RTVSPost2010PropOp36
 70
     1
102
RTVSPost2010Prop37
 90
       50
102
RTVSPost2010PropOp37
 70
     1
102
RTVSPost2010Prop38
140
0.0
102
RTVSPost2010PropOp38
 70
     1
102
RTVSPost2010Prop39
140
1.0
102
RTVSPost2010PropOp39
 70
     1
102
RTVSPost2010Prop40
 90
        0
102
RTVSPost2010PropOp40
 70
     1
102
RTVSPost2010Prop41ColorIndex
 90
       18
102
RTVSPost2010Prop41ColorRGB
 90
        0
102
RTVSPost2010PropOp41
 70
     1
102
RTVSPost2010Prop42
 90
       50
102
RTVSPost2010PropOp42
 70
     1
102
RTVSPost2010Prop43
 90
        3
102
RTVSPost2010PropOp43
 70
     1
102
RTVSPost2010Prop44ColorIndex
 90
        5
102
RTVSPost2010Prop44ColorRGB
 90
      255
102
RTVSPost2010PropOp44
 70
     1
102
RTVSPost2010Prop45
280
     0
102
RTVSPost2010PropOp45
 70
     1
102
RTVSPost2010Prop46
 90
       50
102
RTVSPost2010PropOp46
 70
     1
102
RTVSPost2010Prop47
 90
       50
102
RTVSPost2010PropOp47
 70
     1
102
RTVSPost2010Prop48
 90
       50
102
RTVSPost2010PropOp48
 70
     1
102
RTVSPost2010Prop49
280
     0
102
RTVSPost2010PropOp49
 70
     1
102
RTVSPost2010Prop50
 90
       50
102
RTVSPost2010PropOp50
 70
     1
102
RTVSPost2010Prop51ColorIndex
 90
      256
102
RTVSPost2010Prop51ColorRGB
 90
-16777216
102
RTVSPost2010PropOp51
 70
     0
102
RTVSPost2010Prop52
140
1.0
102
RTVSPost2010PropOp52
 70
     0
102
RTVSPost2010Prop53
 90
        2
102
RTVSPost2010PropOp53
 70
     1
102
RTVSPost2010Prop54
  1
strokes_ogs.tif
102
RTVSPost2010PropOp54
 70
     1
102
RTVSPost2010Prop55
280
     0
102
RTVSPost2010PropOp55
 70
     1
102
RTVSPost2010Prop56
140
1.0
102
RTVSPost2010PropOp56
 70
     1
102
RTVSPost2010Prop57
140
1.0
102
RTVSPost2010PropOp57
 70
     1
  0
XRECORD
  5
11D
102
{ACAD_REACTORS
330
11C
102
}
330
11C
100
AcDbXrecord
280
     1
102
RTVSPost2010Prop28
280
     0
102
RTVSPost2010PropOp28
 70
     1
102
RTVSPost2010Prop29
280
     1
102
RTVSPost2010PropOp29
 70
     1
102
RTVSPost2010Prop30
280
     1
102
RTVSPost2010PropOp30
 70
     1
102
RTVSPost2010Prop31
280
     0
102
RTVSPost2010PropOp31
 70
     1
102
RTVSPost2010Prop32
280
     0
102
RTVSPost2010PropOp32
 70
     1
102
RTVSPost2010Prop33
280
     0
102
RTVSPost2010PropOp33
 70
     1
102
RTVSPost2010Prop34
280
     0
102
RTVSPost2010PropOp34
 70
     1
102
RTVSPost2010Prop35
280
     0
102
RTVSPost2010PropOp35
 70
     1
102
RTVSPost2010Prop36
280
     0
102
RTVSPost2010PropOp36
 70
     1
102
RTVSPost2010Prop37
 90
       50
102
RTVSPost2010PropOp37
 70
     1
102
RTVSPost2010Prop38
140
0.0
102
RTVSPost2010PropOp38
 70
     1
102
RTVSPost2010Prop39
140
1.0
102
RTVSPost2010PropOp39
 70
     1
102
RTVSPost2010Prop40
 90
        0
102
RTVSPost2010PropOp40
 70
     1
102
RTVSPost2010Prop41ColorIndex
 90
       18
102
RTVSPost2010Prop41ColorRGB
 90
        0
102
RTVSPost2010PropOp41
 70
     1
102
RTVSPost2010Prop42
 90
       50
102
RTVSPost2010PropOp42
 70
     1
102
RTVSPost2010Prop43
 90
        3
102
RTVSPost2010PropOp43
 70
     1
102
RTVSPost2010Prop44ColorIndex
 90
        5
102
RTVSPost2010Prop44ColorRGB
 90
      255
102
RTVSPost2010PropOp44
 70
     1
102
RTVSPost2010Prop45
280
     0
102
RTVSPost2010PropOp45
 70
     1
102
RTVSPost2010Prop46
 90
       50
102
RTVSPost2010PropOp46
 70
     1
102
RTVSPost2010Prop47
 90
       50
102
RTVSPost2010PropOp47
 70
     1
102
RTVSPost2010Prop48
 90
       50
102
RTVSPost2010PropOp48
 70
     1
102
RTVSPost2010Prop49
280
     0
102
RTVSPost2010PropOp49
 70
     1
102
RTVSPost2010Prop50
 90
       50
102
RTVSPost2010PropOp50
 70
     1
102
RTVSPost2010Prop51ColorIndex
 90
      256
102
RTVSPost2010Prop51ColorRGB
 90
-16777216
102
RTVSPost2010PropOp51
 70
     0
102
RTVSPost2010Prop52
140
1.0
102
RTVSPost2010PropOp52
 70
     0
102
RTVSPost2010Prop53
 90
        2
102
RTVSPost2010PropOp53
 70
     1
102
RTVSPost2010Prop54
  1
strokes_ogs.tif
102
RTVSPost2010PropOp54
 70
     1
102
RTVSPost2010Prop55
280
     0
102
RTVSPost2010PropOp55
 70
     1
102
RTVSPost2010Prop56
140
1.0
102
RTVSPost2010PropOp56
 70
     1
102
RTVSPost2010Prop57
140
1.0
102
RTVSPost2010PropOp57
 70
     1
  0
XRECORD
  5
10F
102
{ACAD_REACTORS
330
10E
102
}
330
10E
100
AcDbXrecord
280
     1
102
RTVSPost2010Prop28
280
     0
102
RTVSPost2010PropOp28
 70
     1
102
RTVSPost2010Prop29
280
     1
102
RTVSPost2010PropOp29
 70
     1
102
RTVSPost2010Prop30
280
     1
102
RTVSPost2010PropOp30
 70
     1
102
RTVSPost2010Prop31
280
     0
102
RTVSPost2010PropOp31
 70
     1
102
RTVSPost2010Prop32
280
     0
102
RTVSPost2010PropOp32
 70
     1
102
RTVSPost2010Prop33
280
     0
102
RTVSPost2010PropOp33
 70
     1
102
RTVSPost2010Prop34
280
     0
102
RTVSPost2010PropOp34
 70
     1
102
RTVSPost2010Prop35
280
     0
102
RTVSPost2010PropOp35
 70
     1
102
RTVSPost2010Prop36
280
     0
102
RTVSPost2010PropOp36
 70
     1
102
RTVSPost2010Prop37
 90
       50
102
RTVSPost2010PropOp37
 70
     1
102
RTVSPost2010Prop38
140
0.0
102
RTVSPost2010PropOp38
 70
     1
102
RTVSPost2010Prop39
140
1.0
102
RTVSPost2010PropOp39
 70
     1
102
RTVSPost2010Prop40
 90
        0
102
RTVSPost2010PropOp40
 70
     1
102
RTVSPost2010Prop41ColorIndex
 90
       18
102
RTVSPost2010Prop41ColorRGB
 90
        0
102
RTVSPost2010PropOp41
 70
     1
102
RTVSPost2010Prop42
 90
       50
102
RTVSPost2010PropOp42
 70
     1
102
RTVSPost2010Prop43
 90
        3
102
RTVSPost2010PropOp43
 70
     1
102
RTVSPost2010Prop44ColorIndex
 90
        5
102
RTVSPost2010Prop44ColorRGB
 90
      255
102
RTVSPost2010PropOp44
 70
     1
102
RTVSPost2010Prop45
280
     0
102
RTVSPost2010PropOp45
 70
     1
102
RTVSPost2010Prop46
 90
       50
102
RTVSPost2010PropOp46
 70
     1
102
RTVSPost2010Prop47
 90
       50
102
RTVSPost2010PropOp47
 70
     1
102
RTVSPost2010Prop48
 90
       50
102
RTVSPost2010PropOp48
 70
     1
102
RTVSPost2010Prop49
280
     0
102
RTVSPost2010PropOp49
 70
     1
102
RTVSPost2010Prop50
 90
       50
102
RTVSPost2010PropOp50
 70
     1
102
RTVSPost2010Prop51ColorIndex
 90
      256
102
RTVSPost2010Prop51ColorRGB
 90
-16777216
102
RTVSPost2010PropOp51
 70
     0
102
RTVSPost2010Prop52
140
1.0
102
RTVSPost2010PropOp52
 70
     0
102
RTVSPost2010Prop53
 90
        2
102
RTVSPost2010PropOp53
 70
     1
102
RTVSPost2010Prop54
  1
strokes_ogs.tif
102
RTVSPost2010PropOp54
 70
     1
102
RTVSPost2010Prop55
280
     0
102
RTVSPost2010PropOp55
 70
     1
102
RTVSPost2010Prop56
140
1.0
102
RTVSPost2010PropOp56
 70
     1
102
RTVSPost2010Prop57
140
1.0
102
RTVSPost2010PropOp57
 70
     1
  0
XRECORD
  5
113
102
{ACAD_REACTORS
330
112
102
}
330
112
100
AcDbXrecord
280
     1
102
RTVSPost2010Prop28
280
     0
102
RTVSPost2010PropOp28
 70
     1
102
RTVSPost2010Prop29
280
     1
102
RTVSPost2010PropOp29
 70
     1
102
RTVSPost2010Prop30
280
     1
102
RTVSPost2010PropOp30
 70
     1
102
RTVSPost2010Prop31
280
     0
102
RTVSPost2010PropOp31
 70
     1
102
RTVSPost2010Prop32
280
     0
102
RTVSPost2010PropOp32
 70
     1
102
RTVSPost2010Prop33
280
     0
102
RTVSPost2010PropOp33
 70
     1
102
RTVSPost2010Prop34
280
     0
102
RTVSPost2010PropOp34
 70
     1
102
RTVSPost2010Prop35
280
     0
102
RTVSPost2010PropOp35
 70
     1
102
RTVSPost2010Prop36
280
     0
102
RTVSPost2010PropOp36
 70
     1
102
RTVSPost2010Prop37
 90
       50
102
RTVSPost2010PropOp37
 70
     1
102
RTVSPost2010Prop38
140
0.0
102
RTVSPost2010PropOp38
 70
     1
102
RTVSPost2010Prop39
140
1.0
102
RTVSPost2010PropOp39
 70
     1
102
RTVSPost2010Prop40
 90
        0
102
RTVSPost2010PropOp40
 70
     1
102
RTVSPost2010Prop41ColorIndex
 90
       18
102
RTVSPost2010Prop41ColorRGB
 90
        0
102
RTVSPost2010PropOp41
 70
     1
102
RTVSPost2010Prop42
 90
       50
102
RTVSPost2010PropOp42
 70
     1
102
RTVSPost2010Prop43
 90
        3
102
RTVSPost2010PropOp43
 70
     1
102
RTVSPost2010Prop44ColorIndex
 90
        5
102
RTVSPost2010Prop44ColorRGB
 90
      255
102
RTVSPost2010PropOp44
 70
     1
102
RTVSPost2010Prop45
280
     0
102
RTVSPost2010PropOp45
 70
     1
102
RTVSPost2010Prop46
 90
       50
102
RTVSPost2010PropOp46
 70
     1
102
RTVSPost2010Prop47
 90
       50
102
RTVSPost2010PropOp47
 70
     1
102
RTVSPost2010Prop48
 90
       50
102
RTVSPost2010PropOp48
 70
     1
102
RTVSPost2010Prop49
280
     0
102
RTVSPost2010PropOp49
 70
     1
102
RTVSPost2010Prop50
 90
       50
102
RTVSPost2010PropOp50
 70
     1
102
RTVSPost2010Prop51ColorIndex
 90
      256
102
RTVSPost2010Prop51ColorRGB
 90
-16777216
102
RTVSPost2010PropOp51
 70
     0
102
RTVSPost2010Prop52
140
1.0
102
RTVSPost2010PropOp52
 70
     0
102
RTVSPost2010Prop53
 90
        2
102
RTVSPost2010PropOp53
 70
     1
102
RTVSPost2010Prop54
  1
strokes_ogs.tif
102
RTVSPost2010PropOp54
 70
     1
102
RTVSPost2010Prop55
280
     0
102
RTVSPost2010PropOp55
 70
     1
102
RTVSPost2010Prop56
140
1.0
102
RTVSPost2010PropOp56
 70
     1
102
RTVSPost2010Prop57
140
1.0
102
RTVSPost2010PropOp57
 70
     1
  0
XRECORD
  5
12D
102
{ACAD_REACTORS
330
12C
102
}
330
12C
100
AcDbXrecord
280
     1
102
RTVSPost2010Prop28
280
     0
102
RTVSPost2010PropOp28
 70
     0
102
RTVSPost2010Prop29
280
     1
102
RTVSPost2010PropOp29
 70
     0
102
RTVSPost2010Prop30
280
     1
102
RTVSPost2010PropOp30
 70
     0
102
RTVSPost2010Prop31
280
     0
102
RTVSPost2010PropOp31
 70
     0
102
RTVSPost2010Prop32
280
     0
102
RTVSPost2010PropOp32
 70
     0
102
RTVSPost2010Prop33
280
     0
102
RTVSPost2010PropOp33
 70
     0
102
RTVSPost2010Prop34
280
     0
102
RTVSPost2010PropOp34
 70
     0
102
RTVSPost2010Prop35
280
     0
102
RTVSPost2010PropOp35
 70
     0
102
RTVSPost2010Prop36
280
     0
102
RTVSPost2010PropOp36
 70
     0
102
RTVSPost2010Prop37
 90
       50
102
RTVSPost2010PropOp37
 70
     0
102
RTVSPost2010Prop38
140
0.0
102
RTVSPost2010PropOp38
 70
     0
102
RTVSPost2010Prop39
140
1.0
102
RTVSPost2010PropOp39
 70
     0
102
RTVSPost2010Prop40
 90
        0
102
RTVSPost2010PropOp40
 70
     0
102
RTVSPost2010Prop41ColorIndex
 90
       18
102
RTVSPost2010Prop41ColorRGB
 90
        0
102
RTVSPost2010PropOp41
 70
     0
102
RTVSPost2010Prop42
 90
       50
102
RTVSPost2010PropOp42
 70
     0
102
RTVSPost2010Prop43
 90
        3
102
RTVSPost2010PropOp43
 70
     0
102
RTVSPost2010Prop44ColorIndex
 90
        5
102
RTVSPost2010Prop44ColorRGB
 90
      255
102
RTVSPost2010PropOp44
 70
     0
102
RTVSPost2010Prop45
280
     0
102
RTVSPost2010PropOp45
 70
     0
102
RTVSPost2010Prop46
 90
       50
102
RTVSPost2010PropOp46
 70
     0
102
RTVSPost2010Prop47
 90
       50
102
RTVSPost2010PropOp47
 70
     0
102
RTVSPost2010Prop48
 90
       50
102
RTVSPost2010PropOp48
 70
     0
102
RTVSPost2010Prop49
280
     0
102
RTVSPost2010PropOp49
 70
     0
102
RTVSPost2010Prop50
 90
       50
102
RTVSPost2010PropOp50
 70
     0
102
RTVSPost2010Prop51ColorIndex
 90
      256
102
RTVSPost2010Prop51ColorRGB
 90
-16777216
102
RTVSPost2010PropOp51
 70
     0
102
RTVSPost2010Prop52
140
1.0
102
RTVSPost2010PropOp52
 70
     0
102
RTVSPost2010Prop53
 90
        2
102
RTVSPost2010PropOp53
 70
     0
102
RTVSPost2010Prop54
  1
strokes_ogs.tif
102
RTVSPost2010PropOp54
 70
     0
102
RTVSPost2010Prop55
280
     0
102
RTVSPost2010PropOp55
 70
     0
102
RTVSPost2010Prop56
140
1.0
102
RTVSPost2010PropOp56
 70
     0
102
RTVSPost2010Prop57
140
1.0
102
RTVSPost2010PropOp57
 70
     0
  0
XRECORD
  5
11B
102
{ACAD_REACTORS
330
11A
102
}
330
11A
100
AcDbXrecord
280
     1
102
RTVSPost2010Prop28
280
     0
102
RTVSPost2010PropOp28
 70
     1
102
RTVSPost2010Prop29
280
     1
102
RTVSPost2010PropOp29
 70
     1
102
RTVSPost2010Prop30
280
     1
102
RTVSPost2010PropOp30
 70
     1
102
RTVSPost2010Prop31
280
     0
102
RTVSPost2010PropOp31
 70
     1
102
RTVSPost2010Prop32
280
     0
102
RTVSPost2010PropOp32
 70
     1
102
RTVSPost2010Prop33
280
     0
102
RTVSPost2010PropOp33
 70
     1
102
RTVSPost2010Prop34
280
     0
102
RTVSPost2010PropOp34
 70
     1
102
RTVSPost2010Prop35
280
     0
102
RTVSPost2010PropOp35
 70
     1
102
RTVSPost2010Prop36
280
     0
102
RTVSPost2010PropOp36
 70
     1
102
RTVSPost2010Prop37
 90
       50
102
RTVSPost2010PropOp37
 70
     1
102
RTVSPost2010Prop38
140
0.0
102
RTVSPost2010PropOp38
 70
     1
102
RTVSPost2010Prop39
140
1.0
102
RTVSPost2010PropOp39
 70
     1
102
RTVSPost2010Prop40
 90
        0
102
RTVSPost2010PropOp40
 70
     1
102
RTVSPost2010Prop41ColorIndex
 90
       18
102
RTVSPost2010Prop41ColorRGB
 90
        0
102
RTVSPost2010PropOp41
 70
     1
102
RTVSPost2010Prop42
 90
       50
102
RTVSPost2010PropOp42
 70
     1
102
RTVSPost2010Prop43
 90
        3
102
RTVSPost2010PropOp43
 70
     1
102
RTVSPost2010Prop44ColorIndex
 90
        5
102
RTVSPost2010Prop44ColorRGB
 90
      255
102
RTVSPost2010PropOp44
 70
     1
102
RTVSPost2010Prop45
280
     0
102
RTVSPost2010PropOp45
 70
     1
102
RTVSPost2010Prop46
 90
       50
102
RTVSPost2010PropOp46
 70
     1
102
RTVSPost2010Prop47
 90
       50
102
RTVSPost2010PropOp47
 70
     1
102
RTVSPost2010Prop48
 90
       50
102
RTVSPost2010PropOp48
 70
     1
102
RTVSPost2010Prop49
280
     0
102
RTVSPost2010PropOp49
 70
     1
102
RTVSPost2010Prop50
 90
       50
102
RTVSPost2010PropOp50
 70
     1
102
RTVSPost2010Prop51ColorIndex
 90
      256
102
RTVSPost2010Prop51ColorRGB
 90
-16777216
102
RTVSPost2010PropOp51
 70
     0
102
RTVSPost2010Prop52
140
1.0
102
RTVSPost2010PropOp52
 70
     0
102
RTVSPost2010Prop53
 90
        2
102
RTVSPost2010PropOp53
 70
     1
102
RTVSPost2010Prop54
  1
strokes_ogs.tif
102
RTVSPost2010PropOp54
 70
     1
102
RTVSPost2010Prop55
280
     0
102
RTVSPost2010PropOp55
 70
     1
102
RTVSPost2010Prop56
140
1.0
102
RTVSPost2010PropOp56
 70
     1
102
RTVSPost2010Prop57
140
1.0
102
RTVSPost2010PropOp57
 70
     1
  0
XRECORD
  5
FF
102
{ACAD_REACTORS
330
FE
102
}
330
FE
100
AcDbXrecord
280
     1
102
RTVSPost2010Prop28
280
     0
102
RTVSPost2010PropOp28
 70
     1
102
RTVSPost2010Prop29
280
     1
102
RTVSPost2010PropOp29
 70
     1
102
RTVSPost2010Prop30
280
     1
102
RTVSPost2010PropOp30
 70
     1
102
RTVSPost2010Prop31
280
     0
102
RTVSPost2010PropOp31
 70
     1
102
RTVSPost2010Prop32
280
     0
102
RTVSPost2010PropOp32
 70
     1
102
RTVSPost2010Prop33
280
     0
102
RTVSPost2010PropOp33
 70
     1
102
RTVSPost2010Prop34
280
     0
102
RTVSPost2010PropOp34
 70
     1
102
RTVSPost2010Prop35
280
     0
102
RTVSPost2010PropOp35
 70
     1
102
RTVSPost2010Prop36
280
     0
102
RTVSPost2010PropOp36
 70
     1
102
RTVSPost2010Prop37
 90
       50
102
RTVSPost2010PropOp37
 70
     1
102
RTVSPost2010Prop38
140
0.0
102
RTVSPost2010PropOp38
 70
     1
102
RTVSPost2010Prop39
140
1.0
102
RTVSPost2010PropOp39
 70
     1
102
RTVSPost2010Prop40
 90
        0
102
RTVSPost2010PropOp40
 70
     1
102
RTVSPost2010Prop41ColorIndex
 90
       18
102
RTVSPost2010Prop41ColorRGB
 90
        0
102
RTVSPost2010PropOp41
 70
     1
102
RTVSPost2010Prop42
 90
       50
102
RTVSPost2010PropOp42
 70
     1
102
RTVSPost2010Prop43
 90
        3
102
RTVSPost2010PropOp43
 70
     1
102
RTVSPost2010Prop44ColorIndex
 90
        5
102
RTVSPost2010Prop44ColorRGB
 90
      255
102
RTVSPost2010PropOp44
 70
     1
102
RTVSPost2010Prop45
280
     0
102
RTVSPost2010PropOp45
 70
     1
102
RTVSPost2010Prop46
 90
       50
102
RTVSPost2010PropOp46
 70
     1
102
RTVSPost2010Prop47
 90
       50
102
RTVSPost2010PropOp47
 70
     1
102
RTVSPost2010Prop48
 90
       50
102
RTVSPost2010PropOp48
 70
     1
102
RTVSPost2010Prop49
280
     0
102
RTVSPost2010PropOp49
 70
     1
102
RTVSPost2010Prop50
 90
       50
102
RTVSPost2010PropOp50
 70
     1
102
RTVSPost2010Prop51ColorIndex
 90
      256
102
RTVSPost2010Prop51ColorRGB
 90
-16777216
102
RTVSPost2010PropOp51
 70
     0
102
RTVSPost2010Prop52
140
1.0
102
RTVSPost2010PropOp52
 70
     0
102
RTVSPost2010Prop53
 90
        2
102
RTVSPost2010PropOp53
 70
     1
102
RTVSPost2010Prop54
  1
strokes_ogs.tif
102
RTVSPost2010PropOp54
 70
     1
102
RTVSPost2010Prop55
280
     0
102
RTVSPost2010PropOp55
 70
     1
102
RTVSPost2010Prop56
140
1.0
102
RTVSPost2010PropOp56
 70
     1
102
RTVSPost2010Prop57
140
1.0
102
RTVSPost2010PropOp57
 70
     1
  0
XRECORD
  5
101
102
{ACAD_REACTORS
330
100
102
}
330
100
100
AcDbXrecord
280
     1
102
RTVSPost2010Prop28
280
     0
102
RTVSPost2010PropOp28
 70
     1
102
RTVSPost2010Prop29
280
     1
102
RTVSPost2010PropOp29
 70
     1
102
RTVSPost2010Prop30
280
     1
102
RTVSPost2010PropOp30
 70
     1
102
RTVSPost2010Prop31
280
     0
102
RTVSPost2010PropOp31
 70
     1
102
RTVSPost2010Prop32
280
     0
102
RTVSPost2010PropOp32
 70
     1
102
RTVSPost2010Prop33
280
     0
102
RTVSPost2010PropOp33
 70
     1
102
RTVSPost2010Prop34
280
     0
102
RTVSPost2010PropOp34
 70
     1
102
RTVSPost2010Prop35
280
     0
102
RTVSPost2010PropOp35
 70
     1
102
RTVSPost2010Prop36
280
     0
102
RTVSPost2010PropOp36
 70
     1
102
RTVSPost2010Prop37
 90
       50
102
RTVSPost2010PropOp37
 70
     1
102
RTVSPost2010Prop38
140
0.0
102
RTVSPost2010PropOp38
 70
     1
102
RTVSPost2010Prop39
140
1.0
102
RTVSPost2010PropOp39
 70
     1
102
RTVSPost2010Prop40
 90
        0
102
RTVSPost2010PropOp40
 70
     1
102
RTVSPost2010Prop41ColorIndex
 90
       18
102
RTVSPost2010Prop41ColorRGB
 90
        0
102
RTVSPost2010PropOp41
 70
     1
102
RTVSPost2010Prop42
 90
       50
102
RTVSPost2010PropOp42
 70
     1
102
RTVSPost2010Prop43
 90
        3
102
RTVSPost2010PropOp43
 70
     1
102
RTVSPost2010Prop44ColorIndex
 90
        5
102
RTVSPost2010Prop44ColorRGB
 90
      255
102
RTVSPost2010PropOp44
 70
     1
102
RTVSPost2010Prop45
280
     0
102
RTVSPost2010PropOp45
 70
     1
102
RTVSPost2010Prop46
 90
       50
102
RTVSPost2010PropOp46
 70
     1
102
RTVSPost2010Prop47
 90
       50
102
RTVSPost2010PropOp47
 70
     1
102
RTVSPost2010Prop48
 90
       50
102
RTVSPost2010PropOp48
 70
     1
102
RTVSPost2010Prop49
280
     0
102
RTVSPost2010PropOp49
 70
     1
102
RTVSPost2010Prop50
 90
       50
102
RTVSPost2010PropOp50
 70
     1
102
RTVSPost2010Prop51ColorIndex
 90
      256
102
RTVSPost2010Prop51ColorRGB
 90
-16777216
102
RTVSPost2010PropOp51
 70
     0
102
RTVSPost2010Prop52
140
1.0
102
RTVSPost2010PropOp52
 70
     0
102
RTVSPost2010Prop53
 90
        2
102
RTVSPost2010PropOp53
 70
     1
102
RTVSPost2010Prop54
  1
strokes_ogs.tif
102
RTVSPost2010PropOp54
 70
     1
102
RTVSPost2010Prop55
280
     0
102
RTVSPost2010PropOp55
 70
     1
102
RTVSPost2010Prop56
140
1.0
102
RTVSPost2010PropOp56
 70
     1
102
RTVSPost2010Prop57
140
1.0
102
RTVSPost2010PropOp57
 70
     1
  0
XRECORD
  5
103
102
{ACAD_REACTORS
330
102
102
}
330
102
100
AcDbXrecord
280
     1
102
RTVSPost2010Prop28
280
     0
102
RTVSPost2010PropOp28
 70
     1
102
RTVSPost2010Prop29
280
     1
102
RTVSPost2010PropOp29
 70
     1
102
RTVSPost2010Prop30
280
     1
102
RTVSPost2010PropOp30
 70
     1
102
RTVSPost2010Prop31
280
     0
102
RTVSPost2010PropOp31
 70
     1
102
RTVSPost2010Prop32
280
     0
102
RTVSPost2010PropOp32
 70
     1
102
RTVSPost2010Prop33
280
     0
102
RTVSPost2010PropOp33
 70
     1
102
RTVSPost2010Prop34
280
     0
102
RTVSPost2010PropOp34
 70
     1
102
RTVSPost2010Prop35
280
     0
102
RTVSPost2010PropOp35
 70
     1
102
RTVSPost2010Prop36
280
     0
102
RTVSPost2010PropOp36
 70
     1
102
RTVSPost2010Prop37
 90
       50
102
RTVSPost2010PropOp37
 70
     1
102
RTVSPost2010Prop38
140
0.0
102
RTVSPost2010PropOp38
 70
     1
102
RTVSPost2010Prop39
140
1.0
102
RTVSPost2010PropOp39
 70
     1
102
RTVSPost2010Prop40
 90
        0
102
RTVSPost2010PropOp40
 70
     1
102
RTVSPost2010Prop41ColorIndex
 90
       18
102
RTVSPost2010Prop41ColorRGB
 90
        0
102
RTVSPost2010PropOp41
 70
     1
102
RTVSPost2010Prop42
 90
       50
102
RTVSPost2010PropOp42
 70
     1
102
RTVSPost2010Prop43
 90
        3
102
RTVSPost2010PropOp43
 70
     1
102
RTVSPost2010Prop44ColorIndex
 90
        5
102
RTVSPost2010Prop44ColorRGB
 90
      255
102
RTVSPost2010PropOp44
 70
     1
102
RTVSPost2010Prop45
280
     0
102
RTVSPost2010PropOp45
 70
     1
102
RTVSPost2010Prop46
 90
       50
102
RTVSPost2010PropOp46
 70
     1
102
RTVSPost2010Prop47
 90
       50
102
RTVSPost2010PropOp47
 70
     1
102
RTVSPost2010Prop48
 90
       50
102
RTVSPost2010PropOp48
 70
     1
102
RTVSPost2010Prop49
280
     0
102
RTVSPost2010PropOp49
 70
     1
102
RTVSPost2010Prop50
 90
       50
102
RTVSPost2010PropOp50
 70
     1
102
RTVSPost2010Prop51ColorIndex
 90
      256
102
RTVSPost2010Prop51ColorRGB
 90
-16777216
102
RTVSPost2010PropOp51
 70
     0
102
RTVSPost2010Prop52
140
1.0
102
RTVSPost2010PropOp52
 70
     0
102
RTVSPost2010Prop53
 90
        2
102
RTVSPost2010PropOp53
 70
     1
102
RTVSPost2010Prop54
  1
strokes_ogs.tif
102
RTVSPost2010PropOp54
 70
     1
102
RTVSPost2010Prop55
280
     0
102
RTVSPost2010PropOp55
 70
     1
102
RTVSPost2010Prop56
140
1.0
102
RTVSPost2010PropOp56
 70
     1
102
RTVSPost2010Prop57
140
1.0
102
RTVSPost2010PropOp57
 70
     1
  0
XRECORD
  5
105
102
{ACAD_REACTORS
330
104
102
}
330
104
100
AcDbXrecord
280
     1
102
RTVSPost2010Prop28
280
     0
102
RTVSPost2010PropOp28
 70
     1
102
RTVSPost2010Prop29
280
     1
102
RTVSPost2010PropOp29
 70
     1
102
RTVSPost2010Prop30
280
     1
102
RTVSPost2010PropOp30
 70
     1
102
RTVSPost2010Prop31
280
     0
102
RTVSPost2010PropOp31
 70
     1
102
RTVSPost2010Prop32
280
     0
102
RTVSPost2010PropOp32
 70
     1
102
RTVSPost2010Prop33
280
     0
102
RTVSPost2010PropOp33
 70
     1
102
RTVSPost2010Prop34
280
     0
102
RTVSPost2010PropOp34
 70
     1
102
RTVSPost2010Prop35
280
     0
102
RTVSPost2010PropOp35
 70
     1
102
RTVSPost2010Prop36
280
     0
102
RTVSPost2010PropOp36
 70
     1
102
RTVSPost2010Prop37
 90
       50
102
RTVSPost2010PropOp37
 70
     1
102
RTVSPost2010Prop38
140
0.0
102
RTVSPost2010PropOp38
 70
     1
102
RTVSPost2010Prop39
140
1.0
102
RTVSPost2010PropOp39
 70
     1
102
RTVSPost2010Prop40
 90
        0
102
RTVSPost2010PropOp40
 70
     1
102
RTVSPost2010Prop41ColorIndex
 90
       18
102
RTVSPost2010Prop41ColorRGB
 90
        0
102
RTVSPost2010PropOp41
 70
     1
102
RTVSPost2010Prop42
 90
       50
102
RTVSPost2010PropOp42
 70
     1
102
RTVSPost2010Prop43
 90
        3
102
RTVSPost2010PropOp43
 70
     1
102
RTVSPost2010Prop44ColorIndex
 90
        5
102
RTVSPost2010Prop44ColorRGB
 90
      255
102
RTVSPost2010PropOp44
 70
     1
102
RTVSPost2010Prop45
280
     0
102
RTVSPost2010PropOp45
 70
     1
102
RTVSPost2010Prop46
 90
       50
102
RTVSPost2010PropOp46
 70
     1
102
RTVSPost2010Prop47
 90
       50
102
RTVSPost2010PropOp47
 70
     1
102
RTVSPost2010Prop48
 90
       50
102
RTVSPost2010PropOp48
 70
     1
102
RTVSPost2010Prop49
280
     0
102
RTVSPost2010PropOp49
 70
     1
102
RTVSPost2010Prop50
 90
       50
102
RTVSPost2010PropOp50
 70
     1
102
RTVSPost2010Prop51ColorIndex
 90
      256
102
RTVSPost2010Prop51ColorRGB
 90
-16777216
102
RTVSPost2010PropOp51
 70
     0
102
RTVSPost2010Prop52
140
1.0
102
RTVSPost2010PropOp52
 70
     0
102
RTVSPost2010Prop53
 90
        2
102
RTVSPost2010PropOp53
 70
     1
102
RTVSPost2010Prop54
  1
strokes_ogs.tif
102
RTVSPost2010PropOp54
 70
     1
102
RTVSPost2010Prop55
280
     0
102
RTVSPost2010PropOp55
 70
     1
102
RTVSPost2010Prop56
140
1.0
102
RTVSPost2010PropOp56
 70
     1
102
RTVSPost2010Prop57
140
1.0
102
RTVSPost2010PropOp57
 70
     1
  0
XRECORD
  5
10D
102
{ACAD_REACTORS
330
10C
102
}
330
10C
100
AcDbXrecord
280
     1
102
RTVSPost2010Prop28
280
     0
102
RTVSPost2010PropOp28
 70
     1
102
RTVSPost2010Prop29
280
     1
102
RTVSPost2010PropOp29
 70
     1
102
RTVSPost2010Prop30
280
     1
102
RTVSPost2010PropOp30
 70
     1
102
RTVSPost2010Prop31
280
     0
102
RTVSPost2010PropOp31
 70
     1
102
RTVSPost2010Prop32
280
     0
102
RTVSPost2010PropOp32
 70
     1
102
RTVSPost2010Prop33
280
     0
102
RTVSPost2010PropOp33
 70
     1
102
RTVSPost2010Prop34
280
     0
102
RTVSPost2010PropOp34
 70
     1
102
RTVSPost2010Prop35
280
     0
102
RTVSPost2010PropOp35
 70
     1
102
RTVSPost2010Prop36
280
     0
102
RTVSPost2010PropOp36
 70
     1
102
RTVSPost2010Prop37
 90
       50
102
RTVSPost2010PropOp37
 70
     1
102
RTVSPost2010Prop38
140
0.0
102
RTVSPost2010PropOp38
 70
     1
102
RTVSPost2010Prop39
140
1.0
102
RTVSPost2010PropOp39
 70
     1
102
RTVSPost2010Prop40
 90
        0
102
RTVSPost2010PropOp40
 70
     1
102
RTVSPost2010Prop41ColorIndex
 90
       18
102
RTVSPost2010Prop41ColorRGB
 90
        0
102
RTVSPost2010PropOp41
 70
     1
102
RTVSPost2010Prop42
 90
       50
102
RTVSPost2010PropOp42
 70
     1
102
RTVSPost2010Prop43
 90
        3
102
RTVSPost2010PropOp43
 70
     1
102
RTVSPost2010Prop44ColorIndex
 90
        5
102
RTVSPost2010Prop44ColorRGB
 90
      255
102
RTVSPost2010PropOp44
 70
     1
102
RTVSPost2010Prop45
280
     0
102
RTVSPost2010PropOp45
 70
     1
102
RTVSPost2010Prop46
 90
       50
102
RTVSPost2010PropOp46
 70
     1
102
RTVSPost2010Prop47
 90
       50
102
RTVSPost2010PropOp47
 70
     1
102
RTVSPost2010Prop48
 90
       50
102
RTVSPost2010PropOp48
 70
     1
102
RTVSPost2010Prop49
280
     0
102
RTVSPost2010PropOp49
 70
     1
102
RTVSPost2010Prop50
 90
       50
102
RTVSPost2010PropOp50
 70
     1
102
RTVSPost2010Prop51ColorIndex
 90
      256
102
RTVSPost2010Prop51ColorRGB
 90
-16777216
102
RTVSPost2010PropOp51
 70
     0
102
RTVSPost2010Prop52
140
1.0
102
RTVSPost2010PropOp52
 70
     0
102
RTVSPost2010Prop53
 90
        2
102
RTVSPost2010PropOp53
 70
     1
102
RTVSPost2010Prop54
  1
strokes_ogs.tif
102
RTVSPost2010PropOp54
 70
     1
102
RTVSPost2010Prop55
280
     0
102
RTVSPost2010PropOp55
 70
     1
102
RTVSPost2010Prop56
140
1.0
102
RTVSPost2010PropOp56
 70
     1
102
RTVSPost2010Prop57
140
1.0
102
RTVSPost2010PropOp57
 70
     1
  0
XRECORD
  5
129
102
{ACAD_REACTORS
330
128
102
}
330
128
100
AcDbXrecord
280
     1
102
RTVSPost2010Prop28
280
     0
102
RTVSPost2010PropOp28
 70
     0
102
RTVSPost2010Prop29
280
     1
102
RTVSPost2010PropOp29
 70
     0
102
RTVSPost2010Prop30
280
     1
102
RTVSPost2010PropOp30
 70
     0
102
RTVSPost2010Prop31
280
     0
102
RTVSPost2010PropOp31
 70
     0
102
RTVSPost2010Prop32
280
     0
102
RTVSPost2010PropOp32
 70
     0
102
RTVSPost2010Prop33
280
     0
102
RTVSPost2010PropOp33
 70
     0
102
RTVSPost2010Prop34
280
     0
102
RTVSPost2010PropOp34
 70
     0
102
RTVSPost2010Prop35
280
     0
102
RTVSPost2010PropOp35
 70
     0
102
RTVSPost2010Prop36
280
     0
102
RTVSPost2010PropOp36
 70
     0
102
RTVSPost2010Prop37
 90
       50
102
RTVSPost2010PropOp37
 70
     0
102
RTVSPost2010Prop38
140
0.0
102
RTVSPost2010PropOp38
 70
     0
102
RTVSPost2010Prop39
140
1.0
102
RTVSPost2010PropOp39
 70
     0
102
RTVSPost2010Prop40
 90
        0
102
RTVSPost2010PropOp40
 70
     0
102
RTVSPost2010Prop41ColorIndex
 90
       18
102
RTVSPost2010Prop41ColorRGB
 90
        0
102
RTVSPost2010PropOp41
 70
     0
102
RTVSPost2010Prop42
 90
       50
102
RTVSPost2010PropOp42
 70
     0
102
RTVSPost2010Prop43
 90
        3
102
RTVSPost2010PropOp43
 70
     0
102
RTVSPost2010Prop44ColorIndex
 90
        5
102
RTVSPost2010Prop44ColorRGB
 90
      255
102
RTVSPost2010PropOp44
 70
     0
102
RTVSPost2010Prop45
280
     0
102
RTVSPost2010PropOp45
 70
     0
102
RTVSPost2010Prop46
 90
       50
102
RTVSPost2010PropOp46
 70
     0
102
RTVSPost2010Prop47
 90
       50
102
RTVSPost2010PropOp47
 70
     0
102
RTVSPost2010Prop48
 90
       50
102
RTVSPost2010PropOp48
 70
     0
102
RTVSPost2010Prop49
280
     0
102
RTVSPost2010PropOp49
 70
     0
102
RTVSPost2010Prop50
 90
       50
102
RTVSPost2010PropOp50
 70
     0
102
RTVSPost2010Prop51ColorIndex
 90
      256
102
RTVSPost2010Prop51ColorRGB
 90
-16777216
102
RTVSPost2010PropOp51
 70
     0
102
RTVSPost2010Prop52
140
1.0
102
RTVSPost2010PropOp52
 70
     0
102
RTVSPost2010Prop53
 90
        2
102
RTVSPost2010PropOp53
 70
     0
102
RTVSPost2010Prop54
  1
strokes_ogs.tif
102
RTVSPost2010PropOp54
 70
     0
102
RTVSPost2010Prop55
280
     0
102
RTVSPost2010PropOp55
 70
     0
102
RTVSPost2010Prop56
140
1.0
102
RTVSPost2010PropOp56
 70
     0
102
RTVSPost2010Prop57
140
1.0
102
RTVSPost2010PropOp57
 70
     0
  0
XRECORD
  5
119
102
{ACAD_REACTORS
330
118
102
}
330
118
100
AcDbXrecord
280
     1
102
RTVSPost2010Prop28
280
     0
102
RTVSPost2010PropOp28
 70
     1
102
RTVSPost2010Prop29
280
     1
102
RTVSPost2010PropOp29
 70
     1
102
RTVSPost2010Prop30
280
     1
102
RTVSPost2010PropOp30
 70
     1
102
RTVSPost2010Prop31
280
     0
102
RTVSPost2010PropOp31
 70
     1
102
RTVSPost2010Prop32
280
     0
102
RTVSPost2010PropOp32
 70
     1
102
RTVSPost2010Prop33
280
     0
102
RTVSPost2010PropOp33
 70
     1
102
RTVSPost2010Prop34
280
     0
102
RTVSPost2010PropOp34
 70
     1
102
RTVSPost2010Prop35
280
     0
102
RTVSPost2010PropOp35
 70
     1
102
RTVSPost2010Prop36
280
     0
102
RTVSPost2010PropOp36
 70
     1
102
RTVSPost2010Prop37
 90
       50
102
RTVSPost2010PropOp37
 70
     1
102
RTVSPost2010Prop38
140
0.0
102
RTVSPost2010PropOp38
 70
     1
102
RTVSPost2010Prop39
140
1.0
102
RTVSPost2010PropOp39
 70
     1
102
RTVSPost2010Prop40
 90
        0
102
RTVSPost2010PropOp40
 70
     1
102
RTVSPost2010Prop41ColorIndex
 90
       18
102
RTVSPost2010Prop41ColorRGB
 90
        0
102
RTVSPost2010PropOp41
 70
     1
102
RTVSPost2010Prop42
 90
       50
102
RTVSPost2010PropOp42
 70
     1
102
RTVSPost2010Prop43
 90
        3
102
RTVSPost2010PropOp43
 70
     1
102
RTVSPost2010Prop44ColorIndex
 90
        5
102
RTVSPost2010Prop44ColorRGB
 90
      255
102
RTVSPost2010PropOp44
 70
     1
102
RTVSPost2010Prop45
280
     0
102
RTVSPost2010PropOp45
 70
     1
102
RTVSPost2010Prop46
 90
       50
102
RTVSPost2010PropOp46
 70
     1
102
RTVSPost2010Prop47
 90
       50
102
RTVSPost2010PropOp47
 70
     1
102
RTVSPost2010Prop48
 90
       50
102
RTVSPost2010PropOp48
 70
     1
102
RTVSPost2010Prop49
280
     0
102
RTVSPost2010PropOp49
 70
     1
102
RTVSPost2010Prop50
 90
       50
102
RTVSPost2010PropOp50
 70
     1
102
RTVSPost2010Prop51ColorIndex
 90
      256
102
RTVSPost2010Prop51ColorRGB
 90
-16777216
102
RTVSPost2010PropOp51
 70
     0
102
RTVSPost2010Prop52
140
1.0
102
RTVSPost2010PropOp52
 70
     0
102
RTVSPost2010Prop53
 90
        2
102
RTVSPost2010PropOp53
 70
     1
102
RTVSPost2010Prop54
  1
strokes_ogs.tif
102
RTVSPost2010PropOp54
 70
     1
102
RTVSPost2010Prop55
280
     0
102
RTVSPost2010PropOp55
 70
     1
102
RTVSPost2010Prop56
140
1.0
102
RTVSPost2010PropOp56
 70
     1
102
RTVSPost2010Prop57
140
1.0
102
RTVSPost2010PropOp57
 70
     1
  0
XRECORD
  5
12B
102
{ACAD_REACTORS
330
12A
102
}
330
12A
100
AcDbXrecord
280
     1
102
RTVSPost2010Prop28
280
     0
102
RTVSPost2010PropOp28
 70
     0
102
RTVSPost2010Prop29
280
     1
102
RTVSPost2010PropOp29
 70
     0
102
RTVSPost2010Prop30
280
     1
102
RTVSPost2010PropOp30
 70
     0
102
RTVSPost2010Prop31
280
     0
102
RTVSPost2010PropOp31
 70
     0
102
RTVSPost2010Prop32
280
     0
102
RTVSPost2010PropOp32
 70
     0
102
RTVSPost2010Prop33
280
     0
102
RTVSPost2010PropOp33
 70
     0
102
RTVSPost2010Prop34
280
     0
102
RTVSPost2010PropOp34
 70
     0
102
RTVSPost2010Prop35
280
     0
102
RTVSPost2010PropOp35
 70
     0
102
RTVSPost2010Prop36
280
     0
102
RTVSPost2010PropOp36
 70
     0
102
RTVSPost2010Prop37
 90
       50
102
RTVSPost2010PropOp37
 70
     0
102
RTVSPost2010Prop38
140
0.0
102
RTVSPost2010PropOp38
 70
     0
102
RTVSPost2010Prop39
140
1.0
102
RTVSPost2010PropOp39
 70
     0
102
RTVSPost2010Prop40
 90
        0
102
RTVSPost2010PropOp40
 70
     0
102
RTVSPost2010Prop41ColorIndex
 90
       18
102
RTVSPost2010Prop41ColorRGB
 90
        0
102
RTVSPost2010PropOp41
 70
     0
102
RTVSPost2010Prop42
 90
       50
102
RTVSPost2010PropOp42
 70
     0
102
RTVSPost2010Prop43
 90
        3
102
RTVSPost2010PropOp43
 70
     0
102
RTVSPost2010Prop44ColorIndex
 90
        5
102
RTVSPost2010Prop44ColorRGB
 90
      255
102
RTVSPost2010PropOp44
 70
     0
102
RTVSPost2010Prop45
280
     0
102
RTVSPost2010PropOp45
 70
     0
102
RTVSPost2010Prop46
 90
       50
102
RTVSPost2010PropOp46
 70
     0
102
RTVSPost2010Prop47
 90
       50
102
RTVSPost2010PropOp47
 70
     0
102
RTVSPost2010Prop48
 90
       50
102
RTVSPost2010PropOp48
 70
     0
102
RTVSPost2010Prop49
280
     0
102
RTVSPost2010PropOp49
 70
     0
102
RTVSPost2010Prop50
 90
       50
102
RTVSPost2010PropOp50
 70
     0
102
RTVSPost2010Prop51ColorIndex
 90
      256
102
RTVSPost2010Prop51ColorRGB
 90
-16777216
102
RTVSPost2010PropOp51
 70
     0
102
RTVSPost2010Prop52
140
1.0
102
RTVSPost2010PropOp52
 70
     0
102
RTVSPost2010Prop53
 90
        2
102
RTVSPost2010PropOp53
 70
     0
102
RTVSPost2010Prop54
  1
strokes_ogs.tif
102
RTVSPost2010PropOp54
 70
     0
102
RTVSPost2010Prop55
280
     0
102
RTVSPost2010PropOp55
 70
     0
102
RTVSPost2010Prop56
140
1.0
102
RTVSPost2010PropOp56
 70
     0
102
RTVSPost2010Prop57
140
1.0
102
RTVSPost2010PropOp57
 70
     0
  0
XRECORD
  5
111
102
{ACAD_REACTORS
330
110
102
}
330
110
100
AcDbXrecord
280
     1
102
RTVSPost2010Prop28
280
     0
102
RTVSPost2010PropOp28
 70
     1
102
RTVSPost2010Prop29
280
     1
102
RTVSPost2010PropOp29
 70
     1
102
RTVSPost2010Prop30
280
     1
102
RTVSPost2010PropOp30
 70
     1
102
RTVSPost2010Prop31
280
     0
102
RTVSPost2010PropOp31
 70
     1
102
RTVSPost2010Prop32
280
     0
102
RTVSPost2010PropOp32
 70
     1
102
RTVSPost2010Prop33
280
     0
102
RTVSPost2010PropOp33
 70
     1
102
RTVSPost2010Prop34
280
     0
102
RTVSPost2010PropOp34
 70
     1
102
RTVSPost2010Prop35
280
     0
102
RTVSPost2010PropOp35
 70
     1
102
RTVSPost2010Prop36
280
     0
102
RTVSPost2010PropOp36
 70
     1
102
RTVSPost2010Prop37
 90
       50
102
RTVSPost2010PropOp37
 70
     1
102
RTVSPost2010Prop38
140
0.0
102
RTVSPost2010PropOp38
 70
     1
102
RTVSPost2010Prop39
140
1.0
102
RTVSPost2010PropOp39
 70
     1
102
RTVSPost2010Prop40
 90
        0
102
RTVSPost2010PropOp40
 70
     1
102
RTVSPost2010Prop41ColorIndex
 90
       18
102
RTVSPost2010Prop41ColorRGB
 90
        0
102
RTVSPost2010PropOp41
 70
     1
102
RTVSPost2010Prop42
 90
       50
102
RTVSPost2010PropOp42
 70
     1
102
RTVSPost2010Prop43
 90
        3
102
RTVSPost2010PropOp43
 70
     1
102
RTVSPost2010Prop44ColorIndex
 90
        5
102
RTVSPost2010Prop44ColorRGB
 90
      255
102
RTVSPost2010PropOp44
 70
     1
102
RTVSPost2010Prop45
280
     0
102
RTVSPost2010PropOp45
 70
     1
102
RTVSPost2010Prop46
 90
       50
102
RTVSPost2010PropOp46
 70
     1
102
RTVSPost2010Prop47
 90
       50
102
RTVSPost2010PropOp47
 70
     1
102
RTVSPost2010Prop48
 90
       50
102
RTVSPost2010PropOp48
 70
     1
102
RTVSPost2010Prop49
280
     0
102
RTVSPost2010PropOp49
 70
     1
102
RTVSPost2010Prop50
 90
       50
102
RTVSPost2010PropOp50
 70
     1
102
RTVSPost2010Prop51ColorIndex
 90
      256
102
RTVSPost2010Prop51ColorRGB
 90
-16777216
102
RTVSPost2010PropOp51
 70
     0
102
RTVSPost2010Prop52
140
1.0
102
RTVSPost2010PropOp52
 70
     0
102
RTVSPost2010Prop53
 90
        2
102
RTVSPost2010PropOp53
 70
     1
102
RTVSPost2010Prop54
  1
strokes_ogs.tif
102
RTVSPost2010PropOp54
 70
     1
102
RTVSPost2010Prop55
280
     0
102
RTVSPost2010PropOp55
 70
     1
102
RTVSPost2010Prop56
140
1.0
102
RTVSPost2010PropOp56
 70
     1
102
RTVSPost2010Prop57
140
1.0
102
RTVSPost2010PropOp57
 70
     1
  0
XRECORD
  5
127
102
{ACAD_REACTORS
330
126
102
}
330
126
100
AcDbXrecord
280
     1
102
RTVSPost2010Prop28
280
     0
102
RTVSPost2010PropOp28
 70
     1
102
RTVSPost2010Prop29
280
     1
102
RTVSPost2010PropOp29
 70
     1
102
RTVSPost2010Prop30
280
     1
102
RTVSPost2010PropOp30
 70
     1
102
RTVSPost2010Prop31
280
     0
102
RTVSPost2010PropOp31
 70
     1
102
RTVSPost2010Prop32
280
     0
102
RTVSPost2010PropOp32
 70
     1
102
RTVSPost2010Prop33
280
     0
102
RTVSPost2010PropOp33
 70
     1
102
RTVSPost2010Prop34
280
     0
102
RTVSPost2010PropOp34
 70
     1
102
RTVSPost2010Prop35
280
     0
102
RTVSPost2010PropOp35
 70
     1
102
RTVSPost2010Prop36
280
     0
102
RTVSPost2010PropOp36
 70
     1
102
RTVSPost2010Prop37
 90
       50
102
RTVSPost2010PropOp37
 70
     1
102
RTVSPost2010Prop38
140
0.0
102
RTVSPost2010PropOp38
 70
     1
102
RTVSPost2010Prop39
140
1.0
102
RTVSPost2010PropOp39
 70
     1
102
RTVSPost2010Prop40
 90
        0
102
RTVSPost2010PropOp40
 70
     1
102
RTVSPost2010Prop41ColorIndex
 90
       18
102
RTVSPost2010Prop41ColorRGB
 90
        0
102
RTVSPost2010PropOp41
 70
     1
102
RTVSPost2010Prop42
 90
       50
102
RTVSPost2010PropOp42
 70
     1
102
RTVSPost2010Prop43
 90
        3
102
RTVSPost2010PropOp43
 70
     1
102
RTVSPost2010Prop44ColorIndex
 90
        5
102
RTVSPost2010Prop44ColorRGB
 90
      255
102
RTVSPost2010PropOp44
 70
     1
102
RTVSPost2010Prop45
280
     0
102
RTVSPost2010PropOp45
 70
     1
102
RTVSPost2010Prop46
 90
       50
102
RTVSPost2010PropOp46
 70
     1
102
RTVSPost2010Prop47
 90
       50
102
RTVSPost2010PropOp47
 70
     1
102
RTVSPost2010Prop48
 90
       50
102
RTVSPost2010PropOp48
 70
     1
102
RTVSPost2010Prop49
280
     0
102
RTVSPost2010PropOp49
 70
     1
102
RTVSPost2010Prop50
 90
       50
102
RTVSPost2010PropOp50
 70
     1
102
RTVSPost2010Prop51ColorIndex
 90
      256
102
RTVSPost2010Prop51ColorRGB
 90
-16777216
102
RTVSPost2010PropOp51
 70
     0
102
RTVSPost2010Prop52
140
1.0
102
RTVSPost2010PropOp52
 70
     0
102
RTVSPost2010Prop53
 90
        2
102
RTVSPost2010PropOp53
 70
     1
102
RTVSPost2010Prop54
  1
strokes_ogs.tif
102
RTVSPost2010PropOp54
 70
     1
102
RTVSPost2010Prop55
280
     0
102
RTVSPost2010PropOp55
 70
     1
102
RTVSPost2010Prop56
140
1.0
102
RTVSPost2010PropOp56
 70
     1
102
RTVSPost2010Prop57
140
1.0
102
RTVSPost2010PropOp57
 70
     1
  0
XRECORD
  5
125
102
{ACAD_REACTORS
330
124
102
}
330
124
100
AcDbXrecord
280
     1
102
RTVSPost2010Prop28
280
     0
102
RTVSPost2010PropOp28
 70
     1
102
RTVSPost2010Prop29
280
     1
102
RTVSPost2010PropOp29
 70
     1
102
RTVSPost2010Prop30
280
     1
102
RTVSPost2010PropOp30
 70
     1
102
RTVSPost2010Prop31
280
     0
102
RTVSPost2010PropOp31
 70
     1
102
RTVSPost2010Prop32
280
     0
102
RTVSPost2010PropOp32
 70
     1
102
RTVSPost2010Prop33
280
     0
102
RTVSPost2010PropOp33
 70
     1
102
RTVSPost2010Prop34
280
     0
102
RTVSPost2010PropOp34
 70
     1
102
RTVSPost2010Prop35
280
     0
102
RTVSPost2010PropOp35
 70
     1
102
RTVSPost2010Prop36
280
     0
102
RTVSPost2010PropOp36
 70
     1
102
RTVSPost2010Prop37
 90
       50
102
RTVSPost2010PropOp37
 70
     1
102
RTVSPost2010Prop38
140
0.0
102
RTVSPost2010PropOp38
 70
     1
102
RTVSPost2010Prop39
140
1.0
102
RTVSPost2010PropOp39
 70
     1
102
RTVSPost2010Prop40
 90
        0
102
RTVSPost2010PropOp40
 70
     1
102
RTVSPost2010Prop41ColorIndex
 90
       18
102
RTVSPost2010Prop41ColorRGB
 90
        0
102
RTVSPost2010PropOp41
 70
     1
102
RTVSPost2010Prop42
 90
       50
102
RTVSPost2010PropOp42
 70
     1
102
RTVSPost2010Prop43
 90
        3
102
RTVSPost2010PropOp43
 70
     1
102
RTVSPost2010Prop44ColorIndex
 90
        5
102
RTVSPost2010Prop44ColorRGB
 90
      255
102
RTVSPost2010PropOp44
 70
     1
102
RTVSPost2010Prop45
280
     0
102
RTVSPost2010PropOp45
 70
     1
102
RTVSPost2010Prop46
 90
       50
102
RTVSPost2010PropOp46
 70
     1
102
RTVSPost2010Prop47
 90
       50
102
RTVSPost2010PropOp47
 70
     1
102
RTVSPost2010Prop48
 90
       50
102
RTVSPost2010PropOp48
 70
     1
102
RTVSPost2010Prop49
280
     0
102
RTVSPost2010PropOp49
 70
     1
102
RTVSPost2010Prop50
 90
       50
102
RTVSPost2010PropOp50
 70
     1
102
RTVSPost2010Prop51ColorIndex
 90
      256
102
RTVSPost2010Prop51ColorRGB
 90
-16777216
102
RTVSPost2010PropOp51
 70
     0
102
RTVSPost2010Prop52
140
1.0
102
RTVSPost2010PropOp52
 70
     0
102
RTVSPost2010Prop53
 90
        2
102
RTVSPost2010PropOp53
 70
     1
102
RTVSPost2010Prop54
  1
strokes_ogs.tif
102
RTVSPost2010PropOp54
 70
     1
102
RTVSPost2010Prop55
280
     0
102
RTVSPost2010PropOp55
 70
     1
102
RTVSPost2010Prop56
140
1.0
102
RTVSPost2010PropOp56
 70
     1
102
RTVSPost2010Prop57
140
1.0
102
RTVSPost2010PropOp57
 70
     1
  0
XRECORD
  5
11F
102
{ACAD_REACTORS
330
11E
102
}
330
11E
100
AcDbXrecord
280
     1
102
RTVSPost2010Prop28
280
     0
102
RTVSPost2010PropOp28
 70
     1
102
RTVSPost2010Prop29
280
     1
102
RTVSPost2010PropOp29
 70
     1
102
RTVSPost2010Prop30
280
     1
102
RTVSPost2010PropOp30
 70
     1
102
RTVSPost2010Prop31
280
     0
102
RTVSPost2010PropOp31
 70
     1
102
RTVSPost2010Prop32
280
     0
102
RTVSPost2010PropOp32
 70
     1
102
RTVSPost2010Prop33
280
     0
102
RTVSPost2010PropOp33
 70
     1
102
RTVSPost2010Prop34
280
     0
102
RTVSPost2010PropOp34
 70
     1
102
RTVSPost2010Prop35
280
     0
102
RTVSPost2010PropOp35
 70
     1
102
RTVSPost2010Prop36
280
     0
102
RTVSPost2010PropOp36
 70
     1
102
RTVSPost2010Prop37
 90
       50
102
RTVSPost2010PropOp37
 70
     1
102
RTVSPost2010Prop38
140
0.0
102
RTVSPost2010PropOp38
 70
     1
102
RTVSPost2010Prop39
140
1.0
102
RTVSPost2010PropOp39
 70
     1
102
RTVSPost2010Prop40
 90
        0
102
RTVSPost2010PropOp40
 70
     1
102
RTVSPost2010Prop41ColorIndex
 90
       18
102
RTVSPost2010Prop41ColorRGB
 90
        0
102
RTVSPost2010PropOp41
 70
     1
102
RTVSPost2010Prop42
 90
       50
102
RTVSPost2010PropOp42
 70
     1
102
RTVSPost2010Prop43
 90
        3
102
RTVSPost2010PropOp43
 70
     1
102
RTVSPost2010Prop44ColorIndex
 90
        5
102
RTVSPost2010Prop44ColorRGB
 90
      255
102
RTVSPost2010PropOp44
 70
     1
102
RTVSPost2010Prop45
280
     0
102
RTVSPost2010PropOp45
 70
     1
102
RTVSPost2010Prop46
 90
       50
102
RTVSPost2010PropOp46
 70
     1
102
RTVSPost2010Prop47
 90
       50
102
RTVSPost2010PropOp47
 70
     1
102
RTVSPost2010Prop48
 90
       50
102
RTVSPost2010PropOp48
 70
     1
102
RTVSPost2010Prop49
280
     0
102
RTVSPost2010PropOp49
 70
     1
102
RTVSPost2010Prop50
 90
       50
102
RTVSPost2010PropOp50
 70
     1
102
RTVSPost2010Prop51ColorIndex
 90
      256
102
RTVSPost2010Prop51ColorRGB
 90
-16777216
102
RTVSPost2010PropOp51
 70
     0
102
RTVSPost2010Prop52
140
1.0
102
RTVSPost2010PropOp52
 70
     0
102
RTVSPost2010Prop53
 90
        2
102
RTVSPost2010PropOp53
 70
     1
102
RTVSPost2010Prop54
  1
strokes_ogs.tif
102
RTVSPost2010PropOp54
 70
     1
102
RTVSPost2010Prop55
280
     0
102
RTVSPost2010PropOp55
 70
     1
102
RTVSPost2010Prop56
140
1.0
102
RTVSPost2010PropOp56
 70
     1
102
RTVSPost2010Prop57
140
1.0
102
RTVSPost2010PropOp57
 70
     1
  0
XRECORD
  5
121
102
{ACAD_REACTORS
330
120
102
}
330
120
100
AcDbXrecord
280
     1
102
RTVSPost2010Prop28
280
     0
102
RTVSPost2010PropOp28
 70
     1
102
RTVSPost2010Prop29
280
     1
102
RTVSPost2010PropOp29
 70
     1
102
RTVSPost2010Prop30
280
     1
102
RTVSPost2010PropOp30
 70
     1
102
RTVSPost2010Prop31
280
     0
102
RTVSPost2010PropOp31
 70
     1
102
RTVSPost2010Prop32
280
     0
102
RTVSPost2010PropOp32
 70
     1
102
RTVSPost2010Prop33
280
     0
102
RTVSPost2010PropOp33
 70
     1
102
RTVSPost2010Prop34
280
     0
102
RTVSPost2010PropOp34
 70
     1
102
RTVSPost2010Prop35
280
     0
102
RTVSPost2010PropOp35
 70
     1
102
RTVSPost2010Prop36
280
     0
102
RTVSPost2010PropOp36
 70
     1
102
RTVSPost2010Prop37
 90
       50
102
RTVSPost2010PropOp37
 70
     1
102
RTVSPost2010Prop38
140
0.0
102
RTVSPost2010PropOp38
 70
     1
102
RTVSPost2010Prop39
140
1.0
102
RTVSPost2010PropOp39
 70
     1
102
RTVSPost2010Prop40
 90
        0
102
RTVSPost2010PropOp40
 70
     1
102
RTVSPost2010Prop41ColorIndex
 90
       18
102
RTVSPost2010Prop41ColorRGB
 90
        0
102
RTVSPost2010PropOp41
 70
     1
102
RTVSPost2010Prop42
 90
       50
102
RTVSPost2010PropOp42
 70
     1
102
RTVSPost2010Prop43
 90
        3
102
RTVSPost2010PropOp43
 70
     1
102
RTVSPost2010Prop44ColorIndex
 90
        5
102
RTVSPost2010Prop44ColorRGB
 90
      255
102
RTVSPost2010PropOp44
 70
     1
102
RTVSPost2010Prop45
280
     0
102
RTVSPost2010PropOp45
 70
     1
102
RTVSPost2010Prop46
 90
       50
102
RTVSPost2010PropOp46
 70
     1
102
RTVSPost2010Prop47
 90
       50
102
RTVSPost2010PropOp47
 70
     1
102
RTVSPost2010Prop48
 90
       50
102
RTVSPost2010PropOp48
 70
     1
102
RTVSPost2010Prop49
280
     0
102
RTVSPost2010PropOp49
 70
     1
102
RTVSPost2010Prop50
 90
       50
102
RTVSPost2010PropOp50
 70
     1
102
RTVSPost2010Prop51ColorIndex
 90
      256
102
RTVSPost2010Prop51ColorRGB
 90
-16777216
102
RTVSPost2010PropOp51
 70
     0
102
RTVSPost2010Prop52
140
1.0
102
RTVSPost2010PropOp52
 70
     0
102
RTVSPost2010Prop53
 90
        2
102
RTVSPost2010PropOp53
 70
     1
102
RTVSPost2010Prop54
  1
strokes_ogs.tif
102
RTVSPost2010PropOp54
 70
     1
102
RTVSPost2010Prop55
280
     0
102
RTVSPost2010PropOp55
 70
     1
102
RTVSPost2010Prop56
140
1.0
102
RTVSPost2010PropOp56
 70
     1
102
RTVSPost2010Prop57
140
1.0
102
RTVSPost2010PropOp57
 70
     1
  0
XRECORD
  5
117
102
{ACAD_REACTORS
330
116
102
}
330
116
100
AcDbXrecord
280
     1
102
RTVSPost2010Prop28
280
     0
102
RTVSPost2010PropOp28
 70
     1
102
RTVSPost2010Prop29
280
     1
102
RTVSPost2010PropOp29
 70
     1
102
RTVSPost2010Prop30
280
     1
102
RTVSPost2010PropOp30
 70
     1
102
RTVSPost2010Prop31
280
     0
102
RTVSPost2010PropOp31
 70
     1
102
RTVSPost2010Prop32
280
     0
102
RTVSPost2010PropOp32
 70
     1
102
RTVSPost2010Prop33
280
     0
102
RTVSPost2010PropOp33
 70
     1
102
RTVSPost2010Prop34
280
     0
102
RTVSPost2010PropOp34
 70
     1
102
RTVSPost2010Prop35
280
     0
102
RTVSPost2010PropOp35
 70
     1
102
RTVSPost2010Prop36
280
     0
102
RTVSPost2010PropOp36
 70
     1
102
RTVSPost2010Prop37
 90
       50
102
RTVSPost2010PropOp37
 70
     1
102
RTVSPost2010Prop38
140
0.0
102
RTVSPost2010PropOp38
 70
     1
102
RTVSPost2010Prop39
140
1.0
102
RTVSPost2010PropOp39
 70
     1
102
RTVSPost2010Prop40
 90
        0
102
RTVSPost2010PropOp40
 70
     1
102
RTVSPost2010Prop41ColorIndex
 90
       18
102
RTVSPost2010Prop41ColorRGB
 90
        0
102
RTVSPost2010PropOp41
 70
     1
102
RTVSPost2010Prop42
 90
       50
102
RTVSPost2010PropOp42
 70
     1
102
RTVSPost2010Prop43
 90
        3
102
RTVSPost2010PropOp43
 70
     1
102
RTVSPost2010Prop44ColorIndex
 90
        5
102
RTVSPost2010Prop44ColorRGB
 90
      255
102
RTVSPost2010PropOp44
 70
     1
102
RTVSPost2010Prop45
280
     0
102
RTVSPost2010PropOp45
 70
     1
102
RTVSPost2010Prop46
 90
       50
102
RTVSPost2010PropOp46
 70
     1
102
RTVSPost2010Prop47
 90
       50
102
RTVSPost2010PropOp47
 70
     1
102
RTVSPost2010Prop48
 90
       50
102
RTVSPost2010PropOp48
 70
     1
102
RTVSPost2010Prop49
280
     0
102
RTVSPost2010PropOp49
 70
     1
102
RTVSPost2010Prop50
 90
       50
102
RTVSPost2010PropOp50
 70
     1
102
RTVSPost2010Prop51ColorIndex
 90
      256
102
RTVSPost2010Prop51ColorRGB
 90
-16777216
102
RTVSPost2010PropOp51
 70
     0
102
RTVSPost2010Prop52
140
1.0
102
RTVSPost2010PropOp52
 70
     0
102
RTVSPost2010Prop53
 90
        2
102
RTVSPost2010PropOp53
 70
     1
102
RTVSPost2010Prop54
  1
strokes_ogs.tif
102
RTVSPost2010PropOp54
 70
     1
102
RTVSPost2010Prop55
280
     0
102
RTVSPost2010PropOp55
 70
     1
102
RTVSPost2010Prop56
140
1.0
102
RTVSPost2010PropOp56
 70
     1
102
RTVSPost2010Prop57
140
1.0
102
RTVSPost2010PropOp57
 70
     1
  0
XRECORD
  5
10B
102
{ACAD_REACTORS
330
10A
102
}
330
10A
100
AcDbXrecord
280
     1
102
RTVSPost2010Prop28
280
     0
102
RTVSPost2010PropOp28
 70
     1
102
RTVSPost2010Prop29
280
     1
102
RTVSPost2010PropOp29
 70
     1
102
RTVSPost2010Prop30
280
     1
102
RTVSPost2010PropOp30
 70
     1
102
RTVSPost2010Prop31
280
     0
102
RTVSPost2010PropOp31
 70
     1
102
RTVSPost2010Prop32
280
     0
102
RTVSPost2010PropOp32
 70
     1
102
RTVSPost2010Prop33
280
     0
102
RTVSPost2010PropOp33
 70
     1
102
RTVSPost2010Prop34
280
     0
102
RTVSPost2010PropOp34
 70
     1
102
RTVSPost2010Prop35
280
     0
102
RTVSPost2010PropOp35
 70
     1
102
RTVSPost2010Prop36
280
     0
102
RTVSPost2010PropOp36
 70
     1
102
RTVSPost2010Prop37
 90
       50
102
RTVSPost2010PropOp37
 70
     1
102
RTVSPost2010Prop38
140
0.0
102
RTVSPost2010PropOp38
 70
     1
102
RTVSPost2010Prop39
140
1.0
102
RTVSPost2010PropOp39
 70
     1
102
RTVSPost2010Prop40
 90
        0
102
RTVSPost2010PropOp40
 70
     1
102
RTVSPost2010Prop41ColorIndex
 90
       18
102
RTVSPost2010Prop41ColorRGB
 90
        0
102
RTVSPost2010PropOp41
 70
     1
102
RTVSPost2010Prop42
 90
       50
102
RTVSPost2010PropOp42
 70
     1
102
RTVSPost2010Prop43
 90
        3
102
RTVSPost2010PropOp43
 70
     1
102
RTVSPost2010Prop44ColorIndex
 90
        5
102
RTVSPost2010Prop44ColorRGB
 90
      255
102
RTVSPost2010PropOp44
 70
     1
102
RTVSPost2010Prop45
280
     0
102
RTVSPost2010PropOp45
 70
     1
102
RTVSPost2010Prop46
 90
       50
102
RTVSPost2010PropOp46
 70
     1
102
RTVSPost2010Prop47
 90
       50
102
RTVSPost2010PropOp47
 70
     1
102
RTVSPost2010Prop48
 90
       50
102
RTVSPost2010PropOp48
 70
     1
102
RTVSPost2010Prop49
280
     0
102
RTVSPost2010PropOp49
 70
     1
102
RTVSPost2010Prop50
 90
       50
102
RTVSPost2010PropOp50
 70
     1
102
RTVSPost2010Prop51ColorIndex
 90
      256
102
RTVSPost2010Prop51ColorRGB
 90
-16777216
102
RTVSPost2010PropOp51
 70
     0
102
RTVSPost2010Prop52
140
1.0
102
RTVSPost2010PropOp52
 70
     0
102
RTVSPost2010Prop53
 90
        2
102
RTVSPost2010PropOp53
 70
     1
102
RTVSPost2010Prop54
  1
strokes_ogs.tif
102
RTVSPost2010PropOp54
 70
     1
102
RTVSPost2010Prop55
280
     0
102
RTVSPost2010PropOp55
 70
     1
102
RTVSPost2010Prop56
140
1.0
102
RTVSPost2010PropOp56
 70
     1
102
RTVSPost2010Prop57
140
1.0
102
RTVSPost2010PropOp57
 70
     1
  0
XRECORD
  5
123
102
{ACAD_REACTORS
330
122
102
}
330
122
100
AcDbXrecord
280
     1
102
RTVSPost2010Prop28
280
     0
102
RTVSPost2010PropOp28
 70
     1
102
RTVSPost2010Prop29
280
     1
102
RTVSPost2010PropOp29
 70
     1
102
RTVSPost2010Prop30
280
     1
102
RTVSPost2010PropOp30
 70
     1
102
RTVSPost2010Prop31
280
     0
102
RTVSPost2010PropOp31
 70
     1
102
RTVSPost2010Prop32
280
     0
102
RTVSPost2010PropOp32
 70
     1
102
RTVSPost2010Prop33
280
     0
102
RTVSPost2010PropOp33
 70
     1
102
RTVSPost2010Prop34
280
     0
102
RTVSPost2010PropOp34
 70
     1
102
RTVSPost2010Prop35
280
     0
102
RTVSPost2010PropOp35
 70
     1
102
RTVSPost2010Prop36
280
     0
102
RTVSPost2010PropOp36
 70
     1
102
RTVSPost2010Prop37
 90
       50
102
RTVSPost2010PropOp37
 70
     1
102
RTVSPost2010Prop38
140
0.0
102
RTVSPost2010PropOp38
 70
     1
102
RTVSPost2010Prop39
140
1.0
102
RTVSPost2010PropOp39
 70
     1
102
RTVSPost2010Prop40
 90
        0
102
RTVSPost2010PropOp40
 70
     1
102
RTVSPost2010Prop41ColorIndex
 90
       18
102
RTVSPost2010Prop41ColorRGB
 90
        0
102
RTVSPost2010PropOp41
 70
     1
102
RTVSPost2010Prop42
 90
       50
102
RTVSPost2010PropOp42
 70
     1
102
RTVSPost2010Prop43
 90
        3
102
RTVSPost2010PropOp43
 70
     1
102
RTVSPost2010Prop44ColorIndex
 90
        5
102
RTVSPost2010Prop44ColorRGB
 90
      255
102
RTVSPost2010PropOp44
 70
     1
102
RTVSPost2010Prop45
280
     0
102
RTVSPost2010PropOp45
 70
     1
102
RTVSPost2010Prop46
 90
       50
102
RTVSPost2010PropOp46
 70
     1
102
RTVSPost2010Prop47
 90
       50
102
RTVSPost2010PropOp47
 70
     1
102
RTVSPost2010Prop48
 90
       50
102
RTVSPost2010PropOp48
 70
     1
102
RTVSPost2010Prop49
280
     0
102
RTVSPost2010PropOp49
 70
     1
102
RTVSPost2010Prop50
 90
       50
102
RTVSPost2010PropOp50
 70
     1
102
RTVSPost2010Prop51ColorIndex
 90
      256
102
RTVSPost2010Prop51ColorRGB
 90
-16777216
102
RTVSPost2010PropOp51
 70
     0
102
RTVSPost2010Prop52
140
1.0
102
RTVSPost2010PropOp52
 70
     0
102
RTVSPost2010Prop53
 90
        2
102
RTVSPost2010PropOp53
 70
     1
102
RTVSPost2010Prop54
  1
strokes_ogs.tif
102
RTVSPost2010PropOp54
 70
     1
102
RTVSPost2010Prop55
280
     0
102
RTVSPost2010PropOp55
 70
     1
102
RTVSPost2010Prop56
140
1.0
102
RTVSPost2010PropOp56
 70
     1
102
RTVSPost2010Prop57
140
1.0
102
RTVSPost2010PropOp57
 70
     1
  0
ENDSEC
  0
EOF
