  0
SECTION
  2
HEADER
  9
$ACADVER
  1
AC1024
  9
$ACADMAINTVER
 70
   226
  9
$DWGCODEPAGE
  3
ANSI_932
  9
$INSBASE
 10
0.0
 20
0.0
 30
0.0
  9
$EXTMIN
 10
1.000000000000000E+20
 20
1.000000000000000E+20
 30
1.000000000000000E+20
  9
$EXTMAX
 10
-1.000000000000000E+20
 20
-1.000000000000000E+20
 30
-1.000000000000000E+20
  9
$LIMMIN
 10
0.0
 20
0.0
  9
$LIMMAX
 10
12.0
 20
9.0
  9
$ORTHOMODE
 70
     0
  9
$REGENMODE
 70
     1
  9
$FILLMODE
 70
     1
  9
$QTEXTMODE
 70
     0
  9
$MIRRTEXT
 70
     0
  9
$LTSCALE
 40
1.0
  9
$ATTMODE
 70
     1
  9
$TEXTSIZE
 40
0.2
  9
$TRACEWID
 40
0.05
  9
$TEXTSTYLE
  7
Standard
  9
$CLAYER
  8
0
  9
$CELTYPE
  6
ByLayer
  9
$CECOLOR
 62
   256
  9
$CELTSCALE
 40
1.0
  9
$DISPSILH
 70
     0
  9
$DIMSCALE
 40
1.0
  9
$DIMASZ
 40
0.18
  9
$DIMEXO
 40
0.0625
  9
$DIMDLI
 40
0.38
  9
$DIMRND
 40
0.0
  9
$DIMDLE
 40
0.0
  9
$DIMEXE
 40
0.18
  9
$DIMTP
 40
0.0
  9
$DIMTM
 40
0.0
  9
$DIMTXT
 40
0.18
  9
$DIMCEN
 40
0.09
  9
$DIMTSZ
 40
0.0
  9
$DIMTOL
 70
     0
  9
$DIMLIM
 70
     0
  9
$DIMTIH
 70
     1
  9
$DIMTOH
 70
     1
  9
$DIMSE1
 70
     0
  9
$DIMSE2
 70
     0
  9
$DIMTAD
 70
     0
  9
$DIMZIN
 70
     0
  9
$DIMBLK
  1

  9
$DIMASO
 70
     1
  9
$DIMSHO
 70
     1
  9
$DIMPOST
  1

  9
$DIMAPOST
  1

  9
$DIMALT
 70
     0
  9
$DIMALTD
 70
     2
  9
$DIMALTF
 40
25.4
  9
$DIMLFAC
 40
1.0
  9
$DIMTOFL
 70
     0
  9
$DIMTVP
 40
0.0
  9
$DIMTIX
 70
     0
  9
$DIMSOXD
 70
     0
  9
$DIMSAH
 70
     0
  9
$DIMBLK1
  1

  9
$DIMBLK2
  1

  9
$DIMSTYLE
  2
Standard
  9
$DIMCLRD
 70
     0
  9
$DIMCLRE
 70
     0
  9
$DIMCLRT
 70
     0
  9
$DIMTFAC
 40
1.0
  9
$DIMGAP
 40
0.09
  9
$DIMJUST
 70
     0
  9
$DIMSD1
 70
     0
  9
$DIMSD2
 70
     0
  9
$DIMTOLJ
 70
     1
  9
$DIMTZIN
 70
     0
  9
$DIMALTZ
 70
     0
  9
$DIMALTTZ
 70
     0
  9
$DIMUPT
 70
     0
  9
$DIMDEC
 70
     4
  9
$DIMTDEC
 70
     4
  9
$DIMALTU
 70
     2
  9
$DIMALTTD
 70
     2
  9
$DIMTXSTY
  7
Standard
  9
$DIMAUNIT
 70
     0
  9
$DIMADEC
 70
     0
  9
$DIMALTRND
 40
0.0
  9
$DIMAZIN
 70
     0
  9
$DIMDSEP
 70
    46
  9
$DIMATFIT
 70
     3
  9
$DIMFRAC
 70
     0
  9
$DIMLDRBLK
  1

  9
$DIMLUNIT
 70
     2
  9
$DIMLWD
 70
    -2
  9
$DIMLWE
 70
    -2
  9
$DIMTMOVE
 70
     0
  9
$DIMFXL
 40
1.0
  9
$DIMFXLON
 70
     0
  9
$DIMJOGANG
 40
0.7853981633974483
  9
$DIMTFILL
 70
     0
  9
$DIMTFILLCLR
 70
     0
  9
$DIMARCSYM
 70
     0
  9
$DIMLTYPE
  6

  9
$DIMLTEX1
  6

  9
$DIMLTEX2
  6

  9
$DIMTXTDIRECTION
 70
     0
  9
$LUNITS
 70
     2
  9
$LUPREC
 70
     4
  9
$SKETCHINC
 40
0.1
  9
$FILLETRAD
 40
0.0
  9
$AUNITS
 70
     0
  9
$AUPREC
 70
     0
  9
$MENU
  1
.
  9
$ELEVATION
 40
0.0
  9
$PELEVATION
 40
0.0
  9
$THICKNESS
 40
0.0
  9
$LIMCHECK
 70
     0
  9
$CHAMFERA
 40
0.0
  9
$CHAMFERB
 40
0.0
  9
$CHAMFERC
 40
0.0
  9
$CHAMFERD
 40
0.0
  9
$SKPOLY
 70
     0
  9
$TDCREATE
 40
2459569.488564815
  9
$TDUCREATE
 40
2459569.113564815
  9
$TDUPDATE
 40
2459569.488564815
  9
$TDUUPDATE
 40
2459569.113564815
  9
$TDINDWG
 40
0.0000000000
  9
$TDUSRTIMER
 40
0.0000000000
  9
$USRTIMER
 70
     1
  9
$ANGBASE
 50
0.0
  9
$ANGDIR
 70
     0
  9
$PDMODE
 70
     0
  9
$PDSIZE
 40
0.0
  9
$PLINEWID
 40
0.0
  9
$SPLFRAME
 70
     0
  9
$SPLINETYPE
 70
     6
  9
$SPLINESEGS
 70
     8
  9
$HANDSEED
  5
13E
  9
$SURFTAB1
 70
     6
  9
$SURFTAB2
 70
     6
  9
$SURFTYPE
 70
     6
  9
$SURFU
 70
     6
  9
$SURFV
 70
     6
  9
$UCSBASE
  2

  9
$UCSNAME
  2

  9
$UCSORG
 10
0.0
 20
0.0
 30
0.0
  9
$UCSXDIR
 10
1.0
 20
0.0
 30
0.0
  9
$UCSYDIR
 10
0.0
 20
1.0
 30
0.0
  9
$UCSORTHOREF
  2

  9
$UCSORTHOVIEW
 70
     0
  9
$UCSORGTOP
 10
0.0
 20
0.0
 30
0.0
  9
$UCSORGBOTTOM
 10
0.0
 20
0.0
 30
0.0
  9
$UCSORGLEFT
 10
0.0
 20
0.0
 30
0.0
  9
$UCSORGRIGHT
 10
0.0
 20
0.0
 30
0.0
  9
$UCSORGFRONT
 10
0.0
 20
0.0
 30
0.0
  9
$UCSORGBACK
 10
0.0
 20
0.0
 30
0.0
  9
$PUCSBASE
  2

  9
$PUCSNAME
  2

  9
$PUCSORG
 10
0.0
 20
0.0
 30
0.0
  9
$PUCSXDIR
 10
1.0
 20
0.0
 30
0.0
  9
$PUCSYDIR
 10
0.0
 20
1.0
 30
0.0
  9
$PUCSORTHOREF
  2

  9
$PUCSORTHOVIEW
 70
     0
  9
$PUCSORGTOP
 10
0.0
 20
0.0
 30
0.0
  9
$PUCSORGBOTTOM
 10
0.0
 20
0.0
 30
0.0
  9
$PUCSORGLEFT
 10
0.0
 20
0.0
 30
0.0
  9
$PUCSORGRIGHT
 10
0.0
 20
0.0
 30
0.0
  9
$PUCSORGFRONT
 10
0.0
 20
0.0
 30
0.0
  9
$PUCSORGBACK
 10
0.0
 20
0.0
 30
0.0
  9
$USERI1
 70
     0
  9
$USERI2
 70
     0
  9
$USERI3
 70
     0
  9
$USERI4
 70
     0
  9
$USERI5
 70
     0
  9
$USERR1
 40
0.0
  9
$USERR2
 40
0.0
  9
$USERR3
 40
0.0
  9
$USERR4
 40
0.0
  9
$USERR5
 40
0.0
  9
$WORLDVIEW
 70
     1
  9
$SHADEDGE
 70
     3
  9
$SHADEDIF
 70
    70
  9
$TILEMODE
 70
     1
  9
$MAXACTVP
 70
    64
  9
$PINSBASE
 10
0.0
 20
0.0
 30
0.0
  9
$PLIMCHECK
 70
     0
  9
$PEXTMIN
 10
1.000000000000000E+20
 20
1.000000000000000E+20
 30
1.000000000000000E+20
  9
$PEXTMAX
 10
-1.000000000000000E+20
 20
-1.000000000000000E+20
 30
-1.000000000000000E+20
  9
$PLIMMIN
 10
0.0
 20
0.0
  9
$PLIMMAX
 10
12.0
 20
9.0
  9
$UNITMODE
 70
     0
  9
$VISRETAIN
 70
     1
  9
$PLINEGEN
 70
     0
  9
$PSLTSCALE
 70
     1
  9
$TREEDEPTH
 70
  3020
  9
$CMLSTYLE
  2
Standard
  9
$CMLJUST
 70
     0
  9
$CMLSCALE
 40
1.0
  9
$PROXYGRAPHICS
 70
     1
  9
$MEASUREMENT
 70
     0
  9
$CELWEIGHT
370
    -1
  9
$ENDCAPS
280
     0
  9
$JOINSTYLE
280
     0
  9
$LWDISPLAY
290
     1
  9
$INSUNITS
 70
     4
  9
$HYPERLINKBASE
  1

  9
$STYLESHEET
  1

  9
$XEDIT
290
     1
  9
$CEPSNTYPE
380
     0
  9
$PSTYLEMODE
290
     1
  9
$FINGERPRINTGUID
  2
{64AEF122-CA1D-C64D-8418-135E85DB0324}
  9
$VERSIONGUID
  2
{414E7BF6-AE99-1044-BE6E-716B9C9AA480}
  9
$EXTNAMES
290
     1
  9
$PSVPSCALE
 40
0.0
  9
$OLESTARTUP
290
     0
  9
$SORTENTS
280
   127
  9
$INDEXCTL
280
     0
  9
$HIDETEXT
280
     1
  9
$XCLIPFRAME
280
     2
  9
$HALOGAP
280
     0
  9
$OBSCOLOR
 70
   257
  9
$OBSLTYPE
280
     0
  9
$INTERSECTIONDISPLAY
280
     0
  9
$INTERSECTIONCOLOR
 70
   257
  9
$DIMASSOC
280
     2
  9
$PROJECTNAME
  1

  9
$CAMERADISPLAY
290
     0
  9
$LENSLENGTH
 40
50.0
  9
$CAMERAHEIGHT
 40
0.0
  9
$STEPSPERSEC
 40
2.0
  9
$STEPSIZE
 40
6.0
  9
$3DDWFPREC
 40
2.0
  9
$PSOLWIDTH
 40
0.25
  9
$PSOLHEIGHT
 40
4.0
  9
$LOFTANG1
 40
1.570796326794896
  9
$LOFTANG2
 40
1.570796326794896
  9
$LOFTMAG1
 40
0.0
  9
$LOFTMAG2
 40
0.0
  9
$LOFTPARAM
 70
     7
  9
$LOFTNORMALS
280
     1
  9
$LATITUDE
 40
37.795
  9
$LONGITUDE
 40
-122.394
  9
$NORTHDIRECTION
 40
0.0
  9
$TIMEZONE
 70
 -8000
  9
$LIGHTGLYPHDISPLAY
280
     1
  9
$TILEMODELIGHTSYNCH
280
     1
  9
$CMATERIAL
347
11
  9
$SOLIDHIST
280
     0
  9
$SHOWHIST
280
     1
  9
$DWFFRAME
280
     2
  9
$DGNFRAME
280
     0
  9
$REALWORLDSCALE
290
     1
  9
$INTERFERECOLOR
 62
     1
  9
$INTERFEREOBJVS
345
33
  9
$INTERFEREVPVS
346
30
  9
$CSHADOW
280
     0
  9
$SHADOWPLANELOCATION
 40
0.0
  0
ENDSEC
  0
SECTION
  2
CLASSES
  0
CLASS
  1
ACDBDICTIONARYWDFLT
  2
AcDbDictionaryWithDefault
  3
ObjectDBX Classes
 90
        0
 91
        1
280
     0
281
     0
  0
CLASS
  1
MATERIAL
  2
AcDbMaterial
  3
ObjectDBX Classes
 90
     1153
 91
        3
280
     0
281
     0
  0
CLASS
  1
VISUALSTYLE
  2
AcDbVisualStyle
  3
ObjectDBX Classes
 90
     4095
 91
       24
280
     0
281
     0
  0
CLASS
  1
SCALE
  2
AcDbScale
  3
ObjectDBX Classes
 90
     1153
 91
       17
280
     0
281
     0
  0
CLASS
  1
TABLESTYLE
  2
AcDbTableStyle
  3
ObjectDBX Classes
 90
     4095
 91
        1
280
     0
281
     0
  0
CLASS
  1
MLEADERSTYLE
  2
AcDbMLeaderStyle
  3
ACDB_MLEADERSTYLE_CLASS
 90
     4095
 91
        1
280
     0
281
     0
  0
CLASS
  1
ACDBSECTIONVIEWSTYLE
  2
AcDbSectionViewStyle
  3
ObjectDBX Classes
 90
     1025
 91
        1
280
     0
281
     0
  0
CLASS
  1
ACDBDETAILVIEWSTYLE
  2
AcDbDetailViewStyle
  3
ObjectDBX Classes
 90
     1025
 91
        1
280
     0
281
     0
  0
CLASS
  1
DICTIONARYVAR
  2
AcDbDictionaryVar
  3
ObjectDBX Classes
 90
        0
 91
        5
280
     0
281
     0
  0
CLASS
  1
CELLSTYLEMAP
  2
AcDbCellStyleMap
  3
ObjectDBX Classes
 90
     1152
 91
        1
280
     0
281
     0
  0
ENDSEC
  0
SECTION
  2
TABLES
  0
TABLE
  2
VPORT
  5
8
330
0
100
AcDbSymbolTable
 70
     1
  0
VPORT
  5
57
330
8
100
AcDbSymbolTableRecord
100
AcDbViewportTableRecord
  2
*Active
 70
     0
 10
0.0
 20
0.0
 11
1.0
 21
1.0
 12
0.0
 22
0.0
 13
0.0
 23
0.0
 14
1.0
 24
1.0
 15
0.0
 25
0.0
 16
0.0
 26
0.0
 36
1.0
 17
104.9999999737534
 27
-148.4999999628701
 37
0.0
 40
302.939999924255
 41
0.7070707070707534
 42
50.0
 43
0.0
 44
0.0
 50
0.0
 51
0.0
 71
     0
 72
   100
 73
     1
 74
     0
 75
     1
 76
     0
 77
     0
 78
     0
281
     0
 65
     1
110
0.0
120
0.0
130
0.0
111
1.0
121
0.0
131
0.0
112
0.0
122
1.0
132
0.0
 79
     0
146
0.0
 60
     3
 61
     5
292
     1
282
     1
141
0.0
142
0.0
 63
   250
421
  3355443
  0
ENDTAB
  0
TABLE
  2
LTYPE
  5
5
330
0
100
AcDbSymbolTable
 70
     1
  0
LTYPE
  5
5B
330
5
100
AcDbSymbolTableRecord
100
AcDbLinetypeTableRecord
  2
ByBlock
 70
     0
  3

 72
    65
 73
     0
 40
0.0
  0
LTYPE
  5
5C
330
5
100
AcDbSymbolTableRecord
100
AcDbLinetypeTableRecord
  2
ByLayer
 70
     0
  3

 72
    65
 73
     0
 40
0.0
  0
LTYPE
  5
5D
330
5
100
AcDbSymbolTableRecord
100
AcDbLinetypeTableRecord
  2
Continuous
 70
     0
  3
Solid line
 72
    65
 73
     0
 40
0.0
  0
ENDTAB
  0
TABLE
  2
LAYER
  5
2
330
0
100
AcDbSymbolTable
 70
     2
  0
LAYER
  5
54
330
2
100
AcDbSymbolTableRecord
100
AcDbLayerTableRecord
  2
0
 70
     0
 62
     7
  6
Continuous
370
    -3
390
F
347
21
  0
LAYER
  5
78
330
2
100
AcDbSymbolTableRecord
100
AcDbLayerTableRecord
  2
レイヤー 1
 70
     0
 62
     7
  6
Continuous
370
     0
390
F
347
21
  0
ENDTAB
  0
TABLE
  2
STYLE
  5
3
330
0
100
AcDbSymbolTable
 70
     2
  0
STYLE
  5
55
330
3
100
AcDbSymbolTableRecord
100
AcDbTextStyleTableRecord
  2
Standard
 70
     0
 40
0.0
 41
1.0
 50
0.0
 71
     0
 42
0.2
  3
txt
  4

  0
STYLE
  5
5A
330
3
100
AcDbSymbolTableRecord
100
AcDbTextStyleTableRecord
  2
Annotative
 70
     0
 40
0.0
 41
1.0
 50
0.0
 71
     0
 42
0.2
  3
txt
  4

1001
AcadAnnotative
1000
AnnotativeData
1002
{
1070
     1
1070
     1
1002
}
  0
ENDTAB
  0
TABLE
  2
VIEW
  5
6
330
0
100
AcDbSymbolTable
 70
     0
  0
ENDTAB
  0
TABLE
  2
UCS
  5
7
330
0
100
AcDbSymbolTable
 70
     0
  0
ENDTAB
  0
TABLE
  2
APPID
  5
9
330
0
100
AcDbSymbolTable
 70
     2
  0
APPID
  5
56
330
9
100
AcDbSymbolTableRecord
100
AcDbRegAppTableRecord
  2
ACAD
 70
     0
  0
APPID
  5
5E
330
9
100
AcDbSymbolTableRecord
100
AcDbRegAppTableRecord
  2
AcadAnnotative
 70
     0
  0
ENDTAB
  0
TABLE
  2
DIMSTYLE
  5
A
330
0
100
AcDbSymbolTable
 70
     2
100
AcDbDimStyleTable
 71
     0
  0
DIMSTYLE
105
58
330
A
100
AcDbSymbolTableRecord
100
AcDbDimStyleTableRecord
  2
Standard
 70
     0
340
55
  0
DIMSTYLE
105
59
330
A
100
AcDbSymbolTableRecord
100
AcDbDimStyleTableRecord
  2
Annotative
 70
     0
340
55
1001
AcadAnnotative
1000
AnnotativeData
1002
{
1070
     1
1070
     1
1002
}
  0
ENDTAB
  0
TABLE
  2
BLOCK_RECORD
  5
1
330
0
100
AcDbSymbolTable
 70
    18
  0
BLOCK_RECORD
  5
70
330
1
100
AcDbSymbolTableRecord
100
AcDbBlockTableRecord
  2
*Model_Space
340
73
 70
     0
280
     1
281
     0
  0
BLOCK_RECORD
  5
6C
330
1
100
AcDbSymbolTableRecord
100
AcDbBlockTableRecord
  2
*Paper_Space
340
6F
 70
     0
280
     1
281
     0
  0
BLOCK_RECORD
  5
74
330
1
100
AcDbSymbolTableRecord
100
AcDbBlockTableRecord
  2
*Paper_Space0
340
77
 70
     0
280
     1
281
     0
  0
BLOCK_RECORD
  5
79
330
1
100
AcDbSymbolTableRecord
100
AcDbBlockTableRecord
  2
Block_0
340
0
102
{BLKREFS
331
7A
102
}
 70
     0
280
     1
281
     0
  0
BLOCK_RECORD
  5
7D
330
1
100
AcDbSymbolTableRecord
100
AcDbBlockTableRecord
  2
Block_1
340
0
102
{BLKREFS
331
7E
102
}
 70
     0
280
     1
281
     0
  0
BLOCK_RECORD
  5
81
330
1
100
AcDbSymbolTableRecord
100
AcDbBlockTableRecord
  2
Block_2
340
0
102
{BLKREFS
331
82
102
}
 70
     0
280
     1
281
     0
  0
BLOCK_RECORD
  5
8A
330
1
100
AcDbSymbolTableRecord
100
AcDbBlockTableRecord
  2
Block_3
340
0
102
{BLKREFS
331
8B
102
}
 70
     0
280
     1
281
     0
  0
BLOCK_RECORD
  5
8E
330
1
100
AcDbSymbolTableRecord
100
AcDbBlockTableRecord
  2
Block_4
340
0
102
{BLKREFS
331
8F
102
}
 70
     0
280
     1
281
     0
  0
BLOCK_RECORD
  5
97
330
1
100
AcDbSymbolTableRecord
100
AcDbBlockTableRecord
  2
Block_5
340
0
102
{BLKREFS
331
98
102
}
 70
     0
280
     1
281
     0
  0
BLOCK_RECORD
  5
9C
330
1
100
AcDbSymbolTableRecord
100
AcDbBlockTableRecord
  2
Block_6
340
0
102
{BLKREFS
331
9D
102
}
 70
     0
280
     1
281
     0
  0
BLOCK_RECORD
  5
A4
330
1
100
AcDbSymbolTableRecord
100
AcDbBlockTableRecord
  2
Block_7
340
0
102
{BLKREFS
331
A5
102
}
 70
     0
280
     1
281
     0
  0
BLOCK_RECORD
  5
A8
330
1
100
AcDbSymbolTableRecord
100
AcDbBlockTableRecord
  2
Block_8
340
0
102
{BLKREFS
331
A9
102
}
 70
     0
280
     1
281
     0
  0
BLOCK_RECORD
  5
B0
330
1
100
AcDbSymbolTableRecord
100
AcDbBlockTableRecord
  2
Block_9
340
0
102
{BLKREFS
331
B1
102
}
 70
     0
280
     1
281
     0
  0
BLOCK_RECORD
  5
B4
330
1
100
AcDbSymbolTableRecord
100
AcDbBlockTableRecord
  2
Block_10
340
0
102
{BLKREFS
331
B5
102
}
 70
     0
280
     1
281
     0
  0
BLOCK_RECORD
  5
BD
330
1
100
AcDbSymbolTableRecord
100
AcDbBlockTableRecord
  2
Block_11
340
0
102
{BLKREFS
331
BE
102
}
 70
     0
280
     1
281
     0
  0
BLOCK_RECORD
  5
C1
330
1
100
AcDbSymbolTableRecord
100
AcDbBlockTableRecord
  2
Block_12
340
0
102
{BLKREFS
331
C2
102
}
 70
     0
280
     1
281
     0
  0
BLOCK_RECORD
  5
CA
330
1
100
AcDbSymbolTableRecord
100
AcDbBlockTableRecord
  2
Block_13
340
0
102
{BLKREFS
331
CB
102
}
 70
     0
280
     1
281
     0
  0
BLOCK_RECORD
  5
CE
330
1
100
AcDbSymbolTableRecord
100
AcDbBlockTableRecord
  2
Block_14
340
0
102
{BLKREFS
331
CF
102
}
 70
     0
280
     1
281
     0
  0
BLOCK_RECORD
  5
D2
330
1
100
AcDbSymbolTableRecord
100
AcDbBlockTableRecord
  2
Block_15
340
0
102
{BLKREFS
331
D3
102
}
 70
     0
280
     1
281
     0
  0
BLOCK_RECORD
  5
F6
330
1
100
AcDbSymbolTableRecord
100
AcDbBlockTableRecord
  2
Block_16
340
0
102
{BLKREFS
331
F7
102
}
 70
     0
280
     1
281
     0
  0
ENDTAB
  0
ENDSEC
  0
SECTION
  2
BLOCKS
  0
BLOCK
  5
71
330
70
100
AcDbEntity
  8
0
100
AcDbBlockBegin
  2
*Model_Space
 70
     0
 10
0.0
 20
0.0
 30
0.0
  3
*Model_Space
  1

  0
ENDBLK
  5
72
330
70
100
AcDbEntity
  8
0
100
AcDbBlockEnd
  0
BLOCK
  5
6D
330
6C
100
AcDbEntity
 67
     1
  8
0
100
AcDbBlockBegin
  2
*Paper_Space
 70
     0
 10
0.0
 20
0.0
 30
0.0
  3
*Paper_Space
  1

  0
ENDBLK
  5
6E
330
6C
100
AcDbEntity
 67
     1
  8
0
100
AcDbBlockEnd
  0
BLOCK
  5
75
330
74
100
AcDbEntity
 67
     1
  8
0
100
AcDbBlockBegin
  2
*Paper_Space0
 70
     0
 10
0.0
 20
0.0
 30
0.0
  3
*Paper_Space0
  1

  0
ENDBLK
  5
76
330
74
100
AcDbEntity
 67
     1
  8
0
100
AcDbBlockEnd
  0
BLOCK
  5
7B
330
79
100
AcDbEntity
  8
0
100
AcDbBlockBegin
  2
Block_0
 70
     0
 10
0.0
 20
0.0
 30
0.0
  3
Block_0
  1

  0
INSERT
  5
7E
330
79
100
AcDbEntity
  8
レイヤー 1
100
AcDbBlockReference
  2
Block_1
 10
0.0
 20
0.0
 30
0.0
  0
INSERT
  5
98
330
79
100
AcDbEntity
  8
レイヤー 1
100
AcDbBlockReference
  2
Block_5
 10
0.0
 20
0.0
 30
0.0
  0
INSERT
  5
A5
330
79
100
AcDbEntity
  8
レイヤー 1
100
AcDbBlockReference
  2
Block_7
 10
0.0
 20
0.0
 30
0.0
  0
INSERT
  5
B1
330
79
100
AcDbEntity
  8
レイヤー 1
100
AcDbBlockReference
  2
Block_9
 10
0.0
 20
0.0
 30
0.0
  0
INSERT
  5
CB
330
79
100
AcDbEntity
  8
レイヤー 1
100
AcDbBlockReference
  2
Block_13
 10
0.0
 20
0.0
 30
0.0
  0
INSERT
  5
F7
330
79
100
AcDbEntity
  8
レイヤー 1
100
AcDbBlockReference
  2
Block_16
 10
0.0
 20
0.0
 30
0.0
  0
ENDBLK
  5
7C
330
79
100
AcDbEntity
  8
0
100
AcDbBlockEnd
  0
BLOCK
  5
7F
330
7D
100
AcDbEntity
  8
0
100
AcDbBlockBegin
  2
Block_1
 70
     0
 10
0.0
 20
0.0
 30
0.0
  3
Block_1
  1

  0
INSERT
  5
82
330
7D
100
AcDbEntity
  8
レイヤー 1
100
AcDbBlockReference
  2
Block_2
 10
0.0
 20
0.0
 30
0.0
  0
INSERT
  5
8B
330
7D
100
AcDbEntity
  8
レイヤー 1
100
AcDbBlockReference
  2
Block_3
 10
0.0
 20
0.0
 30
0.0
  0
ENDBLK
  5
80
330
7D
100
AcDbEntity
  8
0
100
AcDbBlockEnd
  0
BLOCK
  5
83
330
81
100
AcDbEntity
  8
0
100
AcDbBlockBegin
  2
Block_2
 70
     0
 10
0.0
 20
0.0
 30
0.0
  3
Block_2
  1

  0
SPLINE
  5
85
330
81
100
AcDbEntity
  8
レイヤー 1
 62
   250
420
  2299925
370
     9
100
AcDbSpline
210
0.0
220
0.0
230
1.0
 70
     9
 71
     3
 72
    17
 73
    13
 74
     0
 42
0.0000000001
 43
0.0000000001
 40
0.0
 40
0.0
 40
0.0
 40
0.0
 40
1.0
 40
1.0
 40
1.0
 40
2.0
 40
2.0
 40
2.0
 40
3.0
 40
3.0
 40
3.0
 40
4.0
 40
4.0
 40
4.0
 40
4.0
 10
103.8981032576258
 20
-165.0658009156772
 30
0.0
 10
103.8981032576258
 20
-165.0099914726566
 30
0.0
 10
103.853300479859
 20
-164.9651886960219
 30
0.0
 10
103.7981965909838
 20
-164.9651886960219
 30
0.0
 10
103.743057424331
 20
-164.9651886960219
 30
0.0
 10
103.6982899243422
 20
-165.0099914726566
 30
0.0
 10
103.6982899243422
 20
-165.0658009156772
 30
0.0
 10
103.6982899243422
 20
-165.1209048031603
 30
0.0
 10
103.743057424331
 20
-165.1657075797951
 30
0.0
 10
103.7981965909838
 20
-165.1657075797951
 30
0.0
 10
103.853300479859
 20
-165.1657075797951
 30
0.0
 10
103.8981032576258
 20
-165.1209048031603
 30
0.0
 10
103.8981032576258
 20
-165.0658009156772
 30
0.0
  0
SPLINE
  5
86
330
81
100
AcDbEntity
  8
レイヤー 1
 62
   250
420
  2299925
370
     9
100
AcDbSpline
210
0.0
220
0.0
230
1.0
 70
     9
 71
     3
 72
    17
 73
    13
 74
     0
 42
0.0000000001
 43
0.0000000001
 40
0.0
 40
0.0
 40
0.0
 40
0.0
 40
1.0
 40
1.0
 40
1.0
 40
2.0
 40
2.0
 40
2.0
 40
3.0
 40
3.0
 40
3.0
 40
4.0
 40
4.0
 40
4.0
 40
4.0
 10
123.9245135749135
 20
-165.0658009156772
 30
0.0
 10
123.9245135749135
 20
-165.0099914726566
 30
0.0
 10
123.8797107982787
 20
-164.9651886960219
 30
0.0
 10
123.8246069107957
 20
-164.9651886960219
 30
0.0
 10
123.7694677455357
 20
-164.9651886960219
 30
0.0
 10
123.7247013823953
 20
-165.0099914726566
 30
0.0
 10
123.7247013823953
 20
-165.0658009156772
 30
0.0
 10
123.7247013823953
 20
-165.1209048031603
 30
0.0
 10
123.7694677455357
 20
-165.1657075797951
 30
0.0
 10
123.8246069107957
 20
-165.1657075797951
 30
0.0
 10
123.8797107982787
 20
-165.1657075797951
 30
0.0
 10
123.9245135749135
 20
-165.1209048031603
 30
0.0
 10
123.9245135749135
 20
-165.0658009156772
 30
0.0
  0
LINE
  5
87
330
81
100
AcDbEntity
  8
レイヤー 1
 62
   250
420
  2299925
370
     9
100
AcDbLine
 10
103.8246075041699
 20
-165.0658009156772
 30
0.0
 11
123.8246074991695
 21
-165.0658009156772
 31
0.0
  0
LINE
  5
88
330
81
100
AcDbEntity
  8
レイヤー 1
 62
   250
420
  2299925
370
     9
100
AcDbLine
 10
103.7981965909838
 20
-162.8058006955568
 30
0.0
 11
103.7981965909838
 21
-166.0655731123931
 31
0.0
  0
LINE
  5
89
330
81
100
AcDbEntity
  8
レイヤー 1
 62
   250
420
  2299925
370
     9
100
AcDbLine
 10
123.8246069107957
 20
-163.305334016146
 30
0.0
 11
123.8246069107957
 21
-166.0655731123931
 31
0.0
  0
ENDBLK
  5
84
330
81
100
AcDbEntity
  8
0
100
AcDbBlockEnd
  0
BLOCK
  5
8C
330
8A
100
AcDbEntity
  8
0
100
AcDbBlockBegin
  2
Block_3
 70
     0
 10
0.0
 20
0.0
 30
0.0
  3
Block_3
  1

  0
INSERT
  5
8F
330
8A
100
AcDbEntity
  8
レイヤー 1
100
AcDbBlockReference
  2
Block_4
 10
0.0
 20
0.0
 30
0.0
  0
ENDBLK
  5
8D
330
8A
100
AcDbEntity
  8
0
100
AcDbBlockEnd
  0
BLOCK
  5
90
330
8E
100
AcDbEntity
  8
0
100
AcDbBlockBegin
  2
Block_4
 70
     0
 10
0.0
 20
0.0
 30
0.0
  3
Block_4
  1

  0
SPLINE
  5
92
330
8E
100
AcDbEntity
  8
レイヤー 1
100
AcDbSpline
210
0.0
220
0.0
230
1.0
 70
     9
 71
     3
 72
    44
 73
    40
 74
     0
 42
0.0000000001
 43
0.0000000001
 40
0.0
 40
0.0
 40
0.0
 40
0.0
 40
1.0
 40
1.0
 40
1.0
 40
2.0
 40
2.0
 40
2.0
 40
3.0
 40
3.0
 40
3.0
 40
4.0
 40
4.0
 40
4.0
 40
5.0
 40
5.0
 40
5.0
 40
6.0
 40
6.0
 40
6.0
 40
7.0
 40
7.0
 40
7.0
 40
8.0
 40
8.0
 40
8.0
 40
9.0
 40
9.0
 40
9.0
 40
10.0
 40
10.0
 40
10.0
 40
11.0
 40
11.0
 40
11.0
 40
12.0
 40
12.0
 40
12.0
 40
13.0
 40
13.0
 40
13.0
 40
13.0
 10
113.3157361912891
 20
-163.7705376109671
 30
0.0
 10
113.0980061566213
 20
-163.9293565128371
 30
0.0
 10
113.0049885785196
 20
-164.00342606577
 30
0.0
 10
112.956068222629
 20
-164.1470865475049
 30
0.0
 10
112.956068222629
 20
-164.1470865475049
 30
0.0
 10
113.7346598022955
 20
-164.1470865475049
 30
0.0
 10
113.7346598022955
 20
-164.1470865475049
 30
0.0
 10
113.7346598022955
 20
-164.1470865475049
 30
0.0
 10
113.7346598022955
 20
-164.3524142384258
 30
0.0
 10
113.7346598022955
 20
-164.3524142384258
 30
0.0
 10
113.7346598022955
 20
-164.3524142384258
 30
0.0
 10
112.7066433094969
 20
-164.3524142384258
 30
0.0
 10
112.7066433094969
 20
-164.3524142384258
 30
0.0
 10
112.7383381879612
 20
-163.9948133270568
 30
0.0
 10
112.803795002181
 20
-163.9166096595417
 30
0.0
 10
113.1889566774319
 20
-163.618264390519
 30
0.0
 10
113.444927271986
 20
-163.4194823810201
 30
0.0
 10
113.5103840862057
 20
-163.3516139999607
 30
0.0
 10
113.5103840862057
 20
-163.2141546900992
 30
0.0
 10
113.5103840862057
 20
-163.0956434054066
 30
0.0
 10
113.438381590564
 20
-162.9647297769671
 30
0.0
 10
113.2416666383562
 20
-162.9647297769671
 30
0.0
 10
112.9815619292199
 20
-162.9647297769671
 30
0.0
 10
112.9732937000553
 20
-163.1952066649303
 30
0.0
 10
112.9688150759244
 20
-163.3116508923318
 30
0.0
 10
112.9688150759244
 20
-163.3116508923318
 30
0.0
 10
112.7445393598347
 20
-163.3116508923318
 30
0.0
 10
112.7445393598347
 20
-163.3116508923318
 30
0.0
 10
112.7531520985478
 20
-163.1845268689261
 30
0.0
 10
112.7638318945521
 20
-163.0725612656554
 30
0.0
 10
112.8441026193584
 20
-162.9540499809628
 30
0.0
 10
112.9540011653379
 20
-162.7931640218017
 30
0.0
 10
113.1403808310899
 20
-162.7594020860462
 30
0.0
 10
113.2564805489428
 20
-162.7594020860462
 30
0.0
 10
113.5338107355054
 20
-162.7594020860462
 30
0.0
 10
113.7412054837175
 20
-162.9433701849586
 30
0.0
 10
113.7412054837175
 20
-163.2162217473904
 30
0.0
 10
113.7412054837175
 20
-163.444976087611
 30
0.0
 10
113.624761256316
 20
-163.5441948375862
 30
0.0
 10
113.3157361912891
 20
-163.7705376109671
 30
0.0
  0
HATCH
  5
93
330
8E
100
AcDbEntity
  8
レイヤー 1
 62
   250
420
  2299925
440
 33554687
100
AcDbHatch
 10
0.0
 20
0.0
 30
0.0
210
0.0
220
0.0
230
1.0
  2
SOLID
 70
     1
 71
     1
 91
        1
 92
        1
 93
        1
 72
     4
 94
        3
 73
     0
 74
     0
 95
       44
 96
       40
 40
0.0
 40
0.0
 40
0.0
 40
0.0
 40
1.0
 40
1.0
 40
1.0
 40
2.0
 40
2.0
 40
2.0
 40
3.0
 40
3.0
 40
3.0
 40
4.0
 40
4.0
 40
4.0
 40
5.0
 40
5.0
 40
5.0
 40
6.0
 40
6.0
 40
6.0
 40
7.0
 40
7.0
 40
7.0
 40
8.0
 40
8.0
 40
8.0
 40
9.0
 40
9.0
 40
9.0
 40
10.0
 40
10.0
 40
10.0
 40
11.0
 40
11.0
 40
11.0
 40
12.0
 40
12.0
 40
12.0
 40
13.0
 40
13.0
 40
13.0
 40
13.0
 10
113.3157361912891
 20
-163.7705376109671
 10
113.0980061566213
 20
-163.9293565128371
 10
113.0049885785196
 20
-164.00342606577
 10
112.956068222629
 20
-164.1470865475049
 10
112.956068222629
 20
-164.1470865475049
 10
113.7346598022955
 20
-164.1470865475049
 10
113.7346598022955
 20
-164.1470865475049
 10
113.7346598022955
 20
-164.1470865475049
 10
113.7346598022955
 20
-164.3524142384258
 10
113.7346598022955
 20
-164.3524142384258
 10
113.7346598022955
 20
-164.3524142384258
 10
112.7066433094969
 20
-164.3524142384258
 10
112.7066433094969
 20
-164.3524142384258
 10
112.7383381879612
 20
-163.9948133270568
 10
112.803795002181
 20
-163.9166096595417
 10
113.1889566774319
 20
-163.618264390519
 10
113.444927271986
 20
-163.4194823810201
 10
113.5103840862057
 20
-163.3516139999607
 10
113.5103840862057
 20
-163.2141546900992
 10
113.5103840862057
 20
-163.0956434054066
 10
113.438381590564
 20
-162.9647297769671
 10
113.2416666383562
 20
-162.9647297769671
 10
112.9815619292199
 20
-162.9647297769671
 10
112.9732937000553
 20
-163.1952066649303
 10
112.9688150759244
 20
-163.3116508923318
 10
112.9688150759244
 20
-163.3116508923318
 10
112.7445393598347
 20
-163.3116508923318
 10
112.7445393598347
 20
-163.3116508923318
 10
112.7531520985478
 20
-163.1845268689261
 10
112.7638318945521
 20
-163.0725612656554
 10
112.8441026193584
 20
-162.9540499809628
 10
112.9540011653379
 20
-162.7931640218017
 10
113.1403808310899
 20
-162.7594020860462
 10
113.2564805489428
 20
-162.7594020860462
 10
113.5338107355054
 20
-162.7594020860462
 10
113.7412054837175
 20
-162.9433701849586
 10
113.7412054837175
 20
-163.2162217473904
 10
113.7412054837175
 20
-163.444976087611
 10
113.624761256316
 20
-163.5441948375862
 10
113.3157361912891
 20
-163.7705376109671
 97
        0
 97
        1
330
92
 75
     2
 76
     1
 98
        1
 10
0.0
 20
0.0
450
        0
451
        0
460
0.0
461
0.0
452
        0
462
0.0
453
        0
470

  0
SPLINE
  5
94
330
8E
100
AcDbEntity
  8
レイヤー 1
100
AcDbSpline
210
0.0
220
0.0
230
1.0
 70
     9
 71
     3
 72
    17
 73
    13
 74
     0
 42
0.0000000001
 43
0.0000000001
 40
0.0
 40
0.0
 40
0.0
 40
0.0
 40
1.0
 40
1.0
 40
1.0
 40
2.0
 40
2.0
 40
2.0
 40
3.0
 40
3.0
 40
3.0
 40
4.0
 40
4.0
 40
4.0
 40
4.0
 10
114.3995632309487
 20
-162.9519829236717
 30
0.0
 10
114.1501383178166
 20
-162.9519829236717
 30
0.0
 10
114.1032850192172
 20
-163.2355142821078
 30
0.0
 10
114.1032850192172
 20
-163.5803683401813
 30
0.0
 10
114.1032850192172
 20
-163.8997286916639
 30
0.0
 10
114.1394585218123
 20
-164.2084092471423
 30
0.0
 10
114.3995632309487
 20
-164.2084092471423
 30
0.0
 10
114.6472655963382
 20
-164.2084092471423
 30
0.0
 10
114.6958414426802
 20
-163.9272894555459
 30
0.0
 10
114.6958414426802
 20
-163.5803683401813
 30
0.0
 10
114.6958414426802
 20
-163.2606634791501
 30
0.0
 10
114.6576008827939
 20
-162.9519829236717
 30
0.0
 10
114.3995632309487
 20
-162.9519829236717
 30
0.0
  0
SPLINE
  5
95
330
8E
100
AcDbEntity
  8
レイヤー 1
100
AcDbSpline
210
0.0
220
0.0
230
1.0
 70
     9
 71
     3
 72
    29
 73
    25
 74
     0
 42
0.0000000001
 43
0.0000000001
 40
0.0
 40
0.0
 40
0.0
 40
0.0
 40
1.0
 40
1.0
 40
1.0
 40
2.0
 40
2.0
 40
2.0
 40
3.0
 40
3.0
 40
3.0
 40
4.0
 40
4.0
 40
4.0
 40
5.0
 40
5.0
 40
5.0
 40
6.0
 40
6.0
 40
6.0
 40
7.0
 40
7.0
 40
7.0
 40
8.0
 40
8.0
 40
8.0
 40
8.0
 10
114.7974717594951
 20
-164.1746473113869
 30
0.0
 10
114.6892957612582
 20
-164.3841091168901
 30
0.0
 10
114.5160074583501
 20
-164.403057142059
 30
0.0
 10
114.3995632309487
 20
-164.403057142059
 30
0.0
 10
114.2386772717875
 20
-164.403057142059
 30
0.0
 10
114.0970838473438
 20
-164.3565483530081
 30
0.0
 10
114.0019992119509
 20
-164.1746473113869
 30
0.0
 10
113.8983018378448
 20
-163.9799994164703
 30
0.0
 10
113.879353812676
 20
-163.7429768470851
 30
0.0
 10
113.879353812676
 20
-163.5803683401813
 30
0.0
 10
113.879353812676
 20
-163.4363633488978
 30
0.0
 10
113.8962347805537
 20
-163.1845268689261
 30
0.0
 10
114.0019992119509
 20
-162.9857448594272
 30
0.0
 10
114.1098307006392
 20
-162.7828287353459
 30
0.0
 10
114.2707166598004
 20
-162.7594020860462
 30
0.0
 10
114.3995632309487
 20
-162.7594020860462
 30
0.0
 10
114.5583821328187
 20
-162.7594020860462
 30
0.0
 10
114.7020426145536
 20
-162.803843817806
 30
0.0
 10
114.7974717594951
 20
-162.9857448594272
 30
0.0
 10
114.8966905094702
 20
-163.1783256970526
 30
0.0
 10
114.9201171587699
 20
-163.4067355277247
 30
0.0
 10
114.9201171587699
 20
-163.5803683401813
 30
0.0
 10
114.9201171587699
 20
-163.7515895857982
 30
0.0
 10
114.8987575667614
 20
-163.9820664737614
 30
0.0
 10
114.7974717594951
 20
-164.1746473113869
 30
0.0
  0
HATCH
  5
96
330
8E
100
AcDbEntity
  8
レイヤー 1
 62
   250
420
  2299925
440
 33554687
100
AcDbHatch
 10
0.0
 20
0.0
 30
0.0
210
0.0
220
0.0
230
1.0
  2
SOLID
 70
     1
 71
     1
 91
        2
 92
        1
 93
        1
 72
     4
 94
        3
 73
     0
 74
     0
 95
       17
 96
       13
 40
0.0
 40
0.0
 40
0.0
 40
0.0
 40
1.0
 40
1.0
 40
1.0
 40
2.0
 40
2.0
 40
2.0
 40
3.0
 40
3.0
 40
3.0
 40
4.0
 40
4.0
 40
4.0
 40
4.0
 10
114.3995632309487
 20
-162.9519829236717
 10
114.1501383178166
 20
-162.9519829236717
 10
114.1032850192172
 20
-163.2355142821078
 10
114.1032850192172
 20
-163.5803683401813
 10
114.1032850192172
 20
-163.8997286916639
 10
114.1394585218123
 20
-164.2084092471423
 10
114.3995632309487
 20
-164.2084092471423
 10
114.6472655963382
 20
-164.2084092471423
 10
114.6958414426802
 20
-163.9272894555459
 10
114.6958414426802
 20
-163.5803683401813
 10
114.6958414426802
 20
-163.2606634791501
 10
114.6576008827939
 20
-162.9519829236717
 10
114.3995632309487
 20
-162.9519829236717
 97
        0
 97
        1
330
94
 92
        1
 93
        1
 72
     4
 94
        3
 73
     0
 74
     0
 95
       29
 96
       25
 40
0.0
 40
0.0
 40
0.0
 40
0.0
 40
1.0
 40
1.0
 40
1.0
 40
2.0
 40
2.0
 40
2.0
 40
3.0
 40
3.0
 40
3.0
 40
4.0
 40
4.0
 40
4.0
 40
5.0
 40
5.0
 40
5.0
 40
6.0
 40
6.0
 40
6.0
 40
7.0
 40
7.0
 40
7.0
 40
8.0
 40
8.0
 40
8.0
 40
8.0
 10
114.7974717594951
 20
-164.1746473113869
 10
114.6892957612582
 20
-164.3841091168901
 10
114.5160074583501
 20
-164.403057142059
 10
114.3995632309487
 20
-164.403057142059
 10
114.2386772717875
 20
-164.403057142059
 10
114.0970838473438
 20
-164.3565483530081
 10
114.0019992119509
 20
-164.1746473113869
 10
113.8983018378448
 20
-163.9799994164703
 10
113.879353812676
 20
-163.7429768470851
 10
113.879353812676
 20
-163.5803683401813
 10
113.879353812676
 20
-163.4363633488978
 10
113.8962347805537
 20
-163.1845268689261
 10
114.0019992119509
 20
-162.9857448594272
 10
114.1098307006392
 20
-162.7828287353459
 10
114.2707166598004
 20
-162.7594020860462
 10
114.3995632309487
 20
-162.7594020860462
 10
114.5583821328187
 20
-162.7594020860462
 10
114.7020426145536
 20
-162.803843817806
 10
114.7974717594951
 20
-162.9857448594272
 10
114.8966905094702
 20
-163.1783256970526
 10
114.9201171587699
 20
-163.4067355277247
 10
114.9201171587699
 20
-163.5803683401813
 10
114.9201171587699
 20
-163.7515895857982
 10
114.8987575667614
 20
-163.9820664737614
 10
114.7974717594951
 20
-164.1746473113869
 97
        0
 97
        1
330
95
 75
     2
 76
     1
 98
        1
 10
0.0
 20
0.0
450
        0
451
        0
460
0.0
461
0.0
452
        0
462
0.0
453
        0
470

  0
ENDBLK
  5
91
330
8E
100
AcDbEntity
  8
0
100
AcDbBlockEnd
  0
BLOCK
  5
99
330
97
100
AcDbEntity
  8
0
100
AcDbBlockBegin
  2
Block_5
 70
     0
 10
0.0
 20
0.0
 30
0.0
  3
Block_5
  1

  0
LINE
  5
9B
330
97
100
AcDbEntity
  8
レイヤー 1
 62
   250
420
  2299925
370
     9
100
AcDbLine
 10
90.77362078372017
 20
-153.2770107219561
 30
0.0
 11
101.3843105032892
 21
-163.8877355406819
 31
0.0
  0
INSERT
  5
9D
330
97
100
AcDbEntity
  8
レイヤー 1
100
AcDbBlockReference
  2
Block_6
 10
0.0
 20
0.0
 30
0.0
  0
ENDBLK
  5
9A
330
97
100
AcDbEntity
  8
0
100
AcDbBlockEnd
  0
BLOCK
  5
9E
330
9C
100
AcDbEntity
  8
0
100
AcDbBlockBegin
  2
Block_6
 70
     0
 10
0.0
 20
0.0
 30
0.0
  3
Block_6
  1

  0
SPLINE
  5
A0
330
9C
100
AcDbEntity
  8
レイヤー 1
 62
   250
420
  2299925
370
     9
100
AcDbSpline
210
0.0
220
0.0
230
1.0
 70
     9
 71
     3
 72
    17
 73
    13
 74
     0
 42
0.0000000001
 43
0.0000000001
 40
0.0
 40
0.0
 40
0.0
 40
0.0
 40
1.0
 40
1.0
 40
1.0
 40
2.0
 40
2.0
 40
2.0
 40
3.0
 40
3.0
 40
3.0
 40
4.0
 40
4.0
 40
4.0
 40
4.0
 10
90.87352745036149
 20
-153.2770107219561
 30
0.0
 10
90.87352745036213
 20
-153.221906834473
 30
0.0
 10
90.82872467259541
 20
-153.1771040578383
 30
0.0
 10
90.77362078371953
 20
-153.1771040578383
 30
0.0
 10
90.71781133928942
 20
-153.1771040578383
 30
0.0
 10
90.6730085615227
 20
-153.2219068344724
 30
0.0
 10
90.67300856152302
 20
-153.2770107219561
 30
0.0
 10
90.67300856152302
 20
-153.332149887216
 30
0.0
 10
90.71781133928942
 20
-153.3769526638508
 30
0.0
 10
90.77362078371953
 20
-153.3769526638508
 30
0.0
 10
90.82872467259541
 20
-153.3769526638508
 30
0.0
 10
90.87352745036181
 20
-153.332149887216
 30
0.0
 10
90.87352745036149
 20
-153.2770107219561
 30
0.0
  0
CIRCLE
  5
A1
330
9C
100
AcDbEntity
  8
レイヤー 1
 62
   250
420
  2299925
370
     9
100
AcDbCircle
 10
101.3843106320355
 20
-163.8877356694279
 30
0.0
 40
0.0999066653797365
  0
LINE
  5
A2
330
9C
100
AcDbEntity
  8
レイヤー 1
 62
   250
420
  2299925
370
     9
100
AcDbLine
 10
91.8057427279065
 20
-152.2448888038426
 30
0.0
 11
90.06598383945293
 21
-153.9839773705859
 31
0.0
  0
LINE
  5
A3
330
9C
100
AcDbEntity
  8
レイヤー 1
 62
   250
420
  2299925
370
     9
100
AcDbLine
 10
102.4164678539997
 20
-162.8555784735382
 30
0.0
 11
100.6773792433235
 21
-164.595372595819
 31
0.0
  0
ENDBLK
  5
9F
330
9C
100
AcDbEntity
  8
0
100
AcDbBlockEnd
  0
BLOCK
  5
A6
330
A4
100
AcDbEntity
  8
0
100
AcDbBlockBegin
  2
Block_7
 70
     0
 10
0.0
 20
0.0
 30
0.0
  3
Block_7
  1

  0
INSERT
  5
A9
330
A4
100
AcDbEntity
  8
レイヤー 1
100
AcDbBlockReference
  2
Block_8
 10
0.0
 20
0.0
 30
0.0
  0
ENDBLK
  5
A7
330
A4
100
AcDbEntity
  8
0
100
AcDbBlockEnd
  0
BLOCK
  5
AA
330
A8
100
AcDbEntity
  8
0
100
AcDbBlockBegin
  2
Block_8
 70
     0
 10
0.0
 20
0.0
 30
0.0
  3
Block_8
  1

  0
SPLINE
  5
AC
330
A8
100
AcDbEntity
  8
レイヤー 1
100
AcDbSpline
210
0.0
220
0.0
230
1.0
 70
    11
 71
     3
 72
    26
 73
    22
 74
     0
 42
0.0000000001
 43
0.0000000001
 40
0.0
 40
0.0
 40
0.0
 40
0.0
 40
1.0
 40
1.0
 40
1.0
 40
2.0
 40
2.0
 40
2.0
 40
3.0
 40
3.0
 40
3.0
 40
4.0
 40
4.0
 40
4.0
 40
5.0
 40
5.0
 40
5.0
 40
6.0
 40
6.0
 40
6.0
 40
7.0
 40
7.0
 40
7.0
 40
7.0
 10
96.07062172077402
 20
-157.7157822956405
 30
0.0
 10
96.07062172077402
 20
-157.7157822956405
 30
0.0
 10
96.85145261250589
 20
-156.9347791491343
 30
0.0
 10
96.85145261250589
 20
-156.9347791491343
 30
0.0
 10
96.85145261250589
 20
-156.9347791491343
 30
0.0
 10
96.61821964815448
 20
-156.7015461847829
 30
0.0
 10
96.61821964815448
 20
-156.7015461847829
 30
0.0
 10
96.61821964815448
 20
-156.7015461847829
 30
0.0
 10
96.72295055090607
 20
-156.5968152820313
 30
0.0
 10
96.72295055090607
 20
-156.5968152820313
 30
0.0
 10
96.96806909468159
 20
-156.8210909981211
 30
0.0
 10
97.11638045532161
 20
-156.7390977255722
 30
0.0
 10
97.21818302691074
 20
-156.6791530641288
 30
0.0
 10
97.21818302691074
 20
-156.6791530641288
 30
0.0
 10
97.3211913819197
 20
-156.7821614191378
 30
0.0
 10
97.3211913819197
 20
-156.7821614191378
 30
0.0
 10
97.3211913819197
 20
-156.7821614191378
 30
0.0
 10
96.22909611309552
 20
-157.874256687962
 30
0.0
 10
96.22909611309552
 20
-157.874256687962
 30
0.0
 10
96.22909611309552
 20
-157.874256687962
 30
0.0
 10
96.07062172077402
 20
-157.7157822956405
 30
0.0
 10
96.07062172077402
 20
-157.7157822956405
 30
0.0
  0
HATCH
  5
AD
330
A8
100
AcDbEntity
  8
レイヤー 1
 62
   250
420
  2299925
440
 33554687
100
AcDbHatch
 10
0.0
 20
0.0
 30
0.0
210
0.0
220
0.0
230
1.0
  2
SOLID
 70
     1
 71
     1
 91
        1
 92
        1
 93
        1
 72
     4
 94
        3
 73
     0
 74
     0
 95
       26
 96
       22
 40
0.0
 40
0.0
 40
0.0
 40
0.0
 40
1.0
 40
1.0
 40
1.0
 40
2.0
 40
2.0
 40
2.0
 40
3.0
 40
3.0
 40
3.0
 40
4.0
 40
4.0
 40
4.0
 40
5.0
 40
5.0
 40
5.0
 40
6.0
 40
6.0
 40
6.0
 40
7.0
 40
7.0
 40
7.0
 40
7.0
 10
96.07062172077402
 20
-157.7157822956405
 10
96.07062172077402
 20
-157.7157822956405
 10
96.85145261250589
 20
-156.9347791491343
 10
96.85145261250589
 20
-156.9347791491343
 10
96.85145261250589
 20
-156.9347791491343
 10
96.61821964815448
 20
-156.7015461847829
 10
96.61821964815448
 20
-156.7015461847829
 10
96.61821964815448
 20
-156.7015461847829
 10
96.72295055090607
 20
-156.5968152820313
 10
96.72295055090607
 20
-156.5968152820313
 10
96.96806909468159
 20
-156.8210909981211
 10
97.11638045532161
 20
-156.7390977255722
 10
97.21818302691074
 20
-156.6791530641288
 10
97.21818302691074
 20
-156.6791530641288
 10
97.3211913819197
 20
-156.7821614191378
 10
97.3211913819197
 20
-156.7821614191378
 10
97.3211913819197
 20
-156.7821614191378
 10
96.22909611309552
 20
-157.874256687962
 10
96.22909611309552
 20
-157.874256687962
 10
96.22909611309552
 20
-157.874256687962
 10
96.07062172077402
 20
-157.7157822956405
 10
96.07062172077402
 20
-157.7157822956405
 97
        0
 97
        1
330
AC
 75
     2
 76
     1
 98
        1
 10
0.0
 20
0.0
450
        0
451
        0
460
0.0
461
0.0
452
        0
462
0.0
453
        0
470

  0
SPLINE
  5
AE
330
A8
100
AcDbEntity
  8
レイヤー 1
100
AcDbSpline
210
0.0
220
0.0
230
1.0
 70
     9
 71
     3
 72
    53
 73
    49
 74
     0
 42
0.0000000001
 43
0.0000000001
 40
0.0
 40
0.0
 40
0.0
 40
0.0
 40
1.0
 40
1.0
 40
1.0
 40
2.0
 40
2.0
 40
2.0
 40
3.0
 40
3.0
 40
3.0
 40
4.0
 40
4.0
 40
4.0
 40
5.0
 40
5.0
 40
5.0
 40
6.0
 40
6.0
 40
6.0
 40
7.0
 40
7.0
 40
7.0
 40
8.0
 40
8.0
 40
8.0
 40
9.0
 40
9.0
 40
9.0
 40
10.0
 40
10.0
 40
10.0
 40
11.0
 40
11.0
 40
11.0
 40
12.0
 40
12.0
 40
12.0
 40
13.0
 40
13.0
 40
13.0
 40
14.0
 40
14.0
 40
14.0
 40
15.0
 40
15.0
 40
15.0
 40
16.0
 40
16.0
 40
16.0
 40
16.0
 10
96.88779836987528
 20
-158.6046169308349
 30
0.0
 10
96.83267684211129
 20
-158.5494954030709
 30
0.0
 10
96.77255992589367
 20
-158.4654350732308
 30
0.0
 10
96.74586043588298
 20
-158.3489908458294
 30
0.0
 10
96.70090193980048
 20
-158.1484862885879
 30
0.0
 10
96.77858884299286
 20
-158.0406547998995
 30
0.0
 10
96.84146183559867
 20
-157.9510823172831
 30
0.0
 10
96.84146183559867
 20
-157.9510823172831
 30
0.0
 10
96.99855818972606
 20
-158.1081786714104
 30
0.0
 10
96.99855818972606
 20
-158.1081786714104
 30
0.0
 10
96.89675561813693
 20
-158.2876681461919
 30
0.0
 10
96.96582978261618
 20
-158.398600220817
 30
0.0
 10
97.03163110638445
 20
-158.4644015445853
 30
0.0
 10
97.13016083726261
 20
-158.5629312754634
 30
0.0
 10
97.30792776430149
 20
-158.5997937971556
 30
0.0
 10
97.47243107372218
 20
-158.4354627425092
 30
0.0
 10
97.65364309624631
 20
-158.254250719985
 30
0.0
 10
97.57578393827968
 20
-158.0778618311402
 30
0.0
 10
97.490690079794
 20
-157.9927679726546
 30
0.0
 10
97.46829695913987
 20
-157.9703748520004
 30
0.0
 10
97.36804468051911
 20
-157.8701225733797
 30
0.0
 10
97.21404891232843
 20
-157.8987168659072
 30
0.0
 10
97.21404891232843
 20
-157.8987168659072
 30
0.0
 10
97.1031168377034
 20
-157.7609130464973
 30
0.0
 10
97.1031168377034
 20
-157.7609130464973
 30
0.0
 10
97.1031168377034
 20
-157.7609130464973
 30
0.0
 10
97.78696829152549
 20
-157.2479383287435
 30
0.0
 10
97.78696829152549
 20
-157.2479383287435
 30
0.0
 10
97.78696829152549
 20
-157.2479383287435
 30
0.0
 10
98.33749455006842
 20
-157.7984645872865
 30
0.0
 10
98.33749455006842
 20
-157.7984645872865
 30
0.0
 10
98.33749455006842
 20
-157.7984645872865
 30
0.0
 10
98.19969073065841
 20
-157.9362684066965
 30
0.0
 10
98.19969073065841
 20
-157.9362684066965
 30
0.0
 10
98.19969073065841
 20
-157.9362684066965
 30
0.0
 10
97.76423066132284
 20
-157.5008083373609
 30
0.0
 10
97.76423066132284
 20
-157.5008083373609
 30
0.0
 10
97.76423066132284
 20
-157.5008083373609
 30
0.0
 10
97.41903209370081
 20
-157.7536783459782
 30
0.0
 10
97.41903209370081
 20
-157.7536783459782
 30
0.0
 10
97.48621145566318
 20
-157.7733153902441
 30
0.0
 10
97.57302786189148
 20
-157.8029432114173
 30
0.0
 10
97.65674368218304
 20
-157.8866590317089
 30
0.0
 10
97.83623315696456
 20
-158.0661485064904
 30
0.0
 10
97.87206215001116
 20
-158.3651827946101
 30
0.0
 10
97.6505425103096
 20
-158.5867024343116
 30
0.0
 10
97.42626679421983
 20
-158.8109781504014
 30
0.0
 10
97.10173879950929
 20
-158.818557360469
 30
0.0
 10
96.88779836987528
 20
-158.6046169308349
 30
0.0
  0
HATCH
  5
AF
330
A8
100
AcDbEntity
  8
レイヤー 1
 62
   250
420
  2299925
440
 33554687
100
AcDbHatch
 10
0.0
 20
0.0
 30
0.0
210
0.0
220
0.0
230
1.0
  2
SOLID
 70
     1
 71
     1
 91
        1
 92
        1
 93
        1
 72
     4
 94
        3
 73
     0
 74
     0
 95
       53
 96
       49
 40
0.0
 40
0.0
 40
0.0
 40
0.0
 40
1.0
 40
1.0
 40
1.0
 40
2.0
 40
2.0
 40
2.0
 40
3.0
 40
3.0
 40
3.0
 40
4.0
 40
4.0
 40
4.0
 40
5.0
 40
5.0
 40
5.0
 40
6.0
 40
6.0
 40
6.0
 40
7.0
 40
7.0
 40
7.0
 40
8.0
 40
8.0
 40
8.0
 40
9.0
 40
9.0
 40
9.0
 40
10.0
 40
10.0
 40
10.0
 40
11.0
 40
11.0
 40
11.0
 40
12.0
 40
12.0
 40
12.0
 40
13.0
 40
13.0
 40
13.0
 40
14.0
 40
14.0
 40
14.0
 40
15.0
 40
15.0
 40
15.0
 40
16.0
 40
16.0
 40
16.0
 40
16.0
 10
96.88779836987528
 20
-158.6046169308349
 10
96.83267684211129
 20
-158.5494954030709
 10
96.77255992589367
 20
-158.4654350732308
 10
96.74586043588298
 20
-158.3489908458294
 10
96.70090193980048
 20
-158.1484862885879
 10
96.77858884299286
 20
-158.0406547998995
 10
96.84146183559867
 20
-157.9510823172831
 10
96.84146183559867
 20
-157.9510823172831
 10
96.99855818972606
 20
-158.1081786714104
 10
96.99855818972606
 20
-158.1081786714104
 10
96.89675561813693
 20
-158.2876681461919
 10
96.96582978261618
 20
-158.398600220817
 10
97.03163110638445
 20
-158.4644015445853
 10
97.13016083726261
 20
-158.5629312754634
 10
97.30792776430149
 20
-158.5997937971556
 10
97.47243107372218
 20
-158.4354627425092
 10
97.65364309624631
 20
-158.254250719985
 10
97.57578393827968
 20
-158.0778618311402
 10
97.490690079794
 20
-157.9927679726546
 10
97.46829695913987
 20
-157.9703748520004
 10
97.36804468051911
 20
-157.8701225733797
 10
97.21404891232843
 20
-157.8987168659072
 10
97.21404891232843
 20
-157.8987168659072
 10
97.1031168377034
 20
-157.7609130464973
 10
97.1031168377034
 20
-157.7609130464973
 10
97.1031168377034
 20
-157.7609130464973
 10
97.78696829152549
 20
-157.2479383287435
 10
97.78696829152549
 20
-157.2479383287435
 10
97.78696829152549
 20
-157.2479383287435
 10
98.33749455006842
 20
-157.7984645872865
 10
98.33749455006842
 20
-157.7984645872865
 10
98.33749455006842
 20
-157.7984645872865
 10
98.19969073065841
 20
-157.9362684066965
 10
98.19969073065841
 20
-157.9362684066965
 10
98.19969073065841
 20
-157.9362684066965
 10
97.76423066132284
 20
-157.5008083373609
 10
97.76423066132284
 20
-157.5008083373609
 10
97.76423066132284
 20
-157.5008083373609
 10
97.41903209370081
 20
-157.7536783459782
 10
97.41903209370081
 20
-157.7536783459782
 10
97.48621145566318
 20
-157.7733153902441
 10
97.57302786189148
 20
-157.8029432114173
 10
97.65674368218304
 20
-157.8866590317089
 10
97.83623315696456
 20
-158.0661485064904
 10
97.87206215001116
 20
-158.3651827946101
 10
97.6505425103096
 20
-158.5867024343116
 10
97.42626679421983
 20
-158.8109781504014
 10
97.10173879950929
 20
-158.818557360469
 10
96.88779836987528
 20
-158.6046169308349
 97
        0
 97
        1
330
AE
 75
     2
 76
     1
 98
        1
 10
0.0
 20
0.0
450
        0
451
        0
460
0.0
461
0.0
452
        0
462
0.0
453
        0
470

  0
ENDBLK
  5
AB
330
A8
100
AcDbEntity
  8
0
100
AcDbBlockEnd
  0
BLOCK
  5
B2
330
B0
100
AcDbEntity
  8
0
100
AcDbBlockBegin
  2
Block_9
 70
     0
 10
0.0
 20
0.0
 30
0.0
  3
Block_9
  1

  0
INSERT
  5
B5
330
B0
100
AcDbEntity
  8
レイヤー 1
100
AcDbBlockReference
  2
Block_10
 10
0.0
 20
0.0
 30
0.0
  0
INSERT
  5
BE
330
B0
100
AcDbEntity
  8
レイヤー 1
100
AcDbBlockReference
  2
Block_11
 10
0.0
 20
0.0
 30
0.0
  0
ENDBLK
  5
B3
330
B0
100
AcDbEntity
  8
0
100
AcDbBlockEnd
  0
BLOCK
  5
B6
330
B4
100
AcDbEntity
  8
0
100
AcDbBlockBegin
  2
Block_10
 70
     0
 10
0.0
 20
0.0
 30
0.0
  3
Block_10
  1

  0
SPLINE
  5
B8
330
B4
100
AcDbEntity
  8
レイヤー 1
 62
   250
420
  2299925
370
     9
100
AcDbSpline
210
0.0
220
0.0
230
1.0
 70
     9
 71
     3
 72
    17
 73
    13
 74
     0
 42
0.0000000001
 43
0.0000000001
 40
0.0
 40
0.0
 40
0.0
 40
0.0
 40
1.0
 40
1.0
 40
1.0
 40
2.0
 40
2.0
 40
2.0
 40
3.0
 40
3.0
 40
3.0
 40
4.0
 40
4.0
 40
4.0
 40
4.0
 10
89.0203678884583
 20
-130.8663490369487
 30
0.0
 10
89.0203678884583
 20
-130.8108923716972
 30
0.0
 10
88.97556511069188
 20
-130.7660895950621
 30
0.0
 10
88.92046122181634
 20
-130.7660895950621
 30
0.0
 10
88.8653220551639
 20
-130.7660895950621
 30
0.0
 10
88.82055455517502
 20
-130.8108923716972
 30
0.0
 10
88.82055455517502
 20
-130.8663490369487
 30
0.0
 10
88.82055455517502
 20
-130.9214464003386
 30
0.0
 10
88.8653220551639
 20
-130.9662491781053
 30
0.0
 10
88.92046122181634
 20
-130.9662491781053
 30
0.0
 10
88.97556511069188
 20
-130.9662491781053
 30
0.0
 10
89.0203678884583
 20
-130.9214464003386
 30
0.0
 10
89.0203678884583
 20
-130.8663490369487
 30
0.0
  0
CIRCLE
  5
B9
330
B4
100
AcDbEntity
  8
レイヤー 1
 62
   250
420
  2299925
370
     9
100
AcDbCircle
 10
88.9204612218165
 20
-150.8661696310351
 30
0.0
 40
0.0999066653796563
  0
LINE
  5
BA
330
B4
100
AcDbEntity
  8
レイヤー 1
 62
   250
420
  2299925
370
    13
100
AcDbLine
 10
88.92046122181634
 20
-150.8661693853337
 30
0.0
 11
88.92046122181634
 21
-130.8661693903334
 31
0.0
  0
LINE
  5
BB
330
B4
100
AcDbEntity
  8
レイヤー 1
 62
   250
420
  2299925
370
     9
100
AcDbLine
 10
91.18042622125178
 20
-150.8661696310351
 30
0.0
 11
87.92068899984442
 21
-150.8661696310351
 31
0.0
  0
LINE
  5
BC
330
B4
100
AcDbEntity
  8
レイヤー 1
 62
   250
420
  2299925
370
     9
100
AcDbLine
 10
90.68089288804328
 20
-130.8663490369487
 30
0.0
 11
87.92068899984442
 21
-130.8663490369487
 31
0.0
  0
ENDBLK
  5
B7
330
B4
100
AcDbEntity
  8
0
100
AcDbBlockEnd
  0
BLOCK
  5
BF
330
BD
100
AcDbEntity
  8
0
100
AcDbBlockBegin
  2
Block_11
 70
     0
 10
0.0
 20
0.0
 30
0.0
  3
Block_11
  1

  0
INSERT
  5
C2
330
BD
100
AcDbEntity
  8
レイヤー 1
100
AcDbBlockReference
  2
Block_12
 10
0.0
 20
0.0
 30
0.0
  0
ENDBLK
  5
C0
330
BD
100
AcDbEntity
  8
0
100
AcDbBlockEnd
  0
BLOCK
  5
C3
330
C1
100
AcDbEntity
  8
0
100
AcDbBlockBegin
  2
Block_12
 70
     0
 10
0.0
 20
0.0
 30
0.0
  3
Block_12
  1

  0
SPLINE
  5
C5
330
C1
100
AcDbEntity
  8
レイヤー 1
100
AcDbSpline
210
0.0
220
0.0
230
1.0
 70
     9
 71
     3
 72
    44
 73
    40
 74
     0
 42
0.0000000001
 43
0.0000000001
 40
0.0
 40
0.0
 40
0.0
 40
0.0
 40
1.0
 40
1.0
 40
1.0
 40
2.0
 40
2.0
 40
2.0
 40
3.0
 40
3.0
 40
3.0
 40
4.0
 40
4.0
 40
4.0
 40
5.0
 40
5.0
 40
5.0
 40
6.0
 40
6.0
 40
6.0
 40
7.0
 40
7.0
 40
7.0
 40
8.0
 40
8.0
 40
8.0
 40
9.0
 40
9.0
 40
9.0
 40
10.0
 40
10.0
 40
10.0
 40
11.0
 40
11.0
 40
11.0
 40
12.0
 40
12.0
 40
12.0
 40
13.0
 40
13.0
 40
13.0
 40
13.0
 10
87.62565915778109
 20
-141.3619140271595
 30
0.0
 10
87.78430580487684
 20
-141.5796440618273
 30
0.0
 10
87.85837535780972
 20
-141.672661639929
 30
0.0
 10
88.00220809431889
 20
-141.7215819958196
 30
0.0
 10
88.00220809431889
 20
-141.7215819958196
 30
0.0
 10
88.00220809431889
 20
-140.9429904161531
 30
0.0
 10
88.00220809431889
 20
-140.9429904161531
 30
0.0
 10
88.00220809431889
 20
-140.9429904161531
 30
0.0
 10
88.20736353046553
 20
-140.9429904161531
 30
0.0
 10
88.20736353046553
 20
-140.9429904161531
 30
0.0
 10
88.20736353046553
 20
-140.9429904161531
 30
0.0
 10
88.20736353046553
 20
-141.9710069089517
 30
0.0
 10
88.20736353046553
 20
-141.9710069089517
 30
0.0
 10
87.8497626190966
 20
-141.9393120304874
 30
0.0
 10
87.77155895158143
 20
-141.8738552162676
 30
0.0
 10
87.47321368255878
 20
-141.4886935410167
 30
0.0
 10
87.27443167305986
 20
-141.2327229464627
 30
0.0
 10
87.20673554677471
 20
-141.1672661322429
 30
0.0
 10
87.06927623691324
 20
-141.1672661322429
 30
0.0
 10
86.95076495222066
 20
-141.1672661322429
 30
0.0
 10
86.81950681423263
 20
-141.2392686278846
 30
0.0
 10
86.81950681423263
 20
-141.4359835800924
 30
0.0
 10
86.81950681423263
 20
-141.6960882892287
 30
0.0
 10
87.05015595697011
 20
-141.7047010279419
 30
0.0
 10
87.16660018437154
 20
-141.7088351425242
 30
0.0
 10
87.16660018437154
 20
-141.7088351425242
 30
0.0
 10
87.16660018437154
 20
-141.9331108586139
 30
0.0
 10
87.16660018437154
 20
-141.9331108586139
 30
0.0
 10
87.03964841574009
 20
-141.9244981199008
 30
0.0
 10
86.92751055769521
 20
-141.9138183238965
 30
0.0
 10
86.80899927300261
 20
-141.8335475990902
 30
0.0
 10
86.6482855686157
 20
-141.7236490531107
 30
0.0
 10
86.614351378086
 20
-141.5372693873587
 30
0.0
 10
86.614351378086
 20
-141.4211696695058
 30
0.0
 10
86.614351378086
 20
-141.1438394829432
 30
0.0
 10
86.7984917317726
 20
-140.9364447347311
 30
0.0
 10
87.07134329420439
 20
-140.9364447347311
 30
0.0
 10
87.29975312487646
 20
-140.9364447347311
 30
0.0
 10
87.39931638440017
 20
-141.0528889621326
 30
0.0
 10
87.62565915778109
 20
-141.3619140271595
 30
0.0
  0
HATCH
  5
C6
330
C1
100
AcDbEntity
  8
レイヤー 1
 62
   250
420
  2299925
440
 33554687
100
AcDbHatch
 10
0.0
 20
0.0
 30
0.0
210
0.0
220
0.0
230
1.0
  2
SOLID
 70
     1
 71
     1
 91
        1
 92
        1
 93
        1
 72
     4
 94
        3
 73
     0
 74
     0
 95
       44
 96
       40
 40
0.0
 40
0.0
 40
0.0
 40
0.0
 40
1.0
 40
1.0
 40
1.0
 40
2.0
 40
2.0
 40
2.0
 40
3.0
 40
3.0
 40
3.0
 40
4.0
 40
4.0
 40
4.0
 40
5.0
 40
5.0
 40
5.0
 40
6.0
 40
6.0
 40
6.0
 40
7.0
 40
7.0
 40
7.0
 40
8.0
 40
8.0
 40
8.0
 40
9.0
 40
9.0
 40
9.0
 40
10.0
 40
10.0
 40
10.0
 40
11.0
 40
11.0
 40
11.0
 40
12.0
 40
12.0
 40
12.0
 40
13.0
 40
13.0
 40
13.0
 40
13.0
 10
87.62565915778109
 20
-141.3619140271595
 10
87.78430580487684
 20
-141.5796440618273
 10
87.85837535780972
 20
-141.672661639929
 10
88.00220809431889
 20
-141.7215819958196
 10
88.00220809431889
 20
-141.7215819958196
 10
88.00220809431889
 20
-140.9429904161531
 10
88.00220809431889
 20
-140.9429904161531
 10
88.00220809431889
 20
-140.9429904161531
 10
88.20736353046553
 20
-140.9429904161531
 10
88.20736353046553
 20
-140.9429904161531
 10
88.20736353046553
 20
-140.9429904161531
 10
88.20736353046553
 20
-141.9710069089517
 10
88.20736353046553
 20
-141.9710069089517
 10
87.8497626190966
 20
-141.9393120304874
 10
87.77155895158143
 20
-141.8738552162676
 10
87.47321368255878
 20
-141.4886935410167
 10
87.27443167305986
 20
-141.2327229464627
 10
87.20673554677471
 20
-141.1672661322429
 10
87.06927623691324
 20
-141.1672661322429
 10
86.95076495222066
 20
-141.1672661322429
 10
86.81950681423263
 20
-141.2392686278846
 10
86.81950681423263
 20
-141.4359835800924
 10
86.81950681423263
 20
-141.6960882892287
 10
87.05015595697011
 20
-141.7047010279419
 10
87.16660018437154
 20
-141.7088351425242
 10
87.16660018437154
 20
-141.7088351425242
 10
87.16660018437154
 20
-141.9331108586139
 10
87.16660018437154
 20
-141.9331108586139
 10
87.03964841574009
 20
-141.9244981199008
 10
86.92751055769521
 20
-141.9138183238965
 10
86.80899927300261
 20
-141.8335475990902
 10
86.6482855686157
 20
-141.7236490531107
 10
86.614351378086
 20
-141.5372693873587
 10
86.614351378086
 20
-141.4211696695058
 10
86.614351378086
 20
-141.1438394829432
 10
86.7984917317726
 20
-140.9364447347311
 10
87.07134329420439
 20
-140.9364447347311
 10
87.29975312487646
 20
-140.9364447347311
 10
87.39931638440017
 20
-141.0528889621326
 10
87.62565915778109
 20
-141.3619140271595
 97
        0
 97
        1
330
C5
 75
     2
 76
     1
 98
        1
 10
0.0
 20
0.0
450
        0
451
        0
460
0.0
461
0.0
452
        0
462
0.0
453
        0
470

  0
SPLINE
  5
C7
330
C1
100
AcDbEntity
  8
レイヤー 1
100
AcDbSpline
210
0.0
220
0.0
230
1.0
 70
     9
 71
     3
 72
    17
 73
    13
 74
     0
 42
0.0000000001
 43
0.0000000001
 40
0.0
 40
0.0
 40
0.0
 40
0.0
 40
1.0
 40
1.0
 40
1.0
 40
2.0
 40
2.0
 40
2.0
 40
3.0
 40
3.0
 40
3.0
 40
4.0
 40
4.0
 40
4.0
 40
4.0
 10
86.80693221571146
 20
-140.2780869874999
 30
0.0
 10
86.80693221571146
 20
-140.5276841554063
 30
0.0
 10
87.09029131937326
 20
-140.5743651992314
 30
0.0
 10
87.43514537744678
 20
-140.5743651992314
 30
0.0
 10
87.75467798370369
 20
-140.5743651992314
 30
0.0
 10
88.06353079395634
 20
-140.5381916966363
 30
0.0
 10
88.06353079395634
 20
-140.2780869874999
 30
0.0
 10
88.06353079395634
 20
-140.0305568768847
 30
0.0
 10
87.78206649281143
 20
-139.9818087757684
 30
0.0
 10
87.43514537744678
 20
-139.9818087757684
 30
0.0
 10
87.11578502596411
 20
-139.9818087757684
 30
0.0
 10
86.80693221571146
 20
-140.0200493356547
 30
0.0
 10
86.80693221571146
 20
-140.2780869874999
 30
0.0
  0
SPLINE
  5
C8
330
C1
100
AcDbEntity
  8
レイヤー 1
100
AcDbSpline
210
0.0
220
0.0
230
1.0
 70
     9
 71
     3
 72
    29
 73
    25
 74
     0
 42
0.0000000001
 43
0.0000000001
 40
0.0
 40
0.0
 40
0.0
 40
0.0
 40
1.0
 40
1.0
 40
1.0
 40
2.0
 40
2.0
 40
2.0
 40
3.0
 40
3.0
 40
3.0
 40
4.0
 40
4.0
 40
4.0
 40
5.0
 40
5.0
 40
5.0
 40
6.0
 40
6.0
 40
6.0
 40
7.0
 40
7.0
 40
7.0
 40
8.0
 40
8.0
 40
8.0
 40
8.0
 10
88.02959660342663
 20
-139.8803507137278
 30
0.0
 10
88.23905840892981
 20
-139.9881822024162
 30
0.0
 10
88.25817868887297
 20
-140.1616427600985
 30
0.0
 10
88.25817868887297
 20
-140.2780869874999
 30
0.0
 10
88.25817868887297
 20
-140.4388006918868
 30
0.0
 10
88.21166989982208
 20
-140.5805663711048
 30
0.0
 10
88.02959660342663
 20
-140.6756510064977
 30
0.0
 10
87.83512096328427
 20
-140.7793483806037
 30
0.0
 10
87.59809839389909
 20
-140.7986409153212
 30
0.0
 10
87.43514537744678
 20
-140.7986409153212
 30
0.0
 10
87.29131264093759
 20
-140.7986409153212
 30
0.0
 10
87.03964841574009
 20
-140.7814154378949
 30
0.0
 10
86.84069415146693
 20
-140.6756510064977
 30
0.0
 10
86.63760577261143
 20
-140.5678195178094
 30
0.0
 10
86.614351378086
 20
-140.4071058134225
 30
0.0
 10
86.614351378086
 20
-140.2780869874999
 30
0.0
 10
86.614351378086
 20
-140.1194403404041
 30
0.0
 10
86.65879310984571
 20
-139.975607603895
 30
0.0
 10
86.84069415146693
 20
-139.8803507137278
 30
0.0
 10
87.03327498909237
 20
-139.7809597089783
 30
0.0
 10
87.26168481976444
 20
-139.7577053144529
 30
0.0
 10
87.43514537744678
 20
-139.7577053144529
 30
0.0
 10
87.60653887783794
 20
-139.7577053144529
 30
0.0
 10
87.83718802057542
 20
-139.7787203969129
 30
0.0
 10
88.02959660342663
 20
-139.8803507137278
 30
0.0
  0
HATCH
  5
C9
330
C1
100
AcDbEntity
  8
レイヤー 1
 62
   250
420
  2299925
440
 33554687
100
AcDbHatch
 10
0.0
 20
0.0
 30
0.0
210
0.0
220
0.0
230
1.0
  2
SOLID
 70
     1
 71
     1
 91
        2
 92
        1
 93
        1
 72
     4
 94
        3
 73
     0
 74
     0
 95
       17
 96
       13
 40
0.0
 40
0.0
 40
0.0
 40
0.0
 40
1.0
 40
1.0
 40
1.0
 40
2.0
 40
2.0
 40
2.0
 40
3.0
 40
3.0
 40
3.0
 40
4.0
 40
4.0
 40
4.0
 40
4.0
 10
86.80693221571146
 20
-140.2780869874999
 10
86.80693221571146
 20
-140.5276841554063
 10
87.09029131937326
 20
-140.5743651992314
 10
87.43514537744678
 20
-140.5743651992314
 10
87.75467798370369
 20
-140.5743651992314
 10
88.06353079395634
 20
-140.5381916966363
 10
88.06353079395634
 20
-140.2780869874999
 10
88.06353079395634
 20
-140.0305568768847
 10
87.78206649281143
 20
-139.9818087757684
 10
87.43514537744678
 20
-139.9818087757684
 10
87.11578502596411
 20
-139.9818087757684
 10
86.80693221571146
 20
-140.0200493356547
 10
86.80693221571146
 20
-140.2780869874999
 97
        0
 97
        1
330
C7
 92
        1
 93
        1
 72
     4
 94
        3
 73
     0
 74
     0
 95
       29
 96
       25
 40
0.0
 40
0.0
 40
0.0
 40
0.0
 40
1.0
 40
1.0
 40
1.0
 40
2.0
 40
2.0
 40
2.0
 40
3.0
 40
3.0
 40
3.0
 40
4.0
 40
4.0
 40
4.0
 40
5.0
 40
5.0
 40
5.0
 40
6.0
 40
6.0
 40
6.0
 40
7.0
 40
7.0
 40
7.0
 40
8.0
 40
8.0
 40
8.0
 40
8.0
 10
88.02959660342663
 20
-139.8803507137278
 10
88.23905840892981
 20
-139.9881822024162
 10
88.25817868887297
 20
-140.1616427600985
 10
88.25817868887297
 20
-140.2780869874999
 10
88.25817868887297
 20
-140.4388006918868
 10
88.21166989982208
 20
-140.5805663711048
 10
88.02959660342663
 20
-140.6756510064977
 10
87.83512096328427
 20
-140.7793483806037
 10
87.59809839389909
 20
-140.7986409153212
 10
87.43514537744678
 20
-140.7986409153212
 10
87.29131264093759
 20
-140.7986409153212
 10
87.03964841574009
 20
-140.7814154378949
 10
86.84069415146693
 20
-140.6756510064977
 10
86.63760577261143
 20
-140.5678195178094
 10
86.614351378086
 20
-140.4071058134225
 10
86.614351378086
 20
-140.2780869874999
 10
86.614351378086
 20
-140.1194403404041
 10
86.65879310984571
 20
-139.975607603895
 10
86.84069415146693
 20
-139.8803507137278
 10
87.03327498909237
 20
-139.7809597089783
 10
87.26168481976444
 20
-139.7577053144529
 10
87.43514537744678
 20
-139.7577053144529
 10
87.60653887783794
 20
-139.7577053144529
 10
87.83718802057542
 20
-139.7787203969129
 10
88.02959660342663
 20
-139.8803507137278
 97
        0
 97
        1
330
C8
 75
     2
 76
     1
 98
        1
 10
0.0
 20
0.0
450
        0
451
        0
460
0.0
461
0.0
452
        0
462
0.0
453
        0
470

  0
ENDBLK
  5
C4
330
C1
100
AcDbEntity
  8
0
100
AcDbBlockEnd
  0
BLOCK
  5
CC
330
CA
100
AcDbEntity
  8
0
100
AcDbBlockBegin
  2
Block_13
 70
     0
 10
0.0
 20
0.0
 30
0.0
  3
Block_13
  1

  0
INSERT
  5
CF
330
CA
100
AcDbEntity
  8
レイヤー 1
100
AcDbBlockReference
  2
Block_14
 10
0.0
 20
0.0
 30
0.0
  0
LINE
  5
F0
330
CA
100
AcDbEntity
  8
レイヤー 1
 62
   250
420
  2299925
370
     9
100
AcDbLine
 10
104.449292323632
 20
-159.9210594900378
 30
0.0
 11
104.7076667614848
 21
-158.9550481257939
 31
0.0
  0
LINE
  5
F1
330
CA
100
AcDbEntity
  8
レイヤー 1
 62
   250
420
  2299925
370
     9
100
AcDbLine
 10
104.449292323632
 20
-159.9210592840992
 30
0.0
 11
104.449292323632
 21
-151.4038882970956
 31
0.0
  0
LINE
  5
F2
330
CA
100
AcDbEntity
  8
レイヤー 1
 62
   250
420
  2299925
370
     9
100
AcDbLine
 10
104.449292323632
 20
-159.9210594900378
 30
0.0
 11
104.1902123302417
 21
-158.9550481257939
 31
0.0
  0
LINE
  5
F3
330
CA
100
AcDbEntity
  8
レイヤー 1
 62
   250
420
  2299925
370
     9
100
AcDbLine
 10
94.95082481404661
 20
-150.2494468098825
 30
0.0
 11
95.91683617830204
 21
-150.5078212476916
 31
0.0
  0
LINE
  5
F4
330
CA
100
AcDbEntity
  8
レイヤー 1
 62
   250
420
  2299925
370
     9
100
AcDbLine
 10
94.95084333108863
 20
-150.2494449928506
 30
0.0
 11
102.8887258696955
 21
-150.2494449926087
 31
0.0
  0
LINE
  5
F5
330
CA
100
AcDbEntity
  8
レイヤー 1
 62
   250
420
  2299925
370
     9
100
AcDbLine
 10
94.95082481404661
 20
-150.2494468098825
 30
0.0
 11
95.91683617827861
 21
-149.9903668164485
 31
0.0
  0
ENDBLK
  5
CD
330
CA
100
AcDbEntity
  8
0
100
AcDbBlockEnd
  0
BLOCK
  5
D0
330
CE
100
AcDbEntity
  8
0
100
AcDbBlockBegin
  2
Block_14
 70
     0
 10
0.0
 20
0.0
 30
0.0
  3
Block_14
  1

  0
INSERT
  5
D3
330
CE
100
AcDbEntity
  8
レイヤー 1
100
AcDbBlockReference
  2
Block_15
 10
0.0
 20
0.0
 30
0.0
  0
ENDBLK
  5
D1
330
CE
100
AcDbEntity
  8
0
100
AcDbBlockEnd
  0
BLOCK
  5
D4
330
D2
100
AcDbEntity
  8
0
100
AcDbBlockBegin
  2
Block_15
 70
     0
 10
0.0
 20
0.0
 30
0.0
  3
Block_15
  1

  0
SPLINE
  5
D6
330
D2
100
AcDbEntity
  8
レイヤー 1
100
AcDbSpline
210
0.0
220
0.0
230
1.0
 70
     9
 71
     3
 72
    41
 73
    37
 74
     0
 42
0.0000000001
 43
0.0000000001
 40
0.0
 40
0.0
 40
0.0
 40
0.0
 40
1.0
 40
1.0
 40
1.0
 40
2.0
 40
2.0
 40
2.0
 40
3.0
 40
3.0
 40
3.0
 40
4.0
 40
4.0
 40
4.0
 40
5.0
 40
5.0
 40
5.0
 40
6.0
 40
6.0
 40
6.0
 40
7.0
 40
7.0
 40
7.0
 40
8.0
 40
8.0
 40
8.0
 40
9.0
 40
9.0
 40
9.0
 40
10.0
 40
10.0
 40
10.0
 40
11.0
 40
11.0
 40
11.0
 40
12.0
 40
12.0
 40
12.0
 40
12.0
 10
105.3360337735792
 20
-151.0202392200574
 30
0.0
 10
105.0948770896117
 20
-150.8848469674871
 30
0.0
 10
104.9171101625728
 20
-150.5885687557556
 30
0.0
 10
104.8768025453954
 20
-150.4593776750587
 30
0.0
 10
104.7562242034116
 20
-150.7239610083259
 30
0.0
 10
104.5936156965078
 20
-150.9017279353648
 30
0.0
 10
104.4117146548867
 20
-151.0157605959266
 30
0.0
 10
104.4117146548867
 20
-151.0157605959266
 30
0.0
 10
104.2146551931304
 20
-150.8783012860651
 30
0.0
 10
104.2146551931304
 20
-150.8783012860651
 30
0.0
 10
104.2845906314809
 20
-150.8531520890228
 30
0.0
 10
104.4306626800555
 20
-150.7914848798368
 30
0.0
 10
104.5533080793304
 20
-150.6371446020976
 30
0.0
 10
104.6780205358964
 20
-150.4807372670673
 30
0.0
 10
104.7669039994159
 20
-150.2478488122644
 30
0.0
 10
104.7669039994159
 20
-149.987744103128
 30
0.0
 10
104.7669039994159
 20
-149.8861137863132
 30
0.0
 10
104.7541571461205
 20
-149.81445580022
 30
0.0
 10
104.7438218596647
 20
-149.7676025016206
 30
0.0
 10
104.7438218596647
 20
-149.7676025016206
 30
0.0
 10
104.9488050410371
 20
-149.7889620936291
 30
0.0
 10
104.9488050410371
 20
-149.7889620936291
 30
0.0
 10
104.9701646330456
 20
-149.7910291509203
 30
0.0
 10
104.9911797155057
 20
-149.7930962082114
 30
0.0
 10
104.9911797155057
 20
-149.81445580022
 30
0.0
 10
104.9911797155057
 20
-149.8334038253888
 30
0.0
 10
104.9804999195014
 20
-149.8416720545534
 30
0.0
 10
104.9467379837459
 20
-149.863031646562
 30
0.0
 10
104.9384697545813
 20
-150.0638807133521
 30
0.0
 10
104.9953138300879
 20
-150.3071044546107
 30
0.0
 10
105.0566365297254
 20
-150.4276827965944
 30
0.0
 10
105.147587050536
 20
-150.6033826663422
 30
0.0
 10
105.3422349454526
 20
-150.7832166506722
 30
0.0
 10
105.4776271980229
 20
-150.8404052357274
 30
0.0
 10
105.4776271980229
 20
-150.8404052357274
 30
0.0
 10
105.3360337735792
 20
-151.0202392200574
 30
0.0
 10
105.3360337735792
 20
-151.0202392200574
 30
0.0
  0
SPLINE
  5
D7
330
D2
100
AcDbEntity
  8
レイヤー 1
100
AcDbSpline
210
0.0
220
0.0
230
1.0
 70
    11
 71
     3
 72
    17
 73
    13
 74
     0
 42
0.0000000001
 43
0.0000000001
 40
0.0
 40
0.0
 40
0.0
 40
0.0
 40
1.0
 40
1.0
 40
1.0
 40
2.0
 40
2.0
 40
2.0
 40
3.0
 40
3.0
 40
3.0
 40
4.0
 40
4.0
 40
4.0
 40
4.0
 10
104.2466945811432
 20
-150.0618136560609
 30
0.0
 10
104.2466945811432
 20
-150.0618136560609
 30
0.0
 10
104.085808621982
 20
-150.0618136560609
 30
0.0
 10
104.085808621982
 20
-150.0618136560609
 30
0.0
 10
104.085808621982
 20
-150.0618136560609
 30
0.0
 10
104.085808621982
 20
-150.1910047367578
 30
0.0
 10
104.085808621982
 20
-150.1910047367578
 30
0.0
 10
104.085808621982
 20
-150.1910047367578
 30
0.0
 10
104.2466945811432
 20
-150.1910047367578
 30
0.0
 10
104.2466945811432
 20
-150.1910047367578
 30
0.0
 10
104.2466945811432
 20
-150.1910047367578
 30
0.0
 10
104.2466945811432
 20
-150.0618136560609
 30
0.0
 10
104.2466945811432
 20
-150.0618136560609
 30
0.0
  0
SPLINE
  5
D8
330
D2
100
AcDbEntity
  8
レイヤー 1
100
AcDbSpline
210
0.0
220
0.0
230
1.0
 70
    11
 71
     3
 72
    17
 73
    13
 74
     0
 42
0.0000000001
 43
0.0000000001
 40
0.0
 40
0.0
 40
0.0
 40
0.0
 40
1.0
 40
1.0
 40
1.0
 40
2.0
 40
2.0
 40
2.0
 40
3.0
 40
3.0
 40
3.0
 40
4.0
 40
4.0
 40
4.0
 40
4.0
 10
104.2466945811432
 20
-149.7889620936291
 30
0.0
 10
104.2466945811432
 20
-149.7889620936291
 30
0.0
 10
104.085808621982
 20
-149.7889620936291
 30
0.0
 10
104.085808621982
 20
-149.7889620936291
 30
0.0
 10
104.085808621982
 20
-149.7889620936291
 30
0.0
 10
104.085808621982
 20
-149.9178086647775
 30
0.0
 10
104.085808621982
 20
-149.9178086647775
 30
0.0
 10
104.085808621982
 20
-149.9178086647775
 30
0.0
 10
104.2466945811432
 20
-149.9178086647775
 30
0.0
 10
104.2466945811432
 20
-149.9178086647775
 30
0.0
 10
104.2466945811432
 20
-149.9178086647775
 30
0.0
 10
104.2466945811432
 20
-149.7889620936291
 30
0.0
 10
104.2466945811432
 20
-149.7889620936291
 30
0.0
  0
SPLINE
  5
D9
330
D2
100
AcDbEntity
  8
レイヤー 1
100
AcDbSpline
210
0.0
220
0.0
230
1.0
 70
    11
 71
     3
 72
    17
 73
    13
 74
     0
 42
0.0000000001
 43
0.0000000001
 40
0.0
 40
0.0
 40
0.0
 40
0.0
 40
1.0
 40
1.0
 40
1.0
 40
2.0
 40
2.0
 40
2.0
 40
3.0
 40
3.0
 40
3.0
 40
4.0
 40
4.0
 40
4.0
 40
4.0
 10
103.9142428668166
 20
-150.0618136560609
 30
0.0
 10
103.9142428668166
 20
-150.0618136560609
 30
0.0
 10
103.7557684744951
 20
-150.0618136560609
 30
0.0
 10
103.7557684744951
 20
-150.0618136560609
 30
0.0
 10
103.7557684744951
 20
-150.0618136560609
 30
0.0
 10
103.7557684744951
 20
-150.1910047367578
 30
0.0
 10
103.7557684744951
 20
-150.1910047367578
 30
0.0
 10
103.7557684744951
 20
-150.1910047367578
 30
0.0
 10
103.9142428668166
 20
-150.1910047367578
 30
0.0
 10
103.9142428668166
 20
-150.1910047367578
 30
0.0
 10
103.9142428668166
 20
-150.1910047367578
 30
0.0
 10
103.9142428668166
 20
-150.0618136560609
 30
0.0
 10
103.9142428668166
 20
-150.0618136560609
 30
0.0
  0
SPLINE
  5
DA
330
D2
100
AcDbEntity
  8
レイヤー 1
100
AcDbSpline
210
0.0
220
0.0
230
1.0
 70
    11
 71
     3
 72
    17
 73
    13
 74
     0
 42
0.0000000001
 43
0.0000000001
 40
0.0
 40
0.0
 40
0.0
 40
0.0
 40
1.0
 40
1.0
 40
1.0
 40
2.0
 40
2.0
 40
2.0
 40
3.0
 40
3.0
 40
3.0
 40
4.0
 40
4.0
 40
4.0
 40
4.0
 10
103.9142428668166
 20
-149.7889620936291
 30
0.0
 10
103.9142428668166
 20
-149.7889620936291
 30
0.0
 10
103.7557684744951
 20
-149.7889620936291
 30
0.0
 10
103.7557684744951
 20
-149.7889620936291
 30
0.0
 10
103.7557684744951
 20
-149.7889620936291
 30
0.0
 10
103.7557684744951
 20
-149.9178086647775
 30
0.0
 10
103.7557684744951
 20
-149.9178086647775
 30
0.0
 10
103.7557684744951
 20
-149.9178086647775
 30
0.0
 10
103.9142428668166
 20
-149.9178086647775
 30
0.0
 10
103.9142428668166
 20
-149.9178086647775
 30
0.0
 10
103.9142428668166
 20
-149.9178086647775
 30
0.0
 10
103.9142428668166
 20
-149.7889620936291
 30
0.0
 10
103.9142428668166
 20
-149.7889620936291
 30
0.0
  0
SPLINE
  5
DB
330
D2
100
AcDbEntity
  8
レイヤー 1
100
AcDbSpline
210
0.0
220
0.0
230
1.0
 70
     9
 71
     3
 72
   197
 73
   193
 74
     0
 42
0.0000000001
 43
0.0000000001
 40
0.0
 40
0.0
 40
0.0
 40
0.0
 40
1.0
 40
1.0
 40
1.0
 40
2.0
 40
2.0
 40
2.0
 40
3.0
 40
3.0
 40
3.0
 40
4.0
 40
4.0
 40
4.0
 40
5.0
 40
5.0
 40
5.0
 40
6.0
 40
6.0
 40
6.0
 40
7.0
 40
7.0
 40
7.0
 40
8.0
 40
8.0
 40
8.0
 40
9.0
 40
9.0
 40
9.0
 40
10.0
 40
10.0
 40
10.0
 40
11.0
 40
11.0
 40
11.0
 40
12.0
 40
12.0
 40
12.0
 40
13.0
 40
13.0
 40
13.0
 40
14.0
 40
14.0
 40
14.0
 40
15.0
 40
15.0
 40
15.0
 40
16.0
 40
16.0
 40
16.0
 40
17.0
 40
17.0
 40
17.0
 40
18.0
 40
18.0
 40
18.0
 40
19.0
 40
19.0
 40
19.0
 40
20.0
 40
20.0
 40
20.0
 40
21.0
 40
21.0
 40
21.0
 40
22.0
 40
22.0
 40
22.0
 40
23.0
 40
23.0
 40
23.0
 40
24.0
 40
24.0
 40
24.0
 40
25.0
 40
25.0
 40
25.0
 40
26.0
 40
26.0
 40
26.0
 40
27.0
 40
27.0
 40
27.0
 40
28.0
 40
28.0
 40
28.0
 40
29.0
 40
29.0
 40
29.0
 40
30.0
 40
30.0
 40
30.0
 40
31.0
 40
31.0
 40
31.0
 40
32.0
 40
32.0
 40
32.0
 40
33.0
 40
33.0
 40
33.0
 40
34.0
 40
34.0
 40
34.0
 40
35.0
 40
35.0
 40
35.0
 40
36.0
 40
36.0
 40
36.0
 40
37.0
 40
37.0
 40
37.0
 40
38.0
 40
38.0
 40
38.0
 40
39.0
 40
39.0
 40
39.0
 40
40.0
 40
40.0
 40
40.0
 40
41.0
 40
41.0
 40
41.0
 40
42.0
 40
42.0
 40
42.0
 40
43.0
 40
43.0
 40
43.0
 40
44.0
 40
44.0
 40
44.0
 40
45.0
 40
45.0
 40
45.0
 40
46.0
 40
46.0
 40
46.0
 40
47.0
 40
47.0
 40
47.0
 40
48.0
 40
48.0
 40
48.0
 40
49.0
 40
49.0
 40
49.0
 40
50.0
 40
50.0
 40
50.0
 40
51.0
 40
51.0
 40
51.0
 40
52.0
 40
52.0
 40
52.0
 40
53.0
 40
53.0
 40
53.0
 40
54.0
 40
54.0
 40
54.0
 40
55.0
 40
55.0
 40
55.0
 40
56.0
 40
56.0
 40
56.0
 40
57.0
 40
57.0
 40
57.0
 40
58.0
 40
58.0
 40
58.0
 40
59.0
 40
59.0
 40
59.0
 40
60.0
 40
60.0
 40
60.0
 40
61.0
 40
61.0
 40
61.0
 40
62.0
 40
62.0
 40
62.0
 40
63.0
 40
63.0
 40
63.0
 40
64.0
 40
64.0
 40
64.0
 40
64.0
 10
105.4207831225163
 20
-149.6642496370631
 30
0.0
 10
105.410103326512
 20
-149.6935329486877
 30
0.0
 10
105.3866766772123
 20
-149.7403862472871
 30
0.0
 10
105.3763413907566
 20
-149.7676025016206
 30
0.0
 10
105.3763413907566
 20
-149.7676025016206
 30
0.0
 10
105.3150186911191
 20
-149.9202202316172
 30
0.0
 10
105.3150186911191
 20
-149.9202202316172
 30
0.0
 10
105.3043388951149
 20
-149.9453694286595
 30
0.0
 10
105.2557630487728
 20
-150.0576795414786
 30
0.0
 10
105.2430161954774
 20
-150.0807616812298
 30
0.0
 10
105.2409491381863
 20
-150.0873073626518
 30
0.0
 10
105.2364705140554
 20
-150.0955755918164
 30
0.0
 10
105.2344034567643
 20
-150.1021212732383
 30
0.0
 10
105.2344034567643
 20
-150.1021212732383
 30
0.0
 10
105.0249416512611
 20
-150.0490668027655
 30
0.0
 10
105.0249416512611
 20
-150.0490668027655
 30
0.0
 10
105.1034898283248
 20
-149.939168256786
 30
0.0
 10
105.1648125279623
 20
-149.8037760042157
 30
0.0
 10
105.1965074064266
 20
-149.6935329486877
 30
0.0
 10
105.1965074064266
 20
-149.6935329486877
 30
0.0
 10
104.7310750063693
 20
-149.6935329486877
 30
0.0
 10
104.7310750063693
 20
-149.6935329486877
 30
0.0
 10
104.6504597720145
 20
-149.8585530224312
 30
0.0
 10
104.5829359005036
 20
-149.9371011994949
 30
0.0
 10
104.5491739647481
 20
-149.9770643071238
 30
0.0
 10
104.5491739647481
 20
-149.9770643071238
 30
0.0
 10
104.4265285654732
 20
-149.911607492904
 30
0.0
 10
104.4265285654732
 20
-149.911607492904
 30
0.0
 10
104.4265285654732
 20
-149.911607492904
 30
0.0
 10
104.4265285654732
 20
-150.0828287385209
 30
0.0
 10
104.4265285654732
 20
-150.0828287385209
 30
0.0
 10
104.4265285654732
 20
-150.1910047367578
 30
0.0
 10
104.4285956227644
 20
-150.2395805830998
 30
0.0
 10
104.4389309092201
 20
-150.345345014497
 30
0.0
 10
104.3672729231269
 20
-150.3432779572058
 30
0.0
 10
104.3459133311184
 20
-150.3432779572058
 30
0.0
 10
104.140930149746
 20
-150.3432779572058
 30
0.0
 10
104.140930149746
 20
-150.3432779572058
 30
0.0
 10
104.085808621982
 20
-150.3432779572058
 30
0.0
 10
104.085808621982
 20
-150.3432779572058
 30
0.0
 10
104.085808621982
 20
-150.3432779572058
 30
0.0
 10
104.085808621982
 20
-150.4786702097761
 30
0.0
 10
104.085808621982
 20
-150.4786702097761
 30
0.0
 10
104.085808621982
 20
-150.4786702097761
 30
0.0
 10
104.1578111176237
 20
-150.4786702097761
 30
0.0
 10
104.1578111176237
 20
-150.4786702097761
 30
0.0
 10
104.2232679318435
 20
-150.4786702097761
 30
0.0
 10
104.3693399804181
 20
-150.4741915856453
 30
0.0
 10
104.4751044118152
 20
-150.4659233564807
 30
0.0
 10
104.4751044118152
 20
-150.4659233564807
 30
0.0
 10
104.4751044118152
 20
-150.6436902835196
 30
0.0
 10
104.4751044118152
 20
-150.6436902835196
 30
0.0
 10
104.3776082095827
 20
-150.6371446020976
 30
0.0
 10
104.2191338172612
 20
-150.6330104875154
 30
0.0
 10
104.1578111176237
 20
-150.6330104875154
 30
0.0
 10
104.1578111176237
 20
-150.6330104875154
 30
0.0
 10
104.085808621982
 20
-150.6330104875154
 30
0.0
 10
104.085808621982
 20
-150.6330104875154
 30
0.0
 10
104.0878756792732
 20
-150.7218939510348
 30
0.0
 10
104.0920097938554
 20
-150.9609835777111
 30
0.0
 10
104.0940768511466
 20
-151.035053130644
 30
0.0
 10
104.0940768511466
 20
-151.035053130644
 30
0.0
 10
103.8932277843565
 20
-151.035053130644
 30
0.0
 10
103.8932277843565
 20
-151.035053130644
 30
0.0
 10
103.905974637652
 20
-150.82111270101
 30
0.0
 10
103.905974637652
 20
-150.7914848798368
 30
0.0
 10
103.9101087522342
 20
-150.6330104875154
 30
0.0
 10
103.9101087522342
 20
-150.6330104875154
 30
0.0
 10
103.8405178234322
 20
-150.6330104875154
 30
0.0
 10
103.8405178234322
 20
-150.6330104875154
 30
0.0
 10
103.7833292383771
 20
-150.6330104875154
 30
0.0
 10
103.631056017929
 20
-150.6371446020976
 30
0.0
 10
103.520812962401
 20
-150.6436902835196
 30
0.0
 10
103.520812962401
 20
-150.6436902835196
 30
0.0
 10
103.520812962401
 20
-150.4659233564807
 30
0.0
 10
103.520812962401
 20
-150.4659233564807
 30
0.0
 10
103.6265773937982
 20
-150.4741915856453
 30
0.0
 10
103.7705823850816
 20
-150.4786702097761
 30
0.0
 10
103.8405178234322
 20
-150.4786702097761
 30
0.0
 10
103.8405178234322
 20
-150.4786702097761
 30
0.0
 10
103.9142428668166
 20
-150.4786702097761
 30
0.0
 10
103.9142428668166
 20
-150.4786702097761
 30
0.0
 10
103.9142428668166
 20
-150.4786702097761
 30
0.0
 10
103.9142428668166
 20
-150.3432779572058
 30
0.0
 10
103.9142428668166
 20
-150.3432779572058
 30
0.0
 10
103.9142428668166
 20
-150.3432779572058
 30
0.0
 10
103.8701456446054
 20
-150.3432779572058
 30
0.0
 10
103.8701456446054
 20
-150.3432779572058
 30
0.0
 10
103.7936645248328
 20
-150.3432779572058
 30
0.0
 10
103.6014281967559
 20
-150.345345014497
 30
0.0
 10
103.5673217514519
 20
-150.345345014497
 30
0.0
 10
103.5738674328739
 20
-150.2733425188553
 30
0.0
 10
103.5821356620385
 20
-150.1930717940489
 30
0.0
 10
103.5821356620385
 20
-150.0724934520652
 30
0.0
 10
103.5821356620385
 20
-150.0724934520652
 30
0.0
 10
103.5821356620385
 20
-149.8988606396086
 30
0.0
 10
103.5821356620385
 20
-149.8988606396086
 30
0.0
 10
103.5821356620385
 20
-149.8268581439669
 30
0.0
 10
103.5738674328739
 20
-149.7062798019831
 30
0.0
 10
103.5673217514519
 20
-149.6260090771768
 30
0.0
 10
103.6458699285156
 20
-149.6301431917591
 30
0.0
 10
103.6837659788534
 20
-149.6322102490502
 30
0.0
 10
103.8108900022591
 20
-149.6322102490502
 30
0.0
 10
103.8108900022591
 20
-149.6322102490502
 30
0.0
 10
103.9142428668166
 20
-149.6322102490502
 30
0.0
 10
103.9142428668166
 20
-149.6322102490502
 30
0.0
 10
103.9142428668166
 20
-149.6322102490502
 30
0.0
 10
103.9142428668166
 20
-149.4864827100242
 30
0.0
 10
103.9142428668166
 20
-149.4864827100242
 30
0.0
 10
103.9142428668166
 20
-149.4864827100242
 30
0.0
 10
103.8360391993014
 20
-149.4864827100242
 30
0.0
 10
103.8360391993014
 20
-149.4864827100242
 30
0.0
 10
103.7812621810859
 20
-149.4864827100242
 30
0.0
 10
103.6096964259205
 20
-149.4906168246065
 30
0.0
 10
103.5252915865318
 20
-149.4968179964799
 30
0.0
 10
103.5252915865318
 20
-149.4968179964799
 30
0.0
 10
103.5252915865318
 20
-149.3193955789896
 30
0.0
 10
103.5252915865318
 20
-149.3193955789896
 30
0.0
 10
103.6076293686293
 20
-149.325596750863
 30
0.0
 10
103.7705823850816
 20
-149.3297308654453
 30
0.0
 10
103.8360391993014
 20
-149.3297308654453
 30
0.0
 10
103.8360391993014
 20
-149.3297308654453
 30
0.0
 10
103.9142428668166
 20
-149.3297308654453
 30
0.0
 10
103.9142428668166
 20
-149.3297308654453
 30
0.0
 10
103.9142428668166
 20
-149.2959689296899
 30
0.0
 10
103.9101087522342
 20
-149.1416286519507
 30
0.0
 10
103.9101087522342
 20
-149.1099337734864
 30
0.0
 10
103.9101087522342
 20
-149.1099337734864
 30
0.0
 10
104.106823704442
 20
-149.1268147413641
 30
0.0
 10
104.106823704442
 20
-149.1268147413641
 30
0.0
 10
104.1237046723197
 20
-149.1288817986553
 30
0.0
 10
104.1450642643283
 20
-149.1309488559464
 30
0.0
 10
104.1450642643283
 20
-149.1519639384064
 30
0.0
 10
104.1450642643283
 20
-149.1753905877061
 30
0.0
 10
104.1237046723197
 20
-149.1840033264193
 30
0.0
 10
104.0964884179863
 20
-149.1964056701661
 30
0.0
 10
104.0964884179863
 20
-149.2177652621747
 30
0.0
 10
104.0940768511466
 20
-149.3128498975676
 30
0.0
 10
104.0940768511466
 20
-149.3297308654453
 30
0.0
 10
104.0940768511466
 20
-149.3297308654453
 30
0.0
 10
104.1533324934929
 20
-149.3297308654453
 30
0.0
 10
104.1533324934929
 20
-149.3297308654453
 30
0.0
 10
104.2212008745523
 20
-149.3297308654453
 30
0.0
 10
104.3648613562872
 20
-149.325596750863
 30
0.0
 10
104.4706257876844
 20
-149.3193955789896
 30
0.0
 10
104.4706257876844
 20
-149.3193955789896
 30
0.0
 10
104.4706257876844
 20
-149.4968179964799
 30
0.0
 10
104.4706257876844
 20
-149.4968179964799
 30
0.0
 10
104.3734740950004
 20
-149.4906168246065
 30
0.0
 10
104.21706675997
 20
-149.4864827100242
 30
0.0
 10
104.1533324934929
 20
-149.4864827100242
 30
0.0
 10
104.1533324934929
 20
-149.4864827100242
 30
0.0
 10
104.085808621982
 20
-149.4864827100242
 30
0.0
 10
104.085808621982
 20
-149.4864827100242
 30
0.0
 10
104.085808621982
 20
-149.4864827100242
 30
0.0
 10
104.085808621982
 20
-149.6322102490502
 30
0.0
 10
104.085808621982
 20
-149.6322102490502
 30
0.0
 10
104.085808621982
 20
-149.6322102490502
 30
0.0
 10
104.1557440603326
 20
-149.6322102490502
 30
0.0
 10
104.1557440603326
 20
-149.6322102490502
 30
0.0
 10
104.3059502234895
 20
-149.6322102490502
 30
0.0
 10
104.3776082095827
 20
-149.628076134468
 30
0.0
 10
104.4389309092201
 20
-149.6260090771768
 30
0.0
 10
104.4306626800555
 20
-149.7210937125697
 30
0.0
 10
104.4285956227644
 20
-149.7996418896334
 30
0.0
 10
104.4265285654732
 20
-149.8375379399712
 30
0.0
 10
104.5808688432124
 20
-149.6260090771768
 30
0.0
 10
104.6866332746096
 20
-149.3786512213359
 30
0.0
 10
104.7035142424873
 20
-149.1161349453598
 30
0.0
 10
104.7035142424873
 20
-149.1161349453598
 30
0.0
 10
104.9191772198639
 20
-149.166777848993
 30
0.0
 10
104.9191772198639
 20
-149.166777848993
 30
0.0
 10
104.9339911304505
 20
-149.1712564731238
 30
0.0
 10
104.9488050410371
 20
-149.1774576449973
 30
0.0
 10
104.9488050410371
 20
-149.194338612875
 30
0.0
 10
104.9488050410371
 20
-149.2112195807527
 30
0.0
 10
104.9446709264548
 20
-149.2136311475924
 30
0.0
 10
104.8940280228216
 20
-149.2346462300524
 30
0.0
 10
104.8768025453954
 20
-149.3107828402765
 30
0.0
 10
104.851653348353
 20
-149.4017333610871
 30
0.0
 10
104.803077502011
 20
-149.5288573844928
 30
0.0
 10
104.803077502011
 20
-149.5288573844928
 30
0.0
 10
105.1413858786625
 20
-149.5288573844928
 30
0.0
 10
105.1413858786625
 20
-149.5288573844928
 30
0.0
 10
105.1796264385488
 20
-149.5288573844928
 30
0.0
 10
105.3084730096972
 20
-149.5243787603619
 30
0.0
 10
105.3570488560392
 20
-149.5181775884885
 30
0.0
 10
105.3570488560392
 20
-149.5181775884885
 30
0.0
 10
105.4504109436895
 20
-149.5877685172905
 30
0.0
 10
105.4504109436895
 20
-149.5877685172905
 30
0.0
 10
105.4417982049763
 20
-149.6091281092991
 30
0.0
 10
105.4355970331029
 20
-149.628076134468
 30
0.0
 10
105.4207831225163
 20
-149.6642496370631
 30
0.0
  0
HATCH
  5
DC
330
D2
100
AcDbEntity
  8
レイヤー 1
 62
   250
420
  2299925
440
 33554687
100
AcDbHatch
 10
0.0
 20
0.0
 30
0.0
210
0.0
220
0.0
230
1.0
  2
SOLID
 70
     1
 71
     1
 91
        6
 92
        1
 93
        1
 72
     4
 94
        3
 73
     0
 74
     0
 95
       41
 96
       37
 40
0.0
 40
0.0
 40
0.0
 40
0.0
 40
1.0
 40
1.0
 40
1.0
 40
2.0
 40
2.0
 40
2.0
 40
3.0
 40
3.0
 40
3.0
 40
4.0
 40
4.0
 40
4.0
 40
5.0
 40
5.0
 40
5.0
 40
6.0
 40
6.0
 40
6.0
 40
7.0
 40
7.0
 40
7.0
 40
8.0
 40
8.0
 40
8.0
 40
9.0
 40
9.0
 40
9.0
 40
10.0
 40
10.0
 40
10.0
 40
11.0
 40
11.0
 40
11.0
 40
12.0
 40
12.0
 40
12.0
 40
12.0
 10
105.3360337735792
 20
-151.0202392200574
 10
105.0948770896117
 20
-150.8848469674871
 10
104.9171101625728
 20
-150.5885687557556
 10
104.8768025453954
 20
-150.4593776750587
 10
104.7562242034116
 20
-150.7239610083259
 10
104.5936156965078
 20
-150.9017279353648
 10
104.4117146548867
 20
-151.0157605959266
 10
104.4117146548867
 20
-151.0157605959266
 10
104.2146551931304
 20
-150.8783012860651
 10
104.2146551931304
 20
-150.8783012860651
 10
104.2845906314809
 20
-150.8531520890228
 10
104.4306626800555
 20
-150.7914848798368
 10
104.5533080793304
 20
-150.6371446020976
 10
104.6780205358964
 20
-150.4807372670673
 10
104.7669039994159
 20
-150.2478488122644
 10
104.7669039994159
 20
-149.987744103128
 10
104.7669039994159
 20
-149.8861137863132
 10
104.7541571461205
 20
-149.81445580022
 10
104.7438218596647
 20
-149.7676025016206
 10
104.7438218596647
 20
-149.7676025016206
 10
104.9488050410371
 20
-149.7889620936291
 10
104.9488050410371
 20
-149.7889620936291
 10
104.9701646330456
 20
-149.7910291509203
 10
104.9911797155057
 20
-149.7930962082114
 10
104.9911797155057
 20
-149.81445580022
 10
104.9911797155057
 20
-149.8334038253888
 10
104.9804999195014
 20
-149.8416720545534
 10
104.9467379837459
 20
-149.863031646562
 10
104.9384697545813
 20
-150.0638807133521
 10
104.9953138300879
 20
-150.3071044546107
 10
105.0566365297254
 20
-150.4276827965944
 10
105.147587050536
 20
-150.6033826663422
 10
105.3422349454526
 20
-150.7832166506722
 10
105.4776271980229
 20
-150.8404052357274
 10
105.4776271980229
 20
-150.8404052357274
 10
105.3360337735792
 20
-151.0202392200574
 10
105.3360337735792
 20
-151.0202392200574
 97
        0
 97
        1
330
D6
 92
        1
 93
        1
 72
     4
 94
        3
 73
     0
 74
     0
 95
       17
 96
       13
 40
0.0
 40
0.0
 40
0.0
 40
0.0
 40
1.0
 40
1.0
 40
1.0
 40
2.0
 40
2.0
 40
2.0
 40
3.0
 40
3.0
 40
3.0
 40
4.0
 40
4.0
 40
4.0
 40
4.0
 10
104.2466945811432
 20
-150.0618136560609
 10
104.2466945811432
 20
-150.0618136560609
 10
104.085808621982
 20
-150.0618136560609
 10
104.085808621982
 20
-150.0618136560609
 10
104.085808621982
 20
-150.0618136560609
 10
104.085808621982
 20
-150.1910047367578
 10
104.085808621982
 20
-150.1910047367578
 10
104.085808621982
 20
-150.1910047367578
 10
104.2466945811432
 20
-150.1910047367578
 10
104.2466945811432
 20
-150.1910047367578
 10
104.2466945811432
 20
-150.1910047367578
 10
104.2466945811432
 20
-150.0618136560609
 10
104.2466945811432
 20
-150.0618136560609
 97
        0
 97
        1
330
D7
 92
        1
 93
        1
 72
     4
 94
        3
 73
     0
 74
     0
 95
       17
 96
       13
 40
0.0
 40
0.0
 40
0.0
 40
0.0
 40
1.0
 40
1.0
 40
1.0
 40
2.0
 40
2.0
 40
2.0
 40
3.0
 40
3.0
 40
3.0
 40
4.0
 40
4.0
 40
4.0
 40
4.0
 10
104.2466945811432
 20
-149.7889620936291
 10
104.2466945811432
 20
-149.7889620936291
 10
104.085808621982
 20
-149.7889620936291
 10
104.085808621982
 20
-149.7889620936291
 10
104.085808621982
 20
-149.7889620936291
 10
104.085808621982
 20
-149.9178086647775
 10
104.085808621982
 20
-149.9178086647775
 10
104.085808621982
 20
-149.9178086647775
 10
104.2466945811432
 20
-149.9178086647775
 10
104.2466945811432
 20
-149.9178086647775
 10
104.2466945811432
 20
-149.9178086647775
 10
104.2466945811432
 20
-149.7889620936291
 10
104.2466945811432
 20
-149.7889620936291
 97
        0
 97
        1
330
D8
 92
        1
 93
        1
 72
     4
 94
        3
 73
     0
 74
     0
 95
       17
 96
       13
 40
0.0
 40
0.0
 40
0.0
 40
0.0
 40
1.0
 40
1.0
 40
1.0
 40
2.0
 40
2.0
 40
2.0
 40
3.0
 40
3.0
 40
3.0
 40
4.0
 40
4.0
 40
4.0
 40
4.0
 10
103.9142428668166
 20
-150.0618136560609
 10
103.9142428668166
 20
-150.0618136560609
 10
103.7557684744951
 20
-150.0618136560609
 10
103.7557684744951
 20
-150.0618136560609
 10
103.7557684744951
 20
-150.0618136560609
 10
103.7557684744951
 20
-150.1910047367578
 10
103.7557684744951
 20
-150.1910047367578
 10
103.7557684744951
 20
-150.1910047367578
 10
103.9142428668166
 20
-150.1910047367578
 10
103.9142428668166
 20
-150.1910047367578
 10
103.9142428668166
 20
-150.1910047367578
 10
103.9142428668166
 20
-150.0618136560609
 10
103.9142428668166
 20
-150.0618136560609
 97
        0
 97
        1
330
D9
 92
        1
 93
        1
 72
     4
 94
        3
 73
     0
 74
     0
 95
       17
 96
       13
 40
0.0
 40
0.0
 40
0.0
 40
0.0
 40
1.0
 40
1.0
 40
1.0
 40
2.0
 40
2.0
 40
2.0
 40
3.0
 40
3.0
 40
3.0
 40
4.0
 40
4.0
 40
4.0
 40
4.0
 10
103.9142428668166
 20
-149.7889620936291
 10
103.9142428668166
 20
-149.7889620936291
 10
103.7557684744951
 20
-149.7889620936291
 10
103.7557684744951
 20
-149.7889620936291
 10
103.7557684744951
 20
-149.7889620936291
 10
103.7557684744951
 20
-149.9178086647775
 10
103.7557684744951
 20
-149.9178086647775
 10
103.7557684744951
 20
-149.9178086647775
 10
103.9142428668166
 20
-149.9178086647775
 10
103.9142428668166
 20
-149.9178086647775
 10
103.9142428668166
 20
-149.9178086647775
 10
103.9142428668166
 20
-149.7889620936291
 10
103.9142428668166
 20
-149.7889620936291
 97
        0
 97
        1
330
DA
 92
        1
 93
        1
 72
     4
 94
        3
 73
     0
 74
     0
 95
      197
 96
      193
 40
0.0
 40
0.0
 40
0.0
 40
0.0
 40
1.0
 40
1.0
 40
1.0
 40
2.0
 40
2.0
 40
2.0
 40
3.0
 40
3.0
 40
3.0
 40
4.0
 40
4.0
 40
4.0
 40
5.0
 40
5.0
 40
5.0
 40
6.0
 40
6.0
 40
6.0
 40
7.0
 40
7.0
 40
7.0
 40
8.0
 40
8.0
 40
8.0
 40
9.0
 40
9.0
 40
9.0
 40
10.0
 40
10.0
 40
10.0
 40
11.0
 40
11.0
 40
11.0
 40
12.0
 40
12.0
 40
12.0
 40
13.0
 40
13.0
 40
13.0
 40
14.0
 40
14.0
 40
14.0
 40
15.0
 40
15.0
 40
15.0
 40
16.0
 40
16.0
 40
16.0
 40
17.0
 40
17.0
 40
17.0
 40
18.0
 40
18.0
 40
18.0
 40
19.0
 40
19.0
 40
19.0
 40
20.0
 40
20.0
 40
20.0
 40
21.0
 40
21.0
 40
21.0
 40
22.0
 40
22.0
 40
22.0
 40
23.0
 40
23.0
 40
23.0
 40
24.0
 40
24.0
 40
24.0
 40
25.0
 40
25.0
 40
25.0
 40
26.0
 40
26.0
 40
26.0
 40
27.0
 40
27.0
 40
27.0
 40
28.0
 40
28.0
 40
28.0
 40
29.0
 40
29.0
 40
29.0
 40
30.0
 40
30.0
 40
30.0
 40
31.0
 40
31.0
 40
31.0
 40
32.0
 40
32.0
 40
32.0
 40
33.0
 40
33.0
 40
33.0
 40
34.0
 40
34.0
 40
34.0
 40
35.0
 40
35.0
 40
35.0
 40
36.0
 40
36.0
 40
36.0
 40
37.0
 40
37.0
 40
37.0
 40
38.0
 40
38.0
 40
38.0
 40
39.0
 40
39.0
 40
39.0
 40
40.0
 40
40.0
 40
40.0
 40
41.0
 40
41.0
 40
41.0
 40
42.0
 40
42.0
 40
42.0
 40
43.0
 40
43.0
 40
43.0
 40
44.0
 40
44.0
 40
44.0
 40
45.0
 40
45.0
 40
45.0
 40
46.0
 40
46.0
 40
46.0
 40
47.0
 40
47.0
 40
47.0
 40
48.0
 40
48.0
 40
48.0
 40
49.0
 40
49.0
 40
49.0
 40
50.0
 40
50.0
 40
50.0
 40
51.0
 40
51.0
 40
51.0
 40
52.0
 40
52.0
 40
52.0
 40
53.0
 40
53.0
 40
53.0
 40
54.0
 40
54.0
 40
54.0
 40
55.0
 40
55.0
 40
55.0
 40
56.0
 40
56.0
 40
56.0
 40
57.0
 40
57.0
 40
57.0
 40
58.0
 40
58.0
 40
58.0
 40
59.0
 40
59.0
 40
59.0
 40
60.0
 40
60.0
 40
60.0
 40
61.0
 40
61.0
 40
61.0
 40
62.0
 40
62.0
 40
62.0
 40
63.0
 40
63.0
 40
63.0
 40
64.0
 40
64.0
 40
64.0
 40
64.0
 10
105.4207831225163
 20
-149.6642496370631
 10
105.410103326512
 20
-149.6935329486877
 10
105.3866766772123
 20
-149.7403862472871
 10
105.3763413907566
 20
-149.7676025016206
 10
105.3763413907566
 20
-149.7676025016206
 10
105.3150186911191
 20
-149.9202202316172
 10
105.3150186911191
 20
-149.9202202316172
 10
105.3043388951149
 20
-149.9453694286595
 10
105.2557630487728
 20
-150.0576795414786
 10
105.2430161954774
 20
-150.0807616812298
 10
105.2409491381863
 20
-150.0873073626518
 10
105.2364705140554
 20
-150.0955755918164
 10
105.2344034567643
 20
-150.1021212732383
 10
105.2344034567643
 20
-150.1021212732383
 10
105.0249416512611
 20
-150.0490668027655
 10
105.0249416512611
 20
-150.0490668027655
 10
105.1034898283248
 20
-149.939168256786
 10
105.1648125279623
 20
-149.8037760042157
 10
105.1965074064266
 20
-149.6935329486877
 10
105.1965074064266
 20
-149.6935329486877
 10
104.7310750063693
 20
-149.6935329486877
 10
104.7310750063693
 20
-149.6935329486877
 10
104.6504597720145
 20
-149.8585530224312
 10
104.5829359005036
 20
-149.9371011994949
 10
104.5491739647481
 20
-149.9770643071238
 10
104.5491739647481
 20
-149.9770643071238
 10
104.4265285654732
 20
-149.911607492904
 10
104.4265285654732
 20
-149.911607492904
 10
104.4265285654732
 20
-149.911607492904
 10
104.4265285654732
 20
-150.0828287385209
 10
104.4265285654732
 20
-150.0828287385209
 10
104.4265285654732
 20
-150.1910047367578
 10
104.4285956227644
 20
-150.2395805830998
 10
104.4389309092201
 20
-150.345345014497
 10
104.3672729231269
 20
-150.3432779572058
 10
104.3459133311184
 20
-150.3432779572058
 10
104.140930149746
 20
-150.3432779572058
 10
104.140930149746
 20
-150.3432779572058
 10
104.085808621982
 20
-150.3432779572058
 10
104.085808621982
 20
-150.3432779572058
 10
104.085808621982
 20
-150.3432779572058
 10
104.085808621982
 20
-150.4786702097761
 10
104.085808621982
 20
-150.4786702097761
 10
104.085808621982
 20
-150.4786702097761
 10
104.1578111176237
 20
-150.4786702097761
 10
104.1578111176237
 20
-150.4786702097761
 10
104.2232679318435
 20
-150.4786702097761
 10
104.3693399804181
 20
-150.4741915856453
 10
104.4751044118152
 20
-150.4659233564807
 10
104.4751044118152
 20
-150.4659233564807
 10
104.4751044118152
 20
-150.6436902835196
 10
104.4751044118152
 20
-150.6436902835196
 10
104.3776082095827
 20
-150.6371446020976
 10
104.2191338172612
 20
-150.6330104875154
 10
104.1578111176237
 20
-150.6330104875154
 10
104.1578111176237
 20
-150.6330104875154
 10
104.085808621982
 20
-150.6330104875154
 10
104.085808621982
 20
-150.6330104875154
 10
104.0878756792732
 20
-150.7218939510348
 10
104.0920097938554
 20
-150.9609835777111
 10
104.0940768511466
 20
-151.035053130644
 10
104.0940768511466
 20
-151.035053130644
 10
103.8932277843565
 20
-151.035053130644
 10
103.8932277843565
 20
-151.035053130644
 10
103.905974637652
 20
-150.82111270101
 10
103.905974637652
 20
-150.7914848798368
 10
103.9101087522342
 20
-150.6330104875154
 10
103.9101087522342
 20
-150.6330104875154
 10
103.8405178234322
 20
-150.6330104875154
 10
103.8405178234322
 20
-150.6330104875154
 10
103.7833292383771
 20
-150.6330104875154
 10
103.631056017929
 20
-150.6371446020976
 10
103.520812962401
 20
-150.6436902835196
 10
103.520812962401
 20
-150.6436902835196
 10
103.520812962401
 20
-150.4659233564807
 10
103.520812962401
 20
-150.4659233564807
 10
103.6265773937982
 20
-150.4741915856453
 10
103.7705823850816
 20
-150.4786702097761
 10
103.8405178234322
 20
-150.4786702097761
 10
103.8405178234322
 20
-150.4786702097761
 10
103.9142428668166
 20
-150.4786702097761
 10
103.9142428668166
 20
-150.4786702097761
 10
103.9142428668166
 20
-150.4786702097761
 10
103.9142428668166
 20
-150.3432779572058
 10
103.9142428668166
 20
-150.3432779572058
 10
103.9142428668166
 20
-150.3432779572058
 10
103.8701456446054
 20
-150.3432779572058
 10
103.8701456446054
 20
-150.3432779572058
 10
103.7936645248328
 20
-150.3432779572058
 10
103.6014281967559
 20
-150.345345014497
 10
103.5673217514519
 20
-150.345345014497
 10
103.5738674328739
 20
-150.2733425188553
 10
103.5821356620385
 20
-150.1930717940489
 10
103.5821356620385
 20
-150.0724934520652
 10
103.5821356620385
 20
-150.0724934520652
 10
103.5821356620385
 20
-149.8988606396086
 10
103.5821356620385
 20
-149.8988606396086
 10
103.5821356620385
 20
-149.8268581439669
 10
103.5738674328739
 20
-149.7062798019831
 10
103.5673217514519
 20
-149.6260090771768
 10
103.6458699285156
 20
-149.6301431917591
 10
103.6837659788534
 20
-149.6322102490502
 10
103.8108900022591
 20
-149.6322102490502
 10
103.8108900022591
 20
-149.6322102490502
 10
103.9142428668166
 20
-149.6322102490502
 10
103.9142428668166
 20
-149.6322102490502
 10
103.9142428668166
 20
-149.6322102490502
 10
103.9142428668166
 20
-149.4864827100242
 10
103.9142428668166
 20
-149.4864827100242
 10
103.9142428668166
 20
-149.4864827100242
 10
103.8360391993014
 20
-149.4864827100242
 10
103.8360391993014
 20
-149.4864827100242
 10
103.7812621810859
 20
-149.4864827100242
 10
103.6096964259205
 20
-149.4906168246065
 10
103.5252915865318
 20
-149.4968179964799
 10
103.5252915865318
 20
-149.4968179964799
 10
103.5252915865318
 20
-149.3193955789896
 10
103.5252915865318
 20
-149.3193955789896
 10
103.6076293686293
 20
-149.325596750863
 10
103.7705823850816
 20
-149.3297308654453
 10
103.8360391993014
 20
-149.3297308654453
 10
103.8360391993014
 20
-149.3297308654453
 10
103.9142428668166
 20
-149.3297308654453
 10
103.9142428668166
 20
-149.3297308654453
 10
103.9142428668166
 20
-149.2959689296899
 10
103.9101087522342
 20
-149.1416286519507
 10
103.9101087522342
 20
-149.1099337734864
 10
103.9101087522342
 20
-149.1099337734864
 10
104.106823704442
 20
-149.1268147413641
 10
104.106823704442
 20
-149.1268147413641
 10
104.1237046723197
 20
-149.1288817986553
 10
104.1450642643283
 20
-149.1309488559464
 10
104.1450642643283
 20
-149.1519639384064
 10
104.1450642643283
 20
-149.1753905877061
 10
104.1237046723197
 20
-149.1840033264193
 10
104.0964884179863
 20
-149.1964056701661
 10
104.0964884179863
 20
-149.2177652621747
 10
104.0940768511466
 20
-149.3128498975676
 10
104.0940768511466
 20
-149.3297308654453
 10
104.0940768511466
 20
-149.3297308654453
 10
104.1533324934929
 20
-149.3297308654453
 10
104.1533324934929
 20
-149.3297308654453
 10
104.2212008745523
 20
-149.3297308654453
 10
104.3648613562872
 20
-149.325596750863
 10
104.4706257876844
 20
-149.3193955789896
 10
104.4706257876844
 20
-149.3193955789896
 10
104.4706257876844
 20
-149.4968179964799
 10
104.4706257876844
 20
-149.4968179964799
 10
104.3734740950004
 20
-149.4906168246065
 10
104.21706675997
 20
-149.4864827100242
 10
104.1533324934929
 20
-149.4864827100242
 10
104.1533324934929
 20
-149.4864827100242
 10
104.085808621982
 20
-149.4864827100242
 10
104.085808621982
 20
-149.4864827100242
 10
104.085808621982
 20
-149.4864827100242
 10
104.085808621982
 20
-149.6322102490502
 10
104.085808621982
 20
-149.6322102490502
 10
104.085808621982
 20
-149.6322102490502
 10
104.1557440603326
 20
-149.6322102490502
 10
104.1557440603326
 20
-149.6322102490502
 10
104.3059502234895
 20
-149.6322102490502
 10
104.3776082095827
 20
-149.628076134468
 10
104.4389309092201
 20
-149.6260090771768
 10
104.4306626800555
 20
-149.7210937125697
 10
104.4285956227644
 20
-149.7996418896334
 10
104.4265285654732
 20
-149.8375379399712
 10
104.5808688432124
 20
-149.6260090771768
 10
104.6866332746096
 20
-149.3786512213359
 10
104.7035142424873
 20
-149.1161349453598
 10
104.7035142424873
 20
-149.1161349453598
 10
104.9191772198639
 20
-149.166777848993
 10
104.9191772198639
 20
-149.166777848993
 10
104.9339911304505
 20
-149.1712564731238
 10
104.9488050410371
 20
-149.1774576449973
 10
104.9488050410371
 20
-149.194338612875
 10
104.9488050410371
 20
-149.2112195807527
 10
104.9446709264548
 20
-149.2136311475924
 10
104.8940280228216
 20
-149.2346462300524
 10
104.8768025453954
 20
-149.3107828402765
 10
104.851653348353
 20
-149.4017333610871
 10
104.803077502011
 20
-149.5288573844928
 10
104.803077502011
 20
-149.5288573844928
 10
105.1413858786625
 20
-149.5288573844928
 10
105.1413858786625
 20
-149.5288573844928
 10
105.1796264385488
 20
-149.5288573844928
 10
105.3084730096972
 20
-149.5243787603619
 10
105.3570488560392
 20
-149.5181775884885
 10
105.3570488560392
 20
-149.5181775884885
 10
105.4504109436895
 20
-149.5877685172905
 10
105.4504109436895
 20
-149.5877685172905
 10
105.4417982049763
 20
-149.6091281092991
 10
105.4355970331029
 20
-149.628076134468
 10
105.4207831225163
 20
-149.6642496370631
 97
        0
 97
        1
330
DB
 75
     2
 76
     1
 98
        1
 10
0.0
 20
0.0
450
        0
451
        0
460
0.0
461
0.0
452
        0
462
0.0
453
        0
470

  0
SPLINE
  5
DD
330
D2
100
AcDbEntity
  8
レイヤー 1
100
AcDbSpline
210
0.0
220
0.0
230
1.0
 70
     9
 71
     3
 72
    74
 73
    70
 74
     0
 42
0.0000000001
 43
0.0000000001
 40
0.0
 40
0.0
 40
0.0
 40
0.0
 40
1.0
 40
1.0
 40
1.0
 40
2.0
 40
2.0
 40
2.0
 40
3.0
 40
3.0
 40
3.0
 40
4.0
 40
4.0
 40
4.0
 40
5.0
 40
5.0
 40
5.0
 40
6.0
 40
6.0
 40
6.0
 40
7.0
 40
7.0
 40
7.0
 40
8.0
 40
8.0
 40
8.0
 40
9.0
 40
9.0
 40
9.0
 40
10.0
 40
10.0
 40
10.0
 40
11.0
 40
11.0
 40
11.0
 40
12.0
 40
12.0
 40
12.0
 40
13.0
 40
13.0
 40
13.0
 40
14.0
 40
14.0
 40
14.0
 40
15.0
 40
15.0
 40
15.0
 40
16.0
 40
16.0
 40
16.0
 40
17.0
 40
17.0
 40
17.0
 40
18.0
 40
18.0
 40
18.0
 40
19.0
 40
19.0
 40
19.0
 40
20.0
 40
20.0
 40
20.0
 40
21.0
 40
21.0
 40
21.0
 40
22.0
 40
22.0
 40
22.0
 40
23.0
 40
23.0
 40
23.0
 40
23.0
 10
107.3815592179462
 20
-149.5667534348305
 30
0.0
 10
107.3815592179462
 20
-149.5667534348305
 30
0.0
 10
107.2210177683336
 20
-149.5667534348305
 30
0.0
 10
107.2210177683336
 20
-149.5667534348305
 30
0.0
 10
107.2210177683336
 20
-149.5667534348305
 30
0.0
 10
107.2210177683336
 20
-149.6811306049408
 30
0.0
 10
107.2210177683336
 20
-149.6811306049408
 30
0.0
 10
107.2210177683336
 20
-149.7210937125697
 30
0.0
 10
107.2272189402071
 20
-149.7951632655026
 30
0.0
 10
107.2313530547894
 20
-149.8206569720934
 30
0.0
 10
107.2313530547894
 20
-149.8206569720934
 30
0.0
 10
107.019824191995
 20
-149.8206569720934
 30
0.0
 10
107.019824191995
 20
-149.8206569720934
 30
0.0
 10
107.0305039879993
 20
-149.7552001578737
 30
0.0
 10
107.0325710452904
 20
-149.6959445155274
 30
0.0
 10
107.0325710452904
 20
-149.6935329486877
 30
0.0
 10
107.0325710452904
 20
-149.6935329486877
 30
0.0
 10
107.0325710452904
 20
-149.5708875494128
 30
0.0
 10
107.0325710452904
 20
-149.5708875494128
 30
0.0
 10
107.0325710452904
 20
-149.5708875494128
 30
0.0
 10
106.8527370609604
 20
-149.5708875494128
 30
0.0
 10
106.8527370609604
 20
-149.5708875494128
 30
0.0
 10
106.8337890357915
 20
-149.6301431917591
 30
0.0
 10
106.7872802467407
 20
-149.7762152403337
 30
0.0
 10
106.6729030766304
 20
-149.8585530224312
 30
0.0
 10
106.6729030766304
 20
-149.8585530224312
 30
0.0
 10
106.5164957416
 20
-149.752788591034
 30
0.0
 10
106.5164957416
 20
-149.752788591034
 30
0.0
 10
106.5905652945329
 20
-149.7062798019831
 30
0.0
 10
106.7066650123858
 20
-149.6322102490502
 30
0.0
 10
106.7066650123858
 20
-149.3107828402765
 30
0.0
 10
106.7066650123858
 20
-149.2556613125124
 30
0.0
 10
106.7025308978035
 20
-149.2112195807527
 30
0.0
 10
106.7004638405124
 20
-149.173323530415
 30
0.0
 10
106.7766004507364
 20
-149.1815917595796
 30
0.0
 10
106.8506700036693
 20
-149.1881374410015
 30
0.0
 10
106.9140597605979
 20
-149.1881374410015
 30
0.0
 10
107.0918266876367
 20
-149.1881374410015
 30
0.0
 10
107.2906086971357
 20
-149.1288817986553
 30
0.0
 10
107.3519313967731
 20
-149.0992539774821
 30
0.0
 10
107.3519313967731
 20
-149.0992539774821
 30
0.0
 10
107.4790554201788
 20
-149.2346462300524
 30
0.0
 10
107.4790554201788
 20
-149.2346462300524
 30
0.0
 10
107.4831895347611
 20
-149.2387803446347
 30
0.0
 10
107.4852565920523
 20
-149.2473930833478
 30
0.0
 10
107.4852565920523
 20
-149.2535942552213
 30
0.0
 10
107.4852565920523
 20
-149.2749538472299
 30
0.0
 10
107.4704426814657
 20
-149.2811550191033
 30
0.0
 10
107.453561713588
 20
-149.2811550191033
 30
0.0
 10
107.432546631128
 20
-149.2811550191033
 30
0.0
 10
107.4177327205414
 20
-149.2728867899387
 30
0.0
 10
107.398440185824
 20
-149.2622069939344
 30
0.0
 10
107.2251518829159
 20
-149.3193955789896
 30
0.0
 10
107.0070773386996
 20
-149.3445447760319
 30
0.0
 10
106.8737521434204
 20
-149.346611833323
 30
0.0
 10
106.8737521434204
 20
-149.346611833323
 30
0.0
 10
106.8696180288381
 20
-149.429294124969
 30
0.0
 10
106.8696180288381
 20
-149.429294124969
 30
0.0
 10
106.8696180288381
 20
-149.429294124969
 30
0.0
 10
107.1424695912699
 20
-149.429294124969
 30
0.0
 10
107.1424695912699
 20
-149.429294124969
 30
0.0
 10
107.1996581763251
 20
-149.429294124969
 30
0.0
 10
107.4621744523011
 20
-149.4103460998002
 30
0.0
 10
107.5066161840608
 20
-149.4038004183782
 30
0.0
 10
107.5066161840608
 20
-149.4038004183782
 30
0.0
 10
107.5066161840608
 20
-149.572954606704
 30
0.0
 10
107.5066161840608
 20
-149.572954606704
 30
0.0
 10
107.4725097387569
 20
-149.5688204921217
 30
0.0
 10
107.4597628854614
 20
-149.5667534348305
 30
0.0
 10
107.3815592179462
 20
-149.5667534348305
 30
0.0
  0
SPLINE
  5
DE
330
D2
100
AcDbEntity
  8
レイヤー 1
100
AcDbSpline
210
0.0
220
0.0
230
1.0
 70
    11
 71
     3
 72
    17
 73
    13
 74
     0
 42
0.0000000001
 43
0.0000000001
 40
0.0
 40
0.0
 40
0.0
 40
0.0
 40
1.0
 40
1.0
 40
1.0
 40
2.0
 40
2.0
 40
2.0
 40
3.0
 40
3.0
 40
3.0
 40
4.0
 40
4.0
 40
4.0
 40
4.0
 10
107.0642659237547
 20
-150.5103650882404
 30
0.0
 10
107.0642659237547
 20
-150.5103650882404
 30
0.0
 10
106.1526936583576
 20
-150.5103650882404
 30
0.0
 10
106.1526936583576
 20
-150.5103650882404
 30
0.0
 10
106.1526936583576
 20
-150.5103650882404
 30
0.0
 10
106.1526936583576
 20
-150.6181965769288
 30
0.0
 10
106.1526936583576
 20
-150.6181965769288
 30
0.0
 10
106.1526936583576
 20
-150.6181965769288
 30
0.0
 10
107.0642659237547
 20
-150.6181965769288
 30
0.0
 10
107.0642659237547
 20
-150.6181965769288
 30
0.0
 10
107.0642659237547
 20
-150.6181965769288
 30
0.0
 10
107.0642659237547
 20
-150.5103650882404
 30
0.0
 10
107.0642659237547
 20
-150.5103650882404
 30
0.0
  0
SPLINE
  5
DF
330
D2
100
AcDbEntity
  8
レイヤー 1
100
AcDbSpline
210
0.0
220
0.0
230
1.0
 70
    11
 71
     3
 72
    17
 73
    13
 74
     0
 42
0.0000000001
 43
0.0000000001
 40
0.0
 40
0.0
 40
0.0
 40
0.0
 40
1.0
 40
1.0
 40
1.0
 40
2.0
 40
2.0
 40
2.0
 40
3.0
 40
3.0
 40
3.0
 40
4.0
 40
4.0
 40
4.0
 40
4.0
 10
107.0642659237547
 20
-150.2647297801421
 30
0.0
 10
107.0642659237547
 20
-150.2647297801421
 30
0.0
 10
106.1526936583576
 20
-150.2647297801421
 30
0.0
 10
106.1526936583576
 20
-150.2647297801421
 30
0.0
 10
106.1526936583576
 20
-150.2647297801421
 30
0.0
 10
106.1526936583576
 20
-150.3749728356701
 30
0.0
 10
106.1526936583576
 20
-150.3749728356701
 30
0.0
 10
106.1526936583576
 20
-150.3749728356701
 30
0.0
 10
107.0642659237547
 20
-150.3749728356701
 30
0.0
 10
107.0642659237547
 20
-150.3749728356701
 30
0.0
 10
107.0642659237547
 20
-150.3749728356701
 30
0.0
 10
107.0642659237547
 20
-150.2647297801421
 30
0.0
 10
107.0642659237547
 20
-150.2647297801421
 30
0.0
  0
SPLINE
  5
E0
330
D2
100
AcDbEntity
  8
レイヤー 1
100
AcDbSpline
210
0.0
220
0.0
230
1.0
 70
    11
 71
     3
 72
    17
 73
    13
 74
     0
 42
0.0000000001
 43
0.0000000001
 40
0.0
 40
0.0
 40
0.0
 40
0.0
 40
1.0
 40
1.0
 40
1.0
 40
2.0
 40
2.0
 40
2.0
 40
3.0
 40
3.0
 40
3.0
 40
4.0
 40
4.0
 40
4.0
 40
4.0
 10
107.0642659237547
 20
-150.0194389815924
 30
0.0
 10
107.0642659237547
 20
-150.0194389815924
 30
0.0
 10
106.1526936583576
 20
-150.0194389815924
 30
0.0
 10
106.1526936583576
 20
-150.0194389815924
 30
0.0
 10
106.1526936583576
 20
-150.0194389815924
 30
0.0
 10
106.1526936583576
 20
-150.1317490944115
 30
0.0
 10
106.1526936583576
 20
-150.1317490944115
 30
0.0
 10
106.1526936583576
 20
-150.1317490944115
 30
0.0
 10
107.0642659237547
 20
-150.1317490944115
 30
0.0
 10
107.0642659237547
 20
-150.1317490944115
 30
0.0
 10
107.0642659237547
 20
-150.1317490944115
 30
0.0
 10
107.0642659237547
 20
-150.0194389815924
 30
0.0
 10
107.0642659237547
 20
-150.0194389815924
 30
0.0
  0
SPLINE
  5
E1
330
D2
100
AcDbEntity
  8
レイヤー 1
100
AcDbSpline
210
0.0
220
0.0
230
1.0
 70
     9
 71
     3
 72
    74
 73
    70
 74
     0
 42
0.0000000001
 43
0.0000000001
 40
0.0
 40
0.0
 40
0.0
 40
0.0
 40
1.0
 40
1.0
 40
1.0
 40
2.0
 40
2.0
 40
2.0
 40
3.0
 40
3.0
 40
3.0
 40
4.0
 40
4.0
 40
4.0
 40
5.0
 40
5.0
 40
5.0
 40
6.0
 40
6.0
 40
6.0
 40
7.0
 40
7.0
 40
7.0
 40
8.0
 40
8.0
 40
8.0
 40
9.0
 40
9.0
 40
9.0
 40
10.0
 40
10.0
 40
10.0
 40
11.0
 40
11.0
 40
11.0
 40
12.0
 40
12.0
 40
12.0
 40
13.0
 40
13.0
 40
13.0
 40
14.0
 40
14.0
 40
14.0
 40
15.0
 40
15.0
 40
15.0
 40
16.0
 40
16.0
 40
16.0
 40
17.0
 40
17.0
 40
17.0
 40
18.0
 40
18.0
 40
18.0
 40
19.0
 40
19.0
 40
19.0
 40
20.0
 40
20.0
 40
20.0
 40
21.0
 40
21.0
 40
21.0
 40
22.0
 40
22.0
 40
22.0
 40
23.0
 40
23.0
 40
23.0
 40
23.0
 10
107.3688123646508
 20
-151.0540011558129
 30
0.0
 10
107.1552164445654
 20
-151.0433213598086
 30
0.0
 10
106.9543673777753
 20
-150.9565049535803
 30
0.0
 10
106.7786675080276
 20
-150.8359266115966
 30
0.0
 10
106.7786675080276
 20
-150.8359266115966
 30
0.0
 10
106.8761637102601
 20
-150.7494547149168
 30
0.0
 10
106.8761637102601
 20
-150.7494547149168
 30
0.0
 10
106.8761637102601
 20
-150.7494547149168
 30
0.0
 10
106.3239149039746
 20
-150.7494547149168
 30
0.0
 10
106.3239149039746
 20
-150.7494547149168
 30
0.0
 10
106.3239149039746
 20
-150.7494547149168
 30
0.0
 10
106.4041856287809
 20
-150.8128444718454
 30
0.0
 10
106.4041856287809
 20
-150.8128444718454
 30
0.0
 10
106.4107313102029
 20
-150.8169785864277
 30
0.0
 10
106.4210665966586
 20
-150.827658382432
 30
0.0
 10
106.4210665966586
 20
-150.8424722930185
 30
0.0
 10
106.4210665966586
 20
-150.882779910196
 30
0.0
 10
106.3469970437257
 20
-150.876234228774
 30
0.0
 10
106.3321831331392
 20
-150.8741671714829
 30
0.0
 10
106.1017062451759
 20
-151.0136935386355
 30
0.0
 10
105.958045763441
 20
-151.0453884170997
 30
0.0
 10
105.854348389335
 20
-151.0622693849775
 30
0.0
 10
105.854348389335
 20
-151.0622693849775
 30
0.0
 10
105.7251573086381
 20
-150.8848469674871
 30
0.0
 10
105.7251573086381
 20
-150.8848469674871
 30
0.0
 10
105.9728596740276
 20
-150.8531520890228
 30
0.0
 10
106.0741454812939
 20
-150.8062987904234
 30
0.0
 10
106.1630289448134
 20
-150.7535888294991
 30
0.0
 10
106.0889593918805
 20
-150.7556558867903
 30
0.0
 10
105.9749267313188
 20
-150.7577229440814
 30
0.0
 10
105.9432318528545
 20
-150.7597900013725
 30
0.0
 10
105.958045763441
 20
-150.6709065378531
 30
0.0
 10
105.9601128207322
 20
-150.5420599667047
 30
0.0
 10
105.9601128207322
 20
-150.4679904137719
 30
0.0
 10
105.9601128207322
 20
-150.4679904137719
 30
0.0
 10
105.9601128207322
 20
-150.1675780874581
 30
0.0
 10
105.9601128207322
 20
-150.1675780874581
 30
0.0
 10
105.9601128207322
 20
-150.0680148279344
 30
0.0
 10
105.9535671393102
 20
-149.9687960779592
 30
0.0
 10
105.9432318528545
 20
-149.8712998757266
 30
0.0
 10
106.0445176601208
 20
-149.8778455571486
 30
0.0
 10
106.2753390576325
 20
-149.884046729022
 30
0.0
 10
106.3831705463209
 20
-149.884046729022
 30
0.0
 10
106.3831705463209
 20
-149.884046729022
 30
0.0
 10
106.8062282719095
 20
-149.884046729022
 30
0.0
 10
106.8062282719095
 20
-149.884046729022
 30
0.0
 10
106.9247395566021
 20
-149.884046729022
 30
0.0
 10
106.9671142310707
 20
-149.884046729022
 30
0.0
 10
107.0494520131682
 20
-149.8799126144397
 30
0.0
 10
107.1975911190339
 20
-149.8733669330177
 30
0.0
 10
107.2144720869117
 20
-149.8733669330177
 30
0.0
 10
107.2609808759625
 20
-149.8712998757266
 30
0.0
 10
107.2527126467979
 20
-149.9519151100814
 30
0.0
 10
107.2482340226671
 20
-150.1103895024029
 30
0.0
 10
107.2482340226671
 20
-150.1930717940489
 30
0.0
 10
107.2482340226671
 20
-150.1930717940489
 30
0.0
 10
107.2482340226671
 20
-150.4786702097761
 30
0.0
 10
107.2482340226671
 20
-150.4786702097761
 30
0.0
 10
107.2482340226671
 20
-150.5503281958693
 30
0.0
 10
107.2503010799582
 20
-150.6815863338573
 30
0.0
 10
107.2609808759625
 20
-150.7597900013725
 30
0.0
 10
107.1889783803208
 20
-150.7556558867903
 30
0.0
 10
107.0663329810459
 20
-150.7535888294991
 30
0.0
 10
106.9881293135307
 20
-150.7515217722079
 30
0.0
 10
107.0980278595102
 20
-150.8190456437188
 30
0.0
 10
107.2503010799582
 20
-150.8700330569005
 30
0.0
 10
107.4621744523011
 20
-150.8741671714829
 30
0.0
 10
107.4621744523011
 20
-150.8741671714829
 30
0.0
 10
107.3688123646508
 20
-151.0540011558129
 30
0.0
 10
107.3688123646508
 20
-151.0540011558129
 30
0.0
  0
SPLINE
  5
E2
330
D2
100
AcDbEntity
  8
レイヤー 1
100
AcDbSpline
210
0.0
220
0.0
230
1.0
 70
    11
 71
     3
 72
    71
 73
    67
 74
     0
 42
0.0000000001
 43
0.0000000001
 40
0.0
 40
0.0
 40
0.0
 40
0.0
 40
1.0
 40
1.0
 40
1.0
 40
2.0
 40
2.0
 40
2.0
 40
3.0
 40
3.0
 40
3.0
 40
4.0
 40
4.0
 40
4.0
 40
5.0
 40
5.0
 40
5.0
 40
6.0
 40
6.0
 40
6.0
 40
7.0
 40
7.0
 40
7.0
 40
8.0
 40
8.0
 40
8.0
 40
9.0
 40
9.0
 40
9.0
 40
10.0
 40
10.0
 40
10.0
 40
11.0
 40
11.0
 40
11.0
 40
12.0
 40
12.0
 40
12.0
 40
13.0
 40
13.0
 40
13.0
 40
14.0
 40
14.0
 40
14.0
 40
15.0
 40
15.0
 40
15.0
 40
16.0
 40
16.0
 40
16.0
 40
17.0
 40
17.0
 40
17.0
 40
18.0
 40
18.0
 40
18.0
 40
19.0
 40
19.0
 40
19.0
 40
20.0
 40
20.0
 40
20.0
 40
21.0
 40
21.0
 40
21.0
 40
22.0
 40
22.0
 40
22.0
 40
22.0
 10
106.5313096521866
 20
-149.2873561909767
 30
0.0
 10
106.5164957416
 20
-149.2873561909767
 30
0.0
 10
106.5037488883046
 20
-149.2832220763945
 30
0.0
 10
106.4782551817138
 20
-149.2749538472299
 30
0.0
 10
106.33666175727
 20
-149.3214626362807
 30
0.0
 10
106.1630289448134
 20
-149.3383436041584
 30
0.0
 10
106.0235025776608
 20
-149.3424777187408
 30
0.0
 10
106.0235025776608
 20
-149.3424777187408
 30
0.0
 10
106.0214355203696
 20
-149.4313611822602
 30
0.0
 10
106.0214355203696
 20
-149.4313611822602
 30
0.0
 10
106.0214355203696
 20
-149.4313611822602
 30
0.0
 10
106.281540229506
 20
-149.4313611822602
 30
0.0
 10
106.281540229506
 20
-149.4313611822602
 30
0.0
 10
106.3345946999788
 20
-149.4313611822602
 30
0.0
 10
106.5164957416
 20
-149.4227484435471
 30
0.0
 10
106.5609374733597
 20
-149.4165472716736
 30
0.0
 10
106.5609374733597
 20
-149.4165472716736
 30
0.0
 10
106.5609374733597
 20
-149.5774332308348
 30
0.0
 10
106.5609374733597
 20
-149.5774332308348
 30
0.0
 10
106.5058159455958
 20
-149.5708875494128
 30
0.0
 10
106.3811034890297
 20
-149.5688204921217
 30
0.0
 10
106.3428629291434
 20
-149.5708875494128
 30
0.0
 10
106.3428629291434
 20
-149.5708875494128
 30
0.0
 10
106.3428629291434
 20
-149.6811306049408
 30
0.0
 10
106.3428629291434
 20
-149.6811306049408
 30
0.0
 10
106.3428629291434
 20
-149.7276393939917
 30
0.0
 10
106.3449299864346
 20
-149.7910291509203
 30
0.0
 10
106.3514756678566
 20
-149.828925201258
 30
0.0
 10
106.3514756678566
 20
-149.828925201258
 30
0.0
 10
106.1588948302311
 20
-149.828925201258
 30
0.0
 10
106.1588948302311
 20
-149.828925201258
 30
0.0
 10
106.1650960021045
 20
-149.7889620936291
 30
0.0
 10
106.1716416835265
 20
-149.7062798019831
 30
0.0
 10
106.1716416835265
 20
-149.6914658913965
 30
0.0
 10
106.1716416835265
 20
-149.6914658913965
 30
0.0
 10
106.1716416835265
 20
-149.5708875494128
 30
0.0
 10
106.1716416835265
 20
-149.5708875494128
 30
0.0
 10
106.1716416835265
 20
-149.5708875494128
 30
0.0
 10
106.006621609783
 20
-149.5708875494128
 30
0.0
 10
106.006621609783
 20
-149.5708875494128
 30
0.0
 10
105.9642469353145
 20
-149.7910291509203
 30
0.0
 10
105.9091254075505
 20
-149.8712998757266
 30
0.0
 10
105.8033609761533
 20
-149.9708631352503
 30
0.0
 10
105.8033609761533
 20
-149.9708631352503
 30
0.0
 10
105.6362738451187
 20
-149.85648596514
 30
0.0
 10
105.6362738451187
 20
-149.85648596514
 30
0.0
 10
105.6996636020473
 20
-149.807910118798
 30
0.0
 10
105.8498697652042
 20
-149.6959445155274
 30
0.0
 10
105.8498697652042
 20
-149.346611833323
 30
0.0
 10
105.8498697652042
 20
-149.2642740512256
 30
0.0
 10
105.8416015360396
 20
-149.2177652621747
 30
0.0
 10
105.8329887973264
 20
-149.1691894158327
 30
0.0
 10
105.979060845901
 20
-149.1840033264193
 30
0.0
 10
105.9938747564876
 20
-149.1840033264193
 30
0.0
 10
106.0297037495342
 20
-149.1840033264193
 30
0.0
 10
106.1378797477711
 20
-149.1840033264193
 30
0.0
 10
106.2794731722148
 20
-149.166777848993
 30
0.0
 10
106.440359131376
 20
-149.1054551493555
 30
0.0
 10
106.440359131376
 20
-149.1054551493555
 30
0.0
 10
106.5543917919378
 20
-149.2367132873436
 30
0.0
 10
106.5543917919378
 20
-149.2367132873436
 30
0.0
 10
106.5609374733597
 20
-149.2432589687656
 30
0.0
 10
106.5650715879421
 20
-149.2515271979302
 30
0.0
 10
106.5650715879421
 20
-149.2601399366433
 30
0.0
 10
106.5650715879421
 20
-149.2832220763945
 30
0.0
 10
106.5461235627732
 20
-149.2873561909767
 30
0.0
 10
106.5313096521866
 20
-149.2873561909767
 30
0.0
  0
HATCH
  5
E3
330
D2
100
AcDbEntity
  8
レイヤー 1
 62
   250
420
  2299925
440
 33554687
100
AcDbHatch
 10
0.0
 20
0.0
 30
0.0
210
0.0
220
0.0
230
1.0
  2
SOLID
 70
     1
 71
     1
 91
        6
 92
        1
 93
        1
 72
     4
 94
        3
 73
     0
 74
     0
 95
       74
 96
       70
 40
0.0
 40
0.0
 40
0.0
 40
0.0
 40
1.0
 40
1.0
 40
1.0
 40
2.0
 40
2.0
 40
2.0
 40
3.0
 40
3.0
 40
3.0
 40
4.0
 40
4.0
 40
4.0
 40
5.0
 40
5.0
 40
5.0
 40
6.0
 40
6.0
 40
6.0
 40
7.0
 40
7.0
 40
7.0
 40
8.0
 40
8.0
 40
8.0
 40
9.0
 40
9.0
 40
9.0
 40
10.0
 40
10.0
 40
10.0
 40
11.0
 40
11.0
 40
11.0
 40
12.0
 40
12.0
 40
12.0
 40
13.0
 40
13.0
 40
13.0
 40
14.0
 40
14.0
 40
14.0
 40
15.0
 40
15.0
 40
15.0
 40
16.0
 40
16.0
 40
16.0
 40
17.0
 40
17.0
 40
17.0
 40
18.0
 40
18.0
 40
18.0
 40
19.0
 40
19.0
 40
19.0
 40
20.0
 40
20.0
 40
20.0
 40
21.0
 40
21.0
 40
21.0
 40
22.0
 40
22.0
 40
22.0
 40
23.0
 40
23.0
 40
23.0
 40
23.0
 10
107.3815592179462
 20
-149.5667534348305
 10
107.3815592179462
 20
-149.5667534348305
 10
107.2210177683336
 20
-149.5667534348305
 10
107.2210177683336
 20
-149.5667534348305
 10
107.2210177683336
 20
-149.5667534348305
 10
107.2210177683336
 20
-149.6811306049408
 10
107.2210177683336
 20
-149.6811306049408
 10
107.2210177683336
 20
-149.7210937125697
 10
107.2272189402071
 20
-149.7951632655026
 10
107.2313530547894
 20
-149.8206569720934
 10
107.2313530547894
 20
-149.8206569720934
 10
107.019824191995
 20
-149.8206569720934
 10
107.019824191995
 20
-149.8206569720934
 10
107.0305039879993
 20
-149.7552001578737
 10
107.0325710452904
 20
-149.6959445155274
 10
107.0325710452904
 20
-149.6935329486877
 10
107.0325710452904
 20
-149.6935329486877
 10
107.0325710452904
 20
-149.5708875494128
 10
107.0325710452904
 20
-149.5708875494128
 10
107.0325710452904
 20
-149.5708875494128
 10
106.8527370609604
 20
-149.5708875494128
 10
106.8527370609604
 20
-149.5708875494128
 10
106.8337890357915
 20
-149.6301431917591
 10
106.7872802467407
 20
-149.7762152403337
 10
106.6729030766304
 20
-149.8585530224312
 10
106.6729030766304
 20
-149.8585530224312
 10
106.5164957416
 20
-149.752788591034
 10
106.5164957416
 20
-149.752788591034
 10
106.5905652945329
 20
-149.7062798019831
 10
106.7066650123858
 20
-149.6322102490502
 10
106.7066650123858
 20
-149.3107828402765
 10
106.7066650123858
 20
-149.2556613125124
 10
106.7025308978035
 20
-149.2112195807527
 10
106.7004638405124
 20
-149.173323530415
 10
106.7766004507364
 20
-149.1815917595796
 10
106.8506700036693
 20
-149.1881374410015
 10
106.9140597605979
 20
-149.1881374410015
 10
107.0918266876367
 20
-149.1881374410015
 10
107.2906086971357
 20
-149.1288817986553
 10
107.3519313967731
 20
-149.0992539774821
 10
107.3519313967731
 20
-149.0992539774821
 10
107.4790554201788
 20
-149.2346462300524
 10
107.4790554201788
 20
-149.2346462300524
 10
107.4831895347611
 20
-149.2387803446347
 10
107.4852565920523
 20
-149.2473930833478
 10
107.4852565920523
 20
-149.2535942552213
 10
107.4852565920523
 20
-149.2749538472299
 10
107.4704426814657
 20
-149.2811550191033
 10
107.453561713588
 20
-149.2811550191033
 10
107.432546631128
 20
-149.2811550191033
 10
107.4177327205414
 20
-149.2728867899387
 10
107.398440185824
 20
-149.2622069939344
 10
107.2251518829159
 20
-149.3193955789896
 10
107.0070773386996
 20
-149.3445447760319
 10
106.8737521434204
 20
-149.346611833323
 10
106.8737521434204
 20
-149.346611833323
 10
106.8696180288381
 20
-149.429294124969
 10
106.8696180288381
 20
-149.429294124969
 10
106.8696180288381
 20
-149.429294124969
 10
107.1424695912699
 20
-149.429294124969
 10
107.1424695912699
 20
-149.429294124969
 10
107.1996581763251
 20
-149.429294124969
 10
107.4621744523011
 20
-149.4103460998002
 10
107.5066161840608
 20
-149.4038004183782
 10
107.5066161840608
 20
-149.4038004183782
 10
107.5066161840608
 20
-149.572954606704
 10
107.5066161840608
 20
-149.572954606704
 10
107.4725097387569
 20
-149.5688204921217
 10
107.4597628854614
 20
-149.5667534348305
 10
107.3815592179462
 20
-149.5667534348305
 97
        0
 97
        1
330
DD
 92
        1
 93
        1
 72
     4
 94
        3
 73
     0
 74
     0
 95
       17
 96
       13
 40
0.0
 40
0.0
 40
0.0
 40
0.0
 40
1.0
 40
1.0
 40
1.0
 40
2.0
 40
2.0
 40
2.0
 40
3.0
 40
3.0
 40
3.0
 40
4.0
 40
4.0
 40
4.0
 40
4.0
 10
107.0642659237547
 20
-150.5103650882404
 10
107.0642659237547
 20
-150.5103650882404
 10
106.1526936583576
 20
-150.5103650882404
 10
106.1526936583576
 20
-150.5103650882404
 10
106.1526936583576
 20
-150.5103650882404
 10
106.1526936583576
 20
-150.6181965769288
 10
106.1526936583576
 20
-150.6181965769288
 10
106.1526936583576
 20
-150.6181965769288
 10
107.0642659237547
 20
-150.6181965769288
 10
107.0642659237547
 20
-150.6181965769288
 10
107.0642659237547
 20
-150.6181965769288
 10
107.0642659237547
 20
-150.5103650882404
 10
107.0642659237547
 20
-150.5103650882404
 97
        0
 97
        1
330
DE
 92
        1
 93
        1
 72
     4
 94
        3
 73
     0
 74
     0
 95
       17
 96
       13
 40
0.0
 40
0.0
 40
0.0
 40
0.0
 40
1.0
 40
1.0
 40
1.0
 40
2.0
 40
2.0
 40
2.0
 40
3.0
 40
3.0
 40
3.0
 40
4.0
 40
4.0
 40
4.0
 40
4.0
 10
107.0642659237547
 20
-150.2647297801421
 10
107.0642659237547
 20
-150.2647297801421
 10
106.1526936583576
 20
-150.2647297801421
 10
106.1526936583576
 20
-150.2647297801421
 10
106.1526936583576
 20
-150.2647297801421
 10
106.1526936583576
 20
-150.3749728356701
 10
106.1526936583576
 20
-150.3749728356701
 10
106.1526936583576
 20
-150.3749728356701
 10
107.0642659237547
 20
-150.3749728356701
 10
107.0642659237547
 20
-150.3749728356701
 10
107.0642659237547
 20
-150.3749728356701
 10
107.0642659237547
 20
-150.2647297801421
 10
107.0642659237547
 20
-150.2647297801421
 97
        0
 97
        1
330
DF
 92
        1
 93
        1
 72
     4
 94
        3
 73
     0
 74
     0
 95
       17
 96
       13
 40
0.0
 40
0.0
 40
0.0
 40
0.0
 40
1.0
 40
1.0
 40
1.0
 40
2.0
 40
2.0
 40
2.0
 40
3.0
 40
3.0
 40
3.0
 40
4.0
 40
4.0
 40
4.0
 40
4.0
 10
107.0642659237547
 20
-150.0194389815924
 10
107.0642659237547
 20
-150.0194389815924
 10
106.1526936583576
 20
-150.0194389815924
 10
106.1526936583576
 20
-150.0194389815924
 10
106.1526936583576
 20
-150.0194389815924
 10
106.1526936583576
 20
-150.1317490944115
 10
106.1526936583576
 20
-150.1317490944115
 10
106.1526936583576
 20
-150.1317490944115
 10
107.0642659237547
 20
-150.1317490944115
 10
107.0642659237547
 20
-150.1317490944115
 10
107.0642659237547
 20
-150.1317490944115
 10
107.0642659237547
 20
-150.0194389815924
 10
107.0642659237547
 20
-150.0194389815924
 97
        0
 97
        1
330
E0
 92
        1
 93
        1
 72
     4
 94
        3
 73
     0
 74
     0
 95
       74
 96
       70
 40
0.0
 40
0.0
 40
0.0
 40
0.0
 40
1.0
 40
1.0
 40
1.0
 40
2.0
 40
2.0
 40
2.0
 40
3.0
 40
3.0
 40
3.0
 40
4.0
 40
4.0
 40
4.0
 40
5.0
 40
5.0
 40
5.0
 40
6.0
 40
6.0
 40
6.0
 40
7.0
 40
7.0
 40
7.0
 40
8.0
 40
8.0
 40
8.0
 40
9.0
 40
9.0
 40
9.0
 40
10.0
 40
10.0
 40
10.0
 40
11.0
 40
11.0
 40
11.0
 40
12.0
 40
12.0
 40
12.0
 40
13.0
 40
13.0
 40
13.0
 40
14.0
 40
14.0
 40
14.0
 40
15.0
 40
15.0
 40
15.0
 40
16.0
 40
16.0
 40
16.0
 40
17.0
 40
17.0
 40
17.0
 40
18.0
 40
18.0
 40
18.0
 40
19.0
 40
19.0
 40
19.0
 40
20.0
 40
20.0
 40
20.0
 40
21.0
 40
21.0
 40
21.0
 40
22.0
 40
22.0
 40
22.0
 40
23.0
 40
23.0
 40
23.0
 40
23.0
 10
107.3688123646508
 20
-151.0540011558129
 10
107.1552164445654
 20
-151.0433213598086
 10
106.9543673777753
 20
-150.9565049535803
 10
106.7786675080276
 20
-150.8359266115966
 10
106.7786675080276
 20
-150.8359266115966
 10
106.8761637102601
 20
-150.7494547149168
 10
106.8761637102601
 20
-150.7494547149168
 10
106.8761637102601
 20
-150.7494547149168
 10
106.3239149039746
 20
-150.7494547149168
 10
106.3239149039746
 20
-150.7494547149168
 10
106.3239149039746
 20
-150.7494547149168
 10
106.4041856287809
 20
-150.8128444718454
 10
106.4041856287809
 20
-150.8128444718454
 10
106.4107313102029
 20
-150.8169785864277
 10
106.4210665966586
 20
-150.827658382432
 10
106.4210665966586
 20
-150.8424722930185
 10
106.4210665966586
 20
-150.882779910196
 10
106.3469970437257
 20
-150.876234228774
 10
106.3321831331392
 20
-150.8741671714829
 10
106.1017062451759
 20
-151.0136935386355
 10
105.958045763441
 20
-151.0453884170997
 10
105.854348389335
 20
-151.0622693849775
 10
105.854348389335
 20
-151.0622693849775
 10
105.7251573086381
 20
-150.8848469674871
 10
105.7251573086381
 20
-150.8848469674871
 10
105.9728596740276
 20
-150.8531520890228
 10
106.0741454812939
 20
-150.8062987904234
 10
106.1630289448134
 20
-150.7535888294991
 10
106.0889593918805
 20
-150.7556558867903
 10
105.9749267313188
 20
-150.7577229440814
 10
105.9432318528545
 20
-150.7597900013725
 10
105.958045763441
 20
-150.6709065378531
 10
105.9601128207322
 20
-150.5420599667047
 10
105.9601128207322
 20
-150.4679904137719
 10
105.9601128207322
 20
-150.4679904137719
 10
105.9601128207322
 20
-150.1675780874581
 10
105.9601128207322
 20
-150.1675780874581
 10
105.9601128207322
 20
-150.0680148279344
 10
105.9535671393102
 20
-149.9687960779592
 10
105.9432318528545
 20
-149.8712998757266
 10
106.0445176601208
 20
-149.8778455571486
 10
106.2753390576325
 20
-149.884046729022
 10
106.3831705463209
 20
-149.884046729022
 10
106.3831705463209
 20
-149.884046729022
 10
106.8062282719095
 20
-149.884046729022
 10
106.8062282719095
 20
-149.884046729022
 10
106.9247395566021
 20
-149.884046729022
 10
106.9671142310707
 20
-149.884046729022
 10
107.0494520131682
 20
-149.8799126144397
 10
107.1975911190339
 20
-149.8733669330177
 10
107.2144720869117
 20
-149.8733669330177
 10
107.2609808759625
 20
-149.8712998757266
 10
107.2527126467979
 20
-149.9519151100814
 10
107.2482340226671
 20
-150.1103895024029
 10
107.2482340226671
 20
-150.1930717940489
 10
107.2482340226671
 20
-150.1930717940489
 10
107.2482340226671
 20
-150.4786702097761
 10
107.2482340226671
 20
-150.4786702097761
 10
107.2482340226671
 20
-150.5503281958693
 10
107.2503010799582
 20
-150.6815863338573
 10
107.2609808759625
 20
-150.7597900013725
 10
107.1889783803208
 20
-150.7556558867903
 10
107.0663329810459
 20
-150.7535888294991
 10
106.9881293135307
 20
-150.7515217722079
 10
107.0980278595102
 20
-150.8190456437188
 10
107.2503010799582
 20
-150.8700330569005
 10
107.4621744523011
 20
-150.8741671714829
 10
107.4621744523011
 20
-150.8741671714829
 10
107.3688123646508
 20
-151.0540011558129
 10
107.3688123646508
 20
-151.0540011558129
 97
        0
 97
        1
330
E1
 92
        1
 93
        1
 72
     4
 94
        3
 73
     0
 74
     0
 95
       71
 96
       67
 40
0.0
 40
0.0
 40
0.0
 40
0.0
 40
1.0
 40
1.0
 40
1.0
 40
2.0
 40
2.0
 40
2.0
 40
3.0
 40
3.0
 40
3.0
 40
4.0
 40
4.0
 40
4.0
 40
5.0
 40
5.0
 40
5.0
 40
6.0
 40
6.0
 40
6.0
 40
7.0
 40
7.0
 40
7.0
 40
8.0
 40
8.0
 40
8.0
 40
9.0
 40
9.0
 40
9.0
 40
10.0
 40
10.0
 40
10.0
 40
11.0
 40
11.0
 40
11.0
 40
12.0
 40
12.0
 40
12.0
 40
13.0
 40
13.0
 40
13.0
 40
14.0
 40
14.0
 40
14.0
 40
15.0
 40
15.0
 40
15.0
 40
16.0
 40
16.0
 40
16.0
 40
17.0
 40
17.0
 40
17.0
 40
18.0
 40
18.0
 40
18.0
 40
19.0
 40
19.0
 40
19.0
 40
20.0
 40
20.0
 40
20.0
 40
21.0
 40
21.0
 40
21.0
 40
22.0
 40
22.0
 40
22.0
 40
22.0
 10
106.5313096521866
 20
-149.2873561909767
 10
106.5164957416
 20
-149.2873561909767
 10
106.5037488883046
 20
-149.2832220763945
 10
106.4782551817138
 20
-149.2749538472299
 10
106.33666175727
 20
-149.3214626362807
 10
106.1630289448134
 20
-149.3383436041584
 10
106.0235025776608
 20
-149.3424777187408
 10
106.0235025776608
 20
-149.3424777187408
 10
106.0214355203696
 20
-149.4313611822602
 10
106.0214355203696
 20
-149.4313611822602
 10
106.0214355203696
 20
-149.4313611822602
 10
106.281540229506
 20
-149.4313611822602
 10
106.281540229506
 20
-149.4313611822602
 10
106.3345946999788
 20
-149.4313611822602
 10
106.5164957416
 20
-149.4227484435471
 10
106.5609374733597
 20
-149.4165472716736
 10
106.5609374733597
 20
-149.4165472716736
 10
106.5609374733597
 20
-149.5774332308348
 10
106.5609374733597
 20
-149.5774332308348
 10
106.5058159455958
 20
-149.5708875494128
 10
106.3811034890297
 20
-149.5688204921217
 10
106.3428629291434
 20
-149.5708875494128
 10
106.3428629291434
 20
-149.5708875494128
 10
106.3428629291434
 20
-149.6811306049408
 10
106.3428629291434
 20
-149.6811306049408
 10
106.3428629291434
 20
-149.7276393939917
 10
106.3449299864346
 20
-149.7910291509203
 10
106.3514756678566
 20
-149.828925201258
 10
106.3514756678566
 20
-149.828925201258
 10
106.1588948302311
 20
-149.828925201258
 10
106.1588948302311
 20
-149.828925201258
 10
106.1650960021045
 20
-149.7889620936291
 10
106.1716416835265
 20
-149.7062798019831
 10
106.1716416835265
 20
-149.6914658913965
 10
106.1716416835265
 20
-149.6914658913965
 10
106.1716416835265
 20
-149.5708875494128
 10
106.1716416835265
 20
-149.5708875494128
 10
106.1716416835265
 20
-149.5708875494128
 10
106.006621609783
 20
-149.5708875494128
 10
106.006621609783
 20
-149.5708875494128
 10
105.9642469353145
 20
-149.7910291509203
 10
105.9091254075505
 20
-149.8712998757266
 10
105.8033609761533
 20
-149.9708631352503
 10
105.8033609761533
 20
-149.9708631352503
 10
105.6362738451187
 20
-149.85648596514
 10
105.6362738451187
 20
-149.85648596514
 10
105.6996636020473
 20
-149.807910118798
 10
105.8498697652042
 20
-149.6959445155274
 10
105.8498697652042
 20
-149.346611833323
 10
105.8498697652042
 20
-149.2642740512256
 10
105.8416015360396
 20
-149.2177652621747
 10
105.8329887973264
 20
-149.1691894158327
 10
105.979060845901
 20
-149.1840033264193
 10
105.9938747564876
 20
-149.1840033264193
 10
106.0297037495342
 20
-149.1840033264193
 10
106.1378797477711
 20
-149.1840033264193
 10
106.2794731722148
 20
-149.166777848993
 10
106.440359131376
 20
-149.1054551493555
 10
106.440359131376
 20
-149.1054551493555
 10
106.5543917919378
 20
-149.2367132873436
 10
106.5543917919378
 20
-149.2367132873436
 10
106.5609374733597
 20
-149.2432589687656
 10
106.5650715879421
 20
-149.2515271979302
 10
106.5650715879421
 20
-149.2601399366433
 10
106.5650715879421
 20
-149.2832220763945
 10
106.5461235627732
 20
-149.2873561909767
 10
106.5313096521866
 20
-149.2873561909767
 97
        0
 97
        1
330
E2
 75
     2
 76
     1
 98
        1
 10
0.0
 20
0.0
450
        0
451
        0
460
0.0
461
0.0
452
        0
462
0.0
453
        0
470

  0
SPLINE
  5
E4
330
D2
100
AcDbEntity
  8
レイヤー 1
100
AcDbSpline
210
0.0
220
0.0
230
1.0
 70
     9
 71
     3
 72
    53
 73
    49
 74
     0
 42
0.0000000001
 43
0.0000000001
 40
0.0
 40
0.0
 40
0.0
 40
0.0
 40
1.0
 40
1.0
 40
1.0
 40
2.0
 40
2.0
 40
2.0
 40
3.0
 40
3.0
 40
3.0
 40
4.0
 40
4.0
 40
4.0
 40
5.0
 40
5.0
 40
5.0
 40
6.0
 40
6.0
 40
6.0
 40
7.0
 40
7.0
 40
7.0
 40
8.0
 40
8.0
 40
8.0
 40
9.0
 40
9.0
 40
9.0
 40
10.0
 40
10.0
 40
10.0
 40
11.0
 40
11.0
 40
11.0
 40
12.0
 40
12.0
 40
12.0
 40
13.0
 40
13.0
 40
13.0
 40
14.0
 40
14.0
 40
14.0
 40
15.0
 40
15.0
 40
15.0
 40
16.0
 40
16.0
 40
16.0
 40
16.0
 10
108.1305229764396
 20
-150.9292886992468
 30
0.0
 10
107.9403537056538
 20
-150.9292886992468
 30
0.0
 10
107.8810980633075
 20
-150.8042317331322
 30
0.0
 10
107.8810980633075
 20
-150.6560926272665
 30
0.0
 10
107.8810980633075
 20
-150.6560926272665
 30
0.0
 10
107.8810980633075
 20
-149.9622503965372
 30
0.0
 10
107.8810980633075
 20
-149.9622503965372
 30
0.0
 10
107.8810980633075
 20
-149.9622503965372
 30
0.0
 10
107.6991970216863
 20
-149.9622503965372
 30
0.0
 10
107.6991970216863
 20
-149.9622503965372
 30
0.0
 10
107.6991970216863
 20
-149.9622503965372
 30
0.0
 10
107.6991970216863
 20
-149.7700140684603
 30
0.0
 10
107.6991970216863
 20
-149.7700140684603
 30
0.0
 10
107.6991970216863
 20
-149.7700140684603
 30
0.0
 10
107.8810980633075
 20
-149.7700140684603
 30
0.0
 10
107.8810980633075
 20
-149.7700140684603
 30
0.0
 10
107.8810980633075
 20
-149.7700140684603
 30
0.0
 10
107.8810980633075
 20
-149.4547878315599
 30
0.0
 10
107.8810980633075
 20
-149.4547878315599
 30
0.0
 10
107.8810980633075
 20
-149.4547878315599
 30
0.0
 10
108.0988280979753
 20
-149.4547878315599
 30
0.0
 10
108.0988280979753
 20
-149.4547878315599
 30
0.0
 10
108.0988280979753
 20
-149.4547878315599
 30
0.0
 10
108.0988280979753
 20
-149.7700140684603
 30
0.0
 10
108.0988280979753
 20
-149.7700140684603
 30
0.0
 10
108.0988280979753
 20
-149.7700140684603
 30
0.0
 10
108.2893418783096
 20
-149.7700140684603
 30
0.0
 10
108.2893418783096
 20
-149.7700140684603
 30
0.0
 10
108.2893418783096
 20
-149.7700140684603
 30
0.0
 10
108.2893418783096
 20
-149.9622503965372
 30
0.0
 10
108.2893418783096
 20
-149.9622503965372
 30
0.0
 10
108.2893418783096
 20
-149.9622503965372
 30
0.0
 10
108.0988280979753
 20
-149.9622503965372
 30
0.0
 10
108.0988280979753
 20
-149.9622503965372
 30
0.0
 10
108.0988280979753
 20
-149.9622503965372
 30
0.0
 10
108.0988280979753
 20
-150.6309434302242
 30
0.0
 10
108.0988280979753
 20
-150.6309434302242
 30
0.0
 10
108.0988280979753
 20
-150.7153482696128
 30
0.0
 10
108.1518825684481
 20
-150.7387749189125
 30
0.0
 10
108.2235405545413
 20
-150.7387749189125
 30
0.0
 10
108.2342203505456
 20
-150.7387749189125
 30
0.0
 10
108.2576469998453
 20
-150.7387749189125
 30
0.0
 10
108.2893418783096
 20
-150.7346408043302
 30
0.0
 10
108.2893418783096
 20
-150.7346408043302
 30
0.0
 10
108.2893418783096
 20
-150.9058620499471
 30
0.0
 10
108.2893418783096
 20
-150.9058620499471
 30
0.0
 10
108.2555799425541
 20
-150.9186089032426
 30
0.0
 10
108.1815103896213
 20
-150.9292886992468
 30
0.0
 10
108.1305229764396
 20
-150.9292886992468
 30
0.0
  0
HATCH
  5
E5
330
D2
100
AcDbEntity
  8
レイヤー 1
 62
   250
420
  2299925
440
 33554687
100
AcDbHatch
 10
0.0
 20
0.0
 30
0.0
210
0.0
220
0.0
230
1.0
  2
SOLID
 70
     1
 71
     1
 91
        1
 92
        1
 93
        1
 72
     4
 94
        3
 73
     0
 74
     0
 95
       53
 96
       49
 40
0.0
 40
0.0
 40
0.0
 40
0.0
 40
1.0
 40
1.0
 40
1.0
 40
2.0
 40
2.0
 40
2.0
 40
3.0
 40
3.0
 40
3.0
 40
4.0
 40
4.0
 40
4.0
 40
5.0
 40
5.0
 40
5.0
 40
6.0
 40
6.0
 40
6.0
 40
7.0
 40
7.0
 40
7.0
 40
8.0
 40
8.0
 40
8.0
 40
9.0
 40
9.0
 40
9.0
 40
10.0
 40
10.0
 40
10.0
 40
11.0
 40
11.0
 40
11.0
 40
12.0
 40
12.0
 40
12.0
 40
13.0
 40
13.0
 40
13.0
 40
14.0
 40
14.0
 40
14.0
 40
15.0
 40
15.0
 40
15.0
 40
16.0
 40
16.0
 40
16.0
 40
16.0
 10
108.1305229764396
 20
-150.9292886992468
 10
107.9403537056538
 20
-150.9292886992468
 10
107.8810980633075
 20
-150.8042317331322
 10
107.8810980633075
 20
-150.6560926272665
 10
107.8810980633075
 20
-150.6560926272665
 10
107.8810980633075
 20
-149.9622503965372
 10
107.8810980633075
 20
-149.9622503965372
 10
107.8810980633075
 20
-149.9622503965372
 10
107.6991970216863
 20
-149.9622503965372
 10
107.6991970216863
 20
-149.9622503965372
 10
107.6991970216863
 20
-149.9622503965372
 10
107.6991970216863
 20
-149.7700140684603
 10
107.6991970216863
 20
-149.7700140684603
 10
107.6991970216863
 20
-149.7700140684603
 10
107.8810980633075
 20
-149.7700140684603
 10
107.8810980633075
 20
-149.7700140684603
 10
107.8810980633075
 20
-149.7700140684603
 10
107.8810980633075
 20
-149.4547878315599
 10
107.8810980633075
 20
-149.4547878315599
 10
107.8810980633075
 20
-149.4547878315599
 10
108.0988280979753
 20
-149.4547878315599
 10
108.0988280979753
 20
-149.4547878315599
 10
108.0988280979753
 20
-149.4547878315599
 10
108.0988280979753
 20
-149.7700140684603
 10
108.0988280979753
 20
-149.7700140684603
 10
108.0988280979753
 20
-149.7700140684603
 10
108.2893418783096
 20
-149.7700140684603
 10
108.2893418783096
 20
-149.7700140684603
 10
108.2893418783096
 20
-149.7700140684603
 10
108.2893418783096
 20
-149.9622503965372
 10
108.2893418783096
 20
-149.9622503965372
 10
108.2893418783096
 20
-149.9622503965372
 10
108.0988280979753
 20
-149.9622503965372
 10
108.0988280979753
 20
-149.9622503965372
 10
108.0988280979753
 20
-149.9622503965372
 10
108.0988280979753
 20
-150.6309434302242
 10
108.0988280979753
 20
-150.6309434302242
 10
108.0988280979753
 20
-150.7153482696128
 10
108.1518825684481
 20
-150.7387749189125
 10
108.2235405545413
 20
-150.7387749189125
 10
108.2342203505456
 20
-150.7387749189125
 10
108.2576469998453
 20
-150.7387749189125
 10
108.2893418783096
 20
-150.7346408043302
 10
108.2893418783096
 20
-150.7346408043302
 10
108.2893418783096
 20
-150.9058620499471
 10
108.2893418783096
 20
-150.9058620499471
 10
108.2555799425541
 20
-150.9186089032426
 10
108.1815103896213
 20
-150.9292886992468
 10
108.1305229764396
 20
-150.9292886992468
 97
        0
 97
        1
330
E4
 75
     2
 76
     1
 98
        1
 10
0.0
 20
0.0
450
        0
451
        0
460
0.0
461
0.0
452
        0
462
0.0
453
        0
470

  0
SPLINE
  5
E6
330
D2
100
AcDbEntity
  8
レイヤー 1
100
AcDbSpline
210
0.0
220
0.0
230
1.0
 70
    11
 71
     3
 72
    17
 73
    13
 74
     0
 42
0.0000000001
 43
0.0000000001
 40
0.0
 40
0.0
 40
0.0
 40
0.0
 40
1.0
 40
1.0
 40
1.0
 40
2.0
 40
2.0
 40
2.0
 40
3.0
 40
3.0
 40
3.0
 40
4.0
 40
4.0
 40
4.0
 40
4.0
 10
108.4633192003147
 20
-150.4256157393033
 30
0.0
 10
108.4633192003147
 20
-150.4256157393033
 30
0.0
 10
108.4633192003147
 20
-150.2206325579309
 30
0.0
 10
108.4633192003147
 20
-150.2206325579309
 30
0.0
 10
108.4633192003147
 20
-150.2206325579309
 30
0.0
 10
109.6415418562701
 20
-150.2206325579309
 30
0.0
 10
109.6415418562701
 20
-150.2206325579309
 30
0.0
 10
109.6415418562701
 20
-150.2206325579309
 30
0.0
 10
109.6415418562701
 20
-150.4256157393033
 30
0.0
 10
109.6415418562701
 20
-150.4256157393033
 30
0.0
 10
109.6415418562701
 20
-150.4256157393033
 30
0.0
 10
108.4633192003147
 20
-150.4256157393033
 30
0.0
 10
108.4633192003147
 20
-150.4256157393033
 30
0.0
  0
SPLINE
  5
E7
330
D2
100
AcDbEntity
  8
レイヤー 1
100
AcDbSpline
210
0.0
220
0.0
230
1.0
 70
    11
 71
     3
 72
    17
 73
    13
 74
     0
 42
0.0000000001
 43
0.0000000001
 40
0.0
 40
0.0
 40
0.0
 40
0.0
 40
1.0
 40
1.0
 40
1.0
 40
2.0
 40
2.0
 40
2.0
 40
3.0
 40
3.0
 40
3.0
 40
4.0
 40
4.0
 40
4.0
 40
4.0
 10
108.4633192003147
 20
-149.9918782177103
 30
0.0
 10
108.4633192003147
 20
-149.9918782177103
 30
0.0
 10
108.4633192003147
 20
-149.786895036338
 30
0.0
 10
108.4633192003147
 20
-149.786895036338
 30
0.0
 10
108.4633192003147
 20
-149.786895036338
 30
0.0
 10
109.6415418562701
 20
-149.786895036338
 30
0.0
 10
109.6415418562701
 20
-149.786895036338
 30
0.0
 10
109.6415418562701
 20
-149.786895036338
 30
0.0
 10
109.6415418562701
 20
-149.9918782177103
 30
0.0
 10
109.6415418562701
 20
-149.9918782177103
 30
0.0
 10
109.6415418562701
 20
-149.9918782177103
 30
0.0
 10
108.4633192003147
 20
-149.9918782177103
 30
0.0
 10
108.4633192003147
 20
-149.9918782177103
 30
0.0
  0
HATCH
  5
E8
330
D2
100
AcDbEntity
  8
レイヤー 1
 62
   250
420
  2299925
440
 33554687
100
AcDbHatch
 10
0.0
 20
0.0
 30
0.0
210
0.0
220
0.0
230
1.0
  2
SOLID
 70
     1
 71
     1
 91
        2
 92
        1
 93
        1
 72
     4
 94
        3
 73
     0
 74
     0
 95
       17
 96
       13
 40
0.0
 40
0.0
 40
0.0
 40
0.0
 40
1.0
 40
1.0
 40
1.0
 40
2.0
 40
2.0
 40
2.0
 40
3.0
 40
3.0
 40
3.0
 40
4.0
 40
4.0
 40
4.0
 40
4.0
 10
108.4633192003147
 20
-150.4256157393033
 10
108.4633192003147
 20
-150.4256157393033
 10
108.4633192003147
 20
-150.2206325579309
 10
108.4633192003147
 20
-150.2206325579309
 10
108.4633192003147
 20
-150.2206325579309
 10
109.6415418562701
 20
-150.2206325579309
 10
109.6415418562701
 20
-150.2206325579309
 10
109.6415418562701
 20
-150.2206325579309
 10
109.6415418562701
 20
-150.4256157393033
 10
109.6415418562701
 20
-150.4256157393033
 10
109.6415418562701
 20
-150.4256157393033
 10
108.4633192003147
 20
-150.4256157393033
 10
108.4633192003147
 20
-150.4256157393033
 97
        0
 97
        1
330
E6
 92
        1
 93
        1
 72
     4
 94
        3
 73
     0
 74
     0
 95
       17
 96
       13
 40
0.0
 40
0.0
 40
0.0
 40
0.0
 40
1.0
 40
1.0
 40
1.0
 40
2.0
 40
2.0
 40
2.0
 40
3.0
 40
3.0
 40
3.0
 40
4.0
 40
4.0
 40
4.0
 40
4.0
 10
108.4633192003147
 20
-149.9918782177103
 10
108.4633192003147
 20
-149.9918782177103
 10
108.4633192003147
 20
-149.786895036338
 10
108.4633192003147
 20
-149.786895036338
 10
108.4633192003147
 20
-149.786895036338
 10
109.6415418562701
 20
-149.786895036338
 10
109.6415418562701
 20
-149.786895036338
 10
109.6415418562701
 20
-149.786895036338
 10
109.6415418562701
 20
-149.9918782177103
 10
109.6415418562701
 20
-149.9918782177103
 10
109.6415418562701
 20
-149.9918782177103
 10
108.4633192003147
 20
-149.9918782177103
 10
108.4633192003147
 20
-149.9918782177103
 97
        0
 97
        1
330
E7
 75
     2
 76
     1
 98
        1
 10
0.0
 20
0.0
450
        0
451
        0
460
0.0
461
0.0
452
        0
462
0.0
453
        0
470

  0
SPLINE
  5
E9
330
D2
100
AcDbEntity
  8
レイヤー 1
100
AcDbSpline
210
0.0
220
0.0
230
1.0
 70
    11
 71
     3
 72
    26
 73
    22
 74
     0
 42
0.0000000001
 43
0.0000000001
 40
0.0
 40
0.0
 40
0.0
 40
0.0
 40
1.0
 40
1.0
 40
1.0
 40
2.0
 40
2.0
 40
2.0
 40
3.0
 40
3.0
 40
3.0
 40
4.0
 40
4.0
 40
4.0
 40
5.0
 40
5.0
 40
5.0
 40
6.0
 40
6.0
 40
6.0
 40
7.0
 40
7.0
 40
7.0
 40
7.0
 10
110.3178141000247
 20
-150.8783012860651
 30
0.0
 10
110.3178141000247
 20
-150.8783012860651
 30
0.0
 10
110.3178141000247
 20
-149.7741481830425
 30
0.0
 10
110.3178141000247
 20
-149.7741481830425
 30
0.0
 10
110.3178141000247
 20
-149.7741481830425
 30
0.0
 10
109.9877739525378
 20
-149.7741481830425
 30
0.0
 10
109.9877739525378
 20
-149.7741481830425
 30
0.0
 10
109.9877739525378
 20
-149.7741481830425
 30
0.0
 10
109.9877739525378
 20
-149.6260090771768
 30
0.0
 10
109.9877739525378
 20
-149.6260090771768
 30
0.0
 10
110.3198811573158
 20
-149.6111951665902
 30
0.0
 10
110.3663899463667
 20
-149.4482421501379
 30
0.0
 10
110.3960177675399
 20
-149.3342094895762
 30
0.0
 10
110.3960177675399
 20
-149.3342094895762
 30
0.0
 10
110.5420898161145
 20
-149.3342094895762
 30
0.0
 10
110.5420898161145
 20
-149.3342094895762
 30
0.0
 10
110.5420898161145
 20
-149.3342094895762
 30
0.0
 10
110.5420898161145
 20
-150.8783012860651
 30
0.0
 10
110.5420898161145
 20
-150.8783012860651
 30
0.0
 10
110.5420898161145
 20
-150.8783012860651
 30
0.0
 10
110.3178141000247
 20
-150.8783012860651
 30
0.0
 10
110.3178141000247
 20
-150.8783012860651
 30
0.0
  0
HATCH
  5
EA
330
D2
100
AcDbEntity
  8
レイヤー 1
 62
   250
420
  2299925
440
 33554687
100
AcDbHatch
 10
0.0
 20
0.0
 30
0.0
210
0.0
220
0.0
230
1.0
  2
SOLID
 70
     1
 71
     1
 91
        1
 92
        1
 93
        1
 72
     4
 94
        3
 73
     0
 74
     0
 95
       26
 96
       22
 40
0.0
 40
0.0
 40
0.0
 40
0.0
 40
1.0
 40
1.0
 40
1.0
 40
2.0
 40
2.0
 40
2.0
 40
3.0
 40
3.0
 40
3.0
 40
4.0
 40
4.0
 40
4.0
 40
5.0
 40
5.0
 40
5.0
 40
6.0
 40
6.0
 40
6.0
 40
7.0
 40
7.0
 40
7.0
 40
7.0
 10
110.3178141000247
 20
-150.8783012860651
 10
110.3178141000247
 20
-150.8783012860651
 10
110.3178141000247
 20
-149.7741481830425
 10
110.3178141000247
 20
-149.7741481830425
 10
110.3178141000247
 20
-149.7741481830425
 10
109.9877739525378
 20
-149.7741481830425
 10
109.9877739525378
 20
-149.7741481830425
 10
109.9877739525378
 20
-149.7741481830425
 10
109.9877739525378
 20
-149.6260090771768
 10
109.9877739525378
 20
-149.6260090771768
 10
110.3198811573158
 20
-149.6111951665902
 10
110.3663899463667
 20
-149.4482421501379
 10
110.3960177675399
 20
-149.3342094895762
 10
110.3960177675399
 20
-149.3342094895762
 10
110.5420898161145
 20
-149.3342094895762
 10
110.5420898161145
 20
-149.3342094895762
 10
110.5420898161145
 20
-149.3342094895762
 10
110.5420898161145
 20
-150.8783012860651
 10
110.5420898161145
 20
-150.8783012860651
 10
110.5420898161145
 20
-150.8783012860651
 10
110.3178141000247
 20
-150.8783012860651
 10
110.3178141000247
 20
-150.8783012860651
 97
        0
 97
        1
330
E9
 75
     2
 76
     1
 98
        1
 10
0.0
 20
0.0
450
        0
451
        0
460
0.0
461
0.0
452
        0
462
0.0
453
        0
470

  0
SPLINE
  5
EB
330
D2
100
AcDbEntity
  8
レイヤー 1
100
AcDbSpline
210
0.0
220
0.0
230
1.0
 70
    11
 71
     3
 72
    17
 73
    13
 74
     0
 42
0.0000000001
 43
0.0000000001
 40
0.0
 40
0.0
 40
0.0
 40
0.0
 40
1.0
 40
1.0
 40
1.0
 40
2.0
 40
2.0
 40
2.0
 40
3.0
 40
3.0
 40
3.0
 40
4.0
 40
4.0
 40
4.0
 40
4.0
 10
111.1039848897587
 20
-150.8783012860651
 30
0.0
 10
111.1039848897587
 20
-150.8783012860651
 30
0.0
 10
111.1039848897587
 20
-150.6268093156419
 30
0.0
 10
111.1039848897587
 20
-150.6268093156419
 30
0.0
 10
111.1039848897587
 20
-150.6268093156419
 30
0.0
 10
111.3558213697305
 20
-150.6268093156419
 30
0.0
 10
111.3558213697305
 20
-150.6268093156419
 30
0.0
 10
111.3558213697305
 20
-150.6268093156419
 30
0.0
 10
111.3558213697305
 20
-150.8783012860651
 30
0.0
 10
111.3558213697305
 20
-150.8783012860651
 30
0.0
 10
111.3558213697305
 20
-150.8783012860651
 30
0.0
 10
111.1039848897587
 20
-150.8783012860651
 30
0.0
 10
111.1039848897587
 20
-150.8783012860651
 30
0.0
  0
HATCH
  5
EC
330
D2
100
AcDbEntity
  8
レイヤー 1
 62
   250
420
  2299925
440
 33554687
100
AcDbHatch
 10
0.0
 20
0.0
 30
0.0
210
0.0
220
0.0
230
1.0
  2
SOLID
 70
     1
 71
     1
 91
        1
 92
        1
 93
        1
 72
     4
 94
        3
 73
     0
 74
     0
 95
       17
 96
       13
 40
0.0
 40
0.0
 40
0.0
 40
0.0
 40
1.0
 40
1.0
 40
1.0
 40
2.0
 40
2.0
 40
2.0
 40
3.0
 40
3.0
 40
3.0
 40
4.0
 40
4.0
 40
4.0
 40
4.0
 10
111.1039848897587
 20
-150.8783012860651
 10
111.1039848897587
 20
-150.8783012860651
 10
111.1039848897587
 20
-150.6268093156419
 10
111.1039848897587
 20
-150.6268093156419
 10
111.1039848897587
 20
-150.6268093156419
 10
111.3558213697305
 20
-150.6268093156419
 10
111.3558213697305
 20
-150.6268093156419
 10
111.3558213697305
 20
-150.6268093156419
 10
111.3558213697305
 20
-150.8783012860651
 10
111.3558213697305
 20
-150.8783012860651
 10
111.3558213697305
 20
-150.8783012860651
 10
111.1039848897587
 20
-150.8783012860651
 10
111.1039848897587
 20
-150.8783012860651
 97
        0
 97
        1
330
EB
 75
     2
 76
     1
 98
        1
 10
0.0
 20
0.0
450
        0
451
        0
460
0.0
461
0.0
452
        0
462
0.0
453
        0
470

  0
SPLINE
  5
ED
330
D2
100
AcDbEntity
  8
レイヤー 1
100
AcDbSpline
210
0.0
220
0.0
230
1.0
 70
     9
 71
     3
 72
    17
 73
    13
 74
     0
 42
0.0000000001
 43
0.0000000001
 40
0.0
 40
0.0
 40
0.0
 40
0.0
 40
1.0
 40
1.0
 40
1.0
 40
2.0
 40
2.0
 40
2.0
 40
3.0
 40
3.0
 40
3.0
 40
4.0
 40
4.0
 40
4.0
 40
4.0
 10
112.0920382749284
 20
-149.4778699713111
 30
0.0
 10
111.8426133617963
 20
-149.4778699713111
 30
0.0
 10
111.7957600631969
 20
-149.7614013297471
 30
0.0
 10
111.7957600631969
 20
-150.1062553878206
 30
0.0
 10
111.7957600631969
 20
-150.4256157393033
 30
0.0
 10
111.831933565792
 20
-150.7346408043302
 30
0.0
 10
112.0920382749284
 20
-150.7346408043302
 30
0.0
 10
112.3397406403178
 20
-150.7346408043302
 30
0.0
 10
112.3883164866599
 20
-150.4531765031853
 30
0.0
 10
112.3883164866599
 20
-150.1062553878206
 30
0.0
 10
112.3883164866599
 20
-149.786895036338
 30
0.0
 10
112.3500759267736
 20
-149.4778699713111
 30
0.0
 10
112.0920382749284
 20
-149.4778699713111
 30
0.0
  0
SPLINE
  5
EE
330
D2
100
AcDbEntity
  8
レイヤー 1
100
AcDbSpline
210
0.0
220
0.0
230
1.0
 70
     9
 71
     3
 72
    29
 73
    25
 74
     0
 42
0.0000000001
 43
0.0000000001
 40
0.0
 40
0.0
 40
0.0
 40
0.0
 40
1.0
 40
1.0
 40
1.0
 40
2.0
 40
2.0
 40
2.0
 40
3.0
 40
3.0
 40
3.0
 40
4.0
 40
4.0
 40
4.0
 40
5.0
 40
5.0
 40
5.0
 40
6.0
 40
6.0
 40
6.0
 40
7.0
 40
7.0
 40
7.0
 40
8.0
 40
8.0
 40
8.0
 40
8.0
 10
112.4899468034747
 20
-150.7005343590262
 30
0.0
 10
112.3817708052379
 20
-150.9099961645294
 30
0.0
 10
112.2084825023298
 20
-150.9292886992468
 30
0.0
 10
112.0920382749284
 20
-150.9292886992468
 30
0.0
 10
111.9311523157672
 20
-150.9292886992468
 30
0.0
 10
111.7895588913234
 20
-150.882779910196
 30
0.0
 10
111.6944742559305
 20
-150.7005343590262
 30
0.0
 10
111.5907768818245
 20
-150.5058864641096
 30
0.0
 10
111.5718288566556
 20
-150.2692084042729
 30
0.0
 10
111.5718288566556
 20
-150.1062553878206
 30
0.0
 10
111.5718288566556
 20
-149.9622503965372
 30
0.0
 10
111.5887098245334
 20
-149.710758426114
 30
0.0
 10
111.6944742559305
 20
-149.5116319070665
 30
0.0
 10
111.8023057446189
 20
-149.3087157829853
 30
0.0
 10
111.96319170378
 20
-149.2852891336856
 30
0.0
 10
112.0920382749284
 20
-149.2852891336856
 30
0.0
 10
112.2508571767984
 20
-149.2852891336856
 30
0.0
 10
112.3945176585333
 20
-149.3297308654453
 30
0.0
 10
112.4899468034747
 20
-149.5116319070665
 30
0.0
 10
112.5891655534499
 20
-149.704212744692
 30
0.0
 10
112.6125922027496
 20
-149.932622575364
 30
0.0
 10
112.6125922027496
 20
-150.1062553878206
 30
0.0
 10
112.6125922027496
 20
-150.2774766334376
 30
0.0
 10
112.5912326107411
 20
-150.5082980309493
 30
0.0
 10
112.4899468034747
 20
-150.7005343590262
 30
0.0
  0
HATCH
  5
EF
330
D2
100
AcDbEntity
  8
レイヤー 1
 62
   250
420
  2299925
440
 33554687
100
AcDbHatch
 10
0.0
 20
0.0
 30
0.0
210
0.0
220
0.0
230
1.0
  2
SOLID
 70
     1
 71
     1
 91
        2
 92
        1
 93
        1
 72
     4
 94
        3
 73
     0
 74
     0
 95
       17
 96
       13
 40
0.0
 40
0.0
 40
0.0
 40
0.0
 40
1.0
 40
1.0
 40
1.0
 40
2.0
 40
2.0
 40
2.0
 40
3.0
 40
3.0
 40
3.0
 40
4.0
 40
4.0
 40
4.0
 40
4.0
 10
112.0920382749284
 20
-149.4778699713111
 10
111.8426133617963
 20
-149.4778699713111
 10
111.7957600631969
 20
-149.7614013297471
 10
111.7957600631969
 20
-150.1062553878206
 10
111.7957600631969
 20
-150.4256157393033
 10
111.831933565792
 20
-150.7346408043302
 10
112.0920382749284
 20
-150.7346408043302
 10
112.3397406403178
 20
-150.7346408043302
 10
112.3883164866599
 20
-150.4531765031853
 10
112.3883164866599
 20
-150.1062553878206
 10
112.3883164866599
 20
-149.786895036338
 10
112.3500759267736
 20
-149.4778699713111
 10
112.0920382749284
 20
-149.4778699713111
 97
        0
 97
        1
330
ED
 92
        1
 93
        1
 72
     4
 94
        3
 73
     0
 74
     0
 95
       29
 96
       25
 40
0.0
 40
0.0
 40
0.0
 40
0.0
 40
1.0
 40
1.0
 40
1.0
 40
2.0
 40
2.0
 40
2.0
 40
3.0
 40
3.0
 40
3.0
 40
4.0
 40
4.0
 40
4.0
 40
5.0
 40
5.0
 40
5.0
 40
6.0
 40
6.0
 40
6.0
 40
7.0
 40
7.0
 40
7.0
 40
8.0
 40
8.0
 40
8.0
 40
8.0
 10
112.4899468034747
 20
-150.7005343590262
 10
112.3817708052379
 20
-150.9099961645294
 10
112.2084825023298
 20
-150.9292886992468
 10
112.0920382749284
 20
-150.9292886992468
 10
111.9311523157672
 20
-150.9292886992468
 10
111.7895588913234
 20
-150.882779910196
 10
111.6944742559305
 20
-150.7005343590262
 10
111.5907768818245
 20
-150.5058864641096
 10
111.5718288566556
 20
-150.2692084042729
 10
111.5718288566556
 20
-150.1062553878206
 10
111.5718288566556
 20
-149.9622503965372
 10
111.5887098245334
 20
-149.710758426114
 10
111.6944742559305
 20
-149.5116319070665
 10
111.8023057446189
 20
-149.3087157829853
 10
111.96319170378
 20
-149.2852891336856
 10
112.0920382749284
 20
-149.2852891336856
 10
112.2508571767984
 20
-149.2852891336856
 10
112.3945176585333
 20
-149.3297308654453
 10
112.4899468034747
 20
-149.5116319070665
 10
112.5891655534499
 20
-149.704212744692
 10
112.6125922027496
 20
-149.932622575364
 10
112.6125922027496
 20
-150.1062553878206
 10
112.6125922027496
 20
-150.2774766334376
 10
112.5912326107411
 20
-150.5082980309493
 10
112.4899468034747
 20
-150.7005343590262
 97
        0
 97
        1
330
EE
 75
     2
 76
     1
 98
        1
 10
0.0
 20
0.0
450
        0
451
        0
460
0.0
461
0.0
452
        0
462
0.0
453
        0
470

  0
ENDBLK
  5
D5
330
D2
100
AcDbEntity
  8
0
100
AcDbBlockEnd
  0
BLOCK
  5
F8
330
F6
100
AcDbEntity
  8
0
100
AcDbBlockBegin
  2
Block_16
 70
     0
 10
0.0
 20
0.0
 30
0.0
  3
Block_16
  1

  0
LWPOLYLINE
  5
FA
330
F6
100
AcDbEntity
  8
レイヤー 1
 62
   250
420
  2299925
370
    25
100
AcDbPolyline
 90
        4
 70
     1
 43
0.0
 10
94.2135372753612
 20
-149.6814279363236
 10
93.21353727561142
 20
-149.6814279363236
 10
93.61353727551101
 20
-130.8663489305729
 10
94.2135372753612
 20
-130.8663489305729
  0
LWPOLYLINE
  5
FB
330
F6
100
AcDbEntity
  8
レイヤー 1
 62
   250
420
  2299925
370
    25
100
AcDbPolyline
 90
        4
 70
     1
 43
0.0
 10
123.8246053021306
 20
-161.0774169810343
 10
105.0123699124801
 20
-161.4774169809342
 10
105.0123699124801
 20
-160.4774169811844
 10
123.8246053021306
 20
-160.4774169811844
  0
LWPOLYLINE
  5
FC
330
F6
100
AcDbEntity
  8
レイヤー 1
 62
   250
420
  2299925
370
    25
100
AcDbPolyline
 90
        4
 70
     1
 43
0.0
 10
102.9665985061517
 20
-160.6194101720311
 10
94.07633673011085
 20
-151.729148396308
 10
94.78344351110537
 20
-151.0220416152817
 10
103.6737052871459
 20
-159.9123033910049
  0
SPLINE
  5
FD
330
F6
100
AcDbEntity
  8
レイヤー 1
 62
   250
420
  2299925
370
    25
100
AcDbSpline
210
0.0
220
0.0
230
1.0
 70
    11
 71
     3
 72
    29
 73
    25
 74
     0
 42
0.0000000001
 43
0.0000000001
 40
0.0
 40
0.0
 40
0.0
 40
0.0
 40
1.0
 40
1.0
 40
1.0
 40
2.0
 40
2.0
 40
2.0
 40
3.0
 40
3.0
 40
3.0
 40
4.0
 40
4.0
 40
4.0
 40
5.0
 40
5.0
 40
5.0
 40
6.0
 40
6.0
 40
6.0
 40
7.0
 40
7.0
 40
7.0
 40
8.0
 40
8.0
 40
8.0
 40
8.0
 10
105.0124230923084
 20
-161.4813430382192
 30
0.0
 10
105.0124230923084
 20
-161.4813430382192
 30
0.0
 10
104.6188209331186
 20
-161.4813430382192
 30
0.0
 10
104.6188209331186
 20
-161.4813430382192
 30
0.0
 10
104.0800079992255
 20
-161.4813430382192
 30
0.0
 10
103.7236128712764
 20
-161.3984884917989
 30
0.0
 10
103.2714440888374
 20
-160.9464919641341
 30
0.0
 10
103.2714440888374
 20
-160.9464919641341
 30
0.0
 10
102.9532895207746
 20
-160.6283373960713
 30
0.0
 10
102.9532895207746
 20
-160.6283373960713
 30
0.0
 10
102.9532895207746
 20
-160.6283373960713
 30
0.0
 10
103.6602231143478
 20
-159.9210592929495
 30
0.0
 10
103.6602231143478
 20
-159.9210592929495
 30
0.0
 10
103.6602231143478
 20
-159.9210592929495
 30
0.0
 10
103.9785499371849
 20
-160.2392138610123
 30
0.0
 10
103.9785499371849
 20
-160.2392138610123
 30
0.0
 10
104.2026533985004
 20
-160.4633173223279
 30
0.0
 10
104.2808570660156
 20
-160.4812318188511
 30
0.0
 10
104.6188209331186
 20
-160.4812318188511
 30
0.0
 10
104.6188209331186
 20
-160.4812318188511
 30
0.0
 10
105.0124230923084
 20
-160.4812318188511
 30
0.0
 10
105.0124230923084
 20
-160.4812318188511
 30
0.0
 10
105.0124230923084
 20
-160.4812318188511
 30
0.0
 10
105.0124230923084
 20
-161.4813430382192
 30
0.0
 10
105.0124230923084
 20
-161.4813430382192
 30
0.0
  0
SPLINE
  5
FE
330
F6
100
AcDbEntity
  8
レイヤー 1
 62
   250
420
  2299925
370
    25
100
AcDbSpline
210
0.0
220
0.0
230
1.0
 70
    11
 71
     3
 72
    29
 73
    25
 74
     0
 42
0.0000000001
 43
0.0000000001
 40
0.0
 40
0.0
 40
0.0
 40
0.0
 40
1.0
 40
1.0
 40
1.0
 40
2.0
 40
2.0
 40
2.0
 40
3.0
 40
3.0
 40
3.0
 40
4.0
 40
4.0
 40
4.0
 40
5.0
 40
5.0
 40
5.0
 40
6.0
 40
6.0
 40
6.0
 40
7.0
 40
7.0
 40
7.0
 40
8.0
 40
8.0
 40
8.0
 40
8.0
 10
94.06684570935434
 20
-151.7418935846511
 30
0.0
 10
94.06684570935434
 20
-151.7418935846511
 30
0.0
 10
93.74834663174299
 20
-151.423566761814
 30
0.0
 10
93.74834663174299
 20
-151.423566761814
 30
0.0
 10
93.29083795130181
 20
-150.9658858265985
 30
0.0
 10
93.21349555765795
 20
-150.6535879208606
 30
0.0
 10
93.21349555765795
 20
-150.1270050759402
 30
0.0
 10
93.21349555765795
 20
-150.1270050759402
 30
0.0
 10
93.21349555765795
 20
-149.6813819749231
 30
0.0
 10
93.21349555765795
 20
-149.6813819749231
 30
0.0
 10
93.21349555765795
 20
-149.6813819749231
 30
0.0
 10
94.21360677702597
 20
-149.6813819749231
 30
0.0
 10
94.21360677702597
 20
-149.6813819749231
 30
0.0
 10
94.21360677702597
 20
-149.6813819749231
 30
0.0
 10
94.21360677702597
 20
-150.1270050759402
 30
0.0
 10
94.21360677702597
 20
-150.1270050759402
 30
0.0
 10
94.21360677702597
 20
-150.428106421351
 30
0.0
 10
94.21360677702597
 20
-150.4744429556276
 30
0.0
 10
94.45562473486479
 20
-150.7162886586922
 30
0.0
 10
94.45562473486479
 20
-150.7162886586922
 30
0.0
 10
94.77395155770187
 20
-151.0349599910778
 30
0.0
 10
94.77395155770187
 20
-151.0349599910778
 30
0.0
 10
94.77395155770187
 20
-151.0349599910778
 30
0.0
 10
94.06684570935434
 20
-151.7418935846511
 30
0.0
 10
94.06684570935434
 20
-151.7418935846511
 30
0.0
  0
ENDBLK
  5
F9
330
F6
100
AcDbEntity
  8
0
100
AcDbBlockEnd
  0
ENDSEC
  0
SECTION
  2
ENTITIES
  0
INSERT
  5
7A
330
70
100
AcDbEntity
  8
レイヤー 1
100
AcDbBlockReference
  2
Block_0
 10
0.0
 20
0.0
 30
0.0
  0
ENDSEC
  0
SECTION
  2
OBJECTS
  0
DICTIONARY
  5
C
330
0
100
AcDbDictionary
281
     1
  3
ACAD_COLOR
350
63
  3
ACAD_DETAILVIEWSTYLE
350
6A
  3
ACAD_GROUP
350
D
  3
ACAD_LAYOUT
350
62
  3
ACAD_MATERIAL
350
10
  3
ACAD_MLEADERSTYLE
350
66
  3
ACAD_MLINESTYLE
350
5F
  3
ACAD_PLOTSETTINGS
350
61
  3
ACAD_PLOTSTYLENAME
350
E
  3
ACAD_SCALELIST
350
42
  3
ACAD_SECTIONVIEWSTYLE
350
68
  3
ACAD_TABLESTYLE
350
64
  3
ACAD_VISUALSTYLE
350
29
  3
ACDB_RECOMPOSE_DATA
350
107
  3
AcDbVariableDictionary
350
FF
  0
DICTIONARY
  5
63
102
{ACAD_REACTORS
330
C
102
}
330
C
100
AcDbDictionary
281
     1
  0
DICTIONARY
  5
6A
102
{ACAD_REACTORS
330
C
102
}
330
C
100
AcDbDictionary
281
     1
  3
Imperial24
350
6B
  0
DICTIONARY
  5
D
102
{ACAD_REACTORS
330
C
102
}
330
C
100
AcDbDictionary
281
     1
  0
DICTIONARY
  5
62
102
{ACAD_REACTORS
330
C
102
}
330
C
100
AcDbDictionary
281
     1
  3
Layout1
350
6F
  3
Layout2
350
77
  3
Model
350
73
  0
DICTIONARY
  5
10
102
{ACAD_REACTORS
330
C
102
}
330
C
100
AcDbDictionary
281
     1
  3
ByBlock
350
19
  3
ByLayer
350
11
  3
Global
350
21
  0
DICTIONARY
  5
66
102
{ACAD_REACTORS
330
C
102
}
330
C
100
AcDbDictionary
281
     1
  3
Standard
350
67
  0
DICTIONARY
  5
5F
102
{ACAD_REACTORS
330
C
102
}
330
C
100
AcDbDictionary
281
     1
  3
Standard
350
60
  0
DICTIONARY
  5
61
102
{ACAD_REACTORS
330
C
102
}
330
C
100
AcDbDictionary
281
     1
  0
ACDBDICTIONARYWDFLT
  5
E
102
{ACAD_REACTORS
330
C
102
}
330
C
100
AcDbDictionary
281
     1
  3
Normal
350
F
100
AcDbDictionaryWithDefault
340
F
  0
DICTIONARY
  5
42
102
{ACAD_REACTORS
330
C
102
}
330
C
100
AcDbDictionary
281
     1
  3
A0
350
43
  3
A1
350
44
  3
A2
350
45
  3
A3
350
46
  3
A4
350
47
  3
A5
350
48
  3
A6
350
49
  3
A7
350
4A
  3
A8
350
4B
  3
A9
350
4C
  3
B0
350
4D
  3
B1
350
4E
  3
B2
350
4F
  3
B3
350
50
  3
B4
350
51
  3
B5
350
52
  3
B6
350
53
  0
DICTIONARY
  5
68
102
{ACAD_REACTORS
330
C
102
}
330
C
100
AcDbDictionary
281
     1
  3
Imperial24
350
69
  0
DICTIONARY
  5
64
102
{ACAD_REACTORS
330
C
102
}
330
C
100
AcDbDictionary
281
     1
  3
Standard
350
65
  0
DICTIONARY
  5
29
102
{ACAD_REACTORS
330
C
102
}
330
C
100
AcDbDictionary
281
     1
  3
2dWireframe
350
2F
  3
Basic
350
2E
  3
Brighten
350
35
  3
ColorChange
350
39
  3
Conceptual
350
32
  3
Dim
350
34
  3
EdgeColorOff
350
41
  3
Facepattern
350
38
  3
Flat
350
2A
  3
FlatWithEdges
350
2B
  3
Gouraud
350
2C
  3
GouraudWithEdges
350
2D
  3
Hidden
350
31
  3
JitterOff
350
3F
  3
Linepattern
350
37
  3
OverhangOff
350
40
  3
Realistic
350
33
  3
Shaded
350
3E
  3
Shaded with edges
350
3D
  3
Shades of Gray
350
3A
  3
Sketchy
350
3B
  3
Thicken
350
36
  3
Wireframe
350
30
  3
X-Ray
350
3C
  0
XRECORD
  5
107
102
{ACAD_REACTORS
330
C
102
}
330
C
100
AcDbXrecord
280
     1
 90
        1
330
65
  0
DICTIONARY
  5
FF
102
{ACAD_REACTORS
330
C
102
}
330
C
100
AcDbDictionary
281
     1
  3
CANNOSCALE
350
104
  3
CMLEADERSTYLE
350
101
  3
CTABLESTYLE
350
100
  3
CVIEWDETAILSTYLE
350
102
  3
CVIEWSECTIONSTYLE
350
103
  0
ACDBDETAILVIEWSTYLE
  5
6B
102
{ACAD_XDICTIONARY
360
13C
102
}
102
{ACAD_REACTORS
330
6A
102
}
330
6A
100
AcDbModelDocViewStyle
 70
     0
  3
Imperial24
290
     0
100
AcDbDetailViewStyle
 70
     0
 71
     0
 90
        3
 71
     1
340
55
 62
   256
 40
0.24
340
0
 62
   256
 40
0.24
300

 40
0.36
280
     3
 71
     2
340
5D
 90
       25
 62
   256
 71
     3
340
55
 62
   256
 40
0.24
 90
        1
 40
0.75
 90
        1
300
%<\AcVar ViewType \f "%tc1">% %<\AcVar ViewDetailId>%\PSCALE %<\AcVar ViewScale \f "%sn">%
 71
     4
340
5D
 90
       25
 62
   256
340
5D
 90
       25
 62
   256
280
     0
  0
LAYOUT
  5
6F
102
{ACAD_REACTORS
330
62
102
}
330
62
100
AcDbPlotSettings
  1

  2

  4

  6

 40
0.0
 41
0.0
 42
0.0
 43
0.0
 44
0.0
 45
0.0
 46
0.0
 47
0.0
 48
0.0
 49
0.0
140
0.0
141
0.0
142
1.0
143
1.0
 70
   688
 72
     0
 73
     0
 74
     5
  7

 75
    16
147
1.0
 76
     0
 77
     2
 78
   300
148
0.0
149
0.0
100
AcDbLayout
  1
Layout1
 70
     1
 71
     1
 10
0.0
 20
0.0
 11
12.0
 21
9.0
 12
0.0
 22
0.0
 32
0.0
 14
0.0
 24
0.0
 34
0.0
 15
0.0
 25
0.0
 35
0.0
146
0.0
 13
0.0
 23
0.0
 33
0.0
 16
1.0
 26
0.0
 36
0.0
 17
0.0
 27
1.0
 37
0.0
 76
     0
330
6C
  0
LAYOUT
  5
77
102
{ACAD_REACTORS
330
62
102
}
330
62
100
AcDbPlotSettings
  1

  2

  4

  6

 40
0.0
 41
0.0
 42
0.0
 43
0.0
 44
0.0
 45
0.0
 46
0.0
 47
0.0
 48
0.0
 49
0.0
140
0.0
141
0.0
142
1.0
143
1.0
 70
   688
 72
     0
 73
     0
 74
     5
  7

 75
    16
147
1.0
 76
     0
 77
     2
 78
   300
148
0.0
149
0.0
100
AcDbLayout
  1
Layout2
 70
     1
 71
     2
 10
0.0
 20
0.0
 11
12.0
 21
9.0
 12
0.0
 22
0.0
 32
0.0
 14
0.0
 24
0.0
 34
0.0
 15
0.0
 25
0.0
 35
0.0
146
0.0
 13
0.0
 23
0.0
 33
0.0
 16
1.0
 26
0.0
 36
0.0
 17
0.0
 27
1.0
 37
0.0
 76
     0
330
74
  0
LAYOUT
  5
73
102
{ACAD_REACTORS
330
62
102
}
330
62
100
AcDbPlotSettings
  1

  2

  4

  6

 40
0.0
 41
0.0
 42
0.0
 43
0.0
 44
0.0
 45
0.0
 46
0.0
 47
0.0
 48
0.0
 49
0.0
140
0.0
141
0.0
142
1.0
143
1.0
 70
  1712
 72
     0
 73
     0
 74
     0
  7

 75
     0
147
1.0
 76
     0
 77
     2
 78
   300
148
0.0
149
0.0
100
AcDbLayout
  1
Model
 70
     1
 71
     0
 10
0.0
 20
0.0
 11
12.0
 21
9.0
 12
0.0
 22
0.0
 32
0.0
 14
0.0
 24
0.0
 34
0.0
 15
0.0
 25
0.0
 35
0.0
146
0.0
 13
0.0
 23
0.0
 33
0.0
 16
1.0
 26
0.0
 36
0.0
 17
0.0
 27
1.0
 37
0.0
 76
     0
330
70
  0
MATERIAL
  5
19
102
{ACAD_XDICTIONARY
360
1A
102
}
102
{ACAD_REACTORS
330
10
102
}
330
10
100
AcDbMaterial
  1
ByBlock
 72
     0
 43
0.0208333333333333
 43
0.0
 43
0.0
 43
0.0
 43
0.0
 43
0.0208333333333333
 43
0.0
 43
0.0
 43
0.0
 43
0.0
 43
1.0
 43
0.0
 43
0.0
 43
0.0
 43
0.0
 43
1.0
 77
     0
 47
0.0208333333333333
 47
0.0
 47
0.0
 47
0.0
 47
0.0
 47
0.0208333333333333
 47
0.0
 47
0.0
 47
0.0
 47
0.0
 47
1.0
 47
0.0
 47
0.0
 47
0.0
 47
0.0
 47
1.0
171
     0
 49
0.0208333333333333
 49
0.0
 49
0.0
 49
0.0
 49
0.0
 49
0.0208333333333333
 49
0.0
 49
0.0
 49
0.0
 49
0.0
 49
1.0
 49
0.0
 49
0.0
 49
0.0
 49
0.0
 49
1.0
175
     0
142
0.0208333333333333
142
0.0
142
0.0
142
0.0
142
0.0
142
0.0208333333333333
142
0.0
142
0.0
142
0.0
142
0.0
142
1.0
142
0.0
142
0.0
142
0.0
142
0.0
142
1.0
179
     0
144
0.0208333333333333
144
0.0
144
0.0
144
0.0
144
0.0
144
0.0208333333333333
144
0.0
144
0.0
144
0.0
144
0.0
144
1.0
144
0.0
144
0.0
144
0.0
144
0.0
144
1.0
147
0.0208333333333333
147
0.0
147
0.0
147
0.0
147
0.0
147
0.0208333333333333
147
0.0
147
0.0
147
0.0
147
0.0
147
1.0
147
0.0
147
0.0
147
0.0
147
0.0
147
1.0
  0
MATERIAL
  5
11
102
{ACAD_XDICTIONARY
360
12
102
}
102
{ACAD_REACTORS
330
10
102
}
330
10
100
AcDbMaterial
  1
ByLayer
 72
     0
 43
0.0208333333333333
 43
0.0
 43
0.0
 43
0.0
 43
0.0
 43
0.0208333333333333
 43
0.0
 43
0.0
 43
0.0
 43
0.0
 43
1.0
 43
0.0
 43
0.0
 43
0.0
 43
0.0
 43
1.0
 77
     0
 47
0.0208333333333333
 47
0.0
 47
0.0
 47
0.0
 47
0.0
 47
0.0208333333333333
 47
0.0
 47
0.0
 47
0.0
 47
0.0
 47
1.0
 47
0.0
 47
0.0
 47
0.0
 47
0.0
 47
1.0
171
     0
 49
0.0208333333333333
 49
0.0
 49
0.0
 49
0.0
 49
0.0
 49
0.0208333333333333
 49
0.0
 49
0.0
 49
0.0
 49
0.0
 49
1.0
 49
0.0
 49
0.0
 49
0.0
 49
0.0
 49
1.0
175
     0
142
0.0208333333333333
142
0.0
142
0.0
142
0.0
142
0.0
142
0.0208333333333333
142
0.0
142
0.0
142
0.0
142
0.0
142
1.0
142
0.0
142
0.0
142
0.0
142
0.0
142
1.0
179
     0
144
0.0208333333333333
144
0.0
144
0.0
144
0.0
144
0.0
144
0.0208333333333333
144
0.0
144
0.0
144
0.0
144
0.0
144
1.0
144
0.0
144
0.0
144
0.0
144
0.0
144
1.0
147
0.0208333333333333
147
0.0
147
0.0
147
0.0
147
0.0
147
0.0208333333333333
147
0.0
147
0.0
147
0.0
147
0.0
147
1.0
147
0.0
147
0.0
147
0.0
147
0.0
147
1.0
  0
MATERIAL
  5
21
102
{ACAD_XDICTIONARY
360
22
102
}
102
{ACAD_REACTORS
330
10
102
}
330
10
100
AcDbMaterial
  1
Global
 72
     0
 43
0.0208333333333333
 43
0.0
 43
0.0
 43
0.0
 43
0.0
 43
0.0208333333333333
 43
0.0
 43
0.0
 43
0.0
 43
0.0
 43
1.0
 43
0.0
 43
0.0
 43
0.0
 43
0.0
 43
1.0
 77
     0
 47
0.0208333333333333
 47
0.0
 47
0.0
 47
0.0
 47
0.0
 47
0.0208333333333333
 47
0.0
 47
0.0
 47
0.0
 47
0.0
 47
1.0
 47
0.0
 47
0.0
 47
0.0
 47
0.0
 47
1.0
171
     0
 49
0.0208333333333333
 49
0.0
 49
0.0
 49
0.0
 49
0.0
 49
0.0208333333333333
 49
0.0
 49
0.0
 49
0.0
 49
0.0
 49
1.0
 49
0.0
 49
0.0
 49
0.0
 49
0.0
 49
1.0
175
     0
142
0.0208333333333333
142
0.0
142
0.0
142
0.0
142
0.0
142
0.0208333333333333
142
0.0
142
0.0
142
0.0
142
0.0
142
1.0
142
0.0
142
0.0
142
0.0
142
0.0
142
1.0
179
     0
144
0.0208333333333333
144
0.0
144
0.0
144
0.0
144
0.0
144
0.0208333333333333
144
0.0
144
0.0
144
0.0
144
0.0
144
1.0
144
0.0
144
0.0
144
0.0
144
0.0
144
1.0
147
0.0208333333333333
147
0.0
147
0.0
147
0.0
147
0.0
147
0.0208333333333333
147
0.0
147
0.0
147
0.0
147
0.0
147
1.0
147
0.0
147
0.0
147
0.0
147
0.0
147
1.0
  0
MLEADERSTYLE
  5
67
102
{ACAD_XDICTIONARY
360
138
102
}
102
{ACAD_REACTORS
330
66
102
}
330
66
100
AcDbMLeaderStyle
179
     2
170
     2
171
     1
172
     0
 90
        2
 40
0.0
 41
0.0
173
     1
 91
-1056964608
340
5B
 92
       -2
290
     1
 42
0.09
291
     1
 43
0.36
  3
Standard
 44
0.18
300

342
55
174
     1
178
     6
175
     1
176
     0
 93
-1056964608
 45
0.18
292
     0
297
     0
 46
0.18
 94
-1056964608
 47
1.0
 49
1.0
140
1.0
293
     1
141
0.0
294
     1
177
     0
142
1.0
295
     0
296
     0
143
0.125
271
     0
272
     9
273
     9
  0
MLINESTYLE
  5
60
102
{ACAD_REACTORS
330
5F
102
}
330
5F
100
AcDbMlineStyle
  2
STANDARD
 70
     0
  3

 62
   256
 51
90.0
 52
90.0
 71
     2
 49
0.5
 62
   256
  6
BYLAYER
 49
-0.5
 62
   256
  6
BYLAYER
  0
ACDBPLACEHOLDER
  5
F
102
{ACAD_REACTORS
330
E
102
}
330
E
  0
SCALE
  5
43
102
{ACAD_REACTORS
330
42
102
}
330
42
100
AcDbScale
 70
     0
300
1:1
140
1.0
141
1.0
290
     1
  0
SCALE
  5
44
102
{ACAD_REACTORS
330
42
102
}
330
42
100
AcDbScale
 70
     0
300
1/128" = 1'-0"
140
0.0078125
141
12.0
290
     0
  0
SCALE
  5
45
102
{ACAD_REACTORS
330
42
102
}
330
42
100
AcDbScale
 70
     0
300
1/64" = 1'-0"
140
0.015625
141
12.0
290
     0
  0
SCALE
  5
46
102
{ACAD_REACTORS
330
42
102
}
330
42
100
AcDbScale
 70
     0
300
1/32" = 1'-0"
140
0.03125
141
12.0
290
     0
  0
SCALE
  5
47
102
{ACAD_REACTORS
330
42
102
}
330
42
100
AcDbScale
 70
     0
300
1/16" = 1'-0"
140
0.0625
141
12.0
290
     0
  0
SCALE
  5
48
102
{ACAD_REACTORS
330
42
102
}
330
42
100
AcDbScale
 70
     0
300
3/32" = 1'-0"
140
0.09375
141
12.0
290
     0
  0
SCALE
  5
49
102
{ACAD_REACTORS
330
42
102
}
330
42
100
AcDbScale
 70
     0
300
1/8" = 1'-0"
140
0.125
141
12.0
290
     0
  0
SCALE
  5
4A
102
{ACAD_REACTORS
330
42
102
}
330
42
100
AcDbScale
 70
     0
300
3/16" = 1'-0"
140
0.1875
141
12.0
290
     0
  0
SCALE
  5
4B
102
{ACAD_REACTORS
330
42
102
}
330
42
100
AcDbScale
 70
     0
300
1/4" = 1'-0"
140
0.25
141
12.0
290
     0
  0
SCALE
  5
4C
102
{ACAD_REACTORS
330
42
102
}
330
42
100
AcDbScale
 70
     0
300
3/8" = 1'-0"
140
0.375
141
12.0
290
     0
  0
SCALE
  5
4D
102
{ACAD_REACTORS
330
42
102
}
330
42
100
AcDbScale
 70
     0
300
1/2" = 1'-0"
140
0.5
141
12.0
290
     0
  0
SCALE
  5
4E
102
{ACAD_REACTORS
330
42
102
}
330
42
100
AcDbScale
 70
     0
300
3/4" = 1'-0"
140
0.75
141
12.0
290
     0
  0
SCALE
  5
4F
102
{ACAD_REACTORS
330
42
102
}
330
42
100
AcDbScale
 70
     0
300
1" = 1'-0"
140
1.0
141
12.0
290
     0
  0
SCALE
  5
50
102
{ACAD_REACTORS
330
42
102
}
330
42
100
AcDbScale
 70
     0
300
1-1/2" = 1'-0"
140
1.5
141
12.0
290
     0
  0
SCALE
  5
51
102
{ACAD_REACTORS
330
42
102
}
330
42
100
AcDbScale
 70
     0
300
3" = 1'-0"
140
3.0
141
12.0
290
     0
  0
SCALE
  5
52
102
{ACAD_REACTORS
330
42
102
}
330
42
100
AcDbScale
 70
     0
300
6" = 1'-0"
140
6.0
141
12.0
290
     0
  0
SCALE
  5
53
102
{ACAD_REACTORS
330
42
102
}
330
42
100
AcDbScale
 70
     0
300
1'-0" = 1'-0"
140
12.0
141
12.0
290
     0
  0
ACDBSECTIONVIEWSTYLE
  5
69
102
{ACAD_XDICTIONARY
360
13A
102
}
102
{ACAD_REACTORS
330
68
102
}
330
68
100
AcDbModelDocViewStyle
 70
     0
  3
Imperial24
290
     0
100
AcDbSectionViewStyle
 70
     0
 71
     0
 90
       78
 71
     1
340
55
 62
   256
 40
0.24
340
0
340
0
 62
   256
 40
0.24
300
I, O, Q, S, X, Z
 40
0.48
 90
        3
 40
0.18
 90
        1
 71
     2
340
5D
 90
       25
 62
   256
340
5D
 90
       50
 62
   256
 40
0.24
 40
0.0
 40
0.24
 71
     3
340
55
 62
   256
 40
0.24
 90
        1
 40
0.75
 90
        1
300
%<\AcVar ViewType \f "%tc1">% %<\AcVar ViewSectionStartId>%-%<\AcVar ViewSectionEndId>%\PSCALE %<\AcVar ViewScale \f "%sn">%
 71
     4
 62
   256
 62
   257
300
ANSI31
 40
1.0
 90
        0
290
     0
290
     0
 90
        6
 40
0.0
 40
1.570796326794896
 40
0.2617993877991494
 40
1.308996938995747
 40
-0.2617993877991494
 40
1.832595714594046
  0
TABLESTYLE
  5
65
102
{ACAD_XDICTIONARY
360
105
102
}
102
{ACAD_REACTORS
330
64
102
}
330
64
100
AcDbTableStyle
280
     0
  3
Standard
 70
     0
 71
     0
 40
0.06
 41
0.06
280
     0
281
     0
  7
Standard
140
0.18
170
     2
 62
     0
 63
     7
283
     0
 90
      512
 91
        0
  1

274
    -2
284
     1
 64
     0
275
    -2
285
     1
 65
     0
276
    -2
286
     1
 66
     0
277
    -2
287
     1
 67
     0
278
    -2
288
     1
 68
     0
279
    -2
289
     1
 69
     0
  7
Standard
140
0.25
170
     5
 62
     0
 63
     7
283
     0
 90
      512
 91
        0
  1

274
    -2
284
     1
 64
     0
275
    -2
285
     1
 65
     0
276
    -2
286
     1
 66
     0
277
    -2
287
     1
 67
     0
278
    -2
288
     1
 68
     0
279
    -2
289
     1
 69
     0
  7
Standard
140
0.18
170
     5
 62
     0
 63
     7
283
     0
 90
      512
 91
        0
  1

274
    -2
284
     1
 64
     0
275
    -2
285
     1
 65
     0
276
    -2
286
     1
 66
     0
277
    -2
287
     1
 67
     0
278
    -2
288
     1
 68
     0
279
    -2
289
     1
 69
     0
  0
VISUALSTYLE
  5
2F
102
{ACAD_XDICTIONARY
360
112
102
}
102
{ACAD_REACTORS
330
29
102
}
330
29
100
AcDbVisualStyle
  2
2dWireframe
 70
     4
177
     2
291
     0
 71
     0
176
     1
 72
     2
176
     1
 73
     0
176
     1
 90
        0
176
     1
 40
0.6
176
     1
 41
30.0
176
     1
 63
     7
421
 16777215
176
     1
 74
     1
176
     1
 91
        4
176
     1
 64
     7
176
     1
 65
   257
176
     1
 75
     1
176
     1
175
     1
176
     1
 42
1.0
176
     1
 92
        0
176
     1
 66
   257
176
     1
 43
1.0
176
     1
 76
     1
176
     1
 77
     6
176
     1
 78
     2
176
     1
 67
     7
176
     1
 79
     5
176
     1
170
     0
176
     1
171
     0
176
     1
290
     0
176
     1
 93
        1
176
     1
 44
0.0
176
     1
173
     0
176
     1
1001
ACAD
1000
AcDbSavedByObjectVersion
1070
     0
  0
VISUALSTYLE
  5
2E
102
{ACAD_XDICTIONARY
360
110
102
}
102
{ACAD_REACTORS
330
29
102
}
330
29
100
AcDbVisualStyle
  2
Basic
 70
     7
177
     2
291
     1
 71
     1
176
     1
 72
     0
176
     1
 73
     1
176
     1
 90
        0
176
     1
 40
0.6
176
     1
 41
30.0
176
     1
 63
     7
421
 16777215
176
     1
 74
     0
176
     1
 91
        4
176
     1
 64
     7
176
     1
 65
   257
176
     1
 75
     1
176
     1
175
     1
176
     1
 42
1.0
176
     1
 92
        8
176
     1
 66
     7
176
     1
 43
1.0
176
     1
 76
     1
176
     1
 77
     6
176
     1
 78
     2
176
     1
 67
     7
176
     1
 79
     5
176
     1
170
     0
176
     1
171
     0
176
     1
290
     0
176
     1
 93
        1
176
     1
 44
0.0
176
     1
173
     0
176
     1
1001
ACAD
1000
AcDbSavedByObjectVersion
1070
     0
  0
VISUALSTYLE
  5
35
102
{ACAD_XDICTIONARY
360
11E
102
}
102
{ACAD_REACTORS
330
29
102
}
330
29
100
AcDbVisualStyle
  2
Brighten
 70
    12
177
     2
291
     1
 71
     2
176
     1
 72
     2
176
     1
 73
     0
176
     1
 90
        0
176
     1
 40
0.6
176
     1
 41
30.0
176
     1
 63
     7
421
 16777215
176
     1
 74
     1
176
     1
 91
        4
176
     1
 64
     7
176
     1
 65
   257
176
     1
 75
     1
176
     1
175
     1
176
     1
 42
1.0
176
     1
 92
        8
176
     1
 66
     7
176
     1
 43
1.0
176
     1
 76
     1
176
     1
 77
     6
176
     1
 78
     2
176
     1
 67
     7
176
     1
 79
     5
176
     1
170
     0
176
     1
171
     0
176
     1
290
     0
176
     1
 93
        1
176
     1
 44
50.0
176
     1
173
     0
176
     1
1001
ACAD
1000
AcDbSavedByObjectVersion
1070
     0
  0
VISUALSTYLE
  5
39
102
{ACAD_XDICTIONARY
360
126
102
}
102
{ACAD_REACTORS
330
29
102
}
330
29
100
AcDbVisualStyle
  2
ColorChange
 70
    16
177
     2
291
     1
 71
     2
176
     1
 72
     2
176
     1
 73
     3
176
     1
 90
        0
176
     1
 40
0.6
176
     1
 41
30.0
176
     1
 63
     8
421
  8421504
176
     1
 74
     1
176
     1
 91
        4
176
     1
 64
     7
176
     1
 65
   257
176
     1
 75
     1
176
     1
175
     1
176
     1
 42
1.0
176
     1
 92
        8
176
     1
 66
     8
424
  8421504
176
     1
 43
1.0
176
     1
 76
     1
176
     1
 77
     6
176
     1
 78
     2
176
     1
 67
     7
176
     1
 79
     5
176
     1
170
     0
176
     1
171
     0
176
     1
290
     0
176
     1
 93
        1
176
     1
 44
0.0
176
     1
173
     0
176
     1
1001
ACAD
1000
AcDbSavedByObjectVersion
1070
     0
  0
VISUALSTYLE
  5
32
102
{ACAD_XDICTIONARY
360
118
102
}
102
{ACAD_REACTORS
330
29
102
}
330
29
100
AcDbVisualStyle
  2
Conceptual
 70
     9
177
     2
291
     0
 71
     3
176
     1
 72
     2
176
     1
 73
     0
176
     1
 90
        0
176
     1
 40
0.6
176
     1
 41
30.0
176
     1
 63
     7
421
 16777215
176
     1
 74
     2
176
     1
 91
        2
176
     1
 64
     7
176
     1
 65
   257
176
     1
 75
     1
176
     1
175
     1
176
     1
 42
179.0
176
     1
 92
        8
176
     1
 66
     7
176
     1
 43
1.0
176
     1
 76
     1
176
     1
 77
     6
176
     1
 78
     2
176
     1
 67
     7
176
     1
 79
     3
176
     1
170
     0
176
     1
171
     0
176
     1
290
     0
176
     1
 93
        1
176
     1
 44
0.0
176
     1
173
     0
176
     1
1001
ACAD
1000
AcDbSavedByObjectVersion
1070
     0
  0
VISUALSTYLE
  5
34
102
{ACAD_XDICTIONARY
360
11C
102
}
102
{ACAD_REACTORS
330
29
102
}
330
29
100
AcDbVisualStyle
  2
Dim
 70
    11
177
     2
291
     1
 71
     2
176
     1
 72
     2
176
     1
 73
     0
176
     1
 90
        0
176
     1
 40
0.6
176
     1
 41
30.0
176
     1
 63
     7
421
 16777215
176
     1
 74
     1
176
     1
 91
        4
176
     1
 64
     7
176
     1
 65
   257
176
     1
 75
     1
176
     1
175
     1
176
     1
 42
1.0
176
     1
 92
        8
176
     1
 66
     7
176
     1
 43
1.0
176
     1
 76
     1
176
     1
 77
     6
176
     1
 78
     2
176
     1
 67
     7
176
     1
 79
     5
176
     1
170
     0
176
     1
171
     0
176
     1
290
     0
176
     1
 93
        1
176
     1
 44
-50.0
176
     1
173
     0
176
     1
1001
ACAD
1000
AcDbSavedByObjectVersion
1070
     0
  0
VISUALSTYLE
  5
41
102
{ACAD_XDICTIONARY
360
136
102
}
102
{ACAD_REACTORS
330
29
102
}
330
29
100
AcDbVisualStyle
  2
EdgeColorOff
 70
    22
177
     2
291
     1
 71
     2
176
     0
 72
     2
176
     0
 73
     0
176
     0
 90
        0
176
     0
 40
0.6
176
     0
 41
30.0
176
     0
 63
     7
421
 16777215
176
     0
 74
     1
176
     0
 91
        4
176
     0
 64
     7
176
     0
 65
   257
176
     0
 75
     1
176
     0
175
     1
176
     0
 42
1.0
176
     0
 92
        8
176
     2
 66
     7
176
     0
 43
1.0
176
     0
 76
     1
176
     0
 77
     6
176
     0
 78
     2
176
     0
 67
     7
176
     0
 79
     5
176
     0
170
     0
176
     0
171
     0
176
     0
290
     0
176
     0
 93
        1
176
     0
 44
0.0
176
     0
173
     0
176
     0
1001
ACAD
1000
AcDbSavedByObjectVersion
1070
     0
  0
VISUALSTYLE
  5
38
102
{ACAD_XDICTIONARY
360
124
102
}
102
{ACAD_REACTORS
330
29
102
}
330
29
100
AcDbVisualStyle
  2
Facepattern
 70
    15
177
     2
291
     1
 71
     2
176
     1
 72
     2
176
     1
 73
     0
176
     1
 90
        0
176
     1
 40
0.6
176
     1
 41
30.0
176
     1
 63
     7
421
 16777215
176
     1
 74
     1
176
     1
 91
        4
176
     1
 64
     7
176
     1
 65
   257
176
     1
 75
     1
176
     1
175
     1
176
     1
 42
1.0
176
     1
 92
        8
176
     1
 66
     7
176
     1
 43
1.0
176
     1
 76
     1
176
     1
 77
     6
176
     1
 78
     2
176
     1
 67
     7
176
     1
 79
     5
176
     1
170
     0
176
     1
171
     0
176
     1
290
     0
176
     1
 93
        1
176
     1
 44
0.0
176
     1
173
     0
176
     1
1001
ACAD
1000
AcDbSavedByObjectVersion
1070
     0
  0
VISUALSTYLE
  5
2A
102
{ACAD_XDICTIONARY
360
108
102
}
102
{ACAD_REACTORS
330
29
102
}
330
29
100
AcDbVisualStyle
  2
Flat
 70
     0
177
     2
291
     1
 71
     2
176
     1
 72
     1
176
     1
 73
     1
176
     1
 90
        2
176
     1
 40
0.6
176
     1
 41
30.0
176
     1
 63
     7
421
 16777215
176
     1
 74
     0
176
     1
 91
        0
176
     1
 64
     7
176
     1
 65
   257
176
     1
 75
     1
176
     1
175
     1
176
     1
 42
1.0
176
     1
 92
        8
176
     1
 66
     7
176
     1
 43
1.0
176
     1
 76
     1
176
     1
 77
     6
176
     1
 78
     2
176
     1
 67
     7
176
     1
 79
     5
176
     1
170
     0
176
     1
171
     0
176
     1
290
     0
176
     1
 93
       13
176
     1
 44
0.0
176
     1
173
     0
176
     1
1001
ACAD
1000
AcDbSavedByObjectVersion
1070
     0
  0
VISUALSTYLE
  5
2B
102
{ACAD_XDICTIONARY
360
10A
102
}
102
{ACAD_REACTORS
330
29
102
}
330
29
100
AcDbVisualStyle
  2
FlatWithEdges
 70
     1
177
     2
291
     1
 71
     2
176
     1
 72
     1
176
     1
 73
     1
176
     1
 90
        2
176
     1
 40
0.6
176
     1
 41
30.0
176
     1
 63
     7
421
 16777215
176
     1
 74
     1
176
     1
 91
        0
176
     1
 64
     7
176
     1
 65
   257
176
     1
 75
     1
176
     1
175
     1
176
     1
 42
1.0
176
     1
 92
        0
176
     1
 66
   257
176
     1
 43
1.0
176
     1
 76
     1
176
     1
 77
     6
176
     1
 78
     2
176
     1
 67
     7
176
     1
 79
     5
176
     1
170
     0
176
     1
171
     0
176
     1
290
     0
176
     1
 93
       13
176
     1
 44
0.0
176
     1
173
     0
176
     1
1001
ACAD
1000
AcDbSavedByObjectVersion
1070
     0
  0
VISUALSTYLE
  5
2C
102
{ACAD_XDICTIONARY
360
10C
102
}
102
{ACAD_REACTORS
330
29
102
}
330
29
100
AcDbVisualStyle
  2
Gouraud
 70
     2
177
     2
291
     1
 71
     2
176
     1
 72
     2
176
     1
 73
     1
176
     1
 90
        2
176
     1
 40
0.6
176
     1
 41
30.0
176
     1
 63
     7
421
 16777215
176
     1
 74
     0
176
     1
 91
        0
176
     1
 64
     7
176
     1
 65
   257
176
     1
 75
     1
176
     1
175
     1
176
     1
 42
1.0
176
     1
 92
        0
176
     1
 66
     7
176
     1
 43
1.0
176
     1
 76
     1
176
     1
 77
     6
176
     1
 78
     2
176
     1
 67
     7
176
     1
 79
     5
176
     1
170
     0
176
     1
171
     0
176
     1
290
     0
176
     1
 93
       13
176
     1
 44
0.0
176
     1
173
     0
176
     1
1001
ACAD
1000
AcDbSavedByObjectVersion
1070
     0
  0
VISUALSTYLE
  5
2D
102
{ACAD_XDICTIONARY
360
10E
102
}
102
{ACAD_REACTORS
330
29
102
}
330
29
100
AcDbVisualStyle
  2
GouraudWithEdges
 70
     3
177
     2
291
     1
 71
     2
176
     1
 72
     2
176
     1
 73
     1
176
     1
 90
        2
176
     1
 40
0.6
176
     1
 41
30.0
176
     1
 63
     7
421
 16777215
176
     1
 74
     1
176
     1
 91
        0
176
     1
 64
     7
176
     1
 65
   257
176
     1
 75
     1
176
     1
175
     1
176
     1
 42
1.0
176
     1
 92
        0
176
     1
 66
   257
176
     1
 43
1.0
176
     1
 76
     1
176
     1
 77
     6
176
     1
 78
     2
176
     1
 67
     7
176
     1
 79
     5
176
     1
170
     0
176
     1
171
     0
176
     1
290
     0
176
     1
 93
       13
176
     1
 44
0.0
176
     1
173
     0
176
     1
1001
ACAD
1000
AcDbSavedByObjectVersion
1070
     0
  0
VISUALSTYLE
  5
31
102
{ACAD_XDICTIONARY
360
116
102
}
102
{ACAD_REACTORS
330
29
102
}
330
29
100
AcDbVisualStyle
  2
Hidden
 70
     6
177
     2
291
     0
 71
     1
176
     1
 72
     2
176
     1
 73
     2
176
     1
 90
        0
176
     1
 40
0.6
176
     1
 41
30.0
176
     1
 63
     7
421
 16777215
176
     1
 74
     2
176
     1
 91
        2
176
     1
 64
     7
176
     1
 65
   257
176
     1
 75
     2
176
     1
175
     1
176
     1
 42
40.0
176
     1
 92
        0
176
     1
 66
   257
176
     1
 43
1.0
176
     1
 76
     1
176
     1
 77
     6
176
     1
 78
     2
176
     1
 67
     7
176
     1
 79
     3
176
     1
170
     0
176
     1
171
     0
176
     1
290
     0
176
     1
 93
        1
176
     1
 44
0.0
176
     1
173
     0
176
     1
1001
ACAD
1000
AcDbSavedByObjectVersion
1070
     0
  0
VISUALSTYLE
  5
3F
102
{ACAD_XDICTIONARY
360
132
102
}
102
{ACAD_REACTORS
330
29
102
}
330
29
100
AcDbVisualStyle
  2
JitterOff
 70
    20
177
     2
291
     1
 71
     2
176
     0
 72
     2
176
     0
 73
     0
176
     0
 90
        0
176
     0
 40
0.6
176
     0
 41
30.0
176
     0
 63
     7
421
 16777215
176
     0
 74
     1
176
     0
 91
        4
176
     0
 64
     7
176
     0
 65
   257
176
     0
 75
     1
176
     0
175
     1
176
     0
 42
1.0
176
     0
 92
       10
176
     2
 66
     7
176
     0
 43
1.0
176
     0
 76
     1
176
     0
 77
     6
176
     0
 78
     2
176
     0
 67
     7
176
     0
 79
     5
176
     0
170
     0
176
     0
171
     0
176
     0
290
     0
176
     0
 93
        1
176
     0
 44
0.0
176
     0
173
     0
176
     0
1001
ACAD
1000
AcDbSavedByObjectVersion
1070
     0
  0
VISUALSTYLE
  5
37
102
{ACAD_XDICTIONARY
360
122
102
}
102
{ACAD_REACTORS
330
29
102
}
330
29
100
AcDbVisualStyle
  2
Linepattern
 70
    14
177
     2
291
     1
 71
     2
176
     1
 72
     2
176
     1
 73
     0
176
     1
 90
        0
176
     1
 40
0.6
176
     1
 41
30.0
176
     1
 63
     7
421
 16777215
176
     1
 74
     1
176
     1
 91
        4
176
     1
 64
     7
176
     1
 65
   257
176
     1
 75
     7
176
     1
175
     7
176
     1
 42
1.0
176
     1
 92
        8
176
     1
 66
     7
176
     1
 43
1.0
176
     1
 76
     1
176
     1
 77
     6
176
     1
 78
     2
176
     1
 67
     7
176
     1
 79
     5
176
     1
170
     0
176
     1
171
     0
176
     1
290
     0
176
     1
 93
        1
176
     1
 44
0.0
176
     1
173
     0
176
     1
1001
ACAD
1000
AcDbSavedByObjectVersion
1070
     0
  0
VISUALSTYLE
  5
40
102
{ACAD_XDICTIONARY
360
134
102
}
102
{ACAD_REACTORS
330
29
102
}
330
29
100
AcDbVisualStyle
  2
OverhangOff
 70
    21
177
     2
291
     1
 71
     2
176
     0
 72
     2
176
     0
 73
     0
176
     0
 90
        0
176
     0
 40
0.6
176
     0
 41
30.0
176
     0
 63
     7
421
 16777215
176
     0
 74
     1
176
     0
 91
        4
176
     0
 64
     7
176
     0
 65
   257
176
     0
 75
     1
176
     0
175
     1
176
     0
 42
1.0
176
     0
 92
        9
176
     2
 66
     7
176
     0
 43
1.0
176
     0
 76
     1
176
     0
 77
     6
176
     0
 78
     2
176
     0
 67
     7
176
     0
 79
     5
176
     0
170
     0
176
     0
171
     0
176
     0
290
     0
176
     0
 93
        1
176
     0
 44
0.0
176
     0
173
     0
176
     0
1001
ACAD
1000
AcDbSavedByObjectVersion
1070
     0
  0
VISUALSTYLE
  5
33
102
{ACAD_XDICTIONARY
360
11A
102
}
102
{ACAD_REACTORS
330
29
102
}
330
29
100
AcDbVisualStyle
  2
Realistic
 70
     8
177
     2
291
     0
 71
     2
176
     1
 72
     3
176
     1
 73
     0
176
     1
 90
        2
176
     1
 40
0.6
176
     1
 41
30.0
176
     1
 63
     7
421
 16777215
176
     1
 74
     0
176
     1
 91
        0
176
     1
 64
     7
176
     1
 65
   257
176
     1
 75
     1
176
     1
175
     1
176
     1
 42
1.0
176
     1
 92
        8
176
     1
 66
   257
176
     1
 43
1.0
176
     1
 76
     1
176
     1
 77
     6
176
     1
 78
     2
176
     1
 67
     7
176
     1
 79
     3
176
     1
170
     0
176
     1
171
     0
176
     1
290
     0
176
     1
 93
       13
176
     1
 44
0.0
176
     1
173
     0
176
     1
1001
ACAD
1000
AcDbSavedByObjectVersion
1070
     0
  0
VISUALSTYLE
  5
3E
102
{ACAD_XDICTIONARY
360
130
102
}
102
{ACAD_REACTORS
330
29
102
}
330
29
100
AcDbVisualStyle
  2
Shaded
 70
    27
177
     2
291
     0
 71
     2
176
     1
 72
     2
176
     1
 73
     1
176
     1
 90
        2
176
     1
 40
0.6
176
     1
 41
30.0
176
     1
 63
     7
421
 16777215
176
     1
 74
     0
176
     1
 91
        4
176
     1
 64
     7
176
     1
 65
   257
176
     1
 75
     1
176
     1
175
     1
176
     1
 42
1.0
176
     1
 92
        8
176
     1
 66
   257
176
     1
 43
1.0
176
     1
 76
     1
176
     1
 77
     6
176
     1
 78
     2
176
     1
 67
     8
425
  7895160
176
     1
 79
     3
176
     1
170
     0
176
     1
171
     0
176
     1
290
     0
176
     1
 93
        5
176
     1
 44
0.0
176
     1
173
     0
176
     1
1001
ACAD
1000
AcDbSavedByObjectVersion
1070
     0
  0
VISUALSTYLE
  5
3D
102
{ACAD_XDICTIONARY
360
12E
102
}
102
{ACAD_REACTORS
330
29
102
}
330
29
100
AcDbVisualStyle
  2
Shaded with edges
 70
    26
177
     2
291
     0
 71
     2
176
     1
 72
     2
176
     1
 73
     1
176
     1
 90
        2
176
     1
 40
0.6
176
     1
 41
30.0
176
     1
 63
     7
421
 16777215
176
     1
 74
     1
176
     1
 91
        2
176
     1
 64
     7
176
     1
 65
   257
176
     1
 75
     2
176
     1
175
     1
176
     1
 42
1.0
176
     1
 92
        8
176
     1
 66
   257
176
     1
 43
1.0
176
     1
 76
     1
176
     1
 77
     6
176
     1
 78
     2
176
     1
 67
     7
176
     1
 79
     3
176
     1
170
     0
176
     1
171
     0
176
     1
290
     0
176
     1
 93
        5
176
     1
 44
0.0
176
     1
173
     0
176
     1
1001
ACAD
1000
AcDbSavedByObjectVersion
1070
     0
  0
VISUALSTYLE
  5
3A
102
{ACAD_XDICTIONARY
360
128
102
}
102
{ACAD_REACTORS
330
29
102
}
330
29
100
AcDbVisualStyle
  2
Shades of Gray
 70
    23
177
     2
291
     0
 71
     2
176
     1
 72
     2
176
     1
 73
     3
176
     1
 90
        0
176
     1
 40
0.6
176
     1
 41
30.0
176
     1
 63
     7
421
 16777215
176
     1
 74
     2
176
     1
 91
        2
176
     1
 64
     7
176
     1
 65
     7
176
     1
 75
     1
176
     1
175
     1
176
     1
 42
40.0
176
     1
 92
        8
176
     1
 66
     7
176
     1
 43
1.0
176
     1
 76
     1
176
     1
 77
     6
176
     1
 78
     2
176
     1
 67
     7
176
     1
 79
     3
176
     1
170
     0
176
     1
171
     0
176
     1
290
     0
176
     1
 93
        1
176
     1
 44
0.0
176
     1
173
     0
176
     1
1001
ACAD
1000
AcDbSavedByObjectVersion
1070
     0
  0
VISUALSTYLE
  5
3B
102
{ACAD_XDICTIONARY
360
12A
102
}
102
{ACAD_REACTORS
330
29
102
}
330
29
100
AcDbVisualStyle
  2
Sketchy
 70
    24
177
     2
291
     0
 71
     1
176
     1
 72
     2
176
     1
 73
     2
176
     1
 90
        0
176
     1
 40
0.6
176
     1
 41
30.0
176
     1
 63
     7
421
 16777215
176
     1
 74
     2
176
     1
 91
        2
176
     1
 64
     7
176
     1
 65
     7
176
     1
 75
     1
176
     1
175
     1
176
     1
 42
40.0
176
     1
 92
       11
176
     1
 66
     7
176
     1
 43
1.0
176
     1
 76
     1
176
     1
 77
     6
176
     1
 78
     2
176
     1
 67
     7
176
     1
 79
     6
176
     1
170
     0
176
     1
171
     0
176
     1
290
     0
176
     1
 93
        1
176
     1
 44
0.0
176
     1
173
     0
176
     1
1001
ACAD
1000
AcDbSavedByObjectVersion
1070
     0
  0
VISUALSTYLE
  5
36
102
{ACAD_XDICTIONARY
360
120
102
}
102
{ACAD_REACTORS
330
29
102
}
330
29
100
AcDbVisualStyle
  2
Thicken
 70
    13
177
     2
291
     1
 71
     2
176
     1
 72
     2
176
     1
 73
     0
176
     1
 90
        0
176
     1
 40
0.6
176
     1
 41
30.0
176
     1
 63
     7
421
 16777215
176
     1
 74
     1
176
     1
 91
        4
176
     1
 64
     7
176
     1
 65
   257
176
     1
 75
     1
176
     1
175
     1
176
     1
 42
1.0
176
     1
 92
       12
176
     1
 66
     7
176
     1
 43
1.0
176
     1
 76
     1
176
     1
 77
     6
176
     1
 78
     2
176
     1
 67
     7
176
     1
 79
     5
176
     1
170
     0
176
     1
171
     0
176
     1
290
     0
176
     1
 93
        1
176
     1
 44
0.0
176
     1
173
     0
176
     1
1001
ACAD
1000
AcDbSavedByObjectVersion
1070
     0
  0
VISUALSTYLE
  5
30
102
{ACAD_XDICTIONARY
360
114
102
}
102
{ACAD_REACTORS
330
29
102
}
330
29
100
AcDbVisualStyle
  2
Wireframe
 70
     5
177
     2
291
     0
 71
     0
176
     1
 72
     2
176
     1
 73
     0
176
     1
 90
        0
176
     1
 40
0.6
176
     1
 41
30.0
176
     1
 63
     7
421
 16777215
176
     1
 74
     1
176
     1
 91
        4
176
     1
 64
     7
176
     1
 65
   257
176
     1
 75
     1
176
     1
175
     1
176
     1
 42
1.0
176
     1
 92
        0
176
     1
 66
   257
176
     1
 43
1.0
176
     1
 76
     1
176
     1
 77
     6
176
     1
 78
     2
176
     1
 67
     7
176
     1
 79
     3
176
     1
170
     0
176
     1
171
     0
176
     1
290
     0
176
     1
 93
        1
176
     1
 44
0.0
176
     1
173
     0
176
     1
1001
ACAD
1000
AcDbSavedByObjectVersion
1070
     0
  0
VISUALSTYLE
  5
3C
102
{ACAD_XDICTIONARY
360
12C
102
}
102
{ACAD_REACTORS
330
29
102
}
330
29
100
AcDbVisualStyle
  2
X-Ray
 70
    25
177
     2
291
     0
 71
     2
176
     1
 72
     2
176
     1
 73
     1
176
     1
 90
        1
176
     1
 40
0.5
176
     1
 41
30.0
176
     1
 63
     7
421
 16777215
176
     1
 74
     1
176
     1
 91
        0
176
     1
 64
     7
176
     1
 65
   257
176
     1
 75
     1
176
     1
175
     1
176
     1
 42
1.0
176
     1
 92
        8
176
     1
 66
     7
176
     1
 43
1.0
176
     1
 76
     1
176
     1
 77
     6
176
     1
 78
     2
176
     1
 67
     7
176
     1
 79
     3
176
     1
170
     0
176
     1
171
     0
176
     1
290
     0
176
     1
 93
       13
176
     1
 44
0.0
176
     1
173
     0
176
     1
1001
ACAD
1000
AcDbSavedByObjectVersion
1070
     0
  0
DICTIONARYVAR
  5
104
102
{ACAD_REACTORS
330
FF
102
}
330
FF
100
DictionaryVariables
280
     0
  1
1:1
  0
DICTIONARYVAR
  5
101
102
{ACAD_REACTORS
330
FF
102
}
330
FF
100
DictionaryVariables
280
     0
  1
STANDARD
  0
DICTIONARYVAR
  5
100
102
{ACAD_REACTORS
330
FF
102
}
330
FF
100
DictionaryVariables
280
     0
  1
STANDARD
  0
DICTIONARYVAR
  5
102
102
{ACAD_REACTORS
330
FF
102
}
330
FF
100
DictionaryVariables
280
     0
  1
Imperial24
  0
DICTIONARYVAR
  5
103
102
{ACAD_REACTORS
330
FF
102
}
330
FF
100
DictionaryVariables
280
     0
  1
Imperial24
  0
DICTIONARY
  5
13C
330
6B
100
AcDbDictionary
280
     1
281
     1
  3
ACAD_XREC_ROUNDTRIP
360
13D
  0
DICTIONARY
  5
1A
330
19
100
AcDbDictionary
280
     1
281
     1
  3
BUMPTILE
360
1C
  3
DIFFUSETILE
360
1B
  3
OPACITYTILE
360
1F
  3
REFLECTIONTILE
360
1E
  3
REFRACTIONTILE
360
20
  3
SPECULARTILE
360
1D
  0
DICTIONARY
  5
12
330
11
100
AcDbDictionary
280
     1
281
     1
  3
BUMPTILE
360
14
  3
DIFFUSETILE
360
13
  3
OPACITYTILE
360
17
  3
REFLECTIONTILE
360
16
  3
REFRACTIONTILE
360
18
  3
SPECULARTILE
360
15
  0
DICTIONARY
  5
22
330
21
100
AcDbDictionary
280
     1
281
     1
  3
BUMPTILE
360
24
  3
DIFFUSETILE
360
23
  3
OPACITYTILE
360
27
  3
REFLECTIONTILE
360
26
  3
REFRACTIONTILE
360
28
  3
SPECULARTILE
360
25
  0
DICTIONARY
  5
138
330
67
100
AcDbDictionary
280
     1
281
     1
  3
ACAD_XREC_ROUNDTRIP
360
139
  0
DICTIONARY
  5
13A
330
69
100
AcDbDictionary
280
     1
281
     1
  3
ACAD_XREC_ROUNDTRIP
360
13B
  0
DICTIONARY
  5
105
330
65
100
AcDbDictionary
280
     1
281
     1
  3
ACAD_ROUNDTRIP_2008_TABLESTYLE_CELLSTYLEMAP
360
106
  0
DICTIONARY
  5
112
330
2F
100
AcDbDictionary
280
     1
281
     1
  3
ACAD_XREC_ROUNDTRIP
360
113
  0
DICTIONARY
  5
110
330
2E
100
AcDbDictionary
280
     1
281
     1
  3
ACAD_XREC_ROUNDTRIP
360
111
  0
DICTIONARY
  5
11E
330
35
100
AcDbDictionary
280
     1
281
     1
  3
ACAD_XREC_ROUNDTRIP
360
11F
  0
DICTIONARY
  5
126
330
39
100
AcDbDictionary
280
     1
281
     1
  3
ACAD_XREC_ROUNDTRIP
360
127
  0
DICTIONARY
  5
118
330
32
100
AcDbDictionary
280
     1
281
     1
  3
ACAD_XREC_ROUNDTRIP
360
119
  0
DICTIONARY
  5
11C
330
34
100
AcDbDictionary
280
     1
281
     1
  3
ACAD_XREC_ROUNDTRIP
360
11D
  0
DICTIONARY
  5
136
330
41
100
AcDbDictionary
280
     1
281
     1
  3
ACAD_XREC_ROUNDTRIP
360
137
  0
DICTIONARY
  5
124
330
38
100
AcDbDictionary
280
     1
281
     1
  3
ACAD_XREC_ROUNDTRIP
360
125
  0
DICTIONARY
  5
108
330
2A
100
AcDbDictionary
280
     1
281
     1
  3
ACAD_XREC_ROUNDTRIP
360
109
  0
DICTIONARY
  5
10A
330
2B
100
AcDbDictionary
280
     1
281
     1
  3
ACAD_XREC_ROUNDTRIP
360
10B
  0
DICTIONARY
  5
10C
330
2C
100
AcDbDictionary
280
     1
281
     1
  3
ACAD_XREC_ROUNDTRIP
360
10D
  0
DICTIONARY
  5
10E
330
2D
100
AcDbDictionary
280
     1
281
     1
  3
ACAD_XREC_ROUNDTRIP
360
10F
  0
DICTIONARY
  5
116
330
31
100
AcDbDictionary
280
     1
281
     1
  3
ACAD_XREC_ROUNDTRIP
360
117
  0
DICTIONARY
  5
132
330
3F
100
AcDbDictionary
280
     1
281
     1
  3
ACAD_XREC_ROUNDTRIP
360
133
  0
DICTIONARY
  5
122
330
37
100
AcDbDictionary
280
     1
281
     1
  3
ACAD_XREC_ROUNDTRIP
360
123
  0
DICTIONARY
  5
134
330
40
100
AcDbDictionary
280
     1
281
     1
  3
ACAD_XREC_ROUNDTRIP
360
135
  0
DICTIONARY
  5
11A
330
33
100
AcDbDictionary
280
     1
281
     1
  3
ACAD_XREC_ROUNDTRIP
360
11B
  0
DICTIONARY
  5
130
330
3E
100
AcDbDictionary
280
     1
281
     1
  3
ACAD_XREC_ROUNDTRIP
360
131
  0
DICTIONARY
  5
12E
330
3D
100
AcDbDictionary
280
     1
281
     1
  3
ACAD_XREC_ROUNDTRIP
360
12F
  0
DICTIONARY
  5
128
330
3A
100
AcDbDictionary
280
     1
281
     1
  3
ACAD_XREC_ROUNDTRIP
360
129
  0
DICTIONARY
  5
12A
330
3B
100
AcDbDictionary
280
     1
281
     1
  3
ACAD_XREC_ROUNDTRIP
360
12B
  0
DICTIONARY
  5
120
330
36
100
AcDbDictionary
280
     1
281
     1
  3
ACAD_XREC_ROUNDTRIP
360
121
  0
DICTIONARY
  5
114
330
30
100
AcDbDictionary
280
     1
281
     1
  3
ACAD_XREC_ROUNDTRIP
360
115
  0
DICTIONARY
  5
12C
330
3C
100
AcDbDictionary
280
     1
281
     1
  3
ACAD_XREC_ROUNDTRIP
360
12D
  0
XRECORD
  5
13D
102
{ACAD_REACTORS
330
13C
102
}
330
13C
100
AcDbXrecord
280
     1
102
DISPLAYNAME
  1
Imperial24
102
FLAGS
 90
        0
  0
XRECORD
  5
1C
102
{ACAD_REACTORS
330
1A
102
}
330
1A
100
AcDbXrecord
280
     1
270
     1
271
     1
  0
XRECORD
  5
1B
102
{ACAD_REACTORS
330
1A
102
}
330
1A
100
AcDbXrecord
280
     1
270
     1
271
     1
  0
XRECORD
  5
1F
102
{ACAD_REACTORS
330
1A
102
}
330
1A
100
AcDbXrecord
280
     1
270
     1
271
     1
  0
XRECORD
  5
1E
102
{ACAD_REACTORS
330
1A
102
}
330
1A
100
AcDbXrecord
280
     1
270
     1
271
     1
  0
XRECORD
  5
20
102
{ACAD_REACTORS
330
1A
102
}
330
1A
100
AcDbXrecord
280
     1
270
     1
271
     1
  0
XRECORD
  5
1D
102
{ACAD_REACTORS
330
1A
102
}
330
1A
100
AcDbXrecord
280
     1
270
     1
271
     1
  0
XRECORD
  5
14
102
{ACAD_REACTORS
330
12
102
}
330
12
100
AcDbXrecord
280
     1
270
     1
271
     1
  0
XRECORD
  5
13
102
{ACAD_REACTORS
330
12
102
}
330
12
100
AcDbXrecord
280
     1
270
     1
271
     1
  0
XRECORD
  5
17
102
{ACAD_REACTORS
330
12
102
}
330
12
100
AcDbXrecord
280
     1
270
     1
271
     1
  0
XRECORD
  5
16
102
{ACAD_REACTORS
330
12
102
}
330
12
100
AcDbXrecord
280
     1
270
     1
271
     1
  0
XRECORD
  5
18
102
{ACAD_REACTORS
330
12
102
}
330
12
100
AcDbXrecord
280
     1
270
     1
271
     1
  0
XRECORD
  5
15
102
{ACAD_REACTORS
330
12
102
}
330
12
100
AcDbXrecord
280
     1
270
     1
271
     1
  0
XRECORD
  5
24
102
{ACAD_REACTORS
330
22
102
}
330
22
100
AcDbXrecord
280
     1
270
     1
271
     1
  0
XRECORD
  5
23
102
{ACAD_REACTORS
330
22
102
}
330
22
100
AcDbXrecord
280
     1
270
     1
271
     1
  0
XRECORD
  5
27
102
{ACAD_REACTORS
330
22
102
}
330
22
100
AcDbXrecord
280
     1
270
     1
271
     1
  0
XRECORD
  5
26
102
{ACAD_REACTORS
330
22
102
}
330
22
100
AcDbXrecord
280
     1
270
     1
271
     1
  0
XRECORD
  5
28
102
{ACAD_REACTORS
330
22
102
}
330
22
100
AcDbXrecord
280
     1
270
     1
271
     1
  0
XRECORD
  5
25
102
{ACAD_REACTORS
330
22
102
}
330
22
100
AcDbXrecord
280
     1
270
     1
271
     1
  0
XRECORD
  5
139
102
{ACAD_REACTORS
330
138
102
}
330
138
100
AcDbXrecord
280
     1
102
ACAD_ROUNDTRIP_2012_MLEADER_STYLE
298
     1
  0
XRECORD
  5
13B
102
{ACAD_REACTORS
330
13A
102
}
330
13A
100
AcDbXrecord
280
     1
102
DISPLAYNAME
  1
Imperial24
102
FLAGS
 90
        0
  0
CELLSTYLEMAP
  5
106
102
{ACAD_REACTORS
330
105
102
}
330
105
100
AcDbCellStyleMap
 90
        3
300
CELLSTYLE
  1
TABLEFORMAT_BEGIN
 90
        5
170
     1
 91
        0
 92
    32768
 62
   257
 93
        1
300
CONTENTFORMAT
  1
CONTENTFORMAT_BEGIN
 90
        0
 91
        0
 92
      512
 93
        0
300

 40
0.0
140
1.0
 94
        5
 62
     0
340
55
144
0.25
309
CONTENTFORMAT_END
171
     0
 94
        0
309
TABLEFORMAT_END
  1
CELLSTYLE_BEGIN
 90
        1
 91
        1
300
_TITLE
309
CELLSTYLE_END
300
CELLSTYLE
  1
TABLEFORMAT_BEGIN
 90
        5
170
     1
 91
        0
 92
        0
 62
   257
 93
        1
300
CONTENTFORMAT
  1
CONTENTFORMAT_BEGIN
 90
        0
 91
        0
 92
      512
 93
        0
300

 40
0.0
140
1.0
 94
        5
 62
     0
340
55
144
0.18
309
CONTENTFORMAT_END
171
     0
 94
        0
309
TABLEFORMAT_END
  1
CELLSTYLE_BEGIN
 90
        2
 91
        1
300
_HEADER
309
CELLSTYLE_END
300
CELLSTYLE
  1
TABLEFORMAT_BEGIN
 90
        5
170
     1
 91
        0
 92
        0
 62
   257
 93
        1
300
CONTENTFORMAT
  1
CONTENTFORMAT_BEGIN
 90
        0
 91
        0
 92
      512
 93
        0
300

 40
0.0
140
1.0
 94
        2
 62
     0
340
55
144
0.18
309
CONTENTFORMAT_END
171
     0
 94
        0
309
TABLEFORMAT_END
  1
CELLSTYLE_BEGIN
 90
        3
 91
        2
300
_DATA
309
CELLSTYLE_END
  0
XRECORD
  5
113
102
{ACAD_REACTORS
330
112
102
}
330
112
100
AcDbXrecord
280
     1
102
RTVSPost2010Prop28
280
     1
102
RTVSPost2010PropOp28
 70
     1
102
RTVSPost2010Prop29
280
     1
102
RTVSPost2010PropOp29
 70
     1
102
RTVSPost2010Prop30
280
     0
102
RTVSPost2010PropOp30
 70
     1
102
RTVSPost2010Prop31
280
     0
102
RTVSPost2010PropOp31
 70
     1
102
RTVSPost2010Prop32
280
     0
102
RTVSPost2010PropOp32
 70
     1
102
RTVSPost2010Prop33
280
     0
102
RTVSPost2010PropOp33
 70
     1
102
RTVSPost2010Prop34
280
     0
102
RTVSPost2010PropOp34
 70
     1
102
RTVSPost2010Prop35
280
     0
102
RTVSPost2010PropOp35
 70
     1
102
RTVSPost2010Prop36
280
     0
102
RTVSPost2010PropOp36
 70
     1
102
RTVSPost2010Prop37
 90
       50
102
RTVSPost2010PropOp37
 70
     1
102
RTVSPost2010Prop38
140
0.0
102
RTVSPost2010PropOp38
 70
     1
102
RTVSPost2010Prop39
140
1.0
102
RTVSPost2010PropOp39
 70
     1
102
RTVSPost2010Prop40
 90
        0
102
RTVSPost2010PropOp40
 70
     1
102
RTVSPost2010Prop41ColorIndex
 90
       18
102
RTVSPost2010Prop41ColorRGB
 90
        0
102
RTVSPost2010PropOp41
 70
     1
102
RTVSPost2010Prop42
 90
       50
102
RTVSPost2010PropOp42
 70
     1
102
RTVSPost2010Prop43
 90
        3
102
RTVSPost2010PropOp43
 70
     1
102
RTVSPost2010Prop44ColorIndex
 90
        5
102
RTVSPost2010Prop44ColorRGB
 90
      255
102
RTVSPost2010PropOp44
 70
     1
102
RTVSPost2010Prop45
280
     0
102
RTVSPost2010PropOp45
 70
     1
102
RTVSPost2010Prop46
 90
       50
102
RTVSPost2010PropOp46
 70
     1
102
RTVSPost2010Prop47
 90
       50
102
RTVSPost2010PropOp47
 70
     1
102
RTVSPost2010Prop48
 90
       50
102
RTVSPost2010PropOp48
 70
     1
102
RTVSPost2010Prop49
280
     0
102
RTVSPost2010PropOp49
 70
     1
102
RTVSPost2010Prop50
 90
       50
102
RTVSPost2010PropOp50
 70
     1
102
RTVSPost2010Prop51ColorIndex
 90
      256
102
RTVSPost2010Prop51ColorRGB
 90
-16777216
102
RTVSPost2010PropOp51
 70
     0
102
RTVSPost2010Prop52
140
1.0
102
RTVSPost2010PropOp52
 70
     0
102
RTVSPost2010Prop53
 90
        2
102
RTVSPost2010PropOp53
 70
     1
102
RTVSPost2010Prop54
  1
strokes_ogs.tif
102
RTVSPost2010PropOp54
 70
     1
102
RTVSPost2010Prop55
280
     0
102
RTVSPost2010PropOp55
 70
     1
102
RTVSPost2010Prop56
140
1.0
102
RTVSPost2010PropOp56
 70
     1
102
RTVSPost2010Prop57
140
1.0
102
RTVSPost2010PropOp57
 70
     1
  0
XRECORD
  5
111
102
{ACAD_REACTORS
330
110
102
}
330
110
100
AcDbXrecord
280
     1
102
RTVSPost2010Prop28
280
     0
102
RTVSPost2010PropOp28
 70
     1
102
RTVSPost2010Prop29
280
     1
102
RTVSPost2010PropOp29
 70
     1
102
RTVSPost2010Prop30
280
     1
102
RTVSPost2010PropOp30
 70
     1
102
RTVSPost2010Prop31
280
     0
102
RTVSPost2010PropOp31
 70
     1
102
RTVSPost2010Prop32
280
     0
102
RTVSPost2010PropOp32
 70
     1
102
RTVSPost2010Prop33
280
     0
102
RTVSPost2010PropOp33
 70
     1
102
RTVSPost2010Prop34
280
     0
102
RTVSPost2010PropOp34
 70
     1
102
RTVSPost2010Prop35
280
     0
102
RTVSPost2010PropOp35
 70
     1
102
RTVSPost2010Prop36
280
     0
102
RTVSPost2010PropOp36
 70
     1
102
RTVSPost2010Prop37
 90
       50
102
RTVSPost2010PropOp37
 70
     1
102
RTVSPost2010Prop38
140
0.0
102
RTVSPost2010PropOp38
 70
     1
102
RTVSPost2010Prop39
140
1.0
102
RTVSPost2010PropOp39
 70
     1
102
RTVSPost2010Prop40
 90
        0
102
RTVSPost2010PropOp40
 70
     1
102
RTVSPost2010Prop41ColorIndex
 90
       18
102
RTVSPost2010Prop41ColorRGB
 90
        0
102
RTVSPost2010PropOp41
 70
     1
102
RTVSPost2010Prop42
 90
       50
102
RTVSPost2010PropOp42
 70
     1
102
RTVSPost2010Prop43
 90
        3
102
RTVSPost2010PropOp43
 70
     1
102
RTVSPost2010Prop44ColorIndex
 90
        5
102
RTVSPost2010Prop44ColorRGB
 90
      255
102
RTVSPost2010PropOp44
 70
     1
102
RTVSPost2010Prop45
280
     0
102
RTVSPost2010PropOp45
 70
     1
102
RTVSPost2010Prop46
 90
       50
102
RTVSPost2010PropOp46
 70
     1
102
RTVSPost2010Prop47
 90
       50
102
RTVSPost2010PropOp47
 70
     1
102
RTVSPost2010Prop48
 90
       50
102
RTVSPost2010PropOp48
 70
     1
102
RTVSPost2010Prop49
280
     0
102
RTVSPost2010PropOp49
 70
     1
102
RTVSPost2010Prop50
 90
       50
102
RTVSPost2010PropOp50
 70
     1
102
RTVSPost2010Prop51ColorIndex
 90
      256
102
RTVSPost2010Prop51ColorRGB
 90
-16777216
102
RTVSPost2010PropOp51
 70
     0
102
RTVSPost2010Prop52
140
1.0
102
RTVSPost2010PropOp52
 70
     0
102
RTVSPost2010Prop53
 90
        2
102
RTVSPost2010PropOp53
 70
     1
102
RTVSPost2010Prop54
  1
strokes_ogs.tif
102
RTVSPost2010PropOp54
 70
     1
102
RTVSPost2010Prop55
280
     0
102
RTVSPost2010PropOp55
 70
     1
102
RTVSPost2010Prop56
140
1.0
102
RTVSPost2010PropOp56
 70
     1
102
RTVSPost2010Prop57
140
1.0
102
RTVSPost2010PropOp57
 70
     1
  0
XRECORD
  5
11F
102
{ACAD_REACTORS
330
11E
102
}
330
11E
100
AcDbXrecord
280
     1
102
RTVSPost2010Prop28
280
     0
102
RTVSPost2010PropOp28
 70
     1
102
RTVSPost2010Prop29
280
     1
102
RTVSPost2010PropOp29
 70
     1
102
RTVSPost2010Prop30
280
     1
102
RTVSPost2010PropOp30
 70
     1
102
RTVSPost2010Prop31
280
     0
102
RTVSPost2010PropOp31
 70
     1
102
RTVSPost2010Prop32
280
     0
102
RTVSPost2010PropOp32
 70
     1
102
RTVSPost2010Prop33
280
     0
102
RTVSPost2010PropOp33
 70
     1
102
RTVSPost2010Prop34
280
     0
102
RTVSPost2010PropOp34
 70
     1
102
RTVSPost2010Prop35
280
     0
102
RTVSPost2010PropOp35
 70
     1
102
RTVSPost2010Prop36
280
     0
102
RTVSPost2010PropOp36
 70
     1
102
RTVSPost2010Prop37
 90
       50
102
RTVSPost2010PropOp37
 70
     1
102
RTVSPost2010Prop38
140
0.0
102
RTVSPost2010PropOp38
 70
     1
102
RTVSPost2010Prop39
140
1.0
102
RTVSPost2010PropOp39
 70
     1
102
RTVSPost2010Prop40
 90
        0
102
RTVSPost2010PropOp40
 70
     1
102
RTVSPost2010Prop41ColorIndex
 90
       18
102
RTVSPost2010Prop41ColorRGB
 90
        0
102
RTVSPost2010PropOp41
 70
     1
102
RTVSPost2010Prop42
 90
       50
102
RTVSPost2010PropOp42
 70
     1
102
RTVSPost2010Prop43
 90
        3
102
RTVSPost2010PropOp43
 70
     1
102
RTVSPost2010Prop44ColorIndex
 90
        5
102
RTVSPost2010Prop44ColorRGB
 90
      255
102
RTVSPost2010PropOp44
 70
     1
102
RTVSPost2010Prop45
280
     0
102
RTVSPost2010PropOp45
 70
     1
102
RTVSPost2010Prop46
 90
       50
102
RTVSPost2010PropOp46
 70
     1
102
RTVSPost2010Prop47
 90
       50
102
RTVSPost2010PropOp47
 70
     1
102
RTVSPost2010Prop48
 90
       50
102
RTVSPost2010PropOp48
 70
     1
102
RTVSPost2010Prop49
280
     0
102
RTVSPost2010PropOp49
 70
     1
102
RTVSPost2010Prop50
 90
       50
102
RTVSPost2010PropOp50
 70
     1
102
RTVSPost2010Prop51ColorIndex
 90
      256
102
RTVSPost2010Prop51ColorRGB
 90
-16777216
102
RTVSPost2010PropOp51
 70
     0
102
RTVSPost2010Prop52
140
1.0
102
RTVSPost2010PropOp52
 70
     0
102
RTVSPost2010Prop53
 90
        2
102
RTVSPost2010PropOp53
 70
     1
102
RTVSPost2010Prop54
  1
strokes_ogs.tif
102
RTVSPost2010PropOp54
 70
     1
102
RTVSPost2010Prop55
280
     0
102
RTVSPost2010PropOp55
 70
     1
102
RTVSPost2010Prop56
140
1.0
102
RTVSPost2010PropOp56
 70
     1
102
RTVSPost2010Prop57
140
1.0
102
RTVSPost2010PropOp57
 70
     1
  0
XRECORD
  5
127
102
{ACAD_REACTORS
330
126
102
}
330
126
100
AcDbXrecord
280
     1
102
RTVSPost2010Prop28
280
     0
102
RTVSPost2010PropOp28
 70
     1
102
RTVSPost2010Prop29
280
     1
102
RTVSPost2010PropOp29
 70
     1
102
RTVSPost2010Prop30
280
     1
102
RTVSPost2010PropOp30
 70
     1
102
RTVSPost2010Prop31
280
     0
102
RTVSPost2010PropOp31
 70
     1
102
RTVSPost2010Prop32
280
     0
102
RTVSPost2010PropOp32
 70
     1
102
RTVSPost2010Prop33
280
     0
102
RTVSPost2010PropOp33
 70
     1
102
RTVSPost2010Prop34
280
     0
102
RTVSPost2010PropOp34
 70
     1
102
RTVSPost2010Prop35
280
     0
102
RTVSPost2010PropOp35
 70
     1
102
RTVSPost2010Prop36
280
     0
102
RTVSPost2010PropOp36
 70
     1
102
RTVSPost2010Prop37
 90
       50
102
RTVSPost2010PropOp37
 70
     1
102
RTVSPost2010Prop38
140
0.0
102
RTVSPost2010PropOp38
 70
     1
102
RTVSPost2010Prop39
140
1.0
102
RTVSPost2010PropOp39
 70
     1
102
RTVSPost2010Prop40
 90
        0
102
RTVSPost2010PropOp40
 70
     1
102
RTVSPost2010Prop41ColorIndex
 90
       18
102
RTVSPost2010Prop41ColorRGB
 90
        0
102
RTVSPost2010PropOp41
 70
     1
102
RTVSPost2010Prop42
 90
       50
102
RTVSPost2010PropOp42
 70
     1
102
RTVSPost2010Prop43
 90
        3
102
RTVSPost2010PropOp43
 70
     1
102
RTVSPost2010Prop44ColorIndex
 90
        5
102
RTVSPost2010Prop44ColorRGB
 90
      255
102
RTVSPost2010PropOp44
 70
     1
102
RTVSPost2010Prop45
280
     0
102
RTVSPost2010PropOp45
 70
     1
102
RTVSPost2010Prop46
 90
       50
102
RTVSPost2010PropOp46
 70
     1
102
RTVSPost2010Prop47
 90
       50
102
RTVSPost2010PropOp47
 70
     1
102
RTVSPost2010Prop48
 90
       50
102
RTVSPost2010PropOp48
 70
     1
102
RTVSPost2010Prop49
280
     0
102
RTVSPost2010PropOp49
 70
     1
102
RTVSPost2010Prop50
 90
       50
102
RTVSPost2010PropOp50
 70
     1
102
RTVSPost2010Prop51ColorIndex
 90
      256
102
RTVSPost2010Prop51ColorRGB
 90
-16777216
102
RTVSPost2010PropOp51
 70
     0
102
RTVSPost2010Prop52
140
1.0
102
RTVSPost2010PropOp52
 70
     0
102
RTVSPost2010Prop53
 90
        2
102
RTVSPost2010PropOp53
 70
     1
102
RTVSPost2010Prop54
  1
strokes_ogs.tif
102
RTVSPost2010PropOp54
 70
     1
102
RTVSPost2010Prop55
280
     0
102
RTVSPost2010PropOp55
 70
     1
102
RTVSPost2010Prop56
140
1.0
102
RTVSPost2010PropOp56
 70
     1
102
RTVSPost2010Prop57
140
1.0
102
RTVSPost2010PropOp57
 70
     1
  0
XRECORD
  5
119
102
{ACAD_REACTORS
330
118
102
}
330
118
100
AcDbXrecord
280
     1
102
RTVSPost2010Prop28
280
     0
102
RTVSPost2010PropOp28
 70
     1
102
RTVSPost2010Prop29
280
     1
102
RTVSPost2010PropOp29
 70
     1
102
RTVSPost2010Prop30
280
     1
102
RTVSPost2010PropOp30
 70
     1
102
RTVSPost2010Prop31
280
     0
102
RTVSPost2010PropOp31
 70
     1
102
RTVSPost2010Prop32
280
     0
102
RTVSPost2010PropOp32
 70
     1
102
RTVSPost2010Prop33
280
     0
102
RTVSPost2010PropOp33
 70
     1
102
RTVSPost2010Prop34
280
     0
102
RTVSPost2010PropOp34
 70
     1
102
RTVSPost2010Prop35
280
     0
102
RTVSPost2010PropOp35
 70
     1
102
RTVSPost2010Prop36
280
     0
102
RTVSPost2010PropOp36
 70
     1
102
RTVSPost2010Prop37
 90
       50
102
RTVSPost2010PropOp37
 70
     1
102
RTVSPost2010Prop38
140
0.0
102
RTVSPost2010PropOp38
 70
     1
102
RTVSPost2010Prop39
140
1.0
102
RTVSPost2010PropOp39
 70
     1
102
RTVSPost2010Prop40
 90
        0
102
RTVSPost2010PropOp40
 70
     1
102
RTVSPost2010Prop41ColorIndex
 90
       18
102
RTVSPost2010Prop41ColorRGB
 90
        0
102
RTVSPost2010PropOp41
 70
     1
102
RTVSPost2010Prop42
 90
       50
102
RTVSPost2010PropOp42
 70
     1
102
RTVSPost2010Prop43
 90
        3
102
RTVSPost2010PropOp43
 70
     1
102
RTVSPost2010Prop44ColorIndex
 90
        5
102
RTVSPost2010Prop44ColorRGB
 90
      255
102
RTVSPost2010PropOp44
 70
     1
102
RTVSPost2010Prop45
280
     0
102
RTVSPost2010PropOp45
 70
     1
102
RTVSPost2010Prop46
 90
       50
102
RTVSPost2010PropOp46
 70
     1
102
RTVSPost2010Prop47
 90
       50
102
RTVSPost2010PropOp47
 70
     1
102
RTVSPost2010Prop48
 90
       50
102
RTVSPost2010PropOp48
 70
     1
102
RTVSPost2010Prop49
280
     0
102
RTVSPost2010PropOp49
 70
     1
102
RTVSPost2010Prop50
 90
       50
102
RTVSPost2010PropOp50
 70
     1
102
RTVSPost2010Prop51ColorIndex
 90
      256
102
RTVSPost2010Prop51ColorRGB
 90
-16777216
102
RTVSPost2010PropOp51
 70
     0
102
RTVSPost2010Prop52
140
1.0
102
RTVSPost2010PropOp52
 70
     0
102
RTVSPost2010Prop53
 90
        2
102
RTVSPost2010PropOp53
 70
     1
102
RTVSPost2010Prop54
  1
strokes_ogs.tif
102
RTVSPost2010PropOp54
 70
     1
102
RTVSPost2010Prop55
280
     0
102
RTVSPost2010PropOp55
 70
     1
102
RTVSPost2010Prop56
140
1.0
102
RTVSPost2010PropOp56
 70
     1
102
RTVSPost2010Prop57
140
1.0
102
RTVSPost2010PropOp57
 70
     1
  0
XRECORD
  5
11D
102
{ACAD_REACTORS
330
11C
102
}
330
11C
100
AcDbXrecord
280
     1
102
RTVSPost2010Prop28
280
     0
102
RTVSPost2010PropOp28
 70
     1
102
RTVSPost2010Prop29
280
     1
102
RTVSPost2010PropOp29
 70
     1
102
RTVSPost2010Prop30
280
     1
102
RTVSPost2010PropOp30
 70
     1
102
RTVSPost2010Prop31
280
     0
102
RTVSPost2010PropOp31
 70
     1
102
RTVSPost2010Prop32
280
     0
102
RTVSPost2010PropOp32
 70
     1
102
RTVSPost2010Prop33
280
     0
102
RTVSPost2010PropOp33
 70
     1
102
RTVSPost2010Prop34
280
     0
102
RTVSPost2010PropOp34
 70
     1
102
RTVSPost2010Prop35
280
     0
102
RTVSPost2010PropOp35
 70
     1
102
RTVSPost2010Prop36
280
     0
102
RTVSPost2010PropOp36
 70
     1
102
RTVSPost2010Prop37
 90
       50
102
RTVSPost2010PropOp37
 70
     1
102
RTVSPost2010Prop38
140
0.0
102
RTVSPost2010PropOp38
 70
     1
102
RTVSPost2010Prop39
140
1.0
102
RTVSPost2010PropOp39
 70
     1
102
RTVSPost2010Prop40
 90
        0
102
RTVSPost2010PropOp40
 70
     1
102
RTVSPost2010Prop41ColorIndex
 90
       18
102
RTVSPost2010Prop41ColorRGB
 90
        0
102
RTVSPost2010PropOp41
 70
     1
102
RTVSPost2010Prop42
 90
       50
102
RTVSPost2010PropOp42
 70
     1
102
RTVSPost2010Prop43
 90
        3
102
RTVSPost2010PropOp43
 70
     1
102
RTVSPost2010Prop44ColorIndex
 90
        5
102
RTVSPost2010Prop44ColorRGB
 90
      255
102
RTVSPost2010PropOp44
 70
     1
102
RTVSPost2010Prop45
280
     0
102
RTVSPost2010PropOp45
 70
     1
102
RTVSPost2010Prop46
 90
       50
102
RTVSPost2010PropOp46
 70
     1
102
RTVSPost2010Prop47
 90
       50
102
RTVSPost2010PropOp47
 70
     1
102
RTVSPost2010Prop48
 90
       50
102
RTVSPost2010PropOp48
 70
     1
102
RTVSPost2010Prop49
280
     0
102
RTVSPost2010PropOp49
 70
     1
102
RTVSPost2010Prop50
 90
       50
102
RTVSPost2010PropOp50
 70
     1
102
RTVSPost2010Prop51ColorIndex
 90
      256
102
RTVSPost2010Prop51ColorRGB
 90
-16777216
102
RTVSPost2010PropOp51
 70
     0
102
RTVSPost2010Prop52
140
1.0
102
RTVSPost2010PropOp52
 70
     0
102
RTVSPost2010Prop53
 90
        2
102
RTVSPost2010PropOp53
 70
     1
102
RTVSPost2010Prop54
  1
strokes_ogs.tif
102
RTVSPost2010PropOp54
 70
     1
102
RTVSPost2010Prop55
280
     0
102
RTVSPost2010PropOp55
 70
     1
102
RTVSPost2010Prop56
140
1.0
102
RTVSPost2010PropOp56
 70
     1
102
RTVSPost2010Prop57
140
1.0
102
RTVSPost2010PropOp57
 70
     1
  0
XRECORD
  5
137
102
{ACAD_REACTORS
330
136
102
}
330
136
100
AcDbXrecord
280
     1
102
RTVSPost2010Prop28
280
     0
102
RTVSPost2010PropOp28
 70
     0
102
RTVSPost2010Prop29
280
     1
102
RTVSPost2010PropOp29
 70
     0
102
RTVSPost2010Prop30
280
     1
102
RTVSPost2010PropOp30
 70
     0
102
RTVSPost2010Prop31
280
     0
102
RTVSPost2010PropOp31
 70
     0
102
RTVSPost2010Prop32
280
     0
102
RTVSPost2010PropOp32
 70
     0
102
RTVSPost2010Prop33
280
     0
102
RTVSPost2010PropOp33
 70
     0
102
RTVSPost2010Prop34
280
     0
102
RTVSPost2010PropOp34
 70
     0
102
RTVSPost2010Prop35
280
     0
102
RTVSPost2010PropOp35
 70
     0
102
RTVSPost2010Prop36
280
     0
102
RTVSPost2010PropOp36
 70
     0
102
RTVSPost2010Prop37
 90
       50
102
RTVSPost2010PropOp37
 70
     0
102
RTVSPost2010Prop38
140
0.0
102
RTVSPost2010PropOp38
 70
     0
102
RTVSPost2010Prop39
140
1.0
102
RTVSPost2010PropOp39
 70
     0
102
RTVSPost2010Prop40
 90
        0
102
RTVSPost2010PropOp40
 70
     0
102
RTVSPost2010Prop41ColorIndex
 90
       18
102
RTVSPost2010Prop41ColorRGB
 90
        0
102
RTVSPost2010PropOp41
 70
     0
102
RTVSPost2010Prop42
 90
       50
102
RTVSPost2010PropOp42
 70
     0
102
RTVSPost2010Prop43
 90
        3
102
RTVSPost2010PropOp43
 70
     0
102
RTVSPost2010Prop44ColorIndex
 90
        5
102
RTVSPost2010Prop44ColorRGB
 90
      255
102
RTVSPost2010PropOp44
 70
     0
102
RTVSPost2010Prop45
280
     0
102
RTVSPost2010PropOp45
 70
     0
102
RTVSPost2010Prop46
 90
       50
102
RTVSPost2010PropOp46
 70
     0
102
RTVSPost2010Prop47
 90
       50
102
RTVSPost2010PropOp47
 70
     0
102
RTVSPost2010Prop48
 90
       50
102
RTVSPost2010PropOp48
 70
     0
102
RTVSPost2010Prop49
280
     0
102
RTVSPost2010PropOp49
 70
     0
102
RTVSPost2010Prop50
 90
       50
102
RTVSPost2010PropOp50
 70
     0
102
RTVSPost2010Prop51ColorIndex
 90
      256
102
RTVSPost2010Prop51ColorRGB
 90
-16777216
102
RTVSPost2010PropOp51
 70
     0
102
RTVSPost2010Prop52
140
1.0
102
RTVSPost2010PropOp52
 70
     0
102
RTVSPost2010Prop53
 90
        2
102
RTVSPost2010PropOp53
 70
     0
102
RTVSPost2010Prop54
  1
strokes_ogs.tif
102
RTVSPost2010PropOp54
 70
     0
102
RTVSPost2010Prop55
280
     0
102
RTVSPost2010PropOp55
 70
     0
102
RTVSPost2010Prop56
140
1.0
102
RTVSPost2010PropOp56
 70
     0
102
RTVSPost2010Prop57
140
1.0
102
RTVSPost2010PropOp57
 70
     0
  0
XRECORD
  5
125
102
{ACAD_REACTORS
330
124
102
}
330
124
100
AcDbXrecord
280
     1
102
RTVSPost2010Prop28
280
     0
102
RTVSPost2010PropOp28
 70
     1
102
RTVSPost2010Prop29
280
     1
102
RTVSPost2010PropOp29
 70
     1
102
RTVSPost2010Prop30
280
     1
102
RTVSPost2010PropOp30
 70
     1
102
RTVSPost2010Prop31
280
     0
102
RTVSPost2010PropOp31
 70
     1
102
RTVSPost2010Prop32
280
     0
102
RTVSPost2010PropOp32
 70
     1
102
RTVSPost2010Prop33
280
     0
102
RTVSPost2010PropOp33
 70
     1
102
RTVSPost2010Prop34
280
     0
102
RTVSPost2010PropOp34
 70
     1
102
RTVSPost2010Prop35
280
     0
102
RTVSPost2010PropOp35
 70
     1
102
RTVSPost2010Prop36
280
     0
102
RTVSPost2010PropOp36
 70
     1
102
RTVSPost2010Prop37
 90
       50
102
RTVSPost2010PropOp37
 70
     1
102
RTVSPost2010Prop38
140
0.0
102
RTVSPost2010PropOp38
 70
     1
102
RTVSPost2010Prop39
140
1.0
102
RTVSPost2010PropOp39
 70
     1
102
RTVSPost2010Prop40
 90
        0
102
RTVSPost2010PropOp40
 70
     1
102
RTVSPost2010Prop41ColorIndex
 90
       18
102
RTVSPost2010Prop41ColorRGB
 90
        0
102
RTVSPost2010PropOp41
 70
     1
102
RTVSPost2010Prop42
 90
       50
102
RTVSPost2010PropOp42
 70
     1
102
RTVSPost2010Prop43
 90
        3
102
RTVSPost2010PropOp43
 70
     1
102
RTVSPost2010Prop44ColorIndex
 90
        5
102
RTVSPost2010Prop44ColorRGB
 90
      255
102
RTVSPost2010PropOp44
 70
     1
102
RTVSPost2010Prop45
280
     0
102
RTVSPost2010PropOp45
 70
     1
102
RTVSPost2010Prop46
 90
       50
102
RTVSPost2010PropOp46
 70
     1
102
RTVSPost2010Prop47
 90
       50
102
RTVSPost2010PropOp47
 70
     1
102
RTVSPost2010Prop48
 90
       50
102
RTVSPost2010PropOp48
 70
     1
102
RTVSPost2010Prop49
280
     0
102
RTVSPost2010PropOp49
 70
     1
102
RTVSPost2010Prop50
 90
       50
102
RTVSPost2010PropOp50
 70
     1
102
RTVSPost2010Prop51ColorIndex
 90
      256
102
RTVSPost2010Prop51ColorRGB
 90
-16777216
102
RTVSPost2010PropOp51
 70
     0
102
RTVSPost2010Prop52
140
1.0
102
RTVSPost2010PropOp52
 70
     0
102
RTVSPost2010Prop53
 90
        2
102
RTVSPost2010PropOp53
 70
     1
102
RTVSPost2010Prop54
  1
strokes_ogs.tif
102
RTVSPost2010PropOp54
 70
     1
102
RTVSPost2010Prop55
280
     0
102
RTVSPost2010PropOp55
 70
     1
102
RTVSPost2010Prop56
140
1.0
102
RTVSPost2010PropOp56
 70
     1
102
RTVSPost2010Prop57
140
1.0
102
RTVSPost2010PropOp57
 70
     1
  0
XRECORD
  5
109
102
{ACAD_REACTORS
330
108
102
}
330
108
100
AcDbXrecord
280
     1
102
RTVSPost2010Prop28
280
     0
102
RTVSPost2010PropOp28
 70
     1
102
RTVSPost2010Prop29
280
     1
102
RTVSPost2010PropOp29
 70
     1
102
RTVSPost2010Prop30
280
     1
102
RTVSPost2010PropOp30
 70
     1
102
RTVSPost2010Prop31
280
     0
102
RTVSPost2010PropOp31
 70
     1
102
RTVSPost2010Prop32
280
     0
102
RTVSPost2010PropOp32
 70
     1
102
RTVSPost2010Prop33
280
     0
102
RTVSPost2010PropOp33
 70
     1
102
RTVSPost2010Prop34
280
     0
102
RTVSPost2010PropOp34
 70
     1
102
RTVSPost2010Prop35
280
     0
102
RTVSPost2010PropOp35
 70
     1
102
RTVSPost2010Prop36
280
     0
102
RTVSPost2010PropOp36
 70
     1
102
RTVSPost2010Prop37
 90
       50
102
RTVSPost2010PropOp37
 70
     1
102
RTVSPost2010Prop38
140
0.0
102
RTVSPost2010PropOp38
 70
     1
102
RTVSPost2010Prop39
140
1.0
102
RTVSPost2010PropOp39
 70
     1
102
RTVSPost2010Prop40
 90
        0
102
RTVSPost2010PropOp40
 70
     1
102
RTVSPost2010Prop41ColorIndex
 90
       18
102
RTVSPost2010Prop41ColorRGB
 90
        0
102
RTVSPost2010PropOp41
 70
     1
102
RTVSPost2010Prop42
 90
       50
102
RTVSPost2010PropOp42
 70
     1
102
RTVSPost2010Prop43
 90
        3
102
RTVSPost2010PropOp43
 70
     1
102
RTVSPost2010Prop44ColorIndex
 90
        5
102
RTVSPost2010Prop44ColorRGB
 90
      255
102
RTVSPost2010PropOp44
 70
     1
102
RTVSPost2010Prop45
280
     0
102
RTVSPost2010PropOp45
 70
     1
102
RTVSPost2010Prop46
 90
       50
102
RTVSPost2010PropOp46
 70
     1
102
RTVSPost2010Prop47
 90
       50
102
RTVSPost2010PropOp47
 70
     1
102
RTVSPost2010Prop48
 90
       50
102
RTVSPost2010PropOp48
 70
     1
102
RTVSPost2010Prop49
280
     0
102
RTVSPost2010PropOp49
 70
     1
102
RTVSPost2010Prop50
 90
       50
102
RTVSPost2010PropOp50
 70
     1
102
RTVSPost2010Prop51ColorIndex
 90
      256
102
RTVSPost2010Prop51ColorRGB
 90
-16777216
102
RTVSPost2010PropOp51
 70
     0
102
RTVSPost2010Prop52
140
1.0
102
RTVSPost2010PropOp52
 70
     0
102
RTVSPost2010Prop53
 90
        2
102
RTVSPost2010PropOp53
 70
     1
102
RTVSPost2010Prop54
  1
strokes_ogs.tif
102
RTVSPost2010PropOp54
 70
     1
102
RTVSPost2010Prop55
280
     0
102
RTVSPost2010PropOp55
 70
     1
102
RTVSPost2010Prop56
140
1.0
102
RTVSPost2010PropOp56
 70
     1
102
RTVSPost2010Prop57
140
1.0
102
RTVSPost2010PropOp57
 70
     1
  0
XRECORD
  5
10B
102
{ACAD_REACTORS
330
10A
102
}
330
10A
100
AcDbXrecord
280
     1
102
RTVSPost2010Prop28
280
     0
102
RTVSPost2010PropOp28
 70
     1
102
RTVSPost2010Prop29
280
     1
102
RTVSPost2010PropOp29
 70
     1
102
RTVSPost2010Prop30
280
     1
102
RTVSPost2010PropOp30
 70
     1
102
RTVSPost2010Prop31
280
     0
102
RTVSPost2010PropOp31
 70
     1
102
RTVSPost2010Prop32
280
     0
102
RTVSPost2010PropOp32
 70
     1
102
RTVSPost2010Prop33
280
     0
102
RTVSPost2010PropOp33
 70
     1
102
RTVSPost2010Prop34
280
     0
102
RTVSPost2010PropOp34
 70
     1
102
RTVSPost2010Prop35
280
     0
102
RTVSPost2010PropOp35
 70
     1
102
RTVSPost2010Prop36
280
     0
102
RTVSPost2010PropOp36
 70
     1
102
RTVSPost2010Prop37
 90
       50
102
RTVSPost2010PropOp37
 70
     1
102
RTVSPost2010Prop38
140
0.0
102
RTVSPost2010PropOp38
 70
     1
102
RTVSPost2010Prop39
140
1.0
102
RTVSPost2010PropOp39
 70
     1
102
RTVSPost2010Prop40
 90
        0
102
RTVSPost2010PropOp40
 70
     1
102
RTVSPost2010Prop41ColorIndex
 90
       18
102
RTVSPost2010Prop41ColorRGB
 90
        0
102
RTVSPost2010PropOp41
 70
     1
102
RTVSPost2010Prop42
 90
       50
102
RTVSPost2010PropOp42
 70
     1
102
RTVSPost2010Prop43
 90
        3
102
RTVSPost2010PropOp43
 70
     1
102
RTVSPost2010Prop44ColorIndex
 90
        5
102
RTVSPost2010Prop44ColorRGB
 90
      255
102
RTVSPost2010PropOp44
 70
     1
102
RTVSPost2010Prop45
280
     0
102
RTVSPost2010PropOp45
 70
     1
102
RTVSPost2010Prop46
 90
       50
102
RTVSPost2010PropOp46
 70
     1
102
RTVSPost2010Prop47
 90
       50
102
RTVSPost2010PropOp47
 70
     1
102
RTVSPost2010Prop48
 90
       50
102
RTVSPost2010PropOp48
 70
     1
102
RTVSPost2010Prop49
280
     0
102
RTVSPost2010PropOp49
 70
     1
102
RTVSPost2010Prop50
 90
       50
102
RTVSPost2010PropOp50
 70
     1
102
RTVSPost2010Prop51ColorIndex
 90
      256
102
RTVSPost2010Prop51ColorRGB
 90
-16777216
102
RTVSPost2010PropOp51
 70
     0
102
RTVSPost2010Prop52
140
1.0
102
RTVSPost2010PropOp52
 70
     0
102
RTVSPost2010Prop53
 90
        2
102
RTVSPost2010PropOp53
 70
     1
102
RTVSPost2010Prop54
  1
strokes_ogs.tif
102
RTVSPost2010PropOp54
 70
     1
102
RTVSPost2010Prop55
280
     0
102
RTVSPost2010PropOp55
 70
     1
102
RTVSPost2010Prop56
140
1.0
102
RTVSPost2010PropOp56
 70
     1
102
RTVSPost2010Prop57
140
1.0
102
RTVSPost2010PropOp57
 70
     1
  0
XRECORD
  5
10D
102
{ACAD_REACTORS
330
10C
102
}
330
10C
100
AcDbXrecord
280
     1
102
RTVSPost2010Prop28
280
     0
102
RTVSPost2010PropOp28
 70
     1
102
RTVSPost2010Prop29
280
     1
102
RTVSPost2010PropOp29
 70
     1
102
RTVSPost2010Prop30
280
     1
102
RTVSPost2010PropOp30
 70
     1
102
RTVSPost2010Prop31
280
     0
102
RTVSPost2010PropOp31
 70
     1
102
RTVSPost2010Prop32
280
     0
102
RTVSPost2010PropOp32
 70
     1
102
RTVSPost2010Prop33
280
     0
102
RTVSPost2010PropOp33
 70
     1
102
RTVSPost2010Prop34
280
     0
102
RTVSPost2010PropOp34
 70
     1
102
RTVSPost2010Prop35
280
     0
102
RTVSPost2010PropOp35
 70
     1
102
RTVSPost2010Prop36
280
     0
102
RTVSPost2010PropOp36
 70
     1
102
RTVSPost2010Prop37
 90
       50
102
RTVSPost2010PropOp37
 70
     1
102
RTVSPost2010Prop38
140
0.0
102
RTVSPost2010PropOp38
 70
     1
102
RTVSPost2010Prop39
140
1.0
102
RTVSPost2010PropOp39
 70
     1
102
RTVSPost2010Prop40
 90
        0
102
RTVSPost2010PropOp40
 70
     1
102
RTVSPost2010Prop41ColorIndex
 90
       18
102
RTVSPost2010Prop41ColorRGB
 90
        0
102
RTVSPost2010PropOp41
 70
     1
102
RTVSPost2010Prop42
 90
       50
102
RTVSPost2010PropOp42
 70
     1
102
RTVSPost2010Prop43
 90
        3
102
RTVSPost2010PropOp43
 70
     1
102
RTVSPost2010Prop44ColorIndex
 90
        5
102
RTVSPost2010Prop44ColorRGB
 90
      255
102
RTVSPost2010PropOp44
 70
     1
102
RTVSPost2010Prop45
280
     0
102
RTVSPost2010PropOp45
 70
     1
102
RTVSPost2010Prop46
 90
       50
102
RTVSPost2010PropOp46
 70
     1
102
RTVSPost2010Prop47
 90
       50
102
RTVSPost2010PropOp47
 70
     1
102
RTVSPost2010Prop48
 90
       50
102
RTVSPost2010PropOp48
 70
     1
102
RTVSPost2010Prop49
280
     0
102
RTVSPost2010PropOp49
 70
     1
102
RTVSPost2010Prop50
 90
       50
102
RTVSPost2010PropOp50
 70
     1
102
RTVSPost2010Prop51ColorIndex
 90
      256
102
RTVSPost2010Prop51ColorRGB
 90
-16777216
102
RTVSPost2010PropOp51
 70
     0
102
RTVSPost2010Prop52
140
1.0
102
RTVSPost2010PropOp52
 70
     0
102
RTVSPost2010Prop53
 90
        2
102
RTVSPost2010PropOp53
 70
     1
102
RTVSPost2010Prop54
  1
strokes_ogs.tif
102
RTVSPost2010PropOp54
 70
     1
102
RTVSPost2010Prop55
280
     0
102
RTVSPost2010PropOp55
 70
     1
102
RTVSPost2010Prop56
140
1.0
102
RTVSPost2010PropOp56
 70
     1
102
RTVSPost2010Prop57
140
1.0
102
RTVSPost2010PropOp57
 70
     1
  0
XRECORD
  5
10F
102
{ACAD_REACTORS
330
10E
102
}
330
10E
100
AcDbXrecord
280
     1
102
RTVSPost2010Prop28
280
     0
102
RTVSPost2010PropOp28
 70
     1
102
RTVSPost2010Prop29
280
     1
102
RTVSPost2010PropOp29
 70
     1
102
RTVSPost2010Prop30
280
     1
102
RTVSPost2010PropOp30
 70
     1
102
RTVSPost2010Prop31
280
     0
102
RTVSPost2010PropOp31
 70
     1
102
RTVSPost2010Prop32
280
     0
102
RTVSPost2010PropOp32
 70
     1
102
RTVSPost2010Prop33
280
     0
102
RTVSPost2010PropOp33
 70
     1
102
RTVSPost2010Prop34
280
     0
102
RTVSPost2010PropOp34
 70
     1
102
RTVSPost2010Prop35
280
     0
102
RTVSPost2010PropOp35
 70
     1
102
RTVSPost2010Prop36
280
     0
102
RTVSPost2010PropOp36
 70
     1
102
RTVSPost2010Prop37
 90
       50
102
RTVSPost2010PropOp37
 70
     1
102
RTVSPost2010Prop38
140
0.0
102
RTVSPost2010PropOp38
 70
     1
102
RTVSPost2010Prop39
140
1.0
102
RTVSPost2010PropOp39
 70
     1
102
RTVSPost2010Prop40
 90
        0
102
RTVSPost2010PropOp40
 70
     1
102
RTVSPost2010Prop41ColorIndex
 90
       18
102
RTVSPost2010Prop41ColorRGB
 90
        0
102
RTVSPost2010PropOp41
 70
     1
102
RTVSPost2010Prop42
 90
       50
102
RTVSPost2010PropOp42
 70
     1
102
RTVSPost2010Prop43
 90
        3
102
RTVSPost2010PropOp43
 70
     1
102
RTVSPost2010Prop44ColorIndex
 90
        5
102
RTVSPost2010Prop44ColorRGB
 90
      255
102
RTVSPost2010PropOp44
 70
     1
102
RTVSPost2010Prop45
280
     0
102
RTVSPost2010PropOp45
 70
     1
102
RTVSPost2010Prop46
 90
       50
102
RTVSPost2010PropOp46
 70
     1
102
RTVSPost2010Prop47
 90
       50
102
RTVSPost2010PropOp47
 70
     1
102
RTVSPost2010Prop48
 90
       50
102
RTVSPost2010PropOp48
 70
     1
102
RTVSPost2010Prop49
280
     0
102
RTVSPost2010PropOp49
 70
     1
102
RTVSPost2010Prop50
 90
       50
102
RTVSPost2010PropOp50
 70
     1
102
RTVSPost2010Prop51ColorIndex
 90
      256
102
RTVSPost2010Prop51ColorRGB
 90
-16777216
102
RTVSPost2010PropOp51
 70
     0
102
RTVSPost2010Prop52
140
1.0
102
RTVSPost2010PropOp52
 70
     0
102
RTVSPost2010Prop53
 90
        2
102
RTVSPost2010PropOp53
 70
     1
102
RTVSPost2010Prop54
  1
strokes_ogs.tif
102
RTVSPost2010PropOp54
 70
     1
102
RTVSPost2010Prop55
280
     0
102
RTVSPost2010PropOp55
 70
     1
102
RTVSPost2010Prop56
140
1.0
102
RTVSPost2010PropOp56
 70
     1
102
RTVSPost2010Prop57
140
1.0
102
RTVSPost2010PropOp57
 70
     1
  0
XRECORD
  5
117
102
{ACAD_REACTORS
330
116
102
}
330
116
100
AcDbXrecord
280
     1
102
RTVSPost2010Prop28
280
     0
102
RTVSPost2010PropOp28
 70
     1
102
RTVSPost2010Prop29
280
     1
102
RTVSPost2010PropOp29
 70
     1
102
RTVSPost2010Prop30
280
     1
102
RTVSPost2010PropOp30
 70
     1
102
RTVSPost2010Prop31
280
     0
102
RTVSPost2010PropOp31
 70
     1
102
RTVSPost2010Prop32
280
     0
102
RTVSPost2010PropOp32
 70
     1
102
RTVSPost2010Prop33
280
     0
102
RTVSPost2010PropOp33
 70
     1
102
RTVSPost2010Prop34
280
     0
102
RTVSPost2010PropOp34
 70
     1
102
RTVSPost2010Prop35
280
     0
102
RTVSPost2010PropOp35
 70
     1
102
RTVSPost2010Prop36
280
     0
102
RTVSPost2010PropOp36
 70
     1
102
RTVSPost2010Prop37
 90
       50
102
RTVSPost2010PropOp37
 70
     1
102
RTVSPost2010Prop38
140
0.0
102
RTVSPost2010PropOp38
 70
     1
102
RTVSPost2010Prop39
140
1.0
102
RTVSPost2010PropOp39
 70
     1
102
RTVSPost2010Prop40
 90
        0
102
RTVSPost2010PropOp40
 70
     1
102
RTVSPost2010Prop41ColorIndex
 90
       18
102
RTVSPost2010Prop41ColorRGB
 90
        0
102
RTVSPost2010PropOp41
 70
     1
102
RTVSPost2010Prop42
 90
       50
102
RTVSPost2010PropOp42
 70
     1
102
RTVSPost2010Prop43
 90
        3
102
RTVSPost2010PropOp43
 70
     1
102
RTVSPost2010Prop44ColorIndex
 90
        5
102
RTVSPost2010Prop44ColorRGB
 90
      255
102
RTVSPost2010PropOp44
 70
     1
102
RTVSPost2010Prop45
280
     0
102
RTVSPost2010PropOp45
 70
     1
102
RTVSPost2010Prop46
 90
       50
102
RTVSPost2010PropOp46
 70
     1
102
RTVSPost2010Prop47
 90
       50
102
RTVSPost2010PropOp47
 70
     1
102
RTVSPost2010Prop48
 90
       50
102
RTVSPost2010PropOp48
 70
     1
102
RTVSPost2010Prop49
280
     0
102
RTVSPost2010PropOp49
 70
     1
102
RTVSPost2010Prop50
 90
       50
102
RTVSPost2010PropOp50
 70
     1
102
RTVSPost2010Prop51ColorIndex
 90
      256
102
RTVSPost2010Prop51ColorRGB
 90
-16777216
102
RTVSPost2010PropOp51
 70
     0
102
RTVSPost2010Prop52
140
1.0
102
RTVSPost2010PropOp52
 70
     0
102
RTVSPost2010Prop53
 90
        2
102
RTVSPost2010PropOp53
 70
     1
102
RTVSPost2010Prop54
  1
strokes_ogs.tif
102
RTVSPost2010PropOp54
 70
     1
102
RTVSPost2010Prop55
280
     0
102
RTVSPost2010PropOp55
 70
     1
102
RTVSPost2010Prop56
140
1.0
102
RTVSPost2010PropOp56
 70
     1
102
RTVSPost2010Prop57
140
1.0
102
RTVSPost2010PropOp57
 70
     1
  0
XRECORD
  5
133
102
{ACAD_REACTORS
330
132
102
}
330
132
100
AcDbXrecord
280
     1
102
RTVSPost2010Prop28
280
     0
102
RTVSPost2010PropOp28
 70
     0
102
RTVSPost2010Prop29
280
     1
102
RTVSPost2010PropOp29
 70
     0
102
RTVSPost2010Prop30
280
     1
102
RTVSPost2010PropOp30
 70
     0
102
RTVSPost2010Prop31
280
     0
102
RTVSPost2010PropOp31
 70
     0
102
RTVSPost2010Prop32
280
     0
102
RTVSPost2010PropOp32
 70
     0
102
RTVSPost2010Prop33
280
     0
102
RTVSPost2010PropOp33
 70
     0
102
RTVSPost2010Prop34
280
     0
102
RTVSPost2010PropOp34
 70
     0
102
RTVSPost2010Prop35
280
     0
102
RTVSPost2010PropOp35
 70
     0
102
RTVSPost2010Prop36
280
     0
102
RTVSPost2010PropOp36
 70
     0
102
RTVSPost2010Prop37
 90
       50
102
RTVSPost2010PropOp37
 70
     0
102
RTVSPost2010Prop38
140
0.0
102
RTVSPost2010PropOp38
 70
     0
102
RTVSPost2010Prop39
140
1.0
102
RTVSPost2010PropOp39
 70
     0
102
RTVSPost2010Prop40
 90
        0
102
RTVSPost2010PropOp40
 70
     0
102
RTVSPost2010Prop41ColorIndex
 90
       18
102
RTVSPost2010Prop41ColorRGB
 90
        0
102
RTVSPost2010PropOp41
 70
     0
102
RTVSPost2010Prop42
 90
       50
102
RTVSPost2010PropOp42
 70
     0
102
RTVSPost2010Prop43
 90
        3
102
RTVSPost2010PropOp43
 70
     0
102
RTVSPost2010Prop44ColorIndex
 90
        5
102
RTVSPost2010Prop44ColorRGB
 90
      255
102
RTVSPost2010PropOp44
 70
     0
102
RTVSPost2010Prop45
280
     0
102
RTVSPost2010PropOp45
 70
     0
102
RTVSPost2010Prop46
 90
       50
102
RTVSPost2010PropOp46
 70
     0
102
RTVSPost2010Prop47
 90
       50
102
RTVSPost2010PropOp47
 70
     0
102
RTVSPost2010Prop48
 90
       50
102
RTVSPost2010PropOp48
 70
     0
102
RTVSPost2010Prop49
280
     0
102
RTVSPost2010PropOp49
 70
     0
102
RTVSPost2010Prop50
 90
       50
102
RTVSPost2010PropOp50
 70
     0
102
RTVSPost2010Prop51ColorIndex
 90
      256
102
RTVSPost2010Prop51ColorRGB
 90
-16777216
102
RTVSPost2010PropOp51
 70
     0
102
RTVSPost2010Prop52
140
1.0
102
RTVSPost2010PropOp52
 70
     0
102
RTVSPost2010Prop53
 90
        2
102
RTVSPost2010PropOp53
 70
     0
102
RTVSPost2010Prop54
  1
strokes_ogs.tif
102
RTVSPost2010PropOp54
 70
     0
102
RTVSPost2010Prop55
280
     0
102
RTVSPost2010PropOp55
 70
     0
102
RTVSPost2010Prop56
140
1.0
102
RTVSPost2010PropOp56
 70
     0
102
RTVSPost2010Prop57
140
1.0
102
RTVSPost2010PropOp57
 70
     0
  0
XRECORD
  5
123
102
{ACAD_REACTORS
330
122
102
}
330
122
100
AcDbXrecord
280
     1
102
RTVSPost2010Prop28
280
     0
102
RTVSPost2010PropOp28
 70
     1
102
RTVSPost2010Prop29
280
     1
102
RTVSPost2010PropOp29
 70
     1
102
RTVSPost2010Prop30
280
     1
102
RTVSPost2010PropOp30
 70
     1
102
RTVSPost2010Prop31
280
     0
102
RTVSPost2010PropOp31
 70
     1
102
RTVSPost2010Prop32
280
     0
102
RTVSPost2010PropOp32
 70
     1
102
RTVSPost2010Prop33
280
     0
102
RTVSPost2010PropOp33
 70
     1
102
RTVSPost2010Prop34
280
     0
102
RTVSPost2010PropOp34
 70
     1
102
RTVSPost2010Prop35
280
     0
102
RTVSPost2010PropOp35
 70
     1
102
RTVSPost2010Prop36
280
     0
102
RTVSPost2010PropOp36
 70
     1
102
RTVSPost2010Prop37
 90
       50
102
RTVSPost2010PropOp37
 70
     1
102
RTVSPost2010Prop38
140
0.0
102
RTVSPost2010PropOp38
 70
     1
102
RTVSPost2010Prop39
140
1.0
102
RTVSPost2010PropOp39
 70
     1
102
RTVSPost2010Prop40
 90
        0
102
RTVSPost2010PropOp40
 70
     1
102
RTVSPost2010Prop41ColorIndex
 90
       18
102
RTVSPost2010Prop41ColorRGB
 90
        0
102
RTVSPost2010PropOp41
 70
     1
102
RTVSPost2010Prop42
 90
       50
102
RTVSPost2010PropOp42
 70
     1
102
RTVSPost2010Prop43
 90
        3
102
RTVSPost2010PropOp43
 70
     1
102
RTVSPost2010Prop44ColorIndex
 90
        5
102
RTVSPost2010Prop44ColorRGB
 90
      255
102
RTVSPost2010PropOp44
 70
     1
102
RTVSPost2010Prop45
280
     0
102
RTVSPost2010PropOp45
 70
     1
102
RTVSPost2010Prop46
 90
       50
102
RTVSPost2010PropOp46
 70
     1
102
RTVSPost2010Prop47
 90
       50
102
RTVSPost2010PropOp47
 70
     1
102
RTVSPost2010Prop48
 90
       50
102
RTVSPost2010PropOp48
 70
     1
102
RTVSPost2010Prop49
280
     0
102
RTVSPost2010PropOp49
 70
     1
102
RTVSPost2010Prop50
 90
       50
102
RTVSPost2010PropOp50
 70
     1
102
RTVSPost2010Prop51ColorIndex
 90
      256
102
RTVSPost2010Prop51ColorRGB
 90
-16777216
102
RTVSPost2010PropOp51
 70
     0
102
RTVSPost2010Prop52
140
1.0
102
RTVSPost2010PropOp52
 70
     0
102
RTVSPost2010Prop53
 90
        2
102
RTVSPost2010PropOp53
 70
     1
102
RTVSPost2010Prop54
  1
strokes_ogs.tif
102
RTVSPost2010PropOp54
 70
     1
102
RTVSPost2010Prop55
280
     0
102
RTVSPost2010PropOp55
 70
     1
102
RTVSPost2010Prop56
140
1.0
102
RTVSPost2010PropOp56
 70
     1
102
RTVSPost2010Prop57
140
1.0
102
RTVSPost2010PropOp57
 70
     1
  0
XRECORD
  5
135
102
{ACAD_REACTORS
330
134
102
}
330
134
100
AcDbXrecord
280
     1
102
RTVSPost2010Prop28
280
     0
102
RTVSPost2010PropOp28
 70
     0
102
RTVSPost2010Prop29
280
     1
102
RTVSPost2010PropOp29
 70
     0
102
RTVSPost2010Prop30
280
     1
102
RTVSPost2010PropOp30
 70
     0
102
RTVSPost2010Prop31
280
     0
102
RTVSPost2010PropOp31
 70
     0
102
RTVSPost2010Prop32
280
     0
102
RTVSPost2010PropOp32
 70
     0
102
RTVSPost2010Prop33
280
     0
102
RTVSPost2010PropOp33
 70
     0
102
RTVSPost2010Prop34
280
     0
102
RTVSPost2010PropOp34
 70
     0
102
RTVSPost2010Prop35
280
     0
102
RTVSPost2010PropOp35
 70
     0
102
RTVSPost2010Prop36
280
     0
102
RTVSPost2010PropOp36
 70
     0
102
RTVSPost2010Prop37
 90
       50
102
RTVSPost2010PropOp37
 70
     0
102
RTVSPost2010Prop38
140
0.0
102
RTVSPost2010PropOp38
 70
     0
102
RTVSPost2010Prop39
140
1.0
102
RTVSPost2010PropOp39
 70
     0
102
RTVSPost2010Prop40
 90
        0
102
RTVSPost2010PropOp40
 70
     0
102
RTVSPost2010Prop41ColorIndex
 90
       18
102
RTVSPost2010Prop41ColorRGB
 90
        0
102
RTVSPost2010PropOp41
 70
     0
102
RTVSPost2010Prop42
 90
       50
102
RTVSPost2010PropOp42
 70
     0
102
RTVSPost2010Prop43
 90
        3
102
RTVSPost2010PropOp43
 70
     0
102
RTVSPost2010Prop44ColorIndex
 90
        5
102
RTVSPost2010Prop44ColorRGB
 90
      255
102
RTVSPost2010PropOp44
 70
     0
102
RTVSPost2010Prop45
280
     0
102
RTVSPost2010PropOp45
 70
     0
102
RTVSPost2010Prop46
 90
       50
102
RTVSPost2010PropOp46
 70
     0
102
RTVSPost2010Prop47
 90
       50
102
RTVSPost2010PropOp47
 70
     0
102
RTVSPost2010Prop48
 90
       50
102
RTVSPost2010PropOp48
 70
     0
102
RTVSPost2010Prop49
280
     0
102
RTVSPost2010PropOp49
 70
     0
102
RTVSPost2010Prop50
 90
       50
102
RTVSPost2010PropOp50
 70
     0
102
RTVSPost2010Prop51ColorIndex
 90
      256
102
RTVSPost2010Prop51ColorRGB
 90
-16777216
102
RTVSPost2010PropOp51
 70
     0
102
RTVSPost2010Prop52
140
1.0
102
RTVSPost2010PropOp52
 70
     0
102
RTVSPost2010Prop53
 90
        2
102
RTVSPost2010PropOp53
 70
     0
102
RTVSPost2010Prop54
  1
strokes_ogs.tif
102
RTVSPost2010PropOp54
 70
     0
102
RTVSPost2010Prop55
280
     0
102
RTVSPost2010PropOp55
 70
     0
102
RTVSPost2010Prop56
140
1.0
102
RTVSPost2010PropOp56
 70
     0
102
RTVSPost2010Prop57
140
1.0
102
RTVSPost2010PropOp57
 70
     0
  0
XRECORD
  5
11B
102
{ACAD_REACTORS
330
11A
102
}
330
11A
100
AcDbXrecord
280
     1
102
RTVSPost2010Prop28
280
     0
102
RTVSPost2010PropOp28
 70
     1
102
RTVSPost2010Prop29
280
     1
102
RTVSPost2010PropOp29
 70
     1
102
RTVSPost2010Prop30
280
     1
102
RTVSPost2010PropOp30
 70
     1
102
RTVSPost2010Prop31
280
     0
102
RTVSPost2010PropOp31
 70
     1
102
RTVSPost2010Prop32
280
     0
102
RTVSPost2010PropOp32
 70
     1
102
RTVSPost2010Prop33
280
     0
102
RTVSPost2010PropOp33
 70
     1
102
RTVSPost2010Prop34
280
     0
102
RTVSPost2010PropOp34
 70
     1
102
RTVSPost2010Prop35
280
     0
102
RTVSPost2010PropOp35
 70
     1
102
RTVSPost2010Prop36
280
     0
102
RTVSPost2010PropOp36
 70
     1
102
RTVSPost2010Prop37
 90
       50
102
RTVSPost2010PropOp37
 70
     1
102
RTVSPost2010Prop38
140
0.0
102
RTVSPost2010PropOp38
 70
     1
102
RTVSPost2010Prop39
140
1.0
102
RTVSPost2010PropOp39
 70
     1
102
RTVSPost2010Prop40
 90
        0
102
RTVSPost2010PropOp40
 70
     1
102
RTVSPost2010Prop41ColorIndex
 90
       18
102
RTVSPost2010Prop41ColorRGB
 90
        0
102
RTVSPost2010PropOp41
 70
     1
102
RTVSPost2010Prop42
 90
       50
102
RTVSPost2010PropOp42
 70
     1
102
RTVSPost2010Prop43
 90
        3
102
RTVSPost2010PropOp43
 70
     1
102
RTVSPost2010Prop44ColorIndex
 90
        5
102
RTVSPost2010Prop44ColorRGB
 90
      255
102
RTVSPost2010PropOp44
 70
     1
102
RTVSPost2010Prop45
280
     0
102
RTVSPost2010PropOp45
 70
     1
102
RTVSPost2010Prop46
 90
       50
102
RTVSPost2010PropOp46
 70
     1
102
RTVSPost2010Prop47
 90
       50
102
RTVSPost2010PropOp47
 70
     1
102
RTVSPost2010Prop48
 90
       50
102
RTVSPost2010PropOp48
 70
     1
102
RTVSPost2010Prop49
280
     0
102
RTVSPost2010PropOp49
 70
     1
102
RTVSPost2010Prop50
 90
       50
102
RTVSPost2010PropOp50
 70
     1
102
RTVSPost2010Prop51ColorIndex
 90
      256
102
RTVSPost2010Prop51ColorRGB
 90
-16777216
102
RTVSPost2010PropOp51
 70
     0
102
RTVSPost2010Prop52
140
1.0
102
RTVSPost2010PropOp52
 70
     0
102
RTVSPost2010Prop53
 90
        2
102
RTVSPost2010PropOp53
 70
     1
102
RTVSPost2010Prop54
  1
strokes_ogs.tif
102
RTVSPost2010PropOp54
 70
     1
102
RTVSPost2010Prop55
280
     0
102
RTVSPost2010PropOp55
 70
     1
102
RTVSPost2010Prop56
140
1.0
102
RTVSPost2010PropOp56
 70
     1
102
RTVSPost2010Prop57
140
1.0
102
RTVSPost2010PropOp57
 70
     1
  0
XRECORD
  5
131
102
{ACAD_REACTORS
330
130
102
}
330
130
100
AcDbXrecord
280
     1
102
RTVSPost2010Prop28
280
     0
102
RTVSPost2010PropOp28
 70
     1
102
RTVSPost2010Prop29
280
     1
102
RTVSPost2010PropOp29
 70
     1
102
RTVSPost2010Prop30
280
     1
102
RTVSPost2010PropOp30
 70
     1
102
RTVSPost2010Prop31
280
     0
102
RTVSPost2010PropOp31
 70
     1
102
RTVSPost2010Prop32
280
     0
102
RTVSPost2010PropOp32
 70
     1
102
RTVSPost2010Prop33
280
     0
102
RTVSPost2010PropOp33
 70
     1
102
RTVSPost2010Prop34
280
     0
102
RTVSPost2010PropOp34
 70
     1
102
RTVSPost2010Prop35
280
     0
102
RTVSPost2010PropOp35
 70
     1
102
RTVSPost2010Prop36
280
     0
102
RTVSPost2010PropOp36
 70
     1
102
RTVSPost2010Prop37
 90
       50
102
RTVSPost2010PropOp37
 70
     1
102
RTVSPost2010Prop38
140
0.0
102
RTVSPost2010PropOp38
 70
     1
102
RTVSPost2010Prop39
140
1.0
102
RTVSPost2010PropOp39
 70
     1
102
RTVSPost2010Prop40
 90
        0
102
RTVSPost2010PropOp40
 70
     1
102
RTVSPost2010Prop41ColorIndex
 90
       18
102
RTVSPost2010Prop41ColorRGB
 90
        0
102
RTVSPost2010PropOp41
 70
     1
102
RTVSPost2010Prop42
 90
       50
102
RTVSPost2010PropOp42
 70
     1
102
RTVSPost2010Prop43
 90
        3
102
RTVSPost2010PropOp43
 70
     1
102
RTVSPost2010Prop44ColorIndex
 90
        5
102
RTVSPost2010Prop44ColorRGB
 90
      255
102
RTVSPost2010PropOp44
 70
     1
102
RTVSPost2010Prop45
280
     0
102
RTVSPost2010PropOp45
 70
     1
102
RTVSPost2010Prop46
 90
       50
102
RTVSPost2010PropOp46
 70
     1
102
RTVSPost2010Prop47
 90
       50
102
RTVSPost2010PropOp47
 70
     1
102
RTVSPost2010Prop48
 90
       50
102
RTVSPost2010PropOp48
 70
     1
102
RTVSPost2010Prop49
280
     0
102
RTVSPost2010PropOp49
 70
     1
102
RTVSPost2010Prop50
 90
       50
102
RTVSPost2010PropOp50
 70
     1
102
RTVSPost2010Prop51ColorIndex
 90
      256
102
RTVSPost2010Prop51ColorRGB
 90
-16777216
102
RTVSPost2010PropOp51
 70
     0
102
RTVSPost2010Prop52
140
1.0
102
RTVSPost2010PropOp52
 70
     0
102
RTVSPost2010Prop53
 90
        2
102
RTVSPost2010PropOp53
 70
     1
102
RTVSPost2010Prop54
  1
strokes_ogs.tif
102
RTVSPost2010PropOp54
 70
     1
102
RTVSPost2010Prop55
280
     0
102
RTVSPost2010PropOp55
 70
     1
102
RTVSPost2010Prop56
140
1.0
102
RTVSPost2010PropOp56
 70
     1
102
RTVSPost2010Prop57
140
1.0
102
RTVSPost2010PropOp57
 70
     1
  0
XRECORD
  5
12F
102
{ACAD_REACTORS
330
12E
102
}
330
12E
100
AcDbXrecord
280
     1
102
RTVSPost2010Prop28
280
     0
102
RTVSPost2010PropOp28
 70
     1
102
RTVSPost2010Prop29
280
     1
102
RTVSPost2010PropOp29
 70
     1
102
RTVSPost2010Prop30
280
     1
102
RTVSPost2010PropOp30
 70
     1
102
RTVSPost2010Prop31
280
     0
102
RTVSPost2010PropOp31
 70
     1
102
RTVSPost2010Prop32
280
     0
102
RTVSPost2010PropOp32
 70
     1
102
RTVSPost2010Prop33
280
     0
102
RTVSPost2010PropOp33
 70
     1
102
RTVSPost2010Prop34
280
     0
102
RTVSPost2010PropOp34
 70
     1
102
RTVSPost2010Prop35
280
     0
102
RTVSPost2010PropOp35
 70
     1
102
RTVSPost2010Prop36
280
     0
102
RTVSPost2010PropOp36
 70
     1
102
RTVSPost2010Prop37
 90
       50
102
RTVSPost2010PropOp37
 70
     1
102
RTVSPost2010Prop38
140
0.0
102
RTVSPost2010PropOp38
 70
     1
102
RTVSPost2010Prop39
140
1.0
102
RTVSPost2010PropOp39
 70
     1
102
RTVSPost2010Prop40
 90
        0
102
RTVSPost2010PropOp40
 70
     1
102
RTVSPost2010Prop41ColorIndex
 90
       18
102
RTVSPost2010Prop41ColorRGB
 90
        0
102
RTVSPost2010PropOp41
 70
     1
102
RTVSPost2010Prop42
 90
       50
102
RTVSPost2010PropOp42
 70
     1
102
RTVSPost2010Prop43
 90
        3
102
RTVSPost2010PropOp43
 70
     1
102
RTVSPost2010Prop44ColorIndex
 90
        5
102
RTVSPost2010Prop44ColorRGB
 90
      255
102
RTVSPost2010PropOp44
 70
     1
102
RTVSPost2010Prop45
280
     0
102
RTVSPost2010PropOp45
 70
     1
102
RTVSPost2010Prop46
 90
       50
102
RTVSPost2010PropOp46
 70
     1
102
RTVSPost2010Prop47
 90
       50
102
RTVSPost2010PropOp47
 70
     1
102
RTVSPost2010Prop48
 90
       50
102
RTVSPost2010PropOp48
 70
     1
102
RTVSPost2010Prop49
280
     0
102
RTVSPost2010PropOp49
 70
     1
102
RTVSPost2010Prop50
 90
       50
102
RTVSPost2010PropOp50
 70
     1
102
RTVSPost2010Prop51ColorIndex
 90
      256
102
RTVSPost2010Prop51ColorRGB
 90
-16777216
102
RTVSPost2010PropOp51
 70
     0
102
RTVSPost2010Prop52
140
1.0
102
RTVSPost2010PropOp52
 70
     0
102
RTVSPost2010Prop53
 90
        2
102
RTVSPost2010PropOp53
 70
     1
102
RTVSPost2010Prop54
  1
strokes_ogs.tif
102
RTVSPost2010PropOp54
 70
     1
102
RTVSPost2010Prop55
280
     0
102
RTVSPost2010PropOp55
 70
     1
102
RTVSPost2010Prop56
140
1.0
102
RTVSPost2010PropOp56
 70
     1
102
RTVSPost2010Prop57
140
1.0
102
RTVSPost2010PropOp57
 70
     1
  0
XRECORD
  5
129
102
{ACAD_REACTORS
330
128
102
}
330
128
100
AcDbXrecord
280
     1
102
RTVSPost2010Prop28
280
     0
102
RTVSPost2010PropOp28
 70
     1
102
RTVSPost2010Prop29
280
     1
102
RTVSPost2010PropOp29
 70
     1
102
RTVSPost2010Prop30
280
     1
102
RTVSPost2010PropOp30
 70
     1
102
RTVSPost2010Prop31
280
     0
102
RTVSPost2010PropOp31
 70
     1
102
RTVSPost2010Prop32
280
     0
102
RTVSPost2010PropOp32
 70
     1
102
RTVSPost2010Prop33
280
     0
102
RTVSPost2010PropOp33
 70
     1
102
RTVSPost2010Prop34
280
     0
102
RTVSPost2010PropOp34
 70
     1
102
RTVSPost2010Prop35
280
     0
102
RTVSPost2010PropOp35
 70
     1
102
RTVSPost2010Prop36
280
     0
102
RTVSPost2010PropOp36
 70
     1
102
RTVSPost2010Prop37
 90
       50
102
RTVSPost2010PropOp37
 70
     1
102
RTVSPost2010Prop38
140
0.0
102
RTVSPost2010PropOp38
 70
     1
102
RTVSPost2010Prop39
140
1.0
102
RTVSPost2010PropOp39
 70
     1
102
RTVSPost2010Prop40
 90
        0
102
RTVSPost2010PropOp40
 70
     1
102
RTVSPost2010Prop41ColorIndex
 90
       18
102
RTVSPost2010Prop41ColorRGB
 90
        0
102
RTVSPost2010PropOp41
 70
     1
102
RTVSPost2010Prop42
 90
       50
102
RTVSPost2010PropOp42
 70
     1
102
RTVSPost2010Prop43
 90
        3
102
RTVSPost2010PropOp43
 70
     1
102
RTVSPost2010Prop44ColorIndex
 90
        5
102
RTVSPost2010Prop44ColorRGB
 90
      255
102
RTVSPost2010PropOp44
 70
     1
102
RTVSPost2010Prop45
280
     0
102
RTVSPost2010PropOp45
 70
     1
102
RTVSPost2010Prop46
 90
       50
102
RTVSPost2010PropOp46
 70
     1
102
RTVSPost2010Prop47
 90
       50
102
RTVSPost2010PropOp47
 70
     1
102
RTVSPost2010Prop48
 90
       50
102
RTVSPost2010PropOp48
 70
     1
102
RTVSPost2010Prop49
280
     0
102
RTVSPost2010PropOp49
 70
     1
102
RTVSPost2010Prop50
 90
       50
102
RTVSPost2010PropOp50
 70
     1
102
RTVSPost2010Prop51ColorIndex
 90
      256
102
RTVSPost2010Prop51ColorRGB
 90
-16777216
102
RTVSPost2010PropOp51
 70
     0
102
RTVSPost2010Prop52
140
1.0
102
RTVSPost2010PropOp52
 70
     0
102
RTVSPost2010Prop53
 90
        2
102
RTVSPost2010PropOp53
 70
     1
102
RTVSPost2010Prop54
  1
strokes_ogs.tif
102
RTVSPost2010PropOp54
 70
     1
102
RTVSPost2010Prop55
280
     0
102
RTVSPost2010PropOp55
 70
     1
102
RTVSPost2010Prop56
140
1.0
102
RTVSPost2010PropOp56
 70
     1
102
RTVSPost2010Prop57
140
1.0
102
RTVSPost2010PropOp57
 70
     1
  0
XRECORD
  5
12B
102
{ACAD_REACTORS
330
12A
102
}
330
12A
100
AcDbXrecord
280
     1
102
RTVSPost2010Prop28
280
     0
102
RTVSPost2010PropOp28
 70
     1
102
RTVSPost2010Prop29
280
     1
102
RTVSPost2010PropOp29
 70
     1
102
RTVSPost2010Prop30
280
     1
102
RTVSPost2010PropOp30
 70
     1
102
RTVSPost2010Prop31
280
     0
102
RTVSPost2010PropOp31
 70
     1
102
RTVSPost2010Prop32
280
     0
102
RTVSPost2010PropOp32
 70
     1
102
RTVSPost2010Prop33
280
     0
102
RTVSPost2010PropOp33
 70
     1
102
RTVSPost2010Prop34
280
     0
102
RTVSPost2010PropOp34
 70
     1
102
RTVSPost2010Prop35
280
     0
102
RTVSPost2010PropOp35
 70
     1
102
RTVSPost2010Prop36
280
     0
102
RTVSPost2010PropOp36
 70
     1
102
RTVSPost2010Prop37
 90
       50
102
RTVSPost2010PropOp37
 70
     1
102
RTVSPost2010Prop38
140
0.0
102
RTVSPost2010PropOp38
 70
     1
102
RTVSPost2010Prop39
140
1.0
102
RTVSPost2010PropOp39
 70
     1
102
RTVSPost2010Prop40
 90
        0
102
RTVSPost2010PropOp40
 70
     1
102
RTVSPost2010Prop41ColorIndex
 90
       18
102
RTVSPost2010Prop41ColorRGB
 90
        0
102
RTVSPost2010PropOp41
 70
     1
102
RTVSPost2010Prop42
 90
       50
102
RTVSPost2010PropOp42
 70
     1
102
RTVSPost2010Prop43
 90
        3
102
RTVSPost2010PropOp43
 70
     1
102
RTVSPost2010Prop44ColorIndex
 90
        5
102
RTVSPost2010Prop44ColorRGB
 90
      255
102
RTVSPost2010PropOp44
 70
     1
102
RTVSPost2010Prop45
280
     0
102
RTVSPost2010PropOp45
 70
     1
102
RTVSPost2010Prop46
 90
       50
102
RTVSPost2010PropOp46
 70
     1
102
RTVSPost2010Prop47
 90
       50
102
RTVSPost2010PropOp47
 70
     1
102
RTVSPost2010Prop48
 90
       50
102
RTVSPost2010PropOp48
 70
     1
102
RTVSPost2010Prop49
280
     0
102
RTVSPost2010PropOp49
 70
     1
102
RTVSPost2010Prop50
 90
       50
102
RTVSPost2010PropOp50
 70
     1
102
RTVSPost2010Prop51ColorIndex
 90
      256
102
RTVSPost2010Prop51ColorRGB
 90
-16777216
102
RTVSPost2010PropOp51
 70
     0
102
RTVSPost2010Prop52
140
1.0
102
RTVSPost2010PropOp52
 70
     0
102
RTVSPost2010Prop53
 90
        2
102
RTVSPost2010PropOp53
 70
     1
102
RTVSPost2010Prop54
  1
strokes_ogs.tif
102
RTVSPost2010PropOp54
 70
     1
102
RTVSPost2010Prop55
280
     0
102
RTVSPost2010PropOp55
 70
     1
102
RTVSPost2010Prop56
140
1.0
102
RTVSPost2010PropOp56
 70
     1
102
RTVSPost2010Prop57
140
1.0
102
RTVSPost2010PropOp57
 70
     1
  0
XRECORD
  5
121
102
{ACAD_REACTORS
330
120
102
}
330
120
100
AcDbXrecord
280
     1
102
RTVSPost2010Prop28
280
     0
102
RTVSPost2010PropOp28
 70
     1
102
RTVSPost2010Prop29
280
     1
102
RTVSPost2010PropOp29
 70
     1
102
RTVSPost2010Prop30
280
     1
102
RTVSPost2010PropOp30
 70
     1
102
RTVSPost2010Prop31
280
     0
102
RTVSPost2010PropOp31
 70
     1
102
RTVSPost2010Prop32
280
     0
102
RTVSPost2010PropOp32
 70
     1
102
RTVSPost2010Prop33
280
     0
102
RTVSPost2010PropOp33
 70
     1
102
RTVSPost2010Prop34
280
     0
102
RTVSPost2010PropOp34
 70
     1
102
RTVSPost2010Prop35
280
     0
102
RTVSPost2010PropOp35
 70
     1
102
RTVSPost2010Prop36
280
     0
102
RTVSPost2010PropOp36
 70
     1
102
RTVSPost2010Prop37
 90
       50
102
RTVSPost2010PropOp37
 70
     1
102
RTVSPost2010Prop38
140
0.0
102
RTVSPost2010PropOp38
 70
     1
102
RTVSPost2010Prop39
140
1.0
102
RTVSPost2010PropOp39
 70
     1
102
RTVSPost2010Prop40
 90
        0
102
RTVSPost2010PropOp40
 70
     1
102
RTVSPost2010Prop41ColorIndex
 90
       18
102
RTVSPost2010Prop41ColorRGB
 90
        0
102
RTVSPost2010PropOp41
 70
     1
102
RTVSPost2010Prop42
 90
       50
102
RTVSPost2010PropOp42
 70
     1
102
RTVSPost2010Prop43
 90
        3
102
RTVSPost2010PropOp43
 70
     1
102
RTVSPost2010Prop44ColorIndex
 90
        5
102
RTVSPost2010Prop44ColorRGB
 90
      255
102
RTVSPost2010PropOp44
 70
     1
102
RTVSPost2010Prop45
280
     0
102
RTVSPost2010PropOp45
 70
     1
102
RTVSPost2010Prop46
 90
       50
102
RTVSPost2010PropOp46
 70
     1
102
RTVSPost2010Prop47
 90
       50
102
RTVSPost2010PropOp47
 70
     1
102
RTVSPost2010Prop48
 90
       50
102
RTVSPost2010PropOp48
 70
     1
102
RTVSPost2010Prop49
280
     0
102
RTVSPost2010PropOp49
 70
     1
102
RTVSPost2010Prop50
 90
       50
102
RTVSPost2010PropOp50
 70
     1
102
RTVSPost2010Prop51ColorIndex
 90
      256
102
RTVSPost2010Prop51ColorRGB
 90
-16777216
102
RTVSPost2010PropOp51
 70
     0
102
RTVSPost2010Prop52
140
1.0
102
RTVSPost2010PropOp52
 70
     0
102
RTVSPost2010Prop53
 90
        2
102
RTVSPost2010PropOp53
 70
     1
102
RTVSPost2010Prop54
  1
strokes_ogs.tif
102
RTVSPost2010PropOp54
 70
     1
102
RTVSPost2010Prop55
280
     0
102
RTVSPost2010PropOp55
 70
     1
102
RTVSPost2010Prop56
140
1.0
102
RTVSPost2010PropOp56
 70
     1
102
RTVSPost2010Prop57
140
1.0
102
RTVSPost2010PropOp57
 70
     1
  0
XRECORD
  5
115
102
{ACAD_REACTORS
330
114
102
}
330
114
100
AcDbXrecord
280
     1
102
RTVSPost2010Prop28
280
     0
102
RTVSPost2010PropOp28
 70
     1
102
RTVSPost2010Prop29
280
     1
102
RTVSPost2010PropOp29
 70
     1
102
RTVSPost2010Prop30
280
     1
102
RTVSPost2010PropOp30
 70
     1
102
RTVSPost2010Prop31
280
     0
102
RTVSPost2010PropOp31
 70
     1
102
RTVSPost2010Prop32
280
     0
102
RTVSPost2010PropOp32
 70
     1
102
RTVSPost2010Prop33
280
     0
102
RTVSPost2010PropOp33
 70
     1
102
RTVSPost2010Prop34
280
     0
102
RTVSPost2010PropOp34
 70
     1
102
RTVSPost2010Prop35
280
     0
102
RTVSPost2010PropOp35
 70
     1
102
RTVSPost2010Prop36
280
     0
102
RTVSPost2010PropOp36
 70
     1
102
RTVSPost2010Prop37
 90
       50
102
RTVSPost2010PropOp37
 70
     1
102
RTVSPost2010Prop38
140
0.0
102
RTVSPost2010PropOp38
 70
     1
102
RTVSPost2010Prop39
140
1.0
102
RTVSPost2010PropOp39
 70
     1
102
RTVSPost2010Prop40
 90
        0
102
RTVSPost2010PropOp40
 70
     1
102
RTVSPost2010Prop41ColorIndex
 90
       18
102
RTVSPost2010Prop41ColorRGB
 90
        0
102
RTVSPost2010PropOp41
 70
     1
102
RTVSPost2010Prop42
 90
       50
102
RTVSPost2010PropOp42
 70
     1
102
RTVSPost2010Prop43
 90
        3
102
RTVSPost2010PropOp43
 70
     1
102
RTVSPost2010Prop44ColorIndex
 90
        5
102
RTVSPost2010Prop44ColorRGB
 90
      255
102
RTVSPost2010PropOp44
 70
     1
102
RTVSPost2010Prop45
280
     0
102
RTVSPost2010PropOp45
 70
     1
102
RTVSPost2010Prop46
 90
       50
102
RTVSPost2010PropOp46
 70
     1
102
RTVSPost2010Prop47
 90
       50
102
RTVSPost2010PropOp47
 70
     1
102
RTVSPost2010Prop48
 90
       50
102
RTVSPost2010PropOp48
 70
     1
102
RTVSPost2010Prop49
280
     0
102
RTVSPost2010PropOp49
 70
     1
102
RTVSPost2010Prop50
 90
       50
102
RTVSPost2010PropOp50
 70
     1
102
RTVSPost2010Prop51ColorIndex
 90
      256
102
RTVSPost2010Prop51ColorRGB
 90
-16777216
102
RTVSPost2010PropOp51
 70
     0
102
RTVSPost2010Prop52
140
1.0
102
RTVSPost2010PropOp52
 70
     0
102
RTVSPost2010Prop53
 90
        2
102
RTVSPost2010PropOp53
 70
     1
102
RTVSPost2010Prop54
  1
strokes_ogs.tif
102
RTVSPost2010PropOp54
 70
     1
102
RTVSPost2010Prop55
280
     0
102
RTVSPost2010PropOp55
 70
     1
102
RTVSPost2010Prop56
140
1.0
102
RTVSPost2010PropOp56
 70
     1
102
RTVSPost2010Prop57
140
1.0
102
RTVSPost2010PropOp57
 70
     1
  0
XRECORD
  5
12D
102
{ACAD_REACTORS
330
12C
102
}
330
12C
100
AcDbXrecord
280
     1
102
RTVSPost2010Prop28
280
     0
102
RTVSPost2010PropOp28
 70
     1
102
RTVSPost2010Prop29
280
     1
102
RTVSPost2010PropOp29
 70
     1
102
RTVSPost2010Prop30
280
     1
102
RTVSPost2010PropOp30
 70
     1
102
RTVSPost2010Prop31
280
     0
102
RTVSPost2010PropOp31
 70
     1
102
RTVSPost2010Prop32
280
     0
102
RTVSPost2010PropOp32
 70
     1
102
RTVSPost2010Prop33
280
     0
102
RTVSPost2010PropOp33
 70
     1
102
RTVSPost2010Prop34
280
     0
102
RTVSPost2010PropOp34
 70
     1
102
RTVSPost2010Prop35
280
     0
102
RTVSPost2010PropOp35
 70
     1
102
RTVSPost2010Prop36
280
     0
102
RTVSPost2010PropOp36
 70
     1
102
RTVSPost2010Prop37
 90
       50
102
RTVSPost2010PropOp37
 70
     1
102
RTVSPost2010Prop38
140
0.0
102
RTVSPost2010PropOp38
 70
     1
102
RTVSPost2010Prop39
140
1.0
102
RTVSPost2010PropOp39
 70
     1
102
RTVSPost2010Prop40
 90
        0
102
RTVSPost2010PropOp40
 70
     1
102
RTVSPost2010Prop41ColorIndex
 90
       18
102
RTVSPost2010Prop41ColorRGB
 90
        0
102
RTVSPost2010PropOp41
 70
     1
102
RTVSPost2010Prop42
 90
       50
102
RTVSPost2010PropOp42
 70
     1
102
RTVSPost2010Prop43
 90
        3
102
RTVSPost2010PropOp43
 70
     1
102
RTVSPost2010Prop44ColorIndex
 90
        5
102
RTVSPost2010Prop44ColorRGB
 90
      255
102
RTVSPost2010PropOp44
 70
     1
102
RTVSPost2010Prop45
280
     0
102
RTVSPost2010PropOp45
 70
     1
102
RTVSPost2010Prop46
 90
       50
102
RTVSPost2010PropOp46
 70
     1
102
RTVSPost2010Prop47
 90
       50
102
RTVSPost2010PropOp47
 70
     1
102
RTVSPost2010Prop48
 90
       50
102
RTVSPost2010PropOp48
 70
     1
102
RTVSPost2010Prop49
280
     0
102
RTVSPost2010PropOp49
 70
     1
102
RTVSPost2010Prop50
 90
       50
102
RTVSPost2010PropOp50
 70
     1
102
RTVSPost2010Prop51ColorIndex
 90
      256
102
RTVSPost2010Prop51ColorRGB
 90
-16777216
102
RTVSPost2010PropOp51
 70
     0
102
RTVSPost2010Prop52
140
1.0
102
RTVSPost2010PropOp52
 70
     0
102
RTVSPost2010Prop53
 90
        2
102
RTVSPost2010PropOp53
 70
     1
102
RTVSPost2010Prop54
  1
strokes_ogs.tif
102
RTVSPost2010PropOp54
 70
     1
102
RTVSPost2010Prop55
280
     0
102
RTVSPost2010PropOp55
 70
     1
102
RTVSPost2010Prop56
140
1.0
102
RTVSPost2010PropOp56
 70
     1
102
RTVSPost2010Prop57
140
1.0
102
RTVSPost2010PropOp57
 70
     1
  0
ENDSEC
  0
EOF
