  0
SECTION
  2
HEADER
  9
$ACADVER
  1
AC1024
  9
$ACADMAINTVER
 70
   226
  9
$DWGCODEPAGE
  3
ANSI_932
  9
$INSBASE
 10
0.0
 20
0.0
 30
0.0
  9
$EXTMIN
 10
1.000000000000000E+20
 20
1.000000000000000E+20
 30
1.000000000000000E+20
  9
$EXTMAX
 10
-1.000000000000000E+20
 20
-1.000000000000000E+20
 30
-1.000000000000000E+20
  9
$LIMMIN
 10
0.0
 20
0.0
  9
$LIMMAX
 10
12.0
 20
9.0
  9
$ORTHOMODE
 70
     0
  9
$REGENMODE
 70
     1
  9
$FILLMODE
 70
     1
  9
$QTEXTMODE
 70
     0
  9
$MIRRTEXT
 70
     0
  9
$LTSCALE
 40
1.0
  9
$ATTMODE
 70
     1
  9
$TEXTSIZE
 40
0.2
  9
$TRACEWID
 40
0.05
  9
$TEXTSTYLE
  7
Standard
  9
$CLAYER
  8
0
  9
$CELTYPE
  6
ByLayer
  9
$CECOLOR
 62
   256
  9
$CELTSCALE
 40
1.0
  9
$DISPSILH
 70
     0
  9
$DIMSCALE
 40
1.0
  9
$DIMASZ
 40
0.18
  9
$DIMEXO
 40
0.0625
  9
$DIMDLI
 40
0.38
  9
$DIMRND
 40
0.0
  9
$DIMDLE
 40
0.0
  9
$DIMEXE
 40
0.18
  9
$DIMTP
 40
0.0
  9
$DIMTM
 40
0.0
  9
$DIMTXT
 40
0.18
  9
$DIMCEN
 40
0.09
  9
$DIMTSZ
 40
0.0
  9
$DIMTOL
 70
     0
  9
$DIMLIM
 70
     0
  9
$DIMTIH
 70
     1
  9
$DIMTOH
 70
     1
  9
$DIMSE1
 70
     0
  9
$DIMSE2
 70
     0
  9
$DIMTAD
 70
     0
  9
$DIMZIN
 70
     0
  9
$DIMBLK
  1

  9
$DIMASO
 70
     1
  9
$DIMSHO
 70
     1
  9
$DIMPOST
  1

  9
$DIMAPOST
  1

  9
$DIMALT
 70
     0
  9
$DIMALTD
 70
     2
  9
$DIMALTF
 40
25.4
  9
$DIMLFAC
 40
1.0
  9
$DIMTOFL
 70
     0
  9
$DIMTVP
 40
0.0
  9
$DIMTIX
 70
     0
  9
$DIMSOXD
 70
     0
  9
$DIMSAH
 70
     0
  9
$DIMBLK1
  1

  9
$DIMBLK2
  1

  9
$DIMSTYLE
  2
Standard
  9
$DIMCLRD
 70
     0
  9
$DIMCLRE
 70
     0
  9
$DIMCLRT
 70
     0
  9
$DIMTFAC
 40
1.0
  9
$DIMGAP
 40
0.09
  9
$DIMJUST
 70
     0
  9
$DIMSD1
 70
     0
  9
$DIMSD2
 70
     0
  9
$DIMTOLJ
 70
     1
  9
$DIMTZIN
 70
     0
  9
$DIMALTZ
 70
     0
  9
$DIMALTTZ
 70
     0
  9
$DIMUPT
 70
     0
  9
$DIMDEC
 70
     4
  9
$DIMTDEC
 70
     4
  9
$DIMALTU
 70
     2
  9
$DIMALTTD
 70
     2
  9
$DIMTXSTY
  7
Standard
  9
$DIMAUNIT
 70
     0
  9
$DIMADEC
 70
     0
  9
$DIMALTRND
 40
0.0
  9
$DIMAZIN
 70
     0
  9
$DIMDSEP
 70
    46
  9
$DIMATFIT
 70
     3
  9
$DIMFRAC
 70
     0
  9
$DIMLDRBLK
  1

  9
$DIMLUNIT
 70
     2
  9
$DIMLWD
 70
    -2
  9
$DIMLWE
 70
    -2
  9
$DIMTMOVE
 70
     0
  9
$DIMFXL
 40
1.0
  9
$DIMFXLON
 70
     0
  9
$DIMJOGANG
 40
0.7853981633974483
  9
$DIMTFILL
 70
     0
  9
$DIMTFILLCLR
 70
     0
  9
$DIMARCSYM
 70
     0
  9
$DIMLTYPE
  6

  9
$DIMLTEX1
  6

  9
$DIMLTEX2
  6

  9
$DIMTXTDIRECTION
 70
     0
  9
$LUNITS
 70
     2
  9
$LUPREC
 70
     4
  9
$SKETCHINC
 40
0.1
  9
$FILLETRAD
 40
0.0
  9
$AUNITS
 70
     0
  9
$AUPREC
 70
     0
  9
$MENU
  1
.
  9
$ELEVATION
 40
0.0
  9
$PELEVATION
 40
0.0
  9
$THICKNESS
 40
0.0
  9
$LIMCHECK
 70
     0
  9
$CHAMFERA
 40
0.0
  9
$CHAMFERB
 40
0.0
  9
$CHAMFERC
 40
0.0
  9
$CHAMFERD
 40
0.0
  9
$SKPOLY
 70
     0
  9
$TDCREATE
 40
2459569.488553241
  9
$TDUCREATE
 40
2459569.113553241
  9
$TDUPDATE
 40
2459569.488553241
  9
$TDUUPDATE
 40
2459569.113553241
  9
$TDINDWG
 40
0.0000115741
  9
$TDUSRTIMER
 40
0.0000115741
  9
$USRTIMER
 70
     1
  9
$ANGBASE
 50
0.0
  9
$ANGDIR
 70
     0
  9
$PDMODE
 70
     0
  9
$PDSIZE
 40
0.0
  9
$PLINEWID
 40
0.0
  9
$SPLFRAME
 70
     0
  9
$SPLINETYPE
 70
     6
  9
$SPLINESEGS
 70
     8
  9
$HANDSEED
  5
13F
  9
$SURFTAB1
 70
     6
  9
$SURFTAB2
 70
     6
  9
$SURFTYPE
 70
     6
  9
$SURFU
 70
     6
  9
$SURFV
 70
     6
  9
$UCSBASE
  2

  9
$UCSNAME
  2

  9
$UCSORG
 10
0.0
 20
0.0
 30
0.0
  9
$UCSXDIR
 10
1.0
 20
0.0
 30
0.0
  9
$UCSYDIR
 10
0.0
 20
1.0
 30
0.0
  9
$UCSORTHOREF
  2

  9
$UCSORTHOVIEW
 70
     0
  9
$UCSORGTOP
 10
0.0
 20
0.0
 30
0.0
  9
$UCSORGBOTTOM
 10
0.0
 20
0.0
 30
0.0
  9
$UCSORGLEFT
 10
0.0
 20
0.0
 30
0.0
  9
$UCSORGRIGHT
 10
0.0
 20
0.0
 30
0.0
  9
$UCSORGFRONT
 10
0.0
 20
0.0
 30
0.0
  9
$UCSORGBACK
 10
0.0
 20
0.0
 30
0.0
  9
$PUCSBASE
  2

  9
$PUCSNAME
  2

  9
$PUCSORG
 10
0.0
 20
0.0
 30
0.0
  9
$PUCSXDIR
 10
1.0
 20
0.0
 30
0.0
  9
$PUCSYDIR
 10
0.0
 20
1.0
 30
0.0
  9
$PUCSORTHOREF
  2

  9
$PUCSORTHOVIEW
 70
     0
  9
$PUCSORGTOP
 10
0.0
 20
0.0
 30
0.0
  9
$PUCSORGBOTTOM
 10
0.0
 20
0.0
 30
0.0
  9
$PUCSORGLEFT
 10
0.0
 20
0.0
 30
0.0
  9
$PUCSORGRIGHT
 10
0.0
 20
0.0
 30
0.0
  9
$PUCSORGFRONT
 10
0.0
 20
0.0
 30
0.0
  9
$PUCSORGBACK
 10
0.0
 20
0.0
 30
0.0
  9
$USERI1
 70
     0
  9
$USERI2
 70
     0
  9
$USERI3
 70
     0
  9
$USERI4
 70
     0
  9
$USERI5
 70
     0
  9
$USERR1
 40
0.0
  9
$USERR2
 40
0.0
  9
$USERR3
 40
0.0
  9
$USERR4
 40
0.0
  9
$USERR5
 40
0.0
  9
$WORLDVIEW
 70
     1
  9
$SHADEDGE
 70
     3
  9
$SHADEDIF
 70
    70
  9
$TILEMODE
 70
     1
  9
$MAXACTVP
 70
    64
  9
$PINSBASE
 10
0.0
 20
0.0
 30
0.0
  9
$PLIMCHECK
 70
     0
  9
$PEXTMIN
 10
1.000000000000000E+20
 20
1.000000000000000E+20
 30
1.000000000000000E+20
  9
$PEXTMAX
 10
-1.000000000000000E+20
 20
-1.000000000000000E+20
 30
-1.000000000000000E+20
  9
$PLIMMIN
 10
0.0
 20
0.0
  9
$PLIMMAX
 10
12.0
 20
9.0
  9
$UNITMODE
 70
     0
  9
$VISRETAIN
 70
     1
  9
$PLINEGEN
 70
     0
  9
$PSLTSCALE
 70
     1
  9
$TREEDEPTH
 70
  3020
  9
$CMLSTYLE
  2
Standard
  9
$CMLJUST
 70
     0
  9
$CMLSCALE
 40
1.0
  9
$PROXYGRAPHICS
 70
     1
  9
$MEASUREMENT
 70
     0
  9
$CELWEIGHT
370
    -1
  9
$ENDCAPS
280
     0
  9
$JOINSTYLE
280
     0
  9
$LWDISPLAY
290
     1
  9
$INSUNITS
 70
     4
  9
$HYPERLINKBASE
  1

  9
$STYLESHEET
  1

  9
$XEDIT
290
     1
  9
$CEPSNTYPE
380
     0
  9
$PSTYLEMODE
290
     1
  9
$FINGERPRINTGUID
  2
{8584B598-C3EC-9248-A0CB-7794CF5A0D42}
  9
$VERSIONGUID
  2
{27D6EF9A-71F3-C84B-9E00-72103E474253}
  9
$EXTNAMES
290
     1
  9
$PSVPSCALE
 40
0.0
  9
$OLESTARTUP
290
     0
  9
$SORTENTS
280
   127
  9
$INDEXCTL
280
     0
  9
$HIDETEXT
280
     1
  9
$XCLIPFRAME
280
     2
  9
$HALOGAP
280
     0
  9
$OBSCOLOR
 70
   257
  9
$OBSLTYPE
280
     0
  9
$INTERSECTIONDISPLAY
280
     0
  9
$INTERSECTIONCOLOR
 70
   257
  9
$DIMASSOC
280
     2
  9
$PROJECTNAME
  1

  9
$CAMERADISPLAY
290
     0
  9
$LENSLENGTH
 40
50.0
  9
$CAMERAHEIGHT
 40
0.0
  9
$STEPSPERSEC
 40
2.0
  9
$STEPSIZE
 40
6.0
  9
$3DDWFPREC
 40
2.0
  9
$PSOLWIDTH
 40
0.25
  9
$PSOLHEIGHT
 40
4.0
  9
$LOFTANG1
 40
1.570796326794896
  9
$LOFTANG2
 40
1.570796326794896
  9
$LOFTMAG1
 40
0.0
  9
$LOFTMAG2
 40
0.0
  9
$LOFTPARAM
 70
     7
  9
$LOFTNORMALS
280
     1
  9
$LATITUDE
 40
37.795
  9
$LONGITUDE
 40
-122.394
  9
$NORTHDIRECTION
 40
0.0
  9
$TIMEZONE
 70
 -8000
  9
$LIGHTGLYPHDISPLAY
280
     1
  9
$TILEMODELIGHTSYNCH
280
     1
  9
$CMATERIAL
347
11
  9
$SOLIDHIST
280
     0
  9
$SHOWHIST
280
     1
  9
$DWFFRAME
280
     2
  9
$DGNFRAME
280
     0
  9
$REALWORLDSCALE
290
     1
  9
$INTERFERECOLOR
 62
     1
  9
$INTERFEREOBJVS
345
33
  9
$INTERFEREVPVS
346
30
  9
$CSHADOW
280
     0
  9
$SHADOWPLANELOCATION
 40
0.0
  0
ENDSEC
  0
SECTION
  2
CLASSES
  0
CLASS
  1
ACDBDICTIONARYWDFLT
  2
AcDbDictionaryWithDefault
  3
ObjectDBX Classes
 90
        0
 91
        1
280
     0
281
     0
  0
CLASS
  1
MATERIAL
  2
AcDbMaterial
  3
ObjectDBX Classes
 90
     1153
 91
        3
280
     0
281
     0
  0
CLASS
  1
VISUALSTYLE
  2
AcDbVisualStyle
  3
ObjectDBX Classes
 90
     4095
 91
       24
280
     0
281
     0
  0
CLASS
  1
SCALE
  2
AcDbScale
  3
ObjectDBX Classes
 90
     1153
 91
       17
280
     0
281
     0
  0
CLASS
  1
TABLESTYLE
  2
AcDbTableStyle
  3
ObjectDBX Classes
 90
     4095
 91
        1
280
     0
281
     0
  0
CLASS
  1
MLEADERSTYLE
  2
AcDbMLeaderStyle
  3
ACDB_MLEADERSTYLE_CLASS
 90
     4095
 91
        1
280
     0
281
     0
  0
CLASS
  1
ACDBSECTIONVIEWSTYLE
  2
AcDbSectionViewStyle
  3
ObjectDBX Classes
 90
     1025
 91
        1
280
     0
281
     0
  0
CLASS
  1
ACDBDETAILVIEWSTYLE
  2
AcDbDetailViewStyle
  3
ObjectDBX Classes
 90
     1025
 91
        1
280
     0
281
     0
  0
CLASS
  1
DICTIONARYVAR
  2
AcDbDictionaryVar
  3
ObjectDBX Classes
 90
        0
 91
        5
280
     0
281
     0
  0
CLASS
  1
CELLSTYLEMAP
  2
AcDbCellStyleMap
  3
ObjectDBX Classes
 90
     1152
 91
        1
280
     0
281
     0
  0
ENDSEC
  0
SECTION
  2
TABLES
  0
TABLE
  2
VPORT
  5
8
330
0
100
AcDbSymbolTable
 70
     1
  0
VPORT
  5
57
330
8
100
AcDbSymbolTableRecord
100
AcDbViewportTableRecord
  2
*Active
 70
     0
 10
0.0
 20
0.0
 11
1.0
 21
1.0
 12
0.0
 22
0.0
 13
0.0
 23
0.0
 14
1.0
 24
1.0
 15
0.0
 25
0.0
 16
0.0
 26
0.0
 36
1.0
 17
104.9999999737534
 27
-148.4999999628701
 37
0.0
 40
302.939999924255
 41
0.7070707070707534
 42
50.0
 43
0.0
 44
0.0
 50
0.0
 51
0.0
 71
     0
 72
   100
 73
     1
 74
     0
 75
     1
 76
     0
 77
     0
 78
     0
281
     0
 65
     1
110
0.0
120
0.0
130
0.0
111
1.0
121
0.0
131
0.0
112
0.0
122
1.0
132
0.0
 79
     0
146
0.0
 60
     3
 61
     5
292
     1
282
     1
141
0.0
142
0.0
 63
   250
421
  3355443
  0
ENDTAB
  0
TABLE
  2
LTYPE
  5
5
330
0
100
AcDbSymbolTable
 70
     1
  0
LTYPE
  5
5B
330
5
100
AcDbSymbolTableRecord
100
AcDbLinetypeTableRecord
  2
ByBlock
 70
     0
  3

 72
    65
 73
     0
 40
0.0
  0
LTYPE
  5
5C
330
5
100
AcDbSymbolTableRecord
100
AcDbLinetypeTableRecord
  2
ByLayer
 70
     0
  3

 72
    65
 73
     0
 40
0.0
  0
LTYPE
  5
5D
330
5
100
AcDbSymbolTableRecord
100
AcDbLinetypeTableRecord
  2
Continuous
 70
     0
  3
Solid line
 72
    65
 73
     0
 40
0.0
  0
ENDTAB
  0
TABLE
  2
LAYER
  5
2
330
0
100
AcDbSymbolTable
 70
     2
  0
LAYER
  5
54
330
2
100
AcDbSymbolTableRecord
100
AcDbLayerTableRecord
  2
0
 70
     0
 62
     7
  6
Continuous
370
    -3
390
F
347
21
  0
LAYER
  5
78
330
2
100
AcDbSymbolTableRecord
100
AcDbLayerTableRecord
  2
レイヤー 1
 70
     0
 62
     7
  6
Continuous
370
     0
390
F
347
21
  0
ENDTAB
  0
TABLE
  2
STYLE
  5
3
330
0
100
AcDbSymbolTable
 70
     2
  0
STYLE
  5
55
330
3
100
AcDbSymbolTableRecord
100
AcDbTextStyleTableRecord
  2
Standard
 70
     0
 40
0.0
 41
1.0
 50
0.0
 71
     0
 42
0.2
  3
txt
  4

  0
STYLE
  5
5A
330
3
100
AcDbSymbolTableRecord
100
AcDbTextStyleTableRecord
  2
Annotative
 70
     0
 40
0.0
 41
1.0
 50
0.0
 71
     0
 42
0.2
  3
txt
  4

1001
AcadAnnotative
1000
AnnotativeData
1002
{
1070
     1
1070
     1
1002
}
  0
ENDTAB
  0
TABLE
  2
VIEW
  5
6
330
0
100
AcDbSymbolTable
 70
     0
  0
ENDTAB
  0
TABLE
  2
UCS
  5
7
330
0
100
AcDbSymbolTable
 70
     0
  0
ENDTAB
  0
TABLE
  2
APPID
  5
9
330
0
100
AcDbSymbolTable
 70
     2
  0
APPID
  5
56
330
9
100
AcDbSymbolTableRecord
100
AcDbRegAppTableRecord
  2
ACAD
 70
     0
  0
APPID
  5
5E
330
9
100
AcDbSymbolTableRecord
100
AcDbRegAppTableRecord
  2
AcadAnnotative
 70
     0
  0
ENDTAB
  0
TABLE
  2
DIMSTYLE
  5
A
330
0
100
AcDbSymbolTable
 70
     2
100
AcDbDimStyleTable
 71
     0
  0
DIMSTYLE
105
58
330
A
100
AcDbSymbolTableRecord
100
AcDbDimStyleTableRecord
  2
Standard
 70
     0
340
55
  0
DIMSTYLE
105
59
330
A
100
AcDbSymbolTableRecord
100
AcDbDimStyleTableRecord
  2
Annotative
 70
     0
340
55
1001
AcadAnnotative
1000
AnnotativeData
1002
{
1070
     1
1070
     1
1002
}
  0
ENDTAB
  0
TABLE
  2
BLOCK_RECORD
  5
1
330
0
100
AcDbSymbolTable
 70
    18
  0
BLOCK_RECORD
  5
70
330
1
100
AcDbSymbolTableRecord
100
AcDbBlockTableRecord
  2
*Model_Space
340
73
 70
     0
280
     1
281
     0
  0
BLOCK_RECORD
  5
6C
330
1
100
AcDbSymbolTableRecord
100
AcDbBlockTableRecord
  2
*Paper_Space
340
6F
 70
     0
280
     1
281
     0
  0
BLOCK_RECORD
  5
74
330
1
100
AcDbSymbolTableRecord
100
AcDbBlockTableRecord
  2
*Paper_Space0
340
77
 70
     0
280
     1
281
     0
  0
BLOCK_RECORD
  5
79
330
1
100
AcDbSymbolTableRecord
100
AcDbBlockTableRecord
  2
Block_0
340
0
102
{BLKREFS
331
7A
102
}
 70
     0
280
     1
281
     0
  0
BLOCK_RECORD
  5
7D
330
1
100
AcDbSymbolTableRecord
100
AcDbBlockTableRecord
  2
Block_1
340
0
102
{BLKREFS
331
7E
102
}
 70
     0
280
     1
281
     0
  0
BLOCK_RECORD
  5
81
330
1
100
AcDbSymbolTableRecord
100
AcDbBlockTableRecord
  2
Block_2
340
0
102
{BLKREFS
331
82
102
}
 70
     0
280
     1
281
     0
  0
BLOCK_RECORD
  5
8A
330
1
100
AcDbSymbolTableRecord
100
AcDbBlockTableRecord
  2
Block_3
340
0
102
{BLKREFS
331
8B
102
}
 70
     0
280
     1
281
     0
  0
BLOCK_RECORD
  5
8E
330
1
100
AcDbSymbolTableRecord
100
AcDbBlockTableRecord
  2
Block_4
340
0
102
{BLKREFS
331
8F
102
}
 70
     0
280
     1
281
     0
  0
BLOCK_RECORD
  5
97
330
1
100
AcDbSymbolTableRecord
100
AcDbBlockTableRecord
  2
Block_5
340
0
102
{BLKREFS
331
98
102
}
 70
     0
280
     1
281
     0
  0
BLOCK_RECORD
  5
9C
330
1
100
AcDbSymbolTableRecord
100
AcDbBlockTableRecord
  2
Block_6
340
0
102
{BLKREFS
331
9D
102
}
 70
     0
280
     1
281
     0
  0
BLOCK_RECORD
  5
A4
330
1
100
AcDbSymbolTableRecord
100
AcDbBlockTableRecord
  2
Block_7
340
0
102
{BLKREFS
331
A5
102
}
 70
     0
280
     1
281
     0
  0
BLOCK_RECORD
  5
A8
330
1
100
AcDbSymbolTableRecord
100
AcDbBlockTableRecord
  2
Block_8
340
0
102
{BLKREFS
331
A9
102
}
 70
     0
280
     1
281
     0
  0
BLOCK_RECORD
  5
B1
330
1
100
AcDbSymbolTableRecord
100
AcDbBlockTableRecord
  2
Block_9
340
0
102
{BLKREFS
331
B2
102
}
 70
     0
280
     1
281
     0
  0
BLOCK_RECORD
  5
B5
330
1
100
AcDbSymbolTableRecord
100
AcDbBlockTableRecord
  2
Block_10
340
0
102
{BLKREFS
331
B6
102
}
 70
     0
280
     1
281
     0
  0
BLOCK_RECORD
  5
BE
330
1
100
AcDbSymbolTableRecord
100
AcDbBlockTableRecord
  2
Block_11
340
0
102
{BLKREFS
331
BF
102
}
 70
     0
280
     1
281
     0
  0
BLOCK_RECORD
  5
C2
330
1
100
AcDbSymbolTableRecord
100
AcDbBlockTableRecord
  2
Block_12
340
0
102
{BLKREFS
331
C3
102
}
 70
     0
280
     1
281
     0
  0
BLOCK_RECORD
  5
CB
330
1
100
AcDbSymbolTableRecord
100
AcDbBlockTableRecord
  2
Block_13
340
0
102
{BLKREFS
331
CC
102
}
 70
     0
280
     1
281
     0
  0
BLOCK_RECORD
  5
CF
330
1
100
AcDbSymbolTableRecord
100
AcDbBlockTableRecord
  2
Block_14
340
0
102
{BLKREFS
331
D0
102
}
 70
     0
280
     1
281
     0
  0
BLOCK_RECORD
  5
D3
330
1
100
AcDbSymbolTableRecord
100
AcDbBlockTableRecord
  2
Block_15
340
0
102
{BLKREFS
331
D4
102
}
 70
     0
280
     1
281
     0
  0
BLOCK_RECORD
  5
F7
330
1
100
AcDbSymbolTableRecord
100
AcDbBlockTableRecord
  2
Block_16
340
0
102
{BLKREFS
331
F8
102
}
 70
     0
280
     1
281
     0
  0
ENDTAB
  0
ENDSEC
  0
SECTION
  2
BLOCKS
  0
BLOCK
  5
71
330
70
100
AcDbEntity
  8
0
100
AcDbBlockBegin
  2
*Model_Space
 70
     0
 10
0.0
 20
0.0
 30
0.0
  3
*Model_Space
  1

  0
ENDBLK
  5
72
330
70
100
AcDbEntity
  8
0
100
AcDbBlockEnd
  0
BLOCK
  5
6D
330
6C
100
AcDbEntity
 67
     1
  8
0
100
AcDbBlockBegin
  2
*Paper_Space
 70
     0
 10
0.0
 20
0.0
 30
0.0
  3
*Paper_Space
  1

  0
ENDBLK
  5
6E
330
6C
100
AcDbEntity
 67
     1
  8
0
100
AcDbBlockEnd
  0
BLOCK
  5
75
330
74
100
AcDbEntity
 67
     1
  8
0
100
AcDbBlockBegin
  2
*Paper_Space0
 70
     0
 10
0.0
 20
0.0
 30
0.0
  3
*Paper_Space0
  1

  0
ENDBLK
  5
76
330
74
100
AcDbEntity
 67
     1
  8
0
100
AcDbBlockEnd
  0
BLOCK
  5
7B
330
79
100
AcDbEntity
  8
0
100
AcDbBlockBegin
  2
Block_0
 70
     0
 10
0.0
 20
0.0
 30
0.0
  3
Block_0
  1

  0
INSERT
  5
7E
330
79
100
AcDbEntity
  8
レイヤー 1
100
AcDbBlockReference
  2
Block_1
 10
0.0
 20
0.0
 30
0.0
  0
INSERT
  5
98
330
79
100
AcDbEntity
  8
レイヤー 1
100
AcDbBlockReference
  2
Block_5
 10
0.0
 20
0.0
 30
0.0
  0
INSERT
  5
A5
330
79
100
AcDbEntity
  8
レイヤー 1
100
AcDbBlockReference
  2
Block_7
 10
0.0
 20
0.0
 30
0.0
  0
INSERT
  5
B2
330
79
100
AcDbEntity
  8
レイヤー 1
100
AcDbBlockReference
  2
Block_9
 10
0.0
 20
0.0
 30
0.0
  0
INSERT
  5
CC
330
79
100
AcDbEntity
  8
レイヤー 1
100
AcDbBlockReference
  2
Block_13
 10
0.0
 20
0.0
 30
0.0
  0
INSERT
  5
F8
330
79
100
AcDbEntity
  8
レイヤー 1
100
AcDbBlockReference
  2
Block_16
 10
0.0
 20
0.0
 30
0.0
  0
ENDBLK
  5
7C
330
79
100
AcDbEntity
  8
0
100
AcDbBlockEnd
  0
BLOCK
  5
7F
330
7D
100
AcDbEntity
  8
0
100
AcDbBlockBegin
  2
Block_1
 70
     0
 10
0.0
 20
0.0
 30
0.0
  3
Block_1
  1

  0
INSERT
  5
82
330
7D
100
AcDbEntity
  8
レイヤー 1
100
AcDbBlockReference
  2
Block_2
 10
0.0
 20
0.0
 30
0.0
  0
INSERT
  5
8B
330
7D
100
AcDbEntity
  8
レイヤー 1
100
AcDbBlockReference
  2
Block_3
 10
0.0
 20
0.0
 30
0.0
  0
ENDBLK
  5
80
330
7D
100
AcDbEntity
  8
0
100
AcDbBlockEnd
  0
BLOCK
  5
83
330
81
100
AcDbEntity
  8
0
100
AcDbBlockBegin
  2
Block_2
 70
     0
 10
0.0
 20
0.0
 30
0.0
  3
Block_2
  1

  0
SPLINE
  5
85
330
81
100
AcDbEntity
  8
レイヤー 1
 62
   250
420
  2299925
370
     9
100
AcDbSpline
210
0.0
220
0.0
230
1.0
 70
     9
 71
     3
 72
    17
 73
    13
 74
     0
 42
0.0000000001
 43
0.0000000001
 40
0.0
 40
0.0
 40
0.0
 40
0.0
 40
1.0
 40
1.0
 40
1.0
 40
2.0
 40
2.0
 40
2.0
 40
3.0
 40
3.0
 40
3.0
 40
4.0
 40
4.0
 40
4.0
 40
4.0
 10
102.1281031936952
 20
-163.2958008517467
 30
0.0
 10
102.1281031936952
 20
-163.2399914087261
 30
0.0
 10
102.0833004159285
 20
-163.1951886320913
 30
0.0
 10
102.0281965270533
 20
-163.1951886320913
 30
0.0
 10
101.9730573604005
 20
-163.1951886320913
 30
0.0
 10
101.9282898604116
 20
-163.2399914087261
 30
0.0
 10
101.9282898604116
 20
-163.2958008517467
 30
0.0
 10
101.9282898604116
 20
-163.3509047392298
 30
0.0
 10
101.9730573604005
 20
-163.3957075158645
 30
0.0
 10
102.0281965270533
 20
-163.3957075158645
 30
0.0
 10
102.0833004159285
 20
-163.3957075158645
 30
0.0
 10
102.1281031936952
 20
-163.3509047392298
 30
0.0
 10
102.1281031936952
 20
-163.2958008517467
 30
0.0
  0
SPLINE
  5
86
330
81
100
AcDbEntity
  8
レイヤー 1
 62
   250
420
  2299925
370
     9
100
AcDbSpline
210
0.0
220
0.0
230
1.0
 70
     9
 71
     3
 72
    17
 73
    13
 74
     0
 42
0.0000000001
 43
0.0000000001
 40
0.0
 40
0.0
 40
0.0
 40
0.0
 40
1.0
 40
1.0
 40
1.0
 40
2.0
 40
2.0
 40
2.0
 40
3.0
 40
3.0
 40
3.0
 40
4.0
 40
4.0
 40
4.0
 40
4.0
 10
122.154513510983
 20
-163.2958008517467
 30
0.0
 10
122.154513510983
 20
-163.2399914087261
 30
0.0
 10
122.1097107343482
 20
-163.1951886320913
 30
0.0
 10
122.0546068468651
 20
-163.1951886320913
 30
0.0
 10
121.9994676816052
 20
-163.1951886320913
 30
0.0
 10
121.9547013184648
 20
-163.2399914087261
 30
0.0
 10
121.9547013184648
 20
-163.2958008517467
 30
0.0
 10
121.9547013184648
 20
-163.3509047392298
 30
0.0
 10
121.9994676816052
 20
-163.3957075158645
 30
0.0
 10
122.0546068468651
 20
-163.3957075158645
 30
0.0
 10
122.1097107343482
 20
-163.3957075158645
 30
0.0
 10
122.154513510983
 20
-163.3509047392298
 30
0.0
 10
122.154513510983
 20
-163.2958008517467
 30
0.0
  0
LINE
  5
87
330
81
100
AcDbEntity
  8
レイヤー 1
 62
   250
420
  2299925
370
     9
100
AcDbLine
 10
102.0546074402394
 20
-163.2958008517467
 30
0.0
 11
122.054607435239
 21
-163.2958008517467
 31
0.0
  0
LINE
  5
88
330
81
100
AcDbEntity
  8
レイヤー 1
 62
   250
420
  2299925
370
     9
100
AcDbLine
 10
102.0281965270533
 20
-161.0358006316263
 30
0.0
 11
102.0281965270533
 21
-164.2955730484626
 31
0.0
  0
LINE
  5
89
330
81
100
AcDbEntity
  8
レイヤー 1
 62
   250
420
  2299925
370
     9
100
AcDbLine
 10
122.0546068468651
 20
-161.5353339522155
 30
0.0
 11
122.0546068468651
 21
-164.2955730484626
 31
0.0
  0
ENDBLK
  5
84
330
81
100
AcDbEntity
  8
0
100
AcDbBlockEnd
  0
BLOCK
  5
8C
330
8A
100
AcDbEntity
  8
0
100
AcDbBlockBegin
  2
Block_3
 70
     0
 10
0.0
 20
0.0
 30
0.0
  3
Block_3
  1

  0
INSERT
  5
8F
330
8A
100
AcDbEntity
  8
レイヤー 1
100
AcDbBlockReference
  2
Block_4
 10
0.0
 20
0.0
 30
0.0
  0
ENDBLK
  5
8D
330
8A
100
AcDbEntity
  8
0
100
AcDbBlockEnd
  0
BLOCK
  5
90
330
8E
100
AcDbEntity
  8
0
100
AcDbBlockBegin
  2
Block_4
 70
     0
 10
0.0
 20
0.0
 30
0.0
  3
Block_4
  1

  0
SPLINE
  5
92
330
8E
100
AcDbEntity
  8
レイヤー 1
100
AcDbSpline
210
0.0
220
0.0
230
1.0
 70
     9
 71
     3
 72
    44
 73
    40
 74
     0
 42
0.0000000001
 43
0.0000000001
 40
0.0
 40
0.0
 40
0.0
 40
0.0
 40
1.0
 40
1.0
 40
1.0
 40
2.0
 40
2.0
 40
2.0
 40
3.0
 40
3.0
 40
3.0
 40
4.0
 40
4.0
 40
4.0
 40
5.0
 40
5.0
 40
5.0
 40
6.0
 40
6.0
 40
6.0
 40
7.0
 40
7.0
 40
7.0
 40
8.0
 40
8.0
 40
8.0
 40
9.0
 40
9.0
 40
9.0
 40
10.0
 40
10.0
 40
10.0
 40
11.0
 40
11.0
 40
11.0
 40
12.0
 40
12.0
 40
12.0
 40
13.0
 40
13.0
 40
13.0
 40
13.0
 10
111.5456461309677
 20
-162.0004475506457
 30
0.0
 10
111.3279160962999
 20
-162.1592664525157
 30
0.0
 10
111.2348985181982
 20
-162.2333360054486
 30
0.0
 10
111.1859781623077
 20
-162.3769964871835
 30
0.0
 10
111.1859781623077
 20
-162.3769964871835
 30
0.0
 10
111.9645697419741
 20
-162.3769964871835
 30
0.0
 10
111.9645697419741
 20
-162.3769964871835
 30
0.0
 10
111.9645697419741
 20
-162.3769964871835
 30
0.0
 10
111.9645697419741
 20
-162.5823241781044
 30
0.0
 10
111.9645697419741
 20
-162.5823241781044
 30
0.0
 10
111.9645697419741
 20
-162.5823241781044
 30
0.0
 10
110.9365532491756
 20
-162.5823241781044
 30
0.0
 10
110.9365532491756
 20
-162.5823241781044
 30
0.0
 10
110.9682481276399
 20
-162.2247232667355
 30
0.0
 10
111.0337049418596
 20
-162.1465195992203
 30
0.0
 10
111.4188666171106
 20
-161.8481743301977
 30
0.0
 10
111.6748372116646
 20
-161.6493923206988
 30
0.0
 10
111.7402940258844
 20
-161.5815239396393
 30
0.0
 10
111.7402940258844
 20
-161.4440646297778
 30
0.0
 10
111.7402940258844
 20
-161.3255533450853
 30
0.0
 10
111.6682915302426
 20
-161.1946397166458
 30
0.0
 10
111.4715765780349
 20
-161.1946397166458
 30
0.0
 10
111.2114718688985
 20
-161.1946397166458
 30
0.0
 10
111.2032036397339
 20
-161.425116604609
 30
0.0
 10
111.1987250156031
 20
-161.5415608320104
 30
0.0
 10
111.1987250156031
 20
-161.5415608320104
 30
0.0
 10
110.9744492995133
 20
-161.5415608320104
 30
0.0
 10
110.9744492995133
 20
-161.5415608320104
 30
0.0
 10
110.9830620382264
 20
-161.4144368086047
 30
0.0
 10
110.9937418342307
 20
-161.3024712053341
 30
0.0
 10
111.074012559037
 20
-161.1839599206415
 30
0.0
 10
111.1839111050165
 20
-161.0230739614803
 30
0.0
 10
111.3702907707685
 20
-160.9893120257249
 30
0.0
 10
111.4863904886215
 20
-160.9893120257249
 30
0.0
 10
111.763720675184
 20
-160.9893120257249
 30
0.0
 10
111.9711154233961
 20
-161.1732801246372
 30
0.0
 10
111.9711154233961
 20
-161.446131687069
 30
0.0
 10
111.9711154233961
 20
-161.6748860272896
 30
0.0
 10
111.8546711959947
 20
-161.7741047772648
 30
0.0
 10
111.5456461309677
 20
-162.0004475506457
 30
0.0
  0
HATCH
  5
93
330
8E
100
AcDbEntity
  8
レイヤー 1
 62
   250
420
  2299925
440
 33554687
100
AcDbHatch
 10
0.0
 20
0.0
 30
0.0
210
0.0
220
0.0
230
1.0
  2
SOLID
 70
     1
 71
     1
 91
        1
 92
        1
 93
        1
 72
     4
 94
        3
 73
     0
 74
     0
 95
       44
 96
       40
 40
0.0
 40
0.0
 40
0.0
 40
0.0
 40
1.0
 40
1.0
 40
1.0
 40
2.0
 40
2.0
 40
2.0
 40
3.0
 40
3.0
 40
3.0
 40
4.0
 40
4.0
 40
4.0
 40
5.0
 40
5.0
 40
5.0
 40
6.0
 40
6.0
 40
6.0
 40
7.0
 40
7.0
 40
7.0
 40
8.0
 40
8.0
 40
8.0
 40
9.0
 40
9.0
 40
9.0
 40
10.0
 40
10.0
 40
10.0
 40
11.0
 40
11.0
 40
11.0
 40
12.0
 40
12.0
 40
12.0
 40
13.0
 40
13.0
 40
13.0
 40
13.0
 10
111.5456461309677
 20
-162.0004475506457
 10
111.3279160962999
 20
-162.1592664525157
 10
111.2348985181982
 20
-162.2333360054486
 10
111.1859781623077
 20
-162.3769964871835
 10
111.1859781623077
 20
-162.3769964871835
 10
111.9645697419741
 20
-162.3769964871835
 10
111.9645697419741
 20
-162.3769964871835
 10
111.9645697419741
 20
-162.3769964871835
 10
111.9645697419741
 20
-162.5823241781044
 10
111.9645697419741
 20
-162.5823241781044
 10
111.9645697419741
 20
-162.5823241781044
 10
110.9365532491756
 20
-162.5823241781044
 10
110.9365532491756
 20
-162.5823241781044
 10
110.9682481276399
 20
-162.2247232667355
 10
111.0337049418596
 20
-162.1465195992203
 10
111.4188666171106
 20
-161.8481743301977
 10
111.6748372116646
 20
-161.6493923206988
 10
111.7402940258844
 20
-161.5815239396393
 10
111.7402940258844
 20
-161.4440646297778
 10
111.7402940258844
 20
-161.3255533450853
 10
111.6682915302426
 20
-161.1946397166458
 10
111.4715765780349
 20
-161.1946397166458
 10
111.2114718688985
 20
-161.1946397166458
 10
111.2032036397339
 20
-161.425116604609
 10
111.1987250156031
 20
-161.5415608320104
 10
111.1987250156031
 20
-161.5415608320104
 10
110.9744492995133
 20
-161.5415608320104
 10
110.9744492995133
 20
-161.5415608320104
 10
110.9830620382264
 20
-161.4144368086047
 10
110.9937418342307
 20
-161.3024712053341
 10
111.074012559037
 20
-161.1839599206415
 10
111.1839111050165
 20
-161.0230739614803
 10
111.3702907707685
 20
-160.9893120257249
 10
111.4863904886215
 20
-160.9893120257249
 10
111.763720675184
 20
-160.9893120257249
 10
111.9711154233961
 20
-161.1732801246372
 10
111.9711154233961
 20
-161.446131687069
 10
111.9711154233961
 20
-161.6748860272896
 10
111.8546711959947
 20
-161.7741047772648
 10
111.5456461309677
 20
-162.0004475506457
 97
        0
 97
        1
330
92
 75
     2
 76
     1
 98
        1
 10
0.0
 20
0.0
450
        0
451
        0
460
0.0
461
0.0
452
        0
462
0.0
453
        0
470

  0
SPLINE
  5
94
330
8E
100
AcDbEntity
  8
レイヤー 1
100
AcDbSpline
210
0.0
220
0.0
230
1.0
 70
     9
 71
     3
 72
    17
 73
    13
 74
     0
 42
0.0000000001
 43
0.0000000001
 40
0.0
 40
0.0
 40
0.0
 40
0.0
 40
1.0
 40
1.0
 40
1.0
 40
2.0
 40
2.0
 40
2.0
 40
3.0
 40
3.0
 40
3.0
 40
4.0
 40
4.0
 40
4.0
 40
4.0
 10
112.6294731706273
 20
-161.1818928633503
 30
0.0
 10
112.3800482574953
 20
-161.1818928633503
 30
0.0
 10
112.3331949588958
 20
-161.4654242217864
 30
0.0
 10
112.3331949588958
 20
-161.8102782798599
 30
0.0
 10
112.3331949588958
 20
-162.1296386313426
 30
0.0
 10
112.369368461491
 20
-162.438319186821
 30
0.0
 10
112.6294731706273
 20
-162.438319186821
 30
0.0
 10
112.8771755360168
 20
-162.438319186821
 30
0.0
 10
112.9257513823588
 20
-162.1571993952246
 30
0.0
 10
112.9257513823588
 20
-161.8102782798599
 30
0.0
 10
112.9257513823588
 20
-161.4905734188287
 30
0.0
 10
112.8875108224725
 20
-161.1818928633503
 30
0.0
 10
112.6294731706273
 20
-161.1818928633503
 30
0.0
  0
SPLINE
  5
95
330
8E
100
AcDbEntity
  8
レイヤー 1
100
AcDbSpline
210
0.0
220
0.0
230
1.0
 70
     9
 71
     3
 72
    29
 73
    25
 74
     0
 42
0.0000000001
 43
0.0000000001
 40
0.0
 40
0.0
 40
0.0
 40
0.0
 40
1.0
 40
1.0
 40
1.0
 40
2.0
 40
2.0
 40
2.0
 40
3.0
 40
3.0
 40
3.0
 40
4.0
 40
4.0
 40
4.0
 40
5.0
 40
5.0
 40
5.0
 40
6.0
 40
6.0
 40
6.0
 40
7.0
 40
7.0
 40
7.0
 40
8.0
 40
8.0
 40
8.0
 40
8.0
 10
113.0273816991737
 20
-162.4045572510655
 30
0.0
 10
112.9192057009368
 20
-162.6140190565687
 30
0.0
 10
112.7459173980288
 20
-162.6329670817376
 30
0.0
 10
112.6294731706273
 20
-162.6329670817376
 30
0.0
 10
112.4685872114662
 20
-162.6329670817376
 30
0.0
 10
112.3269937870224
 20
-162.5864582926867
 30
0.0
 10
112.2319091516295
 20
-162.4045572510655
 30
0.0
 10
112.1282117775235
 20
-162.2099093561489
 30
0.0
 10
112.1092637523546
 20
-161.9728867867637
 30
0.0
 10
112.1092637523546
 20
-161.8102782798599
 30
0.0
 10
112.1092637523546
 20
-161.6662732885765
 30
0.0
 10
112.1261447202323
 20
-161.4144368086047
 30
0.0
 10
112.2319091516295
 20
-161.2156547991058
 30
0.0
 10
112.3397406403178
 20
-161.0127386750246
 30
0.0
 10
112.500626599479
 20
-160.9893120257249
 30
0.0
 10
112.6294731706273
 20
-160.9893120257249
 30
0.0
 10
112.7882920724973
 20
-160.9893120257249
 30
0.0
 10
112.9319525542323
 20
-161.0337537574846
 30
0.0
 10
113.0273816991737
 20
-161.2156547991058
 30
0.0
 10
113.1266004491489
 20
-161.4082356367313
 30
0.0
 10
113.1500270984486
 20
-161.6366454674033
 30
0.0
 10
113.1500270984486
 20
-161.8102782798599
 30
0.0
 10
113.1500270984486
 20
-161.9814995254768
 30
0.0
 10
113.12866750644
 20
-162.21197641344
 30
0.0
 10
113.0273816991737
 20
-162.4045572510655
 30
0.0
  0
HATCH
  5
96
330
8E
100
AcDbEntity
  8
レイヤー 1
 62
   250
420
  2299925
440
 33554687
100
AcDbHatch
 10
0.0
 20
0.0
 30
0.0
210
0.0
220
0.0
230
1.0
  2
SOLID
 70
     1
 71
     1
 91
        2
 92
        1
 93
        1
 72
     4
 94
        3
 73
     0
 74
     0
 95
       17
 96
       13
 40
0.0
 40
0.0
 40
0.0
 40
0.0
 40
1.0
 40
1.0
 40
1.0
 40
2.0
 40
2.0
 40
2.0
 40
3.0
 40
3.0
 40
3.0
 40
4.0
 40
4.0
 40
4.0
 40
4.0
 10
112.6294731706273
 20
-161.1818928633503
 10
112.3800482574953
 20
-161.1818928633503
 10
112.3331949588958
 20
-161.4654242217864
 10
112.3331949588958
 20
-161.8102782798599
 10
112.3331949588958
 20
-162.1296386313426
 10
112.369368461491
 20
-162.438319186821
 10
112.6294731706273
 20
-162.438319186821
 10
112.8771755360168
 20
-162.438319186821
 10
112.9257513823588
 20
-162.1571993952246
 10
112.9257513823588
 20
-161.8102782798599
 10
112.9257513823588
 20
-161.4905734188287
 10
112.8875108224725
 20
-161.1818928633503
 10
112.6294731706273
 20
-161.1818928633503
 97
        0
 97
        1
330
94
 92
        1
 93
        1
 72
     4
 94
        3
 73
     0
 74
     0
 95
       29
 96
       25
 40
0.0
 40
0.0
 40
0.0
 40
0.0
 40
1.0
 40
1.0
 40
1.0
 40
2.0
 40
2.0
 40
2.0
 40
3.0
 40
3.0
 40
3.0
 40
4.0
 40
4.0
 40
4.0
 40
5.0
 40
5.0
 40
5.0
 40
6.0
 40
6.0
 40
6.0
 40
7.0
 40
7.0
 40
7.0
 40
8.0
 40
8.0
 40
8.0
 40
8.0
 10
113.0273816991737
 20
-162.4045572510655
 10
112.9192057009368
 20
-162.6140190565687
 10
112.7459173980288
 20
-162.6329670817376
 10
112.6294731706273
 20
-162.6329670817376
 10
112.4685872114662
 20
-162.6329670817376
 10
112.3269937870224
 20
-162.5864582926867
 10
112.2319091516295
 20
-162.4045572510655
 10
112.1282117775235
 20
-162.2099093561489
 10
112.1092637523546
 20
-161.9728867867637
 10
112.1092637523546
 20
-161.8102782798599
 10
112.1092637523546
 20
-161.6662732885765
 10
112.1261447202323
 20
-161.4144368086047
 10
112.2319091516295
 20
-161.2156547991058
 10
112.3397406403178
 20
-161.0127386750246
 10
112.500626599479
 20
-160.9893120257249
 10
112.6294731706273
 20
-160.9893120257249
 10
112.7882920724973
 20
-160.9893120257249
 10
112.9319525542323
 20
-161.0337537574846
 10
113.0273816991737
 20
-161.2156547991058
 10
113.1266004491489
 20
-161.4082356367313
 10
113.1500270984486
 20
-161.6366454674033
 10
113.1500270984486
 20
-161.8102782798599
 10
113.1500270984486
 20
-161.9814995254768
 10
113.12866750644
 20
-162.21197641344
 10
113.0273816991737
 20
-162.4045572510655
 97
        0
 97
        1
330
95
 75
     2
 76
     1
 98
        1
 10
0.0
 20
0.0
450
        0
451
        0
460
0.0
461
0.0
452
        0
462
0.0
453
        0
470

  0
ENDBLK
  5
91
330
8E
100
AcDbEntity
  8
0
100
AcDbBlockEnd
  0
BLOCK
  5
99
330
97
100
AcDbEntity
  8
0
100
AcDbBlockBegin
  2
Block_5
 70
     0
 10
0.0
 20
0.0
 30
0.0
  3
Block_5
  1

  0
LINE
  5
9B
330
97
100
AcDbEntity
  8
レイヤー 1
 62
   250
420
  2299925
370
     9
100
AcDbLine
 10
92.54362084765068
 20
-155.0470107858866
 30
0.0
 11
99.61431056810473
 21
-162.1177356054974
 31
0.0
  0
INSERT
  5
9D
330
97
100
AcDbEntity
  8
レイヤー 1
100
AcDbBlockReference
  2
Block_6
 10
0.0
 20
0.0
 30
0.0
  0
ENDBLK
  5
9A
330
97
100
AcDbEntity
  8
0
100
AcDbBlockEnd
  0
BLOCK
  5
9E
330
9C
100
AcDbEntity
  8
0
100
AcDbBlockBegin
  2
Block_6
 70
     0
 10
0.0
 20
0.0
 30
0.0
  3
Block_6
  1

  0
SPLINE
  5
A0
330
9C
100
AcDbEntity
  8
レイヤー 1
 62
   250
420
  2299925
370
     9
100
AcDbSpline
210
0.0
220
0.0
230
1.0
 70
     9
 71
     3
 72
    17
 73
    13
 74
     0
 42
0.0000000001
 43
0.0000000001
 40
0.0
 40
0.0
 40
0.0
 40
0.0
 40
1.0
 40
1.0
 40
1.0
 40
2.0
 40
2.0
 40
2.0
 40
3.0
 40
3.0
 40
3.0
 40
4.0
 40
4.0
 40
4.0
 40
4.0
 10
92.643527514292
 20
-155.0470107858866
 30
0.0
 10
92.64352751429298
 20
-154.9919068984035
 30
0.0
 10
92.59872473652592
 20
-154.9471041217688
 30
0.0
 10
92.54362084765038
 20
-154.9471041217688
 30
0.0
 10
92.48781140321993
 20
-154.9471041217688
 30
0.0
 10
92.44300862545321
 20
-154.9919068984029
 30
0.0
 10
92.44300862545385
 20
-155.0470107858866
 30
0.0
 10
92.44300862545385
 20
-155.1021499511465
 30
0.0
 10
92.48781140321993
 20
-155.1469527277813
 30
0.0
 10
92.54362084765038
 20
-155.1469527277813
 30
0.0
 10
92.59872473652592
 20
-155.1469527277813
 30
0.0
 10
92.64352751429234
 20
-155.1021499511465
 30
0.0
 10
92.643527514292
 20
-155.0470107858866
 30
0.0
  0
CIRCLE
  5
A1
330
9C
100
AcDbEntity
  8
レイヤー 1
 62
   250
420
  2299925
370
     9
100
AcDbCircle
 10
99.61431056810489
 20
-162.1177356054974
 30
0.0
 40
0.0999066653796563
  0
LINE
  5
A2
330
9C
100
AcDbEntity
  8
レイヤー 1
 62
   250
420
  2299925
370
     9
100
AcDbLine
 10
93.57574279183703
 20
-154.0148888677731
 30
0.0
 11
91.83598390338376
 21
-155.7539774345164
 31
0.0
  0
LINE
  5
A3
330
9C
100
AcDbEntity
  8
レイヤー 1
 62
   250
420
  2299925
370
     9
100
AcDbLine
 10
100.6464677900692
 20
-161.0855784096071
 30
0.0
 11
98.90737917939333
 21
-162.8253725318885
 31
0.0
  0
ENDBLK
  5
9F
330
9C
100
AcDbEntity
  8
0
100
AcDbBlockEnd
  0
BLOCK
  5
A6
330
A4
100
AcDbEntity
  8
0
100
AcDbBlockBegin
  2
Block_7
 70
     0
 10
0.0
 20
0.0
 30
0.0
  3
Block_7
  1

  0
INSERT
  5
A9
330
A4
100
AcDbEntity
  8
レイヤー 1
100
AcDbBlockReference
  2
Block_8
 10
0.0
 20
0.0
 30
0.0
  0
ENDBLK
  5
A7
330
A4
100
AcDbEntity
  8
0
100
AcDbBlockEnd
  0
BLOCK
  5
AA
330
A8
100
AcDbEntity
  8
0
100
AcDbBlockBegin
  2
Block_8
 70
     0
 10
0.0
 20
0.0
 30
0.0
  3
Block_8
  1

  0
SPLINE
  5
AC
330
A8
100
AcDbEntity
  8
レイヤー 1
100
AcDbSpline
210
0.0
220
0.0
230
1.0
 70
    11
 71
     3
 72
    26
 73
    22
 74
     0
 42
0.0000000001
 43
0.0000000001
 40
0.0
 40
0.0
 40
0.0
 40
0.0
 40
1.0
 40
1.0
 40
1.0
 40
2.0
 40
2.0
 40
2.0
 40
3.0
 40
3.0
 40
3.0
 40
4.0
 40
4.0
 40
4.0
 40
5.0
 40
5.0
 40
5.0
 40
6.0
 40
6.0
 40
6.0
 40
7.0
 40
7.0
 40
7.0
 40
7.0
 10
96.07079397554828
 20
-157.7157822956405
 30
0.0
 10
96.07079397554828
 20
-157.7157822956405
 30
0.0
 10
96.85162486728016
 20
-156.9347791491343
 30
0.0
 10
96.85162486728016
 20
-156.9347791491343
 30
0.0
 10
96.85162486728016
 20
-156.9347791491343
 30
0.0
 10
96.61839190292873
 20
-156.7015461847829
 30
0.0
 10
96.61839190292873
 20
-156.7015461847829
 30
0.0
 10
96.61839190292873
 20
-156.7015461847829
 30
0.0
 10
96.72312280568034
 20
-156.5968152820313
 30
0.0
 10
96.72312280568034
 20
-156.5968152820313
 30
0.0
 10
96.96824134945586
 20
-156.8210909981211
 30
0.0
 10
97.11655271009586
 20
-156.7390977255722
 30
0.0
 10
97.21835528168499
 20
-156.6791530641288
 30
0.0
 10
97.21835528168499
 20
-156.6791530641288
 30
0.0
 10
97.32136363669397
 20
-156.7821614191378
 30
0.0
 10
97.32136363669397
 20
-156.7821614191378
 30
0.0
 10
97.32136363669397
 20
-156.7821614191378
 30
0.0
 10
96.22926836786977
 20
-157.874256687962
 30
0.0
 10
96.22926836786977
 20
-157.874256687962
 30
0.0
 10
96.22926836786977
 20
-157.874256687962
 30
0.0
 10
96.07079397554828
 20
-157.7157822956405
 30
0.0
 10
96.07079397554828
 20
-157.7157822956405
 30
0.0
  0
HATCH
  5
AD
330
A8
100
AcDbEntity
  8
レイヤー 1
 62
   250
420
  2299925
440
 33554687
100
AcDbHatch
 10
0.0
 20
0.0
 30
0.0
210
0.0
220
0.0
230
1.0
  2
SOLID
 70
     1
 71
     1
 91
        1
 92
        1
 93
        1
 72
     4
 94
        3
 73
     0
 74
     0
 95
       26
 96
       22
 40
0.0
 40
0.0
 40
0.0
 40
0.0
 40
1.0
 40
1.0
 40
1.0
 40
2.0
 40
2.0
 40
2.0
 40
3.0
 40
3.0
 40
3.0
 40
4.0
 40
4.0
 40
4.0
 40
5.0
 40
5.0
 40
5.0
 40
6.0
 40
6.0
 40
6.0
 40
7.0
 40
7.0
 40
7.0
 40
7.0
 10
96.07079397554828
 20
-157.7157822956405
 10
96.07079397554828
 20
-157.7157822956405
 10
96.85162486728016
 20
-156.9347791491343
 10
96.85162486728016
 20
-156.9347791491343
 10
96.85162486728016
 20
-156.9347791491343
 10
96.61839190292873
 20
-156.7015461847829
 10
96.61839190292873
 20
-156.7015461847829
 10
96.61839190292873
 20
-156.7015461847829
 10
96.72312280568034
 20
-156.5968152820313
 10
96.72312280568034
 20
-156.5968152820313
 10
96.96824134945586
 20
-156.8210909981211
 10
97.11655271009586
 20
-156.7390977255722
 10
97.21835528168499
 20
-156.6791530641288
 10
97.21835528168499
 20
-156.6791530641288
 10
97.32136363669397
 20
-156.7821614191378
 10
97.32136363669397
 20
-156.7821614191378
 10
97.32136363669397
 20
-156.7821614191378
 10
96.22926836786977
 20
-157.874256687962
 10
96.22926836786977
 20
-157.874256687962
 10
96.22926836786977
 20
-157.874256687962
 10
96.07079397554828
 20
-157.7157822956405
 10
96.07079397554828
 20
-157.7157822956405
 97
        0
 97
        1
330
AC
 75
     2
 76
     1
 98
        1
 10
0.0
 20
0.0
450
        0
451
        0
460
0.0
461
0.0
452
        0
462
0.0
453
        0
470

  0
SPLINE
  5
AE
330
A8
100
AcDbEntity
  8
レイヤー 1
100
AcDbSpline
210
0.0
220
0.0
230
1.0
 70
     9
 71
     3
 72
    17
 73
    13
 74
     0
 42
0.0000000001
 43
0.0000000001
 40
0.0
 40
0.0
 40
0.0
 40
0.0
 40
1.0
 40
1.0
 40
1.0
 40
2.0
 40
2.0
 40
2.0
 40
3.0
 40
3.0
 40
3.0
 40
4.0
 40
4.0
 40
4.0
 40
4.0
 10
97.92770044209795
 20
-157.5917588581715
 30
0.0
 10
97.75131155325315
 20
-157.4153699693267
 30
0.0
 10
97.51773407935321
 20
-157.5828016099098
 30
0.0
 10
97.27382131899751
 20
-157.8267143702655
 30
0.0
 10
97.04799530993939
 20
-158.0527126340979
 30
0.0
 10
96.8550699627654
 20
-158.2966253944536
 30
0.0
 10
97.03903806167774
 20
-158.480593493366
 30
0.0
 10
97.21439342187697
 20
-158.6559488535652
 30
0.0
 10
97.44745413145411
 20
-158.4909287798217
 30
0.0
 10
97.6927449300039
 20
-158.2456379812719
 30
0.0
 10
97.9187431938363
 20
-158.0196397174395
 30
0.0
 10
98.11029050281618
 20
-157.7743489188897
 30
0.0
 10
97.92770044209795
 20
-157.5917588581715
 30
0.0
  0
SPLINE
  5
AF
330
A8
100
AcDbEntity
  8
レイヤー 1
100
AcDbSpline
210
0.0
220
0.0
230
1.0
 70
     9
 71
     3
 72
    29
 73
    25
 74
     0
 42
0.0000000001
 43
0.0000000001
 40
0.0
 40
0.0
 40
0.0
 40
0.0
 40
1.0
 40
1.0
 40
1.0
 40
2.0
 40
2.0
 40
2.0
 40
3.0
 40
3.0
 40
3.0
 40
4.0
 40
4.0
 40
4.0
 40
5.0
 40
5.0
 40
5.0
 40
6.0
 40
6.0
 40
6.0
 40
7.0
 40
7.0
 40
7.0
 40
8.0
 40
8.0
 40
8.0
 40
8.0
 10
97.34444577644515
 20
-158.7379421261141
 30
0.0
 10
97.11982555080686
 20
-158.8096001122073
 30
0.0
 10
96.98374427913948
 20
-158.7003905853249
 30
0.0
 10
96.90140649704202
 20
-158.6180528032274
 30
0.0
 10
96.78771834602876
 20
-158.5043646522142
 30
0.0
 10
96.72036672929214
 20
-158.3713839664835
 30
0.0
 10
96.78186168370384
 20
-158.1753580333728
 30
0.0
 10
96.84611271450377
 20
-157.9645181896755
 30
0.0
 10
97.00010848269442
 20
-157.7833061671514
 30
0.0
 10
97.11534692667603
 20
-157.6682399779441
 30
0.0
 10
97.21714949826516
 20
-157.5666096611292
 30
0.0
 10
97.40714651427669
 20
-157.4005560587401
 30
0.0
 10
97.6224649821048
 20
-157.3347547349719
 30
0.0
 10
97.84260658361226
 20
-157.2675753730095
 30
0.0
 10
97.97283119295471
 20
-157.3647270656935
 30
0.0
 10
98.06378171376531
 20
-157.4556775865041
 30
0.0
 10
98.17609182658445
 20
-157.5679876993232
 30
0.0
 10
98.24637177448355
 20
-157.7009683850539
 30
0.0
 10
98.1850490748461
 20
-157.8973388277132
 30
0.0
 10
98.11924775107783
 20
-158.1037000472796
 30
0.0
 10
97.97420923114882
 20
-158.281811483867
 30
0.0
 10
97.85156383187391
 20
-158.4044568831419
 30
0.0
 10
97.73029647079312
 20
-158.5257242442227
 30
0.0
 10
97.55218503420572
 20
-158.6735188405399
 30
0.0
 10
97.34444577644515
 20
-158.7379421261141
 30
0.0
  0
HATCH
  5
B0
330
A8
100
AcDbEntity
  8
レイヤー 1
 62
   250
420
  2299925
440
 33554687
100
AcDbHatch
 10
0.0
 20
0.0
 30
0.0
210
0.0
220
0.0
230
1.0
  2
SOLID
 70
     1
 71
     1
 91
        2
 92
        1
 93
        1
 72
     4
 94
        3
 73
     0
 74
     0
 95
       17
 96
       13
 40
0.0
 40
0.0
 40
0.0
 40
0.0
 40
1.0
 40
1.0
 40
1.0
 40
2.0
 40
2.0
 40
2.0
 40
3.0
 40
3.0
 40
3.0
 40
4.0
 40
4.0
 40
4.0
 40
4.0
 10
97.92770044209795
 20
-157.5917588581715
 10
97.75131155325315
 20
-157.4153699693267
 10
97.51773407935321
 20
-157.5828016099098
 10
97.27382131899751
 20
-157.8267143702655
 10
97.04799530993939
 20
-158.0527126340979
 10
96.8550699627654
 20
-158.2966253944536
 10
97.03903806167774
 20
-158.480593493366
 10
97.21439342187697
 20
-158.6559488535652
 10
97.44745413145411
 20
-158.4909287798217
 10
97.6927449300039
 20
-158.2456379812719
 10
97.9187431938363
 20
-158.0196397174395
 10
98.11029050281618
 20
-157.7743489188897
 10
97.92770044209795
 20
-157.5917588581715
 97
        0
 97
        1
330
AE
 92
        1
 93
        1
 72
     4
 94
        3
 73
     0
 74
     0
 95
       29
 96
       25
 40
0.0
 40
0.0
 40
0.0
 40
0.0
 40
1.0
 40
1.0
 40
1.0
 40
2.0
 40
2.0
 40
2.0
 40
3.0
 40
3.0
 40
3.0
 40
4.0
 40
4.0
 40
4.0
 40
5.0
 40
5.0
 40
5.0
 40
6.0
 40
6.0
 40
6.0
 40
7.0
 40
7.0
 40
7.0
 40
8.0
 40
8.0
 40
8.0
 40
8.0
 10
97.34444577644515
 20
-158.7379421261141
 10
97.11982555080686
 20
-158.8096001122073
 10
96.98374427913948
 20
-158.7003905853249
 10
96.90140649704202
 20
-158.6180528032274
 10
96.78771834602876
 20
-158.5043646522142
 10
96.72036672929214
 20
-158.3713839664835
 10
96.78186168370384
 20
-158.1753580333728
 10
96.84611271450377
 20
-157.9645181896755
 10
97.00010848269442
 20
-157.7833061671514
 10
97.11534692667603
 20
-157.6682399779441
 10
97.21714949826516
 20
-157.5666096611292
 10
97.40714651427669
 20
-157.4005560587401
 10
97.6224649821048
 20
-157.3347547349719
 10
97.84260658361226
 20
-157.2675753730095
 10
97.97283119295471
 20
-157.3647270656935
 10
98.06378171376531
 20
-157.4556775865041
 10
98.17609182658445
 20
-157.5679876993232
 10
98.24637177448355
 20
-157.7009683850539
 10
98.1850490748461
 20
-157.8973388277132
 10
98.11924775107783
 20
-158.1037000472796
 10
97.97420923114882
 20
-158.281811483867
 10
97.85156383187391
 20
-158.4044568831419
 10
97.73029647079312
 20
-158.5257242442227
 10
97.55218503420572
 20
-158.6735188405399
 10
97.34444577644515
 20
-158.7379421261141
 97
        0
 97
        1
330
AF
 75
     2
 76
     1
 98
        1
 10
0.0
 20
0.0
450
        0
451
        0
460
0.0
461
0.0
452
        0
462
0.0
453
        0
470

  0
ENDBLK
  5
AB
330
A8
100
AcDbEntity
  8
0
100
AcDbBlockEnd
  0
BLOCK
  5
B3
330
B1
100
AcDbEntity
  8
0
100
AcDbBlockBegin
  2
Block_9
 70
     0
 10
0.0
 20
0.0
 30
0.0
  3
Block_9
  1

  0
INSERT
  5
B6
330
B1
100
AcDbEntity
  8
レイヤー 1
100
AcDbBlockReference
  2
Block_10
 10
0.0
 20
0.0
 30
0.0
  0
INSERT
  5
BF
330
B1
100
AcDbEntity
  8
レイヤー 1
100
AcDbBlockReference
  2
Block_11
 10
0.0
 20
0.0
 30
0.0
  0
ENDBLK
  5
B4
330
B1
100
AcDbEntity
  8
0
100
AcDbBlockEnd
  0
BLOCK
  5
B7
330
B5
100
AcDbEntity
  8
0
100
AcDbBlockBegin
  2
Block_10
 70
     0
 10
0.0
 20
0.0
 30
0.0
  3
Block_10
  1

  0
SPLINE
  5
B9
330
B5
100
AcDbEntity
  8
レイヤー 1
 62
   250
420
  2299925
370
     9
100
AcDbSpline
210
0.0
220
0.0
230
1.0
 70
     9
 71
     3
 72
    17
 73
    13
 74
     0
 42
0.0000000001
 43
0.0000000001
 40
0.0
 40
0.0
 40
0.0
 40
0.0
 40
1.0
 40
1.0
 40
1.0
 40
2.0
 40
2.0
 40
2.0
 40
3.0
 40
3.0
 40
3.0
 40
4.0
 40
4.0
 40
4.0
 40
4.0
 10
90.79036795238881
 20
-132.6363491008792
 30
0.0
 10
90.79036795238881
 20
-132.5808924356273
 30
0.0
 10
90.74556517462241
 20
-132.5360896589926
 30
0.0
 10
90.69046128574717
 20
-132.5360896589926
 30
0.0
 10
90.63532211909441
 20
-132.5360896589926
 30
0.0
 10
90.59055461910553
 20
-132.5808924356273
 30
0.0
 10
90.59055461910553
 20
-132.6363491008792
 30
0.0
 10
90.59055461910553
 20
-132.6914464642691
 30
0.0
 10
90.63532211909441
 20
-132.7362492420358
 30
0.0
 10
90.69046128574717
 20
-132.7362492420358
 30
0.0
 10
90.74556517462241
 20
-132.7362492420358
 30
0.0
 10
90.79036795238881
 20
-132.6914464642691
 30
0.0
 10
90.79036795238881
 20
-132.6363491008792
 30
0.0
  0
CIRCLE
  5
BA
330
B5
100
AcDbEntity
  8
レイヤー 1
 62
   250
420
  2299925
370
     9
100
AcDbCircle
 10
90.69046128574717
 20
-152.6361696949656
 30
0.0
 40
0.0999066653797365
  0
LINE
  5
BB
330
B5
100
AcDbEntity
  8
レイヤー 1
 62
   250
420
  2299925
370
    13
100
AcDbLine
 10
90.69046128574717
 20
-152.6361694492642
 30
0.0
 11
90.69046128574717
 21
-132.6361694542639
 31
0.0
  0
LINE
  5
BC
330
B5
100
AcDbEntity
  8
レイヤー 1
 62
   250
420
  2299925
370
     9
100
AcDbLine
 10
92.95042628518229
 20
-152.6361696949656
 30
0.0
 11
89.69068906377495
 21
-152.6361696949656
 31
0.0
  0
LINE
  5
BD
330
B5
100
AcDbEntity
  8
レイヤー 1
 62
   250
420
  2299925
370
     9
100
AcDbLine
 10
92.45089295197379
 20
-132.6363491008792
 30
0.0
 11
89.69068906377495
 21
-132.6363491008792
 31
0.0
  0
ENDBLK
  5
B8
330
B5
100
AcDbEntity
  8
0
100
AcDbBlockEnd
  0
BLOCK
  5
C0
330
BE
100
AcDbEntity
  8
0
100
AcDbBlockBegin
  2
Block_11
 70
     0
 10
0.0
 20
0.0
 30
0.0
  3
Block_11
  1

  0
INSERT
  5
C3
330
BE
100
AcDbEntity
  8
レイヤー 1
100
AcDbBlockReference
  2
Block_12
 10
0.0
 20
0.0
 30
0.0
  0
ENDBLK
  5
C1
330
BE
100
AcDbEntity
  8
0
100
AcDbBlockEnd
  0
BLOCK
  5
C4
330
C2
100
AcDbEntity
  8
0
100
AcDbBlockBegin
  2
Block_12
 70
     0
 10
0.0
 20
0.0
 30
0.0
  3
Block_12
  1

  0
SPLINE
  5
C6
330
C2
100
AcDbEntity
  8
レイヤー 1
100
AcDbSpline
210
0.0
220
0.0
230
1.0
 70
     9
 71
     3
 72
    44
 73
    40
 74
     0
 42
0.0000000001
 43
0.0000000001
 40
0.0
 40
0.0
 40
0.0
 40
0.0
 40
1.0
 40
1.0
 40
1.0
 40
2.0
 40
2.0
 40
2.0
 40
3.0
 40
3.0
 40
3.0
 40
4.0
 40
4.0
 40
4.0
 40
5.0
 40
5.0
 40
5.0
 40
6.0
 40
6.0
 40
6.0
 40
7.0
 40
7.0
 40
7.0
 40
8.0
 40
8.0
 40
8.0
 40
9.0
 40
9.0
 40
9.0
 40
10.0
 40
10.0
 40
10.0
 40
11.0
 40
11.0
 40
11.0
 40
12.0
 40
12.0
 40
12.0
 40
13.0
 40
13.0
 40
13.0
 40
13.0
 10
89.39557696332819
 20
-143.1320040874809
 30
0.0
 10
89.55422361042394
 20
-143.3497341221487
 30
0.0
 10
89.62829316335682
 20
-143.4427517002504
 30
0.0
 10
89.77212589986599
 20
-143.4916720561409
 30
0.0
 10
89.77212589986599
 20
-143.4916720561409
 30
0.0
 10
89.77212589986599
 20
-142.7130804764745
 30
0.0
 10
89.77212589986599
 20
-142.7130804764745
 30
0.0
 10
89.77212589986599
 20
-142.7130804764745
 30
0.0
 10
89.97728133601262
 20
-142.7130804764745
 30
0.0
 10
89.97728133601262
 20
-142.7130804764745
 30
0.0
 10
89.97728133601262
 20
-142.7130804764745
 30
0.0
 10
89.97728133601262
 20
-143.741096969273
 30
0.0
 10
89.97728133601262
 20
-143.741096969273
 30
0.0
 10
89.61968042464368
 20
-143.7094020908087
 30
0.0
 10
89.54147675712851
 20
-143.643945276589
 30
0.0
 10
89.24313148810588
 20
-143.2587836013381
 30
0.0
 10
89.04434947860698
 20
-143.002813006784
 30
0.0
 10
88.97665335232181
 20
-142.9373561925642
 30
0.0
 10
88.83919404246034
 20
-142.9373561925642
 30
0.0
 10
88.72068275776774
 20
-142.9373561925642
 30
0.0
 10
88.58942461977973
 20
-143.009358688206
 30
0.0
 10
88.58942461977973
 20
-143.2060736404137
 30
0.0
 10
88.58942461977973
 20
-143.4661783495501
 30
0.0
 10
88.82007376251721
 20
-143.4747910882632
 30
0.0
 10
88.93651798991866
 20
-143.4789252028455
 30
0.0
 10
88.93651798991866
 20
-143.4789252028455
 30
0.0
 10
88.93651798991866
 20
-143.7032009189353
 30
0.0
 10
88.93651798991866
 20
-143.7032009189353
 30
0.0
 10
88.80956622128719
 20
-143.6945881802222
 30
0.0
 10
88.69742836324231
 20
-143.6839083842179
 30
0.0
 10
88.57891707854973
 20
-143.6036376594116
 30
0.0
 10
88.41820337416281
 20
-143.4937391134321
 30
0.0
 10
88.3842691836331
 20
-143.3073594476801
 30
0.0
 10
88.3842691836331
 20
-143.1912597298271
 30
0.0
 10
88.3842691836331
 20
-142.9139295432646
 30
0.0
 10
88.56840953731971
 20
-142.7065347950525
 30
0.0
 10
88.84126109975149
 20
-142.7065347950525
 30
0.0
 10
89.06967093042355
 20
-142.7065347950525
 30
0.0
 10
89.16923418994727
 20
-142.8229790224539
 30
0.0
 10
89.39557696332819
 20
-143.1320040874809
 30
0.0
  0
HATCH
  5
C7
330
C2
100
AcDbEntity
  8
レイヤー 1
 62
   250
420
  2299925
440
 33554687
100
AcDbHatch
 10
0.0
 20
0.0
 30
0.0
210
0.0
220
0.0
230
1.0
  2
SOLID
 70
     1
 71
     1
 91
        1
 92
        1
 93
        1
 72
     4
 94
        3
 73
     0
 74
     0
 95
       44
 96
       40
 40
0.0
 40
0.0
 40
0.0
 40
0.0
 40
1.0
 40
1.0
 40
1.0
 40
2.0
 40
2.0
 40
2.0
 40
3.0
 40
3.0
 40
3.0
 40
4.0
 40
4.0
 40
4.0
 40
5.0
 40
5.0
 40
5.0
 40
6.0
 40
6.0
 40
6.0
 40
7.0
 40
7.0
 40
7.0
 40
8.0
 40
8.0
 40
8.0
 40
9.0
 40
9.0
 40
9.0
 40
10.0
 40
10.0
 40
10.0
 40
11.0
 40
11.0
 40
11.0
 40
12.0
 40
12.0
 40
12.0
 40
13.0
 40
13.0
 40
13.0
 40
13.0
 10
89.39557696332819
 20
-143.1320040874809
 10
89.55422361042394
 20
-143.3497341221487
 10
89.62829316335682
 20
-143.4427517002504
 10
89.77212589986599
 20
-143.4916720561409
 10
89.77212589986599
 20
-143.4916720561409
 10
89.77212589986599
 20
-142.7130804764745
 10
89.77212589986599
 20
-142.7130804764745
 10
89.77212589986599
 20
-142.7130804764745
 10
89.97728133601262
 20
-142.7130804764745
 10
89.97728133601262
 20
-142.7130804764745
 10
89.97728133601262
 20
-142.7130804764745
 10
89.97728133601262
 20
-143.741096969273
 10
89.97728133601262
 20
-143.741096969273
 10
89.61968042464368
 20
-143.7094020908087
 10
89.54147675712851
 20
-143.643945276589
 10
89.24313148810588
 20
-143.2587836013381
 10
89.04434947860698
 20
-143.002813006784
 10
88.97665335232181
 20
-142.9373561925642
 10
88.83919404246034
 20
-142.9373561925642
 10
88.72068275776774
 20
-142.9373561925642
 10
88.58942461977973
 20
-143.009358688206
 10
88.58942461977973
 20
-143.2060736404137
 10
88.58942461977973
 20
-143.4661783495501
 10
88.82007376251721
 20
-143.4747910882632
 10
88.93651798991866
 20
-143.4789252028455
 10
88.93651798991866
 20
-143.4789252028455
 10
88.93651798991866
 20
-143.7032009189353
 10
88.93651798991866
 20
-143.7032009189353
 10
88.80956622128719
 20
-143.6945881802222
 10
88.69742836324231
 20
-143.6839083842179
 10
88.57891707854973
 20
-143.6036376594116
 10
88.41820337416281
 20
-143.4937391134321
 10
88.3842691836331
 20
-143.3073594476801
 10
88.3842691836331
 20
-143.1912597298271
 10
88.3842691836331
 20
-142.9139295432646
 10
88.56840953731971
 20
-142.7065347950525
 10
88.84126109975149
 20
-142.7065347950525
 10
89.06967093042355
 20
-142.7065347950525
 10
89.16923418994727
 20
-142.8229790224539
 10
89.39557696332819
 20
-143.1320040874809
 97
        0
 97
        1
330
C6
 75
     2
 76
     1
 98
        1
 10
0.0
 20
0.0
450
        0
451
        0
460
0.0
461
0.0
452
        0
462
0.0
453
        0
470

  0
SPLINE
  5
C8
330
C2
100
AcDbEntity
  8
レイヤー 1
100
AcDbSpline
210
0.0
220
0.0
230
1.0
 70
     9
 71
     3
 72
    17
 73
    13
 74
     0
 42
0.0000000001
 43
0.0000000001
 40
0.0
 40
0.0
 40
0.0
 40
0.0
 40
1.0
 40
1.0
 40
1.0
 40
2.0
 40
2.0
 40
2.0
 40
3.0
 40
3.0
 40
3.0
 40
4.0
 40
4.0
 40
4.0
 40
4.0
 10
88.57685002125856
 20
-142.0481770478213
 30
0.0
 10
88.57685002125856
 20
-142.2977742157276
 30
0.0
 10
88.86020912492037
 20
-142.3444552595527
 30
0.0
 10
89.20506318299388
 20
-142.3444552595527
 30
0.0
 10
89.52459578925079
 20
-142.3444552595527
 30
0.0
 10
89.83344859950344
 20
-142.3082817569576
 30
0.0
 10
89.83344859950344
 20
-142.0481770478213
 30
0.0
 10
89.83344859950344
 20
-141.8006469372061
 30
0.0
 10
89.55198429835853
 20
-141.7518988360898
 30
0.0
 10
89.20506318299388
 20
-141.7518988360898
 30
0.0
 10
88.88570283151121
 20
-141.7518988360898
 30
0.0
 10
88.57685002125856
 20
-141.790139395976
 30
0.0
 10
88.57685002125856
 20
-142.0481770478213
 30
0.0
  0
SPLINE
  5
C9
330
C2
100
AcDbEntity
  8
レイヤー 1
100
AcDbSpline
210
0.0
220
0.0
230
1.0
 70
     9
 71
     3
 72
    29
 73
    25
 74
     0
 42
0.0000000001
 43
0.0000000001
 40
0.0
 40
0.0
 40
0.0
 40
0.0
 40
1.0
 40
1.0
 40
1.0
 40
2.0
 40
2.0
 40
2.0
 40
3.0
 40
3.0
 40
3.0
 40
4.0
 40
4.0
 40
4.0
 40
5.0
 40
5.0
 40
5.0
 40
6.0
 40
6.0
 40
6.0
 40
7.0
 40
7.0
 40
7.0
 40
8.0
 40
8.0
 40
8.0
 40
8.0
 10
89.79951440897373
 20
-141.6504407740492
 30
0.0
 10
90.00897621447693
 20
-141.7582722627375
 30
0.0
 10
90.02809649442006
 20
-141.9317328204198
 30
0.0
 10
90.02809649442006
 20
-142.0481770478213
 30
0.0
 10
90.02809649442006
 20
-142.2088907522082
 30
0.0
 10
89.98158770536919
 20
-142.3506564314262
 30
0.0
 10
89.79951440897373
 20
-142.4457410668191
 30
0.0
 10
89.60503876883137
 20
-142.5494384409251
 30
0.0
 10
89.36801619944619
 20
-142.5687309756425
 30
0.0
 10
89.20506318299388
 20
-142.5687309756425
 30
0.0
 10
89.0612304464847
 20
-142.5687309756425
 30
0.0
 10
88.80956622128719
 20
-142.5515054982163
 30
0.0
 10
88.61061195701401
 20
-142.4457410668191
 30
0.0
 10
88.40752357815855
 20
-142.3379095781308
 30
0.0
 10
88.3842691836331
 20
-142.1771958737439
 30
0.0
 10
88.3842691836331
 20
-142.0481770478213
 30
0.0
 10
88.3842691836331
 20
-141.8895304007255
 30
0.0
 10
88.42871091539283
 20
-141.7456976642163
 30
0.0
 10
88.61061195701401
 20
-141.6504407740492
 30
0.0
 10
88.80319279463948
 20
-141.5510497692997
 30
0.0
 10
89.03160262531155
 20
-141.5277953747743
 30
0.0
 10
89.20506318299388
 20
-141.5277953747743
 30
0.0
 10
89.37645668338506
 20
-141.5277953747743
 30
0.0
 10
89.60710582612254
 20
-141.5488104572343
 30
0.0
 10
89.79951440897373
 20
-141.6504407740492
 30
0.0
  0
HATCH
  5
CA
330
C2
100
AcDbEntity
  8
レイヤー 1
 62
   250
420
  2299925
440
 33554687
100
AcDbHatch
 10
0.0
 20
0.0
 30
0.0
210
0.0
220
0.0
230
1.0
  2
SOLID
 70
     1
 71
     1
 91
        2
 92
        1
 93
        1
 72
     4
 94
        3
 73
     0
 74
     0
 95
       17
 96
       13
 40
0.0
 40
0.0
 40
0.0
 40
0.0
 40
1.0
 40
1.0
 40
1.0
 40
2.0
 40
2.0
 40
2.0
 40
3.0
 40
3.0
 40
3.0
 40
4.0
 40
4.0
 40
4.0
 40
4.0
 10
88.57685002125856
 20
-142.0481770478213
 10
88.57685002125856
 20
-142.2977742157276
 10
88.86020912492037
 20
-142.3444552595527
 10
89.20506318299388
 20
-142.3444552595527
 10
89.52459578925079
 20
-142.3444552595527
 10
89.83344859950344
 20
-142.3082817569576
 10
89.83344859950344
 20
-142.0481770478213
 10
89.83344859950344
 20
-141.8006469372061
 10
89.55198429835853
 20
-141.7518988360898
 10
89.20506318299388
 20
-141.7518988360898
 10
88.88570283151121
 20
-141.7518988360898
 10
88.57685002125856
 20
-141.790139395976
 10
88.57685002125856
 20
-142.0481770478213
 97
        0
 97
        1
330
C8
 92
        1
 93
        1
 72
     4
 94
        3
 73
     0
 74
     0
 95
       29
 96
       25
 40
0.0
 40
0.0
 40
0.0
 40
0.0
 40
1.0
 40
1.0
 40
1.0
 40
2.0
 40
2.0
 40
2.0
 40
3.0
 40
3.0
 40
3.0
 40
4.0
 40
4.0
 40
4.0
 40
5.0
 40
5.0
 40
5.0
 40
6.0
 40
6.0
 40
6.0
 40
7.0
 40
7.0
 40
7.0
 40
8.0
 40
8.0
 40
8.0
 40
8.0
 10
89.79951440897373
 20
-141.6504407740492
 10
90.00897621447693
 20
-141.7582722627375
 10
90.02809649442006
 20
-141.9317328204198
 10
90.02809649442006
 20
-142.0481770478213
 10
90.02809649442006
 20
-142.2088907522082
 10
89.98158770536919
 20
-142.3506564314262
 10
89.79951440897373
 20
-142.4457410668191
 10
89.60503876883137
 20
-142.5494384409251
 10
89.36801619944619
 20
-142.5687309756425
 10
89.20506318299388
 20
-142.5687309756425
 10
89.0612304464847
 20
-142.5687309756425
 10
88.80956622128719
 20
-142.5515054982163
 10
88.61061195701401
 20
-142.4457410668191
 10
88.40752357815855
 20
-142.3379095781308
 10
88.3842691836331
 20
-142.1771958737439
 10
88.3842691836331
 20
-142.0481770478213
 10
88.3842691836331
 20
-141.8895304007255
 10
88.42871091539283
 20
-141.7456976642163
 10
88.61061195701401
 20
-141.6504407740492
 10
88.80319279463948
 20
-141.5510497692997
 10
89.03160262531155
 20
-141.5277953747743
 10
89.20506318299388
 20
-141.5277953747743
 10
89.37645668338506
 20
-141.5277953747743
 10
89.60710582612254
 20
-141.5488104572343
 10
89.79951440897373
 20
-141.6504407740492
 97
        0
 97
        1
330
C9
 75
     2
 76
     1
 98
        1
 10
0.0
 20
0.0
450
        0
451
        0
460
0.0
461
0.0
452
        0
462
0.0
453
        0
470

  0
ENDBLK
  5
C5
330
C2
100
AcDbEntity
  8
0
100
AcDbBlockEnd
  0
BLOCK
  5
CD
330
CB
100
AcDbEntity
  8
0
100
AcDbBlockBegin
  2
Block_13
 70
     0
 10
0.0
 20
0.0
 30
0.0
  3
Block_13
  1

  0
INSERT
  5
D0
330
CB
100
AcDbEntity
  8
レイヤー 1
100
AcDbBlockReference
  2
Block_14
 10
0.0
 20
0.0
 30
0.0
  0
LINE
  5
F1
330
CB
100
AcDbEntity
  8
レイヤー 1
 62
   250
420
  2299925
370
     9
100
AcDbLine
 10
102.7222479575981
 20
-158.2229953075986
 30
0.0
 11
102.9806223954508
 21
-157.2569839433541
 31
0.0
  0
LINE
  5
F2
330
CB
100
AcDbEntity
  8
レイヤー 1
 62
   250
420
  2299925
370
     9
100
AcDbLine
 10
102.7222479575981
 20
-158.2229951716059
 30
0.0
 11
102.7222479575981
 21
-153.1738883610254
 31
0.0
  0
LINE
  5
F3
330
CB
100
AcDbEntity
  8
レイヤー 1
 62
   250
420
  2299925
370
     9
100
AcDbLine
 10
102.7222479575981
 20
-158.2229953075986
 30
0.0
 11
102.4631679642078
 21
-157.2569839433541
 31
0.0
  0
LINE
  5
F4
330
CB
100
AcDbEntity
  8
レイヤー 1
 62
   250
420
  2299925
370
     9
100
AcDbLine
 10
96.72082487797712
 20
-152.019446873813
 30
0.0
 11
97.68683624223257
 21
-152.2778213116221
 31
0.0
  0
LINE
  5
F5
330
CB
100
AcDbEntity
  8
レイヤー 1
 62
   250
420
  2299925
370
     9
100
AcDbLine
 10
96.72084339501914
 20
-152.0194450567812
 30
0.0
 11
101.1616815723532
 21
-152.0194450565393
 31
0.0
  0
LINE
  5
F6
330
CB
100
AcDbEntity
  8
レイヤー 1
 62
   250
420
  2299925
370
     9
100
AcDbLine
 10
96.72082487797712
 20
-152.019446873813
 30
0.0
 11
97.68683624220914
 21
-151.760366880379
 31
0.0
  0
ENDBLK
  5
CE
330
CB
100
AcDbEntity
  8
0
100
AcDbBlockEnd
  0
BLOCK
  5
D1
330
CF
100
AcDbEntity
  8
0
100
AcDbBlockBegin
  2
Block_14
 70
     0
 10
0.0
 20
0.0
 30
0.0
  3
Block_14
  1

  0
INSERT
  5
D4
330
CF
100
AcDbEntity
  8
レイヤー 1
100
AcDbBlockReference
  2
Block_15
 10
0.0
 20
0.0
 30
0.0
  0
ENDBLK
  5
D2
330
CF
100
AcDbEntity
  8
0
100
AcDbBlockEnd
  0
BLOCK
  5
D5
330
D3
100
AcDbEntity
  8
0
100
AcDbBlockBegin
  2
Block_15
 70
     0
 10
0.0
 20
0.0
 30
0.0
  3
Block_15
  1

  0
SPLINE
  5
D7
330
D3
100
AcDbEntity
  8
レイヤー 1
100
AcDbSpline
210
0.0
220
0.0
230
1.0
 70
     9
 71
     3
 72
    41
 73
    37
 74
     0
 42
0.0000000001
 43
0.0000000001
 40
0.0
 40
0.0
 40
0.0
 40
0.0
 40
1.0
 40
1.0
 40
1.0
 40
2.0
 40
2.0
 40
2.0
 40
3.0
 40
3.0
 40
3.0
 40
4.0
 40
4.0
 40
4.0
 40
5.0
 40
5.0
 40
5.0
 40
6.0
 40
6.0
 40
6.0
 40
7.0
 40
7.0
 40
7.0
 40
8.0
 40
8.0
 40
8.0
 40
9.0
 40
9.0
 40
9.0
 40
10.0
 40
10.0
 40
10.0
 40
11.0
 40
11.0
 40
11.0
 40
12.0
 40
12.0
 40
12.0
 40
12.0
 10
103.6090074068234
 20
-152.7899847708303
 30
0.0
 10
103.3678507228559
 20
-152.6545925182599
 30
0.0
 10
103.190083795817
 20
-152.3583143065285
 30
0.0
 10
103.1497761786396
 20
-152.2294677353801
 30
0.0
 10
103.0291978366559
 20
-152.4937065590988
 30
0.0
 10
102.8665893297521
 20
-152.6714734861377
 30
0.0
 10
102.6846882881309
 20
-152.785850656248
 30
0.0
 10
102.6846882881309
 20
-152.785850656248
 30
0.0
 10
102.4876288263746
 20
-152.6483913463865
 30
0.0
 10
102.4876288263746
 20
-152.6483913463865
 30
0.0
 10
102.5575642647252
 20
-152.6228976397956
 30
0.0
 10
102.7036363132998
 20
-152.5615749401582
 30
0.0
 10
102.8262817125747
 20
-152.407234662419
 30
0.0
 10
102.9509941691407
 20
-152.2504828178401
 30
0.0
 10
103.0398776326602
 20
-152.0179388725858
 30
0.0
 10
103.0398776326602
 20
-151.7578341634494
 30
0.0
 10
103.0398776326602
 20
-151.6562038466345
 30
0.0
 10
103.0271307793647
 20
-151.5842013509928
 30
0.0
 10
103.016795492909
 20
-151.537692561942
 30
0.0
 10
103.016795492909
 20
-151.537692561942
 30
0.0
 10
103.2217786742813
 20
-151.558707644402
 30
0.0
 10
103.2217786742813
 20
-151.558707644402
 30
0.0
 10
103.2431382662899
 20
-151.5607747016931
 30
0.0
 10
103.2641533487499
 20
-151.5631862685328
 30
0.0
 10
103.2641533487499
 20
-151.5842013509928
 30
0.0
 10
103.2641533487499
 20
-151.6031493761617
 30
0.0
 10
103.2534735527456
 20
-151.6117621148748
 30
0.0
 10
103.2197116169902
 20
-151.6327771973348
 30
0.0
 10
103.2114433878256
 20
-151.8339707736734
 30
0.0
 10
103.2682874633322
 20
-152.0771945149321
 30
0.0
 10
103.3296101629697
 20
-152.1977728569158
 30
0.0
 10
103.4205606837802
 20
-152.373128217115
 30
0.0
 10
103.6152085786969
 20
-152.5529622014451
 30
0.0
 10
103.7506008312672
 20
-152.6101507865002
 30
0.0
 10
103.7506008312672
 20
-152.6101507865002
 30
0.0
 10
103.6090074068234
 20
-152.7899847708303
 30
0.0
 10
103.6090074068234
 20
-152.7899847708303
 30
0.0
  0
SPLINE
  5
D8
330
D3
100
AcDbEntity
  8
レイヤー 1
100
AcDbSpline
210
0.0
220
0.0
230
1.0
 70
    11
 71
     3
 72
    17
 73
    13
 74
     0
 42
0.0000000001
 43
0.0000000001
 40
0.0
 40
0.0
 40
0.0
 40
0.0
 40
1.0
 40
1.0
 40
1.0
 40
2.0
 40
2.0
 40
2.0
 40
3.0
 40
3.0
 40
3.0
 40
4.0
 40
4.0
 40
4.0
 40
4.0
 10
102.5196682143874
 20
-151.8315592068338
 30
0.0
 10
102.5196682143874
 20
-151.8315592068338
 30
0.0
 10
102.3587822552263
 20
-151.8315592068338
 30
0.0
 10
102.3587822552263
 20
-151.8315592068338
 30
0.0
 10
102.3587822552263
 20
-151.8315592068338
 30
0.0
 10
102.3587822552263
 20
-151.9607502875306
 30
0.0
 10
102.3587822552263
 20
-151.9607502875306
 30
0.0
 10
102.3587822552263
 20
-151.9607502875306
 30
0.0
 10
102.5196682143874
 20
-151.9607502875306
 30
0.0
 10
102.5196682143874
 20
-151.9607502875306
 30
0.0
 10
102.5196682143874
 20
-151.9607502875306
 30
0.0
 10
102.5196682143874
 20
-151.8315592068338
 30
0.0
 10
102.5196682143874
 20
-151.8315592068338
 30
0.0
  0
SPLINE
  5
D9
330
D3
100
AcDbEntity
  8
レイヤー 1
100
AcDbSpline
210
0.0
220
0.0
230
1.0
 70
    11
 71
     3
 72
    17
 73
    13
 74
     0
 42
0.0000000001
 43
0.0000000001
 40
0.0
 40
0.0
 40
0.0
 40
0.0
 40
1.0
 40
1.0
 40
1.0
 40
2.0
 40
2.0
 40
2.0
 40
3.0
 40
3.0
 40
3.0
 40
4.0
 40
4.0
 40
4.0
 40
4.0
 10
102.5196682143874
 20
-151.558707644402
 30
0.0
 10
102.5196682143874
 20
-151.558707644402
 30
0.0
 10
102.3587822552263
 20
-151.558707644402
 30
0.0
 10
102.3587822552263
 20
-151.558707644402
 30
0.0
 10
102.3587822552263
 20
-151.558707644402
 30
0.0
 10
102.3587822552263
 20
-151.6878987250988
 30
0.0
 10
102.3587822552263
 20
-151.6878987250988
 30
0.0
 10
102.3587822552263
 20
-151.6878987250988
 30
0.0
 10
102.5196682143874
 20
-151.6878987250988
 30
0.0
 10
102.5196682143874
 20
-151.6878987250988
 30
0.0
 10
102.5196682143874
 20
-151.6878987250988
 30
0.0
 10
102.5196682143874
 20
-151.558707644402
 30
0.0
 10
102.5196682143874
 20
-151.558707644402
 30
0.0
  0
SPLINE
  5
DA
330
D3
100
AcDbEntity
  8
レイヤー 1
100
AcDbSpline
210
0.0
220
0.0
230
1.0
 70
    11
 71
     3
 72
    17
 73
    13
 74
     0
 42
0.0000000001
 43
0.0000000001
 40
0.0
 40
0.0
 40
0.0
 40
0.0
 40
1.0
 40
1.0
 40
1.0
 40
2.0
 40
2.0
 40
2.0
 40
3.0
 40
3.0
 40
3.0
 40
4.0
 40
4.0
 40
4.0
 40
4.0
 10
102.1872165000608
 20
-151.8315592068338
 30
0.0
 10
102.1872165000608
 20
-151.8315592068338
 30
0.0
 10
102.0287421077393
 20
-151.8315592068338
 30
0.0
 10
102.0287421077393
 20
-151.8315592068338
 30
0.0
 10
102.0287421077393
 20
-151.8315592068338
 30
0.0
 10
102.0287421077393
 20
-151.9607502875306
 30
0.0
 10
102.0287421077393
 20
-151.9607502875306
 30
0.0
 10
102.0287421077393
 20
-151.9607502875306
 30
0.0
 10
102.1872165000608
 20
-151.9607502875306
 30
0.0
 10
102.1872165000608
 20
-151.9607502875306
 30
0.0
 10
102.1872165000608
 20
-151.9607502875306
 30
0.0
 10
102.1872165000608
 20
-151.8315592068338
 30
0.0
 10
102.1872165000608
 20
-151.8315592068338
 30
0.0
  0
SPLINE
  5
DB
330
D3
100
AcDbEntity
  8
レイヤー 1
100
AcDbSpline
210
0.0
220
0.0
230
1.0
 70
    11
 71
     3
 72
    17
 73
    13
 74
     0
 42
0.0000000001
 43
0.0000000001
 40
0.0
 40
0.0
 40
0.0
 40
0.0
 40
1.0
 40
1.0
 40
1.0
 40
2.0
 40
2.0
 40
2.0
 40
3.0
 40
3.0
 40
3.0
 40
4.0
 40
4.0
 40
4.0
 40
4.0
 10
102.1872165000608
 20
-151.558707644402
 30
0.0
 10
102.1872165000608
 20
-151.558707644402
 30
0.0
 10
102.0287421077393
 20
-151.558707644402
 30
0.0
 10
102.0287421077393
 20
-151.558707644402
 30
0.0
 10
102.0287421077393
 20
-151.558707644402
 30
0.0
 10
102.0287421077393
 20
-151.6878987250988
 30
0.0
 10
102.0287421077393
 20
-151.6878987250988
 30
0.0
 10
102.0287421077393
 20
-151.6878987250988
 30
0.0
 10
102.1872165000608
 20
-151.6878987250988
 30
0.0
 10
102.1872165000608
 20
-151.6878987250988
 30
0.0
 10
102.1872165000608
 20
-151.6878987250988
 30
0.0
 10
102.1872165000608
 20
-151.558707644402
 30
0.0
 10
102.1872165000608
 20
-151.558707644402
 30
0.0
  0
SPLINE
  5
DC
330
D3
100
AcDbEntity
  8
レイヤー 1
100
AcDbSpline
210
0.0
220
0.0
230
1.0
 70
     9
 71
     3
 72
   197
 73
   193
 74
     0
 42
0.0000000001
 43
0.0000000001
 40
0.0
 40
0.0
 40
0.0
 40
0.0
 40
1.0
 40
1.0
 40
1.0
 40
2.0
 40
2.0
 40
2.0
 40
3.0
 40
3.0
 40
3.0
 40
4.0
 40
4.0
 40
4.0
 40
5.0
 40
5.0
 40
5.0
 40
6.0
 40
6.0
 40
6.0
 40
7.0
 40
7.0
 40
7.0
 40
8.0
 40
8.0
 40
8.0
 40
9.0
 40
9.0
 40
9.0
 40
10.0
 40
10.0
 40
10.0
 40
11.0
 40
11.0
 40
11.0
 40
12.0
 40
12.0
 40
12.0
 40
13.0
 40
13.0
 40
13.0
 40
14.0
 40
14.0
 40
14.0
 40
15.0
 40
15.0
 40
15.0
 40
16.0
 40
16.0
 40
16.0
 40
17.0
 40
17.0
 40
17.0
 40
18.0
 40
18.0
 40
18.0
 40
19.0
 40
19.0
 40
19.0
 40
20.0
 40
20.0
 40
20.0
 40
21.0
 40
21.0
 40
21.0
 40
22.0
 40
22.0
 40
22.0
 40
23.0
 40
23.0
 40
23.0
 40
24.0
 40
24.0
 40
24.0
 40
25.0
 40
25.0
 40
25.0
 40
26.0
 40
26.0
 40
26.0
 40
27.0
 40
27.0
 40
27.0
 40
28.0
 40
28.0
 40
28.0
 40
29.0
 40
29.0
 40
29.0
 40
30.0
 40
30.0
 40
30.0
 40
31.0
 40
31.0
 40
31.0
 40
32.0
 40
32.0
 40
32.0
 40
33.0
 40
33.0
 40
33.0
 40
34.0
 40
34.0
 40
34.0
 40
35.0
 40
35.0
 40
35.0
 40
36.0
 40
36.0
 40
36.0
 40
37.0
 40
37.0
 40
37.0
 40
38.0
 40
38.0
 40
38.0
 40
39.0
 40
39.0
 40
39.0
 40
40.0
 40
40.0
 40
40.0
 40
41.0
 40
41.0
 40
41.0
 40
42.0
 40
42.0
 40
42.0
 40
43.0
 40
43.0
 40
43.0
 40
44.0
 40
44.0
 40
44.0
 40
45.0
 40
45.0
 40
45.0
 40
46.0
 40
46.0
 40
46.0
 40
47.0
 40
47.0
 40
47.0
 40
48.0
 40
48.0
 40
48.0
 40
49.0
 40
49.0
 40
49.0
 40
50.0
 40
50.0
 40
50.0
 40
51.0
 40
51.0
 40
51.0
 40
52.0
 40
52.0
 40
52.0
 40
53.0
 40
53.0
 40
53.0
 40
54.0
 40
54.0
 40
54.0
 40
55.0
 40
55.0
 40
55.0
 40
56.0
 40
56.0
 40
56.0
 40
57.0
 40
57.0
 40
57.0
 40
58.0
 40
58.0
 40
58.0
 40
59.0
 40
59.0
 40
59.0
 40
60.0
 40
60.0
 40
60.0
 40
61.0
 40
61.0
 40
61.0
 40
62.0
 40
62.0
 40
62.0
 40
63.0
 40
63.0
 40
63.0
 40
64.0
 40
64.0
 40
64.0
 40
64.0
 10
103.6937567557606
 20
-151.4339951878359
 30
0.0
 10
103.6830769597563
 20
-151.4636230090091
 30
0.0
 10
103.6596503104566
 20
-151.5101317980599
 30
0.0
 10
103.6493150240008
 20
-151.537692561942
 30
0.0
 10
103.6493150240008
 20
-151.537692561942
 30
0.0
 10
103.5879923243634
 20
-151.68996578239
 30
0.0
 10
103.5879923243634
 20
-151.68996578239
 30
0.0
 10
103.5773125283591
 20
-151.7154594889808
 30
0.0
 10
103.5287366820171
 20
-151.8274250922514
 30
0.0
 10
103.5159898287217
 20
-151.8508517415512
 30
0.0
 10
103.5139227714305
 20
-151.8570529134246
 30
0.0
 10
103.5094441472997
 20
-151.8656656521377
 30
0.0
 10
103.5073770900085
 20
-151.8718668240112
 30
0.0
 10
103.5073770900085
 20
-151.8718668240112
 30
0.0
 10
103.2979152845054
 20
-151.8191568630868
 30
0.0
 10
103.2979152845054
 20
-151.8191568630868
 30
0.0
 10
103.3764634615691
 20
-151.7089138075589
 30
0.0
 10
103.4377861612065
 20
-151.5735215549885
 30
0.0
 10
103.4694810396708
 20
-151.4636230090091
 30
0.0
 10
103.4694810396708
 20
-151.4636230090091
 30
0.0
 10
103.0040486396135
 20
-151.4636230090091
 30
0.0
 10
103.0040486396135
 20
-151.4636230090091
 30
0.0
 10
102.9234334052587
 20
-151.6286430827525
 30
0.0
 10
102.8559095337478
 20
-151.7068467502677
 30
0.0
 10
102.8221475979923
 20
-151.7471543674451
 30
0.0
 10
102.8221475979923
 20
-151.7471543674451
 30
0.0
 10
102.6995021987175
 20
-151.6813530436769
 30
0.0
 10
102.6995021987175
 20
-151.6813530436769
 30
0.0
 10
102.6995021987175
 20
-151.6813530436769
 30
0.0
 10
102.6995021987175
 20
-151.8529187988423
 30
0.0
 10
102.6995021987175
 20
-151.8529187988423
 30
0.0
 10
102.6995021987175
 20
-151.9607502875306
 30
0.0
 10
102.7015692560086
 20
-152.0093261338726
 30
0.0
 10
102.7119045424644
 20
-152.1150905652698
 30
0.0
 10
102.6402465563712
 20
-152.1130235079787
 30
0.0
 10
102.6188869643626
 20
-152.1130235079787
 30
0.0
 10
102.4139037829902
 20
-152.1130235079787
 30
0.0
 10
102.4139037829902
 20
-152.1130235079787
 30
0.0
 10
102.3587822552263
 20
-152.1130235079787
 30
0.0
 10
102.3587822552263
 20
-152.1130235079787
 30
0.0
 10
102.3587822552263
 20
-152.1130235079787
 30
0.0
 10
102.3587822552263
 20
-152.248415760549
 30
0.0
 10
102.3587822552263
 20
-152.248415760549
 30
0.0
 10
102.3587822552263
 20
-152.248415760549
 30
0.0
 10
102.430784750868
 20
-152.248415760549
 30
0.0
 10
102.430784750868
 20
-152.248415760549
 30
0.0
 10
102.4962415650877
 20
-152.248415760549
 30
0.0
 10
102.6423136136623
 20
-152.2442816459667
 30
0.0
 10
102.7480780450595
 20
-152.2356689072536
 30
0.0
 10
102.7480780450595
 20
-152.2356689072536
 30
0.0
 10
102.7480780450595
 20
-152.4134358342925
 30
0.0
 10
102.7480780450595
 20
-152.4134358342925
 30
0.0
 10
102.6505818428269
 20
-152.407234662419
 30
0.0
 10
102.4921074505054
 20
-152.4027560382882
 30
0.0
 10
102.430784750868
 20
-152.4027560382882
 30
0.0
 10
102.430784750868
 20
-152.4027560382882
 30
0.0
 10
102.3587822552263
 20
-152.4027560382882
 30
0.0
 10
102.3587822552263
 20
-152.4027560382882
 30
0.0
 10
102.3608493125174
 20
-152.4916395018076
 30
0.0
 10
102.3649834270997
 20
-152.730729128484
 30
0.0
 10
102.3670504843909
 20
-152.8047986814168
 30
0.0
 10
102.3670504843909
 20
-152.8047986814168
 30
0.0
 10
102.1662014176008
 20
-152.8047986814168
 30
0.0
 10
102.1662014176008
 20
-152.8047986814168
 30
0.0
 10
102.1789482708962
 20
-152.5912027613314
 30
0.0
 10
102.1789482708962
 20
-152.5615749401582
 30
0.0
 10
102.1830823854785
 20
-152.4027560382882
 30
0.0
 10
102.1830823854785
 20
-152.4027560382882
 30
0.0
 10
102.1134914566765
 20
-152.4027560382882
 30
0.0
 10
102.1134914566765
 20
-152.4027560382882
 30
0.0
 10
102.0563028716213
 20
-152.4027560382882
 30
0.0
 10
101.9040296511733
 20
-152.407234662419
 30
0.0
 10
101.7937865956453
 20
-152.4134358342925
 30
0.0
 10
101.7937865956453
 20
-152.4134358342925
 30
0.0
 10
101.7937865956453
 20
-152.2356689072536
 30
0.0
 10
101.7937865956453
 20
-152.2356689072536
 30
0.0
 10
101.8995510270425
 20
-152.2442816459667
 30
0.0
 10
102.0435560183259
 20
-152.248415760549
 30
0.0
 10
102.1134914566765
 20
-152.248415760549
 30
0.0
 10
102.1134914566765
 20
-152.248415760549
 30
0.0
 10
102.1872165000608
 20
-152.248415760549
 30
0.0
 10
102.1872165000608
 20
-152.248415760549
 30
0.0
 10
102.1872165000608
 20
-152.248415760549
 30
0.0
 10
102.1872165000608
 20
-152.1130235079787
 30
0.0
 10
102.1872165000608
 20
-152.1130235079787
 30
0.0
 10
102.1872165000608
 20
-152.1130235079787
 30
0.0
 10
102.1431192778496
 20
-152.1130235079787
 30
0.0
 10
102.1431192778496
 20
-152.1130235079787
 30
0.0
 10
102.0666381580771
 20
-152.1130235079787
 30
0.0
 10
101.8744018300001
 20
-152.1150905652698
 30
0.0
 10
101.8402953846962
 20
-152.1150905652698
 30
0.0
 10
101.8468410661181
 20
-152.0434325791766
 30
0.0
 10
101.8551092952827
 20
-151.9628173448218
 30
0.0
 10
101.8551092952827
 20
-151.842239002838
 30
0.0
 10
101.8551092952827
 20
-151.842239002838
 30
0.0
 10
101.8551092952827
 20
-151.66895069993
 30
0.0
 10
101.8551092952827
 20
-151.66895069993
 30
0.0
 10
101.8551092952827
 20
-151.5969482042883
 30
0.0
 10
101.8468410661181
 20
-151.4763698623045
 30
0.0
 10
101.8402953846962
 20
-151.3960991374982
 30
0.0
 10
101.9188435617598
 20
-151.4002332520805
 30
0.0
 10
101.9567396120976
 20
-151.4023003093717
 30
0.0
 10
102.0838636355033
 20
-151.4023003093717
 30
0.0
 10
102.0838636355033
 20
-151.4023003093717
 30
0.0
 10
102.1872165000608
 20
-151.4023003093717
 30
0.0
 10
102.1872165000608
 20
-151.4023003093717
 30
0.0
 10
102.1872165000608
 20
-151.4023003093717
 30
0.0
 10
102.1872165000608
 20
-151.256228260797
 30
0.0
 10
102.1872165000608
 20
-151.256228260797
 30
0.0
 10
102.1872165000608
 20
-151.256228260797
 30
0.0
 10
102.1090128325456
 20
-151.256228260797
 30
0.0
 10
102.1090128325456
 20
-151.256228260797
 30
0.0
 10
102.0542358143302
 20
-151.256228260797
 30
0.0
 10
101.8826700591647
 20
-151.2607068849279
 30
0.0
 10
101.7982652197761
 20
-151.2669080568013
 30
0.0
 10
101.7982652197761
 20
-151.2669080568013
 30
0.0
 10
101.7982652197761
 20
-151.0891411297624
 30
0.0
 10
101.7982652197761
 20
-151.0891411297624
 30
0.0
 10
101.8806030018736
 20
-151.0956868111844
 30
0.0
 10
102.0435560183259
 20
-151.0998209257667
 30
0.0
 10
102.1090128325456
 20
-151.0998209257667
 30
0.0
 10
102.1090128325456
 20
-151.0998209257667
 30
0.0
 10
102.1872165000608
 20
-151.0998209257667
 30
0.0
 10
102.1872165000608
 20
-151.0998209257667
 30
0.0
 10
102.1872165000608
 20
-151.0660589900112
 30
0.0
 10
102.1830823854785
 20
-150.9113742027235
 30
0.0
 10
102.1830823854785
 20
-150.8796793242592
 30
0.0
 10
102.1830823854785
 20
-150.8796793242592
 30
0.0
 10
102.3797973376863
 20
-150.8965602921369
 30
0.0
 10
102.3797973376863
 20
-150.8965602921369
 30
0.0
 10
102.396678305564
 20
-150.8986273494281
 30
0.0
 10
102.4180378975726
 20
-150.9010389162678
 30
0.0
 10
102.4180378975726
 20
-150.9220539987278
 30
0.0
 10
102.4180378975726
 20
-150.9454806480275
 30
0.0
 10
102.396678305564
 20
-150.9537488771921
 30
0.0
 10
102.3694620512305
 20
-150.9664957304875
 30
0.0
 10
102.3694620512305
 20
-150.9875108129475
 30
0.0
 10
102.3670504843909
 20
-151.082939957889
 30
0.0
 10
102.3670504843909
 20
-151.0998209257667
 30
0.0
 10
102.3670504843909
 20
-151.0998209257667
 30
0.0
 10
102.4263061267371
 20
-151.0998209257667
 30
0.0
 10
102.4263061267371
 20
-151.0998209257667
 30
0.0
 10
102.4941745077966
 20
-151.0998209257667
 30
0.0
 10
102.6378349895315
 20
-151.0956868111844
 30
0.0
 10
102.7435994209287
 20
-151.0891411297624
 30
0.0
 10
102.7435994209287
 20
-151.0891411297624
 30
0.0
 10
102.7435994209287
 20
-151.2669080568013
 30
0.0
 10
102.7435994209287
 20
-151.2669080568013
 30
0.0
 10
102.6464477282446
 20
-151.2607068849279
 30
0.0
 10
102.4900403932143
 20
-151.256228260797
 30
0.0
 10
102.4263061267371
 20
-151.256228260797
 30
0.0
 10
102.4263061267371
 20
-151.256228260797
 30
0.0
 10
102.3587822552263
 20
-151.256228260797
 30
0.0
 10
102.3587822552263
 20
-151.256228260797
 30
0.0
 10
102.3587822552263
 20
-151.256228260797
 30
0.0
 10
102.3587822552263
 20
-151.4023003093717
 30
0.0
 10
102.3587822552263
 20
-151.4023003093717
 30
0.0
 10
102.3587822552263
 20
-151.4023003093717
 30
0.0
 10
102.4287176935768
 20
-151.4023003093717
 30
0.0
 10
102.4287176935768
 20
-151.4023003093717
 30
0.0
 10
102.5789238567337
 20
-151.4023003093717
 30
0.0
 10
102.6505818428269
 20
-151.3981661947893
 30
0.0
 10
102.7119045424644
 20
-151.3960991374982
 30
0.0
 10
102.7036363132998
 20
-151.4911837728911
 30
0.0
 10
102.7015692560086
 20
-151.5693874404062
 30
0.0
 10
102.6995021987175
 20
-151.6076280002925
 30
0.0
 10
102.8538424764567
 20
-151.3960991374982
 30
0.0
 10
102.9596069078538
 20
-151.1483967721087
 30
0.0
 10
102.9764878757315
 20
-150.8862250056812
 30
0.0
 10
102.9764878757315
 20
-150.8862250056812
 30
0.0
 10
103.1921508531082
 20
-150.9368679093144
 30
0.0
 10
103.1921508531082
 20
-150.9368679093144
 30
0.0
 10
103.2069647636948
 20
-150.9410020238967
 30
0.0
 10
103.2217786742813
 20
-150.9475477053186
 30
0.0
 10
103.2217786742813
 20
-150.9644286731964
 30
0.0
 10
103.2217786742813
 20
-150.9813096410741
 30
0.0
 10
103.217644559699
 20
-150.9833766983653
 30
0.0
 10
103.1670016560659
 20
-151.0043917808253
 30
0.0
 10
103.1497761786396
 20
-151.0808729005978
 30
0.0
 10
103.1246269815973
 20
-151.1718234214084
 30
0.0
 10
103.0760511352553
 20
-151.2986029352656
 30
0.0
 10
103.0760511352553
 20
-151.2986029352656
 30
0.0
 10
103.4143595119068
 20
-151.2986029352656
 30
0.0
 10
103.4143595119068
 20
-151.2986029352656
 30
0.0
 10
103.4526000717931
 20
-151.2986029352656
 30
0.0
 10
103.5814466429414
 20
-151.2944688206833
 30
0.0
 10
103.6300224892835
 20
-151.2879231392613
 30
0.0
 10
103.6300224892835
 20
-151.2879231392613
 30
0.0
 10
103.7233845769337
 20
-151.3578585776119
 30
0.0
 10
103.7233845769337
 20
-151.3578585776119
 30
0.0
 10
103.7147718382206
 20
-151.3788736600719
 30
0.0
 10
103.7085706663471
 20
-151.3981661947893
 30
0.0
 10
103.6937567557606
 20
-151.4339951878359
 30
0.0
  0
HATCH
  5
DD
330
D3
100
AcDbEntity
  8
レイヤー 1
 62
   250
420
  2299925
440
 33554687
100
AcDbHatch
 10
0.0
 20
0.0
 30
0.0
210
0.0
220
0.0
230
1.0
  2
SOLID
 70
     1
 71
     1
 91
        6
 92
        1
 93
        1
 72
     4
 94
        3
 73
     0
 74
     0
 95
       41
 96
       37
 40
0.0
 40
0.0
 40
0.0
 40
0.0
 40
1.0
 40
1.0
 40
1.0
 40
2.0
 40
2.0
 40
2.0
 40
3.0
 40
3.0
 40
3.0
 40
4.0
 40
4.0
 40
4.0
 40
5.0
 40
5.0
 40
5.0
 40
6.0
 40
6.0
 40
6.0
 40
7.0
 40
7.0
 40
7.0
 40
8.0
 40
8.0
 40
8.0
 40
9.0
 40
9.0
 40
9.0
 40
10.0
 40
10.0
 40
10.0
 40
11.0
 40
11.0
 40
11.0
 40
12.0
 40
12.0
 40
12.0
 40
12.0
 10
103.6090074068234
 20
-152.7899847708303
 10
103.3678507228559
 20
-152.6545925182599
 10
103.190083795817
 20
-152.3583143065285
 10
103.1497761786396
 20
-152.2294677353801
 10
103.0291978366559
 20
-152.4937065590988
 10
102.8665893297521
 20
-152.6714734861377
 10
102.6846882881309
 20
-152.785850656248
 10
102.6846882881309
 20
-152.785850656248
 10
102.4876288263746
 20
-152.6483913463865
 10
102.4876288263746
 20
-152.6483913463865
 10
102.5575642647252
 20
-152.6228976397956
 10
102.7036363132998
 20
-152.5615749401582
 10
102.8262817125747
 20
-152.407234662419
 10
102.9509941691407
 20
-152.2504828178401
 10
103.0398776326602
 20
-152.0179388725858
 10
103.0398776326602
 20
-151.7578341634494
 10
103.0398776326602
 20
-151.6562038466345
 10
103.0271307793647
 20
-151.5842013509928
 10
103.016795492909
 20
-151.537692561942
 10
103.016795492909
 20
-151.537692561942
 10
103.2217786742813
 20
-151.558707644402
 10
103.2217786742813
 20
-151.558707644402
 10
103.2431382662899
 20
-151.5607747016931
 10
103.2641533487499
 20
-151.5631862685328
 10
103.2641533487499
 20
-151.5842013509928
 10
103.2641533487499
 20
-151.6031493761617
 10
103.2534735527456
 20
-151.6117621148748
 10
103.2197116169902
 20
-151.6327771973348
 10
103.2114433878256
 20
-151.8339707736734
 10
103.2682874633322
 20
-152.0771945149321
 10
103.3296101629697
 20
-152.1977728569158
 10
103.4205606837802
 20
-152.373128217115
 10
103.6152085786969
 20
-152.5529622014451
 10
103.7506008312672
 20
-152.6101507865002
 10
103.7506008312672
 20
-152.6101507865002
 10
103.6090074068234
 20
-152.7899847708303
 10
103.6090074068234
 20
-152.7899847708303
 97
        0
 97
        1
330
D7
 92
        1
 93
        1
 72
     4
 94
        3
 73
     0
 74
     0
 95
       17
 96
       13
 40
0.0
 40
0.0
 40
0.0
 40
0.0
 40
1.0
 40
1.0
 40
1.0
 40
2.0
 40
2.0
 40
2.0
 40
3.0
 40
3.0
 40
3.0
 40
4.0
 40
4.0
 40
4.0
 40
4.0
 10
102.5196682143874
 20
-151.8315592068338
 10
102.5196682143874
 20
-151.8315592068338
 10
102.3587822552263
 20
-151.8315592068338
 10
102.3587822552263
 20
-151.8315592068338
 10
102.3587822552263
 20
-151.8315592068338
 10
102.3587822552263
 20
-151.9607502875306
 10
102.3587822552263
 20
-151.9607502875306
 10
102.3587822552263
 20
-151.9607502875306
 10
102.5196682143874
 20
-151.9607502875306
 10
102.5196682143874
 20
-151.9607502875306
 10
102.5196682143874
 20
-151.9607502875306
 10
102.5196682143874
 20
-151.8315592068338
 10
102.5196682143874
 20
-151.8315592068338
 97
        0
 97
        1
330
D8
 92
        1
 93
        1
 72
     4
 94
        3
 73
     0
 74
     0
 95
       17
 96
       13
 40
0.0
 40
0.0
 40
0.0
 40
0.0
 40
1.0
 40
1.0
 40
1.0
 40
2.0
 40
2.0
 40
2.0
 40
3.0
 40
3.0
 40
3.0
 40
4.0
 40
4.0
 40
4.0
 40
4.0
 10
102.5196682143874
 20
-151.558707644402
 10
102.5196682143874
 20
-151.558707644402
 10
102.3587822552263
 20
-151.558707644402
 10
102.3587822552263
 20
-151.558707644402
 10
102.3587822552263
 20
-151.558707644402
 10
102.3587822552263
 20
-151.6878987250988
 10
102.3587822552263
 20
-151.6878987250988
 10
102.3587822552263
 20
-151.6878987250988
 10
102.5196682143874
 20
-151.6878987250988
 10
102.5196682143874
 20
-151.6878987250988
 10
102.5196682143874
 20
-151.6878987250988
 10
102.5196682143874
 20
-151.558707644402
 10
102.5196682143874
 20
-151.558707644402
 97
        0
 97
        1
330
D9
 92
        1
 93
        1
 72
     4
 94
        3
 73
     0
 74
     0
 95
       17
 96
       13
 40
0.0
 40
0.0
 40
0.0
 40
0.0
 40
1.0
 40
1.0
 40
1.0
 40
2.0
 40
2.0
 40
2.0
 40
3.0
 40
3.0
 40
3.0
 40
4.0
 40
4.0
 40
4.0
 40
4.0
 10
102.1872165000608
 20
-151.8315592068338
 10
102.1872165000608
 20
-151.8315592068338
 10
102.0287421077393
 20
-151.8315592068338
 10
102.0287421077393
 20
-151.8315592068338
 10
102.0287421077393
 20
-151.8315592068338
 10
102.0287421077393
 20
-151.9607502875306
 10
102.0287421077393
 20
-151.9607502875306
 10
102.0287421077393
 20
-151.9607502875306
 10
102.1872165000608
 20
-151.9607502875306
 10
102.1872165000608
 20
-151.9607502875306
 10
102.1872165000608
 20
-151.9607502875306
 10
102.1872165000608
 20
-151.8315592068338
 10
102.1872165000608
 20
-151.8315592068338
 97
        0
 97
        1
330
DA
 92
        1
 93
        1
 72
     4
 94
        3
 73
     0
 74
     0
 95
       17
 96
       13
 40
0.0
 40
0.0
 40
0.0
 40
0.0
 40
1.0
 40
1.0
 40
1.0
 40
2.0
 40
2.0
 40
2.0
 40
3.0
 40
3.0
 40
3.0
 40
4.0
 40
4.0
 40
4.0
 40
4.0
 10
102.1872165000608
 20
-151.558707644402
 10
102.1872165000608
 20
-151.558707644402
 10
102.0287421077393
 20
-151.558707644402
 10
102.0287421077393
 20
-151.558707644402
 10
102.0287421077393
 20
-151.558707644402
 10
102.0287421077393
 20
-151.6878987250988
 10
102.0287421077393
 20
-151.6878987250988
 10
102.0287421077393
 20
-151.6878987250988
 10
102.1872165000608
 20
-151.6878987250988
 10
102.1872165000608
 20
-151.6878987250988
 10
102.1872165000608
 20
-151.6878987250988
 10
102.1872165000608
 20
-151.558707644402
 10
102.1872165000608
 20
-151.558707644402
 97
        0
 97
        1
330
DB
 92
        1
 93
        1
 72
     4
 94
        3
 73
     0
 74
     0
 95
      197
 96
      193
 40
0.0
 40
0.0
 40
0.0
 40
0.0
 40
1.0
 40
1.0
 40
1.0
 40
2.0
 40
2.0
 40
2.0
 40
3.0
 40
3.0
 40
3.0
 40
4.0
 40
4.0
 40
4.0
 40
5.0
 40
5.0
 40
5.0
 40
6.0
 40
6.0
 40
6.0
 40
7.0
 40
7.0
 40
7.0
 40
8.0
 40
8.0
 40
8.0
 40
9.0
 40
9.0
 40
9.0
 40
10.0
 40
10.0
 40
10.0
 40
11.0
 40
11.0
 40
11.0
 40
12.0
 40
12.0
 40
12.0
 40
13.0
 40
13.0
 40
13.0
 40
14.0
 40
14.0
 40
14.0
 40
15.0
 40
15.0
 40
15.0
 40
16.0
 40
16.0
 40
16.0
 40
17.0
 40
17.0
 40
17.0
 40
18.0
 40
18.0
 40
18.0
 40
19.0
 40
19.0
 40
19.0
 40
20.0
 40
20.0
 40
20.0
 40
21.0
 40
21.0
 40
21.0
 40
22.0
 40
22.0
 40
22.0
 40
23.0
 40
23.0
 40
23.0
 40
24.0
 40
24.0
 40
24.0
 40
25.0
 40
25.0
 40
25.0
 40
26.0
 40
26.0
 40
26.0
 40
27.0
 40
27.0
 40
27.0
 40
28.0
 40
28.0
 40
28.0
 40
29.0
 40
29.0
 40
29.0
 40
30.0
 40
30.0
 40
30.0
 40
31.0
 40
31.0
 40
31.0
 40
32.0
 40
32.0
 40
32.0
 40
33.0
 40
33.0
 40
33.0
 40
34.0
 40
34.0
 40
34.0
 40
35.0
 40
35.0
 40
35.0
 40
36.0
 40
36.0
 40
36.0
 40
37.0
 40
37.0
 40
37.0
 40
38.0
 40
38.0
 40
38.0
 40
39.0
 40
39.0
 40
39.0
 40
40.0
 40
40.0
 40
40.0
 40
41.0
 40
41.0
 40
41.0
 40
42.0
 40
42.0
 40
42.0
 40
43.0
 40
43.0
 40
43.0
 40
44.0
 40
44.0
 40
44.0
 40
45.0
 40
45.0
 40
45.0
 40
46.0
 40
46.0
 40
46.0
 40
47.0
 40
47.0
 40
47.0
 40
48.0
 40
48.0
 40
48.0
 40
49.0
 40
49.0
 40
49.0
 40
50.0
 40
50.0
 40
50.0
 40
51.0
 40
51.0
 40
51.0
 40
52.0
 40
52.0
 40
52.0
 40
53.0
 40
53.0
 40
53.0
 40
54.0
 40
54.0
 40
54.0
 40
55.0
 40
55.0
 40
55.0
 40
56.0
 40
56.0
 40
56.0
 40
57.0
 40
57.0
 40
57.0
 40
58.0
 40
58.0
 40
58.0
 40
59.0
 40
59.0
 40
59.0
 40
60.0
 40
60.0
 40
60.0
 40
61.0
 40
61.0
 40
61.0
 40
62.0
 40
62.0
 40
62.0
 40
63.0
 40
63.0
 40
63.0
 40
64.0
 40
64.0
 40
64.0
 40
64.0
 10
103.6937567557606
 20
-151.4339951878359
 10
103.6830769597563
 20
-151.4636230090091
 10
103.6596503104566
 20
-151.5101317980599
 10
103.6493150240008
 20
-151.537692561942
 10
103.6493150240008
 20
-151.537692561942
 10
103.5879923243634
 20
-151.68996578239
 10
103.5879923243634
 20
-151.68996578239
 10
103.5773125283591
 20
-151.7154594889808
 10
103.5287366820171
 20
-151.8274250922514
 10
103.5159898287217
 20
-151.8508517415512
 10
103.5139227714305
 20
-151.8570529134246
 10
103.5094441472997
 20
-151.8656656521377
 10
103.5073770900085
 20
-151.8718668240112
 10
103.5073770900085
 20
-151.8718668240112
 10
103.2979152845054
 20
-151.8191568630868
 10
103.2979152845054
 20
-151.8191568630868
 10
103.3764634615691
 20
-151.7089138075589
 10
103.4377861612065
 20
-151.5735215549885
 10
103.4694810396708
 20
-151.4636230090091
 10
103.4694810396708
 20
-151.4636230090091
 10
103.0040486396135
 20
-151.4636230090091
 10
103.0040486396135
 20
-151.4636230090091
 10
102.9234334052587
 20
-151.6286430827525
 10
102.8559095337478
 20
-151.7068467502677
 10
102.8221475979923
 20
-151.7471543674451
 10
102.8221475979923
 20
-151.7471543674451
 10
102.6995021987175
 20
-151.6813530436769
 10
102.6995021987175
 20
-151.6813530436769
 10
102.6995021987175
 20
-151.6813530436769
 10
102.6995021987175
 20
-151.8529187988423
 10
102.6995021987175
 20
-151.8529187988423
 10
102.6995021987175
 20
-151.9607502875306
 10
102.7015692560086
 20
-152.0093261338726
 10
102.7119045424644
 20
-152.1150905652698
 10
102.6402465563712
 20
-152.1130235079787
 10
102.6188869643626
 20
-152.1130235079787
 10
102.4139037829902
 20
-152.1130235079787
 10
102.4139037829902
 20
-152.1130235079787
 10
102.3587822552263
 20
-152.1130235079787
 10
102.3587822552263
 20
-152.1130235079787
 10
102.3587822552263
 20
-152.1130235079787
 10
102.3587822552263
 20
-152.248415760549
 10
102.3587822552263
 20
-152.248415760549
 10
102.3587822552263
 20
-152.248415760549
 10
102.430784750868
 20
-152.248415760549
 10
102.430784750868
 20
-152.248415760549
 10
102.4962415650877
 20
-152.248415760549
 10
102.6423136136623
 20
-152.2442816459667
 10
102.7480780450595
 20
-152.2356689072536
 10
102.7480780450595
 20
-152.2356689072536
 10
102.7480780450595
 20
-152.4134358342925
 10
102.7480780450595
 20
-152.4134358342925
 10
102.6505818428269
 20
-152.407234662419
 10
102.4921074505054
 20
-152.4027560382882
 10
102.430784750868
 20
-152.4027560382882
 10
102.430784750868
 20
-152.4027560382882
 10
102.3587822552263
 20
-152.4027560382882
 10
102.3587822552263
 20
-152.4027560382882
 10
102.3608493125174
 20
-152.4916395018076
 10
102.3649834270997
 20
-152.730729128484
 10
102.3670504843909
 20
-152.8047986814168
 10
102.3670504843909
 20
-152.8047986814168
 10
102.1662014176008
 20
-152.8047986814168
 10
102.1662014176008
 20
-152.8047986814168
 10
102.1789482708962
 20
-152.5912027613314
 10
102.1789482708962
 20
-152.5615749401582
 10
102.1830823854785
 20
-152.4027560382882
 10
102.1830823854785
 20
-152.4027560382882
 10
102.1134914566765
 20
-152.4027560382882
 10
102.1134914566765
 20
-152.4027560382882
 10
102.0563028716213
 20
-152.4027560382882
 10
101.9040296511733
 20
-152.407234662419
 10
101.7937865956453
 20
-152.4134358342925
 10
101.7937865956453
 20
-152.4134358342925
 10
101.7937865956453
 20
-152.2356689072536
 10
101.7937865956453
 20
-152.2356689072536
 10
101.8995510270425
 20
-152.2442816459667
 10
102.0435560183259
 20
-152.248415760549
 10
102.1134914566765
 20
-152.248415760549
 10
102.1134914566765
 20
-152.248415760549
 10
102.1872165000608
 20
-152.248415760549
 10
102.1872165000608
 20
-152.248415760549
 10
102.1872165000608
 20
-152.248415760549
 10
102.1872165000608
 20
-152.1130235079787
 10
102.1872165000608
 20
-152.1130235079787
 10
102.1872165000608
 20
-152.1130235079787
 10
102.1431192778496
 20
-152.1130235079787
 10
102.1431192778496
 20
-152.1130235079787
 10
102.0666381580771
 20
-152.1130235079787
 10
101.8744018300001
 20
-152.1150905652698
 10
101.8402953846962
 20
-152.1150905652698
 10
101.8468410661181
 20
-152.0434325791766
 10
101.8551092952827
 20
-151.9628173448218
 10
101.8551092952827
 20
-151.842239002838
 10
101.8551092952827
 20
-151.842239002838
 10
101.8551092952827
 20
-151.66895069993
 10
101.8551092952827
 20
-151.66895069993
 10
101.8551092952827
 20
-151.5969482042883
 10
101.8468410661181
 20
-151.4763698623045
 10
101.8402953846962
 20
-151.3960991374982
 10
101.9188435617598
 20
-151.4002332520805
 10
101.9567396120976
 20
-151.4023003093717
 10
102.0838636355033
 20
-151.4023003093717
 10
102.0838636355033
 20
-151.4023003093717
 10
102.1872165000608
 20
-151.4023003093717
 10
102.1872165000608
 20
-151.4023003093717
 10
102.1872165000608
 20
-151.4023003093717
 10
102.1872165000608
 20
-151.256228260797
 10
102.1872165000608
 20
-151.256228260797
 10
102.1872165000608
 20
-151.256228260797
 10
102.1090128325456
 20
-151.256228260797
 10
102.1090128325456
 20
-151.256228260797
 10
102.0542358143302
 20
-151.256228260797
 10
101.8826700591647
 20
-151.2607068849279
 10
101.7982652197761
 20
-151.2669080568013
 10
101.7982652197761
 20
-151.2669080568013
 10
101.7982652197761
 20
-151.0891411297624
 10
101.7982652197761
 20
-151.0891411297624
 10
101.8806030018736
 20
-151.0956868111844
 10
102.0435560183259
 20
-151.0998209257667
 10
102.1090128325456
 20
-151.0998209257667
 10
102.1090128325456
 20
-151.0998209257667
 10
102.1872165000608
 20
-151.0998209257667
 10
102.1872165000608
 20
-151.0998209257667
 10
102.1872165000608
 20
-151.0660589900112
 10
102.1830823854785
 20
-150.9113742027235
 10
102.1830823854785
 20
-150.8796793242592
 10
102.1830823854785
 20
-150.8796793242592
 10
102.3797973376863
 20
-150.8965602921369
 10
102.3797973376863
 20
-150.8965602921369
 10
102.396678305564
 20
-150.8986273494281
 10
102.4180378975726
 20
-150.9010389162678
 10
102.4180378975726
 20
-150.9220539987278
 10
102.4180378975726
 20
-150.9454806480275
 10
102.396678305564
 20
-150.9537488771921
 10
102.3694620512305
 20
-150.9664957304875
 10
102.3694620512305
 20
-150.9875108129475
 10
102.3670504843909
 20
-151.082939957889
 10
102.3670504843909
 20
-151.0998209257667
 10
102.3670504843909
 20
-151.0998209257667
 10
102.4263061267371
 20
-151.0998209257667
 10
102.4263061267371
 20
-151.0998209257667
 10
102.4941745077966
 20
-151.0998209257667
 10
102.6378349895315
 20
-151.0956868111844
 10
102.7435994209287
 20
-151.0891411297624
 10
102.7435994209287
 20
-151.0891411297624
 10
102.7435994209287
 20
-151.2669080568013
 10
102.7435994209287
 20
-151.2669080568013
 10
102.6464477282446
 20
-151.2607068849279
 10
102.4900403932143
 20
-151.256228260797
 10
102.4263061267371
 20
-151.256228260797
 10
102.4263061267371
 20
-151.256228260797
 10
102.3587822552263
 20
-151.256228260797
 10
102.3587822552263
 20
-151.256228260797
 10
102.3587822552263
 20
-151.256228260797
 10
102.3587822552263
 20
-151.4023003093717
 10
102.3587822552263
 20
-151.4023003093717
 10
102.3587822552263
 20
-151.4023003093717
 10
102.4287176935768
 20
-151.4023003093717
 10
102.4287176935768
 20
-151.4023003093717
 10
102.5789238567337
 20
-151.4023003093717
 10
102.6505818428269
 20
-151.3981661947893
 10
102.7119045424644
 20
-151.3960991374982
 10
102.7036363132998
 20
-151.4911837728911
 10
102.7015692560086
 20
-151.5693874404062
 10
102.6995021987175
 20
-151.6076280002925
 10
102.8538424764567
 20
-151.3960991374982
 10
102.9596069078538
 20
-151.1483967721087
 10
102.9764878757315
 20
-150.8862250056812
 10
102.9764878757315
 20
-150.8862250056812
 10
103.1921508531082
 20
-150.9368679093144
 10
103.1921508531082
 20
-150.9368679093144
 10
103.2069647636948
 20
-150.9410020238967
 10
103.2217786742813
 20
-150.9475477053186
 10
103.2217786742813
 20
-150.9644286731964
 10
103.2217786742813
 20
-150.9813096410741
 10
103.217644559699
 20
-150.9833766983653
 10
103.1670016560659
 20
-151.0043917808253
 10
103.1497761786396
 20
-151.0808729005978
 10
103.1246269815973
 20
-151.1718234214084
 10
103.0760511352553
 20
-151.2986029352656
 10
103.0760511352553
 20
-151.2986029352656
 10
103.4143595119068
 20
-151.2986029352656
 10
103.4143595119068
 20
-151.2986029352656
 10
103.4526000717931
 20
-151.2986029352656
 10
103.5814466429414
 20
-151.2944688206833
 10
103.6300224892835
 20
-151.2879231392613
 10
103.6300224892835
 20
-151.2879231392613
 10
103.7233845769337
 20
-151.3578585776119
 10
103.7233845769337
 20
-151.3578585776119
 10
103.7147718382206
 20
-151.3788736600719
 10
103.7085706663471
 20
-151.3981661947893
 10
103.6937567557606
 20
-151.4339951878359
 97
        0
 97
        1
330
DC
 75
     2
 76
     1
 98
        1
 10
0.0
 20
0.0
450
        0
451
        0
460
0.0
461
0.0
452
        0
462
0.0
453
        0
470

  0
SPLINE
  5
DE
330
D3
100
AcDbEntity
  8
レイヤー 1
100
AcDbSpline
210
0.0
220
0.0
230
1.0
 70
     9
 71
     3
 72
    74
 73
    70
 74
     0
 42
0.0000000001
 43
0.0000000001
 40
0.0
 40
0.0
 40
0.0
 40
0.0
 40
1.0
 40
1.0
 40
1.0
 40
2.0
 40
2.0
 40
2.0
 40
3.0
 40
3.0
 40
3.0
 40
4.0
 40
4.0
 40
4.0
 40
5.0
 40
5.0
 40
5.0
 40
6.0
 40
6.0
 40
6.0
 40
7.0
 40
7.0
 40
7.0
 40
8.0
 40
8.0
 40
8.0
 40
9.0
 40
9.0
 40
9.0
 40
10.0
 40
10.0
 40
10.0
 40
11.0
 40
11.0
 40
11.0
 40
12.0
 40
12.0
 40
12.0
 40
13.0
 40
13.0
 40
13.0
 40
14.0
 40
14.0
 40
14.0
 40
15.0
 40
15.0
 40
15.0
 40
16.0
 40
16.0
 40
16.0
 40
17.0
 40
17.0
 40
17.0
 40
18.0
 40
18.0
 40
18.0
 40
19.0
 40
19.0
 40
19.0
 40
20.0
 40
20.0
 40
20.0
 40
21.0
 40
21.0
 40
21.0
 40
22.0
 40
22.0
 40
22.0
 40
23.0
 40
23.0
 40
23.0
 40
23.0
 10
105.6545328511905
 20
-151.3368434951519
 30
0.0
 10
105.6545328511905
 20
-151.3368434951519
 30
0.0
 10
105.4939914015779
 20
-151.3368434951519
 30
0.0
 10
105.4939914015779
 20
-151.3368434951519
 30
0.0
 10
105.4939914015779
 20
-151.3368434951519
 30
0.0
 10
105.4939914015779
 20
-151.4508761557136
 30
0.0
 10
105.4939914015779
 20
-151.4508761557136
 30
0.0
 10
105.4939914015779
 20
-151.4911837728911
 30
0.0
 10
105.5001925734513
 20
-151.5652533258239
 30
0.0
 10
105.5043266880336
 20
-151.5904025228663
 30
0.0
 10
105.5043266880336
 20
-151.5904025228663
 30
0.0
 10
105.292625570465
 20
-151.5904025228663
 30
0.0
 10
105.292625570465
 20
-151.5904025228663
 30
0.0
 10
105.3033053664693
 20
-151.5249457086465
 30
0.0
 10
105.3053724237605
 20
-151.4656900663002
 30
0.0
 10
105.3053724237605
 20
-151.4636230090091
 30
0.0
 10
105.3053724237605
 20
-151.4636230090091
 30
0.0
 10
105.3053724237605
 20
-151.3409776097342
 30
0.0
 10
105.3053724237605
 20
-151.3409776097342
 30
0.0
 10
105.3053724237605
 20
-151.3409776097342
 30
0.0
 10
105.1255384394304
 20
-151.3409776097342
 30
0.0
 10
105.1255384394304
 20
-151.3409776097342
 30
0.0
 10
105.1065904142615
 20
-151.4002332520805
 30
0.0
 10
105.0600816252106
 20
-151.5459607911066
 30
0.0
 10
104.9457044551004
 20
-151.6286430827525
 30
0.0
 10
104.9457044551004
 20
-151.6286430827525
 30
0.0
 10
104.78929712007
 20
-151.5228786513554
 30
0.0
 10
104.78929712007
 20
-151.5228786513554
 30
0.0
 10
104.8633666730029
 20
-151.4763698623045
 30
0.0
 10
104.9794663908558
 20
-151.4023003093717
 30
0.0
 10
104.9794663908558
 20
-151.0808729005978
 30
0.0
 10
104.9794663908558
 20
-151.0257513728338
 30
0.0
 10
104.9753322762735
 20
-150.9813096410741
 30
0.0
 10
104.9732652189824
 20
-150.9430690811878
 30
0.0
 10
105.0494018292064
 20
-150.951681819901
 30
0.0
 10
105.1234713821392
 20
-150.9578829917744
 30
0.0
 10
105.1868611390678
 20
-150.9578829917744
 30
0.0
 10
105.3646280661067
 20
-150.9578829917744
 30
0.0
 10
105.5635823303799
 20
-150.8986273494281
 30
0.0
 10
105.6249050300174
 20
-150.868999528255
 30
0.0
 10
105.6249050300174
 20
-150.868999528255
 30
0.0
 10
105.7520290534231
 20
-151.0043917808253
 30
0.0
 10
105.7520290534231
 20
-151.0043917808253
 30
0.0
 10
105.7561631680054
 20
-151.0088704049561
 30
0.0
 10
105.7582302252965
 20
-151.0171386341207
 30
0.0
 10
105.7582302252965
 20
-151.0236843155427
 30
0.0
 10
105.7582302252965
 20
-151.0446993980027
 30
0.0
 10
105.74341631471
 20
-151.0512450794247
 30
0.0
 10
105.7265353468322
 20
-151.0512450794247
 30
0.0
 10
105.7055202643722
 20
-151.0512450794247
 30
0.0
 10
105.6907063537856
 20
-151.0426323407116
 30
0.0
 10
105.6714138190682
 20
-151.0319525447073
 30
0.0
 10
105.4981255161602
 20
-151.0891411297624
 30
0.0
 10
105.2798787171696
 20
-151.1146348363533
 30
0.0
 10
105.1465535218904
 20
-151.1167018936444
 30
0.0
 10
105.1465535218904
 20
-151.1167018936444
 30
0.0
 10
105.1424194073081
 20
-151.1990396757419
 30
0.0
 10
105.1424194073081
 20
-151.1990396757419
 30
0.0
 10
105.1424194073081
 20
-151.1990396757419
 30
0.0
 10
105.4152709697399
 20
-151.1990396757419
 30
0.0
 10
105.4152709697399
 20
-151.1990396757419
 30
0.0
 10
105.472459554795
 20
-151.1990396757419
 30
0.0
 10
105.7351480855454
 20
-151.180091650573
 30
0.0
 10
105.7795898173051
 20
-151.1738904786995
 30
0.0
 10
105.7795898173051
 20
-151.1738904786995
 30
0.0
 10
105.7795898173051
 20
-151.3430446670253
 30
0.0
 10
105.7795898173051
 20
-151.3430446670253
 30
0.0
 10
105.7454833720011
 20
-151.338910552443
 30
0.0
 10
105.7327365187057
 20
-151.3368434951519
 30
0.0
 10
105.6545328511905
 20
-151.3368434951519
 30
0.0
  0
SPLINE
  5
DF
330
D3
100
AcDbEntity
  8
レイヤー 1
100
AcDbSpline
210
0.0
220
0.0
230
1.0
 70
    11
 71
     3
 72
    17
 73
    13
 74
     0
 42
0.0000000001
 43
0.0000000001
 40
0.0
 40
0.0
 40
0.0
 40
0.0
 40
1.0
 40
1.0
 40
1.0
 40
2.0
 40
2.0
 40
2.0
 40
3.0
 40
3.0
 40
3.0
 40
4.0
 40
4.0
 40
4.0
 40
4.0
 10
105.3370673022247
 20
-152.2801106390133
 30
0.0
 10
105.3370673022247
 20
-152.2801106390133
 30
0.0
 10
104.4254950368276
 20
-152.2801106390133
 30
0.0
 10
104.4254950368276
 20
-152.2801106390133
 30
0.0
 10
104.4254950368276
 20
-152.2801106390133
 30
0.0
 10
104.4254950368276
 20
-152.3879421277016
 30
0.0
 10
104.4254950368276
 20
-152.3879421277016
 30
0.0
 10
104.4254950368276
 20
-152.3879421277016
 30
0.0
 10
105.3370673022247
 20
-152.3879421277016
 30
0.0
 10
105.3370673022247
 20
-152.3879421277016
 30
0.0
 10
105.3370673022247
 20
-152.3879421277016
 30
0.0
 10
105.3370673022247
 20
-152.2801106390133
 30
0.0
 10
105.3370673022247
 20
-152.2801106390133
 30
0.0
  0
SPLINE
  5
E0
330
D3
100
AcDbEntity
  8
レイヤー 1
100
AcDbSpline
210
0.0
220
0.0
230
1.0
 70
    11
 71
     3
 72
    17
 73
    13
 74
     0
 42
0.0000000001
 43
0.0000000001
 40
0.0
 40
0.0
 40
0.0
 40
0.0
 40
1.0
 40
1.0
 40
1.0
 40
2.0
 40
2.0
 40
2.0
 40
3.0
 40
3.0
 40
3.0
 40
4.0
 40
4.0
 40
4.0
 40
4.0
 10
105.3370673022247
 20
-152.0348198404635
 30
0.0
 10
105.3370673022247
 20
-152.0348198404635
 30
0.0
 10
104.4254950368276
 20
-152.0348198404635
 30
0.0
 10
104.4254950368276
 20
-152.0348198404635
 30
0.0
 10
104.4254950368276
 20
-152.0348198404635
 30
0.0
 10
104.4254950368276
 20
-152.144718386443
 30
0.0
 10
104.4254950368276
 20
-152.144718386443
 30
0.0
 10
104.4254950368276
 20
-152.144718386443
 30
0.0
 10
105.3370673022247
 20
-152.144718386443
 30
0.0
 10
105.3370673022247
 20
-152.144718386443
 30
0.0
 10
105.3370673022247
 20
-152.144718386443
 30
0.0
 10
105.3370673022247
 20
-152.0348198404635
 30
0.0
 10
105.3370673022247
 20
-152.0348198404635
 30
0.0
  0
SPLINE
  5
E1
330
D3
100
AcDbEntity
  8
レイヤー 1
100
AcDbSpline
210
0.0
220
0.0
230
1.0
 70
    11
 71
     3
 72
    17
 73
    13
 74
     0
 42
0.0000000001
 43
0.0000000001
 40
0.0
 40
0.0
 40
0.0
 40
0.0
 40
1.0
 40
1.0
 40
1.0
 40
2.0
 40
2.0
 40
2.0
 40
3.0
 40
3.0
 40
3.0
 40
4.0
 40
4.0
 40
4.0
 40
4.0
 10
105.3370673022247
 20
-151.7895290419137
 30
0.0
 10
105.3370673022247
 20
-151.7895290419137
 30
0.0
 10
104.4254950368276
 20
-151.7895290419137
 30
0.0
 10
104.4254950368276
 20
-151.7895290419137
 30
0.0
 10
104.4254950368276
 20
-151.7895290419137
 30
0.0
 10
104.4254950368276
 20
-151.9014946451843
 30
0.0
 10
104.4254950368276
 20
-151.9014946451843
 30
0.0
 10
104.4254950368276
 20
-151.9014946451843
 30
0.0
 10
105.3370673022247
 20
-151.9014946451843
 30
0.0
 10
105.3370673022247
 20
-151.9014946451843
 30
0.0
 10
105.3370673022247
 20
-151.9014946451843
 30
0.0
 10
105.3370673022247
 20
-151.7895290419137
 30
0.0
 10
105.3370673022247
 20
-151.7895290419137
 30
0.0
  0
SPLINE
  5
E2
330
D3
100
AcDbEntity
  8
レイヤー 1
100
AcDbSpline
210
0.0
220
0.0
230
1.0
 70
     9
 71
     3
 72
    74
 73
    70
 74
     0
 42
0.0000000001
 43
0.0000000001
 40
0.0
 40
0.0
 40
0.0
 40
0.0
 40
1.0
 40
1.0
 40
1.0
 40
2.0
 40
2.0
 40
2.0
 40
3.0
 40
3.0
 40
3.0
 40
4.0
 40
4.0
 40
4.0
 40
5.0
 40
5.0
 40
5.0
 40
6.0
 40
6.0
 40
6.0
 40
7.0
 40
7.0
 40
7.0
 40
8.0
 40
8.0
 40
8.0
 40
9.0
 40
9.0
 40
9.0
 40
10.0
 40
10.0
 40
10.0
 40
11.0
 40
11.0
 40
11.0
 40
12.0
 40
12.0
 40
12.0
 40
13.0
 40
13.0
 40
13.0
 40
14.0
 40
14.0
 40
14.0
 40
15.0
 40
15.0
 40
15.0
 40
16.0
 40
16.0
 40
16.0
 40
17.0
 40
17.0
 40
17.0
 40
18.0
 40
18.0
 40
18.0
 40
19.0
 40
19.0
 40
19.0
 40
20.0
 40
20.0
 40
20.0
 40
21.0
 40
21.0
 40
21.0
 40
22.0
 40
22.0
 40
22.0
 40
23.0
 40
23.0
 40
23.0
 40
23.0
 10
105.6417859978951
 20
-152.8237467065857
 30
0.0
 10
105.4280178230353
 20
-152.81341142013
 30
0.0
 10
105.2271687562453
 20
-152.7265950139017
 30
0.0
 10
105.0514688864975
 20
-152.6060166719179
 30
0.0
 10
105.0514688864975
 20
-152.6060166719179
 30
0.0
 10
105.1489650887301
 20
-152.5192002656896
 30
0.0
 10
105.1489650887301
 20
-152.5192002656896
 30
0.0
 10
105.1489650887301
 20
-152.5192002656896
 30
0.0
 10
104.5967162824446
 20
-152.5192002656896
 30
0.0
 10
104.5967162824446
 20
-152.5192002656896
 30
0.0
 10
104.5967162824446
 20
-152.5192002656896
 30
0.0
 10
104.6769870072509
 20
-152.5825900226182
 30
0.0
 10
104.6769870072509
 20
-152.5825900226182
 30
0.0
 10
104.6835326886728
 20
-152.587068646749
 30
0.0
 10
104.6938679751286
 20
-152.5974039332048
 30
0.0
 10
104.6938679751286
 20
-152.6122178437914
 30
0.0
 10
104.6938679751286
 20
-152.6525254609688
 30
0.0
 10
104.6197984221957
 20
-152.6463242890953
 30
0.0
 10
104.6049845116092
 20
-152.6439127222557
 30
0.0
 10
104.3745076236459
 20
-152.7837835989568
 30
0.0
 10
104.230847141911
 20
-152.8154784774211
 30
0.0
 10
104.127149767805
 20
-152.8323594452988
 30
0.0
 10
104.127149767805
 20
-152.8323594452988
 30
0.0
 10
103.9979586871081
 20
-152.6545925182599
 30
0.0
 10
103.9979586871081
 20
-152.6545925182599
 30
0.0
 10
104.2456610524976
 20
-152.6228976397956
 30
0.0
 10
104.3469468597639
 20
-152.5763888507448
 30
0.0
 10
104.4358303232834
 20
-152.5233343802719
 30
0.0
 10
104.3617607703505
 20
-152.5257459471116
 30
0.0
 10
104.2477281097887
 20
-152.5278130044028
 30
0.0
 10
104.2160332313244
 20
-152.5298800616939
 30
0.0
 10
104.230847141911
 20
-152.4409965981744
 30
0.0
 10
104.2329141992022
 20
-152.3118055174776
 30
0.0
 10
104.2329141992022
 20
-152.2377359645447
 30
0.0
 10
104.2329141992022
 20
-152.2377359645447
 30
0.0
 10
104.2329141992022
 20
-151.9376681477794
 30
0.0
 10
104.2329141992022
 20
-151.9376681477794
 30
0.0
 10
104.2329141992022
 20
-151.8381048882558
 30
0.0
 10
104.2263685177802
 20
-151.738541628732
 30
0.0
 10
104.2160332313244
 20
-151.641389936048
 30
0.0
 10
104.3173190385908
 20
-151.6475911079214
 30
0.0
 10
104.5481404361025
 20
-151.6541367893434
 30
0.0
 10
104.6559719247909
 20
-151.6541367893434
 30
0.0
 10
104.6559719247909
 20
-151.6541367893434
 30
0.0
 10
105.0790296503795
 20
-151.6541367893434
 30
0.0
 10
105.0790296503795
 20
-151.6541367893434
 30
0.0
 10
105.1975409350721
 20
-151.6541367893434
 30
0.0
 10
105.2399156095407
 20
-151.6541367893434
 30
0.0
 10
105.3222533916382
 20
-151.6496581652126
 30
0.0
 10
105.4703924975039
 20
-151.6434569933391
 30
0.0
 10
105.4874457201559
 20
-151.6434569933391
 30
0.0
 10
105.5339545092068
 20
-151.641389936048
 30
0.0
 10
105.5256862800422
 20
-151.7216606608543
 30
0.0
 10
105.5212076559113
 20
-151.8804795627243
 30
0.0
 10
105.5212076559113
 20
-151.9628173448218
 30
0.0
 10
105.5212076559113
 20
-151.9628173448218
 30
0.0
 10
105.5212076559113
 20
-152.248415760549
 30
0.0
 10
105.5212076559113
 20
-152.248415760549
 30
0.0
 10
105.5212076559113
 20
-152.3204182561907
 30
0.0
 10
105.5232747132025
 20
-152.4516763941787
 30
0.0
 10
105.5339545092068
 20
-152.5298800616939
 30
0.0
 10
105.4617797587908
 20
-152.5257459471116
 30
0.0
 10
105.3391343595159
 20
-152.5233343802719
 30
0.0
 10
105.2609306920007
 20
-152.5212673229808
 30
0.0
 10
105.3708292379802
 20
-152.5891357040402
 30
0.0
 10
105.5232747132025
 20
-152.6397786076734
 30
0.0
 10
105.7351480855454
 20
-152.6439127222557
 30
0.0
 10
105.7351480855454
 20
-152.6439127222557
 30
0.0
 10
105.6417859978951
 20
-152.8237467065857
 30
0.0
 10
105.6417859978951
 20
-152.8237467065857
 30
0.0
  0
SPLINE
  5
E3
330
D3
100
AcDbEntity
  8
レイヤー 1
100
AcDbSpline
210
0.0
220
0.0
230
1.0
 70
    11
 71
     3
 72
    71
 73
    67
 74
     0
 42
0.0000000001
 43
0.0000000001
 40
0.0
 40
0.0
 40
0.0
 40
0.0
 40
1.0
 40
1.0
 40
1.0
 40
2.0
 40
2.0
 40
2.0
 40
3.0
 40
3.0
 40
3.0
 40
4.0
 40
4.0
 40
4.0
 40
5.0
 40
5.0
 40
5.0
 40
6.0
 40
6.0
 40
6.0
 40
7.0
 40
7.0
 40
7.0
 40
8.0
 40
8.0
 40
8.0
 40
9.0
 40
9.0
 40
9.0
 40
10.0
 40
10.0
 40
10.0
 40
11.0
 40
11.0
 40
11.0
 40
12.0
 40
12.0
 40
12.0
 40
13.0
 40
13.0
 40
13.0
 40
14.0
 40
14.0
 40
14.0
 40
15.0
 40
15.0
 40
15.0
 40
16.0
 40
16.0
 40
16.0
 40
17.0
 40
17.0
 40
17.0
 40
18.0
 40
18.0
 40
18.0
 40
19.0
 40
19.0
 40
19.0
 40
20.0
 40
20.0
 40
20.0
 40
21.0
 40
21.0
 40
21.0
 40
22.0
 40
22.0
 40
22.0
 40
22.0
 10
104.8041110306566
 20
-151.0574462512981
 30
0.0
 10
104.78929712007
 20
-151.0574462512981
 30
0.0
 10
104.7765502667746
 20
-151.0533121367158
 30
0.0
 10
104.7510565601837
 20
-151.0446993980027
 30
0.0
 10
104.60946313574
 20
-151.0912081870536
 30
0.0
 10
104.4358303232834
 20
-151.1080891549313
 30
0.0
 10
104.2963039561308
 20
-151.1125677790621
 30
0.0
 10
104.2963039561308
 20
-151.1125677790621
 30
0.0
 10
104.2942368988396
 20
-151.2014512425816
 30
0.0
 10
104.2942368988396
 20
-151.2014512425816
 30
0.0
 10
104.2942368988396
 20
-151.2014512425816
 30
0.0
 10
104.554341607976
 20
-151.2014512425816
 30
0.0
 10
104.554341607976
 20
-151.2014512425816
 30
0.0
 10
104.6073960784488
 20
-151.2014512425816
 30
0.0
 10
104.78929712007
 20
-151.1928385038684
 30
0.0
 10
104.8337388518297
 20
-151.186637331995
 30
0.0
 10
104.8337388518297
 20
-151.186637331995
 30
0.0
 10
104.8337388518297
 20
-151.3471787816076
 30
0.0
 10
104.8337388518297
 20
-151.3471787816076
 30
0.0
 10
104.7786173240657
 20
-151.3409776097342
 30
0.0
 10
104.6539048674997
 20
-151.338910552443
 30
0.0
 10
104.6156643076134
 20
-151.3409776097342
 30
0.0
 10
104.6156643076134
 20
-151.3409776097342
 30
0.0
 10
104.6156643076134
 20
-151.4508761557136
 30
0.0
 10
104.6156643076134
 20
-151.4508761557136
 30
0.0
 10
104.6156643076134
 20
-151.4973849447645
 30
0.0
 10
104.6177313649046
 20
-151.5607747016931
 30
0.0
 10
104.6242770463265
 20
-151.5990152615794
 30
0.0
 10
104.6242770463265
 20
-151.5990152615794
 30
0.0
 10
104.4316962087011
 20
-151.5990152615794
 30
0.0
 10
104.4316962087011
 20
-151.5990152615794
 30
0.0
 10
104.4378973805745
 20
-151.558707644402
 30
0.0
 10
104.4444430619965
 20
-151.4763698623045
 30
0.0
 10
104.4444430619965
 20
-151.4615559517179
 30
0.0
 10
104.4444430619965
 20
-151.4615559517179
 30
0.0
 10
104.4444430619965
 20
-151.3409776097342
 30
0.0
 10
104.4444430619965
 20
-151.3409776097342
 30
0.0
 10
104.4444430619965
 20
-151.3409776097342
 30
0.0
 10
104.279422988253
 20
-151.3409776097342
 30
0.0
 10
104.279422988253
 20
-151.3409776097342
 30
0.0
 10
104.2370483137845
 20
-151.5607747016931
 30
0.0
 10
104.1819267860205
 20
-151.641389936048
 30
0.0
 10
104.0761623546233
 20
-151.7406086860232
 30
0.0
 10
104.0761623546233
 20
-151.7406086860232
 30
0.0
 10
103.9090752235887
 20
-151.6265760254614
 30
0.0
 10
103.9090752235887
 20
-151.6265760254614
 30
0.0
 10
103.9724649805173
 20
-151.5780001791194
 30
0.0
 10
104.1226711436742
 20
-151.4656900663002
 30
0.0
 10
104.1226711436742
 20
-151.1167018936444
 30
0.0
 10
104.1226711436742
 20
-151.0340196019984
 30
0.0
 10
104.1144029145096
 20
-150.9875108129475
 30
0.0
 10
104.1057901757964
 20
-150.9389349666055
 30
0.0
 10
104.251862224371
 20
-150.9537488771921
 30
0.0
 10
104.2666761349576
 20
-150.9537488771921
 30
0.0
 10
104.3025051280042
 20
-150.9537488771921
 30
0.0
 10
104.4106811262411
 20
-150.9537488771921
 30
0.0
 10
104.5522745506848
 20
-150.9368679093144
 30
0.0
 10
104.713160509846
 20
-150.8755452096769
 30
0.0
 10
104.713160509846
 20
-150.8755452096769
 30
0.0
 10
104.8271931704078
 20
-151.0068033476649
 30
0.0
 10
104.8271931704078
 20
-151.0068033476649
 30
0.0
 10
104.8337388518297
 20
-151.0130045195384
 30
0.0
 10
104.837872966412
 20
-151.0216172582515
 30
0.0
 10
104.837872966412
 20
-151.0298854874161
 30
0.0
 10
104.837872966412
 20
-151.0533121367158
 30
0.0
 10
104.8189249412432
 20
-151.0574462512981
 30
0.0
 10
104.8041110306566
 20
-151.0574462512981
 30
0.0
  0
HATCH
  5
E4
330
D3
100
AcDbEntity
  8
レイヤー 1
 62
   250
420
  2299925
440
 33554687
100
AcDbHatch
 10
0.0
 20
0.0
 30
0.0
210
0.0
220
0.0
230
1.0
  2
SOLID
 70
     1
 71
     1
 91
        6
 92
        1
 93
        1
 72
     4
 94
        3
 73
     0
 74
     0
 95
       74
 96
       70
 40
0.0
 40
0.0
 40
0.0
 40
0.0
 40
1.0
 40
1.0
 40
1.0
 40
2.0
 40
2.0
 40
2.0
 40
3.0
 40
3.0
 40
3.0
 40
4.0
 40
4.0
 40
4.0
 40
5.0
 40
5.0
 40
5.0
 40
6.0
 40
6.0
 40
6.0
 40
7.0
 40
7.0
 40
7.0
 40
8.0
 40
8.0
 40
8.0
 40
9.0
 40
9.0
 40
9.0
 40
10.0
 40
10.0
 40
10.0
 40
11.0
 40
11.0
 40
11.0
 40
12.0
 40
12.0
 40
12.0
 40
13.0
 40
13.0
 40
13.0
 40
14.0
 40
14.0
 40
14.0
 40
15.0
 40
15.0
 40
15.0
 40
16.0
 40
16.0
 40
16.0
 40
17.0
 40
17.0
 40
17.0
 40
18.0
 40
18.0
 40
18.0
 40
19.0
 40
19.0
 40
19.0
 40
20.0
 40
20.0
 40
20.0
 40
21.0
 40
21.0
 40
21.0
 40
22.0
 40
22.0
 40
22.0
 40
23.0
 40
23.0
 40
23.0
 40
23.0
 10
105.6545328511905
 20
-151.3368434951519
 10
105.6545328511905
 20
-151.3368434951519
 10
105.4939914015779
 20
-151.3368434951519
 10
105.4939914015779
 20
-151.3368434951519
 10
105.4939914015779
 20
-151.3368434951519
 10
105.4939914015779
 20
-151.4508761557136
 10
105.4939914015779
 20
-151.4508761557136
 10
105.4939914015779
 20
-151.4911837728911
 10
105.5001925734513
 20
-151.5652533258239
 10
105.5043266880336
 20
-151.5904025228663
 10
105.5043266880336
 20
-151.5904025228663
 10
105.292625570465
 20
-151.5904025228663
 10
105.292625570465
 20
-151.5904025228663
 10
105.3033053664693
 20
-151.5249457086465
 10
105.3053724237605
 20
-151.4656900663002
 10
105.3053724237605
 20
-151.4636230090091
 10
105.3053724237605
 20
-151.4636230090091
 10
105.3053724237605
 20
-151.3409776097342
 10
105.3053724237605
 20
-151.3409776097342
 10
105.3053724237605
 20
-151.3409776097342
 10
105.1255384394304
 20
-151.3409776097342
 10
105.1255384394304
 20
-151.3409776097342
 10
105.1065904142615
 20
-151.4002332520805
 10
105.0600816252106
 20
-151.5459607911066
 10
104.9457044551004
 20
-151.6286430827525
 10
104.9457044551004
 20
-151.6286430827525
 10
104.78929712007
 20
-151.5228786513554
 10
104.78929712007
 20
-151.5228786513554
 10
104.8633666730029
 20
-151.4763698623045
 10
104.9794663908558
 20
-151.4023003093717
 10
104.9794663908558
 20
-151.0808729005978
 10
104.9794663908558
 20
-151.0257513728338
 10
104.9753322762735
 20
-150.9813096410741
 10
104.9732652189824
 20
-150.9430690811878
 10
105.0494018292064
 20
-150.951681819901
 10
105.1234713821392
 20
-150.9578829917744
 10
105.1868611390678
 20
-150.9578829917744
 10
105.3646280661067
 20
-150.9578829917744
 10
105.5635823303799
 20
-150.8986273494281
 10
105.6249050300174
 20
-150.868999528255
 10
105.6249050300174
 20
-150.868999528255
 10
105.7520290534231
 20
-151.0043917808253
 10
105.7520290534231
 20
-151.0043917808253
 10
105.7561631680054
 20
-151.0088704049561
 10
105.7582302252965
 20
-151.0171386341207
 10
105.7582302252965
 20
-151.0236843155427
 10
105.7582302252965
 20
-151.0446993980027
 10
105.74341631471
 20
-151.0512450794247
 10
105.7265353468322
 20
-151.0512450794247
 10
105.7055202643722
 20
-151.0512450794247
 10
105.6907063537856
 20
-151.0426323407116
 10
105.6714138190682
 20
-151.0319525447073
 10
105.4981255161602
 20
-151.0891411297624
 10
105.2798787171696
 20
-151.1146348363533
 10
105.1465535218904
 20
-151.1167018936444
 10
105.1465535218904
 20
-151.1167018936444
 10
105.1424194073081
 20
-151.1990396757419
 10
105.1424194073081
 20
-151.1990396757419
 10
105.1424194073081
 20
-151.1990396757419
 10
105.4152709697399
 20
-151.1990396757419
 10
105.4152709697399
 20
-151.1990396757419
 10
105.472459554795
 20
-151.1990396757419
 10
105.7351480855454
 20
-151.180091650573
 10
105.7795898173051
 20
-151.1738904786995
 10
105.7795898173051
 20
-151.1738904786995
 10
105.7795898173051
 20
-151.3430446670253
 10
105.7795898173051
 20
-151.3430446670253
 10
105.7454833720011
 20
-151.338910552443
 10
105.7327365187057
 20
-151.3368434951519
 10
105.6545328511905
 20
-151.3368434951519
 97
        0
 97
        1
330
DE
 92
        1
 93
        1
 72
     4
 94
        3
 73
     0
 74
     0
 95
       17
 96
       13
 40
0.0
 40
0.0
 40
0.0
 40
0.0
 40
1.0
 40
1.0
 40
1.0
 40
2.0
 40
2.0
 40
2.0
 40
3.0
 40
3.0
 40
3.0
 40
4.0
 40
4.0
 40
4.0
 40
4.0
 10
105.3370673022247
 20
-152.2801106390133
 10
105.3370673022247
 20
-152.2801106390133
 10
104.4254950368276
 20
-152.2801106390133
 10
104.4254950368276
 20
-152.2801106390133
 10
104.4254950368276
 20
-152.2801106390133
 10
104.4254950368276
 20
-152.3879421277016
 10
104.4254950368276
 20
-152.3879421277016
 10
104.4254950368276
 20
-152.3879421277016
 10
105.3370673022247
 20
-152.3879421277016
 10
105.3370673022247
 20
-152.3879421277016
 10
105.3370673022247
 20
-152.3879421277016
 10
105.3370673022247
 20
-152.2801106390133
 10
105.3370673022247
 20
-152.2801106390133
 97
        0
 97
        1
330
DF
 92
        1
 93
        1
 72
     4
 94
        3
 73
     0
 74
     0
 95
       17
 96
       13
 40
0.0
 40
0.0
 40
0.0
 40
0.0
 40
1.0
 40
1.0
 40
1.0
 40
2.0
 40
2.0
 40
2.0
 40
3.0
 40
3.0
 40
3.0
 40
4.0
 40
4.0
 40
4.0
 40
4.0
 10
105.3370673022247
 20
-152.0348198404635
 10
105.3370673022247
 20
-152.0348198404635
 10
104.4254950368276
 20
-152.0348198404635
 10
104.4254950368276
 20
-152.0348198404635
 10
104.4254950368276
 20
-152.0348198404635
 10
104.4254950368276
 20
-152.144718386443
 10
104.4254950368276
 20
-152.144718386443
 10
104.4254950368276
 20
-152.144718386443
 10
105.3370673022247
 20
-152.144718386443
 10
105.3370673022247
 20
-152.144718386443
 10
105.3370673022247
 20
-152.144718386443
 10
105.3370673022247
 20
-152.0348198404635
 10
105.3370673022247
 20
-152.0348198404635
 97
        0
 97
        1
330
E0
 92
        1
 93
        1
 72
     4
 94
        3
 73
     0
 74
     0
 95
       17
 96
       13
 40
0.0
 40
0.0
 40
0.0
 40
0.0
 40
1.0
 40
1.0
 40
1.0
 40
2.0
 40
2.0
 40
2.0
 40
3.0
 40
3.0
 40
3.0
 40
4.0
 40
4.0
 40
4.0
 40
4.0
 10
105.3370673022247
 20
-151.7895290419137
 10
105.3370673022247
 20
-151.7895290419137
 10
104.4254950368276
 20
-151.7895290419137
 10
104.4254950368276
 20
-151.7895290419137
 10
104.4254950368276
 20
-151.7895290419137
 10
104.4254950368276
 20
-151.9014946451843
 10
104.4254950368276
 20
-151.9014946451843
 10
104.4254950368276
 20
-151.9014946451843
 10
105.3370673022247
 20
-151.9014946451843
 10
105.3370673022247
 20
-151.9014946451843
 10
105.3370673022247
 20
-151.9014946451843
 10
105.3370673022247
 20
-151.7895290419137
 10
105.3370673022247
 20
-151.7895290419137
 97
        0
 97
        1
330
E1
 92
        1
 93
        1
 72
     4
 94
        3
 73
     0
 74
     0
 95
       74
 96
       70
 40
0.0
 40
0.0
 40
0.0
 40
0.0
 40
1.0
 40
1.0
 40
1.0
 40
2.0
 40
2.0
 40
2.0
 40
3.0
 40
3.0
 40
3.0
 40
4.0
 40
4.0
 40
4.0
 40
5.0
 40
5.0
 40
5.0
 40
6.0
 40
6.0
 40
6.0
 40
7.0
 40
7.0
 40
7.0
 40
8.0
 40
8.0
 40
8.0
 40
9.0
 40
9.0
 40
9.0
 40
10.0
 40
10.0
 40
10.0
 40
11.0
 40
11.0
 40
11.0
 40
12.0
 40
12.0
 40
12.0
 40
13.0
 40
13.0
 40
13.0
 40
14.0
 40
14.0
 40
14.0
 40
15.0
 40
15.0
 40
15.0
 40
16.0
 40
16.0
 40
16.0
 40
17.0
 40
17.0
 40
17.0
 40
18.0
 40
18.0
 40
18.0
 40
19.0
 40
19.0
 40
19.0
 40
20.0
 40
20.0
 40
20.0
 40
21.0
 40
21.0
 40
21.0
 40
22.0
 40
22.0
 40
22.0
 40
23.0
 40
23.0
 40
23.0
 40
23.0
 10
105.6417859978951
 20
-152.8237467065857
 10
105.4280178230353
 20
-152.81341142013
 10
105.2271687562453
 20
-152.7265950139017
 10
105.0514688864975
 20
-152.6060166719179
 10
105.0514688864975
 20
-152.6060166719179
 10
105.1489650887301
 20
-152.5192002656896
 10
105.1489650887301
 20
-152.5192002656896
 10
105.1489650887301
 20
-152.5192002656896
 10
104.5967162824446
 20
-152.5192002656896
 10
104.5967162824446
 20
-152.5192002656896
 10
104.5967162824446
 20
-152.5192002656896
 10
104.6769870072509
 20
-152.5825900226182
 10
104.6769870072509
 20
-152.5825900226182
 10
104.6835326886728
 20
-152.587068646749
 10
104.6938679751286
 20
-152.5974039332048
 10
104.6938679751286
 20
-152.6122178437914
 10
104.6938679751286
 20
-152.6525254609688
 10
104.6197984221957
 20
-152.6463242890953
 10
104.6049845116092
 20
-152.6439127222557
 10
104.3745076236459
 20
-152.7837835989568
 10
104.230847141911
 20
-152.8154784774211
 10
104.127149767805
 20
-152.8323594452988
 10
104.127149767805
 20
-152.8323594452988
 10
103.9979586871081
 20
-152.6545925182599
 10
103.9979586871081
 20
-152.6545925182599
 10
104.2456610524976
 20
-152.6228976397956
 10
104.3469468597639
 20
-152.5763888507448
 10
104.4358303232834
 20
-152.5233343802719
 10
104.3617607703505
 20
-152.5257459471116
 10
104.2477281097887
 20
-152.5278130044028
 10
104.2160332313244
 20
-152.5298800616939
 10
104.230847141911
 20
-152.4409965981744
 10
104.2329141992022
 20
-152.3118055174776
 10
104.2329141992022
 20
-152.2377359645447
 10
104.2329141992022
 20
-152.2377359645447
 10
104.2329141992022
 20
-151.9376681477794
 10
104.2329141992022
 20
-151.9376681477794
 10
104.2329141992022
 20
-151.8381048882558
 10
104.2263685177802
 20
-151.738541628732
 10
104.2160332313244
 20
-151.641389936048
 10
104.3173190385908
 20
-151.6475911079214
 10
104.5481404361025
 20
-151.6541367893434
 10
104.6559719247909
 20
-151.6541367893434
 10
104.6559719247909
 20
-151.6541367893434
 10
105.0790296503795
 20
-151.6541367893434
 10
105.0790296503795
 20
-151.6541367893434
 10
105.1975409350721
 20
-151.6541367893434
 10
105.2399156095407
 20
-151.6541367893434
 10
105.3222533916382
 20
-151.6496581652126
 10
105.4703924975039
 20
-151.6434569933391
 10
105.4874457201559
 20
-151.6434569933391
 10
105.5339545092068
 20
-151.641389936048
 10
105.5256862800422
 20
-151.7216606608543
 10
105.5212076559113
 20
-151.8804795627243
 10
105.5212076559113
 20
-151.9628173448218
 10
105.5212076559113
 20
-151.9628173448218
 10
105.5212076559113
 20
-152.248415760549
 10
105.5212076559113
 20
-152.248415760549
 10
105.5212076559113
 20
-152.3204182561907
 10
105.5232747132025
 20
-152.4516763941787
 10
105.5339545092068
 20
-152.5298800616939
 10
105.4617797587908
 20
-152.5257459471116
 10
105.3391343595159
 20
-152.5233343802719
 10
105.2609306920007
 20
-152.5212673229808
 10
105.3708292379802
 20
-152.5891357040402
 10
105.5232747132025
 20
-152.6397786076734
 10
105.7351480855454
 20
-152.6439127222557
 10
105.7351480855454
 20
-152.6439127222557
 10
105.6417859978951
 20
-152.8237467065857
 10
105.6417859978951
 20
-152.8237467065857
 97
        0
 97
        1
330
E2
 92
        1
 93
        1
 72
     4
 94
        3
 73
     0
 74
     0
 95
       71
 96
       67
 40
0.0
 40
0.0
 40
0.0
 40
0.0
 40
1.0
 40
1.0
 40
1.0
 40
2.0
 40
2.0
 40
2.0
 40
3.0
 40
3.0
 40
3.0
 40
4.0
 40
4.0
 40
4.0
 40
5.0
 40
5.0
 40
5.0
 40
6.0
 40
6.0
 40
6.0
 40
7.0
 40
7.0
 40
7.0
 40
8.0
 40
8.0
 40
8.0
 40
9.0
 40
9.0
 40
9.0
 40
10.0
 40
10.0
 40
10.0
 40
11.0
 40
11.0
 40
11.0
 40
12.0
 40
12.0
 40
12.0
 40
13.0
 40
13.0
 40
13.0
 40
14.0
 40
14.0
 40
14.0
 40
15.0
 40
15.0
 40
15.0
 40
16.0
 40
16.0
 40
16.0
 40
17.0
 40
17.0
 40
17.0
 40
18.0
 40
18.0
 40
18.0
 40
19.0
 40
19.0
 40
19.0
 40
20.0
 40
20.0
 40
20.0
 40
21.0
 40
21.0
 40
21.0
 40
22.0
 40
22.0
 40
22.0
 40
22.0
 10
104.8041110306566
 20
-151.0574462512981
 10
104.78929712007
 20
-151.0574462512981
 10
104.7765502667746
 20
-151.0533121367158
 10
104.7510565601837
 20
-151.0446993980027
 10
104.60946313574
 20
-151.0912081870536
 10
104.4358303232834
 20
-151.1080891549313
 10
104.2963039561308
 20
-151.1125677790621
 10
104.2963039561308
 20
-151.1125677790621
 10
104.2942368988396
 20
-151.2014512425816
 10
104.2942368988396
 20
-151.2014512425816
 10
104.2942368988396
 20
-151.2014512425816
 10
104.554341607976
 20
-151.2014512425816
 10
104.554341607976
 20
-151.2014512425816
 10
104.6073960784488
 20
-151.2014512425816
 10
104.78929712007
 20
-151.1928385038684
 10
104.8337388518297
 20
-151.186637331995
 10
104.8337388518297
 20
-151.186637331995
 10
104.8337388518297
 20
-151.3471787816076
 10
104.8337388518297
 20
-151.3471787816076
 10
104.7786173240657
 20
-151.3409776097342
 10
104.6539048674997
 20
-151.338910552443
 10
104.6156643076134
 20
-151.3409776097342
 10
104.6156643076134
 20
-151.3409776097342
 10
104.6156643076134
 20
-151.4508761557136
 10
104.6156643076134
 20
-151.4508761557136
 10
104.6156643076134
 20
-151.4973849447645
 10
104.6177313649046
 20
-151.5607747016931
 10
104.6242770463265
 20
-151.5990152615794
 10
104.6242770463265
 20
-151.5990152615794
 10
104.4316962087011
 20
-151.5990152615794
 10
104.4316962087011
 20
-151.5990152615794
 10
104.4378973805745
 20
-151.558707644402
 10
104.4444430619965
 20
-151.4763698623045
 10
104.4444430619965
 20
-151.4615559517179
 10
104.4444430619965
 20
-151.4615559517179
 10
104.4444430619965
 20
-151.3409776097342
 10
104.4444430619965
 20
-151.3409776097342
 10
104.4444430619965
 20
-151.3409776097342
 10
104.279422988253
 20
-151.3409776097342
 10
104.279422988253
 20
-151.3409776097342
 10
104.2370483137845
 20
-151.5607747016931
 10
104.1819267860205
 20
-151.641389936048
 10
104.0761623546233
 20
-151.7406086860232
 10
104.0761623546233
 20
-151.7406086860232
 10
103.9090752235887
 20
-151.6265760254614
 10
103.9090752235887
 20
-151.6265760254614
 10
103.9724649805173
 20
-151.5780001791194
 10
104.1226711436742
 20
-151.4656900663002
 10
104.1226711436742
 20
-151.1167018936444
 10
104.1226711436742
 20
-151.0340196019984
 10
104.1144029145096
 20
-150.9875108129475
 10
104.1057901757964
 20
-150.9389349666055
 10
104.251862224371
 20
-150.9537488771921
 10
104.2666761349576
 20
-150.9537488771921
 10
104.3025051280042
 20
-150.9537488771921
 10
104.4106811262411
 20
-150.9537488771921
 10
104.5522745506848
 20
-150.9368679093144
 10
104.713160509846
 20
-150.8755452096769
 10
104.713160509846
 20
-150.8755452096769
 10
104.8271931704078
 20
-151.0068033476649
 10
104.8271931704078
 20
-151.0068033476649
 10
104.8337388518297
 20
-151.0130045195384
 10
104.837872966412
 20
-151.0216172582515
 10
104.837872966412
 20
-151.0298854874161
 10
104.837872966412
 20
-151.0533121367158
 10
104.8189249412432
 20
-151.0574462512981
 10
104.8041110306566
 20
-151.0574462512981
 97
        0
 97
        1
330
E3
 75
     2
 76
     1
 98
        1
 10
0.0
 20
0.0
450
        0
451
        0
460
0.0
461
0.0
452
        0
462
0.0
453
        0
470

  0
SPLINE
  5
E5
330
D3
100
AcDbEntity
  8
レイヤー 1
100
AcDbSpline
210
0.0
220
0.0
230
1.0
 70
     9
 71
     3
 72
    53
 73
    49
 74
     0
 42
0.0000000001
 43
0.0000000001
 40
0.0
 40
0.0
 40
0.0
 40
0.0
 40
1.0
 40
1.0
 40
1.0
 40
2.0
 40
2.0
 40
2.0
 40
3.0
 40
3.0
 40
3.0
 40
4.0
 40
4.0
 40
4.0
 40
5.0
 40
5.0
 40
5.0
 40
6.0
 40
6.0
 40
6.0
 40
7.0
 40
7.0
 40
7.0
 40
8.0
 40
8.0
 40
8.0
 40
9.0
 40
9.0
 40
9.0
 40
10.0
 40
10.0
 40
10.0
 40
11.0
 40
11.0
 40
11.0
 40
12.0
 40
12.0
 40
12.0
 40
13.0
 40
13.0
 40
13.0
 40
14.0
 40
14.0
 40
14.0
 40
15.0
 40
15.0
 40
15.0
 40
16.0
 40
16.0
 40
16.0
 40
16.0
 10
106.4034966096838
 20
-152.6990342500196
 30
0.0
 10
106.2133273388981
 20
-152.6990342500196
 30
0.0
 10
106.1540716965517
 20
-152.5743217934536
 30
0.0
 10
106.1540716965517
 20
-152.4261826875879
 30
0.0
 10
106.1540716965517
 20
-152.4261826875879
 30
0.0
 10
106.1540716965517
 20
-151.7323404568586
 30
0.0
 10
106.1540716965517
 20
-151.7323404568586
 30
0.0
 10
106.1540716965517
 20
-151.7323404568586
 30
0.0
 10
105.9721706549306
 20
-151.7323404568586
 30
0.0
 10
105.9721706549306
 20
-151.7323404568586
 30
0.0
 10
105.9721706549306
 20
-151.7323404568586
 30
0.0
 10
105.9721706549306
 20
-151.5397596192331
 30
0.0
 10
105.9721706549306
 20
-151.5397596192331
 30
0.0
 10
105.9721706549306
 20
-151.5397596192331
 30
0.0
 10
106.1540716965517
 20
-151.5397596192331
 30
0.0
 10
106.1540716965517
 20
-151.5397596192331
 30
0.0
 10
106.1540716965517
 20
-151.5397596192331
 30
0.0
 10
106.1540716965517
 20
-151.2245333823327
 30
0.0
 10
106.1540716965517
 20
-151.2245333823327
 30
0.0
 10
106.1540716965517
 20
-151.2245333823327
 30
0.0
 10
106.3718017312195
 20
-151.2245333823327
 30
0.0
 10
106.3718017312195
 20
-151.2245333823327
 30
0.0
 10
106.3718017312195
 20
-151.2245333823327
 30
0.0
 10
106.3718017312195
 20
-151.5397596192331
 30
0.0
 10
106.3718017312195
 20
-151.5397596192331
 30
0.0
 10
106.3718017312195
 20
-151.5397596192331
 30
0.0
 10
106.5623155115539
 20
-151.5397596192331
 30
0.0
 10
106.5623155115539
 20
-151.5397596192331
 30
0.0
 10
106.5623155115539
 20
-151.5397596192331
 30
0.0
 10
106.5623155115539
 20
-151.7323404568586
 30
0.0
 10
106.5623155115539
 20
-151.7323404568586
 30
0.0
 10
106.5623155115539
 20
-151.7323404568586
 30
0.0
 10
106.3718017312195
 20
-151.7323404568586
 30
0.0
 10
106.3718017312195
 20
-151.7323404568586
 30
0.0
 10
106.3718017312195
 20
-151.7323404568586
 30
0.0
 10
106.3718017312195
 20
-152.400688980997
 30
0.0
 10
106.3718017312195
 20
-152.400688980997
 30
0.0
 10
106.3718017312195
 20
-152.4854383299342
 30
0.0
 10
106.4248562016924
 20
-152.5085204696854
 30
0.0
 10
106.4965141877856
 20
-152.5085204696854
 30
0.0
 10
106.5071939837898
 20
-152.5085204696854
 30
0.0
 10
106.5306206330896
 20
-152.5085204696854
 30
0.0
 10
106.5623155115539
 20
-152.504386355103
 30
0.0
 10
106.5623155115539
 20
-152.504386355103
 30
0.0
 10
106.5623155115539
 20
-152.6759521102685
 30
0.0
 10
106.5623155115539
 20
-152.6759521102685
 30
0.0
 10
106.5285535757984
 20
-152.6883544540154
 30
0.0
 10
106.4544840228655
 20
-152.6990342500196
 30
0.0
 10
106.4034966096838
 20
-152.6990342500196
 30
0.0
  0
HATCH
  5
E6
330
D3
100
AcDbEntity
  8
レイヤー 1
 62
   250
420
  2299925
440
 33554687
100
AcDbHatch
 10
0.0
 20
0.0
 30
0.0
210
0.0
220
0.0
230
1.0
  2
SOLID
 70
     1
 71
     1
 91
        1
 92
        1
 93
        1
 72
     4
 94
        3
 73
     0
 74
     0
 95
       53
 96
       49
 40
0.0
 40
0.0
 40
0.0
 40
0.0
 40
1.0
 40
1.0
 40
1.0
 40
2.0
 40
2.0
 40
2.0
 40
3.0
 40
3.0
 40
3.0
 40
4.0
 40
4.0
 40
4.0
 40
5.0
 40
5.0
 40
5.0
 40
6.0
 40
6.0
 40
6.0
 40
7.0
 40
7.0
 40
7.0
 40
8.0
 40
8.0
 40
8.0
 40
9.0
 40
9.0
 40
9.0
 40
10.0
 40
10.0
 40
10.0
 40
11.0
 40
11.0
 40
11.0
 40
12.0
 40
12.0
 40
12.0
 40
13.0
 40
13.0
 40
13.0
 40
14.0
 40
14.0
 40
14.0
 40
15.0
 40
15.0
 40
15.0
 40
16.0
 40
16.0
 40
16.0
 40
16.0
 10
106.4034966096838
 20
-152.6990342500196
 10
106.2133273388981
 20
-152.6990342500196
 10
106.1540716965517
 20
-152.5743217934536
 10
106.1540716965517
 20
-152.4261826875879
 10
106.1540716965517
 20
-152.4261826875879
 10
106.1540716965517
 20
-151.7323404568586
 10
106.1540716965517
 20
-151.7323404568586
 10
106.1540716965517
 20
-151.7323404568586
 10
105.9721706549306
 20
-151.7323404568586
 10
105.9721706549306
 20
-151.7323404568586
 10
105.9721706549306
 20
-151.7323404568586
 10
105.9721706549306
 20
-151.5397596192331
 10
105.9721706549306
 20
-151.5397596192331
 10
105.9721706549306
 20
-151.5397596192331
 10
106.1540716965517
 20
-151.5397596192331
 10
106.1540716965517
 20
-151.5397596192331
 10
106.1540716965517
 20
-151.5397596192331
 10
106.1540716965517
 20
-151.2245333823327
 10
106.1540716965517
 20
-151.2245333823327
 10
106.1540716965517
 20
-151.2245333823327
 10
106.3718017312195
 20
-151.2245333823327
 10
106.3718017312195
 20
-151.2245333823327
 10
106.3718017312195
 20
-151.2245333823327
 10
106.3718017312195
 20
-151.5397596192331
 10
106.3718017312195
 20
-151.5397596192331
 10
106.3718017312195
 20
-151.5397596192331
 10
106.5623155115539
 20
-151.5397596192331
 10
106.5623155115539
 20
-151.5397596192331
 10
106.5623155115539
 20
-151.5397596192331
 10
106.5623155115539
 20
-151.7323404568586
 10
106.5623155115539
 20
-151.7323404568586
 10
106.5623155115539
 20
-151.7323404568586
 10
106.3718017312195
 20
-151.7323404568586
 10
106.3718017312195
 20
-151.7323404568586
 10
106.3718017312195
 20
-151.7323404568586
 10
106.3718017312195
 20
-152.400688980997
 10
106.3718017312195
 20
-152.400688980997
 10
106.3718017312195
 20
-152.4854383299342
 10
106.4248562016924
 20
-152.5085204696854
 10
106.4965141877856
 20
-152.5085204696854
 10
106.5071939837898
 20
-152.5085204696854
 10
106.5306206330896
 20
-152.5085204696854
 10
106.5623155115539
 20
-152.504386355103
 10
106.5623155115539
 20
-152.504386355103
 10
106.5623155115539
 20
-152.6759521102685
 10
106.5623155115539
 20
-152.6759521102685
 10
106.5285535757984
 20
-152.6883544540154
 10
106.4544840228655
 20
-152.6990342500196
 10
106.4034966096838
 20
-152.6990342500196
 97
        0
 97
        1
330
E5
 75
     2
 76
     1
 98
        1
 10
0.0
 20
0.0
450
        0
451
        0
460
0.0
461
0.0
452
        0
462
0.0
453
        0
470

  0
SPLINE
  5
E7
330
D3
100
AcDbEntity
  8
レイヤー 1
100
AcDbSpline
210
0.0
220
0.0
230
1.0
 70
    11
 71
     3
 72
    17
 73
    13
 74
     0
 42
0.0000000001
 43
0.0000000001
 40
0.0
 40
0.0
 40
0.0
 40
0.0
 40
1.0
 40
1.0
 40
1.0
 40
2.0
 40
2.0
 40
2.0
 40
3.0
 40
3.0
 40
3.0
 40
4.0
 40
4.0
 40
4.0
 40
4.0
 10
106.736292833559
 20
-152.1957057996247
 30
0.0
 10
106.736292833559
 20
-152.1957057996247
 30
0.0
 10
106.736292833559
 20
-151.9903781087038
 30
0.0
 10
106.736292833559
 20
-151.9903781087038
 30
0.0
 10
106.736292833559
 20
-151.9903781087038
 30
0.0
 10
107.9145154895144
 20
-151.9903781087038
 30
0.0
 10
107.9145154895144
 20
-151.9903781087038
 30
0.0
 10
107.9145154895144
 20
-151.9903781087038
 30
0.0
 10
107.9145154895144
 20
-152.1957057996247
 30
0.0
 10
107.9145154895144
 20
-152.1957057996247
 30
0.0
 10
107.9145154895144
 20
-152.1957057996247
 30
0.0
 10
106.736292833559
 20
-152.1957057996247
 30
0.0
 10
106.736292833559
 20
-152.1957057996247
 30
0.0
  0
SPLINE
  5
E8
330
D3
100
AcDbEntity
  8
レイヤー 1
100
AcDbSpline
210
0.0
220
0.0
230
1.0
 70
    11
 71
     3
 72
    17
 73
    13
 74
     0
 42
0.0000000001
 43
0.0000000001
 40
0.0
 40
0.0
 40
0.0
 40
0.0
 40
1.0
 40
1.0
 40
1.0
 40
2.0
 40
2.0
 40
2.0
 40
3.0
 40
3.0
 40
3.0
 40
4.0
 40
4.0
 40
4.0
 40
4.0
 10
106.736292833559
 20
-151.7619682780317
 30
0.0
 10
106.736292833559
 20
-151.7619682780317
 30
0.0
 10
106.736292833559
 20
-151.5566405871108
 30
0.0
 10
106.736292833559
 20
-151.5566405871108
 30
0.0
 10
106.736292833559
 20
-151.5566405871108
 30
0.0
 10
107.9145154895144
 20
-151.5566405871108
 30
0.0
 10
107.9145154895144
 20
-151.5566405871108
 30
0.0
 10
107.9145154895144
 20
-151.5566405871108
 30
0.0
 10
107.9145154895144
 20
-151.7619682780317
 30
0.0
 10
107.9145154895144
 20
-151.7619682780317
 30
0.0
 10
107.9145154895144
 20
-151.7619682780317
 30
0.0
 10
106.736292833559
 20
-151.7619682780317
 30
0.0
 10
106.736292833559
 20
-151.7619682780317
 30
0.0
  0
HATCH
  5
E9
330
D3
100
AcDbEntity
  8
レイヤー 1
 62
   250
420
  2299925
440
 33554687
100
AcDbHatch
 10
0.0
 20
0.0
 30
0.0
210
0.0
220
0.0
230
1.0
  2
SOLID
 70
     1
 71
     1
 91
        2
 92
        1
 93
        1
 72
     4
 94
        3
 73
     0
 74
     0
 95
       17
 96
       13
 40
0.0
 40
0.0
 40
0.0
 40
0.0
 40
1.0
 40
1.0
 40
1.0
 40
2.0
 40
2.0
 40
2.0
 40
3.0
 40
3.0
 40
3.0
 40
4.0
 40
4.0
 40
4.0
 40
4.0
 10
106.736292833559
 20
-152.1957057996247
 10
106.736292833559
 20
-152.1957057996247
 10
106.736292833559
 20
-151.9903781087038
 10
106.736292833559
 20
-151.9903781087038
 10
106.736292833559
 20
-151.9903781087038
 10
107.9145154895144
 20
-151.9903781087038
 10
107.9145154895144
 20
-151.9903781087038
 10
107.9145154895144
 20
-151.9903781087038
 10
107.9145154895144
 20
-152.1957057996247
 10
107.9145154895144
 20
-152.1957057996247
 10
107.9145154895144
 20
-152.1957057996247
 10
106.736292833559
 20
-152.1957057996247
 10
106.736292833559
 20
-152.1957057996247
 97
        0
 97
        1
330
E7
 92
        1
 93
        1
 72
     4
 94
        3
 73
     0
 74
     0
 95
       17
 96
       13
 40
0.0
 40
0.0
 40
0.0
 40
0.0
 40
1.0
 40
1.0
 40
1.0
 40
2.0
 40
2.0
 40
2.0
 40
3.0
 40
3.0
 40
3.0
 40
4.0
 40
4.0
 40
4.0
 40
4.0
 10
106.736292833559
 20
-151.7619682780317
 10
106.736292833559
 20
-151.7619682780317
 10
106.736292833559
 20
-151.5566405871108
 10
106.736292833559
 20
-151.5566405871108
 10
106.736292833559
 20
-151.5566405871108
 10
107.9145154895144
 20
-151.5566405871108
 10
107.9145154895144
 20
-151.5566405871108
 10
107.9145154895144
 20
-151.5566405871108
 10
107.9145154895144
 20
-151.7619682780317
 10
107.9145154895144
 20
-151.7619682780317
 10
107.9145154895144
 20
-151.7619682780317
 10
106.736292833559
 20
-151.7619682780317
 10
106.736292833559
 20
-151.7619682780317
 97
        0
 97
        1
330
E8
 75
     2
 76
     1
 98
        1
 10
0.0
 20
0.0
450
        0
451
        0
460
0.0
461
0.0
452
        0
462
0.0
453
        0
470

  0
SPLINE
  5
EA
330
D3
100
AcDbEntity
  8
レイヤー 1
100
AcDbSpline
210
0.0
220
0.0
230
1.0
 70
    11
 71
     3
 72
    26
 73
    22
 74
     0
 42
0.0000000001
 43
0.0000000001
 40
0.0
 40
0.0
 40
0.0
 40
0.0
 40
1.0
 40
1.0
 40
1.0
 40
2.0
 40
2.0
 40
2.0
 40
3.0
 40
3.0
 40
3.0
 40
4.0
 40
4.0
 40
4.0
 40
5.0
 40
5.0
 40
5.0
 40
6.0
 40
6.0
 40
6.0
 40
7.0
 40
7.0
 40
7.0
 40
7.0
 10
108.5907877332689
 20
-152.6483913463865
 30
0.0
 10
108.5907877332689
 20
-152.6483913463865
 30
0.0
 10
108.5907877332689
 20
-151.5438937338154
 30
0.0
 10
108.5907877332689
 20
-151.5438937338154
 30
0.0
 10
108.5907877332689
 20
-151.5438937338154
 30
0.0
 10
108.260747585782
 20
-151.5438937338154
 30
0.0
 10
108.260747585782
 20
-151.5438937338154
 30
0.0
 10
108.260747585782
 20
-151.5438937338154
 30
0.0
 10
108.260747585782
 20
-151.3960991374982
 30
0.0
 10
108.260747585782
 20
-151.3960991374982
 30
0.0
 10
108.5928547905601
 20
-151.3812852269116
 30
0.0
 10
108.639363579611
 20
-151.2183322104593
 30
0.0
 10
108.6689914007841
 20
-151.103955040349
 30
0.0
 10
108.6689914007841
 20
-151.103955040349
 30
0.0
 10
108.8150634493587
 20
-151.103955040349
 30
0.0
 10
108.8150634493587
 20
-151.103955040349
 30
0.0
 10
108.8150634493587
 20
-151.103955040349
 30
0.0
 10
108.8150634493587
 20
-152.6483913463865
 30
0.0
 10
108.8150634493587
 20
-152.6483913463865
 30
0.0
 10
108.8150634493587
 20
-152.6483913463865
 30
0.0
 10
108.5907877332689
 20
-152.6483913463865
 30
0.0
 10
108.5907877332689
 20
-152.6483913463865
 30
0.0
  0
HATCH
  5
EB
330
D3
100
AcDbEntity
  8
レイヤー 1
 62
   250
420
  2299925
440
 33554687
100
AcDbHatch
 10
0.0
 20
0.0
 30
0.0
210
0.0
220
0.0
230
1.0
  2
SOLID
 70
     1
 71
     1
 91
        1
 92
        1
 93
        1
 72
     4
 94
        3
 73
     0
 74
     0
 95
       26
 96
       22
 40
0.0
 40
0.0
 40
0.0
 40
0.0
 40
1.0
 40
1.0
 40
1.0
 40
2.0
 40
2.0
 40
2.0
 40
3.0
 40
3.0
 40
3.0
 40
4.0
 40
4.0
 40
4.0
 40
5.0
 40
5.0
 40
5.0
 40
6.0
 40
6.0
 40
6.0
 40
7.0
 40
7.0
 40
7.0
 40
7.0
 10
108.5907877332689
 20
-152.6483913463865
 10
108.5907877332689
 20
-152.6483913463865
 10
108.5907877332689
 20
-151.5438937338154
 10
108.5907877332689
 20
-151.5438937338154
 10
108.5907877332689
 20
-151.5438937338154
 10
108.260747585782
 20
-151.5438937338154
 10
108.260747585782
 20
-151.5438937338154
 10
108.260747585782
 20
-151.5438937338154
 10
108.260747585782
 20
-151.3960991374982
 10
108.260747585782
 20
-151.3960991374982
 10
108.5928547905601
 20
-151.3812852269116
 10
108.639363579611
 20
-151.2183322104593
 10
108.6689914007841
 20
-151.103955040349
 10
108.6689914007841
 20
-151.103955040349
 10
108.8150634493587
 20
-151.103955040349
 10
108.8150634493587
 20
-151.103955040349
 10
108.8150634493587
 20
-151.103955040349
 10
108.8150634493587
 20
-152.6483913463865
 10
108.8150634493587
 20
-152.6483913463865
 10
108.8150634493587
 20
-152.6483913463865
 10
108.5907877332689
 20
-152.6483913463865
 10
108.5907877332689
 20
-152.6483913463865
 97
        0
 97
        1
330
EA
 75
     2
 76
     1
 98
        1
 10
0.0
 20
0.0
450
        0
451
        0
460
0.0
461
0.0
452
        0
462
0.0
453
        0
470

  0
SPLINE
  5
EC
330
D3
100
AcDbEntity
  8
レイヤー 1
100
AcDbSpline
210
0.0
220
0.0
230
1.0
 70
    11
 71
     3
 72
    17
 73
    13
 74
     0
 42
0.0000000001
 43
0.0000000001
 40
0.0
 40
0.0
 40
0.0
 40
0.0
 40
1.0
 40
1.0
 40
1.0
 40
2.0
 40
2.0
 40
2.0
 40
3.0
 40
3.0
 40
3.0
 40
4.0
 40
4.0
 40
4.0
 40
4.0
 10
109.3769585230029
 20
-152.6483913463865
 30
0.0
 10
109.3769585230029
 20
-152.6483913463865
 30
0.0
 10
109.3769585230029
 20
-152.3965548664147
 30
0.0
 10
109.3769585230029
 20
-152.3965548664147
 30
0.0
 10
109.3769585230029
 20
-152.3965548664147
 30
0.0
 10
109.6287950029747
 20
-152.3965548664147
 30
0.0
 10
109.6287950029747
 20
-152.3965548664147
 30
0.0
 10
109.6287950029747
 20
-152.3965548664147
 30
0.0
 10
109.6287950029747
 20
-152.6483913463865
 30
0.0
 10
109.6287950029747
 20
-152.6483913463865
 30
0.0
 10
109.6287950029747
 20
-152.6483913463865
 30
0.0
 10
109.3769585230029
 20
-152.6483913463865
 30
0.0
 10
109.3769585230029
 20
-152.6483913463865
 30
0.0
  0
HATCH
  5
ED
330
D3
100
AcDbEntity
  8
レイヤー 1
 62
   250
420
  2299925
440
 33554687
100
AcDbHatch
 10
0.0
 20
0.0
 30
0.0
210
0.0
220
0.0
230
1.0
  2
SOLID
 70
     1
 71
     1
 91
        1
 92
        1
 93
        1
 72
     4
 94
        3
 73
     0
 74
     0
 95
       17
 96
       13
 40
0.0
 40
0.0
 40
0.0
 40
0.0
 40
1.0
 40
1.0
 40
1.0
 40
2.0
 40
2.0
 40
2.0
 40
3.0
 40
3.0
 40
3.0
 40
4.0
 40
4.0
 40
4.0
 40
4.0
 10
109.3769585230029
 20
-152.6483913463865
 10
109.3769585230029
 20
-152.6483913463865
 10
109.3769585230029
 20
-152.3965548664147
 10
109.3769585230029
 20
-152.3965548664147
 10
109.3769585230029
 20
-152.3965548664147
 10
109.6287950029747
 20
-152.3965548664147
 10
109.6287950029747
 20
-152.3965548664147
 10
109.6287950029747
 20
-152.3965548664147
 10
109.6287950029747
 20
-152.6483913463865
 10
109.6287950029747
 20
-152.6483913463865
 10
109.6287950029747
 20
-152.6483913463865
 10
109.3769585230029
 20
-152.6483913463865
 10
109.3769585230029
 20
-152.6483913463865
 97
        0
 97
        1
330
EC
 75
     2
 76
     1
 98
        1
 10
0.0
 20
0.0
450
        0
451
        0
460
0.0
461
0.0
452
        0
462
0.0
453
        0
470

  0
SPLINE
  5
EE
330
D3
100
AcDbEntity
  8
レイヤー 1
100
AcDbSpline
210
0.0
220
0.0
230
1.0
 70
     9
 71
     3
 72
    17
 73
    13
 74
     0
 42
0.0000000001
 43
0.0000000001
 40
0.0
 40
0.0
 40
0.0
 40
0.0
 40
1.0
 40
1.0
 40
1.0
 40
2.0
 40
2.0
 40
2.0
 40
3.0
 40
3.0
 40
3.0
 40
4.0
 40
4.0
 40
4.0
 40
4.0
 10
110.3650119081726
 20
-151.2479600316324
 30
0.0
 10
110.1155869950405
 20
-151.2479600316324
 30
0.0
 10
110.0687336964411
 20
-151.5314913900685
 30
0.0
 10
110.0687336964411
 20
-151.8760009385935
 30
0.0
 10
110.0687336964411
 20
-152.1957057996247
 30
0.0
 10
110.1049071990362
 20
-152.504386355103
 30
0.0
 10
110.3650119081726
 20
-152.504386355103
 30
0.0
 10
110.6127142735621
 20
-152.504386355103
 30
0.0
 10
110.6612901199041
 20
-152.2229220539581
 30
0.0
 10
110.6612901199041
 20
-151.8760009385935
 30
0.0
 10
110.6612901199041
 20
-151.5566405871108
 30
0.0
 10
110.6230495600178
 20
-151.2479600316324
 30
0.0
 10
110.3650119081726
 20
-151.2479600316324
 30
0.0
  0
SPLINE
  5
EF
330
D3
100
AcDbEntity
  8
レイヤー 1
100
AcDbSpline
210
0.0
220
0.0
230
1.0
 70
     9
 71
     3
 72
    29
 73
    25
 74
     0
 42
0.0000000001
 43
0.0000000001
 40
0.0
 40
0.0
 40
0.0
 40
0.0
 40
1.0
 40
1.0
 40
1.0
 40
2.0
 40
2.0
 40
2.0
 40
3.0
 40
3.0
 40
3.0
 40
4.0
 40
4.0
 40
4.0
 40
5.0
 40
5.0
 40
5.0
 40
6.0
 40
6.0
 40
6.0
 40
7.0
 40
7.0
 40
7.0
 40
8.0
 40
8.0
 40
8.0
 40
8.0
 10
110.762920436719
 20
-152.4706244193476
 30
0.0
 10
110.6547444384821
 20
-152.6800862248508
 30
0.0
 10
110.4814561355741
 20
-152.6990342500196
 30
0.0
 10
110.3650119081726
 20
-152.6990342500196
 30
0.0
 10
110.2041259490114
 20
-152.6990342500196
 30
0.0
 10
110.0625325245677
 20
-152.6525254609688
 30
0.0
 10
109.9674478891748
 20
-152.4706244193476
 30
0.0
 10
109.8637505150688
 20
-152.275976524431
 30
0.0
 10
109.8448024898999
 20
-152.0389539550458
 30
0.0
 10
109.8448024898999
 20
-151.8760009385935
 30
0.0
 10
109.8448024898999
 20
-151.7323404568586
 30
0.0
 10
109.8616834577776
 20
-151.4805039768868
 30
0.0
 10
109.9674478891748
 20
-151.2817219673879
 30
0.0
 10
110.0752793778631
 20
-151.0784613337581
 30
0.0
 10
110.2361653370243
 20
-151.055379194007
 30
0.0
 10
110.3650119081726
 20
-151.055379194007
 30
0.0
 10
110.5238308100426
 20
-151.055379194007
 30
0.0
 10
110.6674912917775
 20
-151.0998209257667
 30
0.0
 10
110.762920436719
 20
-151.2817219673879
 30
0.0
 10
110.8621391866942
 20
-151.4743028050133
 30
0.0
 10
110.8855658359939
 20
-151.7027126356854
 30
0.0
 10
110.8855658359939
 20
-151.8760009385935
 30
0.0
 10
110.8855658359939
 20
-152.0475666937589
 30
0.0
 10
110.8642062439853
 20
-152.2780435817221
 30
0.0
 10
110.762920436719
 20
-152.4706244193476
 30
0.0
  0
HATCH
  5
F0
330
D3
100
AcDbEntity
  8
レイヤー 1
 62
   250
420
  2299925
440
 33554687
100
AcDbHatch
 10
0.0
 20
0.0
 30
0.0
210
0.0
220
0.0
230
1.0
  2
SOLID
 70
     1
 71
     1
 91
        2
 92
        1
 93
        1
 72
     4
 94
        3
 73
     0
 74
     0
 95
       17
 96
       13
 40
0.0
 40
0.0
 40
0.0
 40
0.0
 40
1.0
 40
1.0
 40
1.0
 40
2.0
 40
2.0
 40
2.0
 40
3.0
 40
3.0
 40
3.0
 40
4.0
 40
4.0
 40
4.0
 40
4.0
 10
110.3650119081726
 20
-151.2479600316324
 10
110.1155869950405
 20
-151.2479600316324
 10
110.0687336964411
 20
-151.5314913900685
 10
110.0687336964411
 20
-151.8760009385935
 10
110.0687336964411
 20
-152.1957057996247
 10
110.1049071990362
 20
-152.504386355103
 10
110.3650119081726
 20
-152.504386355103
 10
110.6127142735621
 20
-152.504386355103
 10
110.6612901199041
 20
-152.2229220539581
 10
110.6612901199041
 20
-151.8760009385935
 10
110.6612901199041
 20
-151.5566405871108
 10
110.6230495600178
 20
-151.2479600316324
 10
110.3650119081726
 20
-151.2479600316324
 97
        0
 97
        1
330
EE
 92
        1
 93
        1
 72
     4
 94
        3
 73
     0
 74
     0
 95
       29
 96
       25
 40
0.0
 40
0.0
 40
0.0
 40
0.0
 40
1.0
 40
1.0
 40
1.0
 40
2.0
 40
2.0
 40
2.0
 40
3.0
 40
3.0
 40
3.0
 40
4.0
 40
4.0
 40
4.0
 40
5.0
 40
5.0
 40
5.0
 40
6.0
 40
6.0
 40
6.0
 40
7.0
 40
7.0
 40
7.0
 40
8.0
 40
8.0
 40
8.0
 40
8.0
 10
110.762920436719
 20
-152.4706244193476
 10
110.6547444384821
 20
-152.6800862248508
 10
110.4814561355741
 20
-152.6990342500196
 10
110.3650119081726
 20
-152.6990342500196
 10
110.2041259490114
 20
-152.6990342500196
 10
110.0625325245677
 20
-152.6525254609688
 10
109.9674478891748
 20
-152.4706244193476
 10
109.8637505150688
 20
-152.275976524431
 10
109.8448024898999
 20
-152.0389539550458
 10
109.8448024898999
 20
-151.8760009385935
 10
109.8448024898999
 20
-151.7323404568586
 10
109.8616834577776
 20
-151.4805039768868
 10
109.9674478891748
 20
-151.2817219673879
 10
110.0752793778631
 20
-151.0784613337581
 10
110.2361653370243
 20
-151.055379194007
 10
110.3650119081726
 20
-151.055379194007
 10
110.5238308100426
 20
-151.055379194007
 10
110.6674912917775
 20
-151.0998209257667
 10
110.762920436719
 20
-151.2817219673879
 10
110.8621391866942
 20
-151.4743028050133
 10
110.8855658359939
 20
-151.7027126356854
 10
110.8855658359939
 20
-151.8760009385935
 10
110.8855658359939
 20
-152.0475666937589
 10
110.8642062439853
 20
-152.2780435817221
 10
110.762920436719
 20
-152.4706244193476
 97
        0
 97
        1
330
EF
 75
     2
 76
     1
 98
        1
 10
0.0
 20
0.0
450
        0
451
        0
460
0.0
461
0.0
452
        0
462
0.0
453
        0
470

  0
ENDBLK
  5
D6
330
D3
100
AcDbEntity
  8
0
100
AcDbBlockEnd
  0
BLOCK
  5
F9
330
F7
100
AcDbEntity
  8
0
100
AcDbBlockBegin
  2
Block_16
 70
     0
 10
0.0
 20
0.0
 30
0.0
  3
Block_16
  1

  0
LWPOLYLINE
  5
FB
330
F7
100
AcDbEntity
  8
レイヤー 1
 62
   250
420
  2299925
370
    25
100
AcDbPolyline
 90
        4
 70
     1
 43
0.0
 10
95.98353733929171
 20
-151.4514280002534
 10
94.98353733954161
 20
-151.4514280002534
 10
95.38353733944152
 20
-132.6363489945035
 10
95.98353733929171
 20
-132.6363489945035
  0
LWPOLYLINE
  5
FC
330
F7
100
AcDbEntity
  8
レイヤー 1
 62
   250
420
  2299925
370
    25
100
AcDbPolyline
 90
        4
 70
     1
 43
0.0
 10
122.0546052382001
 20
-159.3074169171031
 10
103.2423698485495
 20
-159.7074169170037
 10
103.2423698485495
 20
-158.7074169172539
 10
122.0546052382001
 20
-158.7074169172539
  0
LWPOLYLINE
  5
FD
330
F7
100
AcDbEntity
  8
レイヤー 1
 62
   250
420
  2299925
370
    25
100
AcDbPolyline
 90
        4
 70
     1
 43
0.0
 10
101.1965985709671
 20
-158.849410236846
 10
95.84633679404136
 20
-153.4991484602385
 10
96.55344357503556
 20
-152.7920416792122
 10
101.9037053519614
 20
-158.142303455821
  0
SPLINE
  5
FE
330
F7
100
AcDbEntity
  8
レイヤー 1
 62
   250
420
  2299925
370
    25
100
AcDbSpline
210
0.0
220
0.0
230
1.0
 70
    11
 71
     3
 72
    29
 73
    25
 74
     0
 42
0.0000000001
 43
0.0000000001
 40
0.0
 40
0.0
 40
0.0
 40
0.0
 40
1.0
 40
1.0
 40
1.0
 40
2.0
 40
2.0
 40
2.0
 40
3.0
 40
3.0
 40
3.0
 40
4.0
 40
4.0
 40
4.0
 40
5.0
 40
5.0
 40
5.0
 40
6.0
 40
6.0
 40
6.0
 40
7.0
 40
7.0
 40
7.0
 40
8.0
 40
8.0
 40
8.0
 40
8.0
 10
103.2424230283779
 20
-159.7113429742887
 30
0.0
 10
103.2424230283779
 20
-159.7113429742887
 30
0.0
 10
102.8488208691881
 20
-159.7113429742887
 30
0.0
 10
102.8488208691881
 20
-159.7113429742887
 30
0.0
 10
102.310007935295
 20
-159.7113429742887
 30
0.0
 10
101.9536128073459
 20
-159.6284884278684
 30
0.0
 10
101.5014440249069
 20
-159.1764919002036
 30
0.0
 10
101.5014440249069
 20
-159.1764919002036
 30
0.0
 10
101.183289456844
 20
-158.8583373321408
 30
0.0
 10
101.183289456844
 20
-158.8583373321408
 30
0.0
 10
101.183289456844
 20
-158.8583373321408
 30
0.0
 10
101.8902230504173
 20
-158.151059229019
 30
0.0
 10
101.8902230504173
 20
-158.151059229019
 30
0.0
 10
101.8902230504173
 20
-158.151059229019
 30
0.0
 10
102.2085498732544
 20
-158.4692137970818
 30
0.0
 10
102.2085498732544
 20
-158.4692137970818
 30
0.0
 10
102.4326533345699
 20
-158.6933172583973
 30
0.0
 10
102.5108570020851
 20
-158.7112317549206
 30
0.0
 10
102.8488208691881
 20
-158.7112317549206
 30
0.0
 10
102.8488208691881
 20
-158.7112317549206
 30
0.0
 10
103.2424230283779
 20
-158.7112317549206
 30
0.0
 10
103.2424230283779
 20
-158.7112317549206
 30
0.0
 10
103.2424230283779
 20
-158.7112317549206
 30
0.0
 10
103.2424230283779
 20
-159.7113429742887
 30
0.0
 10
103.2424230283779
 20
-159.7113429742887
 30
0.0
  0
SPLINE
  5
FF
330
F7
100
AcDbEntity
  8
レイヤー 1
 62
   250
420
  2299925
370
    25
100
AcDbSpline
210
0.0
220
0.0
230
1.0
 70
    11
 71
     3
 72
    29
 73
    25
 74
     0
 42
0.0000000001
 43
0.0000000001
 40
0.0
 40
0.0
 40
0.0
 40
0.0
 40
1.0
 40
1.0
 40
1.0
 40
2.0
 40
2.0
 40
2.0
 40
3.0
 40
3.0
 40
3.0
 40
4.0
 40
4.0
 40
4.0
 40
5.0
 40
5.0
 40
5.0
 40
6.0
 40
6.0
 40
6.0
 40
7.0
 40
7.0
 40
7.0
 40
8.0
 40
8.0
 40
8.0
 40
8.0
 10
95.83684577328485
 20
-153.5118936485815
 30
0.0
 10
95.83684577328485
 20
-153.5118936485815
 30
0.0
 10
95.5183466956735
 20
-153.1935668257445
 30
0.0
 10
95.5183466956735
 20
-153.1935668257445
 30
0.0
 10
95.06083801523232
 20
-152.735885890529
 30
0.0
 10
94.98349562158846
 20
-152.4235879847911
 30
0.0
 10
94.98349562158846
 20
-151.8970051398707
 30
0.0
 10
94.98349562158846
 20
-151.8970051398707
 30
0.0
 10
94.98349562158846
 20
-151.4513820388536
 30
0.0
 10
94.98349562158846
 20
-151.4513820388536
 30
0.0
 10
94.98349562158846
 20
-151.4513820388536
 30
0.0
 10
95.9836068409565
 20
-151.4513820388536
 30
0.0
 10
95.9836068409565
 20
-151.4513820388536
 30
0.0
 10
95.9836068409565
 20
-151.4513820388536
 30
0.0
 10
95.9836068409565
 20
-151.8970051398707
 30
0.0
 10
95.9836068409565
 20
-151.8970051398707
 30
0.0
 10
95.9836068409565
 20
-152.1981064852815
 30
0.0
 10
95.9836068409565
 20
-152.2444430195581
 30
0.0
 10
96.2256247987953
 20
-152.4862887226227
 30
0.0
 10
96.2256247987953
 20
-152.4862887226227
 30
0.0
 10
96.54395162163238
 20
-152.8049600550083
 30
0.0
 10
96.54395162163238
 20
-152.8049600550083
 30
0.0
 10
96.54395162163238
 20
-152.8049600550083
 30
0.0
 10
95.83684577328485
 20
-153.5118936485815
 30
0.0
 10
95.83684577328485
 20
-153.5118936485815
 30
0.0
  0
ENDBLK
  5
FA
330
F7
100
AcDbEntity
  8
0
100
AcDbBlockEnd
  0
ENDSEC
  0
SECTION
  2
ENTITIES
  0
INSERT
  5
7A
330
70
100
AcDbEntity
  8
レイヤー 1
100
AcDbBlockReference
  2
Block_0
 10
0.0
 20
0.0
 30
0.0
  0
ENDSEC
  0
SECTION
  2
OBJECTS
  0
DICTIONARY
  5
C
330
0
100
AcDbDictionary
281
     1
  3
ACAD_COLOR
350
63
  3
ACAD_DETAILVIEWSTYLE
350
6A
  3
ACAD_GROUP
350
D
  3
ACAD_LAYOUT
350
62
  3
ACAD_MATERIAL
350
10
  3
ACAD_MLEADERSTYLE
350
66
  3
ACAD_MLINESTYLE
350
5F
  3
ACAD_PLOTSETTINGS
350
61
  3
ACAD_PLOTSTYLENAME
350
E
  3
ACAD_SCALELIST
350
42
  3
ACAD_SECTIONVIEWSTYLE
350
68
  3
ACAD_TABLESTYLE
350
64
  3
ACAD_VISUALSTYLE
350
29
  3
ACDB_RECOMPOSE_DATA
350
108
  3
AcDbVariableDictionary
350
100
  0
DICTIONARY
  5
63
102
{ACAD_REACTORS
330
C
102
}
330
C
100
AcDbDictionary
281
     1
  0
DICTIONARY
  5
6A
102
{ACAD_REACTORS
330
C
102
}
330
C
100
AcDbDictionary
281
     1
  3
Imperial24
350
6B
  0
DICTIONARY
  5
D
102
{ACAD_REACTORS
330
C
102
}
330
C
100
AcDbDictionary
281
     1
  0
DICTIONARY
  5
62
102
{ACAD_REACTORS
330
C
102
}
330
C
100
AcDbDictionary
281
     1
  3
Layout1
350
6F
  3
Layout2
350
77
  3
Model
350
73
  0
DICTIONARY
  5
10
102
{ACAD_REACTORS
330
C
102
}
330
C
100
AcDbDictionary
281
     1
  3
ByBlock
350
19
  3
ByLayer
350
11
  3
Global
350
21
  0
DICTIONARY
  5
66
102
{ACAD_REACTORS
330
C
102
}
330
C
100
AcDbDictionary
281
     1
  3
Standard
350
67
  0
DICTIONARY
  5
5F
102
{ACAD_REACTORS
330
C
102
}
330
C
100
AcDbDictionary
281
     1
  3
Standard
350
60
  0
DICTIONARY
  5
61
102
{ACAD_REACTORS
330
C
102
}
330
C
100
AcDbDictionary
281
     1
  0
ACDBDICTIONARYWDFLT
  5
E
102
{ACAD_REACTORS
330
C
102
}
330
C
100
AcDbDictionary
281
     1
  3
Normal
350
F
100
AcDbDictionaryWithDefault
340
F
  0
DICTIONARY
  5
42
102
{ACAD_REACTORS
330
C
102
}
330
C
100
AcDbDictionary
281
     1
  3
A0
350
43
  3
A1
350
44
  3
A2
350
45
  3
A3
350
46
  3
A4
350
47
  3
A5
350
48
  3
A6
350
49
  3
A7
350
4A
  3
A8
350
4B
  3
A9
350
4C
  3
B0
350
4D
  3
B1
350
4E
  3
B2
350
4F
  3
B3
350
50
  3
B4
350
51
  3
B5
350
52
  3
B6
350
53
  0
DICTIONARY
  5
68
102
{ACAD_REACTORS
330
C
102
}
330
C
100
AcDbDictionary
281
     1
  3
Imperial24
350
69
  0
DICTIONARY
  5
64
102
{ACAD_REACTORS
330
C
102
}
330
C
100
AcDbDictionary
281
     1
  3
Standard
350
65
  0
DICTIONARY
  5
29
102
{ACAD_REACTORS
330
C
102
}
330
C
100
AcDbDictionary
281
     1
  3
2dWireframe
350
2F
  3
Basic
350
2E
  3
Brighten
350
35
  3
ColorChange
350
39
  3
Conceptual
350
32
  3
Dim
350
34
  3
EdgeColorOff
350
41
  3
Facepattern
350
38
  3
Flat
350
2A
  3
FlatWithEdges
350
2B
  3
Gouraud
350
2C
  3
GouraudWithEdges
350
2D
  3
Hidden
350
31
  3
JitterOff
350
3F
  3
Linepattern
350
37
  3
OverhangOff
350
40
  3
Realistic
350
33
  3
Shaded
350
3E
  3
Shaded with edges
350
3D
  3
Shades of Gray
350
3A
  3
Sketchy
350
3B
  3
Thicken
350
36
  3
Wireframe
350
30
  3
X-Ray
350
3C
  0
XRECORD
  5
108
102
{ACAD_REACTORS
330
C
102
}
330
C
100
AcDbXrecord
280
     1
 90
        1
330
65
  0
DICTIONARY
  5
100
102
{ACAD_REACTORS
330
C
102
}
330
C
100
AcDbDictionary
281
     1
  3
CANNOSCALE
350
105
  3
CMLEADERSTYLE
350
102
  3
CTABLESTYLE
350
101
  3
CVIEWDETAILSTYLE
350
103
  3
CVIEWSECTIONSTYLE
350
104
  0
ACDBDETAILVIEWSTYLE
  5
6B
102
{ACAD_XDICTIONARY
360
13D
102
}
102
{ACAD_REACTORS
330
6A
102
}
330
6A
100
AcDbModelDocViewStyle
 70
     0
  3
Imperial24
290
     0
100
AcDbDetailViewStyle
 70
     0
 71
     0
 90
        3
 71
     1
340
55
 62
   256
 40
0.24
340
0
 62
   256
 40
0.24
300

 40
0.36
280
     3
 71
     2
340
5D
 90
       25
 62
   256
 71
     3
340
55
 62
   256
 40
0.24
 90
        1
 40
0.75
 90
        1
300
%<\AcVar ViewType \f "%tc1">% %<\AcVar ViewDetailId>%\PSCALE %<\AcVar ViewScale \f "%sn">%
 71
     4
340
5D
 90
       25
 62
   256
340
5D
 90
       25
 62
   256
280
     0
  0
LAYOUT
  5
6F
102
{ACAD_REACTORS
330
62
102
}
330
62
100
AcDbPlotSettings
  1

  2

  4

  6

 40
0.0
 41
0.0
 42
0.0
 43
0.0
 44
0.0
 45
0.0
 46
0.0
 47
0.0
 48
0.0
 49
0.0
140
0.0
141
0.0
142
1.0
143
1.0
 70
   688
 72
     0
 73
     0
 74
     5
  7

 75
    16
147
1.0
 76
     0
 77
     2
 78
   300
148
0.0
149
0.0
100
AcDbLayout
  1
Layout1
 70
     1
 71
     1
 10
0.0
 20
0.0
 11
12.0
 21
9.0
 12
0.0
 22
0.0
 32
0.0
 14
0.0
 24
0.0
 34
0.0
 15
0.0
 25
0.0
 35
0.0
146
0.0
 13
0.0
 23
0.0
 33
0.0
 16
1.0
 26
0.0
 36
0.0
 17
0.0
 27
1.0
 37
0.0
 76
     0
330
6C
  0
LAYOUT
  5
77
102
{ACAD_REACTORS
330
62
102
}
330
62
100
AcDbPlotSettings
  1

  2

  4

  6

 40
0.0
 41
0.0
 42
0.0
 43
0.0
 44
0.0
 45
0.0
 46
0.0
 47
0.0
 48
0.0
 49
0.0
140
0.0
141
0.0
142
1.0
143
1.0
 70
   688
 72
     0
 73
     0
 74
     5
  7

 75
    16
147
1.0
 76
     0
 77
     2
 78
   300
148
0.0
149
0.0
100
AcDbLayout
  1
Layout2
 70
     1
 71
     2
 10
0.0
 20
0.0
 11
12.0
 21
9.0
 12
0.0
 22
0.0
 32
0.0
 14
0.0
 24
0.0
 34
0.0
 15
0.0
 25
0.0
 35
0.0
146
0.0
 13
0.0
 23
0.0
 33
0.0
 16
1.0
 26
0.0
 36
0.0
 17
0.0
 27
1.0
 37
0.0
 76
     0
330
74
  0
LAYOUT
  5
73
102
{ACAD_REACTORS
330
62
102
}
330
62
100
AcDbPlotSettings
  1

  2

  4

  6

 40
0.0
 41
0.0
 42
0.0
 43
0.0
 44
0.0
 45
0.0
 46
0.0
 47
0.0
 48
0.0
 49
0.0
140
0.0
141
0.0
142
1.0
143
1.0
 70
  1712
 72
     0
 73
     0
 74
     0
  7

 75
     0
147
1.0
 76
     0
 77
     2
 78
   300
148
0.0
149
0.0
100
AcDbLayout
  1
Model
 70
     1
 71
     0
 10
0.0
 20
0.0
 11
12.0
 21
9.0
 12
0.0
 22
0.0
 32
0.0
 14
0.0
 24
0.0
 34
0.0
 15
0.0
 25
0.0
 35
0.0
146
0.0
 13
0.0
 23
0.0
 33
0.0
 16
1.0
 26
0.0
 36
0.0
 17
0.0
 27
1.0
 37
0.0
 76
     0
330
70
  0
MATERIAL
  5
19
102
{ACAD_XDICTIONARY
360
1A
102
}
102
{ACAD_REACTORS
330
10
102
}
330
10
100
AcDbMaterial
  1
ByBlock
 72
     0
 43
0.0208333333333333
 43
0.0
 43
0.0
 43
0.0
 43
0.0
 43
0.0208333333333333
 43
0.0
 43
0.0
 43
0.0
 43
0.0
 43
1.0
 43
0.0
 43
0.0
 43
0.0
 43
0.0
 43
1.0
 77
     0
 47
0.0208333333333333
 47
0.0
 47
0.0
 47
0.0
 47
0.0
 47
0.0208333333333333
 47
0.0
 47
0.0
 47
0.0
 47
0.0
 47
1.0
 47
0.0
 47
0.0
 47
0.0
 47
0.0
 47
1.0
171
     0
 49
0.0208333333333333
 49
0.0
 49
0.0
 49
0.0
 49
0.0
 49
0.0208333333333333
 49
0.0
 49
0.0
 49
0.0
 49
0.0
 49
1.0
 49
0.0
 49
0.0
 49
0.0
 49
0.0
 49
1.0
175
     0
142
0.0208333333333333
142
0.0
142
0.0
142
0.0
142
0.0
142
0.0208333333333333
142
0.0
142
0.0
142
0.0
142
0.0
142
1.0
142
0.0
142
0.0
142
0.0
142
0.0
142
1.0
179
     0
144
0.0208333333333333
144
0.0
144
0.0
144
0.0
144
0.0
144
0.0208333333333333
144
0.0
144
0.0
144
0.0
144
0.0
144
1.0
144
0.0
144
0.0
144
0.0
144
0.0
144
1.0
147
0.0208333333333333
147
0.0
147
0.0
147
0.0
147
0.0
147
0.0208333333333333
147
0.0
147
0.0
147
0.0
147
0.0
147
1.0
147
0.0
147
0.0
147
0.0
147
0.0
147
1.0
  0
MATERIAL
  5
11
102
{ACAD_XDICTIONARY
360
12
102
}
102
{ACAD_REACTORS
330
10
102
}
330
10
100
AcDbMaterial
  1
ByLayer
 72
     0
 43
0.0208333333333333
 43
0.0
 43
0.0
 43
0.0
 43
0.0
 43
0.0208333333333333
 43
0.0
 43
0.0
 43
0.0
 43
0.0
 43
1.0
 43
0.0
 43
0.0
 43
0.0
 43
0.0
 43
1.0
 77
     0
 47
0.0208333333333333
 47
0.0
 47
0.0
 47
0.0
 47
0.0
 47
0.0208333333333333
 47
0.0
 47
0.0
 47
0.0
 47
0.0
 47
1.0
 47
0.0
 47
0.0
 47
0.0
 47
0.0
 47
1.0
171
     0
 49
0.0208333333333333
 49
0.0
 49
0.0
 49
0.0
 49
0.0
 49
0.0208333333333333
 49
0.0
 49
0.0
 49
0.0
 49
0.0
 49
1.0
 49
0.0
 49
0.0
 49
0.0
 49
0.0
 49
1.0
175
     0
142
0.0208333333333333
142
0.0
142
0.0
142
0.0
142
0.0
142
0.0208333333333333
142
0.0
142
0.0
142
0.0
142
0.0
142
1.0
142
0.0
142
0.0
142
0.0
142
0.0
142
1.0
179
     0
144
0.0208333333333333
144
0.0
144
0.0
144
0.0
144
0.0
144
0.0208333333333333
144
0.0
144
0.0
144
0.0
144
0.0
144
1.0
144
0.0
144
0.0
144
0.0
144
0.0
144
1.0
147
0.0208333333333333
147
0.0
147
0.0
147
0.0
147
0.0
147
0.0208333333333333
147
0.0
147
0.0
147
0.0
147
0.0
147
1.0
147
0.0
147
0.0
147
0.0
147
0.0
147
1.0
  0
MATERIAL
  5
21
102
{ACAD_XDICTIONARY
360
22
102
}
102
{ACAD_REACTORS
330
10
102
}
330
10
100
AcDbMaterial
  1
Global
 72
     0
 43
0.0208333333333333
 43
0.0
 43
0.0
 43
0.0
 43
0.0
 43
0.0208333333333333
 43
0.0
 43
0.0
 43
0.0
 43
0.0
 43
1.0
 43
0.0
 43
0.0
 43
0.0
 43
0.0
 43
1.0
 77
     0
 47
0.0208333333333333
 47
0.0
 47
0.0
 47
0.0
 47
0.0
 47
0.0208333333333333
 47
0.0
 47
0.0
 47
0.0
 47
0.0
 47
1.0
 47
0.0
 47
0.0
 47
0.0
 47
0.0
 47
1.0
171
     0
 49
0.0208333333333333
 49
0.0
 49
0.0
 49
0.0
 49
0.0
 49
0.0208333333333333
 49
0.0
 49
0.0
 49
0.0
 49
0.0
 49
1.0
 49
0.0
 49
0.0
 49
0.0
 49
0.0
 49
1.0
175
     0
142
0.0208333333333333
142
0.0
142
0.0
142
0.0
142
0.0
142
0.0208333333333333
142
0.0
142
0.0
142
0.0
142
0.0
142
1.0
142
0.0
142
0.0
142
0.0
142
0.0
142
1.0
179
     0
144
0.0208333333333333
144
0.0
144
0.0
144
0.0
144
0.0
144
0.0208333333333333
144
0.0
144
0.0
144
0.0
144
0.0
144
1.0
144
0.0
144
0.0
144
0.0
144
0.0
144
1.0
147
0.0208333333333333
147
0.0
147
0.0
147
0.0
147
0.0
147
0.0208333333333333
147
0.0
147
0.0
147
0.0
147
0.0
147
1.0
147
0.0
147
0.0
147
0.0
147
0.0
147
1.0
  0
MLEADERSTYLE
  5
67
102
{ACAD_XDICTIONARY
360
139
102
}
102
{ACAD_REACTORS
330
66
102
}
330
66
100
AcDbMLeaderStyle
179
     2
170
     2
171
     1
172
     0
 90
        2
 40
0.0
 41
0.0
173
     1
 91
-1056964608
340
5B
 92
       -2
290
     1
 42
0.09
291
     1
 43
0.36
  3
Standard
 44
0.18
300

342
55
174
     1
178
     6
175
     1
176
     0
 93
-1056964608
 45
0.18
292
     0
297
     0
 46
0.18
 94
-1056964608
 47
1.0
 49
1.0
140
1.0
293
     1
141
0.0
294
     1
177
     0
142
1.0
295
     0
296
     0
143
0.125
271
     0
272
     9
273
     9
  0
MLINESTYLE
  5
60
102
{ACAD_REACTORS
330
5F
102
}
330
5F
100
AcDbMlineStyle
  2
STANDARD
 70
     0
  3

 62
   256
 51
90.0
 52
90.0
 71
     2
 49
0.5
 62
   256
  6
BYLAYER
 49
-0.5
 62
   256
  6
BYLAYER
  0
ACDBPLACEHOLDER
  5
F
102
{ACAD_REACTORS
330
E
102
}
330
E
  0
SCALE
  5
43
102
{ACAD_REACTORS
330
42
102
}
330
42
100
AcDbScale
 70
     0
300
1:1
140
1.0
141
1.0
290
     1
  0
SCALE
  5
44
102
{ACAD_REACTORS
330
42
102
}
330
42
100
AcDbScale
 70
     0
300
1/128" = 1'-0"
140
0.0078125
141
12.0
290
     0
  0
SCALE
  5
45
102
{ACAD_REACTORS
330
42
102
}
330
42
100
AcDbScale
 70
     0
300
1/64" = 1'-0"
140
0.015625
141
12.0
290
     0
  0
SCALE
  5
46
102
{ACAD_REACTORS
330
42
102
}
330
42
100
AcDbScale
 70
     0
300
1/32" = 1'-0"
140
0.03125
141
12.0
290
     0
  0
SCALE
  5
47
102
{ACAD_REACTORS
330
42
102
}
330
42
100
AcDbScale
 70
     0
300
1/16" = 1'-0"
140
0.0625
141
12.0
290
     0
  0
SCALE
  5
48
102
{ACAD_REACTORS
330
42
102
}
330
42
100
AcDbScale
 70
     0
300
3/32" = 1'-0"
140
0.09375
141
12.0
290
     0
  0
SCALE
  5
49
102
{ACAD_REACTORS
330
42
102
}
330
42
100
AcDbScale
 70
     0
300
1/8" = 1'-0"
140
0.125
141
12.0
290
     0
  0
SCALE
  5
4A
102
{ACAD_REACTORS
330
42
102
}
330
42
100
AcDbScale
 70
     0
300
3/16" = 1'-0"
140
0.1875
141
12.0
290
     0
  0
SCALE
  5
4B
102
{ACAD_REACTORS
330
42
102
}
330
42
100
AcDbScale
 70
     0
300
1/4" = 1'-0"
140
0.25
141
12.0
290
     0
  0
SCALE
  5
4C
102
{ACAD_REACTORS
330
42
102
}
330
42
100
AcDbScale
 70
     0
300
3/8" = 1'-0"
140
0.375
141
12.0
290
     0
  0
SCALE
  5
4D
102
{ACAD_REACTORS
330
42
102
}
330
42
100
AcDbScale
 70
     0
300
1/2" = 1'-0"
140
0.5
141
12.0
290
     0
  0
SCALE
  5
4E
102
{ACAD_REACTORS
330
42
102
}
330
42
100
AcDbScale
 70
     0
300
3/4" = 1'-0"
140
0.75
141
12.0
290
     0
  0
SCALE
  5
4F
102
{ACAD_REACTORS
330
42
102
}
330
42
100
AcDbScale
 70
     0
300
1" = 1'-0"
140
1.0
141
12.0
290
     0
  0
SCALE
  5
50
102
{ACAD_REACTORS
330
42
102
}
330
42
100
AcDbScale
 70
     0
300
1-1/2" = 1'-0"
140
1.5
141
12.0
290
     0
  0
SCALE
  5
51
102
{ACAD_REACTORS
330
42
102
}
330
42
100
AcDbScale
 70
     0
300
3" = 1'-0"
140
3.0
141
12.0
290
     0
  0
SCALE
  5
52
102
{ACAD_REACTORS
330
42
102
}
330
42
100
AcDbScale
 70
     0
300
6" = 1'-0"
140
6.0
141
12.0
290
     0
  0
SCALE
  5
53
102
{ACAD_REACTORS
330
42
102
}
330
42
100
AcDbScale
 70
     0
300
1'-0" = 1'-0"
140
12.0
141
12.0
290
     0
  0
ACDBSECTIONVIEWSTYLE
  5
69
102
{ACAD_XDICTIONARY
360
13B
102
}
102
{ACAD_REACTORS
330
68
102
}
330
68
100
AcDbModelDocViewStyle
 70
     0
  3
Imperial24
290
     0
100
AcDbSectionViewStyle
 70
     0
 71
     0
 90
       78
 71
     1
340
55
 62
   256
 40
0.24
340
0
340
0
 62
   256
 40
0.24
300
I, O, Q, S, X, Z
 40
0.48
 90
        3
 40
0.18
 90
        1
 71
     2
340
5D
 90
       25
 62
   256
340
5D
 90
       50
 62
   256
 40
0.24
 40
0.0
 40
0.24
 71
     3
340
55
 62
   256
 40
0.24
 90
        1
 40
0.75
 90
        1
300
%<\AcVar ViewType \f "%tc1">% %<\AcVar ViewSectionStartId>%-%<\AcVar ViewSectionEndId>%\PSCALE %<\AcVar ViewScale \f "%sn">%
 71
     4
 62
   256
 62
   257
300
ANSI31
 40
1.0
 90
        0
290
     0
290
     0
 90
        6
 40
0.0
 40
1.570796326794896
 40
0.2617993877991494
 40
1.308996938995747
 40
-0.2617993877991494
 40
1.832595714594046
  0
TABLESTYLE
  5
65
102
{ACAD_XDICTIONARY
360
106
102
}
102
{ACAD_REACTORS
330
64
102
}
330
64
100
AcDbTableStyle
280
     0
  3
Standard
 70
     0
 71
     0
 40
0.06
 41
0.06
280
     0
281
     0
  7
Standard
140
0.18
170
     2
 62
     0
 63
     7
283
     0
 90
      512
 91
        0
  1

274
    -2
284
     1
 64
     0
275
    -2
285
     1
 65
     0
276
    -2
286
     1
 66
     0
277
    -2
287
     1
 67
     0
278
    -2
288
     1
 68
     0
279
    -2
289
     1
 69
     0
  7
Standard
140
0.25
170
     5
 62
     0
 63
     7
283
     0
 90
      512
 91
        0
  1

274
    -2
284
     1
 64
     0
275
    -2
285
     1
 65
     0
276
    -2
286
     1
 66
     0
277
    -2
287
     1
 67
     0
278
    -2
288
     1
 68
     0
279
    -2
289
     1
 69
     0
  7
Standard
140
0.18
170
     5
 62
     0
 63
     7
283
     0
 90
      512
 91
        0
  1

274
    -2
284
     1
 64
     0
275
    -2
285
     1
 65
     0
276
    -2
286
     1
 66
     0
277
    -2
287
     1
 67
     0
278
    -2
288
     1
 68
     0
279
    -2
289
     1
 69
     0
  0
VISUALSTYLE
  5
2F
102
{ACAD_XDICTIONARY
360
113
102
}
102
{ACAD_REACTORS
330
29
102
}
330
29
100
AcDbVisualStyle
  2
2dWireframe
 70
     4
177
     2
291
     0
 71
     0
176
     1
 72
     2
176
     1
 73
     0
176
     1
 90
        0
176
     1
 40
0.6
176
     1
 41
30.0
176
     1
 63
     7
421
 16777215
176
     1
 74
     1
176
     1
 91
        4
176
     1
 64
     7
176
     1
 65
   257
176
     1
 75
     1
176
     1
175
     1
176
     1
 42
1.0
176
     1
 92
        0
176
     1
 66
   257
176
     1
 43
1.0
176
     1
 76
     1
176
     1
 77
     6
176
     1
 78
     2
176
     1
 67
     7
176
     1
 79
     5
176
     1
170
     0
176
     1
171
     0
176
     1
290
     0
176
     1
 93
        1
176
     1
 44
0.0
176
     1
173
     0
176
     1
1001
ACAD
1000
AcDbSavedByObjectVersion
1070
     0
  0
VISUALSTYLE
  5
2E
102
{ACAD_XDICTIONARY
360
111
102
}
102
{ACAD_REACTORS
330
29
102
}
330
29
100
AcDbVisualStyle
  2
Basic
 70
     7
177
     2
291
     1
 71
     1
176
     1
 72
     0
176
     1
 73
     1
176
     1
 90
        0
176
     1
 40
0.6
176
     1
 41
30.0
176
     1
 63
     7
421
 16777215
176
     1
 74
     0
176
     1
 91
        4
176
     1
 64
     7
176
     1
 65
   257
176
     1
 75
     1
176
     1
175
     1
176
     1
 42
1.0
176
     1
 92
        8
176
     1
 66
     7
176
     1
 43
1.0
176
     1
 76
     1
176
     1
 77
     6
176
     1
 78
     2
176
     1
 67
     7
176
     1
 79
     5
176
     1
170
     0
176
     1
171
     0
176
     1
290
     0
176
     1
 93
        1
176
     1
 44
0.0
176
     1
173
     0
176
     1
1001
ACAD
1000
AcDbSavedByObjectVersion
1070
     0
  0
VISUALSTYLE
  5
35
102
{ACAD_XDICTIONARY
360
11F
102
}
102
{ACAD_REACTORS
330
29
102
}
330
29
100
AcDbVisualStyle
  2
Brighten
 70
    12
177
     2
291
     1
 71
     2
176
     1
 72
     2
176
     1
 73
     0
176
     1
 90
        0
176
     1
 40
0.6
176
     1
 41
30.0
176
     1
 63
     7
421
 16777215
176
     1
 74
     1
176
     1
 91
        4
176
     1
 64
     7
176
     1
 65
   257
176
     1
 75
     1
176
     1
175
     1
176
     1
 42
1.0
176
     1
 92
        8
176
     1
 66
     7
176
     1
 43
1.0
176
     1
 76
     1
176
     1
 77
     6
176
     1
 78
     2
176
     1
 67
     7
176
     1
 79
     5
176
     1
170
     0
176
     1
171
     0
176
     1
290
     0
176
     1
 93
        1
176
     1
 44
50.0
176
     1
173
     0
176
     1
1001
ACAD
1000
AcDbSavedByObjectVersion
1070
     0
  0
VISUALSTYLE
  5
39
102
{ACAD_XDICTIONARY
360
127
102
}
102
{ACAD_REACTORS
330
29
102
}
330
29
100
AcDbVisualStyle
  2
ColorChange
 70
    16
177
     2
291
     1
 71
     2
176
     1
 72
     2
176
     1
 73
     3
176
     1
 90
        0
176
     1
 40
0.6
176
     1
 41
30.0
176
     1
 63
     8
421
  8421504
176
     1
 74
     1
176
     1
 91
        4
176
     1
 64
     7
176
     1
 65
   257
176
     1
 75
     1
176
     1
175
     1
176
     1
 42
1.0
176
     1
 92
        8
176
     1
 66
     8
424
  8421504
176
     1
 43
1.0
176
     1
 76
     1
176
     1
 77
     6
176
     1
 78
     2
176
     1
 67
     7
176
     1
 79
     5
176
     1
170
     0
176
     1
171
     0
176
     1
290
     0
176
     1
 93
        1
176
     1
 44
0.0
176
     1
173
     0
176
     1
1001
ACAD
1000
AcDbSavedByObjectVersion
1070
     0
  0
VISUALSTYLE
  5
32
102
{ACAD_XDICTIONARY
360
119
102
}
102
{ACAD_REACTORS
330
29
102
}
330
29
100
AcDbVisualStyle
  2
Conceptual
 70
     9
177
     2
291
     0
 71
     3
176
     1
 72
     2
176
     1
 73
     0
176
     1
 90
        0
176
     1
 40
0.6
176
     1
 41
30.0
176
     1
 63
     7
421
 16777215
176
     1
 74
     2
176
     1
 91
        2
176
     1
 64
     7
176
     1
 65
   257
176
     1
 75
     1
176
     1
175
     1
176
     1
 42
179.0
176
     1
 92
        8
176
     1
 66
     7
176
     1
 43
1.0
176
     1
 76
     1
176
     1
 77
     6
176
     1
 78
     2
176
     1
 67
     7
176
     1
 79
     3
176
     1
170
     0
176
     1
171
     0
176
     1
290
     0
176
     1
 93
        1
176
     1
 44
0.0
176
     1
173
     0
176
     1
1001
ACAD
1000
AcDbSavedByObjectVersion
1070
     0
  0
VISUALSTYLE
  5
34
102
{ACAD_XDICTIONARY
360
11D
102
}
102
{ACAD_REACTORS
330
29
102
}
330
29
100
AcDbVisualStyle
  2
Dim
 70
    11
177
     2
291
     1
 71
     2
176
     1
 72
     2
176
     1
 73
     0
176
     1
 90
        0
176
     1
 40
0.6
176
     1
 41
30.0
176
     1
 63
     7
421
 16777215
176
     1
 74
     1
176
     1
 91
        4
176
     1
 64
     7
176
     1
 65
   257
176
     1
 75
     1
176
     1
175
     1
176
     1
 42
1.0
176
     1
 92
        8
176
     1
 66
     7
176
     1
 43
1.0
176
     1
 76
     1
176
     1
 77
     6
176
     1
 78
     2
176
     1
 67
     7
176
     1
 79
     5
176
     1
170
     0
176
     1
171
     0
176
     1
290
     0
176
     1
 93
        1
176
     1
 44
-50.0
176
     1
173
     0
176
     1
1001
ACAD
1000
AcDbSavedByObjectVersion
1070
     0
  0
VISUALSTYLE
  5
41
102
{ACAD_XDICTIONARY
360
137
102
}
102
{ACAD_REACTORS
330
29
102
}
330
29
100
AcDbVisualStyle
  2
EdgeColorOff
 70
    22
177
     2
291
     1
 71
     2
176
     0
 72
     2
176
     0
 73
     0
176
     0
 90
        0
176
     0
 40
0.6
176
     0
 41
30.0
176
     0
 63
     7
421
 16777215
176
     0
 74
     1
176
     0
 91
        4
176
     0
 64
     7
176
     0
 65
   257
176
     0
 75
     1
176
     0
175
     1
176
     0
 42
1.0
176
     0
 92
        8
176
     2
 66
     7
176
     0
 43
1.0
176
     0
 76
     1
176
     0
 77
     6
176
     0
 78
     2
176
     0
 67
     7
176
     0
 79
     5
176
     0
170
     0
176
     0
171
     0
176
     0
290
     0
176
     0
 93
        1
176
     0
 44
0.0
176
     0
173
     0
176
     0
1001
ACAD
1000
AcDbSavedByObjectVersion
1070
     0
  0
VISUALSTYLE
  5
38
102
{ACAD_XDICTIONARY
360
125
102
}
102
{ACAD_REACTORS
330
29
102
}
330
29
100
AcDbVisualStyle
  2
Facepattern
 70
    15
177
     2
291
     1
 71
     2
176
     1
 72
     2
176
     1
 73
     0
176
     1
 90
        0
176
     1
 40
0.6
176
     1
 41
30.0
176
     1
 63
     7
421
 16777215
176
     1
 74
     1
176
     1
 91
        4
176
     1
 64
     7
176
     1
 65
   257
176
     1
 75
     1
176
     1
175
     1
176
     1
 42
1.0
176
     1
 92
        8
176
     1
 66
     7
176
     1
 43
1.0
176
     1
 76
     1
176
     1
 77
     6
176
     1
 78
     2
176
     1
 67
     7
176
     1
 79
     5
176
     1
170
     0
176
     1
171
     0
176
     1
290
     0
176
     1
 93
        1
176
     1
 44
0.0
176
     1
173
     0
176
     1
1001
ACAD
1000
AcDbSavedByObjectVersion
1070
     0
  0
VISUALSTYLE
  5
2A
102
{ACAD_XDICTIONARY
360
109
102
}
102
{ACAD_REACTORS
330
29
102
}
330
29
100
AcDbVisualStyle
  2
Flat
 70
     0
177
     2
291
     1
 71
     2
176
     1
 72
     1
176
     1
 73
     1
176
     1
 90
        2
176
     1
 40
0.6
176
     1
 41
30.0
176
     1
 63
     7
421
 16777215
176
     1
 74
     0
176
     1
 91
        0
176
     1
 64
     7
176
     1
 65
   257
176
     1
 75
     1
176
     1
175
     1
176
     1
 42
1.0
176
     1
 92
        8
176
     1
 66
     7
176
     1
 43
1.0
176
     1
 76
     1
176
     1
 77
     6
176
     1
 78
     2
176
     1
 67
     7
176
     1
 79
     5
176
     1
170
     0
176
     1
171
     0
176
     1
290
     0
176
     1
 93
       13
176
     1
 44
0.0
176
     1
173
     0
176
     1
1001
ACAD
1000
AcDbSavedByObjectVersion
1070
     0
  0
VISUALSTYLE
  5
2B
102
{ACAD_XDICTIONARY
360
10B
102
}
102
{ACAD_REACTORS
330
29
102
}
330
29
100
AcDbVisualStyle
  2
FlatWithEdges
 70
     1
177
     2
291
     1
 71
     2
176
     1
 72
     1
176
     1
 73
     1
176
     1
 90
        2
176
     1
 40
0.6
176
     1
 41
30.0
176
     1
 63
     7
421
 16777215
176
     1
 74
     1
176
     1
 91
        0
176
     1
 64
     7
176
     1
 65
   257
176
     1
 75
     1
176
     1
175
     1
176
     1
 42
1.0
176
     1
 92
        0
176
     1
 66
   257
176
     1
 43
1.0
176
     1
 76
     1
176
     1
 77
     6
176
     1
 78
     2
176
     1
 67
     7
176
     1
 79
     5
176
     1
170
     0
176
     1
171
     0
176
     1
290
     0
176
     1
 93
       13
176
     1
 44
0.0
176
     1
173
     0
176
     1
1001
ACAD
1000
AcDbSavedByObjectVersion
1070
     0
  0
VISUALSTYLE
  5
2C
102
{ACAD_XDICTIONARY
360
10D
102
}
102
{ACAD_REACTORS
330
29
102
}
330
29
100
AcDbVisualStyle
  2
Gouraud
 70
     2
177
     2
291
     1
 71
     2
176
     1
 72
     2
176
     1
 73
     1
176
     1
 90
        2
176
     1
 40
0.6
176
     1
 41
30.0
176
     1
 63
     7
421
 16777215
176
     1
 74
     0
176
     1
 91
        0
176
     1
 64
     7
176
     1
 65
   257
176
     1
 75
     1
176
     1
175
     1
176
     1
 42
1.0
176
     1
 92
        0
176
     1
 66
     7
176
     1
 43
1.0
176
     1
 76
     1
176
     1
 77
     6
176
     1
 78
     2
176
     1
 67
     7
176
     1
 79
     5
176
     1
170
     0
176
     1
171
     0
176
     1
290
     0
176
     1
 93
       13
176
     1
 44
0.0
176
     1
173
     0
176
     1
1001
ACAD
1000
AcDbSavedByObjectVersion
1070
     0
  0
VISUALSTYLE
  5
2D
102
{ACAD_XDICTIONARY
360
10F
102
}
102
{ACAD_REACTORS
330
29
102
}
330
29
100
AcDbVisualStyle
  2
GouraudWithEdges
 70
     3
177
     2
291
     1
 71
     2
176
     1
 72
     2
176
     1
 73
     1
176
     1
 90
        2
176
     1
 40
0.6
176
     1
 41
30.0
176
     1
 63
     7
421
 16777215
176
     1
 74
     1
176
     1
 91
        0
176
     1
 64
     7
176
     1
 65
   257
176
     1
 75
     1
176
     1
175
     1
176
     1
 42
1.0
176
     1
 92
        0
176
     1
 66
   257
176
     1
 43
1.0
176
     1
 76
     1
176
     1
 77
     6
176
     1
 78
     2
176
     1
 67
     7
176
     1
 79
     5
176
     1
170
     0
176
     1
171
     0
176
     1
290
     0
176
     1
 93
       13
176
     1
 44
0.0
176
     1
173
     0
176
     1
1001
ACAD
1000
AcDbSavedByObjectVersion
1070
     0
  0
VISUALSTYLE
  5
31
102
{ACAD_XDICTIONARY
360
117
102
}
102
{ACAD_REACTORS
330
29
102
}
330
29
100
AcDbVisualStyle
  2
Hidden
 70
     6
177
     2
291
     0
 71
     1
176
     1
 72
     2
176
     1
 73
     2
176
     1
 90
        0
176
     1
 40
0.6
176
     1
 41
30.0
176
     1
 63
     7
421
 16777215
176
     1
 74
     2
176
     1
 91
        2
176
     1
 64
     7
176
     1
 65
   257
176
     1
 75
     2
176
     1
175
     1
176
     1
 42
40.0
176
     1
 92
        0
176
     1
 66
   257
176
     1
 43
1.0
176
     1
 76
     1
176
     1
 77
     6
176
     1
 78
     2
176
     1
 67
     7
176
     1
 79
     3
176
     1
170
     0
176
     1
171
     0
176
     1
290
     0
176
     1
 93
        1
176
     1
 44
0.0
176
     1
173
     0
176
     1
1001
ACAD
1000
AcDbSavedByObjectVersion
1070
     0
  0
VISUALSTYLE
  5
3F
102
{ACAD_XDICTIONARY
360
133
102
}
102
{ACAD_REACTORS
330
29
102
}
330
29
100
AcDbVisualStyle
  2
JitterOff
 70
    20
177
     2
291
     1
 71
     2
176
     0
 72
     2
176
     0
 73
     0
176
     0
 90
        0
176
     0
 40
0.6
176
     0
 41
30.0
176
     0
 63
     7
421
 16777215
176
     0
 74
     1
176
     0
 91
        4
176
     0
 64
     7
176
     0
 65
   257
176
     0
 75
     1
176
     0
175
     1
176
     0
 42
1.0
176
     0
 92
       10
176
     2
 66
     7
176
     0
 43
1.0
176
     0
 76
     1
176
     0
 77
     6
176
     0
 78
     2
176
     0
 67
     7
176
     0
 79
     5
176
     0
170
     0
176
     0
171
     0
176
     0
290
     0
176
     0
 93
        1
176
     0
 44
0.0
176
     0
173
     0
176
     0
1001
ACAD
1000
AcDbSavedByObjectVersion
1070
     0
  0
VISUALSTYLE
  5
37
102
{ACAD_XDICTIONARY
360
123
102
}
102
{ACAD_REACTORS
330
29
102
}
330
29
100
AcDbVisualStyle
  2
Linepattern
 70
    14
177
     2
291
     1
 71
     2
176
     1
 72
     2
176
     1
 73
     0
176
     1
 90
        0
176
     1
 40
0.6
176
     1
 41
30.0
176
     1
 63
     7
421
 16777215
176
     1
 74
     1
176
     1
 91
        4
176
     1
 64
     7
176
     1
 65
   257
176
     1
 75
     7
176
     1
175
     7
176
     1
 42
1.0
176
     1
 92
        8
176
     1
 66
     7
176
     1
 43
1.0
176
     1
 76
     1
176
     1
 77
     6
176
     1
 78
     2
176
     1
 67
     7
176
     1
 79
     5
176
     1
170
     0
176
     1
171
     0
176
     1
290
     0
176
     1
 93
        1
176
     1
 44
0.0
176
     1
173
     0
176
     1
1001
ACAD
1000
AcDbSavedByObjectVersion
1070
     0
  0
VISUALSTYLE
  5
40
102
{ACAD_XDICTIONARY
360
135
102
}
102
{ACAD_REACTORS
330
29
102
}
330
29
100
AcDbVisualStyle
  2
OverhangOff
 70
    21
177
     2
291
     1
 71
     2
176
     0
 72
     2
176
     0
 73
     0
176
     0
 90
        0
176
     0
 40
0.6
176
     0
 41
30.0
176
     0
 63
     7
421
 16777215
176
     0
 74
     1
176
     0
 91
        4
176
     0
 64
     7
176
     0
 65
   257
176
     0
 75
     1
176
     0
175
     1
176
     0
 42
1.0
176
     0
 92
        9
176
     2
 66
     7
176
     0
 43
1.0
176
     0
 76
     1
176
     0
 77
     6
176
     0
 78
     2
176
     0
 67
     7
176
     0
 79
     5
176
     0
170
     0
176
     0
171
     0
176
     0
290
     0
176
     0
 93
        1
176
     0
 44
0.0
176
     0
173
     0
176
     0
1001
ACAD
1000
AcDbSavedByObjectVersion
1070
     0
  0
VISUALSTYLE
  5
33
102
{ACAD_XDICTIONARY
360
11B
102
}
102
{ACAD_REACTORS
330
29
102
}
330
29
100
AcDbVisualStyle
  2
Realistic
 70
     8
177
     2
291
     0
 71
     2
176
     1
 72
     3
176
     1
 73
     0
176
     1
 90
        2
176
     1
 40
0.6
176
     1
 41
30.0
176
     1
 63
     7
421
 16777215
176
     1
 74
     0
176
     1
 91
        0
176
     1
 64
     7
176
     1
 65
   257
176
     1
 75
     1
176
     1
175
     1
176
     1
 42
1.0
176
     1
 92
        8
176
     1
 66
   257
176
     1
 43
1.0
176
     1
 76
     1
176
     1
 77
     6
176
     1
 78
     2
176
     1
 67
     7
176
     1
 79
     3
176
     1
170
     0
176
     1
171
     0
176
     1
290
     0
176
     1
 93
       13
176
     1
 44
0.0
176
     1
173
     0
176
     1
1001
ACAD
1000
AcDbSavedByObjectVersion
1070
     0
  0
VISUALSTYLE
  5
3E
102
{ACAD_XDICTIONARY
360
131
102
}
102
{ACAD_REACTORS
330
29
102
}
330
29
100
AcDbVisualStyle
  2
Shaded
 70
    27
177
     2
291
     0
 71
     2
176
     1
 72
     2
176
     1
 73
     1
176
     1
 90
        2
176
     1
 40
0.6
176
     1
 41
30.0
176
     1
 63
     7
421
 16777215
176
     1
 74
     0
176
     1
 91
        4
176
     1
 64
     7
176
     1
 65
   257
176
     1
 75
     1
176
     1
175
     1
176
     1
 42
1.0
176
     1
 92
        8
176
     1
 66
   257
176
     1
 43
1.0
176
     1
 76
     1
176
     1
 77
     6
176
     1
 78
     2
176
     1
 67
     8
425
  7895160
176
     1
 79
     3
176
     1
170
     0
176
     1
171
     0
176
     1
290
     0
176
     1
 93
        5
176
     1
 44
0.0
176
     1
173
     0
176
     1
1001
ACAD
1000
AcDbSavedByObjectVersion
1070
     0
  0
VISUALSTYLE
  5
3D
102
{ACAD_XDICTIONARY
360
12F
102
}
102
{ACAD_REACTORS
330
29
102
}
330
29
100
AcDbVisualStyle
  2
Shaded with edges
 70
    26
177
     2
291
     0
 71
     2
176
     1
 72
     2
176
     1
 73
     1
176
     1
 90
        2
176
     1
 40
0.6
176
     1
 41
30.0
176
     1
 63
     7
421
 16777215
176
     1
 74
     1
176
     1
 91
        2
176
     1
 64
     7
176
     1
 65
   257
176
     1
 75
     2
176
     1
175
     1
176
     1
 42
1.0
176
     1
 92
        8
176
     1
 66
   257
176
     1
 43
1.0
176
     1
 76
     1
176
     1
 77
     6
176
     1
 78
     2
176
     1
 67
     7
176
     1
 79
     3
176
     1
170
     0
176
     1
171
     0
176
     1
290
     0
176
     1
 93
        5
176
     1
 44
0.0
176
     1
173
     0
176
     1
1001
ACAD
1000
AcDbSavedByObjectVersion
1070
     0
  0
VISUALSTYLE
  5
3A
102
{ACAD_XDICTIONARY
360
129
102
}
102
{ACAD_REACTORS
330
29
102
}
330
29
100
AcDbVisualStyle
  2
Shades of Gray
 70
    23
177
     2
291
     0
 71
     2
176
     1
 72
     2
176
     1
 73
     3
176
     1
 90
        0
176
     1
 40
0.6
176
     1
 41
30.0
176
     1
 63
     7
421
 16777215
176
     1
 74
     2
176
     1
 91
        2
176
     1
 64
     7
176
     1
 65
     7
176
     1
 75
     1
176
     1
175
     1
176
     1
 42
40.0
176
     1
 92
        8
176
     1
 66
     7
176
     1
 43
1.0
176
     1
 76
     1
176
     1
 77
     6
176
     1
 78
     2
176
     1
 67
     7
176
     1
 79
     3
176
     1
170
     0
176
     1
171
     0
176
     1
290
     0
176
     1
 93
        1
176
     1
 44
0.0
176
     1
173
     0
176
     1
1001
ACAD
1000
AcDbSavedByObjectVersion
1070
     0
  0
VISUALSTYLE
  5
3B
102
{ACAD_XDICTIONARY
360
12B
102
}
102
{ACAD_REACTORS
330
29
102
}
330
29
100
AcDbVisualStyle
  2
Sketchy
 70
    24
177
     2
291
     0
 71
     1
176
     1
 72
     2
176
     1
 73
     2
176
     1
 90
        0
176
     1
 40
0.6
176
     1
 41
30.0
176
     1
 63
     7
421
 16777215
176
     1
 74
     2
176
     1
 91
        2
176
     1
 64
     7
176
     1
 65
     7
176
     1
 75
     1
176
     1
175
     1
176
     1
 42
40.0
176
     1
 92
       11
176
     1
 66
     7
176
     1
 43
1.0
176
     1
 76
     1
176
     1
 77
     6
176
     1
 78
     2
176
     1
 67
     7
176
     1
 79
     6
176
     1
170
     0
176
     1
171
     0
176
     1
290
     0
176
     1
 93
        1
176
     1
 44
0.0
176
     1
173
     0
176
     1
1001
ACAD
1000
AcDbSavedByObjectVersion
1070
     0
  0
VISUALSTYLE
  5
36
102
{ACAD_XDICTIONARY
360
121
102
}
102
{ACAD_REACTORS
330
29
102
}
330
29
100
AcDbVisualStyle
  2
Thicken
 70
    13
177
     2
291
     1
 71
     2
176
     1
 72
     2
176
     1
 73
     0
176
     1
 90
        0
176
     1
 40
0.6
176
     1
 41
30.0
176
     1
 63
     7
421
 16777215
176
     1
 74
     1
176
     1
 91
        4
176
     1
 64
     7
176
     1
 65
   257
176
     1
 75
     1
176
     1
175
     1
176
     1
 42
1.0
176
     1
 92
       12
176
     1
 66
     7
176
     1
 43
1.0
176
     1
 76
     1
176
     1
 77
     6
176
     1
 78
     2
176
     1
 67
     7
176
     1
 79
     5
176
     1
170
     0
176
     1
171
     0
176
     1
290
     0
176
     1
 93
        1
176
     1
 44
0.0
176
     1
173
     0
176
     1
1001
ACAD
1000
AcDbSavedByObjectVersion
1070
     0
  0
VISUALSTYLE
  5
30
102
{ACAD_XDICTIONARY
360
115
102
}
102
{ACAD_REACTORS
330
29
102
}
330
29
100
AcDbVisualStyle
  2
Wireframe
 70
     5
177
     2
291
     0
 71
     0
176
     1
 72
     2
176
     1
 73
     0
176
     1
 90
        0
176
     1
 40
0.6
176
     1
 41
30.0
176
     1
 63
     7
421
 16777215
176
     1
 74
     1
176
     1
 91
        4
176
     1
 64
     7
176
     1
 65
   257
176
     1
 75
     1
176
     1
175
     1
176
     1
 42
1.0
176
     1
 92
        0
176
     1
 66
   257
176
     1
 43
1.0
176
     1
 76
     1
176
     1
 77
     6
176
     1
 78
     2
176
     1
 67
     7
176
     1
 79
     3
176
     1
170
     0
176
     1
171
     0
176
     1
290
     0
176
     1
 93
        1
176
     1
 44
0.0
176
     1
173
     0
176
     1
1001
ACAD
1000
AcDbSavedByObjectVersion
1070
     0
  0
VISUALSTYLE
  5
3C
102
{ACAD_XDICTIONARY
360
12D
102
}
102
{ACAD_REACTORS
330
29
102
}
330
29
100
AcDbVisualStyle
  2
X-Ray
 70
    25
177
     2
291
     0
 71
     2
176
     1
 72
     2
176
     1
 73
     1
176
     1
 90
        1
176
     1
 40
0.5
176
     1
 41
30.0
176
     1
 63
     7
421
 16777215
176
     1
 74
     1
176
     1
 91
        0
176
     1
 64
     7
176
     1
 65
   257
176
     1
 75
     1
176
     1
175
     1
176
     1
 42
1.0
176
     1
 92
        8
176
     1
 66
     7
176
     1
 43
1.0
176
     1
 76
     1
176
     1
 77
     6
176
     1
 78
     2
176
     1
 67
     7
176
     1
 79
     3
176
     1
170
     0
176
     1
171
     0
176
     1
290
     0
176
     1
 93
       13
176
     1
 44
0.0
176
     1
173
     0
176
     1
1001
ACAD
1000
AcDbSavedByObjectVersion
1070
     0
  0
DICTIONARYVAR
  5
105
102
{ACAD_REACTORS
330
100
102
}
330
100
100
DictionaryVariables
280
     0
  1
1:1
  0
DICTIONARYVAR
  5
102
102
{ACAD_REACTORS
330
100
102
}
330
100
100
DictionaryVariables
280
     0
  1
STANDARD
  0
DICTIONARYVAR
  5
101
102
{ACAD_REACTORS
330
100
102
}
330
100
100
DictionaryVariables
280
     0
  1
STANDARD
  0
DICTIONARYVAR
  5
103
102
{ACAD_REACTORS
330
100
102
}
330
100
100
DictionaryVariables
280
     0
  1
Imperial24
  0
DICTIONARYVAR
  5
104
102
{ACAD_REACTORS
330
100
102
}
330
100
100
DictionaryVariables
280
     0
  1
Imperial24
  0
DICTIONARY
  5
13D
330
6B
100
AcDbDictionary
280
     1
281
     1
  3
ACAD_XREC_ROUNDTRIP
360
13E
  0
DICTIONARY
  5
1A
330
19
100
AcDbDictionary
280
     1
281
     1
  3
BUMPTILE
360
1C
  3
DIFFUSETILE
360
1B
  3
OPACITYTILE
360
1F
  3
REFLECTIONTILE
360
1E
  3
REFRACTIONTILE
360
20
  3
SPECULARTILE
360
1D
  0
DICTIONARY
  5
12
330
11
100
AcDbDictionary
280
     1
281
     1
  3
BUMPTILE
360
14
  3
DIFFUSETILE
360
13
  3
OPACITYTILE
360
17
  3
REFLECTIONTILE
360
16
  3
REFRACTIONTILE
360
18
  3
SPECULARTILE
360
15
  0
DICTIONARY
  5
22
330
21
100
AcDbDictionary
280
     1
281
     1
  3
BUMPTILE
360
24
  3
DIFFUSETILE
360
23
  3
OPACITYTILE
360
27
  3
REFLECTIONTILE
360
26
  3
REFRACTIONTILE
360
28
  3
SPECULARTILE
360
25
  0
DICTIONARY
  5
139
330
67
100
AcDbDictionary
280
     1
281
     1
  3
ACAD_XREC_ROUNDTRIP
360
13A
  0
DICTIONARY
  5
13B
330
69
100
AcDbDictionary
280
     1
281
     1
  3
ACAD_XREC_ROUNDTRIP
360
13C
  0
DICTIONARY
  5
106
330
65
100
AcDbDictionary
280
     1
281
     1
  3
ACAD_ROUNDTRIP_2008_TABLESTYLE_CELLSTYLEMAP
360
107
  0
DICTIONARY
  5
113
330
2F
100
AcDbDictionary
280
     1
281
     1
  3
ACAD_XREC_ROUNDTRIP
360
114
  0
DICTIONARY
  5
111
330
2E
100
AcDbDictionary
280
     1
281
     1
  3
ACAD_XREC_ROUNDTRIP
360
112
  0
DICTIONARY
  5
11F
330
35
100
AcDbDictionary
280
     1
281
     1
  3
ACAD_XREC_ROUNDTRIP
360
120
  0
DICTIONARY
  5
127
330
39
100
AcDbDictionary
280
     1
281
     1
  3
ACAD_XREC_ROUNDTRIP
360
128
  0
DICTIONARY
  5
119
330
32
100
AcDbDictionary
280
     1
281
     1
  3
ACAD_XREC_ROUNDTRIP
360
11A
  0
DICTIONARY
  5
11D
330
34
100
AcDbDictionary
280
     1
281
     1
  3
ACAD_XREC_ROUNDTRIP
360
11E
  0
DICTIONARY
  5
137
330
41
100
AcDbDictionary
280
     1
281
     1
  3
ACAD_XREC_ROUNDTRIP
360
138
  0
DICTIONARY
  5
125
330
38
100
AcDbDictionary
280
     1
281
     1
  3
ACAD_XREC_ROUNDTRIP
360
126
  0
DICTIONARY
  5
109
330
2A
100
AcDbDictionary
280
     1
281
     1
  3
ACAD_XREC_ROUNDTRIP
360
10A
  0
DICTIONARY
  5
10B
330
2B
100
AcDbDictionary
280
     1
281
     1
  3
ACAD_XREC_ROUNDTRIP
360
10C
  0
DICTIONARY
  5
10D
330
2C
100
AcDbDictionary
280
     1
281
     1
  3
ACAD_XREC_ROUNDTRIP
360
10E
  0
DICTIONARY
  5
10F
330
2D
100
AcDbDictionary
280
     1
281
     1
  3
ACAD_XREC_ROUNDTRIP
360
110
  0
DICTIONARY
  5
117
330
31
100
AcDbDictionary
280
     1
281
     1
  3
ACAD_XREC_ROUNDTRIP
360
118
  0
DICTIONARY
  5
133
330
3F
100
AcDbDictionary
280
     1
281
     1
  3
ACAD_XREC_ROUNDTRIP
360
134
  0
DICTIONARY
  5
123
330
37
100
AcDbDictionary
280
     1
281
     1
  3
ACAD_XREC_ROUNDTRIP
360
124
  0
DICTIONARY
  5
135
330
40
100
AcDbDictionary
280
     1
281
     1
  3
ACAD_XREC_ROUNDTRIP
360
136
  0
DICTIONARY
  5
11B
330
33
100
AcDbDictionary
280
     1
281
     1
  3
ACAD_XREC_ROUNDTRIP
360
11C
  0
DICTIONARY
  5
131
330
3E
100
AcDbDictionary
280
     1
281
     1
  3
ACAD_XREC_ROUNDTRIP
360
132
  0
DICTIONARY
  5
12F
330
3D
100
AcDbDictionary
280
     1
281
     1
  3
ACAD_XREC_ROUNDTRIP
360
130
  0
DICTIONARY
  5
129
330
3A
100
AcDbDictionary
280
     1
281
     1
  3
ACAD_XREC_ROUNDTRIP
360
12A
  0
DICTIONARY
  5
12B
330
3B
100
AcDbDictionary
280
     1
281
     1
  3
ACAD_XREC_ROUNDTRIP
360
12C
  0
DICTIONARY
  5
121
330
36
100
AcDbDictionary
280
     1
281
     1
  3
ACAD_XREC_ROUNDTRIP
360
122
  0
DICTIONARY
  5
115
330
30
100
AcDbDictionary
280
     1
281
     1
  3
ACAD_XREC_ROUNDTRIP
360
116
  0
DICTIONARY
  5
12D
330
3C
100
AcDbDictionary
280
     1
281
     1
  3
ACAD_XREC_ROUNDTRIP
360
12E
  0
XRECORD
  5
13E
102
{ACAD_REACTORS
330
13D
102
}
330
13D
100
AcDbXrecord
280
     1
102
DISPLAYNAME
  1
Imperial24
102
FLAGS
 90
        0
  0
XRECORD
  5
1C
102
{ACAD_REACTORS
330
1A
102
}
330
1A
100
AcDbXrecord
280
     1
270
     1
271
     1
  0
XRECORD
  5
1B
102
{ACAD_REACTORS
330
1A
102
}
330
1A
100
AcDbXrecord
280
     1
270
     1
271
     1
  0
XRECORD
  5
1F
102
{ACAD_REACTORS
330
1A
102
}
330
1A
100
AcDbXrecord
280
     1
270
     1
271
     1
  0
XRECORD
  5
1E
102
{ACAD_REACTORS
330
1A
102
}
330
1A
100
AcDbXrecord
280
     1
270
     1
271
     1
  0
XRECORD
  5
20
102
{ACAD_REACTORS
330
1A
102
}
330
1A
100
AcDbXrecord
280
     1
270
     1
271
     1
  0
XRECORD
  5
1D
102
{ACAD_REACTORS
330
1A
102
}
330
1A
100
AcDbXrecord
280
     1
270
     1
271
     1
  0
XRECORD
  5
14
102
{ACAD_REACTORS
330
12
102
}
330
12
100
AcDbXrecord
280
     1
270
     1
271
     1
  0
XRECORD
  5
13
102
{ACAD_REACTORS
330
12
102
}
330
12
100
AcDbXrecord
280
     1
270
     1
271
     1
  0
XRECORD
  5
17
102
{ACAD_REACTORS
330
12
102
}
330
12
100
AcDbXrecord
280
     1
270
     1
271
     1
  0
XRECORD
  5
16
102
{ACAD_REACTORS
330
12
102
}
330
12
100
AcDbXrecord
280
     1
270
     1
271
     1
  0
XRECORD
  5
18
102
{ACAD_REACTORS
330
12
102
}
330
12
100
AcDbXrecord
280
     1
270
     1
271
     1
  0
XRECORD
  5
15
102
{ACAD_REACTORS
330
12
102
}
330
12
100
AcDbXrecord
280
     1
270
     1
271
     1
  0
XRECORD
  5
24
102
{ACAD_REACTORS
330
22
102
}
330
22
100
AcDbXrecord
280
     1
270
     1
271
     1
  0
XRECORD
  5
23
102
{ACAD_REACTORS
330
22
102
}
330
22
100
AcDbXrecord
280
     1
270
     1
271
     1
  0
XRECORD
  5
27
102
{ACAD_REACTORS
330
22
102
}
330
22
100
AcDbXrecord
280
     1
270
     1
271
     1
  0
XRECORD
  5
26
102
{ACAD_REACTORS
330
22
102
}
330
22
100
AcDbXrecord
280
     1
270
     1
271
     1
  0
XRECORD
  5
28
102
{ACAD_REACTORS
330
22
102
}
330
22
100
AcDbXrecord
280
     1
270
     1
271
     1
  0
XRECORD
  5
25
102
{ACAD_REACTORS
330
22
102
}
330
22
100
AcDbXrecord
280
     1
270
     1
271
     1
  0
XRECORD
  5
13A
102
{ACAD_REACTORS
330
139
102
}
330
139
100
AcDbXrecord
280
     1
102
ACAD_ROUNDTRIP_2012_MLEADER_STYLE
298
     1
  0
XRECORD
  5
13C
102
{ACAD_REACTORS
330
13B
102
}
330
13B
100
AcDbXrecord
280
     1
102
DISPLAYNAME
  1
Imperial24
102
FLAGS
 90
        0
  0
CELLSTYLEMAP
  5
107
102
{ACAD_REACTORS
330
106
102
}
330
106
100
AcDbCellStyleMap
 90
        3
300
CELLSTYLE
  1
TABLEFORMAT_BEGIN
 90
        5
170
     1
 91
        0
 92
    32768
 62
   257
 93
        1
300
CONTENTFORMAT
  1
CONTENTFORMAT_BEGIN
 90
        0
 91
        0
 92
      512
 93
        0
300

 40
0.0
140
1.0
 94
        5
 62
     0
340
55
144
0.25
309
CONTENTFORMAT_END
171
     0
 94
        0
309
TABLEFORMAT_END
  1
CELLSTYLE_BEGIN
 90
        1
 91
        1
300
_TITLE
309
CELLSTYLE_END
300
CELLSTYLE
  1
TABLEFORMAT_BEGIN
 90
        5
170
     1
 91
        0
 92
        0
 62
   257
 93
        1
300
CONTENTFORMAT
  1
CONTENTFORMAT_BEGIN
 90
        0
 91
        0
 92
      512
 93
        0
300

 40
0.0
140
1.0
 94
        5
 62
     0
340
55
144
0.18
309
CONTENTFORMAT_END
171
     0
 94
        0
309
TABLEFORMAT_END
  1
CELLSTYLE_BEGIN
 90
        2
 91
        1
300
_HEADER
309
CELLSTYLE_END
300
CELLSTYLE
  1
TABLEFORMAT_BEGIN
 90
        5
170
     1
 91
        0
 92
        0
 62
   257
 93
        1
300
CONTENTFORMAT
  1
CONTENTFORMAT_BEGIN
 90
        0
 91
        0
 92
      512
 93
        0
300

 40
0.0
140
1.0
 94
        2
 62
     0
340
55
144
0.18
309
CONTENTFORMAT_END
171
     0
 94
        0
309
TABLEFORMAT_END
  1
CELLSTYLE_BEGIN
 90
        3
 91
        2
300
_DATA
309
CELLSTYLE_END
  0
XRECORD
  5
114
102
{ACAD_REACTORS
330
113
102
}
330
113
100
AcDbXrecord
280
     1
102
RTVSPost2010Prop28
280
     1
102
RTVSPost2010PropOp28
 70
     1
102
RTVSPost2010Prop29
280
     1
102
RTVSPost2010PropOp29
 70
     1
102
RTVSPost2010Prop30
280
     0
102
RTVSPost2010PropOp30
 70
     1
102
RTVSPost2010Prop31
280
     0
102
RTVSPost2010PropOp31
 70
     1
102
RTVSPost2010Prop32
280
     0
102
RTVSPost2010PropOp32
 70
     1
102
RTVSPost2010Prop33
280
     0
102
RTVSPost2010PropOp33
 70
     1
102
RTVSPost2010Prop34
280
     0
102
RTVSPost2010PropOp34
 70
     1
102
RTVSPost2010Prop35
280
     0
102
RTVSPost2010PropOp35
 70
     1
102
RTVSPost2010Prop36
280
     0
102
RTVSPost2010PropOp36
 70
     1
102
RTVSPost2010Prop37
 90
       50
102
RTVSPost2010PropOp37
 70
     1
102
RTVSPost2010Prop38
140
0.0
102
RTVSPost2010PropOp38
 70
     1
102
RTVSPost2010Prop39
140
1.0
102
RTVSPost2010PropOp39
 70
     1
102
RTVSPost2010Prop40
 90
        0
102
RTVSPost2010PropOp40
 70
     1
102
RTVSPost2010Prop41ColorIndex
 90
       18
102
RTVSPost2010Prop41ColorRGB
 90
        0
102
RTVSPost2010PropOp41
 70
     1
102
RTVSPost2010Prop42
 90
       50
102
RTVSPost2010PropOp42
 70
     1
102
RTVSPost2010Prop43
 90
        3
102
RTVSPost2010PropOp43
 70
     1
102
RTVSPost2010Prop44ColorIndex
 90
        5
102
RTVSPost2010Prop44ColorRGB
 90
      255
102
RTVSPost2010PropOp44
 70
     1
102
RTVSPost2010Prop45
280
     0
102
RTVSPost2010PropOp45
 70
     1
102
RTVSPost2010Prop46
 90
       50
102
RTVSPost2010PropOp46
 70
     1
102
RTVSPost2010Prop47
 90
       50
102
RTVSPost2010PropOp47
 70
     1
102
RTVSPost2010Prop48
 90
       50
102
RTVSPost2010PropOp48
 70
     1
102
RTVSPost2010Prop49
280
     0
102
RTVSPost2010PropOp49
 70
     1
102
RTVSPost2010Prop50
 90
       50
102
RTVSPost2010PropOp50
 70
     1
102
RTVSPost2010Prop51ColorIndex
 90
      256
102
RTVSPost2010Prop51ColorRGB
 90
-16777216
102
RTVSPost2010PropOp51
 70
     0
102
RTVSPost2010Prop52
140
1.0
102
RTVSPost2010PropOp52
 70
     0
102
RTVSPost2010Prop53
 90
        2
102
RTVSPost2010PropOp53
 70
     1
102
RTVSPost2010Prop54
  1
strokes_ogs.tif
102
RTVSPost2010PropOp54
 70
     1
102
RTVSPost2010Prop55
280
     0
102
RTVSPost2010PropOp55
 70
     1
102
RTVSPost2010Prop56
140
1.0
102
RTVSPost2010PropOp56
 70
     1
102
RTVSPost2010Prop57
140
1.0
102
RTVSPost2010PropOp57
 70
     1
  0
XRECORD
  5
112
102
{ACAD_REACTORS
330
111
102
}
330
111
100
AcDbXrecord
280
     1
102
RTVSPost2010Prop28
280
     0
102
RTVSPost2010PropOp28
 70
     1
102
RTVSPost2010Prop29
280
     1
102
RTVSPost2010PropOp29
 70
     1
102
RTVSPost2010Prop30
280
     1
102
RTVSPost2010PropOp30
 70
     1
102
RTVSPost2010Prop31
280
     0
102
RTVSPost2010PropOp31
 70
     1
102
RTVSPost2010Prop32
280
     0
102
RTVSPost2010PropOp32
 70
     1
102
RTVSPost2010Prop33
280
     0
102
RTVSPost2010PropOp33
 70
     1
102
RTVSPost2010Prop34
280
     0
102
RTVSPost2010PropOp34
 70
     1
102
RTVSPost2010Prop35
280
     0
102
RTVSPost2010PropOp35
 70
     1
102
RTVSPost2010Prop36
280
     0
102
RTVSPost2010PropOp36
 70
     1
102
RTVSPost2010Prop37
 90
       50
102
RTVSPost2010PropOp37
 70
     1
102
RTVSPost2010Prop38
140
0.0
102
RTVSPost2010PropOp38
 70
     1
102
RTVSPost2010Prop39
140
1.0
102
RTVSPost2010PropOp39
 70
     1
102
RTVSPost2010Prop40
 90
        0
102
RTVSPost2010PropOp40
 70
     1
102
RTVSPost2010Prop41ColorIndex
 90
       18
102
RTVSPost2010Prop41ColorRGB
 90
        0
102
RTVSPost2010PropOp41
 70
     1
102
RTVSPost2010Prop42
 90
       50
102
RTVSPost2010PropOp42
 70
     1
102
RTVSPost2010Prop43
 90
        3
102
RTVSPost2010PropOp43
 70
     1
102
RTVSPost2010Prop44ColorIndex
 90
        5
102
RTVSPost2010Prop44ColorRGB
 90
      255
102
RTVSPost2010PropOp44
 70
     1
102
RTVSPost2010Prop45
280
     0
102
RTVSPost2010PropOp45
 70
     1
102
RTVSPost2010Prop46
 90
       50
102
RTVSPost2010PropOp46
 70
     1
102
RTVSPost2010Prop47
 90
       50
102
RTVSPost2010PropOp47
 70
     1
102
RTVSPost2010Prop48
 90
       50
102
RTVSPost2010PropOp48
 70
     1
102
RTVSPost2010Prop49
280
     0
102
RTVSPost2010PropOp49
 70
     1
102
RTVSPost2010Prop50
 90
       50
102
RTVSPost2010PropOp50
 70
     1
102
RTVSPost2010Prop51ColorIndex
 90
      256
102
RTVSPost2010Prop51ColorRGB
 90
-16777216
102
RTVSPost2010PropOp51
 70
     0
102
RTVSPost2010Prop52
140
1.0
102
RTVSPost2010PropOp52
 70
     0
102
RTVSPost2010Prop53
 90
        2
102
RTVSPost2010PropOp53
 70
     1
102
RTVSPost2010Prop54
  1
strokes_ogs.tif
102
RTVSPost2010PropOp54
 70
     1
102
RTVSPost2010Prop55
280
     0
102
RTVSPost2010PropOp55
 70
     1
102
RTVSPost2010Prop56
140
1.0
102
RTVSPost2010PropOp56
 70
     1
102
RTVSPost2010Prop57
140
1.0
102
RTVSPost2010PropOp57
 70
     1
  0
XRECORD
  5
120
102
{ACAD_REACTORS
330
11F
102
}
330
11F
100
AcDbXrecord
280
     1
102
RTVSPost2010Prop28
280
     0
102
RTVSPost2010PropOp28
 70
     1
102
RTVSPost2010Prop29
280
     1
102
RTVSPost2010PropOp29
 70
     1
102
RTVSPost2010Prop30
280
     1
102
RTVSPost2010PropOp30
 70
     1
102
RTVSPost2010Prop31
280
     0
102
RTVSPost2010PropOp31
 70
     1
102
RTVSPost2010Prop32
280
     0
102
RTVSPost2010PropOp32
 70
     1
102
RTVSPost2010Prop33
280
     0
102
RTVSPost2010PropOp33
 70
     1
102
RTVSPost2010Prop34
280
     0
102
RTVSPost2010PropOp34
 70
     1
102
RTVSPost2010Prop35
280
     0
102
RTVSPost2010PropOp35
 70
     1
102
RTVSPost2010Prop36
280
     0
102
RTVSPost2010PropOp36
 70
     1
102
RTVSPost2010Prop37
 90
       50
102
RTVSPost2010PropOp37
 70
     1
102
RTVSPost2010Prop38
140
0.0
102
RTVSPost2010PropOp38
 70
     1
102
RTVSPost2010Prop39
140
1.0
102
RTVSPost2010PropOp39
 70
     1
102
RTVSPost2010Prop40
 90
        0
102
RTVSPost2010PropOp40
 70
     1
102
RTVSPost2010Prop41ColorIndex
 90
       18
102
RTVSPost2010Prop41ColorRGB
 90
        0
102
RTVSPost2010PropOp41
 70
     1
102
RTVSPost2010Prop42
 90
       50
102
RTVSPost2010PropOp42
 70
     1
102
RTVSPost2010Prop43
 90
        3
102
RTVSPost2010PropOp43
 70
     1
102
RTVSPost2010Prop44ColorIndex
 90
        5
102
RTVSPost2010Prop44ColorRGB
 90
      255
102
RTVSPost2010PropOp44
 70
     1
102
RTVSPost2010Prop45
280
     0
102
RTVSPost2010PropOp45
 70
     1
102
RTVSPost2010Prop46
 90
       50
102
RTVSPost2010PropOp46
 70
     1
102
RTVSPost2010Prop47
 90
       50
102
RTVSPost2010PropOp47
 70
     1
102
RTVSPost2010Prop48
 90
       50
102
RTVSPost2010PropOp48
 70
     1
102
RTVSPost2010Prop49
280
     0
102
RTVSPost2010PropOp49
 70
     1
102
RTVSPost2010Prop50
 90
       50
102
RTVSPost2010PropOp50
 70
     1
102
RTVSPost2010Prop51ColorIndex
 90
      256
102
RTVSPost2010Prop51ColorRGB
 90
-16777216
102
RTVSPost2010PropOp51
 70
     0
102
RTVSPost2010Prop52
140
1.0
102
RTVSPost2010PropOp52
 70
     0
102
RTVSPost2010Prop53
 90
        2
102
RTVSPost2010PropOp53
 70
     1
102
RTVSPost2010Prop54
  1
strokes_ogs.tif
102
RTVSPost2010PropOp54
 70
     1
102
RTVSPost2010Prop55
280
     0
102
RTVSPost2010PropOp55
 70
     1
102
RTVSPost2010Prop56
140
1.0
102
RTVSPost2010PropOp56
 70
     1
102
RTVSPost2010Prop57
140
1.0
102
RTVSPost2010PropOp57
 70
     1
  0
XRECORD
  5
128
102
{ACAD_REACTORS
330
127
102
}
330
127
100
AcDbXrecord
280
     1
102
RTVSPost2010Prop28
280
     0
102
RTVSPost2010PropOp28
 70
     1
102
RTVSPost2010Prop29
280
     1
102
RTVSPost2010PropOp29
 70
     1
102
RTVSPost2010Prop30
280
     1
102
RTVSPost2010PropOp30
 70
     1
102
RTVSPost2010Prop31
280
     0
102
RTVSPost2010PropOp31
 70
     1
102
RTVSPost2010Prop32
280
     0
102
RTVSPost2010PropOp32
 70
     1
102
RTVSPost2010Prop33
280
     0
102
RTVSPost2010PropOp33
 70
     1
102
RTVSPost2010Prop34
280
     0
102
RTVSPost2010PropOp34
 70
     1
102
RTVSPost2010Prop35
280
     0
102
RTVSPost2010PropOp35
 70
     1
102
RTVSPost2010Prop36
280
     0
102
RTVSPost2010PropOp36
 70
     1
102
RTVSPost2010Prop37
 90
       50
102
RTVSPost2010PropOp37
 70
     1
102
RTVSPost2010Prop38
140
0.0
102
RTVSPost2010PropOp38
 70
     1
102
RTVSPost2010Prop39
140
1.0
102
RTVSPost2010PropOp39
 70
     1
102
RTVSPost2010Prop40
 90
        0
102
RTVSPost2010PropOp40
 70
     1
102
RTVSPost2010Prop41ColorIndex
 90
       18
102
RTVSPost2010Prop41ColorRGB
 90
        0
102
RTVSPost2010PropOp41
 70
     1
102
RTVSPost2010Prop42
 90
       50
102
RTVSPost2010PropOp42
 70
     1
102
RTVSPost2010Prop43
 90
        3
102
RTVSPost2010PropOp43
 70
     1
102
RTVSPost2010Prop44ColorIndex
 90
        5
102
RTVSPost2010Prop44ColorRGB
 90
      255
102
RTVSPost2010PropOp44
 70
     1
102
RTVSPost2010Prop45
280
     0
102
RTVSPost2010PropOp45
 70
     1
102
RTVSPost2010Prop46
 90
       50
102
RTVSPost2010PropOp46
 70
     1
102
RTVSPost2010Prop47
 90
       50
102
RTVSPost2010PropOp47
 70
     1
102
RTVSPost2010Prop48
 90
       50
102
RTVSPost2010PropOp48
 70
     1
102
RTVSPost2010Prop49
280
     0
102
RTVSPost2010PropOp49
 70
     1
102
RTVSPost2010Prop50
 90
       50
102
RTVSPost2010PropOp50
 70
     1
102
RTVSPost2010Prop51ColorIndex
 90
      256
102
RTVSPost2010Prop51ColorRGB
 90
-16777216
102
RTVSPost2010PropOp51
 70
     0
102
RTVSPost2010Prop52
140
1.0
102
RTVSPost2010PropOp52
 70
     0
102
RTVSPost2010Prop53
 90
        2
102
RTVSPost2010PropOp53
 70
     1
102
RTVSPost2010Prop54
  1
strokes_ogs.tif
102
RTVSPost2010PropOp54
 70
     1
102
RTVSPost2010Prop55
280
     0
102
RTVSPost2010PropOp55
 70
     1
102
RTVSPost2010Prop56
140
1.0
102
RTVSPost2010PropOp56
 70
     1
102
RTVSPost2010Prop57
140
1.0
102
RTVSPost2010PropOp57
 70
     1
  0
XRECORD
  5
11A
102
{ACAD_REACTORS
330
119
102
}
330
119
100
AcDbXrecord
280
     1
102
RTVSPost2010Prop28
280
     0
102
RTVSPost2010PropOp28
 70
     1
102
RTVSPost2010Prop29
280
     1
102
RTVSPost2010PropOp29
 70
     1
102
RTVSPost2010Prop30
280
     1
102
RTVSPost2010PropOp30
 70
     1
102
RTVSPost2010Prop31
280
     0
102
RTVSPost2010PropOp31
 70
     1
102
RTVSPost2010Prop32
280
     0
102
RTVSPost2010PropOp32
 70
     1
102
RTVSPost2010Prop33
280
     0
102
RTVSPost2010PropOp33
 70
     1
102
RTVSPost2010Prop34
280
     0
102
RTVSPost2010PropOp34
 70
     1
102
RTVSPost2010Prop35
280
     0
102
RTVSPost2010PropOp35
 70
     1
102
RTVSPost2010Prop36
280
     0
102
RTVSPost2010PropOp36
 70
     1
102
RTVSPost2010Prop37
 90
       50
102
RTVSPost2010PropOp37
 70
     1
102
RTVSPost2010Prop38
140
0.0
102
RTVSPost2010PropOp38
 70
     1
102
RTVSPost2010Prop39
140
1.0
102
RTVSPost2010PropOp39
 70
     1
102
RTVSPost2010Prop40
 90
        0
102
RTVSPost2010PropOp40
 70
     1
102
RTVSPost2010Prop41ColorIndex
 90
       18
102
RTVSPost2010Prop41ColorRGB
 90
        0
102
RTVSPost2010PropOp41
 70
     1
102
RTVSPost2010Prop42
 90
       50
102
RTVSPost2010PropOp42
 70
     1
102
RTVSPost2010Prop43
 90
        3
102
RTVSPost2010PropOp43
 70
     1
102
RTVSPost2010Prop44ColorIndex
 90
        5
102
RTVSPost2010Prop44ColorRGB
 90
      255
102
RTVSPost2010PropOp44
 70
     1
102
RTVSPost2010Prop45
280
     0
102
RTVSPost2010PropOp45
 70
     1
102
RTVSPost2010Prop46
 90
       50
102
RTVSPost2010PropOp46
 70
     1
102
RTVSPost2010Prop47
 90
       50
102
RTVSPost2010PropOp47
 70
     1
102
RTVSPost2010Prop48
 90
       50
102
RTVSPost2010PropOp48
 70
     1
102
RTVSPost2010Prop49
280
     0
102
RTVSPost2010PropOp49
 70
     1
102
RTVSPost2010Prop50
 90
       50
102
RTVSPost2010PropOp50
 70
     1
102
RTVSPost2010Prop51ColorIndex
 90
      256
102
RTVSPost2010Prop51ColorRGB
 90
-16777216
102
RTVSPost2010PropOp51
 70
     0
102
RTVSPost2010Prop52
140
1.0
102
RTVSPost2010PropOp52
 70
     0
102
RTVSPost2010Prop53
 90
        2
102
RTVSPost2010PropOp53
 70
     1
102
RTVSPost2010Prop54
  1
strokes_ogs.tif
102
RTVSPost2010PropOp54
 70
     1
102
RTVSPost2010Prop55
280
     0
102
RTVSPost2010PropOp55
 70
     1
102
RTVSPost2010Prop56
140
1.0
102
RTVSPost2010PropOp56
 70
     1
102
RTVSPost2010Prop57
140
1.0
102
RTVSPost2010PropOp57
 70
     1
  0
XRECORD
  5
11E
102
{ACAD_REACTORS
330
11D
102
}
330
11D
100
AcDbXrecord
280
     1
102
RTVSPost2010Prop28
280
     0
102
RTVSPost2010PropOp28
 70
     1
102
RTVSPost2010Prop29
280
     1
102
RTVSPost2010PropOp29
 70
     1
102
RTVSPost2010Prop30
280
     1
102
RTVSPost2010PropOp30
 70
     1
102
RTVSPost2010Prop31
280
     0
102
RTVSPost2010PropOp31
 70
     1
102
RTVSPost2010Prop32
280
     0
102
RTVSPost2010PropOp32
 70
     1
102
RTVSPost2010Prop33
280
     0
102
RTVSPost2010PropOp33
 70
     1
102
RTVSPost2010Prop34
280
     0
102
RTVSPost2010PropOp34
 70
     1
102
RTVSPost2010Prop35
280
     0
102
RTVSPost2010PropOp35
 70
     1
102
RTVSPost2010Prop36
280
     0
102
RTVSPost2010PropOp36
 70
     1
102
RTVSPost2010Prop37
 90
       50
102
RTVSPost2010PropOp37
 70
     1
102
RTVSPost2010Prop38
140
0.0
102
RTVSPost2010PropOp38
 70
     1
102
RTVSPost2010Prop39
140
1.0
102
RTVSPost2010PropOp39
 70
     1
102
RTVSPost2010Prop40
 90
        0
102
RTVSPost2010PropOp40
 70
     1
102
RTVSPost2010Prop41ColorIndex
 90
       18
102
RTVSPost2010Prop41ColorRGB
 90
        0
102
RTVSPost2010PropOp41
 70
     1
102
RTVSPost2010Prop42
 90
       50
102
RTVSPost2010PropOp42
 70
     1
102
RTVSPost2010Prop43
 90
        3
102
RTVSPost2010PropOp43
 70
     1
102
RTVSPost2010Prop44ColorIndex
 90
        5
102
RTVSPost2010Prop44ColorRGB
 90
      255
102
RTVSPost2010PropOp44
 70
     1
102
RTVSPost2010Prop45
280
     0
102
RTVSPost2010PropOp45
 70
     1
102
RTVSPost2010Prop46
 90
       50
102
RTVSPost2010PropOp46
 70
     1
102
RTVSPost2010Prop47
 90
       50
102
RTVSPost2010PropOp47
 70
     1
102
RTVSPost2010Prop48
 90
       50
102
RTVSPost2010PropOp48
 70
     1
102
RTVSPost2010Prop49
280
     0
102
RTVSPost2010PropOp49
 70
     1
102
RTVSPost2010Prop50
 90
       50
102
RTVSPost2010PropOp50
 70
     1
102
RTVSPost2010Prop51ColorIndex
 90
      256
102
RTVSPost2010Prop51ColorRGB
 90
-16777216
102
RTVSPost2010PropOp51
 70
     0
102
RTVSPost2010Prop52
140
1.0
102
RTVSPost2010PropOp52
 70
     0
102
RTVSPost2010Prop53
 90
        2
102
RTVSPost2010PropOp53
 70
     1
102
RTVSPost2010Prop54
  1
strokes_ogs.tif
102
RTVSPost2010PropOp54
 70
     1
102
RTVSPost2010Prop55
280
     0
102
RTVSPost2010PropOp55
 70
     1
102
RTVSPost2010Prop56
140
1.0
102
RTVSPost2010PropOp56
 70
     1
102
RTVSPost2010Prop57
140
1.0
102
RTVSPost2010PropOp57
 70
     1
  0
XRECORD
  5
138
102
{ACAD_REACTORS
330
137
102
}
330
137
100
AcDbXrecord
280
     1
102
RTVSPost2010Prop28
280
     0
102
RTVSPost2010PropOp28
 70
     0
102
RTVSPost2010Prop29
280
     1
102
RTVSPost2010PropOp29
 70
     0
102
RTVSPost2010Prop30
280
     1
102
RTVSPost2010PropOp30
 70
     0
102
RTVSPost2010Prop31
280
     0
102
RTVSPost2010PropOp31
 70
     0
102
RTVSPost2010Prop32
280
     0
102
RTVSPost2010PropOp32
 70
     0
102
RTVSPost2010Prop33
280
     0
102
RTVSPost2010PropOp33
 70
     0
102
RTVSPost2010Prop34
280
     0
102
RTVSPost2010PropOp34
 70
     0
102
RTVSPost2010Prop35
280
     0
102
RTVSPost2010PropOp35
 70
     0
102
RTVSPost2010Prop36
280
     0
102
RTVSPost2010PropOp36
 70
     0
102
RTVSPost2010Prop37
 90
       50
102
RTVSPost2010PropOp37
 70
     0
102
RTVSPost2010Prop38
140
0.0
102
RTVSPost2010PropOp38
 70
     0
102
RTVSPost2010Prop39
140
1.0
102
RTVSPost2010PropOp39
 70
     0
102
RTVSPost2010Prop40
 90
        0
102
RTVSPost2010PropOp40
 70
     0
102
RTVSPost2010Prop41ColorIndex
 90
       18
102
RTVSPost2010Prop41ColorRGB
 90
        0
102
RTVSPost2010PropOp41
 70
     0
102
RTVSPost2010Prop42
 90
       50
102
RTVSPost2010PropOp42
 70
     0
102
RTVSPost2010Prop43
 90
        3
102
RTVSPost2010PropOp43
 70
     0
102
RTVSPost2010Prop44ColorIndex
 90
        5
102
RTVSPost2010Prop44ColorRGB
 90
      255
102
RTVSPost2010PropOp44
 70
     0
102
RTVSPost2010Prop45
280
     0
102
RTVSPost2010PropOp45
 70
     0
102
RTVSPost2010Prop46
 90
       50
102
RTVSPost2010PropOp46
 70
     0
102
RTVSPost2010Prop47
 90
       50
102
RTVSPost2010PropOp47
 70
     0
102
RTVSPost2010Prop48
 90
       50
102
RTVSPost2010PropOp48
 70
     0
102
RTVSPost2010Prop49
280
     0
102
RTVSPost2010PropOp49
 70
     0
102
RTVSPost2010Prop50
 90
       50
102
RTVSPost2010PropOp50
 70
     0
102
RTVSPost2010Prop51ColorIndex
 90
      256
102
RTVSPost2010Prop51ColorRGB
 90
-16777216
102
RTVSPost2010PropOp51
 70
     0
102
RTVSPost2010Prop52
140
1.0
102
RTVSPost2010PropOp52
 70
     0
102
RTVSPost2010Prop53
 90
        2
102
RTVSPost2010PropOp53
 70
     0
102
RTVSPost2010Prop54
  1
strokes_ogs.tif
102
RTVSPost2010PropOp54
 70
     0
102
RTVSPost2010Prop55
280
     0
102
RTVSPost2010PropOp55
 70
     0
102
RTVSPost2010Prop56
140
1.0
102
RTVSPost2010PropOp56
 70
     0
102
RTVSPost2010Prop57
140
1.0
102
RTVSPost2010PropOp57
 70
     0
  0
XRECORD
  5
126
102
{ACAD_REACTORS
330
125
102
}
330
125
100
AcDbXrecord
280
     1
102
RTVSPost2010Prop28
280
     0
102
RTVSPost2010PropOp28
 70
     1
102
RTVSPost2010Prop29
280
     1
102
RTVSPost2010PropOp29
 70
     1
102
RTVSPost2010Prop30
280
     1
102
RTVSPost2010PropOp30
 70
     1
102
RTVSPost2010Prop31
280
     0
102
RTVSPost2010PropOp31
 70
     1
102
RTVSPost2010Prop32
280
     0
102
RTVSPost2010PropOp32
 70
     1
102
RTVSPost2010Prop33
280
     0
102
RTVSPost2010PropOp33
 70
     1
102
RTVSPost2010Prop34
280
     0
102
RTVSPost2010PropOp34
 70
     1
102
RTVSPost2010Prop35
280
     0
102
RTVSPost2010PropOp35
 70
     1
102
RTVSPost2010Prop36
280
     0
102
RTVSPost2010PropOp36
 70
     1
102
RTVSPost2010Prop37
 90
       50
102
RTVSPost2010PropOp37
 70
     1
102
RTVSPost2010Prop38
140
0.0
102
RTVSPost2010PropOp38
 70
     1
102
RTVSPost2010Prop39
140
1.0
102
RTVSPost2010PropOp39
 70
     1
102
RTVSPost2010Prop40
 90
        0
102
RTVSPost2010PropOp40
 70
     1
102
RTVSPost2010Prop41ColorIndex
 90
       18
102
RTVSPost2010Prop41ColorRGB
 90
        0
102
RTVSPost2010PropOp41
 70
     1
102
RTVSPost2010Prop42
 90
       50
102
RTVSPost2010PropOp42
 70
     1
102
RTVSPost2010Prop43
 90
        3
102
RTVSPost2010PropOp43
 70
     1
102
RTVSPost2010Prop44ColorIndex
 90
        5
102
RTVSPost2010Prop44ColorRGB
 90
      255
102
RTVSPost2010PropOp44
 70
     1
102
RTVSPost2010Prop45
280
     0
102
RTVSPost2010PropOp45
 70
     1
102
RTVSPost2010Prop46
 90
       50
102
RTVSPost2010PropOp46
 70
     1
102
RTVSPost2010Prop47
 90
       50
102
RTVSPost2010PropOp47
 70
     1
102
RTVSPost2010Prop48
 90
       50
102
RTVSPost2010PropOp48
 70
     1
102
RTVSPost2010Prop49
280
     0
102
RTVSPost2010PropOp49
 70
     1
102
RTVSPost2010Prop50
 90
       50
102
RTVSPost2010PropOp50
 70
     1
102
RTVSPost2010Prop51ColorIndex
 90
      256
102
RTVSPost2010Prop51ColorRGB
 90
-16777216
102
RTVSPost2010PropOp51
 70
     0
102
RTVSPost2010Prop52
140
1.0
102
RTVSPost2010PropOp52
 70
     0
102
RTVSPost2010Prop53
 90
        2
102
RTVSPost2010PropOp53
 70
     1
102
RTVSPost2010Prop54
  1
strokes_ogs.tif
102
RTVSPost2010PropOp54
 70
     1
102
RTVSPost2010Prop55
280
     0
102
RTVSPost2010PropOp55
 70
     1
102
RTVSPost2010Prop56
140
1.0
102
RTVSPost2010PropOp56
 70
     1
102
RTVSPost2010Prop57
140
1.0
102
RTVSPost2010PropOp57
 70
     1
  0
XRECORD
  5
10A
102
{ACAD_REACTORS
330
109
102
}
330
109
100
AcDbXrecord
280
     1
102
RTVSPost2010Prop28
280
     0
102
RTVSPost2010PropOp28
 70
     1
102
RTVSPost2010Prop29
280
     1
102
RTVSPost2010PropOp29
 70
     1
102
RTVSPost2010Prop30
280
     1
102
RTVSPost2010PropOp30
 70
     1
102
RTVSPost2010Prop31
280
     0
102
RTVSPost2010PropOp31
 70
     1
102
RTVSPost2010Prop32
280
     0
102
RTVSPost2010PropOp32
 70
     1
102
RTVSPost2010Prop33
280
     0
102
RTVSPost2010PropOp33
 70
     1
102
RTVSPost2010Prop34
280
     0
102
RTVSPost2010PropOp34
 70
     1
102
RTVSPost2010Prop35
280
     0
102
RTVSPost2010PropOp35
 70
     1
102
RTVSPost2010Prop36
280
     0
102
RTVSPost2010PropOp36
 70
     1
102
RTVSPost2010Prop37
 90
       50
102
RTVSPost2010PropOp37
 70
     1
102
RTVSPost2010Prop38
140
0.0
102
RTVSPost2010PropOp38
 70
     1
102
RTVSPost2010Prop39
140
1.0
102
RTVSPost2010PropOp39
 70
     1
102
RTVSPost2010Prop40
 90
        0
102
RTVSPost2010PropOp40
 70
     1
102
RTVSPost2010Prop41ColorIndex
 90
       18
102
RTVSPost2010Prop41ColorRGB
 90
        0
102
RTVSPost2010PropOp41
 70
     1
102
RTVSPost2010Prop42
 90
       50
102
RTVSPost2010PropOp42
 70
     1
102
RTVSPost2010Prop43
 90
        3
102
RTVSPost2010PropOp43
 70
     1
102
RTVSPost2010Prop44ColorIndex
 90
        5
102
RTVSPost2010Prop44ColorRGB
 90
      255
102
RTVSPost2010PropOp44
 70
     1
102
RTVSPost2010Prop45
280
     0
102
RTVSPost2010PropOp45
 70
     1
102
RTVSPost2010Prop46
 90
       50
102
RTVSPost2010PropOp46
 70
     1
102
RTVSPost2010Prop47
 90
       50
102
RTVSPost2010PropOp47
 70
     1
102
RTVSPost2010Prop48
 90
       50
102
RTVSPost2010PropOp48
 70
     1
102
RTVSPost2010Prop49
280
     0
102
RTVSPost2010PropOp49
 70
     1
102
RTVSPost2010Prop50
 90
       50
102
RTVSPost2010PropOp50
 70
     1
102
RTVSPost2010Prop51ColorIndex
 90
      256
102
RTVSPost2010Prop51ColorRGB
 90
-16777216
102
RTVSPost2010PropOp51
 70
     0
102
RTVSPost2010Prop52
140
1.0
102
RTVSPost2010PropOp52
 70
     0
102
RTVSPost2010Prop53
 90
        2
102
RTVSPost2010PropOp53
 70
     1
102
RTVSPost2010Prop54
  1
strokes_ogs.tif
102
RTVSPost2010PropOp54
 70
     1
102
RTVSPost2010Prop55
280
     0
102
RTVSPost2010PropOp55
 70
     1
102
RTVSPost2010Prop56
140
1.0
102
RTVSPost2010PropOp56
 70
     1
102
RTVSPost2010Prop57
140
1.0
102
RTVSPost2010PropOp57
 70
     1
  0
XRECORD
  5
10C
102
{ACAD_REACTORS
330
10B
102
}
330
10B
100
AcDbXrecord
280
     1
102
RTVSPost2010Prop28
280
     0
102
RTVSPost2010PropOp28
 70
     1
102
RTVSPost2010Prop29
280
     1
102
RTVSPost2010PropOp29
 70
     1
102
RTVSPost2010Prop30
280
     1
102
RTVSPost2010PropOp30
 70
     1
102
RTVSPost2010Prop31
280
     0
102
RTVSPost2010PropOp31
 70
     1
102
RTVSPost2010Prop32
280
     0
102
RTVSPost2010PropOp32
 70
     1
102
RTVSPost2010Prop33
280
     0
102
RTVSPost2010PropOp33
 70
     1
102
RTVSPost2010Prop34
280
     0
102
RTVSPost2010PropOp34
 70
     1
102
RTVSPost2010Prop35
280
     0
102
RTVSPost2010PropOp35
 70
     1
102
RTVSPost2010Prop36
280
     0
102
RTVSPost2010PropOp36
 70
     1
102
RTVSPost2010Prop37
 90
       50
102
RTVSPost2010PropOp37
 70
     1
102
RTVSPost2010Prop38
140
0.0
102
RTVSPost2010PropOp38
 70
     1
102
RTVSPost2010Prop39
140
1.0
102
RTVSPost2010PropOp39
 70
     1
102
RTVSPost2010Prop40
 90
        0
102
RTVSPost2010PropOp40
 70
     1
102
RTVSPost2010Prop41ColorIndex
 90
       18
102
RTVSPost2010Prop41ColorRGB
 90
        0
102
RTVSPost2010PropOp41
 70
     1
102
RTVSPost2010Prop42
 90
       50
102
RTVSPost2010PropOp42
 70
     1
102
RTVSPost2010Prop43
 90
        3
102
RTVSPost2010PropOp43
 70
     1
102
RTVSPost2010Prop44ColorIndex
 90
        5
102
RTVSPost2010Prop44ColorRGB
 90
      255
102
RTVSPost2010PropOp44
 70
     1
102
RTVSPost2010Prop45
280
     0
102
RTVSPost2010PropOp45
 70
     1
102
RTVSPost2010Prop46
 90
       50
102
RTVSPost2010PropOp46
 70
     1
102
RTVSPost2010Prop47
 90
       50
102
RTVSPost2010PropOp47
 70
     1
102
RTVSPost2010Prop48
 90
       50
102
RTVSPost2010PropOp48
 70
     1
102
RTVSPost2010Prop49
280
     0
102
RTVSPost2010PropOp49
 70
     1
102
RTVSPost2010Prop50
 90
       50
102
RTVSPost2010PropOp50
 70
     1
102
RTVSPost2010Prop51ColorIndex
 90
      256
102
RTVSPost2010Prop51ColorRGB
 90
-16777216
102
RTVSPost2010PropOp51
 70
     0
102
RTVSPost2010Prop52
140
1.0
102
RTVSPost2010PropOp52
 70
     0
102
RTVSPost2010Prop53
 90
        2
102
RTVSPost2010PropOp53
 70
     1
102
RTVSPost2010Prop54
  1
strokes_ogs.tif
102
RTVSPost2010PropOp54
 70
     1
102
RTVSPost2010Prop55
280
     0
102
RTVSPost2010PropOp55
 70
     1
102
RTVSPost2010Prop56
140
1.0
102
RTVSPost2010PropOp56
 70
     1
102
RTVSPost2010Prop57
140
1.0
102
RTVSPost2010PropOp57
 70
     1
  0
XRECORD
  5
10E
102
{ACAD_REACTORS
330
10D
102
}
330
10D
100
AcDbXrecord
280
     1
102
RTVSPost2010Prop28
280
     0
102
RTVSPost2010PropOp28
 70
     1
102
RTVSPost2010Prop29
280
     1
102
RTVSPost2010PropOp29
 70
     1
102
RTVSPost2010Prop30
280
     1
102
RTVSPost2010PropOp30
 70
     1
102
RTVSPost2010Prop31
280
     0
102
RTVSPost2010PropOp31
 70
     1
102
RTVSPost2010Prop32
280
     0
102
RTVSPost2010PropOp32
 70
     1
102
RTVSPost2010Prop33
280
     0
102
RTVSPost2010PropOp33
 70
     1
102
RTVSPost2010Prop34
280
     0
102
RTVSPost2010PropOp34
 70
     1
102
RTVSPost2010Prop35
280
     0
102
RTVSPost2010PropOp35
 70
     1
102
RTVSPost2010Prop36
280
     0
102
RTVSPost2010PropOp36
 70
     1
102
RTVSPost2010Prop37
 90
       50
102
RTVSPost2010PropOp37
 70
     1
102
RTVSPost2010Prop38
140
0.0
102
RTVSPost2010PropOp38
 70
     1
102
RTVSPost2010Prop39
140
1.0
102
RTVSPost2010PropOp39
 70
     1
102
RTVSPost2010Prop40
 90
        0
102
RTVSPost2010PropOp40
 70
     1
102
RTVSPost2010Prop41ColorIndex
 90
       18
102
RTVSPost2010Prop41ColorRGB
 90
        0
102
RTVSPost2010PropOp41
 70
     1
102
RTVSPost2010Prop42
 90
       50
102
RTVSPost2010PropOp42
 70
     1
102
RTVSPost2010Prop43
 90
        3
102
RTVSPost2010PropOp43
 70
     1
102
RTVSPost2010Prop44ColorIndex
 90
        5
102
RTVSPost2010Prop44ColorRGB
 90
      255
102
RTVSPost2010PropOp44
 70
     1
102
RTVSPost2010Prop45
280
     0
102
RTVSPost2010PropOp45
 70
     1
102
RTVSPost2010Prop46
 90
       50
102
RTVSPost2010PropOp46
 70
     1
102
RTVSPost2010Prop47
 90
       50
102
RTVSPost2010PropOp47
 70
     1
102
RTVSPost2010Prop48
 90
       50
102
RTVSPost2010PropOp48
 70
     1
102
RTVSPost2010Prop49
280
     0
102
RTVSPost2010PropOp49
 70
     1
102
RTVSPost2010Prop50
 90
       50
102
RTVSPost2010PropOp50
 70
     1
102
RTVSPost2010Prop51ColorIndex
 90
      256
102
RTVSPost2010Prop51ColorRGB
 90
-16777216
102
RTVSPost2010PropOp51
 70
     0
102
RTVSPost2010Prop52
140
1.0
102
RTVSPost2010PropOp52
 70
     0
102
RTVSPost2010Prop53
 90
        2
102
RTVSPost2010PropOp53
 70
     1
102
RTVSPost2010Prop54
  1
strokes_ogs.tif
102
RTVSPost2010PropOp54
 70
     1
102
RTVSPost2010Prop55
280
     0
102
RTVSPost2010PropOp55
 70
     1
102
RTVSPost2010Prop56
140
1.0
102
RTVSPost2010PropOp56
 70
     1
102
RTVSPost2010Prop57
140
1.0
102
RTVSPost2010PropOp57
 70
     1
  0
XRECORD
  5
110
102
{ACAD_REACTORS
330
10F
102
}
330
10F
100
AcDbXrecord
280
     1
102
RTVSPost2010Prop28
280
     0
102
RTVSPost2010PropOp28
 70
     1
102
RTVSPost2010Prop29
280
     1
102
RTVSPost2010PropOp29
 70
     1
102
RTVSPost2010Prop30
280
     1
102
RTVSPost2010PropOp30
 70
     1
102
RTVSPost2010Prop31
280
     0
102
RTVSPost2010PropOp31
 70
     1
102
RTVSPost2010Prop32
280
     0
102
RTVSPost2010PropOp32
 70
     1
102
RTVSPost2010Prop33
280
     0
102
RTVSPost2010PropOp33
 70
     1
102
RTVSPost2010Prop34
280
     0
102
RTVSPost2010PropOp34
 70
     1
102
RTVSPost2010Prop35
280
     0
102
RTVSPost2010PropOp35
 70
     1
102
RTVSPost2010Prop36
280
     0
102
RTVSPost2010PropOp36
 70
     1
102
RTVSPost2010Prop37
 90
       50
102
RTVSPost2010PropOp37
 70
     1
102
RTVSPost2010Prop38
140
0.0
102
RTVSPost2010PropOp38
 70
     1
102
RTVSPost2010Prop39
140
1.0
102
RTVSPost2010PropOp39
 70
     1
102
RTVSPost2010Prop40
 90
        0
102
RTVSPost2010PropOp40
 70
     1
102
RTVSPost2010Prop41ColorIndex
 90
       18
102
RTVSPost2010Prop41ColorRGB
 90
        0
102
RTVSPost2010PropOp41
 70
     1
102
RTVSPost2010Prop42
 90
       50
102
RTVSPost2010PropOp42
 70
     1
102
RTVSPost2010Prop43
 90
        3
102
RTVSPost2010PropOp43
 70
     1
102
RTVSPost2010Prop44ColorIndex
 90
        5
102
RTVSPost2010Prop44ColorRGB
 90
      255
102
RTVSPost2010PropOp44
 70
     1
102
RTVSPost2010Prop45
280
     0
102
RTVSPost2010PropOp45
 70
     1
102
RTVSPost2010Prop46
 90
       50
102
RTVSPost2010PropOp46
 70
     1
102
RTVSPost2010Prop47
 90
       50
102
RTVSPost2010PropOp47
 70
     1
102
RTVSPost2010Prop48
 90
       50
102
RTVSPost2010PropOp48
 70
     1
102
RTVSPost2010Prop49
280
     0
102
RTVSPost2010PropOp49
 70
     1
102
RTVSPost2010Prop50
 90
       50
102
RTVSPost2010PropOp50
 70
     1
102
RTVSPost2010Prop51ColorIndex
 90
      256
102
RTVSPost2010Prop51ColorRGB
 90
-16777216
102
RTVSPost2010PropOp51
 70
     0
102
RTVSPost2010Prop52
140
1.0
102
RTVSPost2010PropOp52
 70
     0
102
RTVSPost2010Prop53
 90
        2
102
RTVSPost2010PropOp53
 70
     1
102
RTVSPost2010Prop54
  1
strokes_ogs.tif
102
RTVSPost2010PropOp54
 70
     1
102
RTVSPost2010Prop55
280
     0
102
RTVSPost2010PropOp55
 70
     1
102
RTVSPost2010Prop56
140
1.0
102
RTVSPost2010PropOp56
 70
     1
102
RTVSPost2010Prop57
140
1.0
102
RTVSPost2010PropOp57
 70
     1
  0
XRECORD
  5
118
102
{ACAD_REACTORS
330
117
102
}
330
117
100
AcDbXrecord
280
     1
102
RTVSPost2010Prop28
280
     0
102
RTVSPost2010PropOp28
 70
     1
102
RTVSPost2010Prop29
280
     1
102
RTVSPost2010PropOp29
 70
     1
102
RTVSPost2010Prop30
280
     1
102
RTVSPost2010PropOp30
 70
     1
102
RTVSPost2010Prop31
280
     0
102
RTVSPost2010PropOp31
 70
     1
102
RTVSPost2010Prop32
280
     0
102
RTVSPost2010PropOp32
 70
     1
102
RTVSPost2010Prop33
280
     0
102
RTVSPost2010PropOp33
 70
     1
102
RTVSPost2010Prop34
280
     0
102
RTVSPost2010PropOp34
 70
     1
102
RTVSPost2010Prop35
280
     0
102
RTVSPost2010PropOp35
 70
     1
102
RTVSPost2010Prop36
280
     0
102
RTVSPost2010PropOp36
 70
     1
102
RTVSPost2010Prop37
 90
       50
102
RTVSPost2010PropOp37
 70
     1
102
RTVSPost2010Prop38
140
0.0
102
RTVSPost2010PropOp38
 70
     1
102
RTVSPost2010Prop39
140
1.0
102
RTVSPost2010PropOp39
 70
     1
102
RTVSPost2010Prop40
 90
        0
102
RTVSPost2010PropOp40
 70
     1
102
RTVSPost2010Prop41ColorIndex
 90
       18
102
RTVSPost2010Prop41ColorRGB
 90
        0
102
RTVSPost2010PropOp41
 70
     1
102
RTVSPost2010Prop42
 90
       50
102
RTVSPost2010PropOp42
 70
     1
102
RTVSPost2010Prop43
 90
        3
102
RTVSPost2010PropOp43
 70
     1
102
RTVSPost2010Prop44ColorIndex
 90
        5
102
RTVSPost2010Prop44ColorRGB
 90
      255
102
RTVSPost2010PropOp44
 70
     1
102
RTVSPost2010Prop45
280
     0
102
RTVSPost2010PropOp45
 70
     1
102
RTVSPost2010Prop46
 90
       50
102
RTVSPost2010PropOp46
 70
     1
102
RTVSPost2010Prop47
 90
       50
102
RTVSPost2010PropOp47
 70
     1
102
RTVSPost2010Prop48
 90
       50
102
RTVSPost2010PropOp48
 70
     1
102
RTVSPost2010Prop49
280
     0
102
RTVSPost2010PropOp49
 70
     1
102
RTVSPost2010Prop50
 90
       50
102
RTVSPost2010PropOp50
 70
     1
102
RTVSPost2010Prop51ColorIndex
 90
      256
102
RTVSPost2010Prop51ColorRGB
 90
-16777216
102
RTVSPost2010PropOp51
 70
     0
102
RTVSPost2010Prop52
140
1.0
102
RTVSPost2010PropOp52
 70
     0
102
RTVSPost2010Prop53
 90
        2
102
RTVSPost2010PropOp53
 70
     1
102
RTVSPost2010Prop54
  1
strokes_ogs.tif
102
RTVSPost2010PropOp54
 70
     1
102
RTVSPost2010Prop55
280
     0
102
RTVSPost2010PropOp55
 70
     1
102
RTVSPost2010Prop56
140
1.0
102
RTVSPost2010PropOp56
 70
     1
102
RTVSPost2010Prop57
140
1.0
102
RTVSPost2010PropOp57
 70
     1
  0
XRECORD
  5
134
102
{ACAD_REACTORS
330
133
102
}
330
133
100
AcDbXrecord
280
     1
102
RTVSPost2010Prop28
280
     0
102
RTVSPost2010PropOp28
 70
     0
102
RTVSPost2010Prop29
280
     1
102
RTVSPost2010PropOp29
 70
     0
102
RTVSPost2010Prop30
280
     1
102
RTVSPost2010PropOp30
 70
     0
102
RTVSPost2010Prop31
280
     0
102
RTVSPost2010PropOp31
 70
     0
102
RTVSPost2010Prop32
280
     0
102
RTVSPost2010PropOp32
 70
     0
102
RTVSPost2010Prop33
280
     0
102
RTVSPost2010PropOp33
 70
     0
102
RTVSPost2010Prop34
280
     0
102
RTVSPost2010PropOp34
 70
     0
102
RTVSPost2010Prop35
280
     0
102
RTVSPost2010PropOp35
 70
     0
102
RTVSPost2010Prop36
280
     0
102
RTVSPost2010PropOp36
 70
     0
102
RTVSPost2010Prop37
 90
       50
102
RTVSPost2010PropOp37
 70
     0
102
RTVSPost2010Prop38
140
0.0
102
RTVSPost2010PropOp38
 70
     0
102
RTVSPost2010Prop39
140
1.0
102
RTVSPost2010PropOp39
 70
     0
102
RTVSPost2010Prop40
 90
        0
102
RTVSPost2010PropOp40
 70
     0
102
RTVSPost2010Prop41ColorIndex
 90
       18
102
RTVSPost2010Prop41ColorRGB
 90
        0
102
RTVSPost2010PropOp41
 70
     0
102
RTVSPost2010Prop42
 90
       50
102
RTVSPost2010PropOp42
 70
     0
102
RTVSPost2010Prop43
 90
        3
102
RTVSPost2010PropOp43
 70
     0
102
RTVSPost2010Prop44ColorIndex
 90
        5
102
RTVSPost2010Prop44ColorRGB
 90
      255
102
RTVSPost2010PropOp44
 70
     0
102
RTVSPost2010Prop45
280
     0
102
RTVSPost2010PropOp45
 70
     0
102
RTVSPost2010Prop46
 90
       50
102
RTVSPost2010PropOp46
 70
     0
102
RTVSPost2010Prop47
 90
       50
102
RTVSPost2010PropOp47
 70
     0
102
RTVSPost2010Prop48
 90
       50
102
RTVSPost2010PropOp48
 70
     0
102
RTVSPost2010Prop49
280
     0
102
RTVSPost2010PropOp49
 70
     0
102
RTVSPost2010Prop50
 90
       50
102
RTVSPost2010PropOp50
 70
     0
102
RTVSPost2010Prop51ColorIndex
 90
      256
102
RTVSPost2010Prop51ColorRGB
 90
-16777216
102
RTVSPost2010PropOp51
 70
     0
102
RTVSPost2010Prop52
140
1.0
102
RTVSPost2010PropOp52
 70
     0
102
RTVSPost2010Prop53
 90
        2
102
RTVSPost2010PropOp53
 70
     0
102
RTVSPost2010Prop54
  1
strokes_ogs.tif
102
RTVSPost2010PropOp54
 70
     0
102
RTVSPost2010Prop55
280
     0
102
RTVSPost2010PropOp55
 70
     0
102
RTVSPost2010Prop56
140
1.0
102
RTVSPost2010PropOp56
 70
     0
102
RTVSPost2010Prop57
140
1.0
102
RTVSPost2010PropOp57
 70
     0
  0
XRECORD
  5
124
102
{ACAD_REACTORS
330
123
102
}
330
123
100
AcDbXrecord
280
     1
102
RTVSPost2010Prop28
280
     0
102
RTVSPost2010PropOp28
 70
     1
102
RTVSPost2010Prop29
280
     1
102
RTVSPost2010PropOp29
 70
     1
102
RTVSPost2010Prop30
280
     1
102
RTVSPost2010PropOp30
 70
     1
102
RTVSPost2010Prop31
280
     0
102
RTVSPost2010PropOp31
 70
     1
102
RTVSPost2010Prop32
280
     0
102
RTVSPost2010PropOp32
 70
     1
102
RTVSPost2010Prop33
280
     0
102
RTVSPost2010PropOp33
 70
     1
102
RTVSPost2010Prop34
280
     0
102
RTVSPost2010PropOp34
 70
     1
102
RTVSPost2010Prop35
280
     0
102
RTVSPost2010PropOp35
 70
     1
102
RTVSPost2010Prop36
280
     0
102
RTVSPost2010PropOp36
 70
     1
102
RTVSPost2010Prop37
 90
       50
102
RTVSPost2010PropOp37
 70
     1
102
RTVSPost2010Prop38
140
0.0
102
RTVSPost2010PropOp38
 70
     1
102
RTVSPost2010Prop39
140
1.0
102
RTVSPost2010PropOp39
 70
     1
102
RTVSPost2010Prop40
 90
        0
102
RTVSPost2010PropOp40
 70
     1
102
RTVSPost2010Prop41ColorIndex
 90
       18
102
RTVSPost2010Prop41ColorRGB
 90
        0
102
RTVSPost2010PropOp41
 70
     1
102
RTVSPost2010Prop42
 90
       50
102
RTVSPost2010PropOp42
 70
     1
102
RTVSPost2010Prop43
 90
        3
102
RTVSPost2010PropOp43
 70
     1
102
RTVSPost2010Prop44ColorIndex
 90
        5
102
RTVSPost2010Prop44ColorRGB
 90
      255
102
RTVSPost2010PropOp44
 70
     1
102
RTVSPost2010Prop45
280
     0
102
RTVSPost2010PropOp45
 70
     1
102
RTVSPost2010Prop46
 90
       50
102
RTVSPost2010PropOp46
 70
     1
102
RTVSPost2010Prop47
 90
       50
102
RTVSPost2010PropOp47
 70
     1
102
RTVSPost2010Prop48
 90
       50
102
RTVSPost2010PropOp48
 70
     1
102
RTVSPost2010Prop49
280
     0
102
RTVSPost2010PropOp49
 70
     1
102
RTVSPost2010Prop50
 90
       50
102
RTVSPost2010PropOp50
 70
     1
102
RTVSPost2010Prop51ColorIndex
 90
      256
102
RTVSPost2010Prop51ColorRGB
 90
-16777216
102
RTVSPost2010PropOp51
 70
     0
102
RTVSPost2010Prop52
140
1.0
102
RTVSPost2010PropOp52
 70
     0
102
RTVSPost2010Prop53
 90
        2
102
RTVSPost2010PropOp53
 70
     1
102
RTVSPost2010Prop54
  1
strokes_ogs.tif
102
RTVSPost2010PropOp54
 70
     1
102
RTVSPost2010Prop55
280
     0
102
RTVSPost2010PropOp55
 70
     1
102
RTVSPost2010Prop56
140
1.0
102
RTVSPost2010PropOp56
 70
     1
102
RTVSPost2010Prop57
140
1.0
102
RTVSPost2010PropOp57
 70
     1
  0
XRECORD
  5
136
102
{ACAD_REACTORS
330
135
102
}
330
135
100
AcDbXrecord
280
     1
102
RTVSPost2010Prop28
280
     0
102
RTVSPost2010PropOp28
 70
     0
102
RTVSPost2010Prop29
280
     1
102
RTVSPost2010PropOp29
 70
     0
102
RTVSPost2010Prop30
280
     1
102
RTVSPost2010PropOp30
 70
     0
102
RTVSPost2010Prop31
280
     0
102
RTVSPost2010PropOp31
 70
     0
102
RTVSPost2010Prop32
280
     0
102
RTVSPost2010PropOp32
 70
     0
102
RTVSPost2010Prop33
280
     0
102
RTVSPost2010PropOp33
 70
     0
102
RTVSPost2010Prop34
280
     0
102
RTVSPost2010PropOp34
 70
     0
102
RTVSPost2010Prop35
280
     0
102
RTVSPost2010PropOp35
 70
     0
102
RTVSPost2010Prop36
280
     0
102
RTVSPost2010PropOp36
 70
     0
102
RTVSPost2010Prop37
 90
       50
102
RTVSPost2010PropOp37
 70
     0
102
RTVSPost2010Prop38
140
0.0
102
RTVSPost2010PropOp38
 70
     0
102
RTVSPost2010Prop39
140
1.0
102
RTVSPost2010PropOp39
 70
     0
102
RTVSPost2010Prop40
 90
        0
102
RTVSPost2010PropOp40
 70
     0
102
RTVSPost2010Prop41ColorIndex
 90
       18
102
RTVSPost2010Prop41ColorRGB
 90
        0
102
RTVSPost2010PropOp41
 70
     0
102
RTVSPost2010Prop42
 90
       50
102
RTVSPost2010PropOp42
 70
     0
102
RTVSPost2010Prop43
 90
        3
102
RTVSPost2010PropOp43
 70
     0
102
RTVSPost2010Prop44ColorIndex
 90
        5
102
RTVSPost2010Prop44ColorRGB
 90
      255
102
RTVSPost2010PropOp44
 70
     0
102
RTVSPost2010Prop45
280
     0
102
RTVSPost2010PropOp45
 70
     0
102
RTVSPost2010Prop46
 90
       50
102
RTVSPost2010PropOp46
 70
     0
102
RTVSPost2010Prop47
 90
       50
102
RTVSPost2010PropOp47
 70
     0
102
RTVSPost2010Prop48
 90
       50
102
RTVSPost2010PropOp48
 70
     0
102
RTVSPost2010Prop49
280
     0
102
RTVSPost2010PropOp49
 70
     0
102
RTVSPost2010Prop50
 90
       50
102
RTVSPost2010PropOp50
 70
     0
102
RTVSPost2010Prop51ColorIndex
 90
      256
102
RTVSPost2010Prop51ColorRGB
 90
-16777216
102
RTVSPost2010PropOp51
 70
     0
102
RTVSPost2010Prop52
140
1.0
102
RTVSPost2010PropOp52
 70
     0
102
RTVSPost2010Prop53
 90
        2
102
RTVSPost2010PropOp53
 70
     0
102
RTVSPost2010Prop54
  1
strokes_ogs.tif
102
RTVSPost2010PropOp54
 70
     0
102
RTVSPost2010Prop55
280
     0
102
RTVSPost2010PropOp55
 70
     0
102
RTVSPost2010Prop56
140
1.0
102
RTVSPost2010PropOp56
 70
     0
102
RTVSPost2010Prop57
140
1.0
102
RTVSPost2010PropOp57
 70
     0
  0
XRECORD
  5
11C
102
{ACAD_REACTORS
330
11B
102
}
330
11B
100
AcDbXrecord
280
     1
102
RTVSPost2010Prop28
280
     0
102
RTVSPost2010PropOp28
 70
     1
102
RTVSPost2010Prop29
280
     1
102
RTVSPost2010PropOp29
 70
     1
102
RTVSPost2010Prop30
280
     1
102
RTVSPost2010PropOp30
 70
     1
102
RTVSPost2010Prop31
280
     0
102
RTVSPost2010PropOp31
 70
     1
102
RTVSPost2010Prop32
280
     0
102
RTVSPost2010PropOp32
 70
     1
102
RTVSPost2010Prop33
280
     0
102
RTVSPost2010PropOp33
 70
     1
102
RTVSPost2010Prop34
280
     0
102
RTVSPost2010PropOp34
 70
     1
102
RTVSPost2010Prop35
280
     0
102
RTVSPost2010PropOp35
 70
     1
102
RTVSPost2010Prop36
280
     0
102
RTVSPost2010PropOp36
 70
     1
102
RTVSPost2010Prop37
 90
       50
102
RTVSPost2010PropOp37
 70
     1
102
RTVSPost2010Prop38
140
0.0
102
RTVSPost2010PropOp38
 70
     1
102
RTVSPost2010Prop39
140
1.0
102
RTVSPost2010PropOp39
 70
     1
102
RTVSPost2010Prop40
 90
        0
102
RTVSPost2010PropOp40
 70
     1
102
RTVSPost2010Prop41ColorIndex
 90
       18
102
RTVSPost2010Prop41ColorRGB
 90
        0
102
RTVSPost2010PropOp41
 70
     1
102
RTVSPost2010Prop42
 90
       50
102
RTVSPost2010PropOp42
 70
     1
102
RTVSPost2010Prop43
 90
        3
102
RTVSPost2010PropOp43
 70
     1
102
RTVSPost2010Prop44ColorIndex
 90
        5
102
RTVSPost2010Prop44ColorRGB
 90
      255
102
RTVSPost2010PropOp44
 70
     1
102
RTVSPost2010Prop45
280
     0
102
RTVSPost2010PropOp45
 70
     1
102
RTVSPost2010Prop46
 90
       50
102
RTVSPost2010PropOp46
 70
     1
102
RTVSPost2010Prop47
 90
       50
102
RTVSPost2010PropOp47
 70
     1
102
RTVSPost2010Prop48
 90
       50
102
RTVSPost2010PropOp48
 70
     1
102
RTVSPost2010Prop49
280
     0
102
RTVSPost2010PropOp49
 70
     1
102
RTVSPost2010Prop50
 90
       50
102
RTVSPost2010PropOp50
 70
     1
102
RTVSPost2010Prop51ColorIndex
 90
      256
102
RTVSPost2010Prop51ColorRGB
 90
-16777216
102
RTVSPost2010PropOp51
 70
     0
102
RTVSPost2010Prop52
140
1.0
102
RTVSPost2010PropOp52
 70
     0
102
RTVSPost2010Prop53
 90
        2
102
RTVSPost2010PropOp53
 70
     1
102
RTVSPost2010Prop54
  1
strokes_ogs.tif
102
RTVSPost2010PropOp54
 70
     1
102
RTVSPost2010Prop55
280
     0
102
RTVSPost2010PropOp55
 70
     1
102
RTVSPost2010Prop56
140
1.0
102
RTVSPost2010PropOp56
 70
     1
102
RTVSPost2010Prop57
140
1.0
102
RTVSPost2010PropOp57
 70
     1
  0
XRECORD
  5
132
102
{ACAD_REACTORS
330
131
102
}
330
131
100
AcDbXrecord
280
     1
102
RTVSPost2010Prop28
280
     0
102
RTVSPost2010PropOp28
 70
     1
102
RTVSPost2010Prop29
280
     1
102
RTVSPost2010PropOp29
 70
     1
102
RTVSPost2010Prop30
280
     1
102
RTVSPost2010PropOp30
 70
     1
102
RTVSPost2010Prop31
280
     0
102
RTVSPost2010PropOp31
 70
     1
102
RTVSPost2010Prop32
280
     0
102
RTVSPost2010PropOp32
 70
     1
102
RTVSPost2010Prop33
280
     0
102
RTVSPost2010PropOp33
 70
     1
102
RTVSPost2010Prop34
280
     0
102
RTVSPost2010PropOp34
 70
     1
102
RTVSPost2010Prop35
280
     0
102
RTVSPost2010PropOp35
 70
     1
102
RTVSPost2010Prop36
280
     0
102
RTVSPost2010PropOp36
 70
     1
102
RTVSPost2010Prop37
 90
       50
102
RTVSPost2010PropOp37
 70
     1
102
RTVSPost2010Prop38
140
0.0
102
RTVSPost2010PropOp38
 70
     1
102
RTVSPost2010Prop39
140
1.0
102
RTVSPost2010PropOp39
 70
     1
102
RTVSPost2010Prop40
 90
        0
102
RTVSPost2010PropOp40
 70
     1
102
RTVSPost2010Prop41ColorIndex
 90
       18
102
RTVSPost2010Prop41ColorRGB
 90
        0
102
RTVSPost2010PropOp41
 70
     1
102
RTVSPost2010Prop42
 90
       50
102
RTVSPost2010PropOp42
 70
     1
102
RTVSPost2010Prop43
 90
        3
102
RTVSPost2010PropOp43
 70
     1
102
RTVSPost2010Prop44ColorIndex
 90
        5
102
RTVSPost2010Prop44ColorRGB
 90
      255
102
RTVSPost2010PropOp44
 70
     1
102
RTVSPost2010Prop45
280
     0
102
RTVSPost2010PropOp45
 70
     1
102
RTVSPost2010Prop46
 90
       50
102
RTVSPost2010PropOp46
 70
     1
102
RTVSPost2010Prop47
 90
       50
102
RTVSPost2010PropOp47
 70
     1
102
RTVSPost2010Prop48
 90
       50
102
RTVSPost2010PropOp48
 70
     1
102
RTVSPost2010Prop49
280
     0
102
RTVSPost2010PropOp49
 70
     1
102
RTVSPost2010Prop50
 90
       50
102
RTVSPost2010PropOp50
 70
     1
102
RTVSPost2010Prop51ColorIndex
 90
      256
102
RTVSPost2010Prop51ColorRGB
 90
-16777216
102
RTVSPost2010PropOp51
 70
     0
102
RTVSPost2010Prop52
140
1.0
102
RTVSPost2010PropOp52
 70
     0
102
RTVSPost2010Prop53
 90
        2
102
RTVSPost2010PropOp53
 70
     1
102
RTVSPost2010Prop54
  1
strokes_ogs.tif
102
RTVSPost2010PropOp54
 70
     1
102
RTVSPost2010Prop55
280
     0
102
RTVSPost2010PropOp55
 70
     1
102
RTVSPost2010Prop56
140
1.0
102
RTVSPost2010PropOp56
 70
     1
102
RTVSPost2010Prop57
140
1.0
102
RTVSPost2010PropOp57
 70
     1
  0
XRECORD
  5
130
102
{ACAD_REACTORS
330
12F
102
}
330
12F
100
AcDbXrecord
280
     1
102
RTVSPost2010Prop28
280
     0
102
RTVSPost2010PropOp28
 70
     1
102
RTVSPost2010Prop29
280
     1
102
RTVSPost2010PropOp29
 70
     1
102
RTVSPost2010Prop30
280
     1
102
RTVSPost2010PropOp30
 70
     1
102
RTVSPost2010Prop31
280
     0
102
RTVSPost2010PropOp31
 70
     1
102
RTVSPost2010Prop32
280
     0
102
RTVSPost2010PropOp32
 70
     1
102
RTVSPost2010Prop33
280
     0
102
RTVSPost2010PropOp33
 70
     1
102
RTVSPost2010Prop34
280
     0
102
RTVSPost2010PropOp34
 70
     1
102
RTVSPost2010Prop35
280
     0
102
RTVSPost2010PropOp35
 70
     1
102
RTVSPost2010Prop36
280
     0
102
RTVSPost2010PropOp36
 70
     1
102
RTVSPost2010Prop37
 90
       50
102
RTVSPost2010PropOp37
 70
     1
102
RTVSPost2010Prop38
140
0.0
102
RTVSPost2010PropOp38
 70
     1
102
RTVSPost2010Prop39
140
1.0
102
RTVSPost2010PropOp39
 70
     1
102
RTVSPost2010Prop40
 90
        0
102
RTVSPost2010PropOp40
 70
     1
102
RTVSPost2010Prop41ColorIndex
 90
       18
102
RTVSPost2010Prop41ColorRGB
 90
        0
102
RTVSPost2010PropOp41
 70
     1
102
RTVSPost2010Prop42
 90
       50
102
RTVSPost2010PropOp42
 70
     1
102
RTVSPost2010Prop43
 90
        3
102
RTVSPost2010PropOp43
 70
     1
102
RTVSPost2010Prop44ColorIndex
 90
        5
102
RTVSPost2010Prop44ColorRGB
 90
      255
102
RTVSPost2010PropOp44
 70
     1
102
RTVSPost2010Prop45
280
     0
102
RTVSPost2010PropOp45
 70
     1
102
RTVSPost2010Prop46
 90
       50
102
RTVSPost2010PropOp46
 70
     1
102
RTVSPost2010Prop47
 90
       50
102
RTVSPost2010PropOp47
 70
     1
102
RTVSPost2010Prop48
 90
       50
102
RTVSPost2010PropOp48
 70
     1
102
RTVSPost2010Prop49
280
     0
102
RTVSPost2010PropOp49
 70
     1
102
RTVSPost2010Prop50
 90
       50
102
RTVSPost2010PropOp50
 70
     1
102
RTVSPost2010Prop51ColorIndex
 90
      256
102
RTVSPost2010Prop51ColorRGB
 90
-16777216
102
RTVSPost2010PropOp51
 70
     0
102
RTVSPost2010Prop52
140
1.0
102
RTVSPost2010PropOp52
 70
     0
102
RTVSPost2010Prop53
 90
        2
102
RTVSPost2010PropOp53
 70
     1
102
RTVSPost2010Prop54
  1
strokes_ogs.tif
102
RTVSPost2010PropOp54
 70
     1
102
RTVSPost2010Prop55
280
     0
102
RTVSPost2010PropOp55
 70
     1
102
RTVSPost2010Prop56
140
1.0
102
RTVSPost2010PropOp56
 70
     1
102
RTVSPost2010Prop57
140
1.0
102
RTVSPost2010PropOp57
 70
     1
  0
XRECORD
  5
12A
102
{ACAD_REACTORS
330
129
102
}
330
129
100
AcDbXrecord
280
     1
102
RTVSPost2010Prop28
280
     0
102
RTVSPost2010PropOp28
 70
     1
102
RTVSPost2010Prop29
280
     1
102
RTVSPost2010PropOp29
 70
     1
102
RTVSPost2010Prop30
280
     1
102
RTVSPost2010PropOp30
 70
     1
102
RTVSPost2010Prop31
280
     0
102
RTVSPost2010PropOp31
 70
     1
102
RTVSPost2010Prop32
280
     0
102
RTVSPost2010PropOp32
 70
     1
102
RTVSPost2010Prop33
280
     0
102
RTVSPost2010PropOp33
 70
     1
102
RTVSPost2010Prop34
280
     0
102
RTVSPost2010PropOp34
 70
     1
102
RTVSPost2010Prop35
280
     0
102
RTVSPost2010PropOp35
 70
     1
102
RTVSPost2010Prop36
280
     0
102
RTVSPost2010PropOp36
 70
     1
102
RTVSPost2010Prop37
 90
       50
102
RTVSPost2010PropOp37
 70
     1
102
RTVSPost2010Prop38
140
0.0
102
RTVSPost2010PropOp38
 70
     1
102
RTVSPost2010Prop39
140
1.0
102
RTVSPost2010PropOp39
 70
     1
102
RTVSPost2010Prop40
 90
        0
102
RTVSPost2010PropOp40
 70
     1
102
RTVSPost2010Prop41ColorIndex
 90
       18
102
RTVSPost2010Prop41ColorRGB
 90
        0
102
RTVSPost2010PropOp41
 70
     1
102
RTVSPost2010Prop42
 90
       50
102
RTVSPost2010PropOp42
 70
     1
102
RTVSPost2010Prop43
 90
        3
102
RTVSPost2010PropOp43
 70
     1
102
RTVSPost2010Prop44ColorIndex
 90
        5
102
RTVSPost2010Prop44ColorRGB
 90
      255
102
RTVSPost2010PropOp44
 70
     1
102
RTVSPost2010Prop45
280
     0
102
RTVSPost2010PropOp45
 70
     1
102
RTVSPost2010Prop46
 90
       50
102
RTVSPost2010PropOp46
 70
     1
102
RTVSPost2010Prop47
 90
       50
102
RTVSPost2010PropOp47
 70
     1
102
RTVSPost2010Prop48
 90
       50
102
RTVSPost2010PropOp48
 70
     1
102
RTVSPost2010Prop49
280
     0
102
RTVSPost2010PropOp49
 70
     1
102
RTVSPost2010Prop50
 90
       50
102
RTVSPost2010PropOp50
 70
     1
102
RTVSPost2010Prop51ColorIndex
 90
      256
102
RTVSPost2010Prop51ColorRGB
 90
-16777216
102
RTVSPost2010PropOp51
 70
     0
102
RTVSPost2010Prop52
140
1.0
102
RTVSPost2010PropOp52
 70
     0
102
RTVSPost2010Prop53
 90
        2
102
RTVSPost2010PropOp53
 70
     1
102
RTVSPost2010Prop54
  1
strokes_ogs.tif
102
RTVSPost2010PropOp54
 70
     1
102
RTVSPost2010Prop55
280
     0
102
RTVSPost2010PropOp55
 70
     1
102
RTVSPost2010Prop56
140
1.0
102
RTVSPost2010PropOp56
 70
     1
102
RTVSPost2010Prop57
140
1.0
102
RTVSPost2010PropOp57
 70
     1
  0
XRECORD
  5
12C
102
{ACAD_REACTORS
330
12B
102
}
330
12B
100
AcDbXrecord
280
     1
102
RTVSPost2010Prop28
280
     0
102
RTVSPost2010PropOp28
 70
     1
102
RTVSPost2010Prop29
280
     1
102
RTVSPost2010PropOp29
 70
     1
102
RTVSPost2010Prop30
280
     1
102
RTVSPost2010PropOp30
 70
     1
102
RTVSPost2010Prop31
280
     0
102
RTVSPost2010PropOp31
 70
     1
102
RTVSPost2010Prop32
280
     0
102
RTVSPost2010PropOp32
 70
     1
102
RTVSPost2010Prop33
280
     0
102
RTVSPost2010PropOp33
 70
     1
102
RTVSPost2010Prop34
280
     0
102
RTVSPost2010PropOp34
 70
     1
102
RTVSPost2010Prop35
280
     0
102
RTVSPost2010PropOp35
 70
     1
102
RTVSPost2010Prop36
280
     0
102
RTVSPost2010PropOp36
 70
     1
102
RTVSPost2010Prop37
 90
       50
102
RTVSPost2010PropOp37
 70
     1
102
RTVSPost2010Prop38
140
0.0
102
RTVSPost2010PropOp38
 70
     1
102
RTVSPost2010Prop39
140
1.0
102
RTVSPost2010PropOp39
 70
     1
102
RTVSPost2010Prop40
 90
        0
102
RTVSPost2010PropOp40
 70
     1
102
RTVSPost2010Prop41ColorIndex
 90
       18
102
RTVSPost2010Prop41ColorRGB
 90
        0
102
RTVSPost2010PropOp41
 70
     1
102
RTVSPost2010Prop42
 90
       50
102
RTVSPost2010PropOp42
 70
     1
102
RTVSPost2010Prop43
 90
        3
102
RTVSPost2010PropOp43
 70
     1
102
RTVSPost2010Prop44ColorIndex
 90
        5
102
RTVSPost2010Prop44ColorRGB
 90
      255
102
RTVSPost2010PropOp44
 70
     1
102
RTVSPost2010Prop45
280
     0
102
RTVSPost2010PropOp45
 70
     1
102
RTVSPost2010Prop46
 90
       50
102
RTVSPost2010PropOp46
 70
     1
102
RTVSPost2010Prop47
 90
       50
102
RTVSPost2010PropOp47
 70
     1
102
RTVSPost2010Prop48
 90
       50
102
RTVSPost2010PropOp48
 70
     1
102
RTVSPost2010Prop49
280
     0
102
RTVSPost2010PropOp49
 70
     1
102
RTVSPost2010Prop50
 90
       50
102
RTVSPost2010PropOp50
 70
     1
102
RTVSPost2010Prop51ColorIndex
 90
      256
102
RTVSPost2010Prop51ColorRGB
 90
-16777216
102
RTVSPost2010PropOp51
 70
     0
102
RTVSPost2010Prop52
140
1.0
102
RTVSPost2010PropOp52
 70
     0
102
RTVSPost2010Prop53
 90
        2
102
RTVSPost2010PropOp53
 70
     1
102
RTVSPost2010Prop54
  1
strokes_ogs.tif
102
RTVSPost2010PropOp54
 70
     1
102
RTVSPost2010Prop55
280
     0
102
RTVSPost2010PropOp55
 70
     1
102
RTVSPost2010Prop56
140
1.0
102
RTVSPost2010PropOp56
 70
     1
102
RTVSPost2010Prop57
140
1.0
102
RTVSPost2010PropOp57
 70
     1
  0
XRECORD
  5
122
102
{ACAD_REACTORS
330
121
102
}
330
121
100
AcDbXrecord
280
     1
102
RTVSPost2010Prop28
280
     0
102
RTVSPost2010PropOp28
 70
     1
102
RTVSPost2010Prop29
280
     1
102
RTVSPost2010PropOp29
 70
     1
102
RTVSPost2010Prop30
280
     1
102
RTVSPost2010PropOp30
 70
     1
102
RTVSPost2010Prop31
280
     0
102
RTVSPost2010PropOp31
 70
     1
102
RTVSPost2010Prop32
280
     0
102
RTVSPost2010PropOp32
 70
     1
102
RTVSPost2010Prop33
280
     0
102
RTVSPost2010PropOp33
 70
     1
102
RTVSPost2010Prop34
280
     0
102
RTVSPost2010PropOp34
 70
     1
102
RTVSPost2010Prop35
280
     0
102
RTVSPost2010PropOp35
 70
     1
102
RTVSPost2010Prop36
280
     0
102
RTVSPost2010PropOp36
 70
     1
102
RTVSPost2010Prop37
 90
       50
102
RTVSPost2010PropOp37
 70
     1
102
RTVSPost2010Prop38
140
0.0
102
RTVSPost2010PropOp38
 70
     1
102
RTVSPost2010Prop39
140
1.0
102
RTVSPost2010PropOp39
 70
     1
102
RTVSPost2010Prop40
 90
        0
102
RTVSPost2010PropOp40
 70
     1
102
RTVSPost2010Prop41ColorIndex
 90
       18
102
RTVSPost2010Prop41ColorRGB
 90
        0
102
RTVSPost2010PropOp41
 70
     1
102
RTVSPost2010Prop42
 90
       50
102
RTVSPost2010PropOp42
 70
     1
102
RTVSPost2010Prop43
 90
        3
102
RTVSPost2010PropOp43
 70
     1
102
RTVSPost2010Prop44ColorIndex
 90
        5
102
RTVSPost2010Prop44ColorRGB
 90
      255
102
RTVSPost2010PropOp44
 70
     1
102
RTVSPost2010Prop45
280
     0
102
RTVSPost2010PropOp45
 70
     1
102
RTVSPost2010Prop46
 90
       50
102
RTVSPost2010PropOp46
 70
     1
102
RTVSPost2010Prop47
 90
       50
102
RTVSPost2010PropOp47
 70
     1
102
RTVSPost2010Prop48
 90
       50
102
RTVSPost2010PropOp48
 70
     1
102
RTVSPost2010Prop49
280
     0
102
RTVSPost2010PropOp49
 70
     1
102
RTVSPost2010Prop50
 90
       50
102
RTVSPost2010PropOp50
 70
     1
102
RTVSPost2010Prop51ColorIndex
 90
      256
102
RTVSPost2010Prop51ColorRGB
 90
-16777216
102
RTVSPost2010PropOp51
 70
     0
102
RTVSPost2010Prop52
140
1.0
102
RTVSPost2010PropOp52
 70
     0
102
RTVSPost2010Prop53
 90
        2
102
RTVSPost2010PropOp53
 70
     1
102
RTVSPost2010Prop54
  1
strokes_ogs.tif
102
RTVSPost2010PropOp54
 70
     1
102
RTVSPost2010Prop55
280
     0
102
RTVSPost2010PropOp55
 70
     1
102
RTVSPost2010Prop56
140
1.0
102
RTVSPost2010PropOp56
 70
     1
102
RTVSPost2010Prop57
140
1.0
102
RTVSPost2010PropOp57
 70
     1
  0
XRECORD
  5
116
102
{ACAD_REACTORS
330
115
102
}
330
115
100
AcDbXrecord
280
     1
102
RTVSPost2010Prop28
280
     0
102
RTVSPost2010PropOp28
 70
     1
102
RTVSPost2010Prop29
280
     1
102
RTVSPost2010PropOp29
 70
     1
102
RTVSPost2010Prop30
280
     1
102
RTVSPost2010PropOp30
 70
     1
102
RTVSPost2010Prop31
280
     0
102
RTVSPost2010PropOp31
 70
     1
102
RTVSPost2010Prop32
280
     0
102
RTVSPost2010PropOp32
 70
     1
102
RTVSPost2010Prop33
280
     0
102
RTVSPost2010PropOp33
 70
     1
102
RTVSPost2010Prop34
280
     0
102
RTVSPost2010PropOp34
 70
     1
102
RTVSPost2010Prop35
280
     0
102
RTVSPost2010PropOp35
 70
     1
102
RTVSPost2010Prop36
280
     0
102
RTVSPost2010PropOp36
 70
     1
102
RTVSPost2010Prop37
 90
       50
102
RTVSPost2010PropOp37
 70
     1
102
RTVSPost2010Prop38
140
0.0
102
RTVSPost2010PropOp38
 70
     1
102
RTVSPost2010Prop39
140
1.0
102
RTVSPost2010PropOp39
 70
     1
102
RTVSPost2010Prop40
 90
        0
102
RTVSPost2010PropOp40
 70
     1
102
RTVSPost2010Prop41ColorIndex
 90
       18
102
RTVSPost2010Prop41ColorRGB
 90
        0
102
RTVSPost2010PropOp41
 70
     1
102
RTVSPost2010Prop42
 90
       50
102
RTVSPost2010PropOp42
 70
     1
102
RTVSPost2010Prop43
 90
        3
102
RTVSPost2010PropOp43
 70
     1
102
RTVSPost2010Prop44ColorIndex
 90
        5
102
RTVSPost2010Prop44ColorRGB
 90
      255
102
RTVSPost2010PropOp44
 70
     1
102
RTVSPost2010Prop45
280
     0
102
RTVSPost2010PropOp45
 70
     1
102
RTVSPost2010Prop46
 90
       50
102
RTVSPost2010PropOp46
 70
     1
102
RTVSPost2010Prop47
 90
       50
102
RTVSPost2010PropOp47
 70
     1
102
RTVSPost2010Prop48
 90
       50
102
RTVSPost2010PropOp48
 70
     1
102
RTVSPost2010Prop49
280
     0
102
RTVSPost2010PropOp49
 70
     1
102
RTVSPost2010Prop50
 90
       50
102
RTVSPost2010PropOp50
 70
     1
102
RTVSPost2010Prop51ColorIndex
 90
      256
102
RTVSPost2010Prop51ColorRGB
 90
-16777216
102
RTVSPost2010PropOp51
 70
     0
102
RTVSPost2010Prop52
140
1.0
102
RTVSPost2010PropOp52
 70
     0
102
RTVSPost2010Prop53
 90
        2
102
RTVSPost2010PropOp53
 70
     1
102
RTVSPost2010Prop54
  1
strokes_ogs.tif
102
RTVSPost2010PropOp54
 70
     1
102
RTVSPost2010Prop55
280
     0
102
RTVSPost2010PropOp55
 70
     1
102
RTVSPost2010Prop56
140
1.0
102
RTVSPost2010PropOp56
 70
     1
102
RTVSPost2010Prop57
140
1.0
102
RTVSPost2010PropOp57
 70
     1
  0
XRECORD
  5
12E
102
{ACAD_REACTORS
330
12D
102
}
330
12D
100
AcDbXrecord
280
     1
102
RTVSPost2010Prop28
280
     0
102
RTVSPost2010PropOp28
 70
     1
102
RTVSPost2010Prop29
280
     1
102
RTVSPost2010PropOp29
 70
     1
102
RTVSPost2010Prop30
280
     1
102
RTVSPost2010PropOp30
 70
     1
102
RTVSPost2010Prop31
280
     0
102
RTVSPost2010PropOp31
 70
     1
102
RTVSPost2010Prop32
280
     0
102
RTVSPost2010PropOp32
 70
     1
102
RTVSPost2010Prop33
280
     0
102
RTVSPost2010PropOp33
 70
     1
102
RTVSPost2010Prop34
280
     0
102
RTVSPost2010PropOp34
 70
     1
102
RTVSPost2010Prop35
280
     0
102
RTVSPost2010PropOp35
 70
     1
102
RTVSPost2010Prop36
280
     0
102
RTVSPost2010PropOp36
 70
     1
102
RTVSPost2010Prop37
 90
       50
102
RTVSPost2010PropOp37
 70
     1
102
RTVSPost2010Prop38
140
0.0
102
RTVSPost2010PropOp38
 70
     1
102
RTVSPost2010Prop39
140
1.0
102
RTVSPost2010PropOp39
 70
     1
102
RTVSPost2010Prop40
 90
        0
102
RTVSPost2010PropOp40
 70
     1
102
RTVSPost2010Prop41ColorIndex
 90
       18
102
RTVSPost2010Prop41ColorRGB
 90
        0
102
RTVSPost2010PropOp41
 70
     1
102
RTVSPost2010Prop42
 90
       50
102
RTVSPost2010PropOp42
 70
     1
102
RTVSPost2010Prop43
 90
        3
102
RTVSPost2010PropOp43
 70
     1
102
RTVSPost2010Prop44ColorIndex
 90
        5
102
RTVSPost2010Prop44ColorRGB
 90
      255
102
RTVSPost2010PropOp44
 70
     1
102
RTVSPost2010Prop45
280
     0
102
RTVSPost2010PropOp45
 70
     1
102
RTVSPost2010Prop46
 90
       50
102
RTVSPost2010PropOp46
 70
     1
102
RTVSPost2010Prop47
 90
       50
102
RTVSPost2010PropOp47
 70
     1
102
RTVSPost2010Prop48
 90
       50
102
RTVSPost2010PropOp48
 70
     1
102
RTVSPost2010Prop49
280
     0
102
RTVSPost2010PropOp49
 70
     1
102
RTVSPost2010Prop50
 90
       50
102
RTVSPost2010PropOp50
 70
     1
102
RTVSPost2010Prop51ColorIndex
 90
      256
102
RTVSPost2010Prop51ColorRGB
 90
-16777216
102
RTVSPost2010PropOp51
 70
     0
102
RTVSPost2010Prop52
140
1.0
102
RTVSPost2010PropOp52
 70
     0
102
RTVSPost2010Prop53
 90
        2
102
RTVSPost2010PropOp53
 70
     1
102
RTVSPost2010Prop54
  1
strokes_ogs.tif
102
RTVSPost2010PropOp54
 70
     1
102
RTVSPost2010Prop55
280
     0
102
RTVSPost2010PropOp55
 70
     1
102
RTVSPost2010Prop56
140
1.0
102
RTVSPost2010PropOp56
 70
     1
102
RTVSPost2010Prop57
140
1.0
102
RTVSPost2010PropOp57
 70
     1
  0
ENDSEC
  0
EOF
