  0
SECTION
  2
HEADER
  9
$ACADVER
  1
AC1024
  9
$ACADMAINTVER
 70
     6
  9
$DWGCODEPAGE
  3
UNDEFINED
  9
$INSBASE
 10
0.0
 20
0.0
 30
0.0
  9
$EXTMIN
 10
1.000000000000000E+20
 20
1.000000000000000E+20
 30
1.000000000000000E+20
  9
$EXTMAX
 10
-1.000000000000000E+20
 20
-1.000000000000000E+20
 30
-1.000000000000000E+20
  9
$LIMMIN
 10
0.0
 20
0.0
  9
$LIMMAX
 10
12.0
 20
9.0
  9
$ORTHOMODE
 70
     0
  9
$REGENMODE
 70
     1
  9
$FILLMODE
 70
     1
  9
$QTEXTMODE
 70
     0
  9
$MIRRTEXT
 70
     1
  9
$LTSCALE
 40
1.0
  9
$ATTMODE
 70
     1
  9
$TEXTSIZE
 40
0.2
  9
$TRACEWID
 40
0.05
  9
$TEXTSTYLE
  7
Standard
  9
$CLAYER
  8
0
  9
$CELTYPE
  6
ByLayer
  9
$CECOLOR
 62
   256
  9
$CELTSCALE
 40
1.0
  9
$DISPSILH
 70
     0
  9
$DIMSCALE
 40
1.0
  9
$DIMASZ
 40
0.18
  9
$DIMEXO
 40
0.0625
  9
$DIMDLI
 40
0.38
  9
$DIMRND
 40
0.0
  9
$DIMDLE
 40
0.0
  9
$DIMEXE
 40
0.18
  9
$DIMTP
 40
0.0
  9
$DIMTM
 40
0.0
  9
$DIMTXT
 40
0.18
  9
$DIMCEN
 40
0.09
  9
$DIMTSZ
 40
0.0
  9
$DIMTOL
 70
     0
  9
$DIMLIM
 70
     0
  9
$DIMTIH
 70
     1
  9
$DIMTOH
 70
     1
  9
$DIMSE1
 70
     0
  9
$DIMSE2
 70
     0
  9
$DIMTAD
 70
     0
  9
$DIMZIN
 70
     0
  9
$DIMBLK
  1

  9
$DIMASO
 70
     1
  9
$DIMSHO
 70
     1
  9
$DIMPOST
  1

  9
$DIMAPOST
  1

  9
$DIMALT
 70
     0
  9
$DIMALTD
 70
     2
  9
$DIMALTF
 40
25.4
  9
$DIMLFAC
 40
1.0
  9
$DIMTOFL
 70
     0
  9
$DIMTVP
 40
0.0
  9
$DIMTIX
 70
     0
  9
$DIMSOXD
 70
     0
  9
$DIMSAH
 70
     0
  9
$DIMBLK1
  1

  9
$DIMBLK2
  1

  9
$DIMSTYLE
  2
Standard
  9
$DIMCLRD
 70
     0
  9
$DIMCLRE
 70
     0
  9
$DIMCLRT
 70
     0
  9
$DIMTFAC
 40
1.0
  9
$DIMGAP
 40
0.09
  9
$DIMJUST
 70
     0
  9
$DIMSD1
 70
     0
  9
$DIMSD2
 70
     0
  9
$DIMTOLJ
 70
     1
  9
$DIMTZIN
 70
     0
  9
$DIMALTZ
 70
     0
  9
$DIMALTTZ
 70
     0
  9
$DIMUPT
 70
     0
  9
$DIMDEC
 70
     4
  9
$DIMTDEC
 70
     4
  9
$DIMALTU
 70
     2
  9
$DIMALTTD
 70
     2
  9
$DIMTXSTY
  7
Standard
  9
$DIMAUNIT
 70
     0
  9
$DIMADEC
 70
     0
  9
$DIMALTRND
 40
0.0
  9
$DIMAZIN
 70
     0
  9
$DIMDSEP
 70
    46
  9
$DIMATFIT
 70
     3
  9
$DIMFRAC
 70
     0
  9
$DIMLDRBLK
  1

  9
$DIMLUNIT
 70
     2
  9
$DIMLWD
 70
    -2
  9
$DIMLWE
 70
    -2
  9
$DIMTMOVE
 70
     0
  9
$DIMFXL
 40
1.0
  9
$DIMFXLON
 70
     0
  9
$DIMJOGANG
 40
0.7853981633974483
  9
$DIMTFILL
 70
     0
  9
$DIMTFILLCLR
 70
     0
  9
$DIMARCSYM
 70
     0
  9
$DIMLTYPE
  6

  9
$DIMLTEX1
  6

  9
$DIMLTEX2
  6

  9
$DIMTXTDIRECTION
 70
     0
  9
$LUNITS
 70
     2
  9
$LUPREC
 70
     4
  9
$SKETCHINC
 40
0.1
  9
$FILLETRAD
 40
0.5
  9
$AUNITS
 70
     0
  9
$AUPREC
 70
     0
  9
$MENU
  1
.
  9
$ELEVATION
 40
0.0
  9
$PELEVATION
 40
0.0
  9
$THICKNESS
 40
0.0
  9
$LIMCHECK
 70
     0
  9
$CHAMFERA
 40
0.5
  9
$CHAMFERB
 40
0.5
  9
$CHAMFERC
 40
1.0
  9
$CHAMFERD
 40
0.0
  9
$SKPOLY
 70
     0
  9
$TDCREATE
 40
2458263.773576389
  9
$TDUCREATE
 40
2458263.398576389
  9
$TDUPDATE
 40
2458263.773576389
  9
$TDUUPDATE
 40
2458263.398576389
  9
$TDINDWG
 40
0.0000000116
  9
$TDUSRTIMER
 40
0.0000000116
  9
$USRTIMER
 70
     1
  9
$ANGBASE
 50
0.0
  9
$ANGDIR
 70
     0
  9
$PDMODE
 70
     0
  9
$PDSIZE
 40
0.0
  9
$PLINEWID
 40
0.0
  9
$SPLFRAME
 70
     0
  9
$SPLINETYPE
 70
     6
  9
$SPLINESEGS
 70
     8
  9
$HANDSEED
  5
D2
  9
$SURFTAB1
 70
     6
  9
$SURFTAB2
 70
     6
  9
$SURFTYPE
 70
     6
  9
$SURFU
 70
     6
  9
$SURFV
 70
     6
  9
$UCSBASE
  2

  9
$UCSNAME
  2

  9
$UCSORG
 10
0.0
 20
0.0
 30
0.0
  9
$UCSXDIR
 10
1.0
 20
0.0
 30
0.0
  9
$UCSYDIR
 10
0.0
 20
1.0
 30
0.0
  9
$UCSORTHOREF
  2

  9
$UCSORTHOVIEW
 70
     0
  9
$UCSORGTOP
 10
0.0
 20
0.0
 30
0.0
  9
$UCSORGBOTTOM
 10
0.0
 20
0.0
 30
0.0
  9
$UCSORGLEFT
 10
0.0
 20
0.0
 30
0.0
  9
$UCSORGRIGHT
 10
0.0
 20
0.0
 30
0.0
  9
$UCSORGFRONT
 10
0.0
 20
0.0
 30
0.0
  9
$UCSORGBACK
 10
0.0
 20
0.0
 30
0.0
  9
$PUCSBASE
  2

  9
$PUCSNAME
  2

  9
$PUCSORG
 10
0.0
 20
0.0
 30
0.0
  9
$PUCSXDIR
 10
1.0
 20
0.0
 30
0.0
  9
$PUCSYDIR
 10
0.0
 20
1.0
 30
0.0
  9
$PUCSORTHOREF
  2

  9
$PUCSORTHOVIEW
 70
     0
  9
$PUCSORGTOP
 10
0.0
 20
0.0
 30
0.0
  9
$PUCSORGBOTTOM
 10
0.0
 20
0.0
 30
0.0
  9
$PUCSORGLEFT
 10
0.0
 20
0.0
 30
0.0
  9
$PUCSORGRIGHT
 10
0.0
 20
0.0
 30
0.0
  9
$PUCSORGFRONT
 10
0.0
 20
0.0
 30
0.0
  9
$PUCSORGBACK
 10
0.0
 20
0.0
 30
0.0
  9
$USERI1
 70
     0
  9
$USERI2
 70
     0
  9
$USERI3
 70
     0
  9
$USERI4
 70
     0
  9
$USERI5
 70
     0
  9
$USERR1
 40
0.0
  9
$USERR2
 40
0.0
  9
$USERR3
 40
0.0
  9
$USERR4
 40
0.0
  9
$USERR5
 40
0.0
  9
$WORLDVIEW
 70
     1
  9
$SHADEDGE
 70
     3
  9
$SHADEDIF
 70
    70
  9
$TILEMODE
 70
     1
  9
$MAXACTVP
 70
    64
  9
$PINSBASE
 10
0.0
 20
0.0
 30
0.0
  9
$PLIMCHECK
 70
     0
  9
$PEXTMIN
 10
1.000000000000000E+20
 20
1.000000000000000E+20
 30
1.000000000000000E+20
  9
$PEXTMAX
 10
-1.000000000000000E+20
 20
-1.000000000000000E+20
 30
-1.000000000000000E+20
  9
$PLIMMIN
 10
0.0
 20
0.0
  9
$PLIMMAX
 10
12.0
 20
9.0
  9
$UNITMODE
 70
     0
  9
$VISRETAIN
 70
     1
  9
$PLINEGEN
 70
     0
  9
$PSLTSCALE
 70
     1
  9
$TREEDEPTH
 70
  3020
  9
$CMLSTYLE
  2
Standard
  9
$CMLJUST
 70
     0
  9
$CMLSCALE
 40
1.0
  9
$PROXYGRAPHICS
 70
     1
  9
$MEASUREMENT
 70
     0
  9
$CELWEIGHT
370
    -1
  9
$ENDCAPS
280
     0
  9
$JOINSTYLE
280
     0
  9
$LWDISPLAY
290
     1
  9
$INSUNITS
 70
     1
  9
$HYPERLINKBASE
  1

  9
$STYLESHEET
  1

  9
$XEDIT
290
     1
  9
$CEPSNTYPE
380
     0
  9
$PSTYLEMODE
290
     1
  9
$FINGERPRINTGUID
  2
{A1C8E8AF-8ED6-777C-7E71-D5F31CBD514A}
  9
$VERSIONGUID
  2
{FAEB1C32-E019-11D5-929B-00C0DF256EC4}
  9
$EXTNAMES
290
     1
  9
$PSVPSCALE
 40
0.0
  9
$OLESTARTUP
290
     0
  9
$SORTENTS
280
   127
  9
$INDEXCTL
280
     0
  9
$HIDETEXT
280
     1
  9
$XCLIPFRAME
280
     2
  9
$HALOGAP
280
     0
  9
$OBSCOLOR
 70
   257
  9
$OBSLTYPE
280
     0
  9
$INTERSECTIONDISPLAY
280
     0
  9
$INTERSECTIONCOLOR
 70
   257
  9
$DIMASSOC
280
     2
  9
$PROJECTNAME
  1

  9
$CAMERADISPLAY
290
     0
  9
$LENSLENGTH
 40
50.0
  9
$CAMERAHEIGHT
 40
0.0
  9
$STEPSPERSEC
 40
2.0
  9
$STEPSIZE
 40
6.0
  9
$3DDWFPREC
 40
2.0
  9
$PSOLWIDTH
 40
0.25
  9
$PSOLHEIGHT
 40
4.0
  9
$LOFTANG1
 40
1.570796326794897
  9
$LOFTANG2
 40
1.570796326794897
  9
$LOFTMAG1
 40
0.0
  9
$LOFTMAG2
 40
0.0
  9
$LOFTPARAM
 70
     7
  9
$LOFTNORMALS
280
     1
  9
$LATITUDE
 40
37.795
  9
$LONGITUDE
 40
-122.394
  9
$NORTHDIRECTION
 40
0.0
  9
$TIMEZONE
 70
 -8000
  9
$LIGHTGLYPHDISPLAY
280
     1
  9
$TILEMODELIGHTSYNCH
280
     1
  9
$CMATERIAL
347
3C
  9
$SOLIDHIST
280
     1
  9
$SHOWHIST
280
     1
  9
$DWFFRAME
280
     2
  9
$DGNFRAME
280
     2
  9
$REALWORLDSCALE
290
     1
  9
$INTERFERECOLOR
 62
   256
  9
$CSHADOW
280
     0
  9
$SHADOWPLANELOCATION
 40
0.0
  0
ENDSEC
  0
SECTION
  2
CLASSES
  0
CLASS
  1
ACDBDICTIONARYWDFLT
  2
AcDbDictionaryWithDefault
  3
ObjectDBX Classes
 90
        0
 91
        4
280
     0
281
     0
  0
CLASS
  1
VISUALSTYLE
  2
AcDbVisualStyle
  3
ObjectDBX Classes
 90
     4095
 91
        4
280
     0
281
     0
  0
CLASS
  1
MATERIAL
  2
AcDbMaterial
  3
ObjectDBX Classes
 90
     1153
 91
        4
280
     0
281
     0
  0
CLASS
  1
SUN
  2
AcDbSun
  3
SCENEOE
 90
     1024
 91
        4
280
     0
281
     0
  0
ENDSEC
  0
SECTION
  2
TABLES
  0
TABLE
  2
VPORT
  5
8
330
0
100
AcDbSymbolTable
 70
     1
  0
VPORT
  5
29
330
8
100
AcDbSymbolTableRecord
100
AcDbViewportTableRecord
  2
*Active
 70
     0
 10
0.0
 20
0.0
 11
1.0
 21
1.0
 12
0.0
 22
0.0
 13
0.0
 23
0.0
 14
0.5
 24
0.5
 15
0.5
 25
0.5
 16
0.0
 26
0.0
 36
1.0
 17
105.0007777515277
 27
-148.5000416295416
 37
0.0
 40
297.0000832590831
 41
0.7070757462376333
 42
50.0
 43
0.0
 44
0.0
 50
0.0
 51
0.0
 71
     0
 72
   100
 73
     1
 74
     3
 75
     0
 76
     0
 77
     0
 78
     0
281
     0
 65
     1
110
0.0
120
0.0
130
0.0
111
1.0
121
0.0
131
0.0
112
0.0
122
1.0
132
0.0
 79
     0
146
0.0
 60
     3
 61
     5
292
     1
282
     1
141
0.0
142
0.0
 63
   250
361
3F
  0
ENDTAB
  0
TABLE
  2
LTYPE
  5
5
330
0
100
AcDbSymbolTable
 70
     3
  0
LTYPE
  5
14
330
5
100
AcDbSymbolTableRecord
100
AcDbLinetypeTableRecord
  2
ByBlock
 70
     0
  3

 72
    65
 73
     0
 40
0.0
  0
LTYPE
  5
15
330
5
100
AcDbSymbolTableRecord
100
AcDbLinetypeTableRecord
  2
ByLayer
 70
     0
  3

 72
    65
 73
     0
 40
0.0
  0
LTYPE
  5
16
330
5
100
AcDbSymbolTableRecord
100
AcDbLinetypeTableRecord
  2
Continuous
 70
     0
  3
Solid line
 72
    65
 73
     0
 40
0.0
  0
LTYPE
  5
89
330
5
100
AcDbSymbolTableRecord
100
AcDbLinetypeTableRecord
  2
AI-Linetype-1
 70
     0
  3
Adobe Illustrator Linetype No. 1
 72
    65
 73
     2
 40
1.411111110758333
 49
0.7055555553791667
 74
     0
 49
-0.7055555553791667
 74
     0
  0
LTYPE
  5
8E
330
5
100
AcDbSymbolTableRecord
100
AcDbLinetypeTableRecord
  2
AI-Linetype-2
 70
     0
  3
Adobe Illustrator Linetype No. 2
 72
    65
 73
     2
 40
1.411111110758333
 49
0.7055555553791667
 74
     0
 49
-0.7055555553791667
 74
     0
  0
ENDTAB
  0
TABLE
  2
LAYER
  5
2
330
0
100
AcDbSymbolTable
 70
     2
  0
LAYER
  5
10
330
2
100
AcDbSymbolTableRecord
100
AcDbLayerTableRecord
  2
0
 70
     0
 62
     7
  6
Continuous
370
    -3
390
F
347
3E
  0
LAYER
  5
40
330
2
100
AcDbSymbolTableRecord
100
AcDbLayerTableRecord
  2
_U+30EC_U+30A4_U+30E4_U+30FC 1
 70
     0
 62
     7
  6
Continuous
370
    -3
390
F
347
3E
  0
ENDTAB
  0
TABLE
  2
STYLE
  5
3
330
0
100
AcDbSymbolTable
 70
     1
  0
STYLE
  5
11
330
3
100
AcDbSymbolTableRecord
100
AcDbTextStyleTableRecord
  2
Standard
 70
     0
 40
0.0
 41
1.0
 50
0.0
 71
     0
 42
0.2
  3
txt
  4

  0
ENDTAB
  0
TABLE
  2
VIEW
  5
6
330
0
100
AcDbSymbolTable
 70
     0
  0
ENDTAB
  0
TABLE
  2
UCS
  5
7
330
0
100
AcDbSymbolTable
 70
     0
  0
ENDTAB
  0
TABLE
  2
APPID
  5
9
330
0
100
AcDbSymbolTable
 70
     1
  0
APPID
  5
12
330
9
100
AcDbSymbolTableRecord
100
AcDbRegAppTableRecord
  2
ACAD
 70
     0
  0
ENDTAB
  0
TABLE
  2
DIMSTYLE
  5
A
330
0
100
AcDbSymbolTable
 70
     1
100
AcDbDimStyleTable
  0
DIMSTYLE
105
27
330
A
100
AcDbSymbolTableRecord
100
AcDbDimStyleTableRecord
  2
Standard
 70
     0
178
     0
340
11
  0
ENDTAB
  0
TABLE
  2
BLOCK_RECORD
  5
1
330
0
100
AcDbSymbolTable
 70
     4
  0
BLOCK_RECORD
  5
1F
330
1
100
AcDbSymbolTableRecord
100
AcDbBlockTableRecord
  2
*Model_Space
340
22
 70
     0
280
     1
281
     0
  0
BLOCK_RECORD
  5
1B
330
1
100
AcDbSymbolTableRecord
100
AcDbBlockTableRecord
  2
*Paper_Space
340
1E
 70
     0
280
     1
281
     0
  0
BLOCK_RECORD
  5
23
330
1
100
AcDbSymbolTableRecord
100
AcDbBlockTableRecord
  2
*Paper_Space0
340
26
 70
     0
280
     1
281
     0
  0
BLOCK_RECORD
  5
6A
330
1
100
AcDbSymbolTableRecord
100
AcDbBlockTableRecord
  2
block 2
340
0
102
{BLKREFS
331
6B
102
}
 70
     0
280
     1
281
     0
  0
BLOCK_RECORD
  5
7E
330
1
100
AcDbSymbolTableRecord
100
AcDbBlockTableRecord
  2
block 3
340
0
102
{BLKREFS
331
7F
102
}
 70
     0
280
     1
281
     0
  0
BLOCK_RECORD
  5
A8
330
1
100
AcDbSymbolTableRecord
100
AcDbBlockTableRecord
  2
block 4
340
0
102
{BLKREFS
331
A9
102
}
 70
     0
280
     1
281
     0
  0
ENDTAB
  0
ENDSEC
  0
SECTION
  2
BLOCKS
  0
BLOCK
  5
20
330
1F
100
AcDbEntity
  8
0
100
AcDbBlockBegin
  2
*Model_Space
 70
     0
 10
0.0
 20
0.0
 30
0.0
  3
*Model_Space
  1

  0
ENDBLK
  5
21
330
1F
100
AcDbEntity
  8
0
100
AcDbBlockEnd
  0
BLOCK
  5
1C
330
1B
100
AcDbEntity
 67
     1
  8
0
100
AcDbBlockBegin
  2
*Paper_Space
 70
     0
 10
0.0
 20
0.0
 30
0.0
  3
*Paper_Space
  1

  0
ENDBLK
  5
1D
330
1B
100
AcDbEntity
 67
     1
  8
0
100
AcDbBlockEnd
  0
BLOCK
  5
24
330
23
100
AcDbEntity
  8
0
100
AcDbBlockBegin
  2
*Paper_Space0
 70
     0
 10
0.0
 20
0.0
 30
0.0
  3
*Paper_Space0
  1

  0
ENDBLK
  5
25
330
23
100
AcDbEntity
  8
0
100
AcDbBlockEnd
  0
BLOCK
  5
6C
330
6A
100
AcDbEntity
  8
0
100
AcDbBlockBegin
  2
block 2
 70
     0
 10
0.0
 20
0.0
 30
0.0
  3
block 2
  1

  0
SPLINE
  5
6E
330
6A
100
AcDbEntity
  8
_U+30EC_U+30A4_U+30E4_U+30FC 1
370
     0
100
AcDbSpline
210
0.0
220
0.0
230
1.0
 70
    11
 71
     3
 72
    26
 73
    22
 74
     0
 42
0.0000000001
 43
0.0000000001
 12
1.0
 22
0.0
 32
0.0
 13
1.0
 23
0.0
 33
0.0
 40
0.0
 40
0.0
 40
0.0
 40
0.0
 40
1.0
 40
1.0
 40
1.0
 40
2.0
 40
2.0
 40
2.0
 40
3.0
 40
3.0
 40
3.0
 40
4.0
 40
4.0
 40
4.0
 40
5.0
 40
5.0
 40
5.0
 40
6.0
 40
6.0
 40
6.0
 40
7.0
 40
7.0
 40
7.0
 40
7.0
 10
95.43741317058509
 20
-146.9352172484224
 30
0.0
 10
95.43741317058509
 20
-146.9352172484224
 30
0.0
 10
94.33308781278826
 20
-146.9352172484224
 30
0.0
 10
94.33308781278826
 20
-146.9352172484224
 30
0.0
 10
94.33308781278826
 20
-146.9352172484224
 30
0.0
 10
94.33308781278826
 20
-147.287995026112
 30
0.0
 10
94.33308781278826
 20
-147.287995026112
 30
0.0
 10
94.33308781278826
 20
-147.287995026112
 30
0.0
 10
94.18512096169678
 20
-147.287995026112
 30
0.0
 10
94.18512096169678
 20
-147.287995026112
 30
0.0
 10
94.1703070511102
 20
-146.932977936357
 30
0.0
 10
94.0073540346579
 20
-146.8831963065952
 30
0.0
 10
93.89314911932186
 20
-146.8516736829051
 30
0.0
 10
93.89314911932186
 20
-146.8516736829051
 30
0.0
 10
93.89314911932186
 20
-146.6956108574233
 30
0.0
 10
93.89314911932186
 20
-146.6956108574233
 30
0.0
 10
93.89314911932186
 20
-146.6956108574233
 30
0.0
 10
95.43741317058509
 20
-146.6956108574233
 30
0.0
 10
95.43741317058509
 20
-146.6956108574233
 30
0.0
 10
95.43741317058509
 20
-146.6956108574233
 30
0.0
 10
95.43741317058509
 20
-146.9352172484224
 30
0.0
 10
95.43741317058509
 20
-146.9352172484224
 30
0.0
  0
HATCH
  5
6F
330
6A
100
AcDbEntity
  8
_U+30EC_U+30A4_U+30E4_U+30FC 1
 62
   179
420
  2234388
100
AcDbHatch
 10
0.0
 20
0.0
 30
0.0
210
0.0
220
0.0
230
1.0
  2
SOLID
 70
     1
 71
     0
 91
        1
 92
        1
 93
        1
 72
     4
 94
        3
 73
     0
 74
     1
 95
       26
 96
       22
 40
0.0
 40
0.0
 40
0.0
 40
0.0
 40
1.0
 40
1.0
 40
1.0
 40
2.0
 40
2.0
 40
2.0
 40
3.0
 40
3.0
 40
3.0
 40
4.0
 40
4.0
 40
4.0
 40
5.0
 40
5.0
 40
5.0
 40
6.0
 40
6.0
 40
6.0
 40
7.0
 40
7.0
 40
7.0
 40
7.0
 10
95.43741317058509
 20
-146.9352172484224
 10
95.43741317058509
 20
-146.9352172484224
 10
94.33308781278826
 20
-146.9352172484224
 10
94.33308781278826
 20
-146.9352172484224
 10
94.33308781278826
 20
-146.9352172484224
 10
94.33308781278826
 20
-147.287995026112
 10
94.33308781278826
 20
-147.287995026112
 10
94.33308781278826
 20
-147.287995026112
 10
94.18512096169678
 20
-147.287995026112
 10
94.18512096169678
 20
-147.287995026112
 10
94.1703070511102
 20
-146.932977936357
 10
94.0073540346579
 20
-146.8831963065952
 10
93.89314911932186
 20
-146.8516736829051
 10
93.89314911932186
 20
-146.8516736829051
 10
93.89314911932186
 20
-146.6956108574233
 10
93.89314911932186
 20
-146.6956108574233
 10
93.89314911932186
 20
-146.6956108574233
 10
95.43741317058509
 20
-146.6956108574233
 10
95.43741317058509
 20
-146.6956108574233
 10
95.43741317058509
 20
-146.6956108574233
 10
95.43741317058509
 20
-146.9352172484224
 10
95.43741317058509
 20
-146.9352172484224
 97
        0
 97
        0
 75
     2
 76
     1
 98
        0
  0
SPLINE
  5
70
330
6A
100
AcDbEntity
  8
_U+30EC_U+30A4_U+30E4_U+30FC 1
370
     0
100
AcDbSpline
210
0.0
220
0.0
230
1.0
 70
    11
 71
     3
 72
    53
 73
    49
 74
     0
 42
0.0000000001
 43
0.0000000001
 12
1.0
 22
0.0
 32
0.0
 13
1.0
 23
0.0
 33
0.0
 40
0.0
 40
0.0
 40
0.0
 40
0.0
 40
1.0
 40
1.0
 40
1.0
 40
2.0
 40
2.0
 40
2.0
 40
3.0
 40
3.0
 40
3.0
 40
4.0
 40
4.0
 40
4.0
 40
5.0
 40
5.0
 40
5.0
 40
6.0
 40
6.0
 40
6.0
 40
7.0
 40
7.0
 40
7.0
 40
8.0
 40
8.0
 40
8.0
 40
9.0
 40
9.0
 40
9.0
 40
10.0
 40
10.0
 40
10.0
 40
11.0
 40
11.0
 40
11.0
 40
12.0
 40
12.0
 40
12.0
 40
13.0
 40
13.0
 40
13.0
 40
14.0
 40
14.0
 40
14.0
 40
15.0
 40
15.0
 40
15.0
 40
16.0
 40
16.0
 40
16.0
 40
16.0
 10
95.48822832899253
 20
-145.6457180082934
 30
0.0
 10
95.48822832899253
 20
-145.729433828585
 30
0.0
 10
95.47117510634054
 20
-145.8379543363704
 30
0.0
 10
95.40778534941195
 20
-145.9464748441557
 30
0.0
 10
95.29771454865822
 20
-146.1318209812622
 30
0.0
 10
95.16662866544446
 20
-146.1543863566906
 30
0.0
 10
95.05879717675614
 20
-146.1748846748278
 30
0.0
 10
95.05879717675614
 20
-146.1748846748278
 30
0.0
 10
95.05879717675614
 20
-145.9373453411199
 30
0.0
 10
95.05879717675614
 20
-145.9373453411199
 30
0.0
 10
95.25757918625506
 20
-145.8786064630963
 30
0.0
 10
95.28720700742821
 20
-145.7430419557517
 30
0.0
 10
95.28720700742821
 20
-145.643478696228
 30
0.0
 10
95.28720700742821
 20
-145.4943060617167
 30
0.0
 10
95.18781600267874
 20
-145.3315253000387
 30
0.0
 10
94.95509980265012
 20
-145.3315253000387
 30
0.0
 10
94.69912920809605
 20
-145.3315253000387
 30
0.0
 10
94.62936602451974
 20
-145.5237616281156
 30
0.0
 10
94.62936602451974
 20
-145.6526081992639
 30
0.0
 10
94.62936602451974
 20
-145.6865423897937
 30
0.0
 10
94.62936602451974
 20
-145.8379543363704
 30
0.0
 10
94.75838485044235
 20
-145.932866716989
 30
0.0
 10
94.75838485044235
 20
-145.932866716989
 30
0.0
 10
94.73926457049922
 20
-146.1206244209351
 30
0.0
 10
94.73926457049922
 20
-146.1206244209351
 30
0.0
 10
94.73926457049922
 20
-146.1206244209351
 30
0.0
 10
93.89314911932186
 20
-145.9917778497868
 30
0.0
 10
93.89314911932186
 20
-145.9917778497868
 30
0.0
 10
93.89314911932186
 20
-145.9917778497868
 30
0.0
 10
93.89314911932186
 20
-145.159787290099
 30
0.0
 10
93.89314911932186
 20
-145.159787290099
 30
0.0
 10
93.89314911932186
 20
-145.159787290099
 30
0.0
 10
94.08779701423848
 20
-145.159787290099
 30
0.0
 10
94.08779701423848
 20
-145.159787290099
 30
0.0
 10
94.08779701423848
 20
-145.159787290099
 30
0.0
 10
94.08779701423848
 20
-145.8176282730074
 30
0.0
 10
94.08779701423848
 20
-145.8176282730074
 30
0.0
 10
94.08779701423848
 20
-145.8176282730074
 30
0.0
 10
94.51085473982715
 20
-145.8877359661322
 30
0.0
 10
94.51085473982715
 20
-145.8877359661322
 30
0.0
 10
94.47692054929745
 20
-145.8221068971382
 30
0.0
 10
94.43678518689428
 20
-145.7339124527158
 30
0.0
 10
94.43678518689428
 20
-145.6073051936329
 30
0.0
 10
94.43678518689428
 20
-145.3360039241695
 30
0.0
 10
94.62299259787203
 20
-145.0827894060036
 30
0.0
 10
94.93597952270699
 20
-145.0827894060036
 30
0.0
 10
95.25344507167276
 20
-145.0827894060036
 30
0.0
 10
95.48822832899253
 20
-145.3223957970027
 30
0.0
 10
95.48822832899253
 20
-145.6457180082934
 30
0.0
  0
HATCH
  5
71
330
6A
100
AcDbEntity
  8
_U+30EC_U+30A4_U+30E4_U+30FC 1
 62
   179
420
  2234388
100
AcDbHatch
 10
0.0
 20
0.0
 30
0.0
210
0.0
220
0.0
230
1.0
  2
SOLID
 70
     1
 71
     0
 91
        1
 92
        1
 93
        1
 72
     4
 94
        3
 73
     0
 74
     1
 95
       53
 96
       49
 40
0.0
 40
0.0
 40
0.0
 40
0.0
 40
1.0
 40
1.0
 40
1.0
 40
2.0
 40
2.0
 40
2.0
 40
3.0
 40
3.0
 40
3.0
 40
4.0
 40
4.0
 40
4.0
 40
5.0
 40
5.0
 40
5.0
 40
6.0
 40
6.0
 40
6.0
 40
7.0
 40
7.0
 40
7.0
 40
8.0
 40
8.0
 40
8.0
 40
9.0
 40
9.0
 40
9.0
 40
10.0
 40
10.0
 40
10.0
 40
11.0
 40
11.0
 40
11.0
 40
12.0
 40
12.0
 40
12.0
 40
13.0
 40
13.0
 40
13.0
 40
14.0
 40
14.0
 40
14.0
 40
15.0
 40
15.0
 40
15.0
 40
16.0
 40
16.0
 40
16.0
 40
16.0
 10
95.48822832899253
 20
-145.6457180082934
 10
95.48822832899253
 20
-145.729433828585
 10
95.47117510634054
 20
-145.8379543363704
 10
95.40778534941195
 20
-145.9464748441557
 10
95.29771454865822
 20
-146.1318209812622
 10
95.16662866544446
 20
-146.1543863566906
 10
95.05879717675614
 20
-146.1748846748278
 10
95.05879717675614
 20
-146.1748846748278
 10
95.05879717675614
 20
-145.9373453411199
 10
95.05879717675614
 20
-145.9373453411199
 10
95.25757918625506
 20
-145.8786064630963
 10
95.28720700742821
 20
-145.7430419557517
 10
95.28720700742821
 20
-145.643478696228
 10
95.28720700742821
 20
-145.4943060617167
 10
95.18781600267874
 20
-145.3315253000387
 10
94.95509980265012
 20
-145.3315253000387
 10
94.69912920809605
 20
-145.3315253000387
 10
94.62936602451974
 20
-145.5237616281156
 10
94.62936602451974
 20
-145.6526081992639
 10
94.62936602451974
 20
-145.6865423897937
 10
94.62936602451974
 20
-145.8379543363704
 10
94.75838485044235
 20
-145.932866716989
 10
94.75838485044235
 20
-145.932866716989
 10
94.73926457049922
 20
-146.1206244209351
 10
94.73926457049922
 20
-146.1206244209351
 10
94.73926457049922
 20
-146.1206244209351
 10
93.89314911932186
 20
-145.9917778497868
 10
93.89314911932186
 20
-145.9917778497868
 10
93.89314911932186
 20
-145.9917778497868
 10
93.89314911932186
 20
-145.159787290099
 10
93.89314911932186
 20
-145.159787290099
 10
93.89314911932186
 20
-145.159787290099
 10
94.08779701423848
 20
-145.159787290099
 10
94.08779701423848
 20
-145.159787290099
 10
94.08779701423848
 20
-145.159787290099
 10
94.08779701423848
 20
-145.8176282730074
 10
94.08779701423848
 20
-145.8176282730074
 10
94.08779701423848
 20
-145.8176282730074
 10
94.51085473982715
 20
-145.8877359661322
 10
94.51085473982715
 20
-145.8877359661322
 10
94.47692054929745
 20
-145.8221068971382
 10
94.43678518689428
 20
-145.7339124527158
 10
94.43678518689428
 20
-145.6073051936329
 10
94.43678518689428
 20
-145.3360039241695
 10
94.62299259787203
 20
-145.0827894060036
 10
94.93597952270699
 20
-145.0827894060036
 10
95.25344507167276
 20
-145.0827894060036
 10
95.48822832899253
 20
-145.3223957970027
 10
95.48822832899253
 20
-145.6457180082934
 97
        0
 97
        0
 75
     2
 76
     1
 98
        0
  0
ENDBLK
  5
6D
330
6A
100
AcDbEntity
  8
0
100
AcDbBlockEnd
  0
BLOCK
  5
80
330
7E
100
AcDbEntity
  8
0
100
AcDbBlockBegin
  2
block 3
 70
     0
 10
0.0
 20
0.0
 30
0.0
  3
block 3
  1

  0
SPLINE
  5
82
330
7E
100
AcDbEntity
  8
_U+30EC_U+30A4_U+30E4_U+30FC 1
370
     0
100
AcDbSpline
210
0.0
220
0.0
230
1.0
 70
    11
 71
     3
 72
    26
 73
    22
 74
     0
 42
0.0000000001
 43
0.0000000001
 12
1.0
 22
0.0
 32
0.0
 13
1.0
 23
0.0
 33
0.0
 40
0.0
 40
0.0
 40
0.0
 40
0.0
 40
1.0
 40
1.0
 40
1.0
 40
2.0
 40
2.0
 40
2.0
 40
3.0
 40
3.0
 40
3.0
 40
4.0
 40
4.0
 40
4.0
 40
5.0
 40
5.0
 40
5.0
 40
6.0
 40
6.0
 40
6.0
 40
7.0
 40
7.0
 40
7.0
 40
7.0
 10
106.9743489315897
 20
-157.046744752405
 30
0.0
 10
106.9743489315897
 20
-157.046744752405
 30
0.0
 10
106.9743489315897
 20
-155.9422471398339
 30
0.0
 10
106.9743489315897
 20
-155.9422471398339
 30
0.0
 10
106.9743489315897
 20
-155.9422471398339
 30
0.0
 10
106.6215711539002
 20
-155.9422471398339
 30
0.0
 10
106.6215711539002
 20
-155.9422471398339
 30
0.0
 10
106.6215711539002
 20
-155.9422471398339
 30
0.0
 10
106.6215711539002
 20
-155.7941080339681
 30
0.0
 10
106.6215711539002
 20
-155.7941080339681
 30
0.0
 10
106.9767604984294
 20
-155.7796386329301
 30
0.0
 10
107.0267143829656
 20
-155.6166856164778
 30
0.0
 10
107.0580647518813
 20
-155.5023084463675
 30
0.0
 10
107.0580647518813
 20
-155.5023084463675
 30
0.0
 10
107.2141275773631
 20
-155.5023084463675
 30
0.0
 10
107.2141275773631
 20
-155.5023084463675
 30
0.0
 10
107.2141275773631
 20
-155.5023084463675
 30
0.0
 10
107.2141275773631
 20
-157.046744752405
 30
0.0
 10
107.2141275773631
 20
-157.046744752405
 30
0.0
 10
107.2141275773631
 20
-157.046744752405
 30
0.0
 10
106.9743489315897
 20
-157.046744752405
 30
0.0
 10
106.9743489315897
 20
-157.046744752405
 30
0.0
  0
HATCH
  5
83
330
7E
100
AcDbEntity
  8
_U+30EC_U+30A4_U+30E4_U+30FC 1
 62
   179
420
  2234388
100
AcDbHatch
 10
0.0
 20
0.0
 30
0.0
210
0.0
220
0.0
230
1.0
  2
SOLID
 70
     1
 71
     0
 91
        1
 92
        1
 93
        1
 72
     4
 94
        3
 73
     0
 74
     1
 95
       26
 96
       22
 40
0.0
 40
0.0
 40
0.0
 40
0.0
 40
1.0
 40
1.0
 40
1.0
 40
2.0
 40
2.0
 40
2.0
 40
3.0
 40
3.0
 40
3.0
 40
4.0
 40
4.0
 40
4.0
 40
5.0
 40
5.0
 40
5.0
 40
6.0
 40
6.0
 40
6.0
 40
7.0
 40
7.0
 40
7.0
 40
7.0
 10
106.9743489315897
 20
-157.046744752405
 10
106.9743489315897
 20
-157.046744752405
 10
106.9743489315897
 20
-155.9422471398339
 10
106.9743489315897
 20
-155.9422471398339
 10
106.9743489315897
 20
-155.9422471398339
 10
106.6215711539002
 20
-155.9422471398339
 10
106.6215711539002
 20
-155.9422471398339
 10
106.6215711539002
 20
-155.9422471398339
 10
106.6215711539002
 20
-155.7941080339681
 10
106.6215711539002
 20
-155.7941080339681
 10
106.9767604984294
 20
-155.7796386329301
 10
107.0267143829656
 20
-155.6166856164778
 10
107.0580647518813
 20
-155.5023084463675
 10
107.0580647518813
 20
-155.5023084463675
 10
107.2141275773631
 20
-155.5023084463675
 10
107.2141275773631
 20
-155.5023084463675
 10
107.2141275773631
 20
-155.5023084463675
 10
107.2141275773631
 20
-157.046744752405
 10
107.2141275773631
 20
-157.046744752405
 10
107.2141275773631
 20
-157.046744752405
 10
106.9743489315897
 20
-157.046744752405
 10
106.9743489315897
 20
-157.046744752405
 97
        0
 97
        0
 75
     2
 76
     1
 98
        0
  0
SPLINE
  5
84
330
7E
100
AcDbEntity
  8
_U+30EC_U+30A4_U+30E4_U+30FC 1
370
     0
100
AcDbSpline
210
0.0
220
0.0
230
1.0
 70
    11
 71
     3
 72
    53
 73
    49
 74
     0
 42
0.0000000001
 43
0.0000000001
 12
1.0
 22
0.0
 32
0.0
 13
1.0
 23
0.0
 33
0.0
 40
0.0
 40
0.0
 40
0.0
 40
0.0
 40
1.0
 40
1.0
 40
1.0
 40
2.0
 40
2.0
 40
2.0
 40
3.0
 40
3.0
 40
3.0
 40
4.0
 40
4.0
 40
4.0
 40
5.0
 40
5.0
 40
5.0
 40
6.0
 40
6.0
 40
6.0
 40
7.0
 40
7.0
 40
7.0
 40
8.0
 40
8.0
 40
8.0
 40
9.0
 40
9.0
 40
9.0
 40
10.0
 40
10.0
 40
10.0
 40
11.0
 40
11.0
 40
11.0
 40
12.0
 40
12.0
 40
12.0
 40
13.0
 40
13.0
 40
13.0
 40
14.0
 40
14.0
 40
14.0
 40
15.0
 40
15.0
 40
15.0
 40
16.0
 40
16.0
 40
16.0
 40
16.0
 10
108.2641926812673
 20
-157.0973876560382
 30
0.0
 10
108.1801323514272
 20
-157.0973876560382
 30
0.0
 10
108.0719563531903
 20
-157.0805066881604
 30
0.0
 10
107.9630913358565
 20
-157.0171169312318
 30
0.0
 10
107.77774519875
 20
-156.9068738757038
 30
0.0
 10
107.7553520780959
 20
-156.7759602472644
 30
0.0
 10
107.7350260147329
 20
-156.668128758576
 30
0.0
 10
107.7350260147329
 20
-156.668128758576
 30
0.0
 10
107.9723930936666
 20
-156.668128758576
 30
0.0
 10
107.9723930936666
 20
-156.668128758576
 30
0.0
 10
108.0313042264644
 20
-156.8669107680749
 30
0.0
 10
108.1666964790347
 20
-156.8965385892481
 30
0.0
 10
108.2662597385584
 20
-156.8965385892481
 30
0.0
 10
108.4154323730698
 20
-156.8965385892481
 30
0.0
 10
108.5783853895221
 20
-156.7969753297244
 30
0.0
 10
108.5783853895221
 20
-156.56443138447
 30
0.0
 10
108.5783853895221
 20
-156.308460789916
 30
0.0
 10
108.3861490614451
 20
-156.2385253515654
 30
0.0
 10
108.2573024902968
 20
-156.2385253515654
 30
0.0
 10
108.2231960449928
 20
-156.2385253515654
 30
0.0
 10
108.0719563531903
 20
-156.2385253515654
 30
0.0
 10
107.9768717177975
 20
-156.3677164322623
 30
0.0
 10
107.9768717177975
 20
-156.3677164322623
 30
0.0
 10
107.7891140138513
 20
-156.3484238975448
 30
0.0
 10
107.7891140138513
 20
-156.3484238975448
 30
0.0
 10
107.7891140138513
 20
-156.3484238975448
 30
0.0
 10
107.9179605849997
 20
-155.5023084463675
 30
0.0
 10
107.9179605849997
 20
-155.5023084463675
 30
0.0
 10
107.9179605849997
 20
-155.5023084463675
 30
0.0
 10
108.7499511446875
 20
-155.5023084463675
 30
0.0
 10
108.7499511446875
 20
-155.5023084463675
 30
0.0
 10
108.7499511446875
 20
-155.5023084463675
 30
0.0
 10
108.7499511446875
 20
-155.6969563412841
 30
0.0
 10
108.7499511446875
 20
-155.6969563412841
 30
0.0
 10
108.7499511446875
 20
-155.6969563412841
 30
0.0
 10
108.0919379070048
 20
-155.6969563412841
 30
0.0
 10
108.0919379070048
 20
-155.6969563412841
 30
0.0
 10
108.0919379070048
 20
-155.6969563412841
 30
0.0
 10
108.0220024686542
 20
-156.1200140668728
 30
0.0
 10
108.0220024686542
 20
-156.1200140668728
 30
0.0
 10
108.0878037924225
 20
-156.0862521311173
 30
0.0
 10
108.1759982368449
 20
-156.0459445139399
 30
0.0
 10
108.3024332411536
 20
-156.0459445139399
 30
0.0
 10
108.5735622558427
 20
-156.0459445139399
 30
0.0
 10
108.8271212835571
 20
-156.2323241796919
 30
0.0
 10
108.8271212835571
 20
-156.5451388497526
 30
0.0
 10
108.8271212835571
 20
-156.8627766534927
 30
0.0
 10
108.5873426377837
 20
-157.0973876560382
 30
0.0
 10
108.2641926812673
 20
-157.0973876560382
 30
0.0
  0
HATCH
  5
85
330
7E
100
AcDbEntity
  8
_U+30EC_U+30A4_U+30E4_U+30FC 1
 62
   179
420
  2234388
100
AcDbHatch
 10
0.0
 20
0.0
 30
0.0
210
0.0
220
0.0
230
1.0
  2
SOLID
 70
     1
 71
     0
 91
        1
 92
        1
 93
        1
 72
     4
 94
        3
 73
     0
 74
     1
 95
       53
 96
       49
 40
0.0
 40
0.0
 40
0.0
 40
0.0
 40
1.0
 40
1.0
 40
1.0
 40
2.0
 40
2.0
 40
2.0
 40
3.0
 40
3.0
 40
3.0
 40
4.0
 40
4.0
 40
4.0
 40
5.0
 40
5.0
 40
5.0
 40
6.0
 40
6.0
 40
6.0
 40
7.0
 40
7.0
 40
7.0
 40
8.0
 40
8.0
 40
8.0
 40
9.0
 40
9.0
 40
9.0
 40
10.0
 40
10.0
 40
10.0
 40
11.0
 40
11.0
 40
11.0
 40
12.0
 40
12.0
 40
12.0
 40
13.0
 40
13.0
 40
13.0
 40
14.0
 40
14.0
 40
14.0
 40
15.0
 40
15.0
 40
15.0
 40
16.0
 40
16.0
 40
16.0
 40
16.0
 10
108.2641926812673
 20
-157.0973876560382
 10
108.1801323514272
 20
-157.0973876560382
 10
108.0719563531903
 20
-157.0805066881604
 10
107.9630913358565
 20
-157.0171169312318
 10
107.77774519875
 20
-156.9068738757038
 10
107.7553520780959
 20
-156.7759602472644
 10
107.7350260147329
 20
-156.668128758576
 10
107.7350260147329
 20
-156.668128758576
 10
107.9723930936666
 20
-156.668128758576
 10
107.9723930936666
 20
-156.668128758576
 10
108.0313042264644
 20
-156.8669107680749
 10
108.1666964790347
 20
-156.8965385892481
 10
108.2662597385584
 20
-156.8965385892481
 10
108.4154323730698
 20
-156.8965385892481
 10
108.5783853895221
 20
-156.7969753297244
 10
108.5783853895221
 20
-156.56443138447
 10
108.5783853895221
 20
-156.308460789916
 10
108.3861490614451
 20
-156.2385253515654
 10
108.2573024902968
 20
-156.2385253515654
 10
108.2231960449928
 20
-156.2385253515654
 10
108.0719563531903
 20
-156.2385253515654
 10
107.9768717177975
 20
-156.3677164322623
 10
107.9768717177975
 20
-156.3677164322623
 10
107.7891140138513
 20
-156.3484238975448
 10
107.7891140138513
 20
-156.3484238975448
 10
107.7891140138513
 20
-156.3484238975448
 10
107.9179605849997
 20
-155.5023084463675
 10
107.9179605849997
 20
-155.5023084463675
 10
107.9179605849997
 20
-155.5023084463675
 10
108.7499511446875
 20
-155.5023084463675
 10
108.7499511446875
 20
-155.5023084463675
 10
108.7499511446875
 20
-155.5023084463675
 10
108.7499511446875
 20
-155.6969563412841
 10
108.7499511446875
 20
-155.6969563412841
 10
108.7499511446875
 20
-155.6969563412841
 10
108.0919379070048
 20
-155.6969563412841
 10
108.0919379070048
 20
-155.6969563412841
 10
108.0919379070048
 20
-155.6969563412841
 10
108.0220024686542
 20
-156.1200140668728
 10
108.0220024686542
 20
-156.1200140668728
 10
108.0878037924225
 20
-156.0862521311173
 10
108.1759982368449
 20
-156.0459445139399
 10
108.3024332411536
 20
-156.0459445139399
 10
108.5735622558427
 20
-156.0459445139399
 10
108.8271212835571
 20
-156.2323241796919
 10
108.8271212835571
 20
-156.5451388497526
 10
108.8271212835571
 20
-156.8627766534927
 10
108.5873426377837
 20
-157.0973876560382
 10
108.2641926812673
 20
-157.0973876560382
 97
        0
 97
        0
 75
     2
 76
     1
 98
        0
  0
ENDBLK
  5
81
330
7E
100
AcDbEntity
  8
0
100
AcDbBlockEnd
  0
BLOCK
  5
AA
330
A8
100
AcDbEntity
  8
0
100
AcDbBlockBegin
  2
block 4
 70
     0
 10
0.0
 20
0.0
 30
0.0
  3
block 4
  1

  0
SPLINE
  5
AC
330
A8
100
AcDbEntity
  8
_U+30EC_U+30A4_U+30E4_U+30FC 1
370
     0
100
AcDbSpline
210
0.0
220
0.0
230
1.0
 70
    11
 71
     3
 72
   242
 73
   238
 74
     0
 42
0.0000000001
 43
0.0000000001
 12
1.0
 22
0.0
 32
0.0
 13
1.0
 23
0.0
 33
0.0
 40
0.0
 40
0.0
 40
0.0
 40
0.0
 40
1.0
 40
1.0
 40
1.0
 40
2.0
 40
2.0
 40
2.0
 40
3.0
 40
3.0
 40
3.0
 40
4.0
 40
4.0
 40
4.0
 40
5.0
 40
5.0
 40
5.0
 40
6.0
 40
6.0
 40
6.0
 40
7.0
 40
7.0
 40
7.0
 40
8.0
 40
8.0
 40
8.0
 40
9.0
 40
9.0
 40
9.0
 40
10.0
 40
10.0
 40
10.0
 40
11.0
 40
11.0
 40
11.0
 40
12.0
 40
12.0
 40
12.0
 40
13.0
 40
13.0
 40
13.0
 40
14.0
 40
14.0
 40
14.0
 40
15.0
 40
15.0
 40
15.0
 40
16.0
 40
16.0
 40
16.0
 40
17.0
 40
17.0
 40
17.0
 40
18.0
 40
18.0
 40
18.0
 40
19.0
 40
19.0
 40
19.0
 40
20.0
 40
20.0
 40
20.0
 40
21.0
 40
21.0
 40
21.0
 40
22.0
 40
22.0
 40
22.0
 40
23.0
 40
23.0
 40
23.0
 40
24.0
 40
24.0
 40
24.0
 40
25.0
 40
25.0
 40
25.0
 40
26.0
 40
26.0
 40
26.0
 40
27.0
 40
27.0
 40
27.0
 40
28.0
 40
28.0
 40
28.0
 40
29.0
 40
29.0
 40
29.0
 40
30.0
 40
30.0
 40
30.0
 40
31.0
 40
31.0
 40
31.0
 40
32.0
 40
32.0
 40
32.0
 40
33.0
 40
33.0
 40
33.0
 40
34.0
 40
34.0
 40
34.0
 40
35.0
 40
35.0
 40
35.0
 40
36.0
 40
36.0
 40
36.0
 40
37.0
 40
37.0
 40
37.0
 40
38.0
 40
38.0
 40
38.0
 40
39.0
 40
39.0
 40
39.0
 40
40.0
 40
40.0
 40
40.0
 40
41.0
 40
41.0
 40
41.0
 40
42.0
 40
42.0
 40
42.0
 40
43.0
 40
43.0
 40
43.0
 40
44.0
 40
44.0
 40
44.0
 40
45.0
 40
45.0
 40
45.0
 40
46.0
 40
46.0
 40
46.0
 40
47.0
 40
47.0
 40
47.0
 40
48.0
 40
48.0
 40
48.0
 40
49.0
 40
49.0
 40
49.0
 40
50.0
 40
50.0
 40
50.0
 40
51.0
 40
51.0
 40
51.0
 40
52.0
 40
52.0
 40
52.0
 40
53.0
 40
53.0
 40
53.0
 40
54.0
 40
54.0
 40
54.0
 40
55.0
 40
55.0
 40
55.0
 40
56.0
 40
56.0
 40
56.0
 40
57.0
 40
57.0
 40
57.0
 40
58.0
 40
58.0
 40
58.0
 40
59.0
 40
59.0
 40
59.0
 40
60.0
 40
60.0
 40
60.0
 40
61.0
 40
61.0
 40
61.0
 40
62.0
 40
62.0
 40
62.0
 40
63.0
 40
63.0
 40
63.0
 40
64.0
 40
64.0
 40
64.0
 40
65.0
 40
65.0
 40
65.0
 40
66.0
 40
66.0
 40
66.0
 40
67.0
 40
67.0
 40
67.0
 40
68.0
 40
68.0
 40
68.0
 40
69.0
 40
69.0
 40
69.0
 40
70.0
 40
70.0
 40
70.0
 40
71.0
 40
71.0
 40
71.0
 40
72.0
 40
72.0
 40
72.0
 40
73.0
 40
73.0
 40
73.0
 40
74.0
 40
74.0
 40
74.0
 40
75.0
 40
75.0
 40
75.0
 40
76.0
 40
76.0
 40
76.0
 40
77.0
 40
77.0
 40
77.0
 40
78.0
 40
78.0
 40
78.0
 40
79.0
 40
79.0
 40
79.0
 40
79.0
 10
107.9723930936666
 20
-142.3727050425318
 30
0.0
 10
107.9723930936666
 20
-142.3727050425318
 30
0.0
 10
107.750184434868
 20
-142.3727050425318
 30
0.0
 10
107.750184434868
 20
-142.3727050425318
 30
0.0
 10
107.750184434868
 20
-142.3727050425318
 30
0.0
 10
107.5076497127064
 20
-142.3727050425318
 30
0.0
 10
107.5076497127064
 20
-142.3727050425318
 30
0.0
 10
107.5076497127064
 20
-142.3727050425318
 30
0.0
 10
107.6185817873315
 20
-142.4150797170004
 30
0.0
 10
107.6185817873315
 20
-142.4150797170004
 30
0.0
 10
107.6278835451416
 20
-142.419386086357
 30
0.0
 10
107.639252360243
 20
-142.4255872582304
 30
0.0
 10
107.639252360243
 20
-142.4383341115258
 30
0.0
 10
107.639252360243
 20
-142.4595214487601
 30
0.0
 10
107.6113470868124
 20
-142.4658948754078
 30
0.0
 10
107.5927435711921
 20
-142.4700289899901
 30
0.0
 10
107.5834418133819
 20
-142.4932833845156
 30
0.0
 10
107.5576035972425
 20
-142.5589124535096
 30
0.0
 10
107.5407226293648
 20
-142.6033541852693
 30
0.0
 10
107.5407226293648
 20
-142.6033541852693
 30
0.0
 10
107.77774519875
 20
-142.6033541852693
 30
0.0
 10
107.77774519875
 20
-142.6033541852693
 30
0.0
 10
107.8576714140078
 20
-142.6033541852693
 30
0.0
 10
108.0299261882703
 20
-142.5990478159127
 30
0.0
 10
108.1539496257393
 20
-142.5906073319739
 30
0.0
 10
108.1539496257393
 20
-142.5906073319739
 30
0.0
 10
108.1539496257393
 20
-142.7683742590128
 30
0.0
 10
108.1539496257393
 20
-142.7683742590128
 30
0.0
 10
108.081602620549
 20
-142.7640678896562
 30
0.0
 10
108.0629991049287
 20
-142.7640678896562
 30
0.0
 10
107.9059027508013
 20
-142.7599337750739
 30
0.0
 10
107.8779974773708
 20
-142.9142740528131
 30
0.0
 10
107.8390678983875
 20
-142.9947170323937
 30
0.0
 10
107.8001383194041
 20
-143.06448021597
 30
0.0
 10
107.9059027508013
 20
-143.1237358583163
 30
0.0
 10
107.998231309806
 20
-143.1914319846015
 30
0.0
 10
108.0891818306166
 20
-143.2739420214732
 30
0.0
 10
108.0891818306166
 20
-143.2739420214732
 30
0.0
 10
107.9851399469621
 20
-143.4410291525078
 30
0.0
 10
107.9851399469621
 20
-143.4410291525078
 30
0.0
 10
107.9651583931476
 20
-143.4220811273389
 30
0.0
 10
107.9537895780463
 20
-143.4136406434001
 30
0.0
 10
107.8556043567167
 20
-143.3288912944629
 30
0.0
 10
107.8132296822481
 20
-143.2908229893509
 30
0.0
 10
107.7612087404208
 20
-143.2549939963043
 30
0.0
 10
107.6909287925217
 20
-143.2105522645446
 30
0.0
 10
107.5055826554153
 20
-143.3967596755223
 30
0.0
 10
107.3260931806338
 20
-143.4200140700478
 30
0.0
 10
107.0725341529194
 20
-143.4496418912209
 30
0.0
 10
107.0725341529194
 20
-143.4496418912209
 30
0.0
 10
106.9819281416573
 20
-143.2698079068909
 30
0.0
 10
106.9819281416573
 20
-143.2698079068909
 30
0.0
 10
107.2596028377684
 20
-143.2655015375343
 30
0.0
 10
107.4132540964106
 20
-143.2401800857178
 30
0.0
 10
107.5465792916898
 20
-143.130109284964
 30
0.0
 10
107.4428819175837
 20
-143.0792941265566
 30
0.0
 10
107.3650227596171
 20
-143.0519056174488
 30
0.0
 10
107.3333278811528
 20
-143.0391587641534
 30
0.0
 10
107.3167914228236
 20
-143.0667195280354
 30
0.0
 10
107.3037000599796
 20
-143.0856675532043
 30
0.0
 10
107.2799289011314
 20
-143.119601743734
 30
0.0
 10
107.2799289011314
 20
-143.119601743734
 30
0.0
 10
107.1076741268689
 20
-143.0370917068623
 30
0.0
 10
107.1076741268689
 20
-143.0370917068623
 30
0.0
 10
107.1796766225106
 20
-142.9566487272817
 30
0.0
 10
107.2334201120805
 20
-142.8613918371145
 30
0.0
 10
107.2837185061652
 20
-142.7599337750739
 30
0.0
 10
107.1169758846791
 20
-142.7640678896562
 30
0.0
 10
107.0983723690588
 20
-142.7640678896562
 30
0.0
 10
107.0260253638685
 20
-142.7683742590128
 30
0.0
 10
107.0260253638685
 20
-142.7683742590128
 30
0.0
 10
107.0260253638685
 20
-142.5906073319739
 30
0.0
 10
107.0260253638685
 20
-142.5906073319739
 30
0.0
 10
107.1483262535949
 20
-142.5969807586216
 30
0.0
 10
107.3316053334102
 20
-142.6012871279782
 30
0.0
 10
107.3539984540643
 20
-142.6012871279782
 30
0.0
 10
107.3688123646509
 20
-142.5673529374484
 30
0.0
 10
107.4166991918958
 20
-142.4467745954647
 30
0.0
 10
107.4335801597736
 20
-142.3727050425318
 30
0.0
 10
107.4166991918958
 20
-142.3727050425318
 30
0.0
 10
107.2613253855111
 20
-142.3790784691795
 30
0.0
 10
107.0907931589912
 20
-142.391825322475
 30
0.0
 10
107.0907931589912
 20
-142.391825322475
 30
0.0
 10
107.0907931589912
 20
-142.5251505177541
 30
0.0
 10
107.0907931589912
 20
-142.5251505177541
 30
0.0
 10
107.0484184845226
 20
-142.5504719695707
 30
0.0
 10
106.9963975426953
 20
-142.582166848035
 30
0.0
 10
106.8799533152939
 20
-142.647795917029
 30
0.0
 10
106.8799533152939
 20
-142.647795917029
 30
0.0
 10
106.8799533152939
 20
-142.7936957108294
 30
0.0
 10
106.8799533152939
 20
-142.7936957108294
 30
0.0
 10
106.8799533152939
 20
-142.7936957108294
 30
0.0
 10
106.8799533152939
 20
-143.261367422952
 30
0.0
 10
106.8799533152939
 20
-143.261367422952
 30
0.0
 10
106.8799533152939
 20
-143.3881469368092
 30
0.0
 10
106.8482584368296
 20
-143.4474025791555
 30
0.0
 10
106.6002115618916
 20
-143.4389620952167
 30
0.0
 10
106.6002115618916
 20
-143.4389620952167
 30
0.0
 10
106.5096055506295
 20
-143.2317396017789
 30
0.0
 10
106.5096055506295
 20
-143.2317396017789
 30
0.0
 10
106.5650715879421
 20
-143.2443142003
 30
0.0
 10
106.6077907719592
 20
-143.2486205696566
 30
0.0
 10
106.6429307459087
 20
-143.2486205696566
 30
0.0
 10
106.709421088774
 20
-143.2486205696566
 30
0.0
 10
106.7187228465842
 20
-143.2253661751312
 30
0.0
 10
106.7187228465842
 20
-143.1597371061372
 30
0.0
 10
106.7187228465842
 20
-143.1597371061372
 30
0.0
 10
106.7187228465842
 20
-142.7303059539008
 30
0.0
 10
106.7187228465842
 20
-142.7303059539008
 30
0.0
 10
106.6336289880985
 20
-142.7704413163039
 30
0.0
 10
106.618815077512
 20
-142.7768147429516
 30
0.0
 10
106.578162950786
 20
-142.7959350228948
 30
0.0
 10
106.5743733457522
 20
-142.8169501053548
 30
0.0
 10
106.5705837407185
 20
-142.8465779265279
 30
0.0
 10
106.5540472823893
 20
-142.8465779265279
 30
0.0
 10
106.5464680723217
 20
-142.8465779265279
 30
0.0
 10
106.5375108240601
 20
-142.8424438119457
 30
0.0
 10
106.5316541617351
 20
-142.8191894174202
 30
0.0
 10
106.5316541617351
 20
-142.8191894174202
 30
0.0
 10
106.4854898822328
 20
-142.6266085797947
 30
0.0
 10
106.4854898822328
 20
-142.6266085797947
 30
0.0
 10
106.6133029247356
 20
-142.5800997907439
 30
0.0
 10
106.6704915097907
 20
-142.5568453962184
 30
0.0
 10
106.7187228465842
 20
-142.5356580589842
 30
0.0
 10
106.7187228465842
 20
-142.5356580589842
 30
0.0
 10
106.7187228465842
 20
-142.1231078746255
 30
0.0
 10
106.7187228465842
 20
-142.1231078746255
 30
0.0
 10
106.7187228465842
 20
-142.1231078746255
 30
0.0
 10
106.6725585670819
 20
-142.1231078746255
 30
0.0
 10
106.6725585670819
 20
-142.1231078746255
 30
0.0
 10
106.6725585670819
 20
-142.1231078746255
 30
0.0
 10
106.6040011669254
 20
-142.1231078746255
 30
0.0
 10
106.6040011669254
 20
-142.1231078746255
 30
0.0
 10
106.5447455245791
 20
-142.1231078746255
 30
0.0
 10
106.5375108240601
 20
-142.1231078746255
 30
0.0
 10
106.5058159455958
 20
-142.1294813012732
 30
0.0
 10
106.5058159455958
 20
-142.1294813012732
 30
0.0
 10
106.5058159455958
 20
-141.9348334063566
 30
0.0
 10
106.5058159455958
 20
-141.9348334063566
 30
0.0
 10
106.5299316139925
 20
-141.9412068330043
 30
0.0
 10
106.5375108240601
 20
-141.9412068330043
 30
0.0
 10
106.598489014149
 20
-141.9412068330043
 30
0.0
 10
106.598489014149
 20
-141.9412068330043
 30
0.0
 10
106.715277751099
 20
-141.9412068330043
 30
0.0
 10
106.715277751099
 20
-141.9412068330043
 30
0.0
 10
106.715277751099
 20
-141.871443649428
 30
0.0
 10
106.715277751099
 20
-141.7889336125562
 30
0.0
 10
106.7132106938078
 20
-141.7846272431997
 30
0.0
 10
106.7056314837403
 20
-141.6047932588696
 30
0.0
 10
106.7056314837403
 20
-141.5858452337008
 30
0.0
 10
106.7039089359976
 20
-141.5393364446499
 30
0.0
 10
106.7039089359976
 20
-141.5393364446499
 30
0.0
 10
106.8930446781379
 20
-141.5477769285887
 30
0.0
 10
106.8930446781379
 20
-141.5477769285887
 30
0.0
 10
106.9020019263995
 20
-141.5477769285887
 30
0.0
 10
106.9206054420198
 20
-141.5498439858799
 30
0.0
 10
106.9206054420198
 20
-141.5667249537576
 30
0.0
 10
106.9206054420198
 20
-141.5858452337008
 30
0.0
 10
106.9075140791759
 20
-141.5963527749308
 30
0.0
 10
106.8854654680703
 20
-141.6154730548739
 30
0.0
 10
106.8854654680703
 20
-141.6661159585071
 30
0.0
 10
106.8799533152939
 20
-141.8946980439534
 30
0.0
 10
106.8816758630365
 20
-141.9412068330043
 30
0.0
 10
106.9946749949527
 20
-141.9412068330043
 30
0.0
 10
107.0056993005055
 20
-141.9412068330043
 30
0.0
 10
107.0907931589912
 20
-141.9327663490654
 30
0.0
 10
107.0907931589912
 20
-141.9327663490654
 30
0.0
 10
107.0907931589912
 20
-142.127414243982
 30
0.0
 10
107.0907931589912
 20
-142.127414243982
 30
0.0
 10
107.0577202423328
 20
-142.1251749319166
 30
0.0
 10
106.9984645999865
 20
-142.1210408173343
 30
0.0
 10
106.8799533152939
 20
-142.1231078746255
 30
0.0
 10
106.8799533152939
 20
-142.1231078746255
 30
0.0
 10
106.8799533152939
 20
-142.4615885060513
 30
0.0
 10
106.8799533152939
 20
-142.4615885060513
 30
0.0
 10
106.9281846520874
 20
-142.4383341115258
 30
0.0
 10
106.9853732371426
 20
-142.4107733476438
 30
0.0
 10
107.0280924211596
 20
-142.3875189531184
 30
0.0
 10
107.0280924211596
 20
-142.3875189531184
 30
0.0
 10
107.0280924211596
 20
-142.2099242808538
 30
0.0
 10
107.0280924211596
 20
-142.2099242808538
 30
0.0
 10
107.1280001902319
 20
-142.2224988793749
 30
0.0
 10
107.2316975643379
 20
-142.2224988793749
 30
0.0
 10
107.3333278811528
 20
-142.2224988793749
 30
0.0
 10
107.3133463273383
 20
-142.127414243982
 30
0.0
 10
107.2892306589416
 20
-142.0449042071103
 30
0.0
 10
107.2334201120805
 20
-141.9115790118312
 30
0.0
 10
107.1948350426457
 20
-141.9136460691223
 30
0.0
 10
107.1224880374555
 20
-141.9179524384789
 30
0.0
 10
107.0890706112486
 20
-141.92001949577
 30
0.0
 10
107.0890706112486
 20
-141.92001949577
 30
0.0
 10
107.0890706112486
 20
-141.74018551144
 30
0.0
 10
107.0890706112486
 20
-141.74018551144
 30
0.0
 10
107.198280138131
 20
-141.7486259953788
 30
0.0
 10
107.3502088490305
 20
-141.7529323647354
 30
0.0
 10
107.4222113446722
 20
-141.7529323647354
 30
0.0
 10
107.4222113446722
 20
-141.7529323647354
 30
0.0
 10
107.4945583498625
 20
-141.7529323647354
 30
0.0
 10
107.4945583498625
 20
-141.7529323647354
 30
0.0
 10
107.4945583498625
 20
-141.5899793482831
 30
0.0
 10
107.4945583498625
 20
-141.5794718070531
 30
0.0
 10
107.4928358021199
 20
-141.5245225340633
 30
0.0
 10
107.4928358021199
 20
-141.5245225340633
 30
0.0
 10
107.6888617352306
 20
-141.5498439858799
 30
0.0
 10
107.6888617352306
 20
-141.5498439858799
 30
0.0
 10
107.6929958498129
 20
-141.5498439858799
 30
0.0
 10
107.7112548558847
 20
-141.5519110431711
 30
0.0
 10
107.7112548558847
 20
-141.5687920110488
 30
0.0
 10
107.7112548558847
 20
-141.5836059216354
 30
0.0
 10
107.7019530980745
 20
-141.5922186603485
 30
0.0
 10
107.6778374296778
 20
-141.607032570935
 30
0.0
 10
107.6723252769014
 20
-141.6724893851548
 30
0.0
 10
107.6706027291587
 20
-141.6936767223891
 30
0.0
 10
107.6706027291587
 20
-141.7529323647354
 30
0.0
 10
107.6706027291587
 20
-141.7529323647354
 30
0.0
 10
107.7539740399018
 20
-141.7529323647354
 30
0.0
 10
107.7539740399018
 20
-141.7529323647354
 30
0.0
 10
107.8259765355435
 20
-141.7529323647354
 30
0.0
 10
107.977905246443
 20
-141.7486259953788
 30
0.0
 10
108.0871147733255
 20
-141.74018551144
 30
0.0
 10
108.0871147733255
 20
-141.74018551144
 30
0.0
 10
108.0871147733255
 20
-141.92001949577
 30
0.0
 10
108.0871147733255
 20
-141.92001949577
 30
0.0
 10
108.0612765571861
 20
-141.9179524384789
 30
0.0
 10
107.9575791830801
 20
-141.9136460691223
 30
0.0
 10
107.9224392091305
 20
-141.9115790118312
 30
0.0
 10
107.9093478462866
 20
-141.9623941702386
 30
0.0
 10
107.8797200251134
 20
-142.0745320282834
 30
0.0
 10
107.8225314400583
 20
-142.2140583954361
 30
0.0
 10
107.8593939617504
 20
-142.2140583954361
 30
0.0
 10
108.101928683912
 20
-142.1951103702672
 30
0.0
 10
108.1556721734819
 20
-142.1928710582018
 30
0.0
 10
108.1556721734819
 20
-142.1928710582018
 30
0.0
 10
108.1556721734819
 20
-142.3770114118884
 30
0.0
 10
108.1556721734819
 20
-142.3770114118884
 30
0.0
 10
108.1298339573425
 20
-142.3770114118884
 30
0.0
 10
108.115020046756
 20
-142.3727050425318
 30
0.0
 10
107.9723930936666
 20
-142.3727050425318
 30
0.0
  0
SPLINE
  5
AD
330
A8
100
AcDbEntity
  8
_U+30EC_U+30A4_U+30E4_U+30FC 1
370
     0
100
AcDbSpline
210
0.0
220
0.0
230
1.0
 70
    11
 71
     3
 72
    20
 73
    16
 74
     0
 42
0.0000000001
 43
0.0000000001
 12
1.0
 22
0.0
 32
0.0
 13
1.0
 23
0.0
 33
0.0
 40
0.0
 40
0.0
 40
0.0
 40
0.0
 40
1.0
 40
1.0
 40
1.0
 40
2.0
 40
2.0
 40
2.0
 40
3.0
 40
3.0
 40
3.0
 40
4.0
 40
4.0
 40
4.0
 40
5.0
 40
5.0
 40
5.0
 40
5.0
 10
107.4222113446722
 20
-141.9074448972488
 30
0.0
 10
107.4222113446722
 20
-141.9074448972488
 30
0.0
 10
107.3946505807902
 20
-141.9074448972488
 30
0.0
 10
107.3946505807902
 20
-141.9074448972488
 30
0.0
 10
107.4353027075162
 20
-142.0068359019983
 30
0.0
 10
107.4632079809467
 20
-142.0871066268046
 30
0.0
 10
107.4928358021199
 20
-142.2140583954361
 30
0.0
 10
107.4928358021199
 20
-142.2140583954361
 30
0.0
 10
107.6743923341925
 20
-142.2140583954361
 30
0.0
 10
107.6743923341925
 20
-142.2140583954361
 30
0.0
 10
107.7019530980745
 20
-142.1210408173343
 30
0.0
 10
107.722623670986
 20
-142.0364637231714
 30
0.0
 10
107.7426052248005
 20
-141.9074448972488
 30
0.0
 10
107.7426052248005
 20
-141.9074448972488
 30
0.0
 10
107.4222113446722
 20
-141.9074448972488
 30
0.0
 10
107.4222113446722
 20
-141.9074448972488
 30
0.0
  0
SPLINE
  5
AE
330
A8
100
AcDbEntity
  8
_U+30EC_U+30A4_U+30E4_U+30FC 1
370
     0
100
AcDbSpline
210
0.0
220
0.0
230
1.0
 70
    11
 71
     3
 72
    17
 73
    13
 74
     0
 42
0.0000000001
 43
0.0000000001
 12
1.0
 22
0.0
 32
0.0
 13
1.0
 23
0.0
 33
0.0
 40
0.0
 40
0.0
 40
0.0
 40
0.0
 40
1.0
 40
1.0
 40
1.0
 40
2.0
 40
2.0
 40
2.0
 40
3.0
 40
3.0
 40
3.0
 40
4.0
 40
4.0
 40
4.0
 40
4.0
 10
107.4780218915333
 20
-142.7578667177828
 30
0.0
 10
107.4632079809467
 20
-142.7873222841816
 30
0.0
 10
107.418766249187
 20
-142.8805121170577
 30
0.0
 10
107.4094644913768
 20
-142.8994601422265
 30
0.0
 10
107.5762071128629
 20
-142.9587157845728
 30
0.0
 10
107.5944661189347
 20
-142.9650892112205
 30
0.0
 10
107.6575113663148
 20
-142.9926499751026
 30
0.0
 10
107.7057427031083
 20
-142.9058335688742
 30
0.0
 10
107.7260687664713
 20
-142.8317640159414
 30
0.0
 10
107.7391601293152
 20
-142.7578667177828
 30
0.0
 10
107.7391601293152
 20
-142.7578667177828
 30
0.0
 10
107.4780218915333
 20
-142.7578667177828
 30
0.0
 10
107.4780218915333
 20
-142.7578667177828
 30
0.0
  0
HATCH
  5
AF
330
A8
100
AcDbEntity
  8
_U+30EC_U+30A4_U+30E4_U+30FC 1
 62
   179
420
  2234388
100
AcDbHatch
 10
0.0
 20
0.0
 30
0.0
210
0.0
220
0.0
230
1.0
  2
SOLID
 70
     1
 71
     0
 91
        3
 92
        1
 93
        1
 72
     4
 94
        3
 73
     0
 74
     1
 95
      242
 96
      238
 40
0.0
 40
0.0
 40
0.0
 40
0.0
 40
1.0
 40
1.0
 40
1.0
 40
2.0
 40
2.0
 40
2.0
 40
3.0
 40
3.0
 40
3.0
 40
4.0
 40
4.0
 40
4.0
 40
5.0
 40
5.0
 40
5.0
 40
6.0
 40
6.0
 40
6.0
 40
7.0
 40
7.0
 40
7.0
 40
8.0
 40
8.0
 40
8.0
 40
9.0
 40
9.0
 40
9.0
 40
10.0
 40
10.0
 40
10.0
 40
11.0
 40
11.0
 40
11.0
 40
12.0
 40
12.0
 40
12.0
 40
13.0
 40
13.0
 40
13.0
 40
14.0
 40
14.0
 40
14.0
 40
15.0
 40
15.0
 40
15.0
 40
16.0
 40
16.0
 40
16.0
 40
17.0
 40
17.0
 40
17.0
 40
18.0
 40
18.0
 40
18.0
 40
19.0
 40
19.0
 40
19.0
 40
20.0
 40
20.0
 40
20.0
 40
21.0
 40
21.0
 40
21.0
 40
22.0
 40
22.0
 40
22.0
 40
23.0
 40
23.0
 40
23.0
 40
24.0
 40
24.0
 40
24.0
 40
25.0
 40
25.0
 40
25.0
 40
26.0
 40
26.0
 40
26.0
 40
27.0
 40
27.0
 40
27.0
 40
28.0
 40
28.0
 40
28.0
 40
29.0
 40
29.0
 40
29.0
 40
30.0
 40
30.0
 40
30.0
 40
31.0
 40
31.0
 40
31.0
 40
32.0
 40
32.0
 40
32.0
 40
33.0
 40
33.0
 40
33.0
 40
34.0
 40
34.0
 40
34.0
 40
35.0
 40
35.0
 40
35.0
 40
36.0
 40
36.0
 40
36.0
 40
37.0
 40
37.0
 40
37.0
 40
38.0
 40
38.0
 40
38.0
 40
39.0
 40
39.0
 40
39.0
 40
40.0
 40
40.0
 40
40.0
 40
41.0
 40
41.0
 40
41.0
 40
42.0
 40
42.0
 40
42.0
 40
43.0
 40
43.0
 40
43.0
 40
44.0
 40
44.0
 40
44.0
 40
45.0
 40
45.0
 40
45.0
 40
46.0
 40
46.0
 40
46.0
 40
47.0
 40
47.0
 40
47.0
 40
48.0
 40
48.0
 40
48.0
 40
49.0
 40
49.0
 40
49.0
 40
50.0
 40
50.0
 40
50.0
 40
51.0
 40
51.0
 40
51.0
 40
52.0
 40
52.0
 40
52.0
 40
53.0
 40
53.0
 40
53.0
 40
54.0
 40
54.0
 40
54.0
 40
55.0
 40
55.0
 40
55.0
 40
56.0
 40
56.0
 40
56.0
 40
57.0
 40
57.0
 40
57.0
 40
58.0
 40
58.0
 40
58.0
 40
59.0
 40
59.0
 40
59.0
 40
60.0
 40
60.0
 40
60.0
 40
61.0
 40
61.0
 40
61.0
 40
62.0
 40
62.0
 40
62.0
 40
63.0
 40
63.0
 40
63.0
 40
64.0
 40
64.0
 40
64.0
 40
65.0
 40
65.0
 40
65.0
 40
66.0
 40
66.0
 40
66.0
 40
67.0
 40
67.0
 40
67.0
 40
68.0
 40
68.0
 40
68.0
 40
69.0
 40
69.0
 40
69.0
 40
70.0
 40
70.0
 40
70.0
 40
71.0
 40
71.0
 40
71.0
 40
72.0
 40
72.0
 40
72.0
 40
73.0
 40
73.0
 40
73.0
 40
74.0
 40
74.0
 40
74.0
 40
75.0
 40
75.0
 40
75.0
 40
76.0
 40
76.0
 40
76.0
 40
77.0
 40
77.0
 40
77.0
 40
78.0
 40
78.0
 40
78.0
 40
79.0
 40
79.0
 40
79.0
 40
79.0
 10
107.9723930936666
 20
-142.3727050425318
 10
107.9723930936666
 20
-142.3727050425318
 10
107.750184434868
 20
-142.3727050425318
 10
107.750184434868
 20
-142.3727050425318
 10
107.750184434868
 20
-142.3727050425318
 10
107.5076497127064
 20
-142.3727050425318
 10
107.5076497127064
 20
-142.3727050425318
 10
107.5076497127064
 20
-142.3727050425318
 10
107.6185817873315
 20
-142.4150797170004
 10
107.6185817873315
 20
-142.4150797170004
 10
107.6278835451416
 20
-142.419386086357
 10
107.639252360243
 20
-142.4255872582304
 10
107.639252360243
 20
-142.4383341115258
 10
107.639252360243
 20
-142.4595214487601
 10
107.6113470868124
 20
-142.4658948754078
 10
107.5927435711921
 20
-142.4700289899901
 10
107.5834418133819
 20
-142.4932833845156
 10
107.5576035972425
 20
-142.5589124535096
 10
107.5407226293648
 20
-142.6033541852693
 10
107.5407226293648
 20
-142.6033541852693
 10
107.77774519875
 20
-142.6033541852693
 10
107.77774519875
 20
-142.6033541852693
 10
107.8576714140078
 20
-142.6033541852693
 10
108.0299261882703
 20
-142.5990478159127
 10
108.1539496257393
 20
-142.5906073319739
 10
108.1539496257393
 20
-142.5906073319739
 10
108.1539496257393
 20
-142.7683742590128
 10
108.1539496257393
 20
-142.7683742590128
 10
108.081602620549
 20
-142.7640678896562
 10
108.0629991049287
 20
-142.7640678896562
 10
107.9059027508013
 20
-142.7599337750739
 10
107.8779974773708
 20
-142.9142740528131
 10
107.8390678983875
 20
-142.9947170323937
 10
107.8001383194041
 20
-143.06448021597
 10
107.9059027508013
 20
-143.1237358583163
 10
107.998231309806
 20
-143.1914319846015
 10
108.0891818306166
 20
-143.2739420214732
 10
108.0891818306166
 20
-143.2739420214732
 10
107.9851399469621
 20
-143.4410291525078
 10
107.9851399469621
 20
-143.4410291525078
 10
107.9651583931476
 20
-143.4220811273389
 10
107.9537895780463
 20
-143.4136406434001
 10
107.8556043567167
 20
-143.3288912944629
 10
107.8132296822481
 20
-143.2908229893509
 10
107.7612087404208
 20
-143.2549939963043
 10
107.6909287925217
 20
-143.2105522645446
 10
107.5055826554153
 20
-143.3967596755223
 10
107.3260931806338
 20
-143.4200140700478
 10
107.0725341529194
 20
-143.4496418912209
 10
107.0725341529194
 20
-143.4496418912209
 10
106.9819281416573
 20
-143.2698079068909
 10
106.9819281416573
 20
-143.2698079068909
 10
107.2596028377684
 20
-143.2655015375343
 10
107.4132540964106
 20
-143.2401800857178
 10
107.5465792916898
 20
-143.130109284964
 10
107.4428819175837
 20
-143.0792941265566
 10
107.3650227596171
 20
-143.0519056174488
 10
107.3333278811528
 20
-143.0391587641534
 10
107.3167914228236
 20
-143.0667195280354
 10
107.3037000599796
 20
-143.0856675532043
 10
107.2799289011314
 20
-143.119601743734
 10
107.2799289011314
 20
-143.119601743734
 10
107.1076741268689
 20
-143.0370917068623
 10
107.1076741268689
 20
-143.0370917068623
 10
107.1796766225106
 20
-142.9566487272817
 10
107.2334201120805
 20
-142.8613918371145
 10
107.2837185061652
 20
-142.7599337750739
 10
107.1169758846791
 20
-142.7640678896562
 10
107.0983723690588
 20
-142.7640678896562
 10
107.0260253638685
 20
-142.7683742590128
 10
107.0260253638685
 20
-142.7683742590128
 10
107.0260253638685
 20
-142.5906073319739
 10
107.0260253638685
 20
-142.5906073319739
 10
107.1483262535949
 20
-142.5969807586216
 10
107.3316053334102
 20
-142.6012871279782
 10
107.3539984540643
 20
-142.6012871279782
 10
107.3688123646509
 20
-142.5673529374484
 10
107.4166991918958
 20
-142.4467745954647
 10
107.4335801597736
 20
-142.3727050425318
 10
107.4166991918958
 20
-142.3727050425318
 10
107.2613253855111
 20
-142.3790784691795
 10
107.0907931589912
 20
-142.391825322475
 10
107.0907931589912
 20
-142.391825322475
 10
107.0907931589912
 20
-142.5251505177541
 10
107.0907931589912
 20
-142.5251505177541
 10
107.0484184845226
 20
-142.5504719695707
 10
106.9963975426953
 20
-142.582166848035
 10
106.8799533152939
 20
-142.647795917029
 10
106.8799533152939
 20
-142.647795917029
 10
106.8799533152939
 20
-142.7936957108294
 10
106.8799533152939
 20
-142.7936957108294
 10
106.8799533152939
 20
-142.7936957108294
 10
106.8799533152939
 20
-143.261367422952
 10
106.8799533152939
 20
-143.261367422952
 10
106.8799533152939
 20
-143.3881469368092
 10
106.8482584368296
 20
-143.4474025791555
 10
106.6002115618916
 20
-143.4389620952167
 10
106.6002115618916
 20
-143.4389620952167
 10
106.5096055506295
 20
-143.2317396017789
 10
106.5096055506295
 20
-143.2317396017789
 10
106.5650715879421
 20
-143.2443142003
 10
106.6077907719592
 20
-143.2486205696566
 10
106.6429307459087
 20
-143.2486205696566
 10
106.709421088774
 20
-143.2486205696566
 10
106.7187228465842
 20
-143.2253661751312
 10
106.7187228465842
 20
-143.1597371061372
 10
106.7187228465842
 20
-143.1597371061372
 10
106.7187228465842
 20
-142.7303059539008
 10
106.7187228465842
 20
-142.7303059539008
 10
106.6336289880985
 20
-142.7704413163039
 10
106.618815077512
 20
-142.7768147429516
 10
106.578162950786
 20
-142.7959350228948
 10
106.5743733457522
 20
-142.8169501053548
 10
106.5705837407185
 20
-142.8465779265279
 10
106.5540472823893
 20
-142.8465779265279
 10
106.5464680723217
 20
-142.8465779265279
 10
106.5375108240601
 20
-142.8424438119457
 10
106.5316541617351
 20
-142.8191894174202
 10
106.5316541617351
 20
-142.8191894174202
 10
106.4854898822328
 20
-142.6266085797947
 10
106.4854898822328
 20
-142.6266085797947
 10
106.6133029247356
 20
-142.5800997907439
 10
106.6704915097907
 20
-142.5568453962184
 10
106.7187228465842
 20
-142.5356580589842
 10
106.7187228465842
 20
-142.5356580589842
 10
106.7187228465842
 20
-142.1231078746255
 10
106.7187228465842
 20
-142.1231078746255
 10
106.7187228465842
 20
-142.1231078746255
 10
106.6725585670819
 20
-142.1231078746255
 10
106.6725585670819
 20
-142.1231078746255
 10
106.6725585670819
 20
-142.1231078746255
 10
106.6040011669254
 20
-142.1231078746255
 10
106.6040011669254
 20
-142.1231078746255
 10
106.5447455245791
 20
-142.1231078746255
 10
106.5375108240601
 20
-142.1231078746255
 10
106.5058159455958
 20
-142.1294813012732
 10
106.5058159455958
 20
-142.1294813012732
 10
106.5058159455958
 20
-141.9348334063566
 10
106.5058159455958
 20
-141.9348334063566
 10
106.5299316139925
 20
-141.9412068330043
 10
106.5375108240601
 20
-141.9412068330043
 10
106.598489014149
 20
-141.9412068330043
 10
106.598489014149
 20
-141.9412068330043
 10
106.715277751099
 20
-141.9412068330043
 10
106.715277751099
 20
-141.9412068330043
 10
106.715277751099
 20
-141.871443649428
 10
106.715277751099
 20
-141.7889336125562
 10
106.7132106938078
 20
-141.7846272431997
 10
106.7056314837403
 20
-141.6047932588696
 10
106.7056314837403
 20
-141.5858452337008
 10
106.7039089359976
 20
-141.5393364446499
 10
106.7039089359976
 20
-141.5393364446499
 10
106.8930446781379
 20
-141.5477769285887
 10
106.8930446781379
 20
-141.5477769285887
 10
106.9020019263995
 20
-141.5477769285887
 10
106.9206054420198
 20
-141.5498439858799
 10
106.9206054420198
 20
-141.5667249537576
 10
106.9206054420198
 20
-141.5858452337008
 10
106.9075140791759
 20
-141.5963527749308
 10
106.8854654680703
 20
-141.6154730548739
 10
106.8854654680703
 20
-141.6661159585071
 10
106.8799533152939
 20
-141.8946980439534
 10
106.8816758630365
 20
-141.9412068330043
 10
106.9946749949527
 20
-141.9412068330043
 10
107.0056993005055
 20
-141.9412068330043
 10
107.0907931589912
 20
-141.9327663490654
 10
107.0907931589912
 20
-141.9327663490654
 10
107.0907931589912
 20
-142.127414243982
 10
107.0907931589912
 20
-142.127414243982
 10
107.0577202423328
 20
-142.1251749319166
 10
106.9984645999865
 20
-142.1210408173343
 10
106.8799533152939
 20
-142.1231078746255
 10
106.8799533152939
 20
-142.1231078746255
 10
106.8799533152939
 20
-142.4615885060513
 10
106.8799533152939
 20
-142.4615885060513
 10
106.9281846520874
 20
-142.4383341115258
 10
106.9853732371426
 20
-142.4107733476438
 10
107.0280924211596
 20
-142.3875189531184
 10
107.0280924211596
 20
-142.3875189531184
 10
107.0280924211596
 20
-142.2099242808538
 10
107.0280924211596
 20
-142.2099242808538
 10
107.1280001902319
 20
-142.2224988793749
 10
107.2316975643379
 20
-142.2224988793749
 10
107.3333278811528
 20
-142.2224988793749
 10
107.3133463273383
 20
-142.127414243982
 10
107.2892306589416
 20
-142.0449042071103
 10
107.2334201120805
 20
-141.9115790118312
 10
107.1948350426457
 20
-141.9136460691223
 10
107.1224880374555
 20
-141.9179524384789
 10
107.0890706112486
 20
-141.92001949577
 10
107.0890706112486
 20
-141.92001949577
 10
107.0890706112486
 20
-141.74018551144
 10
107.0890706112486
 20
-141.74018551144
 10
107.198280138131
 20
-141.7486259953788
 10
107.3502088490305
 20
-141.7529323647354
 10
107.4222113446722
 20
-141.7529323647354
 10
107.4222113446722
 20
-141.7529323647354
 10
107.4945583498625
 20
-141.7529323647354
 10
107.4945583498625
 20
-141.7529323647354
 10
107.4945583498625
 20
-141.5899793482831
 10
107.4945583498625
 20
-141.5794718070531
 10
107.4928358021199
 20
-141.5245225340633
 10
107.4928358021199
 20
-141.5245225340633
 10
107.6888617352306
 20
-141.5498439858799
 10
107.6888617352306
 20
-141.5498439858799
 10
107.6929958498129
 20
-141.5498439858799
 10
107.7112548558847
 20
-141.5519110431711
 10
107.7112548558847
 20
-141.5687920110488
 10
107.7112548558847
 20
-141.5836059216354
 10
107.7019530980745
 20
-141.5922186603485
 10
107.6778374296778
 20
-141.607032570935
 10
107.6723252769014
 20
-141.6724893851548
 10
107.6706027291587
 20
-141.6936767223891
 10
107.6706027291587
 20
-141.7529323647354
 10
107.6706027291587
 20
-141.7529323647354
 10
107.7539740399018
 20
-141.7529323647354
 10
107.7539740399018
 20
-141.7529323647354
 10
107.8259765355435
 20
-141.7529323647354
 10
107.977905246443
 20
-141.7486259953788
 10
108.0871147733255
 20
-141.74018551144
 10
108.0871147733255
 20
-141.74018551144
 10
108.0871147733255
 20
-141.92001949577
 10
108.0871147733255
 20
-141.92001949577
 10
108.0612765571861
 20
-141.9179524384789
 10
107.9575791830801
 20
-141.9136460691223
 10
107.9224392091305
 20
-141.9115790118312
 10
107.9093478462866
 20
-141.9623941702386
 10
107.8797200251134
 20
-142.0745320282834
 10
107.8225314400583
 20
-142.2140583954361
 10
107.8593939617504
 20
-142.2140583954361
 10
108.101928683912
 20
-142.1951103702672
 10
108.1556721734819
 20
-142.1928710582018
 10
108.1556721734819
 20
-142.1928710582018
 10
108.1556721734819
 20
-142.3770114118884
 10
108.1556721734819
 20
-142.3770114118884
 10
108.1298339573425
 20
-142.3770114118884
 10
108.115020046756
 20
-142.3727050425318
 10
107.9723930936666
 20
-142.3727050425318
 97
        0
 97
        0
 92
        1
 93
        1
 72
     4
 94
        3
 73
     0
 74
     1
 95
       20
 96
       16
 40
0.0
 40
0.0
 40
0.0
 40
0.0
 40
1.0
 40
1.0
 40
1.0
 40
2.0
 40
2.0
 40
2.0
 40
3.0
 40
3.0
 40
3.0
 40
4.0
 40
4.0
 40
4.0
 40
5.0
 40
5.0
 40
5.0
 40
5.0
 10
107.4222113446722
 20
-141.9074448972488
 10
107.4222113446722
 20
-141.9074448972488
 10
107.3946505807902
 20
-141.9074448972488
 10
107.3946505807902
 20
-141.9074448972488
 10
107.4353027075162
 20
-142.0068359019983
 10
107.4632079809467
 20
-142.0871066268046
 10
107.4928358021199
 20
-142.2140583954361
 10
107.4928358021199
 20
-142.2140583954361
 10
107.6743923341925
 20
-142.2140583954361
 10
107.6743923341925
 20
-142.2140583954361
 10
107.7019530980745
 20
-142.1210408173343
 10
107.722623670986
 20
-142.0364637231714
 10
107.7426052248005
 20
-141.9074448972488
 10
107.7426052248005
 20
-141.9074448972488
 10
107.4222113446722
 20
-141.9074448972488
 10
107.4222113446722
 20
-141.9074448972488
 97
        0
 97
        0
 92
        1
 93
        1
 72
     4
 94
        3
 73
     0
 74
     1
 95
       17
 96
       13
 40
0.0
 40
0.0
 40
0.0
 40
0.0
 40
1.0
 40
1.0
 40
1.0
 40
2.0
 40
2.0
 40
2.0
 40
3.0
 40
3.0
 40
3.0
 40
4.0
 40
4.0
 40
4.0
 40
4.0
 10
107.4780218915333
 20
-142.7578667177828
 10
107.4632079809467
 20
-142.7873222841816
 10
107.418766249187
 20
-142.8805121170577
 10
107.4094644913768
 20
-142.8994601422265
 10
107.5762071128629
 20
-142.9587157845728
 10
107.5944661189347
 20
-142.9650892112205
 10
107.6575113663148
 20
-142.9926499751026
 10
107.7057427031083
 20
-142.9058335688742
 10
107.7260687664713
 20
-142.8317640159414
 10
107.7391601293152
 20
-142.7578667177828
 10
107.7391601293152
 20
-142.7578667177828
 10
107.4780218915333
 20
-142.7578667177828
 10
107.4780218915333
 20
-142.7578667177828
 97
        0
 97
        0
 75
     2
 76
     1
 98
        0
  0
SPLINE
  5
B0
330
A8
100
AcDbEntity
  8
_U+30EC_U+30A4_U+30E4_U+30FC 1
370
     0
100
AcDbSpline
210
0.0
220
0.0
230
1.0
 70
    11
 71
     3
 72
   203
 73
   199
 74
     0
 42
0.0000000001
 43
0.0000000001
 12
1.0
 22
0.0
 32
0.0
 13
1.0
 23
0.0
 33
0.0
 40
0.0
 40
0.0
 40
0.0
 40
0.0
 40
1.0
 40
1.0
 40
1.0
 40
2.0
 40
2.0
 40
2.0
 40
3.0
 40
3.0
 40
3.0
 40
4.0
 40
4.0
 40
4.0
 40
5.0
 40
5.0
 40
5.0
 40
6.0
 40
6.0
 40
6.0
 40
7.0
 40
7.0
 40
7.0
 40
8.0
 40
8.0
 40
8.0
 40
9.0
 40
9.0
 40
9.0
 40
10.0
 40
10.0
 40
10.0
 40
11.0
 40
11.0
 40
11.0
 40
12.0
 40
12.0
 40
12.0
 40
13.0
 40
13.0
 40
13.0
 40
14.0
 40
14.0
 40
14.0
 40
15.0
 40
15.0
 40
15.0
 40
16.0
 40
16.0
 40
16.0
 40
17.0
 40
17.0
 40
17.0
 40
18.0
 40
18.0
 40
18.0
 40
19.0
 40
19.0
 40
19.0
 40
20.0
 40
20.0
 40
20.0
 40
21.0
 40
21.0
 40
21.0
 40
22.0
 40
22.0
 40
22.0
 40
23.0
 40
23.0
 40
23.0
 40
24.0
 40
24.0
 40
24.0
 40
25.0
 40
25.0
 40
25.0
 40
26.0
 40
26.0
 40
26.0
 40
27.0
 40
27.0
 40
27.0
 40
28.0
 40
28.0
 40
28.0
 40
29.0
 40
29.0
 40
29.0
 40
30.0
 40
30.0
 40
30.0
 40
31.0
 40
31.0
 40
31.0
 40
32.0
 40
32.0
 40
32.0
 40
33.0
 40
33.0
 40
33.0
 40
34.0
 40
34.0
 40
34.0
 40
35.0
 40
35.0
 40
35.0
 40
36.0
 40
36.0
 40
36.0
 40
37.0
 40
37.0
 40
37.0
 40
38.0
 40
38.0
 40
38.0
 40
39.0
 40
39.0
 40
39.0
 40
40.0
 40
40.0
 40
40.0
 40
41.0
 40
41.0
 40
41.0
 40
42.0
 40
42.0
 40
42.0
 40
43.0
 40
43.0
 40
43.0
 40
44.0
 40
44.0
 40
44.0
 40
45.0
 40
45.0
 40
45.0
 40
46.0
 40
46.0
 40
46.0
 40
47.0
 40
47.0
 40
47.0
 40
48.0
 40
48.0
 40
48.0
 40
49.0
 40
49.0
 40
49.0
 40
50.0
 40
50.0
 40
50.0
 40
51.0
 40
51.0
 40
51.0
 40
52.0
 40
52.0
 40
52.0
 40
53.0
 40
53.0
 40
53.0
 40
54.0
 40
54.0
 40
54.0
 40
55.0
 40
55.0
 40
55.0
 40
56.0
 40
56.0
 40
56.0
 40
57.0
 40
57.0
 40
57.0
 40
58.0
 40
58.0
 40
58.0
 40
59.0
 40
59.0
 40
59.0
 40
60.0
 40
60.0
 40
60.0
 40
61.0
 40
61.0
 40
61.0
 40
62.0
 40
62.0
 40
62.0
 40
63.0
 40
63.0
 40
63.0
 40
64.0
 40
64.0
 40
64.0
 40
65.0
 40
65.0
 40
65.0
 40
66.0
 40
66.0
 40
66.0
 40
66.0
 10
109.4541286618726
 20
-142.440401168817
 30
0.0
 10
109.4541286618726
 20
-142.440401168817
 30
0.0
 10
108.9652696125156
 20
-142.440401168817
 30
0.0
 10
108.9652696125156
 20
-142.440401168817
 30
0.0
 10
108.9559678547055
 20
-142.4848429005767
 30
0.0
 10
108.9487331541864
 20
-142.516537779041
 30
0.0
 10
108.9373643390851
 20
-142.5547783389273
 30
0.0
 10
108.9597574597392
 20
-142.5547783389273
 30
0.0
 10
108.9725043130347
 20
-142.5568453962184
 30
0.0
 10
108.9783609753596
 20
-142.5568453962184
 30
0.0
 10
108.9783609753596
 20
-142.5568453962184
 30
0.0
 10
109.1430365395545
 20
-142.5568453962184
 30
0.0
 10
109.1430365395545
 20
-142.5568453962184
 30
0.0
 10
109.1430365395545
 20
-142.5568453962184
 30
0.0
 10
109.4706651202018
 20
-142.5568453962184
 30
0.0
 10
109.4706651202018
 20
-142.5568453962184
 30
0.0
 10
109.51545136151
 20
-142.5568453962184
 30
0.0
 10
109.763498236448
 20
-142.544098542923
 30
0.0
 10
109.79105900033
 20
-142.544098542923
 30
0.0
 10
109.7893364525874
 20
-142.571659306805
 30
0.0
 10
109.7876139048448
 20
-142.5906073319739
 30
0.0
 10
109.7876139048448
 20
-142.620235153147
 30
0.0
 10
109.7855468475536
 20
-142.6519300316113
 30
0.0
 10
109.7855468475536
 20
-142.7873222841816
 30
0.0
 10
109.7855468475536
 20
-142.8148830480636
 30
0.0
 10
109.7855468475536
 20
-142.8148830480636
 30
0.0
 10
109.7855468475536
 20
-143.0603461013877
 30
0.0
 10
109.7855468475536
 20
-143.0603461013877
 30
0.0
 10
109.7855468475536
 20
-143.1047878331474
 30
0.0
 10
109.7893364525874
 20
-143.3015027853552
 30
0.0
 10
109.7931260576212
 20
-143.4537760058032
 30
0.0
 10
109.7931260576212
 20
-143.4537760058032
 30
0.0
 10
109.5946885576708
 20
-143.4537760058032
 30
0.0
 10
109.5946885576708
 20
-143.4537760058032
 30
0.0
 10
109.5946885576708
 20
-143.4537760058032
 30
0.0
 10
109.5967556149619
 20
-143.4200140700478
 30
0.0
 10
109.5967556149619
 20
-143.4200140700478
 30
0.0
 10
109.5967556149619
 20
-143.4200140700478
 30
0.0
 10
108.9821505803934
 20
-143.4200140700478
 30
0.0
 10
108.9821505803934
 20
-143.4200140700478
 30
0.0
 10
108.9821505803934
 20
-143.4200140700478
 30
0.0
 10
108.983873128136
 20
-143.4537760058032
 30
0.0
 10
108.983873128136
 20
-143.4537760058032
 30
0.0
 10
108.983873128136
 20
-143.4537760058032
 30
0.0
 10
108.7930148382531
 20
-143.4537760058032
 30
0.0
 10
108.7930148382531
 20
-143.4537760058032
 30
0.0
 10
108.7968044432869
 20
-143.3988267328135
 30
0.0
 10
108.7968044432869
 20
-143.3860798795181
 30
0.0
 10
108.8023165960633
 20
-143.271874964182
 30
0.0
 10
108.8043836533545
 20
-143.2443142003
 30
0.0
 10
108.8061062010971
 20
-143.1111612597951
 30
0.0
 10
108.8061062010971
 20
-143.092040979852
 30
0.0
 10
108.8061062010971
 20
-143.092040979852
 30
0.0
 10
108.8061062010971
 20
-142.8889526009965
 30
0.0
 10
108.8061062010971
 20
-142.8889526009965
 30
0.0
 10
108.6838053113707
 20
-143.1385497689029
 30
0.0
 10
108.535666205505
 20
-143.2698079068909
 30
0.0
 10
108.4433376465003
 20
-143.3352647211106
 30
0.0
 10
108.4433376465003
 20
-143.3352647211106
 30
0.0
 10
108.2910644260522
 20
-143.195738353958
 30
0.0
 10
108.2910644260522
 20
-143.195738353958
 30
0.0
 10
108.3689235840189
 20
-143.1449231955506
 30
0.0
 10
108.495014078779
 20
-143.0581067893223
 30
0.0
 10
108.6152479112143
 20
-142.8636311491799
 30
0.0
 10
108.6948296169235
 20
-142.7366793805485
 30
0.0
 10
108.7523627115272
 20
-142.5928466440393
 30
0.0
 10
108.7819905327003
 20
-142.440401168817
 30
0.0
 10
108.5818304850073
 20
-142.4426404808824
 30
0.0
 10
108.4247341308799
 20
-142.4490139075301
 30
0.0
 10
108.3413628201369
 20
-142.4510809648213
 30
0.0
 10
108.3413628201369
 20
-142.4510809648213
 30
0.0
 10
108.3413628201369
 20
-142.2733140377824
 30
0.0
 10
108.3413628201369
 20
-142.2733140377824
 30
0.0
 10
108.5136175943994
 20
-142.2796874644301
 30
0.0
 10
108.7616644693374
 20
-142.2839938337866
 30
0.0
 10
108.8932671168739
 20
-142.2839938337866
 30
0.0
 10
108.8932671168739
 20
-142.2839938337866
 30
0.0
 10
109.0799912921745
 20
-142.2839938337866
 30
0.0
 10
109.0799912921745
 20
-142.2839938337866
 30
0.0
 10
109.0799912921745
 20
-142.2839938337866
 30
0.0
 10
109.0799912921745
 20
-142.1759900903241
 30
0.0
 10
109.0799912921745
 20
-142.1759900903241
 30
0.0
 10
109.0799912921745
 20
-142.1759900903241
 30
0.0
 10
108.9525227592202
 20
-142.1759900903241
 30
0.0
 10
108.9525227592202
 20
-142.1759900903241
 30
0.0
 10
108.8043836533545
 20
-142.1759900903241
 30
0.0
 10
108.6562445474887
 20
-142.1802964596806
 30
0.0
 10
108.5098279893656
 20
-142.1866698863283
 30
0.0
 10
108.5098279893656
 20
-142.1866698863283
 30
0.0
 10
108.5098279893656
 20
-142.0152763859372
 30
0.0
 10
108.5098279893656
 20
-142.0152763859372
 30
0.0
 10
108.6448757323874
 20
-142.0257839271672
 30
0.0
 10
108.8078287488397
 20
-142.0257839271672
 30
0.0
 10
108.9525227592202
 20
-142.0257839271672
 30
0.0
 10
108.9525227592202
 20
-142.0257839271672
 30
0.0
 10
109.0799912921745
 20
-142.0257839271672
 30
0.0
 10
109.0799912921745
 20
-142.0257839271672
 30
0.0
 10
109.0799912921745
 20
-142.0257839271672
 30
0.0
 10
109.0799912921745
 20
-141.9074448972488
 30
0.0
 10
109.0799912921745
 20
-141.9074448972488
 30
0.0
 10
109.0799912921745
 20
-141.9074448972488
 30
0.0
 10
108.9652696125156
 20
-141.9074448972488
 30
0.0
 10
108.9652696125156
 20
-141.9074448972488
 30
0.0
 10
108.9246174857897
 20
-141.9074448972488
 30
0.0
 10
108.7468505587508
 20
-141.9158853811877
 30
0.0
 10
108.7099880370586
 20
-141.9158853811877
 30
0.0
 10
108.5322211100197
 20
-141.92001949577
 30
0.0
 10
108.4653862576059
 20
-141.9220865530611
 30
0.0
 10
108.3968288574494
 20
-141.9243258651266
 30
0.0
 10
108.3968288574494
 20
-141.9243258651266
 30
0.0
 10
108.3968288574494
 20
-141.74018551144
 30
0.0
 10
108.3968288574494
 20
-141.74018551144
 30
0.0
 10
108.4967366265217
 20
-141.7486259953788
 30
0.0
 10
108.535666205505
 20
-141.7486259953788
 30
0.0
 10
108.8708739962198
 20
-141.7572387340919
 30
0.0
 10
108.8154079589073
 20
-141.6619818439248
 30
0.0
 10
108.7912922905105
 20
-141.6344210800428
 30
0.0
 10
108.7595974120462
 20
-141.5984198322219
 30
0.0
 10
108.7595974120462
 20
-141.5984198322219
 30
0.0
 10
108.9132486706884
 20
-141.5159097953502
 30
0.0
 10
108.9132486706884
 20
-141.5159097953502
 30
0.0
 10
108.9487331541864
 20
-141.5519110431711
 30
0.0
 10
108.9876627331698
 20
-141.5942857176396
 30
0.0
 10
109.0524305282924
 20
-141.7041842636191
 30
0.0
 10
109.0524305282924
 20
-141.7041842636191
 30
0.0
 10
108.9525227592202
 20
-141.7593057913831
 30
0.0
 10
108.9525227592202
 20
-141.7593057913831
 30
0.0
 10
108.9525227592202
 20
-141.7593057913831
 30
0.0
 10
108.9614800074819
 20
-141.7593057913831
 30
0.0
 10
108.9614800074819
 20
-141.7593057913831
 30
0.0
 10
108.9614800074819
 20
-141.7593057913831
 30
0.0
 10
109.418988687923
 20
-141.7593057913831
 30
0.0
 10
109.418988687923
 20
-141.7593057913831
 30
0.0
 10
109.418988687923
 20
-141.7593057913831
 30
0.0
 10
109.33561737718
 20
-141.7148640596234
 30
0.0
 10
109.33561737718
 20
-141.7148640596234
 30
0.0
 10
109.3597330455767
 20
-141.6767957545114
 30
0.0
 10
109.4096869301129
 20
-141.5963527749308
 30
0.0
 10
109.4227782929568
 20
-141.5222832219979
 30
0.0
 10
109.4227782929568
 20
-141.5222832219979
 30
0.0
 10
109.6098469778059
 20
-141.5858452337008
 30
0.0
 10
109.6098469778059
 20
-141.5858452337008
 30
0.0
 10
109.6170816783249
 20
-141.5879122909919
 30
0.0
 10
109.6356851939452
 20
-141.5984198322219
 30
0.0
 10
109.6356851939452
 20
-141.6196071694562
 30
0.0
 10
109.6356851939452
 20
-141.6576754745682
 30
0.0
 10
109.5781520993416
 20
-141.6576754745682
 30
0.0
 10
109.5616156410124
 20
-141.6576754745682
 30
0.0
 10
109.5523138832022
 20
-141.6767957545114
 30
0.0
 10
109.5319878198392
 20
-141.7169311169145
 30
0.0
 10
109.5058050941513
 20
-141.7572387340919
 30
0.0
 10
109.8558267954527
 20
-141.7508653074442
 30
0.0
 10
109.8820095211406
 20
-141.7486259953788
 30
0.0
 10
109.9484998640059
 20
-141.7424248235054
 30
0.0
 10
109.9484998640059
 20
-141.7424248235054
 30
0.0
 10
109.9484998640059
 20
-141.9243258651266
 30
0.0
 10
109.9484998640059
 20
-141.9243258651266
 30
0.0
 10
109.9319634056767
 20
-141.9243258651266
 30
0.0
 10
109.9095702850226
 20
-141.9220865530611
 30
0.0
 10
109.7173339569457
 20
-141.9136460691223
 30
0.0
 10
109.6725477156374
 20
-141.9115790118312
 30
0.0
 10
109.4803113875605
 20
-141.9074448972488
 30
0.0
 10
109.4410372990286
 20
-141.9074448972488
 30
0.0
 10
109.4410372990286
 20
-141.9074448972488
 30
0.0
 10
109.2522460664369
 20
-141.9074448972488
 30
0.0
 10
109.2522460664369
 20
-141.9074448972488
 30
0.0
 10
109.2522460664369
 20
-141.9074448972488
 30
0.0
 10
109.2522460664369
 20
-142.0257839271672
 30
0.0
 10
109.2522460664369
 20
-142.0257839271672
 30
0.0
 10
109.2522460664369
 20
-142.0257839271672
 30
0.0
 10
109.4041747773365
 20
-142.0257839271672
 30
0.0
 10
109.4041747773365
 20
-142.0257839271672
 30
0.0
 10
109.5468017304258
 20
-142.0257839271672
 30
0.0
 10
109.7131998423634
 20
-142.0257839271672
 30
0.0
 10
109.8503146426763
 20
-142.0152763859372
 30
0.0
 10
109.8503146426763
 20
-142.0152763859372
 30
0.0
 10
109.8503146426763
 20
-142.1866698863283
 30
0.0
 10
109.8503146426763
 20
-142.1866698863283
 30
0.0
 10
109.667035562861
 20
-142.1782294023895
 30
0.0
 10
109.4947807885985
 20
-142.1759900903241
 30
0.0
 10
109.4041747773365
 20
-142.1759900903241
 30
0.0
 10
109.4041747773365
 20
-142.1759900903241
 30
0.0
 10
109.2522460664369
 20
-142.1759900903241
 30
0.0
 10
109.2522460664369
 20
-142.1759900903241
 30
0.0
 10
109.2522460664369
 20
-142.1759900903241
 30
0.0
 10
109.2522460664369
 20
-142.2839938337866
 30
0.0
 10
109.2522460664369
 20
-142.2839938337866
 30
0.0
 10
109.2522460664369
 20
-142.2839938337866
 30
0.0
 10
109.4541286618726
 20
-142.2839938337866
 30
0.0
 10
109.4541286618726
 20
-142.2839938337866
 30
0.0
 10
109.5709173988226
 20
-142.2839938337866
 30
0.0
 10
109.8227538787943
 20
-142.2796874644301
 30
0.0
 10
110.0060329586096
 20
-142.2733140377824
 30
0.0
 10
110.0060329586096
 20
-142.2733140377824
 30
0.0
 10
110.0060329586096
 20
-142.4510809648213
 30
0.0
 10
110.0060329586096
 20
-142.4510809648213
 30
0.0
 10
109.8375677893809
 20
-142.4447075381736
 30
0.0
 10
109.563338188755
 20
-142.440401168817
 30
0.0
 10
109.4541286618726
 20
-142.440401168817
 30
0.0
  0
POLYLINE
  5
B1
330
A8
100
AcDbEntity
  8
_U+30EC_U+30A4_U+30E4_U+30FC 1
370
     0
100
AcDb2dPolyline
 66
     1
 10
0.0
 20
0.0
 30
0.0
  0
VERTEX
  5
B2
330
B1
100
AcDbEntity
  8
_U+30EC_U+30A4_U+30E4_U+30FC 1
370
     0
100
AcDbVertex
100
AcDb2dVertex
 10
109.5988226722531
 20
-142.696371763371
 30
0.0
  0
VERTEX
  5
B3
330
B1
100
AcDbEntity
  8
_U+30EC_U+30A4_U+30E4_U+30FC 1
370
     0
100
AcDbVertex
100
AcDb2dVertex
 10
108.9800835231022
 20
-142.696371763371
 30
0.0
  0
VERTEX
  5
B4
330
B1
100
AcDbEntity
  8
_U+30EC_U+30A4_U+30E4_U+30FC 1
370
     0
100
AcDbVertex
100
AcDb2dVertex
 10
108.9800835231022
 20
-142.8043755068336
 30
0.0
  0
VERTEX
  5
B5
330
B1
100
AcDbEntity
  8
_U+30EC_U+30A4_U+30E4_U+30FC 1
370
     0
100
AcDbVertex
100
AcDb2dVertex
 10
109.5988226722531
 20
-142.8043755068336
 30
0.0
  0
VERTEX
  5
B6
330
B1
100
AcDbEntity
  8
_U+30EC_U+30A4_U+30E4_U+30FC 1
370
     0
100
AcDbVertex
100
AcDb2dVertex
 10
109.5988226722531
 20
-142.696371763371
 30
0.0
  0
SEQEND
  5
B7
330
B1
100
AcDbEntity
  8
_U+30EC_U+30A4_U+30E4_U+30FC 1
370
     0
  0
POLYLINE
  5
B8
330
A8
100
AcDbEntity
  8
_U+30EC_U+30A4_U+30E4_U+30FC 1
370
     0
100
AcDb2dPolyline
 66
     1
 10
0.0
 20
0.0
 30
0.0
  0
VERTEX
  5
B9
330
B8
100
AcDbEntity
  8
_U+30EC_U+30A4_U+30E4_U+30FC 1
370
     0
100
AcDbVertex
100
AcDb2dVertex
 10
109.5988226722531
 20
-142.9290879633997
 30
0.0
  0
VERTEX
  5
BA
330
B8
100
AcDbEntity
  8
_U+30EC_U+30A4_U+30E4_U+30FC 1
370
     0
100
AcDbVertex
100
AcDb2dVertex
 10
108.9800835231022
 20
-142.9290879633997
 30
0.0
  0
VERTEX
  5
BB
330
B8
100
AcDbEntity
  8
_U+30EC_U+30A4_U+30E4_U+30FC 1
370
     0
100
AcDbVertex
100
AcDb2dVertex
 10
108.9800835231022
 20
-143.04346513351
 30
0.0
  0
VERTEX
  5
BC
330
B8
100
AcDbEntity
  8
_U+30EC_U+30A4_U+30E4_U+30FC 1
370
     0
100
AcDbVertex
100
AcDb2dVertex
 10
109.5988226722531
 20
-143.04346513351
 30
0.0
  0
VERTEX
  5
BD
330
B8
100
AcDbEntity
  8
_U+30EC_U+30A4_U+30E4_U+30FC 1
370
     0
100
AcDbVertex
100
AcDb2dVertex
 10
109.5988226722531
 20
-142.9290879633997
 30
0.0
  0
SEQEND
  5
BE
330
B8
100
AcDbEntity
  8
_U+30EC_U+30A4_U+30E4_U+30FC 1
370
     0
  0
POLYLINE
  5
BF
330
A8
100
AcDbEntity
  8
_U+30EC_U+30A4_U+30E4_U+30FC 1
370
     0
100
AcDb2dPolyline
 66
     1
 10
0.0
 20
0.0
 30
0.0
  0
VERTEX
  5
C0
330
BF
100
AcDbEntity
  8
_U+30EC_U+30A4_U+30E4_U+30FC 1
370
     0
100
AcDbVertex
100
AcDb2dVertex
 10
109.5988226722531
 20
-143.1724839594326
 30
0.0
  0
VERTEX
  5
C1
330
BF
100
AcDbEntity
  8
_U+30EC_U+30A4_U+30E4_U+30FC 1
370
     0
100
AcDbVertex
100
AcDb2dVertex
 10
108.9800835231022
 20
-143.1724839594326
 30
0.0
  0
VERTEX
  5
C2
330
BF
100
AcDbEntity
  8
_U+30EC_U+30A4_U+30E4_U+30FC 1
370
     0
100
AcDbVertex
100
AcDb2dVertex
 10
108.9800835231022
 20
-143.2866888747686
 30
0.0
  0
VERTEX
  5
C3
330
BF
100
AcDbEntity
  8
_U+30EC_U+30A4_U+30E4_U+30FC 1
370
     0
100
AcDbVertex
100
AcDb2dVertex
 10
109.5988226722531
 20
-143.2866888747686
 30
0.0
  0
VERTEX
  5
C4
330
BF
100
AcDbEntity
  8
_U+30EC_U+30A4_U+30E4_U+30FC 1
370
     0
100
AcDbVertex
100
AcDb2dVertex
 10
109.5988226722531
 20
-143.1724839594326
 30
0.0
  0
SEQEND
  5
C5
330
BF
100
AcDbEntity
  8
_U+30EC_U+30A4_U+30E4_U+30FC 1
370
     0
  0
HATCH
  5
C6
330
A8
100
AcDbEntity
  8
_U+30EC_U+30A4_U+30E4_U+30FC 1
 62
   179
420
  2234388
100
AcDbHatch
 10
0.0
 20
0.0
 30
0.0
210
0.0
220
0.0
230
1.0
  2
SOLID
 70
     1
 71
     0
 91
        4
 92
        1
 93
        1
 72
     4
 94
        3
 73
     0
 74
     1
 95
      203
 96
      199
 40
0.0
 40
0.0
 40
0.0
 40
0.0
 40
1.0
 40
1.0
 40
1.0
 40
2.0
 40
2.0
 40
2.0
 40
3.0
 40
3.0
 40
3.0
 40
4.0
 40
4.0
 40
4.0
 40
5.0
 40
5.0
 40
5.0
 40
6.0
 40
6.0
 40
6.0
 40
7.0
 40
7.0
 40
7.0
 40
8.0
 40
8.0
 40
8.0
 40
9.0
 40
9.0
 40
9.0
 40
10.0
 40
10.0
 40
10.0
 40
11.0
 40
11.0
 40
11.0
 40
12.0
 40
12.0
 40
12.0
 40
13.0
 40
13.0
 40
13.0
 40
14.0
 40
14.0
 40
14.0
 40
15.0
 40
15.0
 40
15.0
 40
16.0
 40
16.0
 40
16.0
 40
17.0
 40
17.0
 40
17.0
 40
18.0
 40
18.0
 40
18.0
 40
19.0
 40
19.0
 40
19.0
 40
20.0
 40
20.0
 40
20.0
 40
21.0
 40
21.0
 40
21.0
 40
22.0
 40
22.0
 40
22.0
 40
23.0
 40
23.0
 40
23.0
 40
24.0
 40
24.0
 40
24.0
 40
25.0
 40
25.0
 40
25.0
 40
26.0
 40
26.0
 40
26.0
 40
27.0
 40
27.0
 40
27.0
 40
28.0
 40
28.0
 40
28.0
 40
29.0
 40
29.0
 40
29.0
 40
30.0
 40
30.0
 40
30.0
 40
31.0
 40
31.0
 40
31.0
 40
32.0
 40
32.0
 40
32.0
 40
33.0
 40
33.0
 40
33.0
 40
34.0
 40
34.0
 40
34.0
 40
35.0
 40
35.0
 40
35.0
 40
36.0
 40
36.0
 40
36.0
 40
37.0
 40
37.0
 40
37.0
 40
38.0
 40
38.0
 40
38.0
 40
39.0
 40
39.0
 40
39.0
 40
40.0
 40
40.0
 40
40.0
 40
41.0
 40
41.0
 40
41.0
 40
42.0
 40
42.0
 40
42.0
 40
43.0
 40
43.0
 40
43.0
 40
44.0
 40
44.0
 40
44.0
 40
45.0
 40
45.0
 40
45.0
 40
46.0
 40
46.0
 40
46.0
 40
47.0
 40
47.0
 40
47.0
 40
48.0
 40
48.0
 40
48.0
 40
49.0
 40
49.0
 40
49.0
 40
50.0
 40
50.0
 40
50.0
 40
51.0
 40
51.0
 40
51.0
 40
52.0
 40
52.0
 40
52.0
 40
53.0
 40
53.0
 40
53.0
 40
54.0
 40
54.0
 40
54.0
 40
55.0
 40
55.0
 40
55.0
 40
56.0
 40
56.0
 40
56.0
 40
57.0
 40
57.0
 40
57.0
 40
58.0
 40
58.0
 40
58.0
 40
59.0
 40
59.0
 40
59.0
 40
60.0
 40
60.0
 40
60.0
 40
61.0
 40
61.0
 40
61.0
 40
62.0
 40
62.0
 40
62.0
 40
63.0
 40
63.0
 40
63.0
 40
64.0
 40
64.0
 40
64.0
 40
65.0
 40
65.0
 40
65.0
 40
66.0
 40
66.0
 40
66.0
 40
66.0
 10
109.4541286618726
 20
-142.440401168817
 10
109.4541286618726
 20
-142.440401168817
 10
108.9652696125156
 20
-142.440401168817
 10
108.9652696125156
 20
-142.440401168817
 10
108.9559678547055
 20
-142.4848429005767
 10
108.9487331541864
 20
-142.516537779041
 10
108.9373643390851
 20
-142.5547783389273
 10
108.9597574597392
 20
-142.5547783389273
 10
108.9725043130347
 20
-142.5568453962184
 10
108.9783609753596
 20
-142.5568453962184
 10
108.9783609753596
 20
-142.5568453962184
 10
109.1430365395545
 20
-142.5568453962184
 10
109.1430365395545
 20
-142.5568453962184
 10
109.1430365395545
 20
-142.5568453962184
 10
109.4706651202018
 20
-142.5568453962184
 10
109.4706651202018
 20
-142.5568453962184
 10
109.51545136151
 20
-142.5568453962184
 10
109.763498236448
 20
-142.544098542923
 10
109.79105900033
 20
-142.544098542923
 10
109.7893364525874
 20
-142.571659306805
 10
109.7876139048448
 20
-142.5906073319739
 10
109.7876139048448
 20
-142.620235153147
 10
109.7855468475536
 20
-142.6519300316113
 10
109.7855468475536
 20
-142.7873222841816
 10
109.7855468475536
 20
-142.8148830480636
 10
109.7855468475536
 20
-142.8148830480636
 10
109.7855468475536
 20
-143.0603461013877
 10
109.7855468475536
 20
-143.0603461013877
 10
109.7855468475536
 20
-143.1047878331474
 10
109.7893364525874
 20
-143.3015027853552
 10
109.7931260576212
 20
-143.4537760058032
 10
109.7931260576212
 20
-143.4537760058032
 10
109.5946885576708
 20
-143.4537760058032
 10
109.5946885576708
 20
-143.4537760058032
 10
109.5946885576708
 20
-143.4537760058032
 10
109.5967556149619
 20
-143.4200140700478
 10
109.5967556149619
 20
-143.4200140700478
 10
109.5967556149619
 20
-143.4200140700478
 10
108.9821505803934
 20
-143.4200140700478
 10
108.9821505803934
 20
-143.4200140700478
 10
108.9821505803934
 20
-143.4200140700478
 10
108.983873128136
 20
-143.4537760058032
 10
108.983873128136
 20
-143.4537760058032
 10
108.983873128136
 20
-143.4537760058032
 10
108.7930148382531
 20
-143.4537760058032
 10
108.7930148382531
 20
-143.4537760058032
 10
108.7968044432869
 20
-143.3988267328135
 10
108.7968044432869
 20
-143.3860798795181
 10
108.8023165960633
 20
-143.271874964182
 10
108.8043836533545
 20
-143.2443142003
 10
108.8061062010971
 20
-143.1111612597951
 10
108.8061062010971
 20
-143.092040979852
 10
108.8061062010971
 20
-143.092040979852
 10
108.8061062010971
 20
-142.8889526009965
 10
108.8061062010971
 20
-142.8889526009965
 10
108.6838053113707
 20
-143.1385497689029
 10
108.535666205505
 20
-143.2698079068909
 10
108.4433376465003
 20
-143.3352647211106
 10
108.4433376465003
 20
-143.3352647211106
 10
108.2910644260522
 20
-143.195738353958
 10
108.2910644260522
 20
-143.195738353958
 10
108.3689235840189
 20
-143.1449231955506
 10
108.495014078779
 20
-143.0581067893223
 10
108.6152479112143
 20
-142.8636311491799
 10
108.6948296169235
 20
-142.7366793805485
 10
108.7523627115272
 20
-142.5928466440393
 10
108.7819905327003
 20
-142.440401168817
 10
108.5818304850073
 20
-142.4426404808824
 10
108.4247341308799
 20
-142.4490139075301
 10
108.3413628201369
 20
-142.4510809648213
 10
108.3413628201369
 20
-142.4510809648213
 10
108.3413628201369
 20
-142.2733140377824
 10
108.3413628201369
 20
-142.2733140377824
 10
108.5136175943994
 20
-142.2796874644301
 10
108.7616644693374
 20
-142.2839938337866
 10
108.8932671168739
 20
-142.2839938337866
 10
108.8932671168739
 20
-142.2839938337866
 10
109.0799912921745
 20
-142.2839938337866
 10
109.0799912921745
 20
-142.2839938337866
 10
109.0799912921745
 20
-142.2839938337866
 10
109.0799912921745
 20
-142.1759900903241
 10
109.0799912921745
 20
-142.1759900903241
 10
109.0799912921745
 20
-142.1759900903241
 10
108.9525227592202
 20
-142.1759900903241
 10
108.9525227592202
 20
-142.1759900903241
 10
108.8043836533545
 20
-142.1759900903241
 10
108.6562445474887
 20
-142.1802964596806
 10
108.5098279893656
 20
-142.1866698863283
 10
108.5098279893656
 20
-142.1866698863283
 10
108.5098279893656
 20
-142.0152763859372
 10
108.5098279893656
 20
-142.0152763859372
 10
108.6448757323874
 20
-142.0257839271672
 10
108.8078287488397
 20
-142.0257839271672
 10
108.9525227592202
 20
-142.0257839271672
 10
108.9525227592202
 20
-142.0257839271672
 10
109.0799912921745
 20
-142.0257839271672
 10
109.0799912921745
 20
-142.0257839271672
 10
109.0799912921745
 20
-142.0257839271672
 10
109.0799912921745
 20
-141.9074448972488
 10
109.0799912921745
 20
-141.9074448972488
 10
109.0799912921745
 20
-141.9074448972488
 10
108.9652696125156
 20
-141.9074448972488
 10
108.9652696125156
 20
-141.9074448972488
 10
108.9246174857897
 20
-141.9074448972488
 10
108.7468505587508
 20
-141.9158853811877
 10
108.7099880370586
 20
-141.9158853811877
 10
108.5322211100197
 20
-141.92001949577
 10
108.4653862576059
 20
-141.9220865530611
 10
108.3968288574494
 20
-141.9243258651266
 10
108.3968288574494
 20
-141.9243258651266
 10
108.3968288574494
 20
-141.74018551144
 10
108.3968288574494
 20
-141.74018551144
 10
108.4967366265217
 20
-141.7486259953788
 10
108.535666205505
 20
-141.7486259953788
 10
108.8708739962198
 20
-141.7572387340919
 10
108.8154079589073
 20
-141.6619818439248
 10
108.7912922905105
 20
-141.6344210800428
 10
108.7595974120462
 20
-141.5984198322219
 10
108.7595974120462
 20
-141.5984198322219
 10
108.9132486706884
 20
-141.5159097953502
 10
108.9132486706884
 20
-141.5159097953502
 10
108.9487331541864
 20
-141.5519110431711
 10
108.9876627331698
 20
-141.5942857176396
 10
109.0524305282924
 20
-141.7041842636191
 10
109.0524305282924
 20
-141.7041842636191
 10
108.9525227592202
 20
-141.7593057913831
 10
108.9525227592202
 20
-141.7593057913831
 10
108.9525227592202
 20
-141.7593057913831
 10
108.9614800074819
 20
-141.7593057913831
 10
108.9614800074819
 20
-141.7593057913831
 10
108.9614800074819
 20
-141.7593057913831
 10
109.418988687923
 20
-141.7593057913831
 10
109.418988687923
 20
-141.7593057913831
 10
109.418988687923
 20
-141.7593057913831
 10
109.33561737718
 20
-141.7148640596234
 10
109.33561737718
 20
-141.7148640596234
 10
109.3597330455767
 20
-141.6767957545114
 10
109.4096869301129
 20
-141.5963527749308
 10
109.4227782929568
 20
-141.5222832219979
 10
109.4227782929568
 20
-141.5222832219979
 10
109.6098469778059
 20
-141.5858452337008
 10
109.6098469778059
 20
-141.5858452337008
 10
109.6170816783249
 20
-141.5879122909919
 10
109.6356851939452
 20
-141.5984198322219
 10
109.6356851939452
 20
-141.6196071694562
 10
109.6356851939452
 20
-141.6576754745682
 10
109.5781520993416
 20
-141.6576754745682
 10
109.5616156410124
 20
-141.6576754745682
 10
109.5523138832022
 20
-141.6767957545114
 10
109.5319878198392
 20
-141.7169311169145
 10
109.5058050941513
 20
-141.7572387340919
 10
109.8558267954527
 20
-141.7508653074442
 10
109.8820095211406
 20
-141.7486259953788
 10
109.9484998640059
 20
-141.7424248235054
 10
109.9484998640059
 20
-141.7424248235054
 10
109.9484998640059
 20
-141.9243258651266
 10
109.9484998640059
 20
-141.9243258651266
 10
109.9319634056767
 20
-141.9243258651266
 10
109.9095702850226
 20
-141.9220865530611
 10
109.7173339569457
 20
-141.9136460691223
 10
109.6725477156374
 20
-141.9115790118312
 10
109.4803113875605
 20
-141.9074448972488
 10
109.4410372990286
 20
-141.9074448972488
 10
109.4410372990286
 20
-141.9074448972488
 10
109.2522460664369
 20
-141.9074448972488
 10
109.2522460664369
 20
-141.9074448972488
 10
109.2522460664369
 20
-141.9074448972488
 10
109.2522460664369
 20
-142.0257839271672
 10
109.2522460664369
 20
-142.0257839271672
 10
109.2522460664369
 20
-142.0257839271672
 10
109.4041747773365
 20
-142.0257839271672
 10
109.4041747773365
 20
-142.0257839271672
 10
109.5468017304258
 20
-142.0257839271672
 10
109.7131998423634
 20
-142.0257839271672
 10
109.8503146426763
 20
-142.0152763859372
 10
109.8503146426763
 20
-142.0152763859372
 10
109.8503146426763
 20
-142.1866698863283
 10
109.8503146426763
 20
-142.1866698863283
 10
109.667035562861
 20
-142.1782294023895
 10
109.4947807885985
 20
-142.1759900903241
 10
109.4041747773365
 20
-142.1759900903241
 10
109.4041747773365
 20
-142.1759900903241
 10
109.2522460664369
 20
-142.1759900903241
 10
109.2522460664369
 20
-142.1759900903241
 10
109.2522460664369
 20
-142.1759900903241
 10
109.2522460664369
 20
-142.2839938337866
 10
109.2522460664369
 20
-142.2839938337866
 10
109.2522460664369
 20
-142.2839938337866
 10
109.4541286618726
 20
-142.2839938337866
 10
109.4541286618726
 20
-142.2839938337866
 10
109.5709173988226
 20
-142.2839938337866
 10
109.8227538787943
 20
-142.2796874644301
 10
110.0060329586096
 20
-142.2733140377824
 10
110.0060329586096
 20
-142.2733140377824
 10
110.0060329586096
 20
-142.4510809648213
 10
110.0060329586096
 20
-142.4510809648213
 10
109.8375677893809
 20
-142.4447075381736
 10
109.563338188755
 20
-142.440401168817
 10
109.4541286618726
 20
-142.440401168817
 97
        0
 97
        0
 92
        1
 93
        4
 72
     1
 10
109.5988226722531
 20
-142.696371763371
 11
108.9800835231022
 21
-142.696371763371
 72
     1
 10
108.9800835231022
 20
-142.696371763371
 11
108.9800835231022
 21
-142.8043755068336
 72
     1
 10
108.9800835231022
 20
-142.8043755068336
 11
109.5988226722531
 21
-142.8043755068336
 72
     1
 10
109.5988226722531
 20
-142.8043755068336
 11
109.5988226722531
 21
-142.696371763371
 97
        0
 92
        1
 93
        4
 72
     1
 10
109.5988226722531
 20
-142.9290879633997
 11
108.9800835231022
 21
-142.9290879633997
 72
     1
 10
108.9800835231022
 20
-142.9290879633997
 11
108.9800835231022
 21
-143.04346513351
 72
     1
 10
108.9800835231022
 20
-143.04346513351
 11
109.5988226722531
 21
-143.04346513351
 72
     1
 10
109.5988226722531
 20
-143.04346513351
 11
109.5988226722531
 21
-142.9290879633997
 97
        0
 92
        1
 93
        4
 72
     1
 10
109.5988226722531
 20
-143.1724839594326
 11
108.9800835231022
 21
-143.1724839594326
 72
     1
 10
108.9800835231022
 20
-143.1724839594326
 11
108.9800835231022
 21
-143.2866888747686
 72
     1
 10
108.9800835231022
 20
-143.2866888747686
 11
109.5988226722531
 21
-143.2866888747686
 72
     1
 10
109.5988226722531
 20
-143.2866888747686
 11
109.5988226722531
 21
-143.1724839594326
 97
        0
 75
     2
 76
     1
 98
        0
  0
SPLINE
  5
C7
330
A8
100
AcDbEntity
  8
_U+30EC_U+30A4_U+30E4_U+30FC 1
370
     0
100
AcDbSpline
210
0.0
220
0.0
230
1.0
 70
    11
 71
     3
 72
    47
 73
    43
 74
     0
 42
0.0000000001
 43
0.0000000001
 12
1.0
 22
0.0
 32
0.0
 13
1.0
 23
0.0
 33
0.0
 40
0.0
 40
0.0
 40
0.0
 40
0.0
 40
1.0
 40
1.0
 40
1.0
 40
2.0
 40
2.0
 40
2.0
 40
3.0
 40
3.0
 40
3.0
 40
4.0
 40
4.0
 40
4.0
 40
5.0
 40
5.0
 40
5.0
 40
6.0
 40
6.0
 40
6.0
 40
7.0
 40
7.0
 40
7.0
 40
8.0
 40
8.0
 40
8.0
 40
9.0
 40
9.0
 40
9.0
 40
10.0
 40
10.0
 40
10.0
 40
11.0
 40
11.0
 40
11.0
 40
12.0
 40
12.0
 40
12.0
 40
13.0
 40
13.0
 40
13.0
 40
14.0
 40
14.0
 40
14.0
 40
14.0
 10
111.1856336527592
 20
-142.4171467742916
 30
0.0
 10
111.1856336527592
 20
-142.4171467742916
 30
0.0
 10
111.0967501892397
 20
-142.4171467742916
 30
0.0
 10
111.0967501892397
 20
-142.4171467742916
 30
0.0
 10
111.0967501892397
 20
-142.5039631805199
 30
0.0
 10
111.0784911831679
 20
-142.8932589703531
 30
0.0
 10
110.9062364089054
 20
-143.1132283170863
 30
0.0
 10
110.7729112136262
 20
-143.282382505412
 30
0.0
 10
110.5913546815536
 20
-143.3523179437626
 30
0.0
 10
110.5172851286207
 20
-143.3797064528704
 30
0.0
 10
110.5172851286207
 20
-143.3797064528704
 30
0.0
 10
110.3470974116493
 20
-143.2126193218357
 30
0.0
 10
110.3470974116493
 20
-143.2126193218357
 30
0.0
 10
110.432191270135
 20
-143.1998724685403
 30
0.0
 10
110.5858425287771
 20
-143.1766180740149
 30
0.0
 10
110.7508626025206
 20
-142.988343605746
 30
0.0
 10
110.8156303976433
 20
-142.9165133648785
 30
0.0
 10
110.9062364089054
 20
-142.7768147429516
 30
0.0
 10
110.9062364089054
 20
-142.4171467742916
 30
0.0
 10
110.9062364089054
 20
-142.4171467742916
 30
0.0
 10
110.7043538134698
 20
-142.4171467742916
 30
0.0
 10
110.7043538134698
 20
-142.4171467742916
 30
0.0
 10
110.5414007970174
 20
-142.4171467742916
 30
0.0
 10
110.3784477805651
 20
-142.4214531436481
 30
0.0
 10
110.2154947641128
 20
-142.4362670542347
 30
0.0
 10
110.2154947641128
 20
-142.4362670542347
 30
0.0
 10
110.2154947641128
 20
-142.2162977075015
 30
0.0
 10
110.2154947641128
 20
-142.2162977075015
 30
0.0
 10
110.3801703283077
 20
-142.2311116180881
 30
0.0
 10
110.6302842605369
 20
-142.2352457326704
 30
0.0
 10
110.7043538134698
 20
-142.2352457326704
 30
0.0
 10
110.7043538134698
 20
-142.2352457326704
 30
0.0
 10
111.1856336527592
 20
-142.2352457326704
 30
0.0
 10
111.1856336527592
 20
-142.2352457326704
 30
0.0
 10
111.2025146206369
 20
-142.2352457326704
 30
0.0
 10
111.480189316748
 20
-142.2352457326704
 30
0.0
 10
111.680349364441
 20
-142.2162977075015
 30
0.0
 10
111.680349364441
 20
-142.2162977075015
 30
0.0
 10
111.680349364441
 20
-142.4362670542347
 30
0.0
 10
111.680349364441
 20
-142.4362670542347
 30
0.0
 10
111.5156738002461
 20
-142.4214531436481
 30
0.0
 10
111.3506537265026
 20
-142.4171467742916
 30
0.0
 10
111.1856336527592
 20
-142.4171467742916
 30
0.0
  0
SPLINE
  5
C8
330
A8
100
AcDbEntity
  8
_U+30EC_U+30A4_U+30E4_U+30FC 1
370
     0
100
AcDbSpline
210
0.0
220
0.0
230
1.0
 70
    11
 71
     3
 72
    29
 73
    25
 74
     0
 42
0.0000000001
 43
0.0000000001
 12
1.0
 22
0.0
 32
0.0
 13
1.0
 23
0.0
 33
0.0
 40
0.0
 40
0.0
 40
0.0
 40
0.0
 40
1.0
 40
1.0
 40
1.0
 40
2.0
 40
2.0
 40
2.0
 40
3.0
 40
3.0
 40
3.0
 40
4.0
 40
4.0
 40
4.0
 40
5.0
 40
5.0
 40
5.0
 40
6.0
 40
6.0
 40
6.0
 40
7.0
 40
7.0
 40
7.0
 40
8.0
 40
8.0
 40
8.0
 40
8.0
 10
111.0967501892397
 20
-141.8883246173057
 30
0.0
 10
111.0967501892397
 20
-141.8883246173057
 30
0.0
 10
110.7877251242128
 20
-141.8883246173057
 30
0.0
 10
110.7877251242128
 20
-141.8883246173057
 30
0.0
 10
110.6895399028832
 20
-141.8883246173057
 30
0.0
 10
110.5675835227053
 20
-141.8946980439534
 30
0.0
 10
110.472843396861
 20
-141.9074448972488
 30
0.0
 10
110.472843396861
 20
-141.9074448972488
 30
0.0
 10
110.472843396861
 20
-141.6724893851548
 30
0.0
 10
110.472843396861
 20
-141.6724893851548
 30
0.0
 10
110.576540770967
 20
-141.6873032957414
 30
0.0
 10
110.7377712396767
 20
-141.6916096650979
 30
0.0
 10
110.7877251242128
 20
-141.6916096650979
 30
0.0
 10
110.7877251242128
 20
-141.6916096650979
 30
0.0
 10
111.0967501892397
 20
-141.6916096650979
 30
0.0
 10
111.0967501892397
 20
-141.6916096650979
 30
0.0
 10
111.1136311571174
 20
-141.6916096650979
 30
0.0
 10
111.2913980841563
 20
-141.6916096650979
 30
0.0
 10
111.4154215216253
 20
-141.6724893851548
 30
0.0
 10
111.4154215216253
 20
-141.6724893851548
 30
0.0
 10
111.4154215216253
 20
-141.9074448972488
 30
0.0
 10
111.4154215216253
 20
-141.9074448972488
 30
0.0
 10
111.2786512308609
 20
-141.8883246173057
 30
0.0
 10
111.1119086093748
 20
-141.8883246173057
 30
0.0
 10
111.0967501892397
 20
-141.8883246173057
 30
0.0
  0
HATCH
  5
C9
330
A8
100
AcDbEntity
  8
_U+30EC_U+30A4_U+30E4_U+30FC 1
 62
   179
420
  2234388
100
AcDbHatch
 10
0.0
 20
0.0
 30
0.0
210
0.0
220
0.0
230
1.0
  2
SOLID
 70
     1
 71
     0
 91
        2
 92
        1
 93
        1
 72
     4
 94
        3
 73
     0
 74
     1
 95
       47
 96
       43
 40
0.0
 40
0.0
 40
0.0
 40
0.0
 40
1.0
 40
1.0
 40
1.0
 40
2.0
 40
2.0
 40
2.0
 40
3.0
 40
3.0
 40
3.0
 40
4.0
 40
4.0
 40
4.0
 40
5.0
 40
5.0
 40
5.0
 40
6.0
 40
6.0
 40
6.0
 40
7.0
 40
7.0
 40
7.0
 40
8.0
 40
8.0
 40
8.0
 40
9.0
 40
9.0
 40
9.0
 40
10.0
 40
10.0
 40
10.0
 40
11.0
 40
11.0
 40
11.0
 40
12.0
 40
12.0
 40
12.0
 40
13.0
 40
13.0
 40
13.0
 40
14.0
 40
14.0
 40
14.0
 40
14.0
 10
111.1856336527592
 20
-142.4171467742916
 10
111.1856336527592
 20
-142.4171467742916
 10
111.0967501892397
 20
-142.4171467742916
 10
111.0967501892397
 20
-142.4171467742916
 10
111.0967501892397
 20
-142.5039631805199
 10
111.0784911831679
 20
-142.8932589703531
 10
110.9062364089054
 20
-143.1132283170863
 10
110.7729112136262
 20
-143.282382505412
 10
110.5913546815536
 20
-143.3523179437626
 10
110.5172851286207
 20
-143.3797064528704
 10
110.5172851286207
 20
-143.3797064528704
 10
110.3470974116493
 20
-143.2126193218357
 10
110.3470974116493
 20
-143.2126193218357
 10
110.432191270135
 20
-143.1998724685403
 10
110.5858425287771
 20
-143.1766180740149
 10
110.7508626025206
 20
-142.988343605746
 10
110.8156303976433
 20
-142.9165133648785
 10
110.9062364089054
 20
-142.7768147429516
 10
110.9062364089054
 20
-142.4171467742916
 10
110.9062364089054
 20
-142.4171467742916
 10
110.7043538134698
 20
-142.4171467742916
 10
110.7043538134698
 20
-142.4171467742916
 10
110.5414007970174
 20
-142.4171467742916
 10
110.3784477805651
 20
-142.4214531436481
 10
110.2154947641128
 20
-142.4362670542347
 10
110.2154947641128
 20
-142.4362670542347
 10
110.2154947641128
 20
-142.2162977075015
 10
110.2154947641128
 20
-142.2162977075015
 10
110.3801703283077
 20
-142.2311116180881
 10
110.6302842605369
 20
-142.2352457326704
 10
110.7043538134698
 20
-142.2352457326704
 10
110.7043538134698
 20
-142.2352457326704
 10
111.1856336527592
 20
-142.2352457326704
 10
111.1856336527592
 20
-142.2352457326704
 10
111.2025146206369
 20
-142.2352457326704
 10
111.480189316748
 20
-142.2352457326704
 10
111.680349364441
 20
-142.2162977075015
 10
111.680349364441
 20
-142.2162977075015
 10
111.680349364441
 20
-142.4362670542347
 10
111.680349364441
 20
-142.4362670542347
 10
111.5156738002461
 20
-142.4214531436481
 10
111.3506537265026
 20
-142.4171467742916
 10
111.1856336527592
 20
-142.4171467742916
 97
        0
 97
        0
 92
        1
 93
        1
 72
     4
 94
        3
 73
     0
 74
     1
 95
       29
 96
       25
 40
0.0
 40
0.0
 40
0.0
 40
0.0
 40
1.0
 40
1.0
 40
1.0
 40
2.0
 40
2.0
 40
2.0
 40
3.0
 40
3.0
 40
3.0
 40
4.0
 40
4.0
 40
4.0
 40
5.0
 40
5.0
 40
5.0
 40
6.0
 40
6.0
 40
6.0
 40
7.0
 40
7.0
 40
7.0
 40
8.0
 40
8.0
 40
8.0
 40
8.0
 10
111.0967501892397
 20
-141.8883246173057
 10
111.0967501892397
 20
-141.8883246173057
 10
110.7877251242128
 20
-141.8883246173057
 10
110.7877251242128
 20
-141.8883246173057
 10
110.6895399028832
 20
-141.8883246173057
 10
110.5675835227053
 20
-141.8946980439534
 10
110.472843396861
 20
-141.9074448972488
 10
110.472843396861
 20
-141.9074448972488
 10
110.472843396861
 20
-141.6724893851548
 10
110.472843396861
 20
-141.6724893851548
 10
110.576540770967
 20
-141.6873032957414
 10
110.7377712396767
 20
-141.6916096650979
 10
110.7877251242128
 20
-141.6916096650979
 10
110.7877251242128
 20
-141.6916096650979
 10
111.0967501892397
 20
-141.6916096650979
 10
111.0967501892397
 20
-141.6916096650979
 10
111.1136311571174
 20
-141.6916096650979
 10
111.2913980841563
 20
-141.6916096650979
 10
111.4154215216253
 20
-141.6724893851548
 10
111.4154215216253
 20
-141.6724893851548
 10
111.4154215216253
 20
-141.9074448972488
 10
111.4154215216253
 20
-141.9074448972488
 10
111.2786512308609
 20
-141.8883246173057
 10
111.1119086093748
 20
-141.8883246173057
 10
111.0967501892397
 20
-141.8883246173057
 97
        0
 97
        0
 75
     2
 76
     1
 98
        0
  0
SPLINE
  5
CA
330
A8
100
AcDbEntity
  8
_U+30EC_U+30A4_U+30E4_U+30FC 1
370
     0
100
AcDbSpline
210
0.0
220
0.0
230
1.0
 70
    11
 71
     3
 72
    29
 73
    25
 74
     0
 42
0.0000000001
 43
0.0000000001
 12
1.0
 22
0.0
 32
0.0
 13
1.0
 23
0.0
 33
0.0
 40
0.0
 40
0.0
 40
0.0
 40
0.0
 40
1.0
 40
1.0
 40
1.0
 40
2.0
 40
2.0
 40
2.0
 40
3.0
 40
3.0
 40
3.0
 40
4.0
 40
4.0
 40
4.0
 40
5.0
 40
5.0
 40
5.0
 40
6.0
 40
6.0
 40
6.0
 40
7.0
 40
7.0
 40
7.0
 40
8.0
 40
8.0
 40
8.0
 40
8.0
 10
112.8044840212781
 20
-142.5800997907439
 30
0.0
 10
112.8044840212781
 20
-142.5800997907439
 30
0.0
 10
112.3803927670438
 20
-142.5800997907439
 30
0.0
 10
112.3803927670438
 20
-142.5800997907439
 30
0.0
 10
112.356277098647
 20
-142.5800997907439
 30
0.0
 10
112.0786024025359
 20
-142.5800997907439
 30
0.0
 10
111.8932562654295
 20
-142.6054212425605
 30
0.0
 10
111.8932562654295
 20
-142.6054212425605
 30
0.0
 10
111.8932562654295
 20
-142.3749443545972
 30
0.0
 10
111.8932562654295
 20
-142.3749443545972
 30
0.0
 10
112.0324381230336
 20
-142.3981987491227
 30
0.0
 10
112.1991807445197
 20
-142.4002658064138
 30
0.0
 10
112.3803927670438
 20
-142.4002658064138
 30
0.0
 10
112.3803927670438
 20
-142.4002658064138
 30
0.0
 10
112.8044840212781
 20
-142.4002658064138
 30
0.0
 10
112.8044840212781
 20
-142.4002658064138
 30
0.0
 10
112.9674370377304
 20
-142.4002658064138
 30
0.0
 10
113.1303900541827
 20
-142.3981987491227
 30
0.0
 10
113.2912760133438
 20
-142.3749443545972
 30
0.0
 10
113.2912760133438
 20
-142.3749443545972
 30
0.0
 10
113.2912760133438
 20
-142.6054212425605
 30
0.0
 10
113.2912760133438
 20
-142.6054212425605
 30
0.0
 10
113.1303900541827
 20
-142.582166848035
 30
0.0
 10
112.9136935481605
 20
-142.5800997907439
 30
0.0
 10
112.8044840212781
 20
-142.5800997907439
 30
0.0
  0
HATCH
  5
CB
330
A8
100
AcDbEntity
  8
_U+30EC_U+30A4_U+30E4_U+30FC 1
 62
   179
420
  2234388
100
AcDbHatch
 10
0.0
 20
0.0
 30
0.0
210
0.0
220
0.0
230
1.0
  2
SOLID
 70
     1
 71
     0
 91
        1
 92
        1
 93
        1
 72
     4
 94
        3
 73
     0
 74
     1
 95
       29
 96
       25
 40
0.0
 40
0.0
 40
0.0
 40
0.0
 40
1.0
 40
1.0
 40
1.0
 40
2.0
 40
2.0
 40
2.0
 40
3.0
 40
3.0
 40
3.0
 40
4.0
 40
4.0
 40
4.0
 40
5.0
 40
5.0
 40
5.0
 40
6.0
 40
6.0
 40
6.0
 40
7.0
 40
7.0
 40
7.0
 40
8.0
 40
8.0
 40
8.0
 40
8.0
 10
112.8044840212781
 20
-142.5800997907439
 10
112.8044840212781
 20
-142.5800997907439
 10
112.3803927670438
 20
-142.5800997907439
 10
112.3803927670438
 20
-142.5800997907439
 10
112.356277098647
 20
-142.5800997907439
 10
112.0786024025359
 20
-142.5800997907439
 10
111.8932562654295
 20
-142.6054212425605
 10
111.8932562654295
 20
-142.6054212425605
 10
111.8932562654295
 20
-142.3749443545972
 10
111.8932562654295
 20
-142.3749443545972
 10
112.0324381230336
 20
-142.3981987491227
 10
112.1991807445197
 20
-142.4002658064138
 10
112.3803927670438
 20
-142.4002658064138
 10
112.3803927670438
 20
-142.4002658064138
 10
112.8044840212781
 20
-142.4002658064138
 10
112.8044840212781
 20
-142.4002658064138
 10
112.9674370377304
 20
-142.4002658064138
 10
113.1303900541827
 20
-142.3981987491227
 10
113.2912760133438
 20
-142.3749443545972
 10
113.2912760133438
 20
-142.3749443545972
 10
113.2912760133438
 20
-142.6054212425605
 10
113.2912760133438
 20
-142.6054212425605
 10
113.1303900541827
 20
-142.582166848035
 10
112.9136935481605
 20
-142.5800997907439
 10
112.8044840212781
 20
-142.5800997907439
 97
        0
 97
        0
 75
     2
 76
     1
 98
        0
  0
SPLINE
  5
CC
330
A8
100
AcDbEntity
  8
_U+30EC_U+30A4_U+30E4_U+30FC 1
370
     0
100
AcDbSpline
210
0.0
220
0.0
230
1.0
 70
    11
 71
     3
 72
    44
 73
    40
 74
     0
 42
0.0000000001
 43
0.0000000001
 12
1.0
 22
0.0
 32
0.0
 13
1.0
 23
0.0
 33
0.0
 40
0.0
 40
0.0
 40
0.0
 40
0.0
 40
1.0
 40
1.0
 40
1.0
 40
2.0
 40
2.0
 40
2.0
 40
3.0
 40
3.0
 40
3.0
 40
4.0
 40
4.0
 40
4.0
 40
5.0
 40
5.0
 40
5.0
 40
6.0
 40
6.0
 40
6.0
 40
7.0
 40
7.0
 40
7.0
 40
8.0
 40
8.0
 40
8.0
 40
9.0
 40
9.0
 40
9.0
 40
10.0
 40
10.0
 40
10.0
 40
11.0
 40
11.0
 40
11.0
 40
12.0
 40
12.0
 40
12.0
 40
13.0
 40
13.0
 40
13.0
 40
13.0
 10
114.741661212634
 20
-142.1422281545686
 30
0.0
 10
114.6434759913044
 20
-142.5103366071676
 30
0.0
 10
114.5990342595447
 20
-142.6689832542633
 30
0.0
 10
114.4267794852822
 20
-142.9185804221697
 30
0.0
 10
114.2655490165725
 20
-143.1492295649071
 30
0.0
 10
114.0581542683605
 20
-143.3352647211106
 30
0.0
 10
113.8138969984563
 20
-143.4284545539867
 30
0.0
 10
113.8138969984563
 20
-143.4284545539867
 30
0.0
 10
113.6454318292275
 20
-143.2486205696566
 30
0.0
 10
113.6454318292275
 20
-143.2486205696566
 30
0.0
 10
114.2062933742262
 20
-143.0963473492086
 30
0.0
 10
114.4953368854387
 20
-142.5399644283407
 30
0.0
 10
114.5508029227512
 20
-142.0998534801001
 30
0.0
 10
114.5508029227512
 20
-142.0998534801001
 30
0.0
 10
113.8803873413216
 20
-142.0998534801001
 30
0.0
 10
113.8803873413216
 20
-142.0998534801001
 30
0.0
 10
113.7990830878697
 20
-142.0998534801001
 30
0.0
 10
113.63785261916
 20
-142.1041598494566
 30
0.0
 10
113.500737818847
 20
-142.1231078746255
 30
0.0
 10
113.500737818847
 20
-142.1231078746255
 30
0.0
 10
113.500737818847
 20
-141.9031385278923
 30
0.0
 10
113.500737818847
 20
-141.9031385278923
 30
0.0
 10
113.5768744290711
 20
-141.9243258651266
 30
0.0
 10
113.7970160305785
 20
-141.9243258651266
 30
0.0
 10
113.8841769463554
 20
-141.9243258651266
 30
0.0
 10
113.8841769463554
 20
-141.9243258651266
 30
0.0
 10
114.2621039210873
 20
-141.9243258651266
 30
0.0
 10
114.2621039210873
 20
-141.9243258651266
 30
0.0
 10
114.2989664427794
 20
-141.9243258651266
 30
0.0
 10
114.5046386432488
 20
-141.9220865530611
 30
0.0
 10
114.5377115599073
 20
-141.9158853811877
 30
0.0
 10
114.5749185911479
 20
-141.90951195454
 30
0.0
 10
114.5766411388906
 20
-141.9074448972488
 30
0.0
 10
114.6303846284605
 20
-141.8671372800714
 30
0.0
 10
114.6303846284605
 20
-141.8671372800714
 30
0.0
 10
114.7954047022039
 20
-142.0216498125849
 30
0.0
 10
114.7954047022039
 20
-142.0216498125849
 30
0.0
 10
114.769221976516
 20
-142.051277633758
 30
0.0
 10
114.7561306136721
 20
-142.0829725122223
 30
0.0
 10
114.741661212634
 20
-142.1422281545686
 30
0.0
  0
SPLINE
  5
CD
330
A8
100
AcDbEntity
  8
_U+30EC_U+30A4_U+30E4_U+30FC 1
370
     0
100
AcDbSpline
210
0.0
220
0.0
230
1.0
 70
    11
 71
     3
 72
    17
 73
    13
 74
     0
 42
0.0000000001
 43
0.0000000001
 12
1.0
 22
0.0
 32
0.0
 13
1.0
 23
0.0
 33
0.0
 40
0.0
 40
0.0
 40
0.0
 40
0.0
 40
1.0
 40
1.0
 40
1.0
 40
2.0
 40
2.0
 40
2.0
 40
3.0
 40
3.0
 40
3.0
 40
4.0
 40
4.0
 40
4.0
 40
4.0
 10
114.9249402924493
 20
-141.9432738902954
 30
0.0
 10
114.8136637082758
 20
-141.9432738902954
 30
0.0
 10
114.7247802447563
 20
-141.8418158282548
 30
0.0
 10
114.7247802447563
 20
-141.7148640596234
 30
0.0
 10
114.7247802447563
 20
-141.5879122909919
 30
0.0
 10
114.8136637082758
 20
-141.4842149168859
 30
0.0
 10
114.9249402924493
 20
-141.4842149168859
 30
0.0
 10
115.0358723670744
 20
-141.4842149168859
 30
0.0
 10
115.126822887885
 20
-141.5879122909919
 30
0.0
 10
115.126822887885
 20
-141.7148640596234
 30
0.0
 10
115.126822887885
 20
-141.8418158282548
 30
0.0
 10
115.0358723670744
 20
-141.9432738902954
 30
0.0
 10
114.9249402924493
 20
-141.9432738902954
 30
0.0
  0
SPLINE
  5
CE
330
A8
100
AcDbEntity
  8
_U+30EC_U+30A4_U+30E4_U+30FC 1
370
     0
100
AcDbSpline
210
0.0
220
0.0
230
1.0
 70
    11
 71
     3
 72
    17
 73
    13
 74
     0
 42
0.0000000001
 43
0.0000000001
 12
1.0
 22
0.0
 32
0.0
 13
1.0
 23
0.0
 33
0.0
 40
0.0
 40
0.0
 40
0.0
 40
0.0
 40
1.0
 40
1.0
 40
1.0
 40
2.0
 40
2.0
 40
2.0
 40
3.0
 40
3.0
 40
3.0
 40
4.0
 40
4.0
 40
4.0
 40
4.0
 10
114.9228732351582
 20
-141.6132337428085
 30
0.0
 10
114.8746418983647
 20
-141.6132337428085
 30
0.0
 10
114.8360568289299
 20
-141.6576754745682
 30
0.0
 10
114.8360568289299
 20
-141.7127970023322
 30
0.0
 10
114.8360568289299
 20
-141.7698133326131
 30
0.0
 10
114.8746418983647
 20
-141.8185614337294
 30
0.0
 10
114.926662840192
 20
-141.8185614337294
 30
0.0
 10
114.9786837820192
 20
-141.8185614337294
 30
0.0
 10
115.0138237559688
 20
-141.767746275322
 30
0.0
 10
115.0138237559688
 20
-141.7148640596234
 30
0.0
 10
115.0138237559688
 20
-141.6576754745682
 30
0.0
 10
114.9731716292428
 20
-141.6132337428085
 30
0.0
 10
114.9228732351582
 20
-141.6132337428085
 30
0.0
  0
HATCH
  5
CF
330
A8
100
AcDbEntity
  8
_U+30EC_U+30A4_U+30E4_U+30FC 1
 62
   179
420
  2234388
100
AcDbHatch
 10
0.0
 20
0.0
 30
0.0
210
0.0
220
0.0
230
1.0
  2
SOLID
 70
     1
 71
     0
 91
        3
 92
        1
 93
        1
 72
     4
 94
        3
 73
     0
 74
     1
 95
       44
 96
       40
 40
0.0
 40
0.0
 40
0.0
 40
0.0
 40
1.0
 40
1.0
 40
1.0
 40
2.0
 40
2.0
 40
2.0
 40
3.0
 40
3.0
 40
3.0
 40
4.0
 40
4.0
 40
4.0
 40
5.0
 40
5.0
 40
5.0
 40
6.0
 40
6.0
 40
6.0
 40
7.0
 40
7.0
 40
7.0
 40
8.0
 40
8.0
 40
8.0
 40
9.0
 40
9.0
 40
9.0
 40
10.0
 40
10.0
 40
10.0
 40
11.0
 40
11.0
 40
11.0
 40
12.0
 40
12.0
 40
12.0
 40
13.0
 40
13.0
 40
13.0
 40
13.0
 10
114.741661212634
 20
-142.1422281545686
 10
114.6434759913044
 20
-142.5103366071676
 10
114.5990342595447
 20
-142.6689832542633
 10
114.4267794852822
 20
-142.9185804221697
 10
114.2655490165725
 20
-143.1492295649071
 10
114.0581542683605
 20
-143.3352647211106
 10
113.8138969984563
 20
-143.4284545539867
 10
113.8138969984563
 20
-143.4284545539867
 10
113.6454318292275
 20
-143.2486205696566
 10
113.6454318292275
 20
-143.2486205696566
 10
114.2062933742262
 20
-143.0963473492086
 10
114.4953368854387
 20
-142.5399644283407
 10
114.5508029227512
 20
-142.0998534801001
 10
114.5508029227512
 20
-142.0998534801001
 10
113.8803873413216
 20
-142.0998534801001
 10
113.8803873413216
 20
-142.0998534801001
 10
113.7990830878697
 20
-142.0998534801001
 10
113.63785261916
 20
-142.1041598494566
 10
113.500737818847
 20
-142.1231078746255
 10
113.500737818847
 20
-142.1231078746255
 10
113.500737818847
 20
-141.9031385278923
 10
113.500737818847
 20
-141.9031385278923
 10
113.5768744290711
 20
-141.9243258651266
 10
113.7970160305785
 20
-141.9243258651266
 10
113.8841769463554
 20
-141.9243258651266
 10
113.8841769463554
 20
-141.9243258651266
 10
114.2621039210873
 20
-141.9243258651266
 10
114.2621039210873
 20
-141.9243258651266
 10
114.2989664427794
 20
-141.9243258651266
 10
114.5046386432488
 20
-141.9220865530611
 10
114.5377115599073
 20
-141.9158853811877
 10
114.5749185911479
 20
-141.90951195454
 10
114.5766411388906
 20
-141.9074448972488
 10
114.6303846284605
 20
-141.8671372800714
 10
114.6303846284605
 20
-141.8671372800714
 10
114.7954047022039
 20
-142.0216498125849
 10
114.7954047022039
 20
-142.0216498125849
 10
114.769221976516
 20
-142.051277633758
 10
114.7561306136721
 20
-142.0829725122223
 10
114.741661212634
 20
-142.1422281545686
 97
        0
 97
        0
 92
        1
 93
        1
 72
     4
 94
        3
 73
     0
 74
     1
 95
       17
 96
       13
 40
0.0
 40
0.0
 40
0.0
 40
0.0
 40
1.0
 40
1.0
 40
1.0
 40
2.0
 40
2.0
 40
2.0
 40
3.0
 40
3.0
 40
3.0
 40
4.0
 40
4.0
 40
4.0
 40
4.0
 10
114.9249402924493
 20
-141.9432738902954
 10
114.8136637082758
 20
-141.9432738902954
 10
114.7247802447563
 20
-141.8418158282548
 10
114.7247802447563
 20
-141.7148640596234
 10
114.7247802447563
 20
-141.5879122909919
 10
114.8136637082758
 20
-141.4842149168859
 10
114.9249402924493
 20
-141.4842149168859
 10
115.0358723670744
 20
-141.4842149168859
 10
115.126822887885
 20
-141.5879122909919
 10
115.126822887885
 20
-141.7148640596234
 10
115.126822887885
 20
-141.8418158282548
 10
115.0358723670744
 20
-141.9432738902954
 10
114.9249402924493
 20
-141.9432738902954
 97
        0
 97
        0
 92
        1
 93
        1
 72
     4
 94
        3
 73
     0
 74
     1
 95
       17
 96
       13
 40
0.0
 40
0.0
 40
0.0
 40
0.0
 40
1.0
 40
1.0
 40
1.0
 40
2.0
 40
2.0
 40
2.0
 40
3.0
 40
3.0
 40
3.0
 40
4.0
 40
4.0
 40
4.0
 40
4.0
 10
114.9228732351582
 20
-141.6132337428085
 10
114.8746418983647
 20
-141.6132337428085
 10
114.8360568289299
 20
-141.6576754745682
 10
114.8360568289299
 20
-141.7127970023322
 10
114.8360568289299
 20
-141.7698133326131
 10
114.8746418983647
 20
-141.8185614337294
 10
114.926662840192
 20
-141.8185614337294
 10
114.9786837820192
 20
-141.8185614337294
 10
115.0138237559688
 20
-141.767746275322
 10
115.0138237559688
 20
-141.7148640596234
 10
115.0138237559688
 20
-141.6576754745682
 10
114.9731716292428
 20
-141.6132337428085
 10
114.9228732351582
 20
-141.6132337428085
 97
        0
 97
        0
 75
     2
 76
     1
 98
        0
  0
ENDBLK
  5
AB
330
A8
100
AcDbEntity
  8
0
100
AcDbBlockEnd
  0
ENDSEC
  0
SECTION
  2
ENTITIES
  0
POLYLINE
  5
41
330
1F
100
AcDbEntity
  8
_U+30EC_U+30A4_U+30E4_U+30FC 1
 62
   179
420
  2234388
370
    25
100
AcDb2dPolyline
 66
     1
 10
0.0
 20
0.0
 30
0.0
  0
VERTEX
  5
42
330
41
100
AcDbEntity
  8
_U+30EC_U+30A4_U+30E4_U+30FC 1
 62
   179
420
  2234388
370
    25
100
AcDbVertex
100
AcDb2dVertex
 10
101.1504580774688
 20
-152.761261287222
 30
0.0
  0
VERTEX
  5
43
330
41
100
AcDbEntity
  8
_U+30EC_U+30A4_U+30E4_U+30FC 1
 62
   179
420
  2234388
370
    25
100
AcDbVertex
100
AcDb2dVertex
 10
115.1507878333542
 20
-152.761261287222
 30
0.0
  0
SEQEND
  5
44
330
41
100
AcDbEntity
  8
_U+30EC_U+30A4_U+30E4_U+30FC 1
 62
   179
420
  2234388
370
    25
  0
POLYLINE
  5
45
330
1F
100
AcDbEntity
  8
_U+30EC_U+30A4_U+30E4_U+30FC 1
 62
   179
420
  2234388
370
    25
100
AcDb2dPolyline
 66
     1
 10
0.0
 20
0.0
 30
0.0
  0
VERTEX
  5
46
330
45
100
AcDbEntity
  8
_U+30EC_U+30A4_U+30E4_U+30FC 1
 62
   179
420
  2234388
370
    25
100
AcDbVertex
100
AcDb2dVertex
 10
115.1506478763501
 20
-152.761261287222
 30
0.0
  0
VERTEX
  5
47
330
45
100
AcDbEntity
  8
_U+30EC_U+30A4_U+30E4_U+30FC 1
 62
   179
420
  2234388
370
    25
100
AcDbVertex
100
AcDb2dVertex
 10
115.1506478763501
 20
-153.1613230004467
 30
0.0
  0
SEQEND
  5
48
330
45
100
AcDbEntity
  8
_U+30EC_U+30A4_U+30E4_U+30FC 1
 62
   179
420
  2234388
370
    25
  0
POLYLINE
  5
49
330
1F
100
AcDbEntity
  8
_U+30EC_U+30A4_U+30E4_U+30FC 1
 62
   179
420
  2234388
370
    25
100
AcDb2dPolyline
 66
     1
 10
0.0
 20
0.0
 30
0.0
  0
VERTEX
  5
4A
330
49
100
AcDbEntity
  8
_U+30EC_U+30A4_U+30E4_U+30FC 1
 62
   179
420
  2234388
370
    25
100
AcDbVertex
100
AcDb2dVertex
 10
101.5507889387779
 20
-138.7610607224169
 30
0.0
  0
VERTEX
  5
4B
330
49
100
AcDbEntity
  8
_U+30EC_U+30A4_U+30E4_U+30FC 1
 62
   179
420
  2234388
370
    25
100
AcDbVertex
100
AcDb2dVertex
 10
101.9504846106072
 20
-138.7610607224169
 30
0.0
  0
SEQEND
  5
4C
330
49
100
AcDbEntity
  8
_U+30EC_U+30A4_U+30E4_U+30FC 1
 62
   179
420
  2234388
370
    25
  0
POLYLINE
  5
4D
330
1F
100
AcDbEntity
  8
_U+30EC_U+30A4_U+30E4_U+30FC 1
 62
   179
420
  2234388
370
    25
100
AcDb2dPolyline
 66
     1
 10
0.0
 20
0.0
 30
0.0
  0
VERTEX
  5
4E
330
4D
100
AcDbEntity
  8
_U+30EC_U+30A4_U+30E4_U+30FC 1
 62
   179
420
  2234388
370
    25
100
AcDbVertex
100
AcDb2dVertex
 10
101.9504092491438
 20
-138.7610607224169
 30
0.0
  0
VERTEX
  5
4F
330
4D
100
AcDbEntity
  8
_U+30EC_U+30A4_U+30E4_U+30FC 1
 62
   179
420
  2234388
370
    25
100
AcDbVertex
100
AcDb2dVertex
 10
101.150307354541
 20
-152.7614120101495
 30
0.0
  0
SEQEND
  5
50
330
4D
100
AcDbEntity
  8
_U+30EC_U+30A4_U+30E4_U+30FC 1
 62
   179
420
  2234388
370
    25
  0
POLYLINE
  5
51
330
1F
100
AcDbEntity
  8
_U+30EC_U+30A4_U+30E4_U+30FC 1
 62
   179
420
  2234388
370
    25
100
AcDb2dPolyline
 66
     1
 10
0.0
 20
0.0
 30
0.0
  0
VERTEX
  5
52
330
51
100
AcDbEntity
  8
_U+30EC_U+30A4_U+30E4_U+30FC 1
 62
   179
420
  2234388
370
    25
100
AcDbVertex
100
AcDb2dVertex
 10
115.1506478763501
 20
-153.1612368730595
 30
0.0
  0
VERTEX
  5
53
330
51
100
AcDbEntity
  8
_U+30EC_U+30A4_U+30E4_U+30FC 1
 62
   179
420
  2234388
370
    25
100
AcDbVertex
100
AcDb2dVertex
 10
100.9845013683899
 20
-153.7602743824041
 30
0.0
  0
SEQEND
  5
54
330
51
100
AcDbEntity
  8
_U+30EC_U+30A4_U+30E4_U+30FC 1
 62
   179
420
  2234388
370
    25
  0
POLYLINE
  5
55
330
1F
100
AcDbEntity
  8
_U+30EC_U+30A4_U+30E4_U+30FC 1
 62
   179
420
  2234388
370
    25
100
AcDb2dPolyline
 66
     1
 10
0.0
 20
0.0
 30
0.0
  0
VERTEX
  5
56
330
55
100
AcDbEntity
  8
_U+30EC_U+30A4_U+30E4_U+30FC 1
 62
   179
420
  2234388
370
    25
100
AcDbVertex
100
AcDb2dVertex
 10
101.5507889387779
 20
-138.7610607224169
 30
0.0
  0
VERTEX
  5
57
330
55
100
AcDbEntity
  8
_U+30EC_U+30A4_U+30E4_U+30FC 1
 62
   179
420
  2234388
370
    25
100
AcDbVertex
100
AcDb2dVertex
 10
100.154847014078
 20
-152.8824209890689
 30
0.0
  0
SEQEND
  5
58
330
55
100
AcDbEntity
  8
_U+30EC_U+30A4_U+30E4_U+30FC 1
 62
   179
420
  2234388
370
    25
  0
SPLINE
  5
59
330
1F
100
AcDbEntity
  8
_U+30EC_U+30A4_U+30E4_U+30FC 1
 62
   179
420
  2234388
370
    25
100
AcDbSpline
210
0.0
220
0.0
230
1.0
 70
     8
 71
     3
 72
    11
 73
     7
 74
     0
 42
0.0000000001
 43
0.0000000001
 12
1.0
 22
0.0
 32
0.0
 13
1.0
 23
0.0
 33
0.0
 40
0.0
 40
0.0
 40
0.0
 40
0.0
 40
1.0
 40
1.0
 40
1.0
 40
2.0
 40
2.0
 40
2.0
 40
2.0
 10
100.154847014078
 20
-152.882507116456
 30
0.0
 10
100.1114495768873
 20
-153.3220797685271
 30
0.0
 10
100.4324786464956
 20
-153.7136579341193
 30
0.0
 10
100.8720405326433
 20
-153.7570446053867
 30
0.0
 10
100.9094305845817
 20
-153.7609418696544
 30
0.0
 10
100.9471759119919
 20
-153.7619969301468
 30
0.0
 10
100.984576729854
 20
-153.7602313187106
 30
0.0
  0
SPLINE
  5
5A
330
1F
100
AcDbEntity
  8
_U+30EC_U+30A4_U+30E4_U+30FC 1
 62
   179
420
  2234388
370
     9
100
AcDbSpline
210
0.0
220
0.0
230
1.0
 70
    11
 71
     3
 72
    17
 73
    13
 74
     0
 42
0.0000000001
 43
0.0000000001
 12
1.0
 22
0.0
 32
0.0
 13
1.0
 23
0.0
 33
0.0
 40
0.0
 40
0.0
 40
0.0
 40
0.0
 40
1.0
 40
1.0
 40
1.0
 40
2.0
 40
2.0
 40
2.0
 40
3.0
 40
3.0
 40
3.0
 40
4.0
 40
4.0
 40
4.0
 40
4.0
 10
115.2505556454224
 20
-157.7611068331183
 30
0.0
 10
115.2505556454224
 20
-157.7060929645882
 30
0.0
 10
115.2057478722674
 20
-157.6612851914332
 30
0.0
 10
115.1507124718905
 20
-157.6612851914332
 30
0.0
 10
115.0956770715136
 20
-157.6612851914332
 30
0.0
 10
115.050880064282
 20
-157.7060929645882
 30
0.0
 10
115.050880064282
 20
-157.7611068331183
 30
0.0
 10
115.050880064282
 20
-157.8161422334952
 30
0.0
 10
115.0956770715136
 20
-157.8609500066502
 30
0.0
 10
115.1507124718905
 20
-157.8609500066502
 30
0.0
 10
115.2057478722674
 20
-157.8609500066502
 30
0.0
 10
115.2505556454224
 20
-157.8161422334952
 30
0.0
 10
115.2505556454224
 20
-157.7611068331183
 30
0.0
  0
SPLINE
  5
5B
330
1F
100
AcDbEntity
  8
_U+30EC_U+30A4_U+30E4_U+30FC 1
 62
   179
420
  2234388
370
     9
100
AcDbSpline
210
0.0
220
0.0
230
1.0
 70
    11
 71
     3
 72
    17
 73
    13
 74
     0
 42
0.0000000001
 43
0.0000000001
 12
1.0
 22
0.0
 32
0.0
 13
1.0
 23
0.0
 33
0.0
 40
0.0
 40
0.0
 40
0.0
 40
0.0
 40
1.0
 40
1.0
 40
1.0
 40
2.0
 40
2.0
 40
2.0
 40
3.0
 40
3.0
 40
3.0
 40
4.0
 40
4.0
 40
4.0
 40
4.0
 10
96.25086481019294
 20
-153.7610279970415
 30
0.0
 10
96.25086481019294
 20
-153.7060141285114
 30
0.0
 10
96.20605703703822
 20
-153.6612063553564
 30
0.0
 10
96.15102163666135
 20
-153.6612063553564
 30
0.0
 10
96.09598623628449
 20
-153.6612063553564
 30
0.0
 10
96.05118922905253
 20
-153.7060141285114
 30
0.0
 10
96.05118922905253
 20
-153.7610279970415
 30
0.0
 10
96.05118922905253
 20
-153.8164294388137
 30
0.0
 10
96.09598623628449
 20
-153.8608711705734
 30
0.0
 10
96.15102163666135
 20
-153.8608711705734
 30
0.0
 10
96.20605703703822
 20
-153.8608711705734
 30
0.0
 10
96.25086481019294
 20
-153.8164294388137
 30
0.0
 10
96.25086481019294
 20
-153.7610279970415
 30
0.0
  0
SPLINE
  5
5C
330
1F
100
AcDbEntity
  8
_U+30EC_U+30A4_U+30E4_U+30FC 1
 62
   179
420
  2234388
370
     9
100
AcDbSpline
210
0.0
220
0.0
230
1.0
 70
    11
 71
     3
 72
    17
 73
    13
 74
     0
 42
0.0000000001
 43
0.0000000001
 12
1.0
 22
0.0
 32
0.0
 13
1.0
 23
0.0
 33
0.0
 40
0.0
 40
0.0
 40
0.0
 40
0.0
 40
1.0
 40
1.0
 40
1.0
 40
2.0
 40
2.0
 40
2.0
 40
3.0
 40
3.0
 40
3.0
 40
4.0
 40
4.0
 40
4.0
 40
4.0
 10
100.2505883707978
 20
-157.7611068331183
 30
0.0
 10
100.2505883707978
 20
-157.7060929645882
 30
0.0
 10
100.2057805976428
 20
-157.6612851914332
 30
0.0
 10
100.1507451972659
 20
-157.6612851914332
 30
0.0
 10
100.0957097968891
 20
-157.6612851914332
 30
0.0
 10
100.0509127896574
 20
-157.7060929645882
 30
0.0
 10
100.0509127896574
 20
-157.7611068331183
 30
0.0
 10
100.0509127896574
 20
-157.8161422334952
 30
0.0
 10
100.0957097968891
 20
-157.8609500066502
 30
0.0
 10
100.1507451972659
 20
-157.8609500066502
 30
0.0
 10
100.2057805976428
 20
-157.8609500066502
 30
0.0
 10
100.2505883707978
 20
-157.8161422334952
 30
0.0
 10
100.2505883707978
 20
-157.7611068331183
 30
0.0
  0
SPLINE
  5
5D
330
1F
100
AcDbEntity
  8
_U+30EC_U+30A4_U+30E4_U+30FC 1
 62
   179
420
  2234388
370
     9
100
AcDbSpline
210
0.0
220
0.0
230
1.0
 70
    11
 71
     3
 72
    17
 73
    13
 74
     0
 42
0.0000000001
 43
0.0000000001
 12
1.0
 22
0.0
 32
0.0
 13
1.0
 23
0.0
 33
0.0
 40
0.0
 40
0.0
 40
0.0
 40
0.0
 40
1.0
 40
1.0
 40
1.0
 40
2.0
 40
2.0
 40
2.0
 40
3.0
 40
3.0
 40
3.0
 40
4.0
 40
4.0
 40
4.0
 40
4.0
 10
96.25086481019294
 20
-138.7610607224169
 30
0.0
 10
96.25086481019294
 20
-138.7060468538872
 30
0.0
 10
96.20605703703822
 20
-138.6612390807318
 30
0.0
 10
96.15102163666135
 20
-138.6612390807318
 30
0.0
 10
96.09598623628449
 20
-138.6612390807318
 30
0.0
 10
96.05118922905253
 20
-138.7060468538872
 30
0.0
 10
96.05118922905253
 20
-138.7610607224169
 30
0.0
 10
96.05118922905253
 20
-138.8164621641894
 30
0.0
 10
96.09598623628449
 20
-138.8612699373442
 30
0.0
 10
96.15102163666135
 20
-138.8612699373442
 30
0.0
 10
96.20605703703822
 20
-138.8612699373442
 30
0.0
 10
96.25086481019294
 20
-138.8164621641894
 30
0.0
 10
96.25086481019294
 20
-138.7610607224169
 30
0.0
  0
POLYLINE
  5
5E
330
1F
100
AcDbEntity
  8
_U+30EC_U+30A4_U+30E4_U+30FC 1
 62
   179
420
  2234388
370
     9
100
AcDb2dPolyline
 66
     1
 10
0.0
 20
0.0
 30
0.0
  0
VERTEX
  5
5F
330
5E
100
AcDbEntity
  8
_U+30EC_U+30A4_U+30E4_U+30FC 1
 62
   179
420
  2234388
370
     9
100
AcDbVertex
100
AcDb2dVertex
 10
96.15092474335052
 20
-153.7610279970415
 30
0.0
  0
VERTEX
  5
60
330
5E
100
AcDbEntity
  8
_U+30EC_U+30A4_U+30E4_U+30FC 1
 62
   179
420
  2234388
370
     9
100
AcDbVertex
100
AcDb2dVertex
 10
96.15092474335052
 20
-138.7609315313362
 30
0.0
  0
SEQEND
  5
61
330
5E
100
AcDbEntity
  8
_U+30EC_U+30A4_U+30E4_U+30FC 1
 62
   179
420
  2234388
370
     9
  0
POLYLINE
  5
62
330
1F
100
AcDbEntity
  8
_U+30EC_U+30A4_U+30E4_U+30FC 1
 62
   179
420
  2234388
370
     9
100
AcDb2dPolyline
 66
     1
 10
0.0
 20
0.0
 30
0.0
  0
VERTEX
  5
63
330
62
100
AcDbEntity
  8
_U+30EC_U+30A4_U+30E4_U+30FC 1
 62
   179
420
  2234388
370
     9
100
AcDbVertex
100
AcDb2dVertex
 10
98.41092891352119
 20
-153.7610279970415
 30
0.0
  0
VERTEX
  5
64
330
62
100
AcDbEntity
  8
_U+30EC_U+30A4_U+30E4_U+30FC 1
 62
   179
420
  2234388
370
     9
100
AcDbVertex
100
AcDb2dVertex
 10
95.15055514182109
 20
-153.7610279970415
 30
0.0
  0
SEQEND
  5
65
330
62
100
AcDbEntity
  8
_U+30EC_U+30A4_U+30E4_U+30FC 1
 62
   179
420
  2234388
370
     9
  0
POLYLINE
  5
66
330
1F
100
AcDbEntity
  8
_U+30EC_U+30A4_U+30E4_U+30FC 1
 62
   179
420
  2234388
370
     9
100
AcDb2dPolyline
 66
     1
 10
0.0
 20
0.0
 30
0.0
  0
VERTEX
  5
67
330
66
100
AcDbEntity
  8
_U+30EC_U+30A4_U+30E4_U+30FC 1
 62
   179
420
  2234388
370
     9
100
AcDbVertex
100
AcDb2dVertex
 10
99.0110645470517
 20
-138.7610607224169
 30
0.0
  0
VERTEX
  5
68
330
66
100
AcDbEntity
  8
_U+30EC_U+30A4_U+30E4_U+30FC 1
 62
   179
420
  2234388
370
     9
100
AcDbVertex
100
AcDb2dVertex
 10
95.15060897143805
 20
-138.7610607224169
 30
0.0
  0
SEQEND
  5
69
330
66
100
AcDbEntity
  8
_U+30EC_U+30A4_U+30E4_U+30FC 1
 62
   179
420
  2234388
370
     9
  0
INSERT
  5
6B
330
1F
100
AcDbEntity
  8
_U+30EC_U+30A4_U+30E4_U+30FC 1
100
AcDbBlockReference
  2
block 2
 10
0.0
 20
0.0
 30
0.0
  0
POLYLINE
  5
72
330
1F
100
AcDbEntity
  8
_U+30EC_U+30A4_U+30E4_U+30FC 1
 62
   179
420
  2234388
370
     9
100
AcDb2dPolyline
 66
     1
 10
0.0
 20
0.0
 30
0.0
  0
VERTEX
  5
73
330
72
100
AcDbEntity
  8
_U+30EC_U+30A4_U+30E4_U+30FC 1
 62
   179
420
  2234388
370
     9
100
AcDbVertex
100
AcDb2dVertex
 10
100.1506806017256
 20
-157.7611068331183
 30
0.0
  0
VERTEX
  5
74
330
72
100
AcDbEntity
  8
_U+30EC_U+30A4_U+30E4_U+30FC 1
 62
   179
420
  2234388
370
     9
100
AcDbVertex
100
AcDb2dVertex
 10
115.1507878333542
 20
-157.7611068331183
 30
0.0
  0
SEQEND
  5
75
330
72
100
AcDbEntity
  8
_U+30EC_U+30A4_U+30E4_U+30FC 1
 62
   179
420
  2234388
370
     9
  0
POLYLINE
  5
76
330
1F
100
AcDbEntity
  8
_U+30EC_U+30A4_U+30E4_U+30FC 1
 62
   179
420
  2234388
370
     9
100
AcDb2dPolyline
 66
     1
 10
0.0
 20
0.0
 30
0.0
  0
VERTEX
  5
77
330
76
100
AcDbEntity
  8
_U+30EC_U+30A4_U+30E4_U+30FC 1
 62
   179
420
  2234388
370
     9
100
AcDbVertex
100
AcDb2dVertex
 10
100.1506806017256
 20
-155.5011457266412
 30
0.0
  0
VERTEX
  5
78
330
76
100
AcDbEntity
  8
_U+30EC_U+30A4_U+30E4_U+30FC 1
 62
   179
420
  2234388
370
     9
100
AcDbVertex
100
AcDb2dVertex
 10
100.1506806017256
 20
-158.7611749887928
 30
0.0
  0
SEQEND
  5
79
330
76
100
AcDbEntity
  8
_U+30EC_U+30A4_U+30E4_U+30FC 1
 62
   179
420
  2234388
370
     9
  0
POLYLINE
  5
7A
330
1F
100
AcDbEntity
  8
_U+30EC_U+30A4_U+30E4_U+30FC 1
 62
   179
420
  2234388
370
     9
100
AcDb2dPolyline
 66
     1
 10
0.0
 20
0.0
 30
0.0
  0
VERTEX
  5
7B
330
7A
100
AcDbEntity
  8
_U+30EC_U+30A4_U+30E4_U+30FC 1
 62
   179
420
  2234388
370
     9
100
AcDbVertex
100
AcDb2dVertex
 10
115.1506478763501
 20
-155.7009397329389
 30
0.0
  0
VERTEX
  5
7C
330
7A
100
AcDbEntity
  8
_U+30EC_U+30A4_U+30E4_U+30FC 1
 62
   179
420
  2234388
370
     9
100
AcDbVertex
100
AcDb2dVertex
 10
115.1506478763501
 20
-158.7613041798735
 30
0.0
  0
SEQEND
  5
7D
330
7A
100
AcDbEntity
  8
_U+30EC_U+30A4_U+30E4_U+30FC 1
 62
   179
420
  2234388
370
     9
  0
INSERT
  5
7F
330
1F
100
AcDbEntity
  8
_U+30EC_U+30A4_U+30E4_U+30FC 1
100
AcDbBlockReference
  2
block 3
 10
0.0
 20
0.0
 30
0.0
  0
POLYLINE
  5
86
330
1F
100
AcDbEntity
  8
_U+30EC_U+30A4_U+30E4_U+30FC 1
  6
AI-Linetype-1
 62
   154
420
    23468
370
    25
100
AcDb2dPolyline
 66
     1
 10
0.0
 20
0.0
 30
0.0
  0
VERTEX
  5
87
330
86
100
AcDbEntity
  8
_U+30EC_U+30A4_U+30E4_U+30FC 1
  6
AI-Linetype-1
 62
   154
420
    23468
370
    25
100
AcDbVertex
100
AcDb2dVertex
 10
102.4589053427667
 20
-138.8332785365265
 30
0.0
  0
VERTEX
  5
88
330
86
100
AcDbEntity
  8
_U+30EC_U+30A4_U+30E4_U+30FC 1
  6
AI-Linetype-1
 62
   154
420
    23468
370
    25
100
AcDbVertex
100
AcDb2dVertex
 10
101.8831652916408
 20
-148.8161963196756
 30
0.0
  0
SEQEND
  5
8A
330
86
100
AcDbEntity
  8
_U+30EC_U+30A4_U+30E4_U+30FC 1
  6
AI-Linetype-1
 62
   154
420
    23468
370
    25
  0
POLYLINE
  5
8B
330
1F
100
AcDbEntity
  8
_U+30EC_U+30A4_U+30E4_U+30FC 1
  6
AI-Linetype-2
 62
   154
420
    23468
370
    25
100
AcDb2dPolyline
 66
     1
 10
0.0
 20
0.0
 30
0.0
  0
VERTEX
  5
8C
330
8B
100
AcDbEntity
  8
_U+30EC_U+30A4_U+30E4_U+30FC 1
  6
AI-Linetype-2
 62
   154
420
    23468
370
    25
100
AcDbVertex
100
AcDb2dVertex
 10
105.1223086624133
 20
-152.2613564004655
 30
0.0
  0
VERTEX
  5
8D
330
8B
100
AcDbEntity
  8
_U+30EC_U+30A4_U+30E4_U+30FC 1
  6
AI-Linetype-2
 62
   154
420
    23468
370
    25
100
AcDbVertex
100
AcDb2dVertex
 10
115.1221397112097
 20
-152.2613564004655
 30
0.0
  0
SEQEND
  5
8F
330
8B
100
AcDbEntity
  8
_U+30EC_U+30A4_U+30E4_U+30FC 1
  6
AI-Linetype-2
 62
   154
420
    23468
370
    25
  0
POLYLINE
  5
90
330
1F
100
AcDbEntity
  8
_U+30EC_U+30A4_U+30E4_U+30FC 1
 62
   179
420
  2234388
370
     9
100
AcDb2dPolyline
 66
     1
 10
0.0
 20
0.0
 30
0.0
  0
VERTEX
  5
91
330
90
100
AcDbEntity
  8
_U+30EC_U+30A4_U+30E4_U+30FC 1
 62
   179
420
  2234388
370
     9
100
AcDbVertex
100
AcDb2dVertex
 10
102.7631072741142
 20
-142.5379189028963
 30
0.0
  0
VERTEX
  5
92
330
90
100
AcDbEntity
  8
_U+30EC_U+30A4_U+30E4_U+30FC 1
 62
   179
420
  2234388
370
     9
100
AcDbVertex
100
AcDb2dVertex
 10
105.851323164862
 20
-142.5379189028963
 30
0.0
  0
SEQEND
  5
93
330
90
100
AcDbEntity
  8
_U+30EC_U+30A4_U+30E4_U+30FC 1
 62
   179
420
  2234388
370
     9
  0
POLYLINE
  5
94
330
1F
100
AcDbEntity
  8
_U+30EC_U+30A4_U+30E4_U+30FC 1
 62
   179
420
  2234388
370
     9
100
AcDb2dPolyline
 66
     1
 10
0.0
 20
0.0
 30
0.0
  0
VERTEX
  5
95
330
94
100
AcDbEntity
  8
_U+30EC_U+30A4_U+30E4_U+30FC 1
 62
   179
420
  2234388
370
     9
100
AcDbVertex
100
AcDb2dVertex
 10
102.7631072741142
 20
-142.5379189028963
 30
0.0
  0
VERTEX
  5
96
330
94
100
AcDbEntity
  8
_U+30EC_U+30A4_U+30E4_U+30FC 1
 62
   179
420
  2234388
370
     9
100
AcDbVertex
100
AcDb2dVertex
 10
103.7290043889441
 20
-142.278998445333
 30
0.0
  0
SEQEND
  5
97
330
94
100
AcDbEntity
  8
_U+30EC_U+30A4_U+30E4_U+30FC 1
 62
   179
420
  2234388
370
     9
  0
POLYLINE
  5
98
330
1F
100
AcDbEntity
  8
_U+30EC_U+30A4_U+30E4_U+30FC 1
 62
   179
420
  2234388
370
     9
100
AcDb2dPolyline
 66
     1
 10
0.0
 20
0.0
 30
0.0
  0
VERTEX
  5
99
330
98
100
AcDbEntity
  8
_U+30EC_U+30A4_U+30E4_U+30FC 1
 62
   179
420
  2234388
370
     9
100
AcDbVertex
100
AcDb2dVertex
 10
102.7631072741142
 20
-142.5379189028963
 30
0.0
  0
VERTEX
  5
9A
330
98
100
AcDbEntity
  8
_U+30EC_U+30A4_U+30E4_U+30FC 1
 62
   179
420
  2234388
370
     9
100
AcDbVertex
100
AcDb2dVertex
 10
103.7290043889441
 20
-142.7965163827579
 30
0.0
  0
SEQEND
  5
9B
330
98
100
AcDbEntity
  8
_U+30EC_U+30A4_U+30E4_U+30FC 1
 62
   179
420
  2234388
370
     9
  0
POLYLINE
  5
9C
330
1F
100
AcDbEntity
  8
_U+30EC_U+30A4_U+30E4_U+30FC 1
 62
   179
420
  2234388
370
     9
100
AcDb2dPolyline
 66
     1
 10
0.0
 20
0.0
 30
0.0
  0
VERTEX
  5
9D
330
9C
100
AcDbEntity
  8
_U+30EC_U+30A4_U+30E4_U+30FC 1
 62
   179
420
  2234388
370
     9
100
AcDbVertex
100
AcDb2dVertex
 10
109.2219722898603
 20
-151.7611715997008
 30
0.0
  0
VERTEX
  5
9E
330
9C
100
AcDbEntity
  8
_U+30EC_U+30A4_U+30E4_U+30FC 1
 62
   179
420
  2234388
370
     9
100
AcDbVertex
100
AcDb2dVertex
 10
109.4802037283266
 20
-150.7952744848706
 30
0.0
  0
SEQEND
  5
9F
330
9C
100
AcDbEntity
  8
_U+30EC_U+30A4_U+30E4_U+30FC 1
 62
   179
420
  2234388
370
     9
  0
POLYLINE
  5
A0
330
1F
100
AcDbEntity
  8
_U+30EC_U+30A4_U+30E4_U+30FC 1
 62
   179
420
  2234388
370
     9
100
AcDb2dPolyline
 66
     1
 10
0.0
 20
0.0
 30
0.0
  0
VERTEX
  5
A1
330
A0
100
AcDbEntity
  8
_U+30EC_U+30A4_U+30E4_U+30FC 1
 62
   179
420
  2234388
370
     9
100
AcDbVertex
100
AcDb2dVertex
 10
109.22130480261
 20
-151.7611715997008
 30
0.0
  0
VERTEX
  5
A2
330
A0
100
AcDbEntity
  8
_U+30EC_U+30A4_U+30E4_U+30FC 1
 62
   179
420
  2234388
370
     9
100
AcDbVertex
100
AcDb2dVertex
 10
109.22130480261
 20
-144.1574152268187
 30
0.0
  0
SEQEND
  5
A3
330
A0
100
AcDbEntity
  8
_U+30EC_U+30A4_U+30E4_U+30FC 1
 62
   179
420
  2234388
370
     9
  0
POLYLINE
  5
A4
330
1F
100
AcDbEntity
  8
_U+30EC_U+30A4_U+30E4_U+30FC 1
 62
   179
420
  2234388
370
     9
100
AcDb2dPolyline
 66
     1
 10
0.0
 20
0.0
 30
0.0
  0
VERTEX
  5
A5
330
A4
100
AcDbEntity
  8
_U+30EC_U+30A4_U+30E4_U+30FC 1
 62
   179
420
  2234388
370
     9
100
AcDbVertex
100
AcDb2dVertex
 10
109.2219722898603
 20
-151.7611715997008
 30
0.0
  0
VERTEX
  5
A6
330
A4
100
AcDbEntity
  8
_U+30EC_U+30A4_U+30E4_U+30FC 1
 62
   179
420
  2234388
370
     9
100
AcDbVertex
100
AcDb2dVertex
 10
108.9630303004502
 20
-150.7952744848706
 30
0.0
  0
SEQEND
  5
A7
330
A4
100
AcDbEntity
  8
_U+30EC_U+30A4_U+30E4_U+30FC 1
 62
   179
420
  2234388
370
     9
  0
INSERT
  5
A9
330
1F
100
AcDbEntity
  8
_U+30EC_U+30A4_U+30E4_U+30FC 1
100
AcDbBlockReference
  2
block 4
 10
0.0
 20
0.0
 30
0.0
  0
ENDSEC
  0
SECTION
  2
OBJECTS
  0
DICTIONARY
  5
C
330
0
100
AcDbDictionary
281
     1
  3
ACAD_GROUP
350
D
  3
ACAD_LAYOUT
350
1A
  3
ACAD_MATERIAL
350
3B
  3
ACAD_MLEADERSTYLE
350
D1
  3
ACAD_MLINESTYLE
350
17
  3
ACAD_PLOTSETTINGS
350
19
  3
ACAD_PLOTSTYLENAME
350
E
  3
ACAD_TABLESTYLE
350
D0
  3
ACAD_VISUALSTYLE
350
2A
  0
SUN
  5
3F
330
29
100
AcDbSun
 90
        1
290
     0
 63
     7
421
 16777215
 40
1.0
291
     1
 91
  2455826
 92
 54000000
292
     0
 70
     2
 71
   256
280
     1
  0
DICTIONARY
  5
D
102
{ACAD_REACTORS
330
C
102
}
330
C
100
AcDbDictionary
281
     1
  0
DICTIONARY
  5
1A
102
{ACAD_REACTORS
330
C
102
}
330
C
100
AcDbDictionary
281
     1
  3
Layout1
350
1E
  3
Layout2
350
26
  3
Model
350
22
  0
DICTIONARY
  5
3B
102
{ACAD_REACTORS
330
C
102
}
330
C
100
AcDbDictionary
281
     1
  3
ByBlock
350
3D
  3
ByLayer
350
3C
  3
Global
350
3E
  0
DICTIONARY
  5
D1
102
{ACAD_REACTORS
330
C
102
}
330
C
100
AcDbDictionary
281
     1
  0
DICTIONARY
  5
17
102
{ACAD_REACTORS
330
C
102
}
330
C
100
AcDbDictionary
281
     1
  3
Standard
350
18
  0
DICTIONARY
  5
19
102
{ACAD_REACTORS
330
C
102
}
330
C
100
AcDbDictionary
281
     1
  0
ACDBDICTIONARYWDFLT
  5
E
102
{ACAD_REACTORS
330
C
102
}
330
C
100
AcDbDictionary
281
     1
  3
Normal
350
F
100
AcDbDictionaryWithDefault
340
F
  0
DICTIONARY
  5
D0
102
{ACAD_REACTORS
330
C
102
}
330
C
100
AcDbDictionary
281
     1
  0
DICTIONARY
  5
2A
102
{ACAD_REACTORS
330
C
102
}
330
C
100
AcDbDictionary
281
     1
  3
2dWireframe
350
2F
  3
3D Hidden
350
31
  3
3dWireframe
350
30
  3
Basic
350
32
  3
Brighten
350
36
  3
ColorChange
350
3A
  3
Conceptual
350
34
  3
Dim
350
35
  3
Facepattern
350
39
  3
Flat
350
2B
  3
FlatWithEdges
350
2C
  3
Gouraud
350
2D
  3
GouraudWithEdges
350
2E
  3
Linepattern
350
38
  3
Realistic
350
33
  3
Thicken
350
37
  0
LAYOUT
  5
1E
102
{ACAD_REACTORS
330
1A
102
}
330
1A
100
AcDbPlotSettings
  1

  2
none_device
  4

  6

 40
0.0
 41
0.0
 42
0.0
 43
0.0
 44
0.0
 45
0.0
 46
0.0
 47
0.0
 48
0.0
 49
0.0
140
0.0
141
0.0
142
1.0
143
1.0
 70
   688
 72
     0
 73
     0
 74
     5
  7

 75
    16
 76
     0
 77
     2
 78
   300
147
1.0
148
0.0
149
0.0
100
AcDbLayout
  1
Layout1
 70
     1
 71
     1
 10
0.0
 20
0.0
 11
12.0
 21
9.0
 12
0.0
 22
0.0
 32
0.0
 14
1.000000000000000E+20
 24
1.000000000000000E+20
 34
1.000000000000000E+20
 15
-1.000000000000000E+20
 25
-1.000000000000000E+20
 35
-1.000000000000000E+20
146
0.0
 13
0.0
 23
0.0
 33
0.0
 16
1.0
 26
0.0
 36
0.0
 17
0.0
 27
1.0
 37
0.0
 76
     0
330
1B
  0
LAYOUT
  5
26
102
{ACAD_REACTORS
330
1A
102
}
330
1A
100
AcDbPlotSettings
  1

  2
none_device
  4

  6

 40
0.0
 41
0.0
 42
0.0
 43
0.0
 44
0.0
 45
0.0
 46
0.0
 47
0.0
 48
0.0
 49
0.0
140
0.0
141
0.0
142
1.0
143
1.0
 70
   688
 72
     0
 73
     0
 74
     5
  7

 75
    16
 76
     0
 77
     2
 78
   300
147
1.0
148
0.0
149
0.0
100
AcDbLayout
  1
Layout2
 70
     1
 71
     2
 10
0.0
 20
0.0
 11
0.0
 21
0.0
 12
0.0
 22
0.0
 32
0.0
 14
0.0
 24
0.0
 34
0.0
 15
0.0
 25
0.0
 35
0.0
146
0.0
 13
0.0
 23
0.0
 33
0.0
 16
1.0
 26
0.0
 36
0.0
 17
0.0
 27
1.0
 37
0.0
 76
     0
330
23
  0
LAYOUT
  5
22
102
{ACAD_REACTORS
330
1A
102
}
330
1A
100
AcDbPlotSettings
  1

  2
none_device
  4

  6

 40
0.0
 41
0.0
 42
0.0
 43
0.0
 44
0.0
 45
0.0
 46
0.0
 47
0.0
 48
0.0
 49
0.0
140
0.0
141
0.0
142
1.0
143
1.0
 70
  1712
 72
     0
 73
     0
 74
     0
  7

 75
     0
 76
     0
 77
     2
 78
   300
147
1.0
148
0.0
149
0.0
100
AcDbLayout
  1
Model
 70
     1
 71
     0
 10
0.0
 20
0.0
 11
12.0
 21
9.0
 12
0.0
 22
0.0
 32
0.0
 14
1.000000000000000E+20
 24
1.000000000000000E+20
 34
1.000000000000000E+20
 15
-1.000000000000000E+20
 25
-1.000000000000000E+20
 35
-1.000000000000000E+20
146
0.0
 13
0.0
 23
0.0
 33
0.0
 16
1.0
 26
0.0
 36
0.0
 17
0.0
 27
1.0
 37
0.0
 76
     0
330
1F
331
29
  0
MATERIAL
  5
3D
102
{ACAD_REACTORS
330
3B
102
}
330
3B
100
AcDbMaterial
  1
ByBlock
 72
     1
 94
      127
  0
MATERIAL
  5
3C
102
{ACAD_REACTORS
330
3B
102
}
330
3B
100
AcDbMaterial
  1
ByLayer
 72
     1
 94
      127
  0
MATERIAL
  5
3E
102
{ACAD_REACTORS
330
3B
102
}
330
3B
100
AcDbMaterial
  1
Global
 72
     1
 94
      127
  0
MLINESTYLE
  5
18
102
{ACAD_REACTORS
330
17
102
}
330
17
100
AcDbMlineStyle
  2
Standard
 70
     0
  3

 62
   256
 51
90.0
 52
90.0
 71
     2
 49
0.5
 62
   256
  6
BYLAYER
 49
-0.5
 62
   256
  6
BYLAYER
  0
ACDBPLACEHOLDER
  5
F
102
{ACAD_REACTORS
330
E
102
}
330
E
  0
VISUALSTYLE
  5
2F
102
{ACAD_REACTORS
330
2A
102
}
330
2A
100
AcDbVisualStyle
  2
2dWireframe
 70
     4
177
     2
291
     0
 71
     0
176
     1
 72
     2
176
     1
 73
     0
176
     1
 90
        0
176
     1
 40
-0.6
176
     1
 41
-30.0
176
     1
 62
     5
 63
     7
421
 16777215
176
     1
 74
     1
176
     1
 91
        4
176
     1
 64
     7
176
     1
 65
   257
176
     1
 75
     1
176
     1
175
     1
176
     1
 42
1.0
176
     1
 92
        0
176
     1
 66
   257
176
     1
 43
1.0
176
     1
 76
     1
176
     1
 77
     6
176
     1
 78
     2
176
     1
 67
     7
176
     1
 79
     5
176
     1
170
     0
176
     1
171
     0
176
     1
290
     0
176
     1
 93
        1
176
     1
 44
0.0
176
     1
173
     0
176
     1
  0
VISUALSTYLE
  5
31
102
{ACAD_REACTORS
330
2A
102
}
330
2A
100
AcDbVisualStyle
  2
3D Hidden
 70
     6
177
     2
291
     0
 71
     1
176
     1
 72
     2
176
     1
 73
     2
176
     1
 90
        0
176
     1
 40
-0.6
176
     1
 41
-30.0
176
     1
 62
     5
 63
     7
421
 16777215
176
     1
 74
     2
176
     1
 91
        2
176
     1
 64
     7
176
     1
 65
   257
176
     1
 75
     2
176
     1
175
     1
176
     1
 42
40.0
176
     1
 92
        0
176
     1
 66
   257
176
     1
 43
1.0
176
     1
 76
     1
176
     1
 77
     6
176
     1
 78
     2
176
     1
 67
     7
176
     1
 79
     3
176
     1
170
     0
176
     1
171
     0
176
     1
290
     0
176
     1
 93
        1
176
     1
 44
0.0
176
     1
173
     0
176
     1
  0
VISUALSTYLE
  5
30
102
{ACAD_REACTORS
330
2A
102
}
330
2A
100
AcDbVisualStyle
  2
3dWireframe
 70
     5
177
     2
291
     0
 71
     0
176
     1
 72
     2
176
     1
 73
     0
176
     1
 90
        0
176
     1
 40
-0.6
176
     1
 41
-30.0
176
     1
 62
     5
 63
     7
421
 16777215
176
     1
 74
     1
176
     1
 91
        4
176
     1
 64
     7
176
     1
 65
   257
176
     1
 75
     1
176
     1
175
     1
176
     1
 42
1.0
176
     1
 92
        0
176
     1
 66
   257
176
     1
 43
1.0
176
     1
 76
     1
176
     1
 77
     6
176
     1
 78
     2
176
     1
 67
     7
176
     1
 79
     5
176
     1
170
     0
176
     1
171
     0
176
     1
290
     0
176
     1
 93
        1
176
     1
 44
0.0
176
     1
173
     0
176
     1
  0
VISUALSTYLE
  5
32
102
{ACAD_REACTORS
330
2A
102
}
330
2A
100
AcDbVisualStyle
  2
Basic
 70
     7
177
     2
291
     1
 71
     1
176
     1
 72
     0
176
     1
 73
     1
176
     1
 90
        0
176
     1
 40
-0.6
176
     1
 41
-30.0
176
     1
 62
     5
 63
     7
421
 16777215
176
     1
 74
     0
176
     1
 91
        4
176
     1
 64
     7
176
     1
 65
   257
176
     1
 75
     1
176
     1
175
     1
176
     1
 42
1.0
176
     1
 92
        8
176
     1
 66
     7
176
     1
 43
1.0
176
     1
 76
     1
176
     1
 77
     6
176
     1
 78
     2
176
     1
 67
     7
176
     1
 79
     5
176
     1
170
     0
176
     1
171
     0
176
     1
290
     0
176
     1
 93
        1
176
     1
 44
0.0
176
     1
173
     0
176
     1
  0
VISUALSTYLE
  5
36
102
{ACAD_REACTORS
330
2A
102
}
330
2A
100
AcDbVisualStyle
  2
Brighten
 70
    12
177
     2
291
     1
 71
     2
176
     1
 72
     2
176
     1
 73
     0
176
     1
 90
        0
176
     1
 40
-0.6
176
     1
 41
-30.0
176
     1
 62
     5
 63
     7
421
 16777215
176
     1
 74
     1
176
     1
 91
        4
176
     1
 64
     7
176
     1
 65
   257
176
     1
 75
     1
176
     1
175
     1
176
     1
 42
1.0
176
     1
 92
        8
176
     1
 66
     7
176
     1
 43
1.0
176
     1
 76
     1
176
     1
 77
     6
176
     1
 78
     2
176
     1
 67
     7
176
     1
 79
     5
176
     1
170
     0
176
     1
171
     0
176
     1
290
     0
176
     1
 93
        1
176
     1
 44
50.0
176
     1
173
     0
176
     1
  0
VISUALSTYLE
  5
3A
102
{ACAD_REACTORS
330
2A
102
}
330
2A
100
AcDbVisualStyle
  2
ColorChange
 70
    16
177
     2
291
     1
 71
     2
176
     1
 72
     2
176
     1
 73
     3
176
     1
 90
        0
176
     1
 40
-0.6
176
     1
 41
-30.0
176
     1
 62
     5
 63
     8
421
  8421504
176
     1
 74
     1
176
     1
 91
        4
176
     1
 64
     7
176
     1
 65
   257
176
     1
 75
     1
176
     1
175
     1
176
     1
 42
1.0
176
     1
 92
        8
176
     1
 66
     8
424
  8421504
176
     1
 43
1.0
176
     1
 76
     1
176
     1
 77
     6
176
     1
 78
     2
176
     1
 67
     7
176
     1
 79
     5
176
     1
170
     0
176
     1
171
     0
176
     1
290
     0
176
     1
 93
        1
176
     1
 44
0.0
176
     1
173
     0
176
     1
  0
VISUALSTYLE
  5
34
102
{ACAD_REACTORS
330
2A
102
}
330
2A
100
AcDbVisualStyle
  2
Conceptual
 70
     9
177
     2
291
     0
 71
     3
176
     1
 72
     2
176
     1
 73
     0
176
     1
 90
        0
176
     1
 40
-0.6
176
     1
 41
-30.0
176
     1
 62
     5
 63
     7
421
 16777215
176
     1
 74
     2
176
     1
 91
        2
176
     1
 64
     7
176
     1
 65
   257
176
     1
 75
     1
176
     1
175
     1
176
     1
 42
40.0
176
     1
 92
        8
176
     1
 66
     7
176
     1
 43
1.0
176
     1
 76
     1
176
     1
 77
     6
176
     1
 78
     2
176
     1
 67
     7
176
     1
 79
     3
176
     1
170
     0
176
     1
171
     0
176
     1
290
     0
176
     1
 93
        1
176
     1
 44
0.0
176
     1
173
     0
176
     1
  0
VISUALSTYLE
  5
35
102
{ACAD_REACTORS
330
2A
102
}
330
2A
100
AcDbVisualStyle
  2
Dim
 70
    11
177
     2
291
     1
 71
     2
176
     1
 72
     2
176
     1
 73
     0
176
     1
 90
        0
176
     1
 40
-0.6
176
     1
 41
-30.0
176
     1
 62
     5
 63
     7
421
 16777215
176
     1
 74
     1
176
     1
 91
        4
176
     1
 64
     7
176
     1
 65
   257
176
     1
 75
     1
176
     1
175
     1
176
     1
 42
1.0
176
     1
 92
        8
176
     1
 66
     7
176
     1
 43
1.0
176
     1
 76
     1
176
     1
 77
     6
176
     1
 78
     2
176
     1
 67
     7
176
     1
 79
     5
176
     1
170
     0
176
     1
171
     0
176
     1
290
     0
176
     1
 93
        1
176
     1
 44
-50.0
176
     1
173
     0
176
     1
  0
VISUALSTYLE
  5
39
102
{ACAD_REACTORS
330
2A
102
}
330
2A
100
AcDbVisualStyle
  2
Facepattern
 70
    15
177
     2
291
     1
 71
     2
176
     1
 72
     2
176
     1
 73
     0
176
     1
 90
        0
176
     1
 40
-0.6
176
     1
 41
-30.0
176
     1
 62
     5
 63
     7
421
 16777215
176
     1
 74
     1
176
     1
 91
        4
176
     1
 64
     7
176
     1
 65
   257
176
     1
 75
     1
176
     1
175
     1
176
     1
 42
1.0
176
     1
 92
        8
176
     1
 66
     7
176
     1
 43
1.0
176
     1
 76
     1
176
     1
 77
     6
176
     1
 78
     2
176
     1
 67
     7
176
     1
 79
     5
176
     1
170
     0
176
     1
171
     0
176
     1
290
     0
176
     1
 93
        1
176
     1
 44
0.0
176
     1
173
     0
176
     1
  0
VISUALSTYLE
  5
2B
102
{ACAD_REACTORS
330
2A
102
}
330
2A
100
AcDbVisualStyle
  2
Flat
 70
     0
177
     2
291
     1
 71
     2
176
     1
 72
     1
176
     1
 73
     1
176
     1
 90
        2
176
     1
 40
-0.6
176
     1
 41
30.0
176
     1
 62
     5
 63
     7
421
 16777215
176
     1
 74
     0
176
     1
 91
        4
176
     1
 64
     7
176
     1
 65
   257
176
     1
 75
     1
176
     1
175
     1
176
     1
 42
1.0
176
     1
 92
        8
176
     1
 66
     7
176
     1
 43
1.0
176
     1
 76
     1
176
     1
 77
     6
176
     1
 78
     2
176
     1
 67
     7
176
     1
 79
     5
176
     1
170
     0
176
     1
171
     0
176
     1
290
     0
176
     1
 93
       13
176
     1
 44
0.0
176
     1
173
     0
176
     1
  0
VISUALSTYLE
  5
2C
102
{ACAD_REACTORS
330
2A
102
}
330
2A
100
AcDbVisualStyle
  2
FlatWithEdges
 70
     1
177
     2
291
     1
 71
     2
176
     1
 72
     1
176
     1
 73
     1
176
     1
 90
        2
176
     1
 40
-0.6
176
     1
 41
30.0
176
     1
 62
     5
 63
     7
421
 16777215
176
     1
 74
     1
176
     1
 91
        4
176
     1
 64
     7
176
     1
 65
   257
176
     1
 75
     1
176
     1
175
     1
176
     1
 42
1.0
176
     1
 92
        0
176
     1
 66
   257
176
     1
 43
1.0
176
     1
 76
     1
176
     1
 77
     6
176
     1
 78
     2
176
     1
 67
     7
176
     1
 79
     5
176
     1
170
     0
176
     1
171
     0
176
     1
290
     0
176
     1
 93
       13
176
     1
 44
0.0
176
     1
173
     0
176
     1
  0
VISUALSTYLE
  5
2D
102
{ACAD_REACTORS
330
2A
102
}
330
2A
100
AcDbVisualStyle
  2
Gouraud
 70
     2
177
     2
291
     1
 71
     2
176
     1
 72
     2
176
     1
 73
     1
176
     1
 90
        2
176
     1
 40
-0.6
176
     1
 41
30.0
176
     1
 62
     5
 63
     7
421
 16777215
176
     1
 74
     0
176
     1
 91
        4
176
     1
 64
     7
176
     1
 65
   257
176
     1
 75
     1
176
     1
175
     1
176
     1
 42
1.0
176
     1
 92
        0
176
     1
 66
     7
176
     1
 43
1.0
176
     1
 76
     1
176
     1
 77
     6
176
     1
 78
     2
176
     1
 67
     7
176
     1
 79
     5
176
     1
170
     0
176
     1
171
     0
176
     1
290
     0
176
     1
 93
       13
176
     1
 44
0.0
176
     1
173
     0
176
     1
  0
VISUALSTYLE
  5
2E
102
{ACAD_REACTORS
330
2A
102
}
330
2A
100
AcDbVisualStyle
  2
GouraudWithEdges
 70
     3
177
     2
291
     1
 71
     2
176
     1
 72
     2
176
     1
 73
     1
176
     1
 90
        2
176
     1
 40
-0.6
176
     1
 41
30.0
176
     1
 62
     5
 63
     7
421
 16777215
176
     1
 74
     1
176
     1
 91
        4
176
     1
 64
     7
176
     1
 65
   257
176
     1
 75
     1
176
     1
175
     1
176
     1
 42
1.0
176
     1
 92
        0
176
     1
 66
   257
176
     1
 43
1.0
176
     1
 76
     1
176
     1
 77
     6
176
     1
 78
     2
176
     1
 67
     7
176
     1
 79
     5
176
     1
170
     0
176
     1
171
     0
176
     1
290
     0
176
     1
 93
       13
176
     1
 44
0.0
176
     1
173
     0
176
     1
  0
VISUALSTYLE
  5
38
102
{ACAD_REACTORS
330
2A
102
}
330
2A
100
AcDbVisualStyle
  2
Linepattern
 70
    14
177
     2
291
     1
 71
     2
176
     1
 72
     2
176
     1
 73
     0
176
     1
 90
        0
176
     1
 40
-0.6
176
     1
 41
-30.0
176
     1
 62
     5
 63
     7
421
 16777215
176
     1
 74
     1
176
     1
 91
        4
176
     1
 64
     7
176
     1
 65
   257
176
     1
 75
     7
176
     1
175
     7
176
     1
 42
1.0
176
     1
 92
        8
176
     1
 66
     7
176
     1
 43
1.0
176
     1
 76
     1
176
     1
 77
     6
176
     1
 78
     2
176
     1
 67
     7
176
     1
 79
     5
176
     1
170
     0
176
     1
171
     0
176
     1
290
     0
176
     1
 93
        1
176
     1
 44
0.0
176
     1
173
     0
176
     1
  0
VISUALSTYLE
  5
33
102
{ACAD_REACTORS
330
2A
102
}
330
2A
100
AcDbVisualStyle
  2
Realistic
 70
     8
177
     2
291
     0
 71
     2
176
     1
 72
     2
176
     1
 73
     0
176
     1
 90
        0
176
     1
 40
-0.6
176
     1
 41
-30.0
176
     1
 62
     5
 63
     7
421
 16777215
176
     1
 74
     1
176
     1
 91
        0
176
     1
 64
     7
176
     1
 65
   257
176
     1
 75
     1
176
     1
175
     1
176
     1
 42
1.0
176
     1
 92
        8
176
     1
 66
     8
424
  7895160
176
     1
 43
1.0
176
     1
 76
     1
176
     1
 77
     6
176
     1
 78
     2
176
     1
 67
     7
176
     1
 79
     5
176
     1
170
     0
176
     1
171
     0
176
     1
290
     0
176
     1
 93
       13
176
     1
 44
0.0
176
     1
173
     0
176
     1
  0
VISUALSTYLE
  5
37
102
{ACAD_REACTORS
330
2A
102
}
330
2A
100
AcDbVisualStyle
  2
Thicken
 70
    13
177
     2
291
     1
 71
     2
176
     1
 72
     2
176
     1
 73
     0
176
     1
 90
        0
176
     1
 40
-0.6
176
     1
 41
-30.0
176
     1
 62
     5
 63
     7
421
 16777215
176
     1
 74
     1
176
     1
 91
        4
176
     1
 64
     7
176
     1
 65
   257
176
     1
 75
     1
176
     1
175
     1
176
     1
 42
1.0
176
     1
 92
       12
176
     1
 66
     7
176
     1
 43
1.0
176
     1
 76
     1
176
     1
 77
     6
176
     1
 78
     2
176
     1
 67
     7
176
     1
 79
     5
176
     1
170
     0
176
     1
171
     0
176
     1
290
     0
176
     1
 93
        1
176
     1
 44
0.0
176
     1
173
     0
176
     1
  0
ENDSEC
  0
EOF
