  0
SECTION
  2
HEADER
  9
$ACADVER
  1
AC1024
  9
$ACADMAINTVER
 70
     6
  9
$DWGCODEPAGE
  3
UNDEFINED
  9
$INSBASE
 10
0.0
 20
0.0
 30
0.0
  9
$EXTMIN
 10
1.000000000000000E+20
 20
1.000000000000000E+20
 30
1.000000000000000E+20
  9
$EXTMAX
 10
-1.000000000000000E+20
 20
-1.000000000000000E+20
 30
-1.000000000000000E+20
  9
$LIMMIN
 10
0.0
 20
0.0
  9
$LIMMAX
 10
12.0
 20
9.0
  9
$ORTHOMODE
 70
     0
  9
$REGENMODE
 70
     1
  9
$FILLMODE
 70
     1
  9
$QTEXTMODE
 70
     0
  9
$MIRRTEXT
 70
     1
  9
$LTSCALE
 40
1.0
  9
$ATTMODE
 70
     1
  9
$TEXTSIZE
 40
0.2
  9
$TRACEWID
 40
0.05
  9
$TEXTSTYLE
  7
Standard
  9
$CLAYER
  8
0
  9
$CELTYPE
  6
ByLayer
  9
$CECOLOR
 62
   256
  9
$CELTSCALE
 40
1.0
  9
$DISPSILH
 70
     0
  9
$DIMSCALE
 40
1.0
  9
$DIMASZ
 40
0.18
  9
$DIMEXO
 40
0.0625
  9
$DIMDLI
 40
0.38
  9
$DIMRND
 40
0.0
  9
$DIMDLE
 40
0.0
  9
$DIMEXE
 40
0.18
  9
$DIMTP
 40
0.0
  9
$DIMTM
 40
0.0
  9
$DIMTXT
 40
0.18
  9
$DIMCEN
 40
0.09
  9
$DIMTSZ
 40
0.0
  9
$DIMTOL
 70
     0
  9
$DIMLIM
 70
     0
  9
$DIMTIH
 70
     1
  9
$DIMTOH
 70
     1
  9
$DIMSE1
 70
     0
  9
$DIMSE2
 70
     0
  9
$DIMTAD
 70
     0
  9
$DIMZIN
 70
     0
  9
$DIMBLK
  1

  9
$DIMASO
 70
     1
  9
$DIMSHO
 70
     1
  9
$DIMPOST
  1

  9
$DIMAPOST
  1

  9
$DIMALT
 70
     0
  9
$DIMALTD
 70
     2
  9
$DIMALTF
 40
25.4
  9
$DIMLFAC
 40
1.0
  9
$DIMTOFL
 70
     0
  9
$DIMTVP
 40
0.0
  9
$DIMTIX
 70
     0
  9
$DIMSOXD
 70
     0
  9
$DIMSAH
 70
     0
  9
$DIMBLK1
  1

  9
$DIMBLK2
  1

  9
$DIMSTYLE
  2
Standard
  9
$DIMCLRD
 70
     0
  9
$DIMCLRE
 70
     0
  9
$DIMCLRT
 70
     0
  9
$DIMTFAC
 40
1.0
  9
$DIMGAP
 40
0.09
  9
$DIMJUST
 70
     0
  9
$DIMSD1
 70
     0
  9
$DIMSD2
 70
     0
  9
$DIMTOLJ
 70
     1
  9
$DIMTZIN
 70
     0
  9
$DIMALTZ
 70
     0
  9
$DIMALTTZ
 70
     0
  9
$DIMUPT
 70
     0
  9
$DIMDEC
 70
     4
  9
$DIMTDEC
 70
     4
  9
$DIMALTU
 70
     2
  9
$DIMALTTD
 70
     2
  9
$DIMTXSTY
  7
Standard
  9
$DIMAUNIT
 70
     0
  9
$DIMADEC
 70
     0
  9
$DIMALTRND
 40
0.0
  9
$DIMAZIN
 70
     0
  9
$DIMDSEP
 70
    46
  9
$DIMATFIT
 70
     3
  9
$DIMFRAC
 70
     0
  9
$DIMLDRBLK
  1

  9
$DIMLUNIT
 70
     2
  9
$DIMLWD
 70
    -2
  9
$DIMLWE
 70
    -2
  9
$DIMTMOVE
 70
     0
  9
$DIMFXL
 40
1.0
  9
$DIMFXLON
 70
     0
  9
$DIMJOGANG
 40
0.7853981633974483
  9
$DIMTFILL
 70
     0
  9
$DIMTFILLCLR
 70
     0
  9
$DIMARCSYM
 70
     0
  9
$DIMLTYPE
  6

  9
$DIMLTEX1
  6

  9
$DIMLTEX2
  6

  9
$DIMTXTDIRECTION
 70
     0
  9
$LUNITS
 70
     2
  9
$LUPREC
 70
     4
  9
$SKETCHINC
 40
0.1
  9
$FILLETRAD
 40
0.5
  9
$AUNITS
 70
     0
  9
$AUPREC
 70
     0
  9
$MENU
  1
.
  9
$ELEVATION
 40
0.0
  9
$PELEVATION
 40
0.0
  9
$THICKNESS
 40
0.0
  9
$LIMCHECK
 70
     0
  9
$CHAMFERA
 40
0.5
  9
$CHAMFERB
 40
0.5
  9
$CHAMFERC
 40
1.0
  9
$CHAMFERD
 40
0.0
  9
$SKPOLY
 70
     0
  9
$TDCREATE
 40
2457917.632291667
  9
$TDUCREATE
 40
2457917.257291667
  9
$TDUPDATE
 40
2457917.632291667
  9
$TDUUPDATE
 40
2457917.257291667
  9
$TDINDWG
 40
0.0000000116
  9
$TDUSRTIMER
 40
0.0000000116
  9
$USRTIMER
 70
     1
  9
$ANGBASE
 50
0.0
  9
$ANGDIR
 70
     0
  9
$PDMODE
 70
     0
  9
$PDSIZE
 40
0.0
  9
$PLINEWID
 40
0.0
  9
$SPLFRAME
 70
     0
  9
$SPLINETYPE
 70
     6
  9
$SPLINESEGS
 70
     8
  9
$HANDSEED
  5
17D
  9
$SURFTAB1
 70
     6
  9
$SURFTAB2
 70
     6
  9
$SURFTYPE
 70
     6
  9
$SURFU
 70
     6
  9
$SURFV
 70
     6
  9
$UCSBASE
  2

  9
$UCSNAME
  2

  9
$UCSORG
 10
0.0
 20
0.0
 30
0.0
  9
$UCSXDIR
 10
1.0
 20
0.0
 30
0.0
  9
$UCSYDIR
 10
0.0
 20
1.0
 30
0.0
  9
$UCSORTHOREF
  2

  9
$UCSORTHOVIEW
 70
     0
  9
$UCSORGTOP
 10
0.0
 20
0.0
 30
0.0
  9
$UCSORGBOTTOM
 10
0.0
 20
0.0
 30
0.0
  9
$UCSORGLEFT
 10
0.0
 20
0.0
 30
0.0
  9
$UCSORGRIGHT
 10
0.0
 20
0.0
 30
0.0
  9
$UCSORGFRONT
 10
0.0
 20
0.0
 30
0.0
  9
$UCSORGBACK
 10
0.0
 20
0.0
 30
0.0
  9
$PUCSBASE
  2

  9
$PUCSNAME
  2

  9
$PUCSORG
 10
0.0
 20
0.0
 30
0.0
  9
$PUCSXDIR
 10
1.0
 20
0.0
 30
0.0
  9
$PUCSYDIR
 10
0.0
 20
1.0
 30
0.0
  9
$PUCSORTHOREF
  2

  9
$PUCSORTHOVIEW
 70
     0
  9
$PUCSORGTOP
 10
0.0
 20
0.0
 30
0.0
  9
$PUCSORGBOTTOM
 10
0.0
 20
0.0
 30
0.0
  9
$PUCSORGLEFT
 10
0.0
 20
0.0
 30
0.0
  9
$PUCSORGRIGHT
 10
0.0
 20
0.0
 30
0.0
  9
$PUCSORGFRONT
 10
0.0
 20
0.0
 30
0.0
  9
$PUCSORGBACK
 10
0.0
 20
0.0
 30
0.0
  9
$USERI1
 70
     0
  9
$USERI2
 70
     0
  9
$USERI3
 70
     0
  9
$USERI4
 70
     0
  9
$USERI5
 70
     0
  9
$USERR1
 40
0.0
  9
$USERR2
 40
0.0
  9
$USERR3
 40
0.0
  9
$USERR4
 40
0.0
  9
$USERR5
 40
0.0
  9
$WORLDVIEW
 70
     1
  9
$SHADEDGE
 70
     3
  9
$SHADEDIF
 70
    70
  9
$TILEMODE
 70
     1
  9
$MAXACTVP
 70
    64
  9
$PINSBASE
 10
0.0
 20
0.0
 30
0.0
  9
$PLIMCHECK
 70
     0
  9
$PEXTMIN
 10
1.000000000000000E+20
 20
1.000000000000000E+20
 30
1.000000000000000E+20
  9
$PEXTMAX
 10
-1.000000000000000E+20
 20
-1.000000000000000E+20
 30
-1.000000000000000E+20
  9
$PLIMMIN
 10
0.0
 20
0.0
  9
$PLIMMAX
 10
12.0
 20
9.0
  9
$UNITMODE
 70
     0
  9
$VISRETAIN
 70
     1
  9
$PLINEGEN
 70
     0
  9
$PSLTSCALE
 70
     1
  9
$TREEDEPTH
 70
  3020
  9
$CMLSTYLE
  2
Standard
  9
$CMLJUST
 70
     0
  9
$CMLSCALE
 40
1.0
  9
$PROXYGRAPHICS
 70
     1
  9
$MEASUREMENT
 70
     0
  9
$CELWEIGHT
370
    -1
  9
$ENDCAPS
280
     0
  9
$JOINSTYLE
280
     0
  9
$LWDISPLAY
290
     1
  9
$INSUNITS
 70
     1
  9
$HYPERLINKBASE
  1

  9
$STYLESHEET
  1

  9
$XEDIT
290
     1
  9
$CEPSNTYPE
380
     0
  9
$PSTYLEMODE
290
     1
  9
$FINGERPRINTGUID
  2
{5A649E23-4DDB-12BD-7B31-7FF3EA31854E}
  9
$VERSIONGUID
  2
{FAEB1C32-E019-11D5-929B-00C0DF256EC4}
  9
$EXTNAMES
290
     1
  9
$PSVPSCALE
 40
0.0
  9
$OLESTARTUP
290
     0
  9
$SORTENTS
280
   127
  9
$INDEXCTL
280
     0
  9
$HIDETEXT
280
     1
  9
$XCLIPFRAME
280
     2
  9
$HALOGAP
280
     0
  9
$OBSCOLOR
 70
   257
  9
$OBSLTYPE
280
     0
  9
$INTERSECTIONDISPLAY
280
     0
  9
$INTERSECTIONCOLOR
 70
   257
  9
$DIMASSOC
280
     2
  9
$PROJECTNAME
  1

  9
$CAMERADISPLAY
290
     0
  9
$LENSLENGTH
 40
50.0
  9
$CAMERAHEIGHT
 40
0.0
  9
$STEPSPERSEC
 40
2.0
  9
$STEPSIZE
 40
6.0
  9
$3DDWFPREC
 40
2.0
  9
$PSOLWIDTH
 40
0.25
  9
$PSOLHEIGHT
 40
4.0
  9
$LOFTANG1
 40
1.570796326794897
  9
$LOFTANG2
 40
1.570796326794897
  9
$LOFTMAG1
 40
0.0
  9
$LOFTMAG2
 40
0.0
  9
$LOFTPARAM
 70
     7
  9
$LOFTNORMALS
280
     1
  9
$LATITUDE
 40
37.795
  9
$LONGITUDE
 40
-122.394
  9
$NORTHDIRECTION
 40
0.0
  9
$TIMEZONE
 70
 -8000
  9
$LIGHTGLYPHDISPLAY
280
     1
  9
$TILEMODELIGHTSYNCH
280
     1
  9
$CMATERIAL
347
3C
  9
$SOLIDHIST
280
     1
  9
$SHOWHIST
280
     1
  9
$DWFFRAME
280
     2
  9
$DGNFRAME
280
     2
  9
$REALWORLDSCALE
290
     1
  9
$INTERFERECOLOR
 62
   256
  9
$CSHADOW
280
     0
  9
$SHADOWPLANELOCATION
 40
0.0
  0
ENDSEC
  0
SECTION
  2
CLASSES
  0
CLASS
  1
ACDBDICTIONARYWDFLT
  2
AcDbDictionaryWithDefault
  3
ObjectDBX Classes
 90
        0
 91
        4
280
     0
281
     0
  0
CLASS
  1
VISUALSTYLE
  2
AcDbVisualStyle
  3
ObjectDBX Classes
 90
     4095
 91
        4
280
     0
281
     0
  0
CLASS
  1
MATERIAL
  2
AcDbMaterial
  3
ObjectDBX Classes
 90
     1153
 91
        4
280
     0
281
     0
  0
CLASS
  1
SUN
  2
AcDbSun
  3
SCENEOE
 90
     1024
 91
        4
280
     0
281
     0
  0
ENDSEC
  0
SECTION
  2
TABLES
  0
TABLE
  2
VPORT
  5
8
330
0
100
AcDbSymbolTable
 70
     1
  0
VPORT
  5
29
330
8
100
AcDbSymbolTableRecord
100
AcDbViewportTableRecord
  2
*Active
 70
     0
 10
0.0
 20
0.0
 11
1.0
 21
1.0
 12
0.0
 22
0.0
 13
0.0
 23
0.0
 14
0.5
 24
0.5
 15
0.5
 25
0.5
 16
0.0
 26
0.0
 36
1.0
 17
91.00082462281999
 27
-128.4993055234307
 37
0.0
 40
256.9986110468615
 41
0.7081814508812795
 42
50.0
 43
0.0
 44
0.0
 50
0.0
 51
0.0
 71
     0
 72
   100
 73
     1
 74
     3
 75
     0
 76
     0
 77
     0
 78
     0
281
     0
 65
     1
110
0.0
120
0.0
130
0.0
111
1.0
121
0.0
131
0.0
112
0.0
122
1.0
132
0.0
 79
     0
146
0.0
 60
     3
 61
     5
292
     1
282
     1
141
0.0
142
0.0
 63
   250
361
3F
  0
ENDTAB
  0
TABLE
  2
LTYPE
  5
5
330
0
100
AcDbSymbolTable
 70
     1
  0
LTYPE
  5
14
330
5
100
AcDbSymbolTableRecord
100
AcDbLinetypeTableRecord
  2
ByBlock
 70
     0
  3

 72
    65
 73
     0
 40
0.0
  0
LTYPE
  5
15
330
5
100
AcDbSymbolTableRecord
100
AcDbLinetypeTableRecord
  2
ByLayer
 70
     0
  3

 72
    65
 73
     0
 40
0.0
  0
LTYPE
  5
16
330
5
100
AcDbSymbolTableRecord
100
AcDbLinetypeTableRecord
  2
Continuous
 70
     0
  3
Solid line
 72
    65
 73
     0
 40
0.0
  0
ENDTAB
  0
TABLE
  2
LAYER
  5
2
330
0
100
AcDbSymbolTable
 70
     2
  0
LAYER
  5
10
330
2
100
AcDbSymbolTableRecord
100
AcDbLayerTableRecord
  2
0
 70
     0
 62
     7
  6
Continuous
370
    -3
390
F
347
3E
  0
LAYER
  5
40
330
2
100
AcDbSymbolTableRecord
100
AcDbLayerTableRecord
  2
_U+30EC_U+30A4_U+30E4_U+30FC 1
 70
     0
 62
     7
  6
Continuous
370
    -3
390
F
347
3E
  0
ENDTAB
  0
TABLE
  2
STYLE
  5
3
330
0
100
AcDbSymbolTable
 70
     1
  0
STYLE
  5
11
330
3
100
AcDbSymbolTableRecord
100
AcDbTextStyleTableRecord
  2
Standard
 70
     0
 40
0.0
 41
1.0
 50
0.0
 71
     0
 42
0.2
  3
txt
  4

  0
ENDTAB
  0
TABLE
  2
VIEW
  5
6
330
0
100
AcDbSymbolTable
 70
     0
  0
ENDTAB
  0
TABLE
  2
UCS
  5
7
330
0
100
AcDbSymbolTable
 70
     0
  0
ENDTAB
  0
TABLE
  2
APPID
  5
9
330
0
100
AcDbSymbolTable
 70
     1
  0
APPID
  5
12
330
9
100
AcDbSymbolTableRecord
100
AcDbRegAppTableRecord
  2
ACAD
 70
     0
  0
ENDTAB
  0
TABLE
  2
DIMSTYLE
  5
A
330
0
100
AcDbSymbolTable
 70
     1
100
AcDbDimStyleTable
  0
DIMSTYLE
105
27
330
A
100
AcDbSymbolTableRecord
100
AcDbDimStyleTableRecord
  2
Standard
 70
     0
178
     0
340
11
  0
ENDTAB
  0
TABLE
  2
BLOCK_RECORD
  5
1
330
0
100
AcDbSymbolTable
 70
     6
  0
BLOCK_RECORD
  5
1F
330
1
100
AcDbSymbolTableRecord
100
AcDbBlockTableRecord
  2
*Model_Space
340
22
 70
     0
280
     1
281
     0
  0
BLOCK_RECORD
  5
1B
330
1
100
AcDbSymbolTableRecord
100
AcDbBlockTableRecord
  2
*Paper_Space
340
1E
 70
     0
280
     1
281
     0
  0
BLOCK_RECORD
  5
23
330
1
100
AcDbSymbolTableRecord
100
AcDbBlockTableRecord
  2
*Paper_Space0
340
26
 70
     0
280
     1
281
     0
  0
BLOCK_RECORD
  5
94
330
1
100
AcDbSymbolTableRecord
100
AcDbBlockTableRecord
  2
block 2
340
0
102
{BLKREFS
331
95
102
}
 70
     0
280
     1
281
     0
  0
BLOCK_RECORD
  5
9D
330
1
100
AcDbSymbolTableRecord
100
AcDbBlockTableRecord
  2
block 3
340
0
102
{BLKREFS
331
9E
102
}
 70
     0
280
     1
281
     0
  0
BLOCK_RECORD
  5
A6
330
1
100
AcDbSymbolTableRecord
100
AcDbBlockTableRecord
  2
block 4
340
0
102
{BLKREFS
331
A7
102
}
 70
     0
280
     1
281
     0
  0
BLOCK_RECORD
  5
AC
330
1
100
AcDbSymbolTableRecord
100
AcDbBlockTableRecord
  2
block 5
340
0
102
{BLKREFS
331
AD
102
}
 70
     0
280
     1
281
     0
  0
BLOCK_RECORD
  5
10B
330
1
100
AcDbSymbolTableRecord
100
AcDbBlockTableRecord
  2
block 6
340
0
102
{BLKREFS
331
10C
102
}
 70
     0
280
     1
281
     0
  0
ENDTAB
  0
ENDSEC
  0
SECTION
  2
BLOCKS
  0
BLOCK
  5
20
330
1F
100
AcDbEntity
  8
0
100
AcDbBlockBegin
  2
*Model_Space
 70
     0
 10
0.0
 20
0.0
 30
0.0
  3
*Model_Space
  1

  0
ENDBLK
  5
21
330
1F
100
AcDbEntity
  8
0
100
AcDbBlockEnd
  0
BLOCK
  5
1C
330
1B
100
AcDbEntity
 67
     1
  8
0
100
AcDbBlockBegin
  2
*Paper_Space
 70
     0
 10
0.0
 20
0.0
 30
0.0
  3
*Paper_Space
  1

  0
ENDBLK
  5
1D
330
1B
100
AcDbEntity
 67
     1
  8
0
100
AcDbBlockEnd
  0
BLOCK
  5
24
330
23
100
AcDbEntity
  8
0
100
AcDbBlockBegin
  2
*Paper_Space0
 70
     0
 10
0.0
 20
0.0
 30
0.0
  3
*Paper_Space0
  1

  0
ENDBLK
  5
25
330
23
100
AcDbEntity
  8
0
100
AcDbBlockEnd
  0
BLOCK
  5
96
330
94
100
AcDbEntity
  8
0
100
AcDbBlockBegin
  2
block 2
 70
     0
 10
0.0
 20
0.0
 30
0.0
  3
block 2
  1

  0
SPLINE
  5
98
330
94
100
AcDbEntity
  8
_U+30EC_U+30A4_U+30E4_U+30FC 1
370
     0
100
AcDbSpline
210
0.0
220
0.0
230
1.0
 70
    11
 71
     3
 72
    62
 73
    58
 74
     0
 42
0.0000000001
 43
0.0000000001
 12
1.0
 22
0.0
 32
0.0
 13
1.0
 23
0.0
 33
0.0
 40
0.0
 40
0.0
 40
0.0
 40
0.0
 40
1.0
 40
1.0
 40
1.0
 40
2.0
 40
2.0
 40
2.0
 40
3.0
 40
3.0
 40
3.0
 40
4.0
 40
4.0
 40
4.0
 40
5.0
 40
5.0
 40
5.0
 40
6.0
 40
6.0
 40
6.0
 40
7.0
 40
7.0
 40
7.0
 40
8.0
 40
8.0
 40
8.0
 40
9.0
 40
9.0
 40
9.0
 40
10.0
 40
10.0
 40
10.0
 40
11.0
 40
11.0
 40
11.0
 40
12.0
 40
12.0
 40
12.0
 40
13.0
 40
13.0
 40
13.0
 40
14.0
 40
14.0
 40
14.0
 40
15.0
 40
15.0
 40
15.0
 40
16.0
 40
16.0
 40
16.0
 40
17.0
 40
17.0
 40
17.0
 40
18.0
 40
18.0
 40
18.0
 40
19.0
 40
19.0
 40
19.0
 40
19.0
 10
89.84809025531575
 20
-143.0696478591979
 30
0.0
 10
89.7528333651486
 20
-143.0696478591979
 30
0.0
 10
89.53493107570655
 20
-143.0486327767379
 30
0.0
 10
89.41021861914051
 20
-142.8625976205344
 30
0.0
 10
89.33614906620764
 20
-142.7502875077152
 30
0.0
 10
89.33184269685107
 20
-142.65106875774
 30
0.0
 10
89.32770858226877
 20
-142.5663194088029
 30
0.0
 10
89.32770858226877
 20
-142.5663194088029
 30
0.0
 10
89.54767792900198
 20
-142.5663194088029
 30
0.0
 10
89.54767792900198
 20
-142.5663194088029
 30
0.0
 10
89.54974498629312
 20
-142.6403889617357
 30
0.0
 10
89.5604247822974
 20
-142.8749999642812
 30
0.0
 10
89.8437838859592
 20
-142.8749999642812
 30
0.0
 10
89.98141545059492
 20
-142.8749999642812
 30
0.0
 10
90.13368867104298
 20
-142.8054090354792
 30
0.0
 10
90.13368867104298
 20
-142.5769992048072
 30
0.0
 10
90.13368867104298
 20
-142.4605549774057
 30
0.0
 10
90.09562036593096
 20
-142.4119791310637
 30
0.0
 10
90.06392548746666
 20
-142.3802842525994
 30
0.0
 10
89.9898559345338
 20
-142.3062146996665
 30
0.0
 10
89.87341170713235
 20
-142.2934678463711
 30
0.0
 10
89.81846243414262
 20
-142.2934678463711
 30
0.0
 10
89.79934215419948
 20
-142.2934678463711
 30
0.0
 10
89.76351316115287
 20
-142.2955349036622
 30
0.0
 10
89.73595239727088
 20
-142.2996690182445
 30
0.0
 10
89.73595239727088
 20
-142.2996690182445
 30
0.0
 10
89.73595239727088
 20
-142.1050211233279
 30
0.0
 10
89.73595239727088
 20
-142.1050211233279
 30
0.0
 10
89.77402070238288
 20
-142.1115668047499
 30
0.0
 10
89.81639537685146
 20
-142.113633862041
 30
0.0
 10
89.82276880349917
 20
-142.113633862041
 30
0.0
 10
89.88822561771892
 20
-142.113633862041
 30
0.0
 10
90.0871798819921
 20
-142.0922742700325
 30
0.0
 10
90.0871798819921
 20
-141.8555962101958
 30
0.0
 10
90.0871798819921
 20
-141.6778292831569
 30
0.0
 10
89.95592174400407
 20
-141.622707755393
 30
0.0
 10
89.84602319802461
 20
-141.622707755393
 30
0.0
 10
89.58143986475743
 20
-141.622707755393
 30
0.0
 10
89.57299938081856
 20
-141.8555962101958
 30
0.0
 10
89.56886526623626
 20
-141.927254196289
 30
0.0
 10
89.56886526623626
 20
-141.927254196289
 30
0.0
 10
89.36577688738078
 20
-141.927254196289
 30
0.0
 10
89.36577688738078
 20
-141.927254196289
 30
0.0
 10
89.37421737131965
 20
-141.802541739723
 30
0.0
 10
89.40177813520164
 20
-141.4259928031852
 30
0.0
 10
89.85859779654577
 20
-141.4259928031852
 30
0.0
 10
90.08287351263553
 20
-141.4259928031852
 30
0.0
 10
90.32403019660302
 20
-141.5531168265909
 30
0.0
 10
90.32403019660302
 20
-141.8490505287739
 30
0.0
 10
90.32403019660302
 20
-142.0354301945259
 30
0.0
 10
90.22894556121012
 20
-142.1177679766234
 30
0.0
 10
90.1293823016864
 20
-142.1790906762608
 30
0.0
 10
90.19087725609812
 20
-142.2066514401428
 30
0.0
 10
90.37277829771931
 20
-142.2869221649491
 30
0.0
 10
90.37277829771931
 20
-142.5642523515117
 30
0.0
 10
90.37277829771931
 20
-142.9025607281633
 30
0.0
 10
90.1252481871041
 20
-143.0696478591979
 30
0.0
 10
89.84809025531575
 20
-143.0696478591979
 30
0.0
  0
HATCH
  5
99
330
94
100
AcDbEntity
  8
_U+30EC_U+30A4_U+30E4_U+30FC 1
 62
   179
420
  2234388
100
AcDbHatch
 10
0.0
 20
0.0
 30
0.0
210
0.0
220
0.0
230
1.0
  2
SOLID
 70
     1
 71
     0
 91
        1
 92
        1
 93
        1
 72
     4
 94
        3
 73
     0
 74
     1
 95
       62
 96
       58
 40
0.0
 40
0.0
 40
0.0
 40
0.0
 40
1.0
 40
1.0
 40
1.0
 40
2.0
 40
2.0
 40
2.0
 40
3.0
 40
3.0
 40
3.0
 40
4.0
 40
4.0
 40
4.0
 40
5.0
 40
5.0
 40
5.0
 40
6.0
 40
6.0
 40
6.0
 40
7.0
 40
7.0
 40
7.0
 40
8.0
 40
8.0
 40
8.0
 40
9.0
 40
9.0
 40
9.0
 40
10.0
 40
10.0
 40
10.0
 40
11.0
 40
11.0
 40
11.0
 40
12.0
 40
12.0
 40
12.0
 40
13.0
 40
13.0
 40
13.0
 40
14.0
 40
14.0
 40
14.0
 40
15.0
 40
15.0
 40
15.0
 40
16.0
 40
16.0
 40
16.0
 40
17.0
 40
17.0
 40
17.0
 40
18.0
 40
18.0
 40
18.0
 40
19.0
 40
19.0
 40
19.0
 40
19.0
 10
89.84809025531575
 20
-143.0696478591979
 10
89.7528333651486
 20
-143.0696478591979
 10
89.53493107570655
 20
-143.0486327767379
 10
89.41021861914051
 20
-142.8625976205344
 10
89.33614906620764
 20
-142.7502875077152
 10
89.33184269685107
 20
-142.65106875774
 10
89.32770858226877
 20
-142.5663194088029
 10
89.32770858226877
 20
-142.5663194088029
 10
89.54767792900198
 20
-142.5663194088029
 10
89.54767792900198
 20
-142.5663194088029
 10
89.54974498629312
 20
-142.6403889617357
 10
89.5604247822974
 20
-142.8749999642812
 10
89.8437838859592
 20
-142.8749999642812
 10
89.98141545059492
 20
-142.8749999642812
 10
90.13368867104298
 20
-142.8054090354792
 10
90.13368867104298
 20
-142.5769992048072
 10
90.13368867104298
 20
-142.4605549774057
 10
90.09562036593096
 20
-142.4119791310637
 10
90.06392548746666
 20
-142.3802842525994
 10
89.9898559345338
 20
-142.3062146996665
 10
89.87341170713235
 20
-142.2934678463711
 10
89.81846243414262
 20
-142.2934678463711
 10
89.79934215419948
 20
-142.2934678463711
 10
89.76351316115287
 20
-142.2955349036622
 10
89.73595239727088
 20
-142.2996690182445
 10
89.73595239727088
 20
-142.2996690182445
 10
89.73595239727088
 20
-142.1050211233279
 10
89.73595239727088
 20
-142.1050211233279
 10
89.77402070238288
 20
-142.1115668047499
 10
89.81639537685146
 20
-142.113633862041
 10
89.82276880349917
 20
-142.113633862041
 10
89.88822561771892
 20
-142.113633862041
 10
90.0871798819921
 20
-142.0922742700325
 10
90.0871798819921
 20
-141.8555962101958
 10
90.0871798819921
 20
-141.6778292831569
 10
89.95592174400407
 20
-141.622707755393
 10
89.84602319802461
 20
-141.622707755393
 10
89.58143986475743
 20
-141.622707755393
 10
89.57299938081856
 20
-141.8555962101958
 10
89.56886526623626
 20
-141.927254196289
 10
89.56886526623626
 20
-141.927254196289
 10
89.36577688738078
 20
-141.927254196289
 10
89.36577688738078
 20
-141.927254196289
 10
89.37421737131965
 20
-141.802541739723
 10
89.40177813520164
 20
-141.4259928031852
 10
89.85859779654577
 20
-141.4259928031852
 10
90.08287351263553
 20
-141.4259928031852
 10
90.32403019660302
 20
-141.5531168265909
 10
90.32403019660302
 20
-141.8490505287739
 10
90.32403019660302
 20
-142.0354301945259
 10
90.22894556121012
 20
-142.1177679766234
 10
90.1293823016864
 20
-142.1790906762608
 10
90.19087725609812
 20
-142.2066514401428
 10
90.37277829771931
 20
-142.2869221649491
 10
90.37277829771931
 20
-142.5642523515117
 10
90.37277829771931
 20
-142.9025607281633
 10
90.1252481871041
 20
-143.0696478591979
 10
89.84809025531575
 20
-143.0696478591979
 97
        0
 97
        0
 75
     2
 76
     1
 98
        0
  0
SPLINE
  5
9A
330
94
100
AcDbEntity
  8
_U+30EC_U+30A4_U+30E4_U+30FC 1
370
     0
100
AcDbSpline
210
0.0
220
0.0
230
1.0
 70
    11
 71
     3
 72
    29
 73
    25
 74
     0
 42
0.0000000001
 43
0.0000000001
 12
1.0
 22
0.0
 32
0.0
 13
1.0
 23
0.0
 33
0.0
 40
0.0
 40
0.0
 40
0.0
 40
0.0
 40
1.0
 40
1.0
 40
1.0
 40
2.0
 40
2.0
 40
2.0
 40
3.0
 40
3.0
 40
3.0
 40
4.0
 40
4.0
 40
4.0
 40
5.0
 40
5.0
 40
5.0
 40
6.0
 40
6.0
 40
6.0
 40
7.0
 40
7.0
 40
7.0
 40
8.0
 40
8.0
 40
8.0
 40
8.0
 10
91.43111163078807
 20
-142.8412380285258
 30
0.0
 10
91.32328014209973
 20
-143.050699834029
 30
0.0
 10
91.14981958441741
 20
-143.0696478591979
 30
0.0
 10
91.03337535701597
 20
-143.0696478591979
 30
0.0
 10
90.87266165262906
 20
-143.0696478591979
 30
0.0
 10
90.73089597341102
 20
-143.023139070147
 30
0.0
 10
90.63563908324387
 20
-142.8412380285258
 30
0.0
 10
90.53211396391211
 20
-142.6465901336092
 30
0.0
 10
90.51299368396897
 20
-142.4099120737725
 30
0.0
 10
90.51299368396897
 20
-142.2469590573202
 30
0.0
 10
90.51299368396897
 20
-142.1029540660368
 30
0.0
 10
90.5298746518467
 20
-141.851117586065
 30
0.0
 10
90.63563908324387
 20
-141.6523355765661
 30
0.0
 10
90.74364282670645
 20
-141.4494194524849
 30
0.0
 10
90.90435653109336
 20
-141.4259928031852
 30
0.0
 10
91.03337535701597
 20
-141.4259928031852
 30
0.0
 10
91.19202200411172
 20
-141.4259928031852
 30
0.0
 10
91.3358547406209
 20
-141.4704345349449
 30
0.0
 10
91.43111163078807
 20
-141.6523355765661
 30
0.0
 10
91.53067489031179
 20
-141.8449164141915
 30
0.0
 10
91.55375703006295
 20
-142.0733262448636
 30
0.0
 10
91.55375703006295
 20
-142.2469590573202
 30
0.0
 10
91.55375703006295
 20
-142.4181803029371
 30
0.0
 10
91.53274194760293
 20
-142.6486571909003
 30
0.0
 10
91.43111163078807
 20
-142.8412380285258
 30
0.0
  0
SPLINE
  5
9B
330
94
100
AcDbEntity
  8
_U+30EC_U+30A4_U+30E4_U+30FC 1
370
     0
100
AcDbSpline
210
0.0
220
0.0
230
1.0
 70
    11
 71
     3
 72
    17
 73
    13
 74
     0
 42
0.0000000001
 43
0.0000000001
 12
1.0
 22
0.0
 32
0.0
 13
1.0
 23
0.0
 33
0.0
 40
0.0
 40
0.0
 40
0.0
 40
0.0
 40
1.0
 40
1.0
 40
1.0
 40
2.0
 40
2.0
 40
2.0
 40
3.0
 40
3.0
 40
3.0
 40
4.0
 40
4.0
 40
4.0
 40
4.0
 10
91.03337535701597
 20
-141.6185736408106
 30
0.0
 10
90.78377818910961
 20
-141.6185736408106
 30
0.0
 10
90.73726940005874
 20
-141.9021049992467
 30
0.0
 10
90.73726940005874
 20
-142.2469590573202
 30
0.0
 10
90.73726940005874
 20
-142.5663194088029
 30
0.0
 10
90.7732706478796
 20
-142.8749999642812
 30
0.0
 10
91.03337535701597
 20
-142.8749999642812
 30
0.0
 10
91.28090546763117
 20
-142.8749999642812
 30
0.0
 10
91.32965356874745
 20
-142.5938801726849
 30
0.0
 10
91.32965356874745
 20
-142.2469590573202
 30
0.0
 10
91.32965356874745
 20
-141.927254196289
 30
0.0
 10
91.29158526363544
 20
-141.6185736408106
 30
0.0
 10
91.03337535701597
 20
-141.6185736408106
 30
0.0
  0
HATCH
  5
9C
330
94
100
AcDbEntity
  8
_U+30EC_U+30A4_U+30E4_U+30FC 1
 62
   179
420
  2234388
100
AcDbHatch
 10
0.0
 20
0.0
 30
0.0
210
0.0
220
0.0
230
1.0
  2
SOLID
 70
     1
 71
     0
 91
        2
 92
        1
 93
        1
 72
     4
 94
        3
 73
     0
 74
     1
 95
       29
 96
       25
 40
0.0
 40
0.0
 40
0.0
 40
0.0
 40
1.0
 40
1.0
 40
1.0
 40
2.0
 40
2.0
 40
2.0
 40
3.0
 40
3.0
 40
3.0
 40
4.0
 40
4.0
 40
4.0
 40
5.0
 40
5.0
 40
5.0
 40
6.0
 40
6.0
 40
6.0
 40
7.0
 40
7.0
 40
7.0
 40
8.0
 40
8.0
 40
8.0
 40
8.0
 10
91.43111163078807
 20
-142.8412380285258
 10
91.32328014209973
 20
-143.050699834029
 10
91.14981958441741
 20
-143.0696478591979
 10
91.03337535701597
 20
-143.0696478591979
 10
90.87266165262906
 20
-143.0696478591979
 10
90.73089597341102
 20
-143.023139070147
 10
90.63563908324387
 20
-142.8412380285258
 10
90.53211396391211
 20
-142.6465901336092
 10
90.51299368396897
 20
-142.4099120737725
 10
90.51299368396897
 20
-142.2469590573202
 10
90.51299368396897
 20
-142.1029540660368
 10
90.5298746518467
 20
-141.851117586065
 10
90.63563908324387
 20
-141.6523355765661
 10
90.74364282670645
 20
-141.4494194524849
 10
90.90435653109336
 20
-141.4259928031852
 10
91.03337535701597
 20
-141.4259928031852
 10
91.19202200411172
 20
-141.4259928031852
 10
91.3358547406209
 20
-141.4704345349449
 10
91.43111163078807
 20
-141.6523355765661
 10
91.53067489031179
 20
-141.8449164141915
 10
91.55375703006295
 20
-142.0733262448636
 10
91.55375703006295
 20
-142.2469590573202
 10
91.55375703006295
 20
-142.4181803029371
 10
91.53274194760293
 20
-142.6486571909003
 10
91.43111163078807
 20
-142.8412380285258
 97
        0
 97
        0
 92
        1
 93
        1
 72
     4
 94
        3
 73
     0
 74
     1
 95
       17
 96
       13
 40
0.0
 40
0.0
 40
0.0
 40
0.0
 40
1.0
 40
1.0
 40
1.0
 40
2.0
 40
2.0
 40
2.0
 40
3.0
 40
3.0
 40
3.0
 40
4.0
 40
4.0
 40
4.0
 40
4.0
 10
91.03337535701597
 20
-141.6185736408106
 10
90.78377818910961
 20
-141.6185736408106
 10
90.73726940005874
 20
-141.9021049992467
 10
90.73726940005874
 20
-142.2469590573202
 10
90.73726940005874
 20
-142.5663194088029
 10
90.7732706478796
 20
-142.8749999642812
 10
91.03337535701597
 20
-142.8749999642812
 10
91.28090546763117
 20
-142.8749999642812
 10
91.32965356874745
 20
-142.5938801726849
 10
91.32965356874745
 20
-142.2469590573202
 10
91.32965356874745
 20
-141.927254196289
 10
91.29158526363544
 20
-141.6185736408106
 10
91.03337535701597
 20
-141.6185736408106
 97
        0
 97
        0
 75
     2
 76
     1
 98
        0
  0
ENDBLK
  5
97
330
94
100
AcDbEntity
  8
0
100
AcDbBlockEnd
  0
BLOCK
  5
9F
330
9D
100
AcDbEntity
  8
0
100
AcDbBlockBegin
  2
block 3
 70
     0
 10
0.0
 20
0.0
 30
0.0
  3
block 3
  1

  0
SPLINE
  5
A1
330
9D
100
AcDbEntity
  8
_U+30EC_U+30A4_U+30E4_U+30FC 1
370
     0
100
AcDbSpline
210
0.0
220
0.0
230
1.0
 70
    11
 71
     3
 72
    62
 73
    58
 74
     0
 42
0.0000000001
 43
0.0000000001
 12
1.0
 22
0.0
 32
0.0
 13
1.0
 23
0.0
 33
0.0
 40
0.0
 40
0.0
 40
0.0
 40
0.0
 40
1.0
 40
1.0
 40
1.0
 40
2.0
 40
2.0
 40
2.0
 40
3.0
 40
3.0
 40
3.0
 40
4.0
 40
4.0
 40
4.0
 40
5.0
 40
5.0
 40
5.0
 40
6.0
 40
6.0
 40
6.0
 40
7.0
 40
7.0
 40
7.0
 40
8.0
 40
8.0
 40
8.0
 40
9.0
 40
9.0
 40
9.0
 40
10.0
 40
10.0
 40
10.0
 40
11.0
 40
11.0
 40
11.0
 40
12.0
 40
12.0
 40
12.0
 40
13.0
 40
13.0
 40
13.0
 40
14.0
 40
14.0
 40
14.0
 40
15.0
 40
15.0
 40
15.0
 40
16.0
 40
16.0
 40
16.0
 40
17.0
 40
17.0
 40
17.0
 40
18.0
 40
18.0
 40
18.0
 40
19.0
 40
19.0
 40
19.0
 40
19.0
 10
72.79693466062021
 20
-124.4981716268616
 30
0.0
 10
72.79693466062021
 20
-124.5934285170287
 30
0.0
 10
72.77574732338593
 20
-124.8113308064708
 30
0.0
 10
72.58953991240817
 20
-124.9360432630368
 30
0.0
 10
72.4774020543633
 20
-125.0101128159697
 30
0.0
 10
72.37801104961383
 20
-125.0144191853263
 30
0.0
 10
72.29343395545095
 20
-125.0185532999086
 30
0.0
 10
72.29343395545095
 20
-125.0185532999086
 30
0.0
 10
72.29343395545095
 20
-124.7985839531754
 30
0.0
 10
72.29343395545095
 20
-124.7985839531754
 30
0.0
 10
72.36750350838382
 20
-124.7965168958842
 30
0.0
 10
72.6022867657036
 20
-124.7858370998799
 30
0.0
 10
72.6022867657036
 20
-124.5024779962181
 30
0.0
 10
72.6022867657036
 20
-124.3648464315824
 30
0.0
 10
72.53252358212728
 20
-124.2125732111344
 30
0.0
 10
72.30394149668096
 20
-124.2125732111344
 30
0.0
 10
72.18766952405377
 20
-124.2125732111344
 30
0.0
 10
72.1389214229375
 20
-124.2506415162464
 30
0.0
 10
72.10722654447319
 20
-124.2823363947107
 30
0.0
 10
72.03315699154032
 20
-124.3564059476435
 30
0.0
 10
72.02058239301917
 20
-124.472850175045
 30
0.0
 10
72.02058239301917
 20
-124.5277994480347
 30
0.0
 10
72.02058239301917
 20
-124.5469197279779
 30
0.0
 10
72.02264945031031
 20
-124.5827487210245
 30
0.0
 10
72.02678356489261
 20
-124.6103094849065
 30
0.0
 10
72.02678356489261
 20
-124.6103094849065
 30
0.0
 10
71.83230792475025
 20
-124.6103094849065
 30
0.0
 10
71.83230792475025
 20
-124.6103094849065
 30
0.0
 10
71.83850909662371
 20
-124.5722411797944
 30
0.0
 10
71.84074840868912
 20
-124.5298665053259
 30
0.0
 10
71.84074840868912
 20
-124.5234930786782
 30
0.0
 10
71.84074840868912
 20
-124.4580362644584
 30
0.0
 10
71.81956107145484
 20
-124.2590820001852
 30
0.0
 10
71.58253850206965
 20
-124.2590820001852
 30
0.0
 10
71.40494382980502
 20
-124.2590820001852
 30
0.0
 10
71.34982230204102
 20
-124.3903401381733
 30
0.0
 10
71.34982230204102
 20
-124.5002386841527
 30
0.0
 10
71.34982230204102
 20
-124.7648220174199
 30
0.0
 10
71.58253850206965
 20
-124.7732625013588
 30
0.0
 10
71.65454099771136
 20
-124.7773966159411
 30
0.0
 10
71.65454099771136
 20
-124.7773966159411
 30
0.0
 10
71.65454099771136
 20
-124.9804849947966
 30
0.0
 10
71.65454099771136
 20
-124.9804849947966
 30
0.0
 10
71.52965628637106
 20
-124.9720445108577
 30
0.0
 10
71.15310734983325
 20
-124.9444837469757
 30
0.0
 10
71.15310734983325
 20
-124.4876640856316
 30
0.0
 10
71.15310734983325
 20
-124.2633883695418
 30
0.0
 10
71.2800591184647
 20
-124.0222316855743
 30
0.0
 10
71.57616507542194
 20
-124.0222316855743
 30
0.0
 10
71.76237248639968
 20
-124.0222316855743
 30
0.0
 10
71.84488252327142
 20
-124.1173163209672
 30
0.0
 10
71.90620522290887
 20
-124.2168795804909
 30
0.0
 10
71.93376598679087
 20
-124.1553846260792
 30
0.0
 10
72.01420896637146
 20
-123.973483584458
 30
0.0
 10
72.2913668981598
 20
-123.973483584458
 30
0.0
 10
72.6298475295856
 20
-123.973483584458
 30
0.0
 10
72.79693466062021
 20
-124.2210136950732
 30
0.0
 10
72.79693466062021
 20
-124.4981716268616
 30
0.0
  0
HATCH
  5
A2
330
9D
100
AcDbEntity
  8
_U+30EC_U+30A4_U+30E4_U+30FC 1
 62
   179
420
  2234388
100
AcDbHatch
 10
0.0
 20
0.0
 30
0.0
210
0.0
220
0.0
230
1.0
  2
SOLID
 70
     1
 71
     0
 91
        1
 92
        1
 93
        1
 72
     4
 94
        3
 73
     0
 74
     1
 95
       62
 96
       58
 40
0.0
 40
0.0
 40
0.0
 40
0.0
 40
1.0
 40
1.0
 40
1.0
 40
2.0
 40
2.0
 40
2.0
 40
3.0
 40
3.0
 40
3.0
 40
4.0
 40
4.0
 40
4.0
 40
5.0
 40
5.0
 40
5.0
 40
6.0
 40
6.0
 40
6.0
 40
7.0
 40
7.0
 40
7.0
 40
8.0
 40
8.0
 40
8.0
 40
9.0
 40
9.0
 40
9.0
 40
10.0
 40
10.0
 40
10.0
 40
11.0
 40
11.0
 40
11.0
 40
12.0
 40
12.0
 40
12.0
 40
13.0
 40
13.0
 40
13.0
 40
14.0
 40
14.0
 40
14.0
 40
15.0
 40
15.0
 40
15.0
 40
16.0
 40
16.0
 40
16.0
 40
17.0
 40
17.0
 40
17.0
 40
18.0
 40
18.0
 40
18.0
 40
19.0
 40
19.0
 40
19.0
 40
19.0
 10
72.79693466062021
 20
-124.4981716268616
 10
72.79693466062021
 20
-124.5934285170287
 10
72.77574732338593
 20
-124.8113308064708
 10
72.58953991240817
 20
-124.9360432630368
 10
72.4774020543633
 20
-125.0101128159697
 10
72.37801104961383
 20
-125.0144191853263
 10
72.29343395545095
 20
-125.0185532999086
 10
72.29343395545095
 20
-125.0185532999086
 10
72.29343395545095
 20
-124.7985839531754
 10
72.29343395545095
 20
-124.7985839531754
 10
72.36750350838382
 20
-124.7965168958842
 10
72.6022867657036
 20
-124.7858370998799
 10
72.6022867657036
 20
-124.5024779962181
 10
72.6022867657036
 20
-124.3648464315824
 10
72.53252358212728
 20
-124.2125732111344
 10
72.30394149668096
 20
-124.2125732111344
 10
72.18766952405377
 20
-124.2125732111344
 10
72.1389214229375
 20
-124.2506415162464
 10
72.10722654447319
 20
-124.2823363947107
 10
72.03315699154032
 20
-124.3564059476435
 10
72.02058239301917
 20
-124.472850175045
 10
72.02058239301917
 20
-124.5277994480347
 10
72.02058239301917
 20
-124.5469197279779
 10
72.02264945031031
 20
-124.5827487210245
 10
72.02678356489261
 20
-124.6103094849065
 10
72.02678356489261
 20
-124.6103094849065
 10
71.83230792475025
 20
-124.6103094849065
 10
71.83230792475025
 20
-124.6103094849065
 10
71.83850909662371
 20
-124.5722411797944
 10
71.84074840868912
 20
-124.5298665053259
 10
71.84074840868912
 20
-124.5234930786782
 10
71.84074840868912
 20
-124.4580362644584
 10
71.81956107145484
 20
-124.2590820001852
 10
71.58253850206965
 20
-124.2590820001852
 10
71.40494382980502
 20
-124.2590820001852
 10
71.34982230204102
 20
-124.3903401381733
 10
71.34982230204102
 20
-124.5002386841527
 10
71.34982230204102
 20
-124.7648220174199
 10
71.58253850206965
 20
-124.7732625013588
 10
71.65454099771136
 20
-124.7773966159411
 10
71.65454099771136
 20
-124.7773966159411
 10
71.65454099771136
 20
-124.9804849947966
 10
71.65454099771136
 20
-124.9804849947966
 10
71.52965628637106
 20
-124.9720445108577
 10
71.15310734983325
 20
-124.9444837469757
 10
71.15310734983325
 20
-124.4876640856316
 10
71.15310734983325
 20
-124.2633883695418
 10
71.2800591184647
 20
-124.0222316855743
 10
71.57616507542194
 20
-124.0222316855743
 10
71.76237248639968
 20
-124.0222316855743
 10
71.84488252327142
 20
-124.1173163209672
 10
71.90620522290887
 20
-124.2168795804909
 10
71.93376598679087
 20
-124.1553846260792
 10
72.01420896637146
 20
-123.973483584458
 10
72.2913668981598
 20
-123.973483584458
 10
72.6298475295856
 20
-123.973483584458
 10
72.79693466062021
 20
-124.2210136950732
 10
72.79693466062021
 20
-124.4981716268616
 97
        0
 97
        0
 75
     2
 76
     1
 98
        0
  0
SPLINE
  5
A3
330
9D
100
AcDbEntity
  8
_U+30EC_U+30A4_U+30E4_U+30FC 1
370
     0
100
AcDbSpline
210
0.0
220
0.0
230
1.0
 70
    11
 71
     3
 72
    29
 73
    25
 74
     0
 42
0.0000000001
 43
0.0000000001
 12
1.0
 22
0.0
 32
0.0
 13
1.0
 23
0.0
 33
0.0
 40
0.0
 40
0.0
 40
0.0
 40
0.0
 40
1.0
 40
1.0
 40
1.0
 40
2.0
 40
2.0
 40
2.0
 40
3.0
 40
3.0
 40
3.0
 40
4.0
 40
4.0
 40
4.0
 40
5.0
 40
5.0
 40
5.0
 40
6.0
 40
6.0
 40
6.0
 40
7.0
 40
7.0
 40
7.0
 40
8.0
 40
8.0
 40
8.0
 40
8.0
 10
72.56835257517389
 20
-122.9151502513893
 30
0.0
 10
72.77781438067707
 20
-123.0229817400776
 30
0.0
 10
72.79693466062021
 20
-123.1964422977599
 30
0.0
 10
72.79693466062021
 20
-123.3128865251614
 30
0.0
 10
72.79693466062021
 20
-123.4736002295483
 30
0.0
 10
72.75042587156935
 20
-123.6153659087663
 30
0.0
 10
72.56835257517389
 20
-123.7106227989335
 30
0.0
 10
72.37387693503153
 20
-123.8141479182652
 30
0.0
 10
72.13685436564634
 20
-123.8332681982084
 30
0.0
 10
71.97390134919402
 20
-123.8332681982084
 30
0.0
 10
71.83006861268484
 20
-123.8332681982084
 30
0.0
 10
71.57840438748735
 20
-123.8163872303306
 30
0.0
 10
71.37945012321417
 20
-123.7106227989335
 30
0.0
 10
71.17636174435869
 20
-123.6026190554709
 30
0.0
 10
71.15310734983325
 20
-123.441905351084
 30
0.0
 10
71.15310734983325
 20
-123.3128865251614
 30
0.0
 10
71.15310734983325
 20
-123.1542398780656
 30
0.0
 10
71.19754908159298
 20
-123.0104071415564
 30
0.0
 10
71.37945012321417
 20
-122.9151502513893
 30
0.0
 10
71.57203096083964
 20
-122.8157592466398
 30
0.0
 10
71.8004407915117
 20
-122.7925048521144
 30
0.0
 10
71.97390134919402
 20
-122.7925048521144
 30
0.0
 10
72.14529484958521
 20
-122.7925048521144
 30
0.0
 10
72.37594399232269
 20
-122.8135199345744
 30
0.0
 10
72.56835257517389
 20
-122.9151502513893
 30
0.0
  0
SPLINE
  5
A4
330
9D
100
AcDbEntity
  8
_U+30EC_U+30A4_U+30E4_U+30FC 1
370
     0
100
AcDbSpline
210
0.0
220
0.0
230
1.0
 70
    11
 71
     3
 72
    17
 73
    13
 74
     0
 42
0.0000000001
 43
0.0000000001
 12
1.0
 22
0.0
 32
0.0
 13
1.0
 23
0.0
 33
0.0
 40
0.0
 40
0.0
 40
0.0
 40
0.0
 40
1.0
 40
1.0
 40
1.0
 40
2.0
 40
2.0
 40
2.0
 40
3.0
 40
3.0
 40
3.0
 40
4.0
 40
4.0
 40
4.0
 40
4.0
 10
71.34568818745872
 20
-123.3128865251614
 30
0.0
 10
71.34568818745872
 20
-123.5624836930677
 30
0.0
 10
71.62904729112051
 20
-123.6089924821186
 30
0.0
 10
71.97390134919402
 20
-123.6089924821186
 30
0.0
 10
72.29343395545095
 20
-123.6089924821186
 30
0.0
 10
72.6022867657036
 20
-123.5729912342977
 30
0.0
 10
72.6022867657036
 20
-123.3128865251614
 30
0.0
 10
72.6022867657036
 20
-123.0653564145462
 30
0.0
 10
72.32082246455869
 20
-123.0166083134299
 30
0.0
 10
71.97390134919402
 20
-123.0166083134299
 30
0.0
 10
71.65454099771136
 20
-123.0166083134299
 30
0.0
 10
71.34568818745872
 20
-123.0546766185419
 30
0.0
 10
71.34568818745872
 20
-123.3128865251614
 30
0.0
  0
HATCH
  5
A5
330
9D
100
AcDbEntity
  8
_U+30EC_U+30A4_U+30E4_U+30FC 1
 62
   179
420
  2234388
100
AcDbHatch
 10
0.0
 20
0.0
 30
0.0
210
0.0
220
0.0
230
1.0
  2
SOLID
 70
     1
 71
     0
 91
        2
 92
        1
 93
        1
 72
     4
 94
        3
 73
     0
 74
     1
 95
       29
 96
       25
 40
0.0
 40
0.0
 40
0.0
 40
0.0
 40
1.0
 40
1.0
 40
1.0
 40
2.0
 40
2.0
 40
2.0
 40
3.0
 40
3.0
 40
3.0
 40
4.0
 40
4.0
 40
4.0
 40
5.0
 40
5.0
 40
5.0
 40
6.0
 40
6.0
 40
6.0
 40
7.0
 40
7.0
 40
7.0
 40
8.0
 40
8.0
 40
8.0
 40
8.0
 10
72.56835257517389
 20
-122.9151502513893
 10
72.77781438067707
 20
-123.0229817400776
 10
72.79693466062021
 20
-123.1964422977599
 10
72.79693466062021
 20
-123.3128865251614
 10
72.79693466062021
 20
-123.4736002295483
 10
72.75042587156935
 20
-123.6153659087663
 10
72.56835257517389
 20
-123.7106227989335
 10
72.37387693503153
 20
-123.8141479182652
 10
72.13685436564634
 20
-123.8332681982084
 10
71.97390134919402
 20
-123.8332681982084
 10
71.83006861268484
 20
-123.8332681982084
 10
71.57840438748735
 20
-123.8163872303306
 10
71.37945012321417
 20
-123.7106227989335
 10
71.17636174435869
 20
-123.6026190554709
 10
71.15310734983325
 20
-123.441905351084
 10
71.15310734983325
 20
-123.3128865251614
 10
71.15310734983325
 20
-123.1542398780656
 10
71.19754908159298
 20
-123.0104071415564
 10
71.37945012321417
 20
-122.9151502513893
 10
71.57203096083964
 20
-122.8157592466398
 10
71.8004407915117
 20
-122.7925048521144
 10
71.97390134919402
 20
-122.7925048521144
 10
72.14529484958521
 20
-122.7925048521144
 10
72.37594399232269
 20
-122.8135199345744
 10
72.56835257517389
 20
-122.9151502513893
 97
        0
 97
        0
 92
        1
 93
        1
 72
     4
 94
        3
 73
     0
 74
     1
 95
       17
 96
       13
 40
0.0
 40
0.0
 40
0.0
 40
0.0
 40
1.0
 40
1.0
 40
1.0
 40
2.0
 40
2.0
 40
2.0
 40
3.0
 40
3.0
 40
3.0
 40
4.0
 40
4.0
 40
4.0
 40
4.0
 10
71.34568818745872
 20
-123.3128865251614
 10
71.34568818745872
 20
-123.5624836930677
 10
71.62904729112051
 20
-123.6089924821186
 10
71.97390134919402
 20
-123.6089924821186
 10
72.29343395545095
 20
-123.6089924821186
 10
72.6022867657036
 20
-123.5729912342977
 10
72.6022867657036
 20
-123.3128865251614
 10
72.6022867657036
 20
-123.0653564145462
 10
72.32082246455869
 20
-123.0166083134299
 10
71.97390134919402
 20
-123.0166083134299
 10
71.65454099771136
 20
-123.0166083134299
 10
71.34568818745872
 20
-123.0546766185419
 10
71.34568818745872
 20
-123.3128865251614
 97
        0
 97
        0
 75
     2
 76
     1
 98
        0
  0
ENDBLK
  5
A0
330
9D
100
AcDbEntity
  8
0
100
AcDbBlockEnd
  0
BLOCK
  5
A8
330
A6
100
AcDbEntity
  8
0
100
AcDbBlockBegin
  2
block 4
 70
     0
 10
0.0
 20
0.0
 30
0.0
  3
block 4
  1

  0
SPLINE
  5
AA
330
A6
100
AcDbEntity
  8
_U+30EC_U+30A4_U+30E4_U+30FC 1
370
     0
100
AcDbSpline
210
0.0
220
0.0
230
1.0
 70
    11
 71
     3
 72
    53
 73
    49
 74
     0
 42
0.0000000001
 43
0.0000000001
 12
1.0
 22
0.0
 32
0.0
 13
1.0
 23
0.0
 33
0.0
 40
0.0
 40
0.0
 40
0.0
 40
0.0
 40
1.0
 40
1.0
 40
1.0
 40
2.0
 40
2.0
 40
2.0
 40
3.0
 40
3.0
 40
3.0
 40
4.0
 40
4.0
 40
4.0
 40
5.0
 40
5.0
 40
5.0
 40
6.0
 40
6.0
 40
6.0
 40
7.0
 40
7.0
 40
7.0
 40
8.0
 40
8.0
 40
8.0
 40
9.0
 40
9.0
 40
9.0
 40
10.0
 40
10.0
 40
10.0
 40
11.0
 40
11.0
 40
11.0
 40
12.0
 40
12.0
 40
12.0
 40
13.0
 40
13.0
 40
13.0
 40
14.0
 40
14.0
 40
14.0
 40
15.0
 40
15.0
 40
15.0
 40
16.0
 40
16.0
 40
16.0
 40
16.0
 10
109.49443627905
 20
-136.43129336867
 30
0.0
 10
109.49443627905
 20
-136.5094970361851
 30
0.0
 10
109.4775553111723
 20
-136.611127353
 30
0.0
 10
109.4141655542437
 20
-136.7127576698149
 30
0.0
 10
109.3042670082642
 20
-136.8860459727229
 30
0.0
 10
109.1730088702762
 20
-136.9074055647315
 30
0.0
 10
109.0651773815879
 20
-136.9263535899004
 30
0.0
 10
109.0651773815879
 20
-136.9263535899004
 30
0.0
 10
109.0651773815879
 20
-136.7041449311018
 30
0.0
 10
109.0651773815879
 20
-136.7041449311018
 30
0.0
 10
109.2639593910868
 20
-136.6493679128863
 30
0.0
 10
109.2935872122599
 20
-136.5222438894806
 30
0.0
 10
109.2935872122599
 20
-136.4292263113788
 30
0.0
 10
109.2935872122599
 20
-136.2896999442262
 30
0.0
 10
109.1940239527362
 20
-136.1374267237782
 30
0.0
 10
108.9614800074819
 20
-136.1374267237782
 30
0.0
 10
108.7055094129278
 20
-136.1374267237782
 30
0.0
 10
108.6355739745772
 20
-136.3172607081082
 30
0.0
 10
108.6355739745772
 20
-136.4378390500919
 30
0.0
 10
108.6355739745772
 20
-136.4695339285562
 30
0.0
 10
108.6355739745772
 20
-136.611127353
 30
0.0
 10
108.7647650552741
 20
-136.7000108165194
 30
0.0
 10
108.7647650552741
 20
-136.7000108165194
 30
0.0
 10
108.7458170301052
 20
-136.8757106862672
 30
0.0
 10
108.7458170301052
 20
-136.8757106862672
 30
0.0
 10
108.7458170301052
 20
-136.8757106862672
 30
0.0
 10
107.8993570693793
 20
-136.7551323442835
 30
0.0
 10
107.8993570693793
 20
-136.7551323442835
 30
0.0
 10
107.8993570693793
 20
-136.7551323442835
 30
0.0
 10
107.8993570693793
 20
-135.976540764617
 30
0.0
 10
107.8993570693793
 20
-135.976540764617
 30
0.0
 10
107.8993570693793
 20
-135.976540764617
 30
0.0
 10
108.0940049642959
 20
-135.976540764617
 30
0.0
 10
108.0940049642959
 20
-135.976540764617
 30
0.0
 10
108.0940049642959
 20
-135.976540764617
 30
0.0
 10
108.0940049642959
 20
-136.5921793278311
 30
0.0
 10
108.0940049642959
 20
-136.5921793278311
 30
0.0
 10
108.0940049642959
 20
-136.5921793278311
 30
0.0
 10
108.5170626898846
 20
-136.6576361420509
 30
0.0
 10
108.5170626898846
 20
-136.6576361420509
 30
0.0
 10
108.4833007541292
 20
-136.5963134424134
 30
0.0
 10
108.4429931369518
 20
-136.513975660316
 30
0.0
 10
108.4429931369518
 20
-136.3954643756234
 30
0.0
 10
108.4429931369518
 20
-136.1415608383604
 30
0.0
 10
108.6293728027038
 20
-135.9045382689753
 30
0.0
 10
108.942531982313
 20
-135.9045382689753
 30
0.0
 10
109.2598252765045
 20
-135.9045382689753
 30
0.0
 10
109.49443627905
 20
-136.128813985065
 30
0.0
 10
109.49443627905
 20
-136.43129336867
 30
0.0
  0
HATCH
  5
AB
330
A6
100
AcDbEntity
  8
_U+30EC_U+30A4_U+30E4_U+30FC 1
 62
   179
420
  2234388
100
AcDbHatch
 10
0.0
 20
0.0
 30
0.0
210
0.0
220
0.0
230
1.0
  2
SOLID
 70
     1
 71
     0
 91
        1
 92
        1
 93
        1
 72
     4
 94
        3
 73
     0
 74
     1
 95
       53
 96
       49
 40
0.0
 40
0.0
 40
0.0
 40
0.0
 40
1.0
 40
1.0
 40
1.0
 40
2.0
 40
2.0
 40
2.0
 40
3.0
 40
3.0
 40
3.0
 40
4.0
 40
4.0
 40
4.0
 40
5.0
 40
5.0
 40
5.0
 40
6.0
 40
6.0
 40
6.0
 40
7.0
 40
7.0
 40
7.0
 40
8.0
 40
8.0
 40
8.0
 40
9.0
 40
9.0
 40
9.0
 40
10.0
 40
10.0
 40
10.0
 40
11.0
 40
11.0
 40
11.0
 40
12.0
 40
12.0
 40
12.0
 40
13.0
 40
13.0
 40
13.0
 40
14.0
 40
14.0
 40
14.0
 40
15.0
 40
15.0
 40
15.0
 40
16.0
 40
16.0
 40
16.0
 40
16.0
 10
109.49443627905
 20
-136.43129336867
 10
109.49443627905
 20
-136.5094970361851
 10
109.4775553111723
 20
-136.611127353
 10
109.4141655542437
 20
-136.7127576698149
 10
109.3042670082642
 20
-136.8860459727229
 10
109.1730088702762
 20
-136.9074055647315
 10
109.0651773815879
 20
-136.9263535899004
 10
109.0651773815879
 20
-136.9263535899004
 10
109.0651773815879
 20
-136.7041449311018
 10
109.0651773815879
 20
-136.7041449311018
 10
109.2639593910868
 20
-136.6493679128863
 10
109.2935872122599
 20
-136.5222438894806
 10
109.2935872122599
 20
-136.4292263113788
 10
109.2935872122599
 20
-136.2896999442262
 10
109.1940239527362
 20
-136.1374267237782
 10
108.9614800074819
 20
-136.1374267237782
 10
108.7055094129278
 20
-136.1374267237782
 10
108.6355739745772
 20
-136.3172607081082
 10
108.6355739745772
 20
-136.4378390500919
 10
108.6355739745772
 20
-136.4695339285562
 10
108.6355739745772
 20
-136.611127353
 10
108.7647650552741
 20
-136.7000108165194
 10
108.7647650552741
 20
-136.7000108165194
 10
108.7458170301052
 20
-136.8757106862672
 10
108.7458170301052
 20
-136.8757106862672
 10
108.7458170301052
 20
-136.8757106862672
 10
107.8993570693793
 20
-136.7551323442835
 10
107.8993570693793
 20
-136.7551323442835
 10
107.8993570693793
 20
-136.7551323442835
 10
107.8993570693793
 20
-135.976540764617
 10
107.8993570693793
 20
-135.976540764617
 10
107.8993570693793
 20
-135.976540764617
 10
108.0940049642959
 20
-135.976540764617
 10
108.0940049642959
 20
-135.976540764617
 10
108.0940049642959
 20
-135.976540764617
 10
108.0940049642959
 20
-136.5921793278311
 10
108.0940049642959
 20
-136.5921793278311
 10
108.0940049642959
 20
-136.5921793278311
 10
108.5170626898846
 20
-136.6576361420509
 10
108.5170626898846
 20
-136.6576361420509
 10
108.4833007541292
 20
-136.5963134424134
 10
108.4429931369518
 20
-136.513975660316
 10
108.4429931369518
 20
-136.3954643756234
 10
108.4429931369518
 20
-136.1415608383604
 10
108.6293728027038
 20
-135.9045382689753
 10
108.942531982313
 20
-135.9045382689753
 10
109.2598252765045
 20
-135.9045382689753
 10
109.49443627905
 20
-136.128813985065
 10
109.49443627905
 20
-136.43129336867
 97
        0
 97
        0
 75
     2
 76
     1
 98
        0
  0
ENDBLK
  5
A9
330
A6
100
AcDbEntity
  8
0
100
AcDbBlockEnd
  0
BLOCK
  5
AE
330
AC
100
AcDbEntity
  8
0
100
AcDbBlockBegin
  2
block 5
 70
     0
 10
0.0
 20
0.0
 30
0.0
  3
block 5
  1

  0
SPLINE
  5
B0
330
AC
100
AcDbEntity
  8
_U+30EC_U+30A4_U+30E4_U+30FC 1
370
     0
100
AcDbSpline
210
0.0
220
0.0
230
1.0
 70
    11
 71
     3
 72
   197
 73
   193
 74
     0
 42
0.0000000001
 43
0.0000000001
 12
1.0
 22
0.0
 32
0.0
 13
1.0
 23
0.0
 33
0.0
 40
0.0
 40
0.0
 40
0.0
 40
0.0
 40
1.0
 40
1.0
 40
1.0
 40
2.0
 40
2.0
 40
2.0
 40
3.0
 40
3.0
 40
3.0
 40
4.0
 40
4.0
 40
4.0
 40
5.0
 40
5.0
 40
5.0
 40
6.0
 40
6.0
 40
6.0
 40
7.0
 40
7.0
 40
7.0
 40
8.0
 40
8.0
 40
8.0
 40
9.0
 40
9.0
 40
9.0
 40
10.0
 40
10.0
 40
10.0
 40
11.0
 40
11.0
 40
11.0
 40
12.0
 40
12.0
 40
12.0
 40
13.0
 40
13.0
 40
13.0
 40
14.0
 40
14.0
 40
14.0
 40
15.0
 40
15.0
 40
15.0
 40
16.0
 40
16.0
 40
16.0
 40
17.0
 40
17.0
 40
17.0
 40
18.0
 40
18.0
 40
18.0
 40
19.0
 40
19.0
 40
19.0
 40
20.0
 40
20.0
 40
20.0
 40
21.0
 40
21.0
 40
21.0
 40
22.0
 40
22.0
 40
22.0
 40
23.0
 40
23.0
 40
23.0
 40
24.0
 40
24.0
 40
24.0
 40
25.0
 40
25.0
 40
25.0
 40
26.0
 40
26.0
 40
26.0
 40
27.0
 40
27.0
 40
27.0
 40
28.0
 40
28.0
 40
28.0
 40
29.0
 40
29.0
 40
29.0
 40
30.0
 40
30.0
 40
30.0
 40
31.0
 40
31.0
 40
31.0
 40
32.0
 40
32.0
 40
32.0
 40
33.0
 40
33.0
 40
33.0
 40
34.0
 40
34.0
 40
34.0
 40
35.0
 40
35.0
 40
35.0
 40
36.0
 40
36.0
 40
36.0
 40
37.0
 40
37.0
 40
37.0
 40
38.0
 40
38.0
 40
38.0
 40
39.0
 40
39.0
 40
39.0
 40
40.0
 40
40.0
 40
40.0
 40
41.0
 40
41.0
 40
41.0
 40
42.0
 40
42.0
 40
42.0
 40
43.0
 40
43.0
 40
43.0
 40
44.0
 40
44.0
 40
44.0
 40
45.0
 40
45.0
 40
45.0
 40
46.0
 40
46.0
 40
46.0
 40
47.0
 40
47.0
 40
47.0
 40
48.0
 40
48.0
 40
48.0
 40
49.0
 40
49.0
 40
49.0
 40
50.0
 40
50.0
 40
50.0
 40
51.0
 40
51.0
 40
51.0
 40
52.0
 40
52.0
 40
52.0
 40
53.0
 40
53.0
 40
53.0
 40
54.0
 40
54.0
 40
54.0
 40
55.0
 40
55.0
 40
55.0
 40
56.0
 40
56.0
 40
56.0
 40
57.0
 40
57.0
 40
57.0
 40
58.0
 40
58.0
 40
58.0
 40
59.0
 40
59.0
 40
59.0
 40
60.0
 40
60.0
 40
60.0
 40
61.0
 40
61.0
 40
61.0
 40
62.0
 40
62.0
 40
62.0
 40
63.0
 40
63.0
 40
63.0
 40
64.0
 40
64.0
 40
64.0
 40
64.0
 10
94.72393389558985
 20
-146.1006428671207
 30
0.0
 10
94.71359860913411
 20
-146.1302706882938
 30
0.0
 10
94.6901719598344
 20
-146.1767794773447
 30
0.0
 10
94.67949216383013
 20
-146.2043402412267
 30
0.0
 10
94.67949216383013
 20
-146.2043402412267
 30
0.0
 10
94.61816946419269
 20
-146.3566134616748
 30
0.0
 10
94.61816946419269
 20
-146.3566134616748
 30
0.0
 10
94.60783417773693
 20
-146.3821071682656
 30
0.0
 10
94.55891382184639
 20
-146.4940727715362
 30
0.0
 10
94.54651147809949
 20
-146.5174994208359
 30
0.0
 10
94.5440999112598
 20
-146.5237005927094
 30
0.0
 10
94.5399657966775
 20
-146.5323133314225
 30
0.0
 10
94.53789873938636
 20
-146.5385145032959
 30
0.0
 10
94.53789873938636
 20
-146.5385145032959
 30
0.0
 10
94.32843693388317
 20
-146.4858045423716
 30
0.0
 10
94.32843693388317
 20
-146.4858045423716
 30
0.0
 10
94.40664060139835
 20
-146.3759059963921
 30
0.0
 10
94.4679633010358
 20
-146.2405137438218
 30
0.0
 10
94.50000268904861
 20
-146.1302706882938
 30
0.0
 10
94.50000268904861
 20
-146.1302706882938
 30
0.0
 10
94.03457028899136
 20
-146.1302706882938
 30
0.0
 10
94.03457028899136
 20
-146.1302706882938
 30
0.0
 10
93.95395505463651
 20
-146.2952907620373
 30
0.0
 10
93.88643118312562
 20
-146.3734944295525
 30
0.0
 10
93.85232473782165
 20
-146.4138020467299
 30
0.0
 10
93.85232473782165
 20
-146.4138020467299
 30
0.0
 10
93.72967933854675
 20
-146.3483452325102
 30
0.0
 10
93.72967933854675
 20
-146.3483452325102
 30
0.0
 10
93.72967933854675
 20
-146.3483452325102
 30
0.0
 10
93.72967933854675
 20
-146.519566478127
 30
0.0
 10
93.72967933854675
 20
-146.519566478127
 30
0.0
 10
93.72967933854675
 20
-146.6273979668154
 30
0.0
 10
93.7317463958379
 20
-146.6763183227059
 30
0.0
 10
93.74242619184217
 20
-146.7820827541031
 30
0.0
 10
93.67042369620046
 20
-146.7796711872634
 30
0.0
 10
93.64940861374043
 20
-146.7796711872634
 30
0.0
 10
93.44408092281954
 20
-146.7796711872634
 30
0.0
 10
93.44408092281954
 20
-146.7796711872634
 30
0.0
 10
93.38930390460406
 20
-146.7796711872634
 30
0.0
 10
93.38930390460406
 20
-146.7796711872634
 30
0.0
 10
93.38930390460406
 20
-146.7796711872634
 30
0.0
 10
93.38930390460406
 20
-146.9150634398337
 30
0.0
 10
93.38930390460406
 20
-146.9150634398337
 30
0.0
 10
93.38930390460406
 20
-146.9150634398337
 30
0.0
 10
93.46096189069726
 20
-146.9150634398337
 30
0.0
 10
93.46096189069726
 20
-146.9150634398337
 30
0.0
 10
93.52676321446553
 20
-146.9150634398337
 30
0.0
 10
93.67283526304013
 20
-146.9109293252514
 30
0.0
 10
93.7785996944373
 20
-146.9026610960868
 30
0.0
 10
93.7785996944373
 20
-146.9026610960868
 30
0.0
 10
93.7785996944373
 20
-147.0800835135772
 30
0.0
 10
93.7785996944373
 20
-147.0800835135772
 30
0.0
 10
93.68110349220473
 20
-147.0738823417038
 30
0.0
 10
93.52262909988323
 20
-147.0697482271215
 30
0.0
 10
93.46096189069726
 20
-147.0697482271215
 30
0.0
 10
93.46096189069726
 20
-147.0697482271215
 30
0.0
 10
93.38930390460406
 20
-147.0697482271215
 30
0.0
 10
93.38930390460406
 20
-147.0697482271215
 30
0.0
 10
93.39137096189522
 20
-147.1586316906409
 30
0.0
 10
93.39550507647752
 20
-147.3973768077687
 30
0.0
 10
93.39757213376866
 20
-147.4714463607016
 30
0.0
 10
93.39757213376866
 20
-147.4714463607016
 30
0.0
 10
93.1967230669786
 20
-147.4714463607016
 30
0.0
 10
93.1967230669786
 20
-147.4714463607016
 30
0.0
 10
93.20946992027403
 20
-147.2578504406161
 30
0.0
 10
93.20946992027403
 20
-147.228222619443
 30
0.0
 10
93.21360403485633
 20
-147.0697482271215
 30
0.0
 10
93.21360403485633
 20
-147.0697482271215
 30
0.0
 10
93.14366859650575
 20
-147.0697482271215
 30
0.0
 10
93.14366859650575
 20
-147.0697482271215
 30
0.0
 10
93.08682452099913
 20
-147.0697482271215
 30
0.0
 10
92.93420679100257
 20
-147.0738823417038
 30
0.0
 10
92.82430824502309
 20
-147.0800835135772
 30
0.0
 10
92.82430824502309
 20
-147.0800835135772
 30
0.0
 10
92.82430824502309
 20
-146.9026610960868
 30
0.0
 10
92.82430824502309
 20
-146.9026610960868
 30
0.0
 10
92.93007267642027
 20
-146.9109293252514
 30
0.0
 10
93.0740776677037
 20
-146.9150634398337
 30
0.0
 10
93.14366859650575
 20
-146.9150634398337
 30
0.0
 10
93.14366859650575
 20
-146.9150634398337
 30
0.0
 10
93.21773814943863
 20
-146.9150634398337
 30
0.0
 10
93.21773814943863
 20
-146.9150634398337
 30
0.0
 10
93.21773814943863
 20
-146.9150634398337
 30
0.0
 10
93.21773814943863
 20
-146.7796711872634
 30
0.0
 10
93.21773814943863
 20
-146.7796711872634
 30
0.0
 10
93.21773814943863
 20
-146.7796711872634
 30
0.0
 10
93.1732964176789
 20
-146.7796711872634
 30
0.0
 10
93.1732964176789
 20
-146.7796711872634
 30
0.0
 10
93.09715980745489
 20
-146.7796711872634
 30
0.0
 10
92.90457896982942
 20
-146.7820827541031
 30
0.0
 10
92.87081703407397
 20
-146.7820827541031
 30
0.0
 10
92.87736271549593
 20
-146.7100802584614
 30
0.0
 10
92.88563094466055
 20
-146.6294650241065
 30
0.0
 10
92.88563094466055
 20
-146.5088866821228
 30
0.0
 10
92.88563094466055
 20
-146.5088866821228
 30
0.0
 10
92.88563094466055
 20
-146.3355983792147
 30
0.0
 10
92.88563094466055
 20
-146.3355983792147
 30
0.0
 10
92.88563094466055
 20
-146.263595883573
 30
0.0
 10
92.87736271549593
 20
-146.1430175415892
 30
0.0
 10
92.87081703407397
 20
-146.0627468167829
 30
0.0
 10
92.94902070158913
 20
-146.0668809313652
 30
0.0
 10
92.98726126147541
 20
-146.0689479886564
 30
0.0
 10
93.11404077533261
 20
-146.0689479886564
 30
0.0
 10
93.11404077533261
 20
-146.0689479886564
 30
0.0
 10
93.21773814943863
 20
-146.0689479886564
 30
0.0
 10
93.21773814943863
 20
-146.0689479886564
 30
0.0
 10
93.21773814943863
 20
-146.0689479886564
 30
0.0
 10
93.21773814943863
 20
-145.9228759400818
 30
0.0
 10
93.21773814943863
 20
-145.9228759400818
 30
0.0
 10
93.21773814943863
 20
-145.9228759400818
 30
0.0
 10
93.13953448192345
 20
-145.9228759400818
 30
0.0
 10
93.13953448192345
 20
-145.9228759400818
 30
0.0
 10
93.08441295415946
 20
-145.9228759400818
 30
0.0
 10
92.91319170854254
 20
-145.9273545642126
 30
0.0
 10
92.82844235960539
 20
-145.933555736086
 30
0.0
 10
92.82844235960539
 20
-145.933555736086
 30
0.0
 10
92.82844235960539
 20
-145.7557888090472
 30
0.0
 10
92.82844235960539
 20
-145.7557888090472
 30
0.0
 10
92.91112465125138
 20
-145.7623344904692
 30
0.0
 10
93.0740776677037
 20
-145.7664686050514
 30
0.0
 10
93.13953448192345
 20
-145.7664686050514
 30
0.0
 10
93.13953448192345
 20
-145.7664686050514
 30
0.0
 10
93.21773814943863
 20
-145.7664686050514
 30
0.0
 10
93.21773814943863
 20
-145.7664686050514
 30
0.0
 10
93.21773814943863
 20
-145.732706669296
 30
0.0
 10
93.21360403485633
 20
-145.5783663915568
 30
0.0
 10
93.21360403485633
 20
-145.546327003544
 30
0.0
 10
93.21360403485633
 20
-145.546327003544
 30
0.0
 10
93.41031898706409
 20
-145.5635524809702
 30
0.0
 10
93.41031898706409
 20
-145.5635524809702
 30
0.0
 10
93.42719995494181
 20
-145.5656195382614
 30
0.0
 10
93.44855954695036
 20
-145.5676865955525
 30
0.0
 10
93.44855954695036
 20
-145.5887016780125
 30
0.0
 10
93.44855954695036
 20
-145.6121283273123
 30
0.0
 10
93.42719995494181
 20
-145.6203965564769
 30
0.0
 10
93.39963919105982
 20
-145.6331434097723
 30
0.0
 10
93.39963919105982
 20
-145.6545030017808
 30
0.0
 10
93.39757213376866
 20
-145.7495876371737
 30
0.0
 10
93.39757213376866
 20
-145.7664686050514
 30
0.0
 10
93.39757213376866
 20
-145.7664686050514
 30
0.0
 10
93.45682777611496
 20
-145.7664686050514
 30
0.0
 10
93.45682777611496
 20
-145.7664686050514
 30
0.0
 10
93.52469615717439
 20
-145.7664686050514
 30
0.0
 10
93.6683566389093
 20
-145.7623344904692
 30
0.0
 10
93.77412107030648
 20
-145.7557888090472
 30
0.0
 10
93.77412107030648
 20
-145.7557888090472
 30
0.0
 10
93.77412107030648
 20
-145.933555736086
 30
0.0
 10
93.77412107030648
 20
-145.933555736086
 30
0.0
 10
93.67696937762243
 20
-145.9273545642126
 30
0.0
 10
93.52021753304356
 20
-145.9228759400818
 30
0.0
 10
93.45682777611496
 20
-145.9228759400818
 30
0.0
 10
93.45682777611496
 20
-145.9228759400818
 30
0.0
 10
93.38930390460406
 20
-145.9228759400818
 30
0.0
 10
93.38930390460406
 20
-145.9228759400818
 30
0.0
 10
93.38930390460406
 20
-145.9228759400818
 30
0.0
 10
93.38930390460406
 20
-146.0689479886564
 30
0.0
 10
93.38930390460406
 20
-146.0689479886564
 30
0.0
 10
93.38930390460406
 20
-146.0689479886564
 30
0.0
 10
93.45889483340612
 20
-146.0689479886564
 30
0.0
 10
93.45889483340612
 20
-146.0689479886564
 30
0.0
 10
93.609100996563
 20
-146.0689479886564
 30
0.0
 10
93.68110349220473
 20
-146.0648138740741
 30
0.0
 10
93.74242619184217
 20
-146.0627468167829
 30
0.0
 10
93.73415796267757
 20
-146.1578314521758
 30
0.0
 10
93.7317463958379
 20
-146.236035119691
 30
0.0
 10
93.72967933854675
 20
-146.2742756795773
 30
0.0
 10
93.88436412583447
 20
-146.0627468167829
 30
0.0
 10
93.99012855723164
 20
-145.8150444513935
 30
0.0
 10
94.00700952510937
 20
-145.552872684966
 30
0.0
 10
94.00700952510937
 20
-145.552872684966
 30
0.0
 10
94.222672502486
 20
-145.6035155885991
 30
0.0
 10
94.222672502486
 20
-145.6035155885991
 30
0.0
 10
94.23748641307257
 20
-145.6079942127299
 30
0.0
 10
94.25230032365916
 20
-145.6141953846034
 30
0.0
 10
94.25230032365916
 20
-145.6310763524811
 30
0.0
 10
94.25230032365916
 20
-145.6479573203588
 30
0.0
 10
94.24816620907686
 20
-145.65002437765
 30
0.0
 10
94.19717879589516
 20
-145.6713839696586
 30
0.0
 10
94.18029782801743
 20
-145.7475205798826
 30
0.0
 10
94.1551486309751
 20
-145.8384711006932
 30
0.0
 10
94.10622827508456
 20
-145.9652506145504
 30
0.0
 10
94.10622827508456
 20
-145.9652506145504
 30
0.0
 10
94.44488116128461
 20
-145.9652506145504
 30
0.0
 10
94.44488116128461
 20
-145.9652506145504
 30
0.0
 10
94.48277721162236
 20
-145.9652506145504
 30
0.0
 10
94.61196829231923
 20
-145.9611164999681
 30
0.0
 10
94.66054413866125
 20
-145.9549153280946
 30
0.0
 10
94.66054413866125
 20
-145.9549153280946
 30
0.0
 10
94.753561716763
 20
-146.0245062568967
 30
0.0
 10
94.753561716763
 20
-146.0245062568967
 30
0.0
 10
94.7452934875984
 20
-146.0458658489052
 30
0.0
 10
94.73874780617643
 20
-146.0648138740741
 30
0.0
 10
94.72393389558985
 20
-146.1006428671207
 30
0.0
  0
POLYLINE
  5
B1
330
AC
100
AcDbEntity
  8
_U+30EC_U+30A4_U+30E4_U+30FC 1
370
     0
100
AcDb2dPolyline
 66
     1
 10
0.0
 20
0.0
 30
0.0
  0
VERTEX
  5
B2
330
B1
100
AcDbEntity
  8
_U+30EC_U+30A4_U+30E4_U+30FC 1
370
     0
100
AcDbVertex
100
AcDb2dVertex
 10
93.21773814943863
 20
-146.2256998332352
 30
0.0
  0
VERTEX
  5
B3
330
B1
100
AcDbEntity
  8
_U+30EC_U+30A4_U+30E4_U+30FC 1
370
     0
100
AcDbVertex
100
AcDb2dVertex
 10
93.05926375711714
 20
-146.2256998332352
 30
0.0
  0
VERTEX
  5
B4
330
B1
100
AcDbEntity
  8
_U+30EC_U+30A4_U+30E4_U+30FC 1
370
     0
100
AcDbVertex
100
AcDb2dVertex
 10
93.05926375711714
 20
-146.3545464043836
 30
0.0
  0
VERTEX
  5
B5
330
B1
100
AcDbEntity
  8
_U+30EC_U+30A4_U+30E4_U+30FC 1
370
     0
100
AcDbVertex
100
AcDb2dVertex
 10
93.21773814943863
 20
-146.3545464043836
 30
0.0
  0
VERTEX
  5
B6
330
B1
100
AcDbEntity
  8
_U+30EC_U+30A4_U+30E4_U+30FC 1
370
     0
100
AcDbVertex
100
AcDb2dVertex
 10
93.21773814943863
 20
-146.2256998332352
 30
0.0
  0
SEQEND
  5
B7
330
B1
100
AcDbEntity
  8
_U+30EC_U+30A4_U+30E4_U+30FC 1
370
     0
  0
POLYLINE
  5
B8
330
AC
100
AcDbEntity
  8
_U+30EC_U+30A4_U+30E4_U+30FC 1
370
     0
100
AcDb2dPolyline
 66
     1
 10
0.0
 20
0.0
 30
0.0
  0
VERTEX
  5
B9
330
B8
100
AcDbEntity
  8
_U+30EC_U+30A4_U+30E4_U+30FC 1
370
     0
100
AcDbVertex
100
AcDb2dVertex
 10
93.21773814943863
 20
-146.498551395667
 30
0.0
  0
VERTEX
  5
BA
330
B8
100
AcDbEntity
  8
_U+30EC_U+30A4_U+30E4_U+30FC 1
370
     0
100
AcDbVertex
100
AcDb2dVertex
 10
93.05926375711714
 20
-146.498551395667
 30
0.0
  0
VERTEX
  5
BB
330
B8
100
AcDbEntity
  8
_U+30EC_U+30A4_U+30E4_U+30FC 1
370
     0
100
AcDbVertex
100
AcDb2dVertex
 10
93.05926375711714
 20
-146.6273979668154
 30
0.0
  0
VERTEX
  5
BC
330
B8
100
AcDbEntity
  8
_U+30EC_U+30A4_U+30E4_U+30FC 1
370
     0
100
AcDbVertex
100
AcDb2dVertex
 10
93.21773814943863
 20
-146.6273979668154
 30
0.0
  0
VERTEX
  5
BD
330
B8
100
AcDbEntity
  8
_U+30EC_U+30A4_U+30E4_U+30FC 1
370
     0
100
AcDbVertex
100
AcDb2dVertex
 10
93.21773814943863
 20
-146.498551395667
 30
0.0
  0
SEQEND
  5
BE
330
B8
100
AcDbEntity
  8
_U+30EC_U+30A4_U+30E4_U+30FC 1
370
     0
  0
POLYLINE
  5
BF
330
AC
100
AcDbEntity
  8
_U+30EC_U+30A4_U+30E4_U+30FC 1
370
     0
100
AcDb2dPolyline
 66
     1
 10
0.0
 20
0.0
 30
0.0
  0
VERTEX
  5
C0
330
BF
100
AcDbEntity
  8
_U+30EC_U+30A4_U+30E4_U+30FC 1
370
     0
100
AcDbVertex
100
AcDb2dVertex
 10
93.54984535421671
 20
-146.2256998332352
 30
0.0
  0
VERTEX
  5
C1
330
BF
100
AcDbEntity
  8
_U+30EC_U+30A4_U+30E4_U+30FC 1
370
     0
100
AcDbVertex
100
AcDb2dVertex
 10
93.38930390460406
 20
-146.2256998332352
 30
0.0
  0
VERTEX
  5
C2
330
BF
100
AcDbEntity
  8
_U+30EC_U+30A4_U+30E4_U+30FC 1
370
     0
100
AcDbVertex
100
AcDb2dVertex
 10
93.38930390460406
 20
-146.3545464043836
 30
0.0
  0
VERTEX
  5
C3
330
BF
100
AcDbEntity
  8
_U+30EC_U+30A4_U+30E4_U+30FC 1
370
     0
100
AcDbVertex
100
AcDb2dVertex
 10
93.54984535421671
 20
-146.3545464043836
 30
0.0
  0
VERTEX
  5
C4
330
BF
100
AcDbEntity
  8
_U+30EC_U+30A4_U+30E4_U+30FC 1
370
     0
100
AcDbVertex
100
AcDb2dVertex
 10
93.54984535421671
 20
-146.2256998332352
 30
0.0
  0
SEQEND
  5
C5
330
BF
100
AcDbEntity
  8
_U+30EC_U+30A4_U+30E4_U+30FC 1
370
     0
  0
POLYLINE
  5
C6
330
AC
100
AcDbEntity
  8
_U+30EC_U+30A4_U+30E4_U+30FC 1
370
     0
100
AcDb2dPolyline
 66
     1
 10
0.0
 20
0.0
 30
0.0
  0
VERTEX
  5
C7
330
C6
100
AcDbEntity
  8
_U+30EC_U+30A4_U+30E4_U+30FC 1
370
     0
100
AcDbVertex
100
AcDb2dVertex
 10
93.54984535421671
 20
-146.498551395667
 30
0.0
  0
VERTEX
  5
C8
330
C6
100
AcDbEntity
  8
_U+30EC_U+30A4_U+30E4_U+30FC 1
370
     0
100
AcDbVertex
100
AcDb2dVertex
 10
93.38930390460406
 20
-146.498551395667
 30
0.0
  0
VERTEX
  5
C9
330
C6
100
AcDbEntity
  8
_U+30EC_U+30A4_U+30E4_U+30FC 1
370
     0
100
AcDbVertex
100
AcDb2dVertex
 10
93.38930390460406
 20
-146.6273979668154
 30
0.0
  0
VERTEX
  5
CA
330
C6
100
AcDbEntity
  8
_U+30EC_U+30A4_U+30E4_U+30FC 1
370
     0
100
AcDbVertex
100
AcDb2dVertex
 10
93.54984535421671
 20
-146.6273979668154
 30
0.0
  0
VERTEX
  5
CB
330
C6
100
AcDbEntity
  8
_U+30EC_U+30A4_U+30E4_U+30FC 1
370
     0
100
AcDbVertex
100
AcDb2dVertex
 10
93.54984535421671
 20
-146.498551395667
 30
0.0
  0
SEQEND
  5
CC
330
C6
100
AcDbEntity
  8
_U+30EC_U+30A4_U+30E4_U+30FC 1
370
     0
  0
SPLINE
  5
CD
330
AC
100
AcDbEntity
  8
_U+30EC_U+30A4_U+30E4_U+30FC 1
370
     0
100
AcDbSpline
210
0.0
220
0.0
230
1.0
 70
    11
 71
     3
 72
    41
 73
    37
 74
     0
 42
0.0000000001
 43
0.0000000001
 12
1.0
 22
0.0
 32
0.0
 13
1.0
 23
0.0
 33
0.0
 40
0.0
 40
0.0
 40
0.0
 40
0.0
 40
1.0
 40
1.0
 40
1.0
 40
2.0
 40
2.0
 40
2.0
 40
3.0
 40
3.0
 40
3.0
 40
4.0
 40
4.0
 40
4.0
 40
5.0
 40
5.0
 40
5.0
 40
6.0
 40
6.0
 40
6.0
 40
7.0
 40
7.0
 40
7.0
 40
8.0
 40
8.0
 40
8.0
 40
9.0
 40
9.0
 40
9.0
 40
10.0
 40
10.0
 40
10.0
 40
11.0
 40
11.0
 40
11.0
 40
12.0
 40
12.0
 40
12.0
 40
12.0
 10
94.63952905620123
 20
-147.456632450115
 30
0.0
 10
94.39837237223375
 20
-147.3212401975447
 30
0.0
 10
94.22060544519485
 20
-147.0253064953617
 30
0.0
 10
94.18029782801743
 20
-146.8961154146649
 30
0.0
 10
94.05971948603369
 20
-147.1606987479321
 30
0.0
 10
93.89676646958137
 20
-147.3384656749709
 30
0.0
 10
93.71486542796018
 20
-147.4524983355327
 30
0.0
 10
93.71486542796018
 20
-147.4524983355327
 30
0.0
 10
93.5181504757524
 20
-147.3150390256712
 30
0.0
 10
93.5181504757524
 20
-147.3150390256712
 30
0.0
 10
93.58808591410298
 20
-147.2895453190804
 30
0.0
 10
93.73415796267757
 20
-147.228222619443
 30
0.0
 10
93.85680336195247
 20
-147.0738823417038
 30
0.0
 10
93.98151581851852
 20
-146.9174750066734
 30
0.0
 10
94.07039928203795
 20
-146.6845865518705
 30
0.0
 10
94.07039928203795
 20
-146.4244818427342
 30
0.0
 10
94.07039928203795
 20
-146.3228515259193
 30
0.0
 10
94.05765242874253
 20
-146.2508490302776
 30
0.0
 10
94.04697263273826
 20
-146.2043402412267
 30
0.0
 10
94.04697263273826
 20
-146.2043402412267
 30
0.0
 10
94.25230032365916
 20
-146.2256998332352
 30
0.0
 10
94.25230032365916
 20
-146.2256998332352
 30
0.0
 10
94.27331540611918
 20
-146.2277668905264
 30
0.0
 10
94.29467499812772
 20
-146.2298339478176
 30
0.0
 10
94.29467499812772
 20
-146.2508490302776
 30
0.0
 10
94.29467499812772
 20
-146.270141564995
 30
0.0
 10
94.28399520212345
 20
-146.2784097941596
 30
0.0
 10
94.250233266368
 20
-146.2994248766196
 30
0.0
 10
94.24162052765487
 20
-146.5006184529582
 30
0.0
 10
94.29880911271002
 20
-146.7438421942168
 30
0.0
 10
94.36013181234748
 20
-146.8644205362006
 30
0.0
 10
94.45108233315807
 20
-147.0401204059483
 30
0.0
 10
94.64573022807468
 20
-147.2199543902784
 30
0.0
 10
94.781122480645
 20
-147.276798465785
 30
0.0
 10
94.781122480645
 20
-147.276798465785
 30
0.0
 10
94.63952905620123
 20
-147.456632450115
 30
0.0
 10
94.63952905620123
 20
-147.456632450115
 30
0.0
  0
HATCH
  5
CE
330
AC
100
AcDbEntity
  8
_U+30EC_U+30A4_U+30E4_U+30FC 1
 62
   179
420
  2234388
100
AcDbHatch
 10
0.0
 20
0.0
 30
0.0
210
0.0
220
0.0
230
1.0
  2
SOLID
 70
     1
 71
     0
 91
        6
 92
        1
 93
        1
 72
     4
 94
        3
 73
     0
 74
     1
 95
      197
 96
      193
 40
0.0
 40
0.0
 40
0.0
 40
0.0
 40
1.0
 40
1.0
 40
1.0
 40
2.0
 40
2.0
 40
2.0
 40
3.0
 40
3.0
 40
3.0
 40
4.0
 40
4.0
 40
4.0
 40
5.0
 40
5.0
 40
5.0
 40
6.0
 40
6.0
 40
6.0
 40
7.0
 40
7.0
 40
7.0
 40
8.0
 40
8.0
 40
8.0
 40
9.0
 40
9.0
 40
9.0
 40
10.0
 40
10.0
 40
10.0
 40
11.0
 40
11.0
 40
11.0
 40
12.0
 40
12.0
 40
12.0
 40
13.0
 40
13.0
 40
13.0
 40
14.0
 40
14.0
 40
14.0
 40
15.0
 40
15.0
 40
15.0
 40
16.0
 40
16.0
 40
16.0
 40
17.0
 40
17.0
 40
17.0
 40
18.0
 40
18.0
 40
18.0
 40
19.0
 40
19.0
 40
19.0
 40
20.0
 40
20.0
 40
20.0
 40
21.0
 40
21.0
 40
21.0
 40
22.0
 40
22.0
 40
22.0
 40
23.0
 40
23.0
 40
23.0
 40
24.0
 40
24.0
 40
24.0
 40
25.0
 40
25.0
 40
25.0
 40
26.0
 40
26.0
 40
26.0
 40
27.0
 40
27.0
 40
27.0
 40
28.0
 40
28.0
 40
28.0
 40
29.0
 40
29.0
 40
29.0
 40
30.0
 40
30.0
 40
30.0
 40
31.0
 40
31.0
 40
31.0
 40
32.0
 40
32.0
 40
32.0
 40
33.0
 40
33.0
 40
33.0
 40
34.0
 40
34.0
 40
34.0
 40
35.0
 40
35.0
 40
35.0
 40
36.0
 40
36.0
 40
36.0
 40
37.0
 40
37.0
 40
37.0
 40
38.0
 40
38.0
 40
38.0
 40
39.0
 40
39.0
 40
39.0
 40
40.0
 40
40.0
 40
40.0
 40
41.0
 40
41.0
 40
41.0
 40
42.0
 40
42.0
 40
42.0
 40
43.0
 40
43.0
 40
43.0
 40
44.0
 40
44.0
 40
44.0
 40
45.0
 40
45.0
 40
45.0
 40
46.0
 40
46.0
 40
46.0
 40
47.0
 40
47.0
 40
47.0
 40
48.0
 40
48.0
 40
48.0
 40
49.0
 40
49.0
 40
49.0
 40
50.0
 40
50.0
 40
50.0
 40
51.0
 40
51.0
 40
51.0
 40
52.0
 40
52.0
 40
52.0
 40
53.0
 40
53.0
 40
53.0
 40
54.0
 40
54.0
 40
54.0
 40
55.0
 40
55.0
 40
55.0
 40
56.0
 40
56.0
 40
56.0
 40
57.0
 40
57.0
 40
57.0
 40
58.0
 40
58.0
 40
58.0
 40
59.0
 40
59.0
 40
59.0
 40
60.0
 40
60.0
 40
60.0
 40
61.0
 40
61.0
 40
61.0
 40
62.0
 40
62.0
 40
62.0
 40
63.0
 40
63.0
 40
63.0
 40
64.0
 40
64.0
 40
64.0
 40
64.0
 10
94.72393389558985
 20
-146.1006428671207
 10
94.71359860913411
 20
-146.1302706882938
 10
94.6901719598344
 20
-146.1767794773447
 10
94.67949216383013
 20
-146.2043402412267
 10
94.67949216383013
 20
-146.2043402412267
 10
94.61816946419269
 20
-146.3566134616748
 10
94.61816946419269
 20
-146.3566134616748
 10
94.60783417773693
 20
-146.3821071682656
 10
94.55891382184639
 20
-146.4940727715362
 10
94.54651147809949
 20
-146.5174994208359
 10
94.5440999112598
 20
-146.5237005927094
 10
94.5399657966775
 20
-146.5323133314225
 10
94.53789873938636
 20
-146.5385145032959
 10
94.53789873938636
 20
-146.5385145032959
 10
94.32843693388317
 20
-146.4858045423716
 10
94.32843693388317
 20
-146.4858045423716
 10
94.40664060139835
 20
-146.3759059963921
 10
94.4679633010358
 20
-146.2405137438218
 10
94.50000268904861
 20
-146.1302706882938
 10
94.50000268904861
 20
-146.1302706882938
 10
94.03457028899136
 20
-146.1302706882938
 10
94.03457028899136
 20
-146.1302706882938
 10
93.95395505463651
 20
-146.2952907620373
 10
93.88643118312562
 20
-146.3734944295525
 10
93.85232473782165
 20
-146.4138020467299
 10
93.85232473782165
 20
-146.4138020467299
 10
93.72967933854675
 20
-146.3483452325102
 10
93.72967933854675
 20
-146.3483452325102
 10
93.72967933854675
 20
-146.3483452325102
 10
93.72967933854675
 20
-146.519566478127
 10
93.72967933854675
 20
-146.519566478127
 10
93.72967933854675
 20
-146.6273979668154
 10
93.7317463958379
 20
-146.6763183227059
 10
93.74242619184217
 20
-146.7820827541031
 10
93.67042369620046
 20
-146.7796711872634
 10
93.64940861374043
 20
-146.7796711872634
 10
93.44408092281954
 20
-146.7796711872634
 10
93.44408092281954
 20
-146.7796711872634
 10
93.38930390460406
 20
-146.7796711872634
 10
93.38930390460406
 20
-146.7796711872634
 10
93.38930390460406
 20
-146.7796711872634
 10
93.38930390460406
 20
-146.9150634398337
 10
93.38930390460406
 20
-146.9150634398337
 10
93.38930390460406
 20
-146.9150634398337
 10
93.46096189069726
 20
-146.9150634398337
 10
93.46096189069726
 20
-146.9150634398337
 10
93.52676321446553
 20
-146.9150634398337
 10
93.67283526304013
 20
-146.9109293252514
 10
93.7785996944373
 20
-146.9026610960868
 10
93.7785996944373
 20
-146.9026610960868
 10
93.7785996944373
 20
-147.0800835135772
 10
93.7785996944373
 20
-147.0800835135772
 10
93.68110349220473
 20
-147.0738823417038
 10
93.52262909988323
 20
-147.0697482271215
 10
93.46096189069726
 20
-147.0697482271215
 10
93.46096189069726
 20
-147.0697482271215
 10
93.38930390460406
 20
-147.0697482271215
 10
93.38930390460406
 20
-147.0697482271215
 10
93.39137096189522
 20
-147.1586316906409
 10
93.39550507647752
 20
-147.3973768077687
 10
93.39757213376866
 20
-147.4714463607016
 10
93.39757213376866
 20
-147.4714463607016
 10
93.1967230669786
 20
-147.4714463607016
 10
93.1967230669786
 20
-147.4714463607016
 10
93.20946992027403
 20
-147.2578504406161
 10
93.20946992027403
 20
-147.228222619443
 10
93.21360403485633
 20
-147.0697482271215
 10
93.21360403485633
 20
-147.0697482271215
 10
93.14366859650575
 20
-147.0697482271215
 10
93.14366859650575
 20
-147.0697482271215
 10
93.08682452099913
 20
-147.0697482271215
 10
92.93420679100257
 20
-147.0738823417038
 10
92.82430824502309
 20
-147.0800835135772
 10
92.82430824502309
 20
-147.0800835135772
 10
92.82430824502309
 20
-146.9026610960868
 10
92.82430824502309
 20
-146.9026610960868
 10
92.93007267642027
 20
-146.9109293252514
 10
93.0740776677037
 20
-146.9150634398337
 10
93.14366859650575
 20
-146.9150634398337
 10
93.14366859650575
 20
-146.9150634398337
 10
93.21773814943863
 20
-146.9150634398337
 10
93.21773814943863
 20
-146.9150634398337
 10
93.21773814943863
 20
-146.9150634398337
 10
93.21773814943863
 20
-146.7796711872634
 10
93.21773814943863
 20
-146.7796711872634
 10
93.21773814943863
 20
-146.7796711872634
 10
93.1732964176789
 20
-146.7796711872634
 10
93.1732964176789
 20
-146.7796711872634
 10
93.09715980745489
 20
-146.7796711872634
 10
92.90457896982942
 20
-146.7820827541031
 10
92.87081703407397
 20
-146.7820827541031
 10
92.87736271549593
 20
-146.7100802584614
 10
92.88563094466055
 20
-146.6294650241065
 10
92.88563094466055
 20
-146.5088866821228
 10
92.88563094466055
 20
-146.5088866821228
 10
92.88563094466055
 20
-146.3355983792147
 10
92.88563094466055
 20
-146.3355983792147
 10
92.88563094466055
 20
-146.263595883573
 10
92.87736271549593
 20
-146.1430175415892
 10
92.87081703407397
 20
-146.0627468167829
 10
92.94902070158913
 20
-146.0668809313652
 10
92.98726126147541
 20
-146.0689479886564
 10
93.11404077533261
 20
-146.0689479886564
 10
93.11404077533261
 20
-146.0689479886564
 10
93.21773814943863
 20
-146.0689479886564
 10
93.21773814943863
 20
-146.0689479886564
 10
93.21773814943863
 20
-146.0689479886564
 10
93.21773814943863
 20
-145.9228759400818
 10
93.21773814943863
 20
-145.9228759400818
 10
93.21773814943863
 20
-145.9228759400818
 10
93.13953448192345
 20
-145.9228759400818
 10
93.13953448192345
 20
-145.9228759400818
 10
93.08441295415946
 20
-145.9228759400818
 10
92.91319170854254
 20
-145.9273545642126
 10
92.82844235960539
 20
-145.933555736086
 10
92.82844235960539
 20
-145.933555736086
 10
92.82844235960539
 20
-145.7557888090472
 10
92.82844235960539
 20
-145.7557888090472
 10
92.91112465125138
 20
-145.7623344904692
 10
93.0740776677037
 20
-145.7664686050514
 10
93.13953448192345
 20
-145.7664686050514
 10
93.13953448192345
 20
-145.7664686050514
 10
93.21773814943863
 20
-145.7664686050514
 10
93.21773814943863
 20
-145.7664686050514
 10
93.21773814943863
 20
-145.732706669296
 10
93.21360403485633
 20
-145.5783663915568
 10
93.21360403485633
 20
-145.546327003544
 10
93.21360403485633
 20
-145.546327003544
 10
93.41031898706409
 20
-145.5635524809702
 10
93.41031898706409
 20
-145.5635524809702
 10
93.42719995494181
 20
-145.5656195382614
 10
93.44855954695036
 20
-145.5676865955525
 10
93.44855954695036
 20
-145.5887016780125
 10
93.44855954695036
 20
-145.6121283273123
 10
93.42719995494181
 20
-145.6203965564769
 10
93.39963919105982
 20
-145.6331434097723
 10
93.39963919105982
 20
-145.6545030017808
 10
93.39757213376866
 20
-145.7495876371737
 10
93.39757213376866
 20
-145.7664686050514
 10
93.39757213376866
 20
-145.7664686050514
 10
93.45682777611496
 20
-145.7664686050514
 10
93.45682777611496
 20
-145.7664686050514
 10
93.52469615717439
 20
-145.7664686050514
 10
93.6683566389093
 20
-145.7623344904692
 10
93.77412107030648
 20
-145.7557888090472
 10
93.77412107030648
 20
-145.7557888090472
 10
93.77412107030648
 20
-145.933555736086
 10
93.77412107030648
 20
-145.933555736086
 10
93.67696937762243
 20
-145.9273545642126
 10
93.52021753304356
 20
-145.9228759400818
 10
93.45682777611496
 20
-145.9228759400818
 10
93.45682777611496
 20
-145.9228759400818
 10
93.38930390460406
 20
-145.9228759400818
 10
93.38930390460406
 20
-145.9228759400818
 10
93.38930390460406
 20
-145.9228759400818
 10
93.38930390460406
 20
-146.0689479886564
 10
93.38930390460406
 20
-146.0689479886564
 10
93.38930390460406
 20
-146.0689479886564
 10
93.45889483340612
 20
-146.0689479886564
 10
93.45889483340612
 20
-146.0689479886564
 10
93.609100996563
 20
-146.0689479886564
 10
93.68110349220473
 20
-146.0648138740741
 10
93.74242619184217
 20
-146.0627468167829
 10
93.73415796267757
 20
-146.1578314521758
 10
93.7317463958379
 20
-146.236035119691
 10
93.72967933854675
 20
-146.2742756795773
 10
93.88436412583447
 20
-146.0627468167829
 10
93.99012855723164
 20
-145.8150444513935
 10
94.00700952510937
 20
-145.552872684966
 10
94.00700952510937
 20
-145.552872684966
 10
94.222672502486
 20
-145.6035155885991
 10
94.222672502486
 20
-145.6035155885991
 10
94.23748641307257
 20
-145.6079942127299
 10
94.25230032365916
 20
-145.6141953846034
 10
94.25230032365916
 20
-145.6310763524811
 10
94.25230032365916
 20
-145.6479573203588
 10
94.24816620907686
 20
-145.65002437765
 10
94.19717879589516
 20
-145.6713839696586
 10
94.18029782801743
 20
-145.7475205798826
 10
94.1551486309751
 20
-145.8384711006932
 10
94.10622827508456
 20
-145.9652506145504
 10
94.10622827508456
 20
-145.9652506145504
 10
94.44488116128461
 20
-145.9652506145504
 10
94.44488116128461
 20
-145.9652506145504
 10
94.48277721162236
 20
-145.9652506145504
 10
94.61196829231923
 20
-145.9611164999681
 10
94.66054413866125
 20
-145.9549153280946
 10
94.66054413866125
 20
-145.9549153280946
 10
94.753561716763
 20
-146.0245062568967
 10
94.753561716763
 20
-146.0245062568967
 10
94.7452934875984
 20
-146.0458658489052
 10
94.73874780617643
 20
-146.0648138740741
 10
94.72393389558985
 20
-146.1006428671207
 97
        0
 97
        0
 92
        1
 93
        4
 72
     1
 10
93.21773814943863
 20
-146.2256998332352
 11
93.05926375711714
 21
-146.2256998332352
 72
     1
 10
93.05926375711714
 20
-146.2256998332352
 11
93.05926375711714
 21
-146.3545464043836
 72
     1
 10
93.05926375711714
 20
-146.3545464043836
 11
93.21773814943863
 21
-146.3545464043836
 72
     1
 10
93.21773814943863
 20
-146.3545464043836
 11
93.21773814943863
 21
-146.2256998332352
 97
        0
 92
        1
 93
        4
 72
     1
 10
93.21773814943863
 20
-146.498551395667
 11
93.05926375711714
 21
-146.498551395667
 72
     1
 10
93.05926375711714
 20
-146.498551395667
 11
93.05926375711714
 21
-146.6273979668154
 72
     1
 10
93.05926375711714
 20
-146.6273979668154
 11
93.21773814943863
 21
-146.6273979668154
 72
     1
 10
93.21773814943863
 20
-146.6273979668154
 11
93.21773814943863
 21
-146.498551395667
 97
        0
 92
        1
 93
        4
 72
     1
 10
93.54984535421671
 20
-146.2256998332352
 11
93.38930390460406
 21
-146.2256998332352
 72
     1
 10
93.38930390460406
 20
-146.2256998332352
 11
93.38930390460406
 21
-146.3545464043836
 72
     1
 10
93.38930390460406
 20
-146.3545464043836
 11
93.54984535421671
 21
-146.3545464043836
 72
     1
 10
93.54984535421671
 20
-146.3545464043836
 11
93.54984535421671
 21
-146.2256998332352
 97
        0
 92
        1
 93
        4
 72
     1
 10
93.54984535421671
 20
-146.498551395667
 11
93.38930390460406
 21
-146.498551395667
 72
     1
 10
93.38930390460406
 20
-146.498551395667
 11
93.38930390460406
 21
-146.6273979668154
 72
     1
 10
93.38930390460406
 20
-146.6273979668154
 11
93.54984535421671
 21
-146.6273979668154
 72
     1
 10
93.54984535421671
 20
-146.6273979668154
 11
93.54984535421671
 21
-146.498551395667
 97
        0
 92
        1
 93
        1
 72
     4
 94
        3
 73
     0
 74
     1
 95
       41
 96
       37
 40
0.0
 40
0.0
 40
0.0
 40
0.0
 40
1.0
 40
1.0
 40
1.0
 40
2.0
 40
2.0
 40
2.0
 40
3.0
 40
3.0
 40
3.0
 40
4.0
 40
4.0
 40
4.0
 40
5.0
 40
5.0
 40
5.0
 40
6.0
 40
6.0
 40
6.0
 40
7.0
 40
7.0
 40
7.0
 40
8.0
 40
8.0
 40
8.0
 40
9.0
 40
9.0
 40
9.0
 40
10.0
 40
10.0
 40
10.0
 40
11.0
 40
11.0
 40
11.0
 40
12.0
 40
12.0
 40
12.0
 40
12.0
 10
94.63952905620123
 20
-147.456632450115
 10
94.39837237223375
 20
-147.3212401975447
 10
94.22060544519485
 20
-147.0253064953617
 10
94.18029782801743
 20
-146.8961154146649
 10
94.05971948603369
 20
-147.1606987479321
 10
93.89676646958137
 20
-147.3384656749709
 10
93.71486542796018
 20
-147.4524983355327
 10
93.71486542796018
 20
-147.4524983355327
 10
93.5181504757524
 20
-147.3150390256712
 10
93.5181504757524
 20
-147.3150390256712
 10
93.58808591410298
 20
-147.2895453190804
 10
93.73415796267757
 20
-147.228222619443
 10
93.85680336195247
 20
-147.0738823417038
 10
93.98151581851852
 20
-146.9174750066734
 10
94.07039928203795
 20
-146.6845865518705
 10
94.07039928203795
 20
-146.4244818427342
 10
94.07039928203795
 20
-146.3228515259193
 10
94.05765242874253
 20
-146.2508490302776
 10
94.04697263273826
 20
-146.2043402412267
 10
94.04697263273826
 20
-146.2043402412267
 10
94.25230032365916
 20
-146.2256998332352
 10
94.25230032365916
 20
-146.2256998332352
 10
94.27331540611918
 20
-146.2277668905264
 10
94.29467499812772
 20
-146.2298339478176
 10
94.29467499812772
 20
-146.2508490302776
 10
94.29467499812772
 20
-146.270141564995
 10
94.28399520212345
 20
-146.2784097941596
 10
94.250233266368
 20
-146.2994248766196
 10
94.24162052765487
 20
-146.5006184529582
 10
94.29880911271002
 20
-146.7438421942168
 10
94.36013181234748
 20
-146.8644205362006
 10
94.45108233315807
 20
-147.0401204059483
 10
94.64573022807468
 20
-147.2199543902784
 10
94.781122480645
 20
-147.276798465785
 10
94.781122480645
 20
-147.276798465785
 10
94.63952905620123
 20
-147.456632450115
 10
94.63952905620123
 20
-147.456632450115
 97
        0
 97
        0
 75
     2
 76
     1
 98
        0
  0
SPLINE
  5
CF
330
AC
100
AcDbEntity
  8
_U+30EC_U+30A4_U+30E4_U+30FC 1
370
     0
100
AcDbSpline
210
0.0
220
0.0
230
1.0
 70
    11
 71
     3
 72
    71
 73
    67
 74
     0
 42
0.0000000001
 43
0.0000000001
 12
1.0
 22
0.0
 32
0.0
 13
1.0
 23
0.0
 33
0.0
 40
0.0
 40
0.0
 40
0.0
 40
0.0
 40
1.0
 40
1.0
 40
1.0
 40
2.0
 40
2.0
 40
2.0
 40
3.0
 40
3.0
 40
3.0
 40
4.0
 40
4.0
 40
4.0
 40
5.0
 40
5.0
 40
5.0
 40
6.0
 40
6.0
 40
6.0
 40
7.0
 40
7.0
 40
7.0
 40
8.0
 40
8.0
 40
8.0
 40
9.0
 40
9.0
 40
9.0
 40
10.0
 40
10.0
 40
10.0
 40
11.0
 40
11.0
 40
11.0
 40
12.0
 40
12.0
 40
12.0
 40
13.0
 40
13.0
 40
13.0
 40
14.0
 40
14.0
 40
14.0
 40
15.0
 40
15.0
 40
15.0
 40
16.0
 40
16.0
 40
16.0
 40
17.0
 40
17.0
 40
17.0
 40
18.0
 40
18.0
 40
18.0
 40
19.0
 40
19.0
 40
19.0
 40
20.0
 40
20.0
 40
20.0
 40
21.0
 40
21.0
 40
21.0
 40
22.0
 40
22.0
 40
22.0
 40
22.0
 10
95.83359915138882
 20
-145.7240939305829
 30
0.0
 10
95.81912975035078
 20
-145.7240939305829
 30
0.0
 10
95.80638289705536
 20
-145.7199598160006
 30
0.0
 10
95.7808891904645
 20
-145.7113470772875
 30
0.0
 10
95.63929576602074
 20
-145.7578558663383
 30
0.0
 10
95.46566295356415
 20
-145.7750813437646
 30
0.0
 10
95.32613658641152
 20
-145.7792154583469
 30
0.0
 10
95.32613658641152
 20
-145.7792154583469
 30
0.0
 10
95.32406952912038
 20
-145.8680989218663
 30
0.0
 10
95.32406952912038
 20
-145.8680989218663
 30
0.0
 10
95.32406952912038
 20
-145.8680989218663
 30
0.0
 10
95.58417423825674
 20
-145.8680989218663
 30
0.0
 10
95.58417423825674
 20
-145.8680989218663
 30
0.0
 10
95.63688419918105
 20
-145.8680989218663
 30
0.0
 10
95.81912975035078
 20
-145.8594861831532
 30
0.0
 10
95.86322697256198
 20
-145.8532850112798
 30
0.0
 10
95.86322697256198
 20
-145.8532850112798
 30
0.0
 10
95.86322697256198
 20
-146.0141709704409
 30
0.0
 10
95.86322697256198
 20
-146.0141709704409
 30
0.0
 10
95.8084499543465
 20
-146.0076252890189
 30
0.0
 10
95.68339298823193
 20
-146.0055582317278
 30
0.0
 10
95.64549693789418
 20
-146.0076252890189
 30
0.0
 10
95.64549693789418
 20
-146.0076252890189
 30
0.0
 10
95.64549693789418
 20
-146.1175238349984
 30
0.0
 10
95.64549693789418
 20
-146.1175238349984
 30
0.0
 10
95.64549693789418
 20
-146.1643771335978
 30
0.0
 10
95.64756399518534
 20
-146.2277668905264
 30
0.0
 10
95.6541096766073
 20
-146.2656629408642
 30
0.0
 10
95.6541096766073
 20
-146.2656629408642
 30
0.0
 10
95.46152883898185
 20
-146.2656629408642
 30
0.0
 10
95.46152883898185
 20
-146.2656629408642
 30
0.0
 10
95.46773001085529
 20
-146.2256998332352
 30
0.0
 10
95.47427569227727
 20
-146.1430175415892
 30
0.0
 10
95.47427569227727
 20
-146.1282036310027
 30
0.0
 10
95.47427569227727
 20
-146.1282036310027
 30
0.0
 10
95.47427569227727
 20
-146.0076252890189
 30
0.0
 10
95.47427569227727
 20
-146.0076252890189
 30
0.0
 10
95.47427569227727
 20
-146.0076252890189
 30
0.0
 10
95.3092556185338
 20
-146.0076252890189
 30
0.0
 10
95.3092556185338
 20
-146.0076252890189
 30
0.0
 10
95.26688094406524
 20
-146.2277668905264
 30
0.0
 10
95.21175941630123
 20
-146.3080376153327
 30
0.0
 10
95.10599498490406
 20
-146.4076008748564
 30
0.0
 10
95.10599498490406
 20
-146.4076008748564
 30
0.0
 10
94.93890785386944
 20
-146.2932237047461
 30
0.0
 10
94.93890785386944
 20
-146.2932237047461
 30
0.0
 10
95.00229761079804
 20
-146.2446478584041
 30
0.0
 10
95.15250377395493
 20
-146.132337745585
 30
0.0
 10
95.15250377395493
 20
-145.7833495729292
 30
0.0
 10
95.15250377395493
 20
-145.7010117908317
 30
0.0
 10
95.14423554479033
 20
-145.6545030017808
 30
0.0
 10
95.13562280607721
 20
-145.6055826458903
 30
0.0
 10
95.2816948546518
 20
-145.6203965564769
 30
0.0
 10
95.29650876523837
 20
-145.6203965564769
 30
0.0
 10
95.33233775828498
 20
-145.6203965564769
 30
0.0
 10
95.4401692469733
 20
-145.6203965564769
 30
0.0
 10
95.5821071809656
 20
-145.6035155885991
 30
0.0
 10
95.74264863057823
 20
-145.5421928889617
 30
0.0
 10
95.74264863057823
 20
-145.5421928889617
 30
0.0
 10
95.85702580068853
 20
-145.6734510269497
 30
0.0
 10
95.85702580068853
 20
-145.6734510269497
 30
0.0
 10
95.86322697256198
 20
-145.6796521988232
 30
0.0
 10
95.8677055966928
 20
-145.6882649375363
 30
0.0
 10
95.8677055966928
 20
-145.6965331667009
 30
0.0
 10
95.8677055966928
 20
-145.7199598160006
 30
0.0
 10
95.8484130619754
 20
-145.7240939305829
 30
0.0
 10
95.83359915138882
 20
-145.7240939305829
 30
0.0
  0
SPLINE
  5
D0
330
AC
100
AcDbEntity
  8
_U+30EC_U+30A4_U+30E4_U+30FC 1
370
     0
100
AcDbSpline
210
0.0
220
0.0
230
1.0
 70
    11
 71
     3
 72
    74
 73
    70
 74
     0
 42
0.0000000001
 43
0.0000000001
 12
1.0
 22
0.0
 32
0.0
 13
1.0
 23
0.0
 33
0.0
 40
0.0
 40
0.0
 40
0.0
 40
0.0
 40
1.0
 40
1.0
 40
1.0
 40
2.0
 40
2.0
 40
2.0
 40
3.0
 40
3.0
 40
3.0
 40
4.0
 40
4.0
 40
4.0
 40
5.0
 40
5.0
 40
5.0
 40
6.0
 40
6.0
 40
6.0
 40
7.0
 40
7.0
 40
7.0
 40
8.0
 40
8.0
 40
8.0
 40
9.0
 40
9.0
 40
9.0
 40
10.0
 40
10.0
 40
10.0
 40
11.0
 40
11.0
 40
11.0
 40
12.0
 40
12.0
 40
12.0
 40
13.0
 40
13.0
 40
13.0
 40
14.0
 40
14.0
 40
14.0
 40
15.0
 40
15.0
 40
15.0
 40
16.0
 40
16.0
 40
16.0
 40
17.0
 40
17.0
 40
17.0
 40
18.0
 40
18.0
 40
18.0
 40
19.0
 40
19.0
 40
19.0
 40
20.0
 40
20.0
 40
20.0
 40
21.0
 40
21.0
 40
21.0
 40
22.0
 40
22.0
 40
22.0
 40
23.0
 40
23.0
 40
23.0
 40
23.0
 10
96.6714463734016
 20
-147.490738895419
 30
0.0
 10
96.4578504533161
 20
-147.4800590994147
 30
0.0
 10
96.25700138652603
 20
-147.3932426931864
 30
0.0
 10
96.0813015167783
 20
-147.2726643512027
 30
0.0
 10
96.0813015167783
 20
-147.2726643512027
 30
0.0
 10
96.17845320946233
 20
-147.1858479449744
 30
0.0
 10
96.17845320946233
 20
-147.1858479449744
 30
0.0
 10
96.17845320946233
 20
-147.1858479449744
 30
0.0
 10
95.62654891272531
 20
-147.1858479449744
 30
0.0
 10
95.62654891272531
 20
-147.1858479449744
 30
0.0
 10
95.62654891272531
 20
-147.1858479449744
 30
0.0
 10
95.70681963753164
 20
-147.2495822114515
 30
0.0
 10
95.70681963753164
 20
-147.2495822114515
 30
0.0
 10
95.71302080940508
 20
-147.2537163260338
 30
0.0
 10
95.72370060540936
 20
-147.2643961220381
 30
0.0
 10
95.72370060540936
 20
-147.2792100326247
 30
0.0
 10
95.72370060540936
 20
-147.3191731402536
 30
0.0
 10
95.64963105247648
 20
-147.3129719683801
 30
0.0
 10
95.63481714188991
 20
-147.310904911089
 30
0.0
 10
95.40434025392669
 20
-147.4504312782416
 30
0.0
 10
95.26033526264325
 20
-147.4821261567059
 30
0.0
 10
95.15663788853723
 20
-147.4990071245836
 30
0.0
 10
95.15663788853723
 20
-147.4990071245836
 30
0.0
 10
95.02779131738889
 20
-147.3212401975447
 30
0.0
 10
95.02779131738889
 20
-147.3212401975447
 30
0.0
 10
95.27514917322983
 20
-147.2895453190804
 30
0.0
 10
95.3767794900447
 20
-147.2430365300295
 30
0.0
 10
95.46566295356415
 20
-147.1903265691052
 30
0.0
 10
95.39159340063128
 20
-147.1923936263964
 30
0.0
 10
95.2775607400695
 20
-147.1944606836875
 30
0.0
 10
95.24552135205668
 20
-147.1965277409787
 30
0.0
 10
95.26033526264325
 20
-147.1076442774592
 30
0.0
 10
95.26274682948294
 20
-146.9787977063109
 30
0.0
 10
95.26274682948294
 20
-146.904728153378
 30
0.0
 10
95.26274682948294
 20
-146.904728153378
 30
0.0
 10
95.26274682948294
 20
-146.6043158270642
 30
0.0
 10
95.26274682948294
 20
-146.6043158270642
 30
0.0
 10
95.26274682948294
 20
-146.5047525675405
 30
0.0
 10
95.25620114806095
 20
-146.4055338175653
 30
0.0
 10
95.24552135205668
 20
-146.3080376153327
 30
0.0
 10
95.34715166887155
 20
-146.3142387872062
 30
0.0
 10
95.57762855683477
 20
-146.3207844686281
 30
0.0
 10
95.68580455507161
 20
-146.3207844686281
 30
0.0
 10
95.68580455507161
 20
-146.3207844686281
 30
0.0
 10
96.10886228066029
 20
-146.3207844686281
 30
0.0
 10
96.10886228066029
 20
-146.3207844686281
 30
0.0
 10
96.22737356535288
 20
-146.3207844686281
 30
0.0
 10
96.26940373027293
 20
-146.3207844686281
 30
0.0
 10
96.35208602191892
 20
-146.3166503540458
 30
0.0
 10
96.50022512778467
 20
-146.3101046726239
 30
0.0
 10
96.5171060956624
 20
-146.3101046726239
 30
0.0
 10
96.56361488471326
 20
-146.3080376153327
 30
0.0
 10
96.55500214600015
 20
-146.388308340139
 30
0.0
 10
96.55086803141785
 20
-146.5471272420091
 30
0.0
 10
96.55086803141785
 20
-146.6294650241065
 30
0.0
 10
96.55086803141785
 20
-146.6294650241065
 30
0.0
 10
96.55086803141785
 20
-146.9150634398337
 30
0.0
 10
96.55086803141785
 20
-146.9150634398337
 30
0.0
 10
96.55086803141785
 20
-146.9870659354755
 30
0.0
 10
96.55293508870899
 20
-147.1183240734635
 30
0.0
 10
96.56361488471326
 20
-147.1965277409787
 30
0.0
 10
96.49161238907155
 20
-147.1923936263964
 30
0.0
 10
96.36896698979665
 20
-147.1903265691052
 30
0.0
 10
96.29076332228148
 20
-147.1882595118141
 30
0.0
 10
96.40066186826095
 20
-147.2557833833249
 30
0.0
 10
96.55293508870899
 20
-147.3064262869581
 30
0.0
 10
96.76446395150333
 20
-147.310904911089
 30
0.0
 10
96.76446395150333
 20
-147.310904911089
 30
0.0
 10
96.6714463734016
 20
-147.490738895419
 30
0.0
 10
96.6714463734016
 20
-147.490738895419
 30
0.0
  0
POLYLINE
  5
D1
330
AC
100
AcDbEntity
  8
_U+30EC_U+30A4_U+30E4_U+30FC 1
370
     0
100
AcDb2dPolyline
 66
     1
 10
0.0
 20
0.0
 30
0.0
  0
VERTEX
  5
D2
330
D1
100
AcDbEntity
  8
_U+30EC_U+30A4_U+30E4_U+30FC 1
370
     0
100
AcDbVertex
100
AcDb2dVertex
 10
96.3668999325055
 20
-146.4561767211985
 30
0.0
  0
VERTEX
  5
D3
330
D1
100
AcDbEntity
  8
_U+30EC_U+30A4_U+30E4_U+30FC 1
370
     0
100
AcDbVertex
100
AcDb2dVertex
 10
95.45498315755987
 20
-146.4561767211985
 30
0.0
  0
VERTEX
  5
D4
330
D1
100
AcDbEntity
  8
_U+30EC_U+30A4_U+30E4_U+30FC 1
370
     0
100
AcDbVertex
100
AcDb2dVertex
 10
95.45498315755987
 20
-146.5681423244691
 30
0.0
  0
VERTEX
  5
D5
330
D1
100
AcDbEntity
  8
_U+30EC_U+30A4_U+30E4_U+30FC 1
370
     0
100
AcDbVertex
100
AcDb2dVertex
 10
96.3668999325055
 20
-146.5681423244691
 30
0.0
  0
VERTEX
  5
D6
330
D1
100
AcDbEntity
  8
_U+30EC_U+30A4_U+30E4_U+30FC 1
370
     0
100
AcDbVertex
100
AcDb2dVertex
 10
96.3668999325055
 20
-146.4561767211985
 30
0.0
  0
SEQEND
  5
D7
330
D1
100
AcDbEntity
  8
_U+30EC_U+30A4_U+30E4_U+30FC 1
370
     0
  0
POLYLINE
  5
D8
330
AC
100
AcDbEntity
  8
_U+30EC_U+30A4_U+30E4_U+30FC 1
370
     0
100
AcDb2dPolyline
 66
     1
 10
0.0
 20
0.0
 30
0.0
  0
VERTEX
  5
D9
330
D8
100
AcDbEntity
  8
_U+30EC_U+30A4_U+30E4_U+30FC 1
370
     0
100
AcDbVertex
100
AcDb2dVertex
 10
96.3668999325055
 20
-146.7014675197483
 30
0.0
  0
VERTEX
  5
DA
330
D8
100
AcDbEntity
  8
_U+30EC_U+30A4_U+30E4_U+30FC 1
370
     0
100
AcDbVertex
100
AcDb2dVertex
 10
95.45498315755987
 20
-146.7014675197483
 30
0.0
  0
VERTEX
  5
DB
330
D8
100
AcDbEntity
  8
_U+30EC_U+30A4_U+30E4_U+30FC 1
370
     0
100
AcDbVertex
100
AcDb2dVertex
 10
95.45498315755987
 20
-146.8117105752762
 30
0.0
  0
VERTEX
  5
DC
330
D8
100
AcDbEntity
  8
_U+30EC_U+30A4_U+30E4_U+30FC 1
370
     0
100
AcDbVertex
100
AcDb2dVertex
 10
96.3668999325055
 20
-146.8117105752762
 30
0.0
  0
VERTEX
  5
DD
330
D8
100
AcDbEntity
  8
_U+30EC_U+30A4_U+30E4_U+30FC 1
370
     0
100
AcDbVertex
100
AcDb2dVertex
 10
96.3668999325055
 20
-146.7014675197483
 30
0.0
  0
SEQEND
  5
DE
330
D8
100
AcDbEntity
  8
_U+30EC_U+30A4_U+30E4_U+30FC 1
370
     0
  0
POLYLINE
  5
DF
330
AC
100
AcDbEntity
  8
_U+30EC_U+30A4_U+30E4_U+30FC 1
370
     0
100
AcDb2dPolyline
 66
     1
 10
0.0
 20
0.0
 30
0.0
  0
VERTEX
  5
E0
330
DF
100
AcDbEntity
  8
_U+30EC_U+30A4_U+30E4_U+30FC 1
370
     0
100
AcDbVertex
100
AcDb2dVertex
 10
96.3668999325055
 20
-146.9471028278466
 30
0.0
  0
VERTEX
  5
E1
330
DF
100
AcDbEntity
  8
_U+30EC_U+30A4_U+30E4_U+30FC 1
370
     0
100
AcDbVertex
100
AcDb2dVertex
 10
95.45498315755987
 20
-146.9471028278466
 30
0.0
  0
VERTEX
  5
E2
330
DF
100
AcDbEntity
  8
_U+30EC_U+30A4_U+30E4_U+30FC 1
370
     0
100
AcDbVertex
100
AcDb2dVertex
 10
95.45498315755987
 20
-147.0549343165349
 30
0.0
  0
VERTEX
  5
E3
330
DF
100
AcDbEntity
  8
_U+30EC_U+30A4_U+30E4_U+30FC 1
370
     0
100
AcDbVertex
100
AcDb2dVertex
 10
96.3668999325055
 20
-147.0549343165349
 30
0.0
  0
VERTEX
  5
E4
330
DF
100
AcDbEntity
  8
_U+30EC_U+30A4_U+30E4_U+30FC 1
370
     0
100
AcDbVertex
100
AcDb2dVertex
 10
96.3668999325055
 20
-146.9471028278466
 30
0.0
  0
SEQEND
  5
E5
330
DF
100
AcDbEntity
  8
_U+30EC_U+30A4_U+30E4_U+30FC 1
370
     0
  0
SPLINE
  5
E6
330
AC
100
AcDbEntity
  8
_U+30EC_U+30A4_U+30E4_U+30FC 1
370
     0
100
AcDbSpline
210
0.0
220
0.0
230
1.0
 70
    11
 71
     3
 72
    74
 73
    70
 74
     0
 42
0.0000000001
 43
0.0000000001
 12
1.0
 22
0.0
 32
0.0
 13
1.0
 23
0.0
 33
0.0
 40
0.0
 40
0.0
 40
0.0
 40
0.0
 40
1.0
 40
1.0
 40
1.0
 40
2.0
 40
2.0
 40
2.0
 40
3.0
 40
3.0
 40
3.0
 40
4.0
 40
4.0
 40
4.0
 40
5.0
 40
5.0
 40
5.0
 40
6.0
 40
6.0
 40
6.0
 40
7.0
 40
7.0
 40
7.0
 40
8.0
 40
8.0
 40
8.0
 40
9.0
 40
9.0
 40
9.0
 40
10.0
 40
10.0
 40
10.0
 40
11.0
 40
11.0
 40
11.0
 40
12.0
 40
12.0
 40
12.0
 40
13.0
 40
13.0
 40
13.0
 40
14.0
 40
14.0
 40
14.0
 40
15.0
 40
15.0
 40
15.0
 40
16.0
 40
16.0
 40
16.0
 40
17.0
 40
17.0
 40
17.0
 40
18.0
 40
18.0
 40
18.0
 40
19.0
 40
19.0
 40
19.0
 40
20.0
 40
20.0
 40
20.0
 40
21.0
 40
21.0
 40
21.0
 40
22.0
 40
22.0
 40
22.0
 40
23.0
 40
23.0
 40
23.0
 40
23.0
 10
96.684193226697
 20
-146.0034911744366
 30
0.0
 10
96.684193226697
 20
-146.0034911744366
 30
0.0
 10
96.52330726753584
 20
-146.0034911744366
 30
0.0
 10
96.52330726753584
 20
-146.0034911744366
 30
0.0
 10
96.52330726753584
 20
-146.0034911744366
 30
0.0
 10
96.52330726753584
 20
-146.1175238349984
 30
0.0
 10
96.52330726753584
 20
-146.1175238349984
 30
0.0
 10
96.52330726753584
 20
-146.1578314521758
 30
0.0
 10
96.52985294895782
 20
-146.2319010051087
 30
0.0
 10
96.53398706354012
 20
-146.2573947116995
 30
0.0
 10
96.53398706354012
 20
-146.2573947116995
 30
0.0
 10
96.32245820074579
 20
-146.2573947116995
 30
0.0
 10
96.32245820074579
 20
-146.2573947116995
 30
0.0
 10
96.33313799675005
 20
-146.1915933879313
 30
0.0
 10
96.3352050540412
 20
-146.132337745585
 30
0.0
 10
96.3352050540412
 20
-146.1302706882938
 30
0.0
 10
96.3352050540412
 20
-146.1302706882938
 30
0.0
 10
96.3352050540412
 20
-146.0076252890189
 30
0.0
 10
96.3352050540412
 20
-146.0076252890189
 30
0.0
 10
96.3352050540412
 20
-146.0076252890189
 30
0.0
 10
96.15537106971117
 20
-146.0076252890189
 30
0.0
 10
96.15537106971117
 20
-146.0076252890189
 30
0.0
 10
96.13642304454228
 20
-146.0668809313652
 30
0.0
 10
96.08991425549141
 20
-146.2129529799398
 30
0.0
 10
95.97553708538112
 20
-146.2952907620373
 30
0.0
 10
95.97553708538112
 20
-146.2952907620373
 30
0.0
 10
95.81912975035078
 20
-146.1895263306401
 30
0.0
 10
95.81912975035078
 20
-146.1895263306401
 30
0.0
 10
95.89285479373513
 20
-146.1430175415892
 30
0.0
 10
96.00929902113657
 20
-146.0689479886564
 30
0.0
 10
96.00929902113657
 20
-145.7475205798826
 30
0.0
 10
96.00929902113657
 20
-145.6923990521186
 30
0.0
 10
96.00516490655427
 20
-145.6479573203588
 30
0.0
 10
96.00309784926311
 20
-145.6100612700211
 30
0.0
 10
96.07923445948714
 20
-145.6183294991857
 30
0.0
 10
96.15330401242001
 20
-145.6248751806077
 30
0.0
 10
96.21669376934861
 20
-145.6248751806077
 30
0.0
 10
96.3944606963875
 20
-145.6248751806077
 30
0.0
 10
96.59324270588641
 20
-145.5656195382614
 30
0.0
 10
96.65456540552387
 20
-145.5359917170882
 30
0.0
 10
96.65456540552387
 20
-145.5359917170882
 30
0.0
 10
96.78134491938106
 20
-145.6713839696586
 30
0.0
 10
96.78134491938106
 20
-145.6713839696586
 30
0.0
 10
96.78582354351188
 20
-145.6755180842408
 30
0.0
 10
96.78789060080304
 20
-145.684130822954
 30
0.0
 10
96.78789060080304
 20
-145.6903319948274
 30
0.0
 10
96.78789060080304
 20
-145.7113470772875
 30
0.0
 10
96.77307669021646
 20
-145.7178927587094
 30
0.0
 10
96.75619572233873
 20
-145.7178927587094
 30
0.0
 10
96.73483613033018
 20
-145.7178927587094
 30
0.0
 10
96.72002221974361
 20
-145.7092800199963
 30
0.0
 10
96.70107419457473
 20
-145.6989447335405
 30
0.0
 10
96.52778589166667
 20
-145.7557888090472
 30
0.0
 10
96.30971134745036
 20
-145.781282515638
 30
0.0
 10
96.17638615217119
 20
-145.7833495729292
 30
0.0
 10
96.17638615217119
 20
-145.7833495729292
 30
0.0
 10
96.17225203758889
 20
-145.8660318645752
 30
0.0
 10
96.17225203758889
 20
-145.8660318645752
 30
0.0
 10
96.17225203758889
 20
-145.8660318645752
 30
0.0
 10
96.44510360002067
 20
-145.8660318645752
 30
0.0
 10
96.44510360002067
 20
-145.8660318645752
 30
0.0
 10
96.50229218507582
 20
-145.8660318645752
 30
0.0
 10
96.76446395150333
 20
-145.8467393298578
 30
0.0
 10
96.80890568326305
 20
-145.8405381579843
 30
0.0
 10
96.80890568326305
 20
-145.8405381579843
 30
0.0
 10
96.80890568326305
 20
-146.0096923463101
 30
0.0
 10
96.80890568326305
 20
-146.0096923463101
 30
0.0
 10
96.77514374750761
 20
-146.0055582317278
 30
0.0
 10
96.76239689421219
 20
-146.0034911744366
 30
0.0
 10
96.684193226697
 20
-146.0034911744366
 30
0.0
  0
HATCH
  5
E7
330
AC
100
AcDbEntity
  8
_U+30EC_U+30A4_U+30E4_U+30FC 1
 62
   179
420
  2234388
100
AcDbHatch
 10
0.0
 20
0.0
 30
0.0
210
0.0
220
0.0
230
1.0
  2
SOLID
 70
     1
 71
     0
 91
        6
 92
        1
 93
        1
 72
     4
 94
        3
 73
     0
 74
     1
 95
       71
 96
       67
 40
0.0
 40
0.0
 40
0.0
 40
0.0
 40
1.0
 40
1.0
 40
1.0
 40
2.0
 40
2.0
 40
2.0
 40
3.0
 40
3.0
 40
3.0
 40
4.0
 40
4.0
 40
4.0
 40
5.0
 40
5.0
 40
5.0
 40
6.0
 40
6.0
 40
6.0
 40
7.0
 40
7.0
 40
7.0
 40
8.0
 40
8.0
 40
8.0
 40
9.0
 40
9.0
 40
9.0
 40
10.0
 40
10.0
 40
10.0
 40
11.0
 40
11.0
 40
11.0
 40
12.0
 40
12.0
 40
12.0
 40
13.0
 40
13.0
 40
13.0
 40
14.0
 40
14.0
 40
14.0
 40
15.0
 40
15.0
 40
15.0
 40
16.0
 40
16.0
 40
16.0
 40
17.0
 40
17.0
 40
17.0
 40
18.0
 40
18.0
 40
18.0
 40
19.0
 40
19.0
 40
19.0
 40
20.0
 40
20.0
 40
20.0
 40
21.0
 40
21.0
 40
21.0
 40
22.0
 40
22.0
 40
22.0
 40
22.0
 10
95.83359915138882
 20
-145.7240939305829
 10
95.81912975035078
 20
-145.7240939305829
 10
95.80638289705536
 20
-145.7199598160006
 10
95.7808891904645
 20
-145.7113470772875
 10
95.63929576602074
 20
-145.7578558663383
 10
95.46566295356415
 20
-145.7750813437646
 10
95.32613658641152
 20
-145.7792154583469
 10
95.32613658641152
 20
-145.7792154583469
 10
95.32406952912038
 20
-145.8680989218663
 10
95.32406952912038
 20
-145.8680989218663
 10
95.32406952912038
 20
-145.8680989218663
 10
95.58417423825674
 20
-145.8680989218663
 10
95.58417423825674
 20
-145.8680989218663
 10
95.63688419918105
 20
-145.8680989218663
 10
95.81912975035078
 20
-145.8594861831532
 10
95.86322697256198
 20
-145.8532850112798
 10
95.86322697256198
 20
-145.8532850112798
 10
95.86322697256198
 20
-146.0141709704409
 10
95.86322697256198
 20
-146.0141709704409
 10
95.8084499543465
 20
-146.0076252890189
 10
95.68339298823193
 20
-146.0055582317278
 10
95.64549693789418
 20
-146.0076252890189
 10
95.64549693789418
 20
-146.0076252890189
 10
95.64549693789418
 20
-146.1175238349984
 10
95.64549693789418
 20
-146.1175238349984
 10
95.64549693789418
 20
-146.1643771335978
 10
95.64756399518534
 20
-146.2277668905264
 10
95.6541096766073
 20
-146.2656629408642
 10
95.6541096766073
 20
-146.2656629408642
 10
95.46152883898185
 20
-146.2656629408642
 10
95.46152883898185
 20
-146.2656629408642
 10
95.46773001085529
 20
-146.2256998332352
 10
95.47427569227727
 20
-146.1430175415892
 10
95.47427569227727
 20
-146.1282036310027
 10
95.47427569227727
 20
-146.1282036310027
 10
95.47427569227727
 20
-146.0076252890189
 10
95.47427569227727
 20
-146.0076252890189
 10
95.47427569227727
 20
-146.0076252890189
 10
95.3092556185338
 20
-146.0076252890189
 10
95.3092556185338
 20
-146.0076252890189
 10
95.26688094406524
 20
-146.2277668905264
 10
95.21175941630123
 20
-146.3080376153327
 10
95.10599498490406
 20
-146.4076008748564
 10
95.10599498490406
 20
-146.4076008748564
 10
94.93890785386944
 20
-146.2932237047461
 10
94.93890785386944
 20
-146.2932237047461
 10
95.00229761079804
 20
-146.2446478584041
 10
95.15250377395493
 20
-146.132337745585
 10
95.15250377395493
 20
-145.7833495729292
 10
95.15250377395493
 20
-145.7010117908317
 10
95.14423554479033
 20
-145.6545030017808
 10
95.13562280607721
 20
-145.6055826458903
 10
95.2816948546518
 20
-145.6203965564769
 10
95.29650876523837
 20
-145.6203965564769
 10
95.33233775828498
 20
-145.6203965564769
 10
95.4401692469733
 20
-145.6203965564769
 10
95.5821071809656
 20
-145.6035155885991
 10
95.74264863057823
 20
-145.5421928889617
 10
95.74264863057823
 20
-145.5421928889617
 10
95.85702580068853
 20
-145.6734510269497
 10
95.85702580068853
 20
-145.6734510269497
 10
95.86322697256198
 20
-145.6796521988232
 10
95.8677055966928
 20
-145.6882649375363
 10
95.8677055966928
 20
-145.6965331667009
 10
95.8677055966928
 20
-145.7199598160006
 10
95.8484130619754
 20
-145.7240939305829
 10
95.83359915138882
 20
-145.7240939305829
 97
        0
 97
        0
 92
        1
 93
        1
 72
     4
 94
        3
 73
     0
 74
     1
 95
       74
 96
       70
 40
0.0
 40
0.0
 40
0.0
 40
0.0
 40
1.0
 40
1.0
 40
1.0
 40
2.0
 40
2.0
 40
2.0
 40
3.0
 40
3.0
 40
3.0
 40
4.0
 40
4.0
 40
4.0
 40
5.0
 40
5.0
 40
5.0
 40
6.0
 40
6.0
 40
6.0
 40
7.0
 40
7.0
 40
7.0
 40
8.0
 40
8.0
 40
8.0
 40
9.0
 40
9.0
 40
9.0
 40
10.0
 40
10.0
 40
10.0
 40
11.0
 40
11.0
 40
11.0
 40
12.0
 40
12.0
 40
12.0
 40
13.0
 40
13.0
 40
13.0
 40
14.0
 40
14.0
 40
14.0
 40
15.0
 40
15.0
 40
15.0
 40
16.0
 40
16.0
 40
16.0
 40
17.0
 40
17.0
 40
17.0
 40
18.0
 40
18.0
 40
18.0
 40
19.0
 40
19.0
 40
19.0
 40
20.0
 40
20.0
 40
20.0
 40
21.0
 40
21.0
 40
21.0
 40
22.0
 40
22.0
 40
22.0
 40
23.0
 40
23.0
 40
23.0
 40
23.0
 10
96.6714463734016
 20
-147.490738895419
 10
96.4578504533161
 20
-147.4800590994147
 10
96.25700138652603
 20
-147.3932426931864
 10
96.0813015167783
 20
-147.2726643512027
 10
96.0813015167783
 20
-147.2726643512027
 10
96.17845320946233
 20
-147.1858479449744
 10
96.17845320946233
 20
-147.1858479449744
 10
96.17845320946233
 20
-147.1858479449744
 10
95.62654891272531
 20
-147.1858479449744
 10
95.62654891272531
 20
-147.1858479449744
 10
95.62654891272531
 20
-147.1858479449744
 10
95.70681963753164
 20
-147.2495822114515
 10
95.70681963753164
 20
-147.2495822114515
 10
95.71302080940508
 20
-147.2537163260338
 10
95.72370060540936
 20
-147.2643961220381
 10
95.72370060540936
 20
-147.2792100326247
 10
95.72370060540936
 20
-147.3191731402536
 10
95.64963105247648
 20
-147.3129719683801
 10
95.63481714188991
 20
-147.310904911089
 10
95.40434025392669
 20
-147.4504312782416
 10
95.26033526264325
 20
-147.4821261567059
 10
95.15663788853723
 20
-147.4990071245836
 10
95.15663788853723
 20
-147.4990071245836
 10
95.02779131738889
 20
-147.3212401975447
 10
95.02779131738889
 20
-147.3212401975447
 10
95.27514917322983
 20
-147.2895453190804
 10
95.3767794900447
 20
-147.2430365300295
 10
95.46566295356415
 20
-147.1903265691052
 10
95.39159340063128
 20
-147.1923936263964
 10
95.2775607400695
 20
-147.1944606836875
 10
95.24552135205668
 20
-147.1965277409787
 10
95.26033526264325
 20
-147.1076442774592
 10
95.26274682948294
 20
-146.9787977063109
 10
95.26274682948294
 20
-146.904728153378
 10
95.26274682948294
 20
-146.904728153378
 10
95.26274682948294
 20
-146.6043158270642
 10
95.26274682948294
 20
-146.6043158270642
 10
95.26274682948294
 20
-146.5047525675405
 10
95.25620114806095
 20
-146.4055338175653
 10
95.24552135205668
 20
-146.3080376153327
 10
95.34715166887155
 20
-146.3142387872062
 10
95.57762855683477
 20
-146.3207844686281
 10
95.68580455507161
 20
-146.3207844686281
 10
95.68580455507161
 20
-146.3207844686281
 10
96.10886228066029
 20
-146.3207844686281
 10
96.10886228066029
 20
-146.3207844686281
 10
96.22737356535288
 20
-146.3207844686281
 10
96.26940373027293
 20
-146.3207844686281
 10
96.35208602191892
 20
-146.3166503540458
 10
96.50022512778467
 20
-146.3101046726239
 10
96.5171060956624
 20
-146.3101046726239
 10
96.56361488471326
 20
-146.3080376153327
 10
96.55500214600015
 20
-146.388308340139
 10
96.55086803141785
 20
-146.5471272420091
 10
96.55086803141785
 20
-146.6294650241065
 10
96.55086803141785
 20
-146.6294650241065
 10
96.55086803141785
 20
-146.9150634398337
 10
96.55086803141785
 20
-146.9150634398337
 10
96.55086803141785
 20
-146.9870659354755
 10
96.55293508870899
 20
-147.1183240734635
 10
96.56361488471326
 20
-147.1965277409787
 10
96.49161238907155
 20
-147.1923936263964
 10
96.36896698979665
 20
-147.1903265691052
 10
96.29076332228148
 20
-147.1882595118141
 10
96.40066186826095
 20
-147.2557833833249
 10
96.55293508870899
 20
-147.3064262869581
 10
96.76446395150333
 20
-147.310904911089
 10
96.76446395150333
 20
-147.310904911089
 10
96.6714463734016
 20
-147.490738895419
 10
96.6714463734016
 20
-147.490738895419
 97
        0
 97
        0
 92
        1
 93
        4
 72
     1
 10
96.3668999325055
 20
-146.4561767211985
 11
95.45498315755987
 21
-146.4561767211985
 72
     1
 10
95.45498315755987
 20
-146.4561767211985
 11
95.45498315755987
 21
-146.5681423244691
 72
     1
 10
95.45498315755987
 20
-146.5681423244691
 11
96.3668999325055
 21
-146.5681423244691
 72
     1
 10
96.3668999325055
 20
-146.5681423244691
 11
96.3668999325055
 21
-146.4561767211985
 97
        0
 92
        1
 93
        4
 72
     1
 10
96.3668999325055
 20
-146.7014675197483
 11
95.45498315755987
 21
-146.7014675197483
 72
     1
 10
95.45498315755987
 20
-146.7014675197483
 11
95.45498315755987
 21
-146.8117105752762
 72
     1
 10
95.45498315755987
 20
-146.8117105752762
 11
96.3668999325055
 21
-146.8117105752762
 72
     1
 10
96.3668999325055
 20
-146.8117105752762
 11
96.3668999325055
 21
-146.7014675197483
 97
        0
 92
        1
 93
        4
 72
     1
 10
96.3668999325055
 20
-146.9471028278466
 11
95.45498315755987
 21
-146.9471028278466
 72
     1
 10
95.45498315755987
 20
-146.9471028278466
 11
95.45498315755987
 21
-147.0549343165349
 72
     1
 10
95.45498315755987
 20
-147.0549343165349
 11
96.3668999325055
 21
-147.0549343165349
 72
     1
 10
96.3668999325055
 20
-147.0549343165349
 11
96.3668999325055
 21
-146.9471028278466
 97
        0
 92
        1
 93
        1
 72
     4
 94
        3
 73
     0
 74
     1
 95
       74
 96
       70
 40
0.0
 40
0.0
 40
0.0
 40
0.0
 40
1.0
 40
1.0
 40
1.0
 40
2.0
 40
2.0
 40
2.0
 40
3.0
 40
3.0
 40
3.0
 40
4.0
 40
4.0
 40
4.0
 40
5.0
 40
5.0
 40
5.0
 40
6.0
 40
6.0
 40
6.0
 40
7.0
 40
7.0
 40
7.0
 40
8.0
 40
8.0
 40
8.0
 40
9.0
 40
9.0
 40
9.0
 40
10.0
 40
10.0
 40
10.0
 40
11.0
 40
11.0
 40
11.0
 40
12.0
 40
12.0
 40
12.0
 40
13.0
 40
13.0
 40
13.0
 40
14.0
 40
14.0
 40
14.0
 40
15.0
 40
15.0
 40
15.0
 40
16.0
 40
16.0
 40
16.0
 40
17.0
 40
17.0
 40
17.0
 40
18.0
 40
18.0
 40
18.0
 40
19.0
 40
19.0
 40
19.0
 40
20.0
 40
20.0
 40
20.0
 40
21.0
 40
21.0
 40
21.0
 40
22.0
 40
22.0
 40
22.0
 40
23.0
 40
23.0
 40
23.0
 40
23.0
 10
96.684193226697
 20
-146.0034911744366
 10
96.684193226697
 20
-146.0034911744366
 10
96.52330726753584
 20
-146.0034911744366
 10
96.52330726753584
 20
-146.0034911744366
 10
96.52330726753584
 20
-146.0034911744366
 10
96.52330726753584
 20
-146.1175238349984
 10
96.52330726753584
 20
-146.1175238349984
 10
96.52330726753584
 20
-146.1578314521758
 10
96.52985294895782
 20
-146.2319010051087
 10
96.53398706354012
 20
-146.2573947116995
 10
96.53398706354012
 20
-146.2573947116995
 10
96.32245820074579
 20
-146.2573947116995
 10
96.32245820074579
 20
-146.2573947116995
 10
96.33313799675005
 20
-146.1915933879313
 10
96.3352050540412
 20
-146.132337745585
 10
96.3352050540412
 20
-146.1302706882938
 10
96.3352050540412
 20
-146.1302706882938
 10
96.3352050540412
 20
-146.0076252890189
 10
96.3352050540412
 20
-146.0076252890189
 10
96.3352050540412
 20
-146.0076252890189
 10
96.15537106971117
 20
-146.0076252890189
 10
96.15537106971117
 20
-146.0076252890189
 10
96.13642304454228
 20
-146.0668809313652
 10
96.08991425549141
 20
-146.2129529799398
 10
95.97553708538112
 20
-146.2952907620373
 10
95.97553708538112
 20
-146.2952907620373
 10
95.81912975035078
 20
-146.1895263306401
 10
95.81912975035078
 20
-146.1895263306401
 10
95.89285479373513
 20
-146.1430175415892
 10
96.00929902113657
 20
-146.0689479886564
 10
96.00929902113657
 20
-145.7475205798826
 10
96.00929902113657
 20
-145.6923990521186
 10
96.00516490655427
 20
-145.6479573203588
 10
96.00309784926311
 20
-145.6100612700211
 10
96.07923445948714
 20
-145.6183294991857
 10
96.15330401242001
 20
-145.6248751806077
 10
96.21669376934861
 20
-145.6248751806077
 10
96.3944606963875
 20
-145.6248751806077
 10
96.59324270588641
 20
-145.5656195382614
 10
96.65456540552387
 20
-145.5359917170882
 10
96.65456540552387
 20
-145.5359917170882
 10
96.78134491938106
 20
-145.6713839696586
 10
96.78134491938106
 20
-145.6713839696586
 10
96.78582354351188
 20
-145.6755180842408
 10
96.78789060080304
 20
-145.684130822954
 10
96.78789060080304
 20
-145.6903319948274
 10
96.78789060080304
 20
-145.7113470772875
 10
96.77307669021646
 20
-145.7178927587094
 10
96.75619572233873
 20
-145.7178927587094
 10
96.73483613033018
 20
-145.7178927587094
 10
96.72002221974361
 20
-145.7092800199963
 10
96.70107419457473
 20
-145.6989447335405
 10
96.52778589166667
 20
-145.7557888090472
 10
96.30971134745036
 20
-145.781282515638
 10
96.17638615217119
 20
-145.7833495729292
 10
96.17638615217119
 20
-145.7833495729292
 10
96.17225203758889
 20
-145.8660318645752
 10
96.17225203758889
 20
-145.8660318645752
 10
96.17225203758889
 20
-145.8660318645752
 10
96.44510360002067
 20
-145.8660318645752
 10
96.44510360002067
 20
-145.8660318645752
 10
96.50229218507582
 20
-145.8660318645752
 10
96.76446395150333
 20
-145.8467393298578
 10
96.80890568326305
 20
-145.8405381579843
 10
96.80890568326305
 20
-145.8405381579843
 10
96.80890568326305
 20
-146.0096923463101
 10
96.80890568326305
 20
-146.0096923463101
 10
96.77514374750761
 20
-146.0055582317278
 10
96.76239689421219
 20
-146.0034911744366
 10
96.684193226697
 20
-146.0034911744366
 97
        0
 97
        0
 75
     2
 76
     1
 98
        0
  0
SPLINE
  5
E8
330
AC
100
AcDbEntity
  8
_U+30EC_U+30A4_U+30E4_U+30FC 1
370
     0
100
AcDbSpline
210
0.0
220
0.0
230
1.0
 70
    11
 71
     3
 72
   158
 73
   154
 74
     0
 42
0.0000000001
 43
0.0000000001
 12
1.0
 22
0.0
 32
0.0
 13
1.0
 23
0.0
 33
0.0
 40
0.0
 40
0.0
 40
0.0
 40
0.0
 40
1.0
 40
1.0
 40
1.0
 40
2.0
 40
2.0
 40
2.0
 40
3.0
 40
3.0
 40
3.0
 40
4.0
 40
4.0
 40
4.0
 40
5.0
 40
5.0
 40
5.0
 40
6.0
 40
6.0
 40
6.0
 40
7.0
 40
7.0
 40
7.0
 40
8.0
 40
8.0
 40
8.0
 40
9.0
 40
9.0
 40
9.0
 40
10.0
 40
10.0
 40
10.0
 40
11.0
 40
11.0
 40
11.0
 40
12.0
 40
12.0
 40
12.0
 40
13.0
 40
13.0
 40
13.0
 40
14.0
 40
14.0
 40
14.0
 40
15.0
 40
15.0
 40
15.0
 40
16.0
 40
16.0
 40
16.0
 40
17.0
 40
17.0
 40
17.0
 40
18.0
 40
18.0
 40
18.0
 40
19.0
 40
19.0
 40
19.0
 40
20.0
 40
20.0
 40
20.0
 40
21.0
 40
21.0
 40
21.0
 40
22.0
 40
22.0
 40
22.0
 40
23.0
 40
23.0
 40
23.0
 40
24.0
 40
24.0
 40
24.0
 40
25.0
 40
25.0
 40
25.0
 40
26.0
 40
26.0
 40
26.0
 40
27.0
 40
27.0
 40
27.0
 40
28.0
 40
28.0
 40
28.0
 40
29.0
 40
29.0
 40
29.0
 40
30.0
 40
30.0
 40
30.0
 40
31.0
 40
31.0
 40
31.0
 40
32.0
 40
32.0
 40
32.0
 40
33.0
 40
33.0
 40
33.0
 40
34.0
 40
34.0
 40
34.0
 40
35.0
 40
35.0
 40
35.0
 40
36.0
 40
36.0
 40
36.0
 40
37.0
 40
37.0
 40
37.0
 40
38.0
 40
38.0
 40
38.0
 40
39.0
 40
39.0
 40
39.0
 40
40.0
 40
40.0
 40
40.0
 40
41.0
 40
41.0
 40
41.0
 40
42.0
 40
42.0
 40
42.0
 40
43.0
 40
43.0
 40
43.0
 40
44.0
 40
44.0
 40
44.0
 40
45.0
 40
45.0
 40
45.0
 40
46.0
 40
46.0
 40
46.0
 40
47.0
 40
47.0
 40
47.0
 40
48.0
 40
48.0
 40
48.0
 40
49.0
 40
49.0
 40
49.0
 40
50.0
 40
50.0
 40
50.0
 40
51.0
 40
51.0
 40
51.0
 40
51.0
 10
98.5510904701539
 20
-145.9421684747992
 30
0.0
 10
98.5510904701539
 20
-145.9421684747992
 30
0.0
 10
98.0243353704592
 20
-145.9421684747992
 30
0.0
 10
98.0243353704592
 20
-145.9421684747992
 30
0.0
 10
98.00538734529033
 20
-145.9738633532635
 30
0.0
 10
98.00538734529033
 20
-145.9738633532635
 30
0.0
 10
97.93579641648827
 20
-146.0775607273695
 30
0.0
 10
97.9926404919949
 20
-146.0796277846607
 30
0.0
 10
98.12803274456522
 20
-146.0816948419518
 30
0.0
 10
98.18522132962036
 20
-146.0816948419518
 30
0.0
 10
98.18522132962036
 20
-146.0816948419518
 30
0.0
 10
98.51319441981614
 20
-146.0816948419518
 30
0.0
 10
98.51319441981614
 20
-146.0816948419518
 30
0.0
 10
98.64445255780417
 20
-146.0816948419518
 30
0.0
 10
98.68889428956389
 20
-146.0775607273695
 30
0.0
 10
98.78397892495678
 20
-146.0730821032387
 30
0.0
 10
98.77984481037448
 20
-146.1495632230112
 30
0.0
 10
98.77743324353482
 20
-146.1960720120621
 30
0.0
 10
98.77743324353482
 20
-146.2594617689907
 30
0.0
 10
98.77743324353482
 20
-146.2594617689907
 30
0.0
 10
98.77743324353482
 20
-146.3969210788522
 30
0.0
 10
98.77743324353482
 20
-146.3969210788522
 30
0.0
 10
98.77743324353482
 20
-146.5174994208359
 30
0.0
 10
98.77984481037448
 20
-146.5302462741313
 30
0.0
 10
98.78604598224794
 20
-146.6022487697731
 30
0.0
 10
98.6696017548465
 20
-146.5957030883511
 30
0.0
 10
98.63583981909105
 20
-146.5957030883511
 30
0.0
 10
98.5152614771073
 20
-146.5957030883511
 30
0.0
 10
98.5152614771073
 20
-146.5957030883511
 30
0.0
 10
98.19796818291579
 20
-146.5957030883511
 30
0.0
 10
98.19796818291579
 20
-146.5957030883511
 30
0.0
 10
98.10908471939635
 20
-146.5957030883511
 30
0.0
 10
98.0160671412946
 20
-146.5998372029334
 30
0.0
 10
97.88067488872429
 20
-146.6063828843554
 30
0.0
 10
97.88480900330659
 20
-146.5491942993002
 30
0.0
 10
97.88687606059773
 20
-146.4920057142451
 30
0.0
 10
97.88687606059773
 20
-146.4351616387384
 30
0.0
 10
97.88687606059773
 20
-146.4351616387384
 30
0.0
 10
97.88687606059773
 20
-146.2742756795773
 30
0.0
 10
97.88687606059773
 20
-146.2742756795773
 30
0.0
 10
97.88687606059773
 20
-146.2319010051087
 30
0.0
 10
97.88687606059773
 20
-146.2232882663956
 30
0.0
 10
97.88480900330659
 20
-146.1536973375935
 30
0.0
 10
97.87654077414199
 20
-146.1685112481801
 30
0.0
 10
97.87206215001116
 20
-146.1705783054713
 30
0.0
 10
97.85724823942458
 20
-146.1915933879313
 30
0.0
 10
97.85724823942458
 20
-146.1915933879313
 30
0.0
 10
97.72840166827623
 20
-146.1133897204161
 30
0.0
 10
97.72840166827623
 20
-146.1133897204161
 30
0.0
 10
97.72840166827623
 20
-146.1133897204161
 30
0.0
 10
97.72840166827623
 20
-146.2232882663956
 30
0.0
 10
97.72840166827623
 20
-146.2232882663956
 30
0.0
 10
97.67741425509453
 20
-146.2170870945221
 30
0.0
 10
97.60334470216166
 20
-146.2170870945221
 30
0.0
 10
97.56958276640621
 20
-146.2170870945221
 30
0.0
 10
97.56958276640621
 20
-146.2170870945221
 30
0.0
 10
97.50205889489533
 20
-146.2170870945221
 30
0.0
 10
97.50205889489533
 20
-146.2170870945221
 30
0.0
 10
97.50205889489533
 20
-146.2170870945221
 30
0.0
 10
97.50205889489533
 20
-146.7862168686854
 30
0.0
 10
97.50205889489533
 20
-146.7862168686854
 30
0.0
 10
97.53375377335962
 20
-146.7796711872634
 30
0.0
 10
97.64571937663024
 20
-146.7565890475123
 30
0.0
 10
97.74321557886282
 20
-146.7228271117568
 30
0.0
 10
97.74321557886282
 20
-146.7228271117568
 30
0.0
 10
97.72392304414541
 20
-146.8961154146649
 30
0.0
 10
97.72392304414541
 20
-146.8961154146649
 30
0.0
 10
97.68189287922536
 20
-146.9129963825426
 30
0.0
 10
97.65226505805222
 20
-146.9236761785469
 30
0.0
 10
97.49551321347334
 20
-146.9701849675977
 30
0.0
 10
97.40249563537161
 20
-146.9977457314797
 30
0.0
 10
97.25435652950586
 20
-147.0421874632395
 30
0.0
 10
97.16133895140412
 20
-147.0697482271215
 30
0.0
 10
97.15720483682182
 20
-147.0948974241638
 30
0.0
 10
97.152726212691
 20
-147.1162570161723
 30
0.0
 10
97.13377818752211
 20
-147.1162570161723
 30
0.0
 10
97.11483016235324
 20
-147.1162570161723
 30
0.0
 10
97.10862899047979
 20
-147.1014431055858
 30
0.0
 10
97.10415036634896
 20
-147.0886962522903
 30
0.0
 10
97.10415036634896
 20
-147.0886962522903
 30
0.0
 10
97.03662649483807
 20
-146.8623534789094
 30
0.0
 10
97.03662649483807
 20
-146.8623534789094
 30
0.0
 10
97.20164656858154
 20
-146.8409938869009
 30
0.0
 10
97.23334144704583
 20
-146.8368597723186
 30
0.0
 10
97.31774628643446
 20
-146.822045861732
 30
0.0
 10
97.31774628643446
 20
-146.822045861732
 30
0.0
 10
97.31774628643446
 20
-146.2170870945221
 30
0.0
 10
97.31774628643446
 20
-146.2170870945221
 30
0.0
 10
97.31774628643446
 20
-146.2170870945221
 30
0.0
 10
97.26710338280128
 20
-146.2170870945221
 30
0.0
 10
97.26710338280128
 20
-146.2170870945221
 30
0.0
 10
97.19096677257727
 20
-146.2170870945221
 30
0.0
 10
97.09588213718436
 20
-146.2232882663956
 30
0.0
 10
97.07245548788467
 20
-146.2256998332352
 30
0.0
 10
97.07245548788467
 20
-146.2256998332352
 30
0.0
 10
97.07245548788467
 20
-146.0434542820655
 30
0.0
 10
97.07245548788467
 20
-146.0434542820655
 30
0.0
 10
97.12964407293981
 20
-146.0520670207787
 30
0.0
 10
97.23540850433699
 20
-146.0541340780698
 30
0.0
 10
97.24815535763241
 20
-146.0541340780698
 30
0.0
 10
97.24815535763241
 20
-146.0541340780698
 30
0.0
 10
97.31774628643446
 20
-146.0541340780698
 30
0.0
 10
97.31774628643446
 20
-146.0541340780698
 30
0.0
 10
97.31774628643446
 20
-146.0541340780698
 30
0.0
 10
97.31774628643446
 20
-145.677585141532
 30
0.0
 10
97.31774628643446
 20
-145.677585141532
 30
0.0
 10
97.31774628643446
 20
-145.6310763524811
 30
0.0
 10
97.31567922914331
 20
-145.5973144167257
 30
0.0
 10
97.31361217185216
 20
-145.5611409141306
 30
0.0
 10
97.31361217185216
 20
-145.5611409141306
 30
0.0
 10
97.51893986277305
 20
-145.5783663915568
 30
0.0
 10
97.51893986277305
 20
-145.5783663915568
 30
0.0
 10
97.53168671606848
 20
-145.5783663915568
 30
0.0
 10
97.55476885581965
 20
-145.5825005061391
 30
0.0
 10
97.55476885581965
 20
-145.601448531308
 30
0.0
 10
97.55476885581965
 20
-145.6228081233165
 30
0.0
 10
97.53168671606848
 20
-145.6352104670634
 30
0.0
 10
97.51032712405993
 20
-145.6458902630677
 30
0.0
 10
97.50205889489533
 20
-145.7960964262246
 30
0.0
 10
97.50205889489533
 20
-145.8701659791575
 30
0.0
 10
97.50205889489533
 20
-146.0541340780698
 30
0.0
 10
97.50205889489533
 20
-146.0541340780698
 30
0.0
 10
97.56958276640621
 20
-146.0541340780698
 30
0.0
 10
97.56958276640621
 20
-146.0541340780698
 30
0.0
 10
97.61609155545709
 20
-146.0541340780698
 30
0.0
 10
97.67948131238569
 20
-146.0499999634875
 30
0.0
 10
97.72392304414541
 20
-146.0393201674832
 30
0.0
 10
97.84691295296884
 20
-145.8997938003306
 30
0.0
 10
97.9292507350663
 20
-145.6944661094097
 30
0.0
 10
97.95887855623945
 20
-145.5508056276748
 30
0.0
 10
97.95887855623945
 20
-145.5508056276748
 30
0.0
 10
98.1745415336161
 20
-145.6035155885991
 30
0.0
 10
98.1745415336161
 20
-145.6035155885991
 30
0.0
 10
98.18522132962036
 20
-145.6055826458903
 30
0.0
 10
98.20210229749809
 20
-145.6121283273123
 30
0.0
 10
98.20210229749809
 20
-145.6269422378988
 30
0.0
 10
98.20210229749809
 20
-145.6479573203588
 30
0.0
 10
98.18108721503806
 20
-145.6520914349412
 30
0.0
 10
98.14732527928261
 20
-145.6607041736543
 30
0.0
 10
98.12389862998292
 20
-145.7220268732917
 30
0.0
 10
98.11769745810948
 20
-145.7409748984606
 30
0.0
 10
98.10047198068322
 20
-145.781282515638
 30
0.0
 10
98.10047198068322
 20
-145.781282515638
 30
0.0
 10
98.54488929828045
 20
-145.781282515638
 30
0.0
 10
98.54488929828045
 20
-145.781282515638
 30
0.0
 10
98.78811303953908
 20
-145.781282515638
 30
0.0
 10
98.81360674612993
 20
-145.7750813437646
 30
0.0
 10
98.9469319414091
 20
-145.7644015477603
 30
0.0
 10
98.9469319414091
 20
-145.7644015477603
 30
0.0
 10
98.9469319414091
 20
-145.9525037612549
 30
0.0
 10
98.9469319414091
 20
-145.9525037612549
 30
0.0
 10
98.83910045272079
 20
-145.9442355320903
 30
0.0
 10
98.55763615157588
 20
-145.9421684747992
 30
0.0
 10
98.5510904701539
 20
-145.9421684747992
 30
0.0
  0
SPLINE
  5
E9
330
AC
100
AcDbEntity
  8
_U+30EC_U+30A4_U+30E4_U+30FC 1
370
     0
100
AcDbSpline
210
0.0
220
0.0
230
1.0
 70
    11
 71
     3
 72
    47
 73
    43
 74
     0
 42
0.0000000001
 43
0.0000000001
 12
1.0
 22
0.0
 32
0.0
 13
1.0
 23
0.0
 33
0.0
 40
0.0
 40
0.0
 40
0.0
 40
0.0
 40
1.0
 40
1.0
 40
1.0
 40
2.0
 40
2.0
 40
2.0
 40
3.0
 40
3.0
 40
3.0
 40
4.0
 40
4.0
 40
4.0
 40
5.0
 40
5.0
 40
5.0
 40
6.0
 40
6.0
 40
6.0
 40
7.0
 40
7.0
 40
7.0
 40
8.0
 40
8.0
 40
8.0
 40
9.0
 40
9.0
 40
9.0
 40
10.0
 40
10.0
 40
10.0
 40
11.0
 40
11.0
 40
11.0
 40
12.0
 40
12.0
 40
12.0
 40
13.0
 40
13.0
 40
13.0
 40
14.0
 40
14.0
 40
14.0
 40
14.0
 10
98.6062119979179
 20
-147.3932426931864
 30
0.0
 10
98.6062119979179
 20
-147.3932426931864
 30
0.0
 10
98.03914928104577
 20
-147.3932426931864
 30
0.0
 10
98.03914928104577
 20
-147.3932426931864
 30
0.0
 10
97.9926404919949
 20
-147.3932426931864
 30
0.0
 10
97.74114852157166
 20
-147.3953097504776
 30
0.0
 10
97.59300941570592
 20
-147.4101236610641
 30
0.0
 10
97.59300941570592
 20
-147.4101236610641
 30
0.0
 10
97.59300941570592
 20
-147.228222619443
 30
0.0
 10
97.59300941570592
 20
-147.228222619443
 30
0.0
 10
97.67121308322109
 20
-147.2327012435738
 30
0.0
 10
97.70910913355884
 20
-147.2347683008649
 30
0.0
 10
97.79799259707828
 20
-147.2368353581561
 30
0.0
 10
97.79799259707828
 20
-147.2368353581561
 30
0.0
 10
97.79799259707828
 20
-147.0146266993574
 30
0.0
 10
97.79799259707828
 20
-147.0146266993574
 30
0.0
 10
97.79799259707828
 20
-146.9174750066734
 30
0.0
 10
97.79385848249598
 20
-146.8179117471497
 30
0.0
 10
97.78765731062254
 20
-146.718348487626
 30
0.0
 10
97.8741292073023
 20
-146.724894169048
 30
0.0
 10
97.9885063774126
 20
-146.7310953409214
 30
0.0
 10
98.19176701104234
 20
-146.7310953409214
 30
0.0
 10
98.19176701104234
 20
-146.7310953409214
 30
0.0
 10
98.511127362525
 20
-146.7310953409214
 30
0.0
 10
98.511127362525
 20
-146.7310953409214
 30
0.0
 10
98.51319441981614
 20
-146.7310953409214
 30
0.0
 10
98.73333602132361
 20
-146.7290282836302
 30
0.0
 10
98.86424964976311
 20
-146.718348487626
 30
0.0
 10
98.85598142059851
 20
-146.8454725110317
 30
0.0
 10
98.85391436330735
 20
-146.9384900891334
 30
0.0
 10
98.85391436330735
 20
-146.9870659354755
 30
0.0
 10
98.85391436330735
 20
-146.9870659354755
 30
0.0
 10
98.85391436330735
 20
-147.2220214475695
 30
0.0
 10
98.85391436330735
 20
-147.2220214475695
 30
0.0
 10
98.92557234940055
 20
-147.2199543902784
 30
0.0
 10
98.94038625998714
 20
-147.2178873329872
 30
0.0
 10
98.98482799174685
 20
-147.2113416515652
 30
0.0
 10
98.98482799174685
 20
-147.2113416515652
 30
0.0
 10
98.98482799174685
 20
-147.4018554318995
 30
0.0
 10
98.98482799174685
 20
-147.4018554318995
 30
0.0
 10
98.85804847788965
 20
-147.3953097504776
 30
0.0
 10
98.73333602132361
 20
-147.3932426931864
 30
0.0
 10
98.6062119979179
 20
-147.3932426931864
 30
0.0
  0
POLYLINE
  5
EA
330
AC
100
AcDbEntity
  8
_U+30EC_U+30A4_U+30E4_U+30FC 1
370
     0
100
AcDb2dPolyline
 66
     1
 10
0.0
 20
0.0
 30
0.0
  0
VERTEX
  5
EB
330
EA
100
AcDbEntity
  8
_U+30EC_U+30A4_U+30E4_U+30FC 1
370
     0
100
AcDbVertex
100
AcDb2dVertex
 10
98.10047198068322
 20
-146.8854356186606
 30
0.0
  0
VERTEX
  5
EC
330
EA
100
AcDbEntity
  8
_U+30EC_U+30A4_U+30E4_U+30FC 1
370
     0
100
AcDbVertex
100
AcDb2dVertex
 10
97.97782658140832
 20
-146.8854356186606
 30
0.0
  0
VERTEX
  5
ED
330
EA
100
AcDbEntity
  8
_U+30EC_U+30A4_U+30E4_U+30FC 1
370
     0
100
AcDbVertex
100
AcDb2dVertex
 10
97.97782658140832
 20
-147.2389024154472
 30
0.0
  0
VERTEX
  5
EE
330
EA
100
AcDbEntity
  8
_U+30EC_U+30A4_U+30E4_U+30FC 1
370
     0
100
AcDbVertex
100
AcDb2dVertex
 10
98.10047198068322
 20
-147.2389024154472
 30
0.0
  0
VERTEX
  5
EF
330
EA
100
AcDbEntity
  8
_U+30EC_U+30A4_U+30E4_U+30FC 1
370
     0
100
AcDbVertex
100
AcDb2dVertex
 10
98.10047198068322
 20
-146.8854356186606
 30
0.0
  0
SEQEND
  5
F0
330
EA
100
AcDbEntity
  8
_U+30EC_U+30A4_U+30E4_U+30FC 1
370
     0
  0
POLYLINE
  5
F1
330
AC
100
AcDbEntity
  8
_U+30EC_U+30A4_U+30E4_U+30FC 1
370
     0
100
AcDb2dPolyline
 66
     1
 10
0.0
 20
0.0
 30
0.0
  0
VERTEX
  5
F2
330
F1
100
AcDbEntity
  8
_U+30EC_U+30A4_U+30E4_U+30FC 1
370
     0
100
AcDbVertex
100
AcDb2dVertex
 10
98.6020778833356
 20
-146.236035119691
 30
0.0
  0
VERTEX
  5
F3
330
F1
100
AcDbEntity
  8
_U+30EC_U+30A4_U+30E4_U+30FC 1
370
     0
100
AcDbVertex
100
AcDb2dVertex
 10
98.06257593034547
 20
-146.236035119691
 30
0.0
  0
VERTEX
  5
F4
330
F1
100
AcDbEntity
  8
_U+30EC_U+30A4_U+30E4_U+30FC 1
370
     0
100
AcDbVertex
100
AcDb2dVertex
 10
98.06257593034547
 20
-146.4454969251942
 30
0.0
  0
VERTEX
  5
F5
330
F1
100
AcDbEntity
  8
_U+30EC_U+30A4_U+30E4_U+30FC 1
370
     0
100
AcDbVertex
100
AcDb2dVertex
 10
98.6020778833356
 20
-146.4454969251942
 30
0.0
  0
VERTEX
  5
F6
330
F1
100
AcDbEntity
  8
_U+30EC_U+30A4_U+30E4_U+30FC 1
370
     0
100
AcDbVertex
100
AcDb2dVertex
 10
98.6020778833356
 20
-146.236035119691
 30
0.0
  0
SEQEND
  5
F7
330
F1
100
AcDbEntity
  8
_U+30EC_U+30A4_U+30E4_U+30FC 1
370
     0
  0
POLYLINE
  5
F8
330
AC
100
AcDbEntity
  8
_U+30EC_U+30A4_U+30E4_U+30FC 1
370
     0
100
AcDb2dPolyline
 66
     1
 10
0.0
 20
0.0
 30
0.0
  0
VERTEX
  5
F9
330
F8
100
AcDbEntity
  8
_U+30EC_U+30A4_U+30E4_U+30FC 1
370
     0
100
AcDbVertex
100
AcDb2dVertex
 10
98.38607039641043
 20
-146.8878471855003
 30
0.0
  0
VERTEX
  5
FA
330
F8
100
AcDbEntity
  8
_U+30EC_U+30A4_U+30E4_U+30FC 1
370
     0
100
AcDbVertex
100
AcDb2dVertex
 10
98.25929088255323
 20
-146.8878471855003
 30
0.0
  0
VERTEX
  5
FB
330
F8
100
AcDbEntity
  8
_U+30EC_U+30A4_U+30E4_U+30FC 1
370
     0
100
AcDbVertex
100
AcDb2dVertex
 10
98.25929088255323
 20
-147.2327012435738
 30
0.0
  0
VERTEX
  5
FC
330
F8
100
AcDbEntity
  8
_U+30EC_U+30A4_U+30E4_U+30FC 1
370
     0
100
AcDbVertex
100
AcDb2dVertex
 10
98.38607039641043
 20
-147.2327012435738
 30
0.0
  0
VERTEX
  5
FD
330
F8
100
AcDbEntity
  8
_U+30EC_U+30A4_U+30E4_U+30FC 1
370
     0
100
AcDbVertex
100
AcDb2dVertex
 10
98.38607039641043
 20
-146.8878471855003
 30
0.0
  0
SEQEND
  5
FE
330
F8
100
AcDbEntity
  8
_U+30EC_U+30A4_U+30E4_U+30FC 1
370
     0
  0
POLYLINE
  5
FF
330
AC
100
AcDbEntity
  8
_U+30EC_U+30A4_U+30E4_U+30FC 1
370
     0
100
AcDb2dPolyline
 66
     1
 10
0.0
 20
0.0
 30
0.0
  0
VERTEX
  5
100
330
FF
100
AcDbEntity
  8
_U+30EC_U+30A4_U+30E4_U+30FC 1
370
     0
100
AcDbVertex
100
AcDb2dVertex
 10
98.67408037897732
 20
-146.8854356186606
 30
0.0
  0
VERTEX
  5
101
330
FF
100
AcDbEntity
  8
_U+30EC_U+30A4_U+30E4_U+30FC 1
370
     0
100
AcDbVertex
100
AcDb2dVertex
 10
98.5469563555716
 20
-146.8854356186606
 30
0.0
  0
VERTEX
  5
102
330
FF
100
AcDbEntity
  8
_U+30EC_U+30A4_U+30E4_U+30FC 1
370
     0
100
AcDbVertex
100
AcDb2dVertex
 10
98.5469563555716
 20
-147.2261555621518
 30
0.0
  0
VERTEX
  5
103
330
FF
100
AcDbEntity
  8
_U+30EC_U+30A4_U+30E4_U+30FC 1
370
     0
100
AcDbVertex
100
AcDb2dVertex
 10
98.67408037897732
 20
-147.2261555621518
 30
0.0
  0
VERTEX
  5
104
330
FF
100
AcDbEntity
  8
_U+30EC_U+30A4_U+30E4_U+30FC 1
370
     0
100
AcDbVertex
100
AcDb2dVertex
 10
98.67408037897732
 20
-146.8854356186606
 30
0.0
  0
SEQEND
  5
105
330
FF
100
AcDbEntity
  8
_U+30EC_U+30A4_U+30E4_U+30FC 1
370
     0
  0
HATCH
  5
106
330
AC
100
AcDbEntity
  8
_U+30EC_U+30A4_U+30E4_U+30FC 1
 62
   179
420
  2234388
100
AcDbHatch
 10
0.0
 20
0.0
 30
0.0
210
0.0
220
0.0
230
1.0
  2
SOLID
 70
     1
 71
     0
 91
        6
 92
        1
 93
        1
 72
     4
 94
        3
 73
     0
 74
     1
 95
      158
 96
      154
 40
0.0
 40
0.0
 40
0.0
 40
0.0
 40
1.0
 40
1.0
 40
1.0
 40
2.0
 40
2.0
 40
2.0
 40
3.0
 40
3.0
 40
3.0
 40
4.0
 40
4.0
 40
4.0
 40
5.0
 40
5.0
 40
5.0
 40
6.0
 40
6.0
 40
6.0
 40
7.0
 40
7.0
 40
7.0
 40
8.0
 40
8.0
 40
8.0
 40
9.0
 40
9.0
 40
9.0
 40
10.0
 40
10.0
 40
10.0
 40
11.0
 40
11.0
 40
11.0
 40
12.0
 40
12.0
 40
12.0
 40
13.0
 40
13.0
 40
13.0
 40
14.0
 40
14.0
 40
14.0
 40
15.0
 40
15.0
 40
15.0
 40
16.0
 40
16.0
 40
16.0
 40
17.0
 40
17.0
 40
17.0
 40
18.0
 40
18.0
 40
18.0
 40
19.0
 40
19.0
 40
19.0
 40
20.0
 40
20.0
 40
20.0
 40
21.0
 40
21.0
 40
21.0
 40
22.0
 40
22.0
 40
22.0
 40
23.0
 40
23.0
 40
23.0
 40
24.0
 40
24.0
 40
24.0
 40
25.0
 40
25.0
 40
25.0
 40
26.0
 40
26.0
 40
26.0
 40
27.0
 40
27.0
 40
27.0
 40
28.0
 40
28.0
 40
28.0
 40
29.0
 40
29.0
 40
29.0
 40
30.0
 40
30.0
 40
30.0
 40
31.0
 40
31.0
 40
31.0
 40
32.0
 40
32.0
 40
32.0
 40
33.0
 40
33.0
 40
33.0
 40
34.0
 40
34.0
 40
34.0
 40
35.0
 40
35.0
 40
35.0
 40
36.0
 40
36.0
 40
36.0
 40
37.0
 40
37.0
 40
37.0
 40
38.0
 40
38.0
 40
38.0
 40
39.0
 40
39.0
 40
39.0
 40
40.0
 40
40.0
 40
40.0
 40
41.0
 40
41.0
 40
41.0
 40
42.0
 40
42.0
 40
42.0
 40
43.0
 40
43.0
 40
43.0
 40
44.0
 40
44.0
 40
44.0
 40
45.0
 40
45.0
 40
45.0
 40
46.0
 40
46.0
 40
46.0
 40
47.0
 40
47.0
 40
47.0
 40
48.0
 40
48.0
 40
48.0
 40
49.0
 40
49.0
 40
49.0
 40
50.0
 40
50.0
 40
50.0
 40
51.0
 40
51.0
 40
51.0
 40
51.0
 10
98.5510904701539
 20
-145.9421684747992
 10
98.5510904701539
 20
-145.9421684747992
 10
98.0243353704592
 20
-145.9421684747992
 10
98.0243353704592
 20
-145.9421684747992
 10
98.00538734529033
 20
-145.9738633532635
 10
98.00538734529033
 20
-145.9738633532635
 10
97.93579641648827
 20
-146.0775607273695
 10
97.9926404919949
 20
-146.0796277846607
 10
98.12803274456522
 20
-146.0816948419518
 10
98.18522132962036
 20
-146.0816948419518
 10
98.18522132962036
 20
-146.0816948419518
 10
98.51319441981614
 20
-146.0816948419518
 10
98.51319441981614
 20
-146.0816948419518
 10
98.64445255780417
 20
-146.0816948419518
 10
98.68889428956389
 20
-146.0775607273695
 10
98.78397892495678
 20
-146.0730821032387
 10
98.77984481037448
 20
-146.1495632230112
 10
98.77743324353482
 20
-146.1960720120621
 10
98.77743324353482
 20
-146.2594617689907
 10
98.77743324353482
 20
-146.2594617689907
 10
98.77743324353482
 20
-146.3969210788522
 10
98.77743324353482
 20
-146.3969210788522
 10
98.77743324353482
 20
-146.5174994208359
 10
98.77984481037448
 20
-146.5302462741313
 10
98.78604598224794
 20
-146.6022487697731
 10
98.6696017548465
 20
-146.5957030883511
 10
98.63583981909105
 20
-146.5957030883511
 10
98.5152614771073
 20
-146.5957030883511
 10
98.5152614771073
 20
-146.5957030883511
 10
98.19796818291579
 20
-146.5957030883511
 10
98.19796818291579
 20
-146.5957030883511
 10
98.10908471939635
 20
-146.5957030883511
 10
98.0160671412946
 20
-146.5998372029334
 10
97.88067488872429
 20
-146.6063828843554
 10
97.88480900330659
 20
-146.5491942993002
 10
97.88687606059773
 20
-146.4920057142451
 10
97.88687606059773
 20
-146.4351616387384
 10
97.88687606059773
 20
-146.4351616387384
 10
97.88687606059773
 20
-146.2742756795773
 10
97.88687606059773
 20
-146.2742756795773
 10
97.88687606059773
 20
-146.2319010051087
 10
97.88687606059773
 20
-146.2232882663956
 10
97.88480900330659
 20
-146.1536973375935
 10
97.87654077414199
 20
-146.1685112481801
 10
97.87206215001116
 20
-146.1705783054713
 10
97.85724823942458
 20
-146.1915933879313
 10
97.85724823942458
 20
-146.1915933879313
 10
97.72840166827623
 20
-146.1133897204161
 10
97.72840166827623
 20
-146.1133897204161
 10
97.72840166827623
 20
-146.1133897204161
 10
97.72840166827623
 20
-146.2232882663956
 10
97.72840166827623
 20
-146.2232882663956
 10
97.67741425509453
 20
-146.2170870945221
 10
97.60334470216166
 20
-146.2170870945221
 10
97.56958276640621
 20
-146.2170870945221
 10
97.56958276640621
 20
-146.2170870945221
 10
97.50205889489533
 20
-146.2170870945221
 10
97.50205889489533
 20
-146.2170870945221
 10
97.50205889489533
 20
-146.2170870945221
 10
97.50205889489533
 20
-146.7862168686854
 10
97.50205889489533
 20
-146.7862168686854
 10
97.53375377335962
 20
-146.7796711872634
 10
97.64571937663024
 20
-146.7565890475123
 10
97.74321557886282
 20
-146.7228271117568
 10
97.74321557886282
 20
-146.7228271117568
 10
97.72392304414541
 20
-146.8961154146649
 10
97.72392304414541
 20
-146.8961154146649
 10
97.68189287922536
 20
-146.9129963825426
 10
97.65226505805222
 20
-146.9236761785469
 10
97.49551321347334
 20
-146.9701849675977
 10
97.40249563537161
 20
-146.9977457314797
 10
97.25435652950586
 20
-147.0421874632395
 10
97.16133895140412
 20
-147.0697482271215
 10
97.15720483682182
 20
-147.0948974241638
 10
97.152726212691
 20
-147.1162570161723
 10
97.13377818752211
 20
-147.1162570161723
 10
97.11483016235324
 20
-147.1162570161723
 10
97.10862899047979
 20
-147.1014431055858
 10
97.10415036634896
 20
-147.0886962522903
 10
97.10415036634896
 20
-147.0886962522903
 10
97.03662649483807
 20
-146.8623534789094
 10
97.03662649483807
 20
-146.8623534789094
 10
97.20164656858154
 20
-146.8409938869009
 10
97.23334144704583
 20
-146.8368597723186
 10
97.31774628643446
 20
-146.822045861732
 10
97.31774628643446
 20
-146.822045861732
 10
97.31774628643446
 20
-146.2170870945221
 10
97.31774628643446
 20
-146.2170870945221
 10
97.31774628643446
 20
-146.2170870945221
 10
97.26710338280128
 20
-146.2170870945221
 10
97.26710338280128
 20
-146.2170870945221
 10
97.19096677257727
 20
-146.2170870945221
 10
97.09588213718436
 20
-146.2232882663956
 10
97.07245548788467
 20
-146.2256998332352
 10
97.07245548788467
 20
-146.2256998332352
 10
97.07245548788467
 20
-146.0434542820655
 10
97.07245548788467
 20
-146.0434542820655
 10
97.12964407293981
 20
-146.0520670207787
 10
97.23540850433699
 20
-146.0541340780698
 10
97.24815535763241
 20
-146.0541340780698
 10
97.24815535763241
 20
-146.0541340780698
 10
97.31774628643446
 20
-146.0541340780698
 10
97.31774628643446
 20
-146.0541340780698
 10
97.31774628643446
 20
-146.0541340780698
 10
97.31774628643446
 20
-145.677585141532
 10
97.31774628643446
 20
-145.677585141532
 10
97.31774628643446
 20
-145.6310763524811
 10
97.31567922914331
 20
-145.5973144167257
 10
97.31361217185216
 20
-145.5611409141306
 10
97.31361217185216
 20
-145.5611409141306
 10
97.51893986277305
 20
-145.5783663915568
 10
97.51893986277305
 20
-145.5783663915568
 10
97.53168671606848
 20
-145.5783663915568
 10
97.55476885581965
 20
-145.5825005061391
 10
97.55476885581965
 20
-145.601448531308
 10
97.55476885581965
 20
-145.6228081233165
 10
97.53168671606848
 20
-145.6352104670634
 10
97.51032712405993
 20
-145.6458902630677
 10
97.50205889489533
 20
-145.7960964262246
 10
97.50205889489533
 20
-145.8701659791575
 10
97.50205889489533
 20
-146.0541340780698
 10
97.50205889489533
 20
-146.0541340780698
 10
97.56958276640621
 20
-146.0541340780698
 10
97.56958276640621
 20
-146.0541340780698
 10
97.61609155545709
 20
-146.0541340780698
 10
97.67948131238569
 20
-146.0499999634875
 10
97.72392304414541
 20
-146.0393201674832
 10
97.84691295296884
 20
-145.8997938003306
 10
97.9292507350663
 20
-145.6944661094097
 10
97.95887855623945
 20
-145.5508056276748
 10
97.95887855623945
 20
-145.5508056276748
 10
98.1745415336161
 20
-145.6035155885991
 10
98.1745415336161
 20
-145.6035155885991
 10
98.18522132962036
 20
-145.6055826458903
 10
98.20210229749809
 20
-145.6121283273123
 10
98.20210229749809
 20
-145.6269422378988
 10
98.20210229749809
 20
-145.6479573203588
 10
98.18108721503806
 20
-145.6520914349412
 10
98.14732527928261
 20
-145.6607041736543
 10
98.12389862998292
 20
-145.7220268732917
 10
98.11769745810948
 20
-145.7409748984606
 10
98.10047198068322
 20
-145.781282515638
 10
98.10047198068322
 20
-145.781282515638
 10
98.54488929828045
 20
-145.781282515638
 10
98.54488929828045
 20
-145.781282515638
 10
98.78811303953908
 20
-145.781282515638
 10
98.81360674612993
 20
-145.7750813437646
 10
98.9469319414091
 20
-145.7644015477603
 10
98.9469319414091
 20
-145.7644015477603
 10
98.9469319414091
 20
-145.9525037612549
 10
98.9469319414091
 20
-145.9525037612549
 10
98.83910045272079
 20
-145.9442355320903
 10
98.55763615157588
 20
-145.9421684747992
 10
98.5510904701539
 20
-145.9421684747992
 97
        0
 97
        0
 92
        1
 93
        1
 72
     4
 94
        3
 73
     0
 74
     1
 95
       47
 96
       43
 40
0.0
 40
0.0
 40
0.0
 40
0.0
 40
1.0
 40
1.0
 40
1.0
 40
2.0
 40
2.0
 40
2.0
 40
3.0
 40
3.0
 40
3.0
 40
4.0
 40
4.0
 40
4.0
 40
5.0
 40
5.0
 40
5.0
 40
6.0
 40
6.0
 40
6.0
 40
7.0
 40
7.0
 40
7.0
 40
8.0
 40
8.0
 40
8.0
 40
9.0
 40
9.0
 40
9.0
 40
10.0
 40
10.0
 40
10.0
 40
11.0
 40
11.0
 40
11.0
 40
12.0
 40
12.0
 40
12.0
 40
13.0
 40
13.0
 40
13.0
 40
14.0
 40
14.0
 40
14.0
 40
14.0
 10
98.6062119979179
 20
-147.3932426931864
 10
98.6062119979179
 20
-147.3932426931864
 10
98.03914928104577
 20
-147.3932426931864
 10
98.03914928104577
 20
-147.3932426931864
 10
97.9926404919949
 20
-147.3932426931864
 10
97.74114852157166
 20
-147.3953097504776
 10
97.59300941570592
 20
-147.4101236610641
 10
97.59300941570592
 20
-147.4101236610641
 10
97.59300941570592
 20
-147.228222619443
 10
97.59300941570592
 20
-147.228222619443
 10
97.67121308322109
 20
-147.2327012435738
 10
97.70910913355884
 20
-147.2347683008649
 10
97.79799259707828
 20
-147.2368353581561
 10
97.79799259707828
 20
-147.2368353581561
 10
97.79799259707828
 20
-147.0146266993574
 10
97.79799259707828
 20
-147.0146266993574
 10
97.79799259707828
 20
-146.9174750066734
 10
97.79385848249598
 20
-146.8179117471497
 10
97.78765731062254
 20
-146.718348487626
 10
97.8741292073023
 20
-146.724894169048
 10
97.9885063774126
 20
-146.7310953409214
 10
98.19176701104234
 20
-146.7310953409214
 10
98.19176701104234
 20
-146.7310953409214
 10
98.511127362525
 20
-146.7310953409214
 10
98.511127362525
 20
-146.7310953409214
 10
98.51319441981614
 20
-146.7310953409214
 10
98.73333602132361
 20
-146.7290282836302
 10
98.86424964976311
 20
-146.718348487626
 10
98.85598142059851
 20
-146.8454725110317
 10
98.85391436330735
 20
-146.9384900891334
 10
98.85391436330735
 20
-146.9870659354755
 10
98.85391436330735
 20
-146.9870659354755
 10
98.85391436330735
 20
-147.2220214475695
 10
98.85391436330735
 20
-147.2220214475695
 10
98.92557234940055
 20
-147.2199543902784
 10
98.94038625998714
 20
-147.2178873329872
 10
98.98482799174685
 20
-147.2113416515652
 10
98.98482799174685
 20
-147.2113416515652
 10
98.98482799174685
 20
-147.4018554318995
 10
98.98482799174685
 20
-147.4018554318995
 10
98.85804847788965
 20
-147.3953097504776
 10
98.73333602132361
 20
-147.3932426931864
 10
98.6062119979179
 20
-147.3932426931864
 97
        0
 97
        0
 92
        1
 93
        4
 72
     1
 10
98.10047198068322
 20
-146.8854356186606
 11
97.97782658140832
 21
-146.8854356186606
 72
     1
 10
97.97782658140832
 20
-146.8854356186606
 11
97.97782658140832
 21
-147.2389024154472
 72
     1
 10
97.97782658140832
 20
-147.2389024154472
 11
98.10047198068322
 21
-147.2389024154472
 72
     1
 10
98.10047198068322
 20
-147.2389024154472
 11
98.10047198068322
 21
-146.8854356186606
 97
        0
 92
        1
 93
        4
 72
     1
 10
98.6020778833356
 20
-146.236035119691
 11
98.06257593034547
 21
-146.236035119691
 72
     1
 10
98.06257593034547
 20
-146.236035119691
 11
98.06257593034547
 21
-146.4454969251942
 72
     1
 10
98.06257593034547
 20
-146.4454969251942
 11
98.6020778833356
 21
-146.4454969251942
 72
     1
 10
98.6020778833356
 20
-146.4454969251942
 11
98.6020778833356
 21
-146.236035119691
 97
        0
 92
        1
 93
        4
 72
     1
 10
98.38607039641043
 20
-146.8878471855003
 11
98.25929088255323
 21
-146.8878471855003
 72
     1
 10
98.25929088255323
 20
-146.8878471855003
 11
98.25929088255323
 21
-147.2327012435738
 72
     1
 10
98.25929088255323
 20
-147.2327012435738
 11
98.38607039641043
 21
-147.2327012435738
 72
     1
 10
98.38607039641043
 20
-147.2327012435738
 11
98.38607039641043
 21
-146.8878471855003
 97
        0
 92
        1
 93
        4
 72
     1
 10
98.67408037897732
 20
-146.8854356186606
 11
98.5469563555716
 21
-146.8854356186606
 72
     1
 10
98.5469563555716
 20
-146.8854356186606
 11
98.5469563555716
 21
-147.2261555621518
 72
     1
 10
98.5469563555716
 20
-147.2261555621518
 11
98.67408037897732
 21
-147.2261555621518
 72
     1
 10
98.67408037897732
 20
-147.2261555621518
 11
98.67408037897732
 21
-146.8854356186606
 97
        0
 75
     2
 76
     1
 98
        0
  0
SPLINE
  5
107
330
AC
100
AcDbEntity
  8
_U+30EC_U+30A4_U+30E4_U+30FC 1
370
     0
100
AcDbSpline
210
0.0
220
0.0
230
1.0
 70
    11
 71
     3
 72
    74
 73
    70
 74
     0
 42
0.0000000001
 43
0.0000000001
 12
1.0
 22
0.0
 32
0.0
 13
1.0
 23
0.0
 33
0.0
 40
0.0
 40
0.0
 40
0.0
 40
0.0
 40
1.0
 40
1.0
 40
1.0
 40
2.0
 40
2.0
 40
2.0
 40
3.0
 40
3.0
 40
3.0
 40
4.0
 40
4.0
 40
4.0
 40
5.0
 40
5.0
 40
5.0
 40
6.0
 40
6.0
 40
6.0
 40
7.0
 40
7.0
 40
7.0
 40
8.0
 40
8.0
 40
8.0
 40
9.0
 40
9.0
 40
9.0
 40
10.0
 40
10.0
 40
10.0
 40
11.0
 40
11.0
 40
11.0
 40
12.0
 40
12.0
 40
12.0
 40
13.0
 40
13.0
 40
13.0
 40
14.0
 40
14.0
 40
14.0
 40
15.0
 40
15.0
 40
15.0
 40
16.0
 40
16.0
 40
16.0
 40
17.0
 40
17.0
 40
17.0
 40
18.0
 40
18.0
 40
18.0
 40
19.0
 40
19.0
 40
19.0
 40
20.0
 40
20.0
 40
20.0
 40
21.0
 40
21.0
 40
21.0
 40
22.0
 40
22.0
 40
22.0
 40
23.0
 40
23.0
 40
23.0
 40
23.0
 10
99.92327200192891
 20
-147.3212401975447
 30
0.0
 10
99.31796872517052
 20
-147.3212401975447
 30
0.0
 10
99.24837779636846
 20
-147.2134087088564
 30
0.0
 10
99.24837779636846
 20
-146.8919813000826
 30
0.0
 10
99.24837779636846
 20
-146.8919813000826
 30
0.0
 10
99.24837779636846
 20
-146.2553276544084
 30
0.0
 10
99.24837779636846
 20
-146.2553276544084
 30
0.0
 10
99.24837779636846
 20
-146.1071885485427
 30
0.0
 10
99.24837779636846
 20
-145.9228759400818
 30
0.0
 10
99.24631073907732
 20
-145.80884327952
 30
0.0
 10
99.24424368178616
 20
-145.7433864653003
 30
0.0
 10
99.24183211494649
 20
-145.7158257014183
 30
0.0
 10
99.23769800036419
 20
-145.6734510269497
 30
0.0
 10
99.23769800036419
 20
-145.6734510269497
 30
0.0
 10
99.48953448033595
 20
-145.7199598160006
 30
0.0
 10
99.48953448033595
 20
-145.7199598160006
 30
0.0
 10
99.52122935880026
 20
-145.726160987874
 30
0.0
 10
99.54017738396912
 20
-145.7285725547137
 30
0.0
 10
99.54017738396912
 20
-145.7578558663383
 30
0.0
 10
99.54017738396912
 20
-145.7706027196338
 30
0.0
 10
99.53397621209568
 20
-145.7833495729292
 30
0.0
 10
99.5274305306737
 20
-145.7919623116423
 30
0.0
 10
99.50434839092253
 20
-145.8195230755243
 30
0.0
 10
99.50021427634023
 20
-145.8236571901066
 30
0.0
 10
99.48540036575365
 20
-145.8491508966974
 30
0.0
 10
99.47885468433168
 20
-145.9294216215038
 30
0.0
 10
99.46197371645395
 20
-146.1981390693533
 30
0.0
 10
99.45990665916281
 20
-146.2656629408642
 30
0.0
 10
99.45990665916281
 20
-146.2656629408642
 30
0.0
 10
99.45783960187165
 20
-146.3504122898013
 30
0.0
 10
99.45783960187165
 20
-146.3504122898013
 30
0.0
 10
99.5825520584377
 20
-146.3483452325102
 30
0.0
 10
100.1220540114278
 20
-146.2129529799398
 30
0.0
 10
100.4266004523239
 20
-146.0393201674832
 30
0.0
 10
100.4266004523239
 20
-146.0393201674832
 30
0.0
 10
100.5492458515988
 20
-146.2529160875687
 30
0.0
 10
100.5492458515988
 20
-146.2529160875687
 30
0.0
 10
100.5537244757296
 20
-146.2594617689907
 30
0.0
 10
100.5619927048942
 20
-146.2763427368684
 30
0.0
 10
100.5619927048942
 20
-146.2870225328727
 30
0.0
 10
100.5619927048942
 20
-146.2973578193285
 30
0.0
 10
100.5537244757296
 20
-146.3080376153327
 30
0.0
 10
100.5282307691388
 20
-146.3080376153327
 30
0.0
 10
100.5154839158434
 20
-146.3080376153327
 30
0.0
 10
100.5048041198391
 20
-146.3080376153327
 30
0.0
 10
100.4775878655056
 20
-146.2870225328727
 30
0.0
 10
100.0924261902547
 20
-146.415869104021
 30
0.0
 10
99.96978079097978
 20
-146.4496310397765
 30
0.0
 10
99.82164168511405
 20
-146.4792588609496
 30
0.0
 10
99.69899628583914
 20
-146.5047525675405
 30
0.0
 10
99.53190915480452
 20
-146.5343803887136
 30
0.0
 10
99.45783960187165
 20
-146.5364474460048
 30
0.0
 10
99.45783960187165
 20
-146.5364474460048
 30
0.0
 10
99.45783960187165
 20
-146.8813015040783
 30
0.0
 10
99.45783960187165
 20
-146.8813015040783
 30
0.0
 10
99.45783960187165
 20
-146.9088622679603
 30
0.0
 10
99.45783960187165
 20
-147.0253064953617
 30
0.0
 10
99.51054956279597
 20
-147.0652696029906
 30
0.0
 10
99.59943302631542
 20
-147.1331379840501
 30
0.0
 10
99.80269365994516
 20
-147.1438177800543
 30
0.0
 10
99.91672632050694
 20
-147.1438177800543
 30
0.0
 10
100.0882920756724
 20
-147.1438177800543
 30
0.0
 10
100.4266004523239
 20
-147.1014431055858
 30
0.0
 10
100.5809407300631
 20
-147.0401204059483
 30
0.0
 10
100.5809407300631
 20
-147.0401204059483
 30
0.0
 10
100.5833522969028
 20
-147.2726643512027
 30
0.0
 10
100.5833522969028
 20
-147.2726643512027
 30
0.0
 10
100.3632106953953
 20
-147.304359229667
 30
0.0
 10
100.1430690938878
 20
-147.3212401975447
 30
0.0
 10
99.92327200192891
 20
-147.3212401975447
 30
0.0
  0
SPLINE
  5
108
330
AC
100
AcDbEntity
  8
_U+30EC_U+30A4_U+30E4_U+30FC 1
370
     0
100
AcDbSpline
210
0.0
220
0.0
230
1.0
 70
    11
 71
     3
 72
    17
 73
    13
 74
     0
 42
0.0000000001
 43
0.0000000001
 12
1.0
 22
0.0
 32
0.0
 13
1.0
 23
0.0
 33
0.0
 40
0.0
 40
0.0
 40
0.0
 40
0.0
 40
1.0
 40
1.0
 40
1.0
 40
2.0
 40
2.0
 40
2.0
 40
3.0
 40
3.0
 40
3.0
 40
4.0
 40
4.0
 40
4.0
 40
4.0
 10
100.5196180304257
 20
-145.9697292386812
 30
0.0
 10
100.4669080695013
 20
-145.8997938003306
 30
0.0
 10
100.3463297275176
 20
-145.8109103368112
 30
0.0
 10
100.2657144931627
 20
-145.7750813437646
 30
0.0
 10
100.2657144931627
 20
-145.7750813437646
 30
0.0
 10
100.359076580813
 20
-145.656570059072
 30
0.0
 10
100.359076580813
 20
-145.656570059072
 30
0.0
 10
100.4500271016236
 20
-145.6903319948274
 30
0.0
 10
100.5537244757296
 20
-145.7726697769249
 30
0.0
 10
100.6191812899494
 20
-145.8467393298578
 30
0.0
 10
100.6191812899494
 20
-145.8467393298578
 30
0.0
 10
100.5196180304257
 20
-145.9697292386812
 30
0.0
 10
100.5196180304257
 20
-145.9697292386812
 30
0.0
  0
SPLINE
  5
109
330
AC
100
AcDbEntity
  8
_U+30EC_U+30A4_U+30E4_U+30FC 1
370
     0
100
AcDbSpline
210
0.0
220
0.0
230
1.0
 70
    11
 71
     3
 72
    17
 73
    13
 74
     0
 42
0.0000000001
 43
0.0000000001
 12
1.0
 22
0.0
 32
0.0
 13
1.0
 23
0.0
 33
0.0
 40
0.0
 40
0.0
 40
0.0
 40
0.0
 40
1.0
 40
1.0
 40
1.0
 40
2.0
 40
2.0
 40
2.0
 40
3.0
 40
3.0
 40
3.0
 40
4.0
 40
4.0
 40
4.0
 40
4.0
 10
100.7904025355663
 20
-145.7940293689335
 30
0.0
 10
100.6846381041691
 20
-145.6989447335405
 30
0.0
 10
100.6805039895868
 20
-145.6989447335405
 30
0.0
 10
100.5302978264299
 20
-145.6035155885991
 30
0.0
 10
100.5302978264299
 20
-145.6035155885991
 30
0.0
 10
100.6319281432448
 20
-145.4850043039065
 30
0.0
 10
100.6319281432448
 20
-145.4850043039065
 30
0.0
 10
100.73114689322
 20
-145.5294460356663
 30
0.0
 10
100.7969482169883
 20
-145.5783663915568
 30
0.0
 10
100.8878987377989
 20
-145.677585141532
 30
0.0
 10
100.8878987377989
 20
-145.677585141532
 30
0.0
 10
100.7904025355663
 20
-145.7940293689335
 30
0.0
 10
100.7904025355663
 20
-145.7940293689335
 30
0.0
  0
HATCH
  5
10A
330
AC
100
AcDbEntity
  8
_U+30EC_U+30A4_U+30E4_U+30FC 1
 62
   179
420
  2234388
100
AcDbHatch
 10
0.0
 20
0.0
 30
0.0
210
0.0
220
0.0
230
1.0
  2
SOLID
 70
     1
 71
     0
 91
        3
 92
        1
 93
        1
 72
     4
 94
        3
 73
     0
 74
     1
 95
       74
 96
       70
 40
0.0
 40
0.0
 40
0.0
 40
0.0
 40
1.0
 40
1.0
 40
1.0
 40
2.0
 40
2.0
 40
2.0
 40
3.0
 40
3.0
 40
3.0
 40
4.0
 40
4.0
 40
4.0
 40
5.0
 40
5.0
 40
5.0
 40
6.0
 40
6.0
 40
6.0
 40
7.0
 40
7.0
 40
7.0
 40
8.0
 40
8.0
 40
8.0
 40
9.0
 40
9.0
 40
9.0
 40
10.0
 40
10.0
 40
10.0
 40
11.0
 40
11.0
 40
11.0
 40
12.0
 40
12.0
 40
12.0
 40
13.0
 40
13.0
 40
13.0
 40
14.0
 40
14.0
 40
14.0
 40
15.0
 40
15.0
 40
15.0
 40
16.0
 40
16.0
 40
16.0
 40
17.0
 40
17.0
 40
17.0
 40
18.0
 40
18.0
 40
18.0
 40
19.0
 40
19.0
 40
19.0
 40
20.0
 40
20.0
 40
20.0
 40
21.0
 40
21.0
 40
21.0
 40
22.0
 40
22.0
 40
22.0
 40
23.0
 40
23.0
 40
23.0
 40
23.0
 10
99.92327200192891
 20
-147.3212401975447
 10
99.31796872517052
 20
-147.3212401975447
 10
99.24837779636846
 20
-147.2134087088564
 10
99.24837779636846
 20
-146.8919813000826
 10
99.24837779636846
 20
-146.8919813000826
 10
99.24837779636846
 20
-146.2553276544084
 10
99.24837779636846
 20
-146.2553276544084
 10
99.24837779636846
 20
-146.1071885485427
 10
99.24837779636846
 20
-145.9228759400818
 10
99.24631073907732
 20
-145.80884327952
 10
99.24424368178616
 20
-145.7433864653003
 10
99.24183211494649
 20
-145.7158257014183
 10
99.23769800036419
 20
-145.6734510269497
 10
99.23769800036419
 20
-145.6734510269497
 10
99.48953448033595
 20
-145.7199598160006
 10
99.48953448033595
 20
-145.7199598160006
 10
99.52122935880026
 20
-145.726160987874
 10
99.54017738396912
 20
-145.7285725547137
 10
99.54017738396912
 20
-145.7578558663383
 10
99.54017738396912
 20
-145.7706027196338
 10
99.53397621209568
 20
-145.7833495729292
 10
99.5274305306737
 20
-145.7919623116423
 10
99.50434839092253
 20
-145.8195230755243
 10
99.50021427634023
 20
-145.8236571901066
 10
99.48540036575365
 20
-145.8491508966974
 10
99.47885468433168
 20
-145.9294216215038
 10
99.46197371645395
 20
-146.1981390693533
 10
99.45990665916281
 20
-146.2656629408642
 10
99.45990665916281
 20
-146.2656629408642
 10
99.45783960187165
 20
-146.3504122898013
 10
99.45783960187165
 20
-146.3504122898013
 10
99.5825520584377
 20
-146.3483452325102
 10
100.1220540114278
 20
-146.2129529799398
 10
100.4266004523239
 20
-146.0393201674832
 10
100.4266004523239
 20
-146.0393201674832
 10
100.5492458515988
 20
-146.2529160875687
 10
100.5492458515988
 20
-146.2529160875687
 10
100.5537244757296
 20
-146.2594617689907
 10
100.5619927048942
 20
-146.2763427368684
 10
100.5619927048942
 20
-146.2870225328727
 10
100.5619927048942
 20
-146.2973578193285
 10
100.5537244757296
 20
-146.3080376153327
 10
100.5282307691388
 20
-146.3080376153327
 10
100.5154839158434
 20
-146.3080376153327
 10
100.5048041198391
 20
-146.3080376153327
 10
100.4775878655056
 20
-146.2870225328727
 10
100.0924261902547
 20
-146.415869104021
 10
99.96978079097978
 20
-146.4496310397765
 10
99.82164168511405
 20
-146.4792588609496
 10
99.69899628583914
 20
-146.5047525675405
 10
99.53190915480452
 20
-146.5343803887136
 10
99.45783960187165
 20
-146.5364474460048
 10
99.45783960187165
 20
-146.5364474460048
 10
99.45783960187165
 20
-146.8813015040783
 10
99.45783960187165
 20
-146.8813015040783
 10
99.45783960187165
 20
-146.9088622679603
 10
99.45783960187165
 20
-147.0253064953617
 10
99.51054956279597
 20
-147.0652696029906
 10
99.59943302631542
 20
-147.1331379840501
 10
99.80269365994516
 20
-147.1438177800543
 10
99.91672632050694
 20
-147.1438177800543
 10
100.0882920756724
 20
-147.1438177800543
 10
100.4266004523239
 20
-147.1014431055858
 10
100.5809407300631
 20
-147.0401204059483
 10
100.5809407300631
 20
-147.0401204059483
 10
100.5833522969028
 20
-147.2726643512027
 10
100.5833522969028
 20
-147.2726643512027
 10
100.3632106953953
 20
-147.304359229667
 10
100.1430690938878
 20
-147.3212401975447
 10
99.92327200192891
 20
-147.3212401975447
 97
        0
 97
        0
 92
        1
 93
        1
 72
     4
 94
        3
 73
     0
 74
     1
 95
       17
 96
       13
 40
0.0
 40
0.0
 40
0.0
 40
0.0
 40
1.0
 40
1.0
 40
1.0
 40
2.0
 40
2.0
 40
2.0
 40
3.0
 40
3.0
 40
3.0
 40
4.0
 40
4.0
 40
4.0
 40
4.0
 10
100.5196180304257
 20
-145.9697292386812
 10
100.4669080695013
 20
-145.8997938003306
 10
100.3463297275176
 20
-145.8109103368112
 10
100.2657144931627
 20
-145.7750813437646
 10
100.2657144931627
 20
-145.7750813437646
 10
100.359076580813
 20
-145.656570059072
 10
100.359076580813
 20
-145.656570059072
 10
100.4500271016236
 20
-145.6903319948274
 10
100.5537244757296
 20
-145.7726697769249
 10
100.6191812899494
 20
-145.8467393298578
 10
100.6191812899494
 20
-145.8467393298578
 10
100.5196180304257
 20
-145.9697292386812
 10
100.5196180304257
 20
-145.9697292386812
 97
        0
 97
        0
 92
        1
 93
        1
 72
     4
 94
        3
 73
     0
 74
     1
 95
       17
 96
       13
 40
0.0
 40
0.0
 40
0.0
 40
0.0
 40
1.0
 40
1.0
 40
1.0
 40
2.0
 40
2.0
 40
2.0
 40
3.0
 40
3.0
 40
3.0
 40
4.0
 40
4.0
 40
4.0
 40
4.0
 10
100.7904025355663
 20
-145.7940293689335
 10
100.6846381041691
 20
-145.6989447335405
 10
100.6805039895868
 20
-145.6989447335405
 10
100.5302978264299
 20
-145.6035155885991
 10
100.5302978264299
 20
-145.6035155885991
 10
100.6319281432448
 20
-145.4850043039065
 10
100.6319281432448
 20
-145.4850043039065
 10
100.73114689322
 20
-145.5294460356663
 10
100.7969482169883
 20
-145.5783663915568
 10
100.8878987377989
 20
-145.677585141532
 10
100.8878987377989
 20
-145.677585141532
 10
100.7904025355663
 20
-145.7940293689335
 10
100.7904025355663
 20
-145.7940293689335
 97
        0
 97
        0
 75
     2
 76
     1
 98
        0
  0
ENDBLK
  5
AF
330
AC
100
AcDbEntity
  8
0
100
AcDbBlockEnd
  0
BLOCK
  5
10D
330
10B
100
AcDbEntity
  8
0
100
AcDbBlockBegin
  2
block 6
 70
     0
 10
0.0
 20
0.0
 30
0.0
  3
block 6
  1

  0
SPLINE
  5
10F
330
10B
100
AcDbEntity
  8
_U+30EC_U+30A4_U+30E4_U+30FC 1
370
     0
100
AcDbSpline
210
0.0
220
0.0
230
1.0
 70
    11
 71
     3
 72
    77
 73
    73
 74
     0
 42
0.0000000001
 43
0.0000000001
 12
1.0
 22
0.0
 32
0.0
 13
1.0
 23
0.0
 33
0.0
 40
0.0
 40
0.0
 40
0.0
 40
0.0
 40
1.0
 40
1.0
 40
1.0
 40
2.0
 40
2.0
 40
2.0
 40
3.0
 40
3.0
 40
3.0
 40
4.0
 40
4.0
 40
4.0
 40
5.0
 40
5.0
 40
5.0
 40
6.0
 40
6.0
 40
6.0
 40
7.0
 40
7.0
 40
7.0
 40
8.0
 40
8.0
 40
8.0
 40
9.0
 40
9.0
 40
9.0
 40
10.0
 40
10.0
 40
10.0
 40
11.0
 40
11.0
 40
11.0
 40
12.0
 40
12.0
 40
12.0
 40
13.0
 40
13.0
 40
13.0
 40
14.0
 40
14.0
 40
14.0
 40
15.0
 40
15.0
 40
15.0
 40
16.0
 40
16.0
 40
16.0
 40
17.0
 40
17.0
 40
17.0
 40
18.0
 40
18.0
 40
18.0
 40
19.0
 40
19.0
 40
19.0
 40
20.0
 40
20.0
 40
20.0
 40
21.0
 40
21.0
 40
21.0
 40
22.0
 40
22.0
 40
22.0
 40
23.0
 40
23.0
 40
23.0
 40
24.0
 40
24.0
 40
24.0
 40
24.0
 10
93.27079261991148
 20
-128.4023260855209
 30
0.0
 10
93.2518445947426
 20
-128.544091764739
 30
0.0
 10
93.1925889523963
 20
-128.7618217994068
 30
0.0
 10
93.1650281885143
 20
-128.8379584096308
 30
0.0
 10
93.1650281885143
 20
-128.8379584096308
 30
0.0
 10
93.25597870932489
 20
-128.8379584096308
 30
0.0
 10
93.25597870932489
 20
-128.8379584096308
 30
0.0
 10
93.30248749837577
 20
-128.8379584096308
 30
0.0
 10
93.4420138655284
 20
-128.8338242950485
 30
0.0
 10
93.48645559728811
 20
-128.8296901804662
 30
0.0
 10
93.48438853999696
 20
-128.8761989695171
 30
0.0
 10
93.48025442541466
 20
-129.0877278323114
 30
0.0
 10
93.48025442541466
 20
-129.1214897680669
 30
0.0
 10
93.48025442541466
 20
-129.1214897680669
 30
0.0
 10
93.48025442541466
 20
-129.4239691516718
 30
0.0
 10
93.48025442541466
 20
-129.4239691516718
 30
0.0
 10
93.48025442541466
 20
-129.5107855579001
 30
0.0
 10
93.48232148270581
 20
-129.5552272896598
 30
0.0
 10
93.49058971187041
 20
-129.7309271594075
 30
0.0
 10
93.36381019801321
 20
-129.7243814779856
 30
0.0
 10
93.3193684662535
 20
-129.7223144206944
 30
0.0
 10
93.23461911731636
 20
-129.7223144206944
 30
0.0
 10
93.23461911731636
 20
-129.7223144206944
 30
0.0
 10
93.12265351404572
 20
-129.7223144206944
 30
0.0
 10
93.12265351404572
 20
-129.7223144206944
 30
0.0
 10
93.12265351404572
 20
-129.7836371203319
 30
0.0
 10
93.12472057133688
 20
-129.8597737305559
 30
0.0
 10
93.12678762862802
 20
-129.8914686090202
 30
0.0
 10
93.12678762862802
 20
-129.8914686090202
 30
0.0
 10
92.94281952971569
 20
-129.8914686090202
 30
0.0
 10
92.94281952971569
 20
-129.8914686090202
 30
0.0
 10
92.94281952971569
 20
-129.8577066732647
 30
0.0
 10
92.94281952971569
 20
-129.8322129666739
 30
0.0
 10
92.95349932571996
 20
-129.6144829320061
 30
0.0
 10
92.95970049759342
 20
-129.4939045900224
 30
0.0
 10
92.95970049759342
 20
-129.4770236221446
 30
0.0
 10
92.95970049759342
 20
-129.3902072159163
 30
0.0
 10
92.95970049759342
 20
-129.3902072159163
 30
0.0
 10
92.95970049759342
 20
-129.2486137914726
 30
0.0
 10
92.95970049759342
 20
-129.2486137914726
 30
0.0
 10
92.94902070158913
 20
-129.2634277020591
 30
0.0
 10
92.94281952971569
 20
-129.2716959312237
 30
0.0
 10
92.92180444725567
 20
-129.2971896378146
 30
0.0
 10
92.92180444725567
 20
-129.2971896378146
 30
0.0
 10
92.74610457750792
 20
-129.15111758924
 30
0.0
 10
92.74610457750792
 20
-129.15111758924
 30
0.0
 10
92.79054630926764
 20
-129.1087429147714
 30
0.0
 10
92.88769800195169
 20
-129.0136582793785
 30
0.0
 10
92.97244735088884
 20
-128.7955837351622
 30
0.0
 10
93.00620928664428
 20
-128.7048054691259
 30
0.0
 10
93.05478513298631
 20
-128.544091764739
 30
0.0
 10
93.0740776677037
 20
-128.4023260855209
 30
0.0
 10
92.97451440817999
 20
-128.4023260855209
 30
0.0
 10
92.89424368337366
 20
-128.4023260855209
 30
0.0
 10
92.82430824502309
 20
-128.4149006840421
 30
0.0
 10
92.82430824502309
 20
-128.4149006840421
 30
0.0
 10
92.82430824502309
 20
-128.2245591584821
 30
0.0
 10
92.82430824502309
 20
-128.2245591584821
 30
0.0
 10
92.91732582312484
 20
-128.2414401263598
 30
0.0
 10
93.04858396111285
 20
-128.2414401263598
 30
0.0
 10
93.05719669982598
 20
-128.2414401263598
 30
0.0
 10
93.05719669982598
 20
-128.2414401263598
 30
0.0
 10
93.2918077023715
 20
-128.2414401263598
 30
0.0
 10
93.2918077023715
 20
-128.2414401263598
 30
0.0
 10
93.31316729438005
 20
-128.2414401263598
 30
0.0
 10
93.4337456363638
 20
-128.2393730690686
 30
0.0
 10
93.52469615717439
 20
-128.2245591584821
 30
0.0
 10
93.52469615717439
 20
-128.2245591584821
 30
0.0
 10
93.52469615717439
 20
-128.4149006840421
 30
0.0
 10
93.52469615717439
 20
-128.4149006840421
 30
0.0
 10
93.45269366153266
 20
-128.4023260855209
 30
0.0
 10
93.37001136988667
 20
-128.4023260855209
 30
0.0
 10
93.27079261991148
 20
-128.4023260855209
 30
0.0
  0
POLYLINE
  5
110
330
10B
100
AcDbEntity
  8
_U+30EC_U+30A4_U+30E4_U+30FC 1
370
     0
100
AcDb2dPolyline
 66
     1
 10
0.0
 20
0.0
 30
0.0
  0
VERTEX
  5
111
330
110
100
AcDbEntity
  8
_U+30EC_U+30A4_U+30E4_U+30FC 1
370
     0
100
AcDbVertex
100
AcDb2dVertex
 10
93.31316729438005
 20
-128.9967773115008
 30
0.0
  0
VERTEX
  5
112
330
110
100
AcDbEntity
  8
_U+30EC_U+30A4_U+30E4_U+30FC 1
370
     0
100
AcDbVertex
100
AcDb2dVertex
 10
93.12265351404572
 20
-128.9967773115008
 30
0.0
  0
VERTEX
  5
113
330
110
100
AcDbEntity
  8
_U+30EC_U+30A4_U+30E4_U+30FC 1
370
     0
100
AcDbVertex
100
AcDb2dVertex
 10
93.12265351404572
 20
-129.5741753148287
 30
0.0
  0
VERTEX
  5
114
330
110
100
AcDbEntity
  8
_U+30EC_U+30A4_U+30E4_U+30FC 1
370
     0
100
AcDbVertex
100
AcDb2dVertex
 10
93.31316729438005
 20
-129.5741753148287
 30
0.0
  0
VERTEX
  5
115
330
110
100
AcDbEntity
  8
_U+30EC_U+30A4_U+30E4_U+30FC 1
370
     0
100
AcDbVertex
100
AcDb2dVertex
 10
93.31316729438005
 20
-128.9967773115008
 30
0.0
  0
SEQEND
  5
116
330
110
100
AcDbEntity
  8
_U+30EC_U+30A4_U+30E4_U+30FC 1
370
     0
  0
SPLINE
  5
117
330
10B
100
AcDbEntity
  8
_U+30EC_U+30A4_U+30E4_U+30FC 1
370
     0
100
AcDbSpline
210
0.0
220
0.0
230
1.0
 70
    11
 71
     3
 72
   119
 73
   115
 74
     0
 42
0.0000000001
 43
0.0000000001
 12
1.0
 22
0.0
 32
0.0
 13
1.0
 23
0.0
 33
0.0
 40
0.0
 40
0.0
 40
0.0
 40
0.0
 40
1.0
 40
1.0
 40
1.0
 40
2.0
 40
2.0
 40
2.0
 40
3.0
 40
3.0
 40
3.0
 40
4.0
 40
4.0
 40
4.0
 40
5.0
 40
5.0
 40
5.0
 40
6.0
 40
6.0
 40
6.0
 40
7.0
 40
7.0
 40
7.0
 40
8.0
 40
8.0
 40
8.0
 40
9.0
 40
9.0
 40
9.0
 40
10.0
 40
10.0
 40
10.0
 40
11.0
 40
11.0
 40
11.0
 40
12.0
 40
12.0
 40
12.0
 40
13.0
 40
13.0
 40
13.0
 40
14.0
 40
14.0
 40
14.0
 40
15.0
 40
15.0
 40
15.0
 40
16.0
 40
16.0
 40
16.0
 40
17.0
 40
17.0
 40
17.0
 40
18.0
 40
18.0
 40
18.0
 40
19.0
 40
19.0
 40
19.0
 40
20.0
 40
20.0
 40
20.0
 40
21.0
 40
21.0
 40
21.0
 40
22.0
 40
22.0
 40
22.0
 40
23.0
 40
23.0
 40
23.0
 40
24.0
 40
24.0
 40
24.0
 40
25.0
 40
25.0
 40
25.0
 40
26.0
 40
26.0
 40
26.0
 40
27.0
 40
27.0
 40
27.0
 40
28.0
 40
28.0
 40
28.0
 40
29.0
 40
29.0
 40
29.0
 40
30.0
 40
30.0
 40
30.0
 40
31.0
 40
31.0
 40
31.0
 40
32.0
 40
32.0
 40
32.0
 40
33.0
 40
33.0
 40
33.0
 40
34.0
 40
34.0
 40
34.0
 40
35.0
 40
35.0
 40
35.0
 40
36.0
 40
36.0
 40
36.0
 40
37.0
 40
37.0
 40
37.0
 40
38.0
 40
38.0
 40
38.0
 40
38.0
 10
94.64986434265698
 20
-130.0947292426499
 30
0.0
 10
94.42145451198492
 20
-130.0630343641856
 30
0.0
 10
94.19717879589516
 20
-129.9889648112528
 30
0.0
 10
94.01114363969167
 20
-129.8494384441001
 30
0.0
 10
93.84198945136589
 20
-130.0247938042993
 30
0.0
 10
93.58808591410298
 20
-130.0757812174811
 30
0.0
 10
93.35313040200894
 20
-130.088183561228
 30
0.0
 10
93.35313040200894
 20
-130.088183561228
 30
0.0
 10
93.23909774144717
 20
-129.8914686090202
 30
0.0
 10
93.23909774144717
 20
-129.8914686090202
 30
0.0
 10
93.48438853999696
 20
-129.8935356663114
 30
0.0
 10
93.68764917362671
 20
-129.8725205838513
 30
0.0
 10
93.86713864840821
 20
-129.7116346246902
 30
0.0
 10
93.78480086631075
 20
-129.6144829320061
 30
0.0
 10
93.74449324913333
 20
-129.5255994684867
 30
0.0
 10
93.71693248525132
 20
-129.4663438261404
 30
0.0
 10
93.71693248525132
 20
-129.4663438261404
 30
0.0
 10
93.8819525589948
 20
-129.3498995987389
 30
0.0
 10
93.8819525589948
 20
-129.3498995987389
 30
0.0
 10
93.89676646958137
 20
-129.3943413304986
 30
0.0
 10
93.91812606158992
 20
-129.4556640301361
 30
0.0
 10
93.99219561452279
 20
-129.5531602323687
 30
0.0
 10
94.00907658240051
 20
-129.5169867297735
 30
0.0
 10
94.03009166486054
 20
-129.4749565648535
 30
0.0
 10
94.04077146086482
 20
-129.3350856881523
 30
0.0
 10
94.04077146086482
 20
-129.3350856881523
 30
0.0
 10
93.86713864840821
 20
-129.3350856881523
 30
0.0
 10
93.86713864840821
 20
-129.3350856881523
 30
0.0
 10
93.80168183418847
 20
-129.3350856881523
 30
0.0
 10
93.77618812759762
 20
-129.3350856881523
 30
0.0
 10
93.60703393927186
 20
-129.3436984268655
 30
0.0
 10
93.61116805385416
 20
-129.2992566951058
 30
0.0
 10
93.61771373527613
 20
-129.1066758574803
 30
0.0
 10
93.61771373527613
 20
-129.0663682403029
 30
0.0
 10
93.61771373527613
 20
-129.0663682403029
 30
0.0
 10
93.61771373527613
 20
-128.827623123175
 30
0.0
 10
93.61771373527613
 20
-128.827623123175
 30
0.0
 10
93.61771373527613
 20
-128.7979953020019
 30
0.0
 10
93.61771373527613
 20
-128.6624307946573
 30
0.0
 10
93.6049668819807
 20
-128.5354790260259
 30
0.0
 10
93.70866425608672
 20
-128.5397853953824
 30
0.0
 10
93.7234781666733
 20
-128.5397853953824
 30
0.0
 10
93.89263235499907
 20
-128.5397853953824
 30
0.0
 10
93.89263235499907
 20
-128.5397853953824
 30
0.0
 10
94.04697263273826
 20
-128.5397853953824
 30
0.0
 10
94.04697263273826
 20
-128.5397853953824
 30
0.0
 10
94.04697263273826
 20
-128.5397853953824
 30
0.0
 10
94.04697263273826
 20
-128.3938856015821
 30
0.0
 10
94.04697263273826
 20
-128.3938856015821
 30
0.0
 10
94.04697263273826
 20
-128.3938856015821
 30
0.0
 10
93.96670190793193
 20
-128.3938856015821
 30
0.0
 10
93.96670190793193
 20
-128.3938856015821
 30
0.0
 10
93.89676646958137
 20
-128.3938856015821
 30
0.0
 10
93.70866425608672
 20
-128.3980197161644
 30
0.0
 10
93.57327200351641
 20
-128.4064602001033
 30
0.0
 10
93.57327200351641
 20
-128.4064602001033
 30
0.0
 10
93.57327200351641
 20
-128.2202527891255
 30
0.0
 10
93.57327200351641
 20
-128.2202527891255
 30
0.0
 10
93.70246308421328
 20
-128.2288655278386
 30
0.0
 10
93.8819525589948
 20
-128.2329996424209
 30
0.0
 10
93.96670190793193
 20
-128.2329996424209
 30
0.0
 10
93.96670190793193
 20
-128.2329996424209
 30
0.0
 10
94.35186358318288
 20
-128.2329996424209
 30
0.0
 10
94.35186358318288
 20
-128.2329996424209
 30
0.0
 10
94.43626842257149
 20
-128.2329996424209
 30
0.0
 10
94.61610240690153
 20
-128.2288655278386
 30
0.0
 10
94.74736054488956
 20
-128.2202527891255
 30
0.0
 10
94.74736054488956
 20
-128.2202527891255
 30
0.0
 10
94.74736054488956
 20
-128.4064602001033
 30
0.0
 10
94.74736054488956
 20
-128.4064602001033
 30
0.0
 10
94.62678220290582
 20
-128.4000867734555
 30
0.0
 10
94.43006725069804
 20
-128.3938856015821
 30
0.0
 10
94.35186358318288
 20
-128.3938856015821
 30
0.0
 10
94.35186358318288
 20
-128.3938856015821
 30
0.0
 10
94.23335229849027
 20
-128.3938856015821
 30
0.0
 10
94.23335229849027
 20
-128.3938856015821
 30
0.0
 10
94.23335229849027
 20
-128.3938856015821
 30
0.0
 10
94.23335229849027
 20
-128.5397853953824
 30
0.0
 10
94.23335229849027
 20
-128.5397853953824
 30
0.0
 10
94.23335229849027
 20
-128.5397853953824
 30
0.0
 10
94.42352156927606
 20
-128.5397853953824
 30
0.0
 10
94.42352156927606
 20
-128.5397853953824
 30
0.0
 10
94.42593313611575
 20
-128.5397853953824
 30
0.0
 10
94.67535804924783
 20
-128.5354790260259
 30
0.0
 10
94.69878469854753
 20
-128.5354790260259
 30
0.0
 10
94.69671764125638
 20
-128.565106847199
 30
0.0
 10
94.6943060744167
 20
-128.5757866432033
 30
0.0
 10
94.6901719598344
 20
-128.668804221305
 30
0.0
 10
94.68810490254326
 20
-128.7533813154679
 30
0.0
 10
94.68810490254326
 20
-128.7618217994068
 30
0.0
 10
94.68810490254326
 20
-128.8062635311665
 30
0.0
 10
94.68810490254326
 20
-128.8062635311665
 30
0.0
 10
94.68810490254326
 20
-129.0791150935983
 30
0.0
 10
94.68810490254326
 20
-129.0791150935983
 30
0.0
 10
94.68810490254326
 20
-129.15111758924
 30
0.0
 10
94.69223901712556
 20
-129.2210530275906
 30
0.0
 10
94.70085175583868
 20
-129.3436984268655
 30
0.0
 10
94.61196829231923
 20
-129.3371527454435
 30
0.0
 10
94.5272189433821
 20
-129.3350856881523
 30
0.0
 10
94.41318628282032
 20
-129.3350856881523
 30
0.0
 10
94.41318628282032
 20
-129.3350856881523
 30
0.0
 10
94.2268066170683
 20
-129.3350856881523
 30
0.0
 10
94.2268066170683
 20
-129.3350856881523
 30
0.0
 10
94.20785859189942
 20
-129.5531602323687
 30
0.0
 10
94.16134980284856
 20
-129.6420436958881
 30
0.0
 10
94.12965492438425
 20
-129.6947536568124
 30
0.0
 10
94.17616371343513
 20
-129.7350612739899
 30
0.0
 10
94.22921818390797
 20
-129.7729573243276
 30
0.0
 10
94.33498261530515
 20
-129.8111978842139
 30
0.0
 10
94.47037486787546
 20
-129.8597737305559
 30
0.0
 10
94.61403534961039
 20
-129.8852674371468
 30
0.0
 10
94.75804034089383
 20
-129.8914686090202
 30
0.0
 10
94.75804034089383
 20
-129.8914686090202
 30
0.0
 10
94.64986434265698
 20
-130.0947292426499
 30
0.0
 10
94.64986434265698
 20
-130.0947292426499
 30
0.0
  0
POLYLINE
  5
118
330
10B
100
AcDbEntity
  8
_U+30EC_U+30A4_U+30E4_U+30FC 1
370
     0
100
AcDb2dPolyline
 66
     1
 10
0.0
 20
0.0
 30
0.0
  0
VERTEX
  5
119
330
118
100
AcDbEntity
  8
_U+30EC_U+30A4_U+30E4_U+30FC 1
370
     0
100
AcDbVertex
100
AcDb2dVertex
 10
94.04697263273826
 20
-128.696364985187
 30
0.0
  0
VERTEX
  5
11A
330
118
100
AcDbEntity
  8
_U+30EC_U+30A4_U+30E4_U+30FC 1
370
     0
100
AcDbVertex
100
AcDb2dVertex
 10
93.79754771960617
 20
-128.696364985187
 30
0.0
  0
VERTEX
  5
11B
330
118
100
AcDbEntity
  8
_U+30EC_U+30A4_U+30E4_U+30FC 1
370
     0
100
AcDbVertex
100
AcDb2dVertex
 10
93.79754771960617
 20
-128.8507052629262
 30
0.0
  0
VERTEX
  5
11C
330
118
100
AcDbEntity
  8
_U+30EC_U+30A4_U+30E4_U+30FC 1
370
     0
100
AcDbVertex
100
AcDb2dVertex
 10
94.04697263273826
 20
-128.8507052629262
 30
0.0
  0
VERTEX
  5
11D
330
118
100
AcDbEntity
  8
_U+30EC_U+30A4_U+30E4_U+30FC 1
370
     0
100
AcDbVertex
100
AcDb2dVertex
 10
94.04697263273826
 20
-128.696364985187
 30
0.0
  0
SEQEND
  5
11E
330
118
100
AcDbEntity
  8
_U+30EC_U+30A4_U+30E4_U+30FC 1
370
     0
  0
POLYLINE
  5
11F
330
10B
100
AcDbEntity
  8
_U+30EC_U+30A4_U+30E4_U+30FC 1
370
     0
100
AcDb2dPolyline
 66
     1
 10
0.0
 20
0.0
 30
0.0
  0
VERTEX
  5
120
330
11F
100
AcDbEntity
  8
_U+30EC_U+30A4_U+30E4_U+30FC 1
370
     0
100
AcDbVertex
100
AcDb2dVertex
 10
94.04697263273826
 20
-129.0095241647962
 30
0.0
  0
VERTEX
  5
121
330
11F
100
AcDbEntity
  8
_U+30EC_U+30A4_U+30E4_U+30FC 1
370
     0
100
AcDbVertex
100
AcDb2dVertex
 10
93.79754771960617
 20
-129.0095241647962
 30
0.0
  0
VERTEX
  5
122
330
11F
100
AcDbEntity
  8
_U+30EC_U+30A4_U+30E4_U+30FC 1
370
     0
100
AcDbVertex
100
AcDb2dVertex
 10
93.79754771960617
 20
-129.1745442385397
 30
0.0
  0
VERTEX
  5
123
330
11F
100
AcDbEntity
  8
_U+30EC_U+30A4_U+30E4_U+30FC 1
370
     0
100
AcDbVertex
100
AcDb2dVertex
 10
94.04697263273826
 20
-129.1745442385397
 30
0.0
  0
VERTEX
  5
124
330
11F
100
AcDbEntity
  8
_U+30EC_U+30A4_U+30E4_U+30FC 1
370
     0
100
AcDbVertex
100
AcDb2dVertex
 10
94.04697263273826
 20
-129.0095241647962
 30
0.0
  0
SEQEND
  5
125
330
11F
100
AcDbEntity
  8
_U+30EC_U+30A4_U+30E4_U+30FC 1
370
     0
  0
POLYLINE
  5
126
330
10B
100
AcDbEntity
  8
_U+30EC_U+30A4_U+30E4_U+30FC 1
370
     0
100
AcDb2dPolyline
 66
     1
 10
0.0
 20
0.0
 30
0.0
  0
VERTEX
  5
127
330
126
100
AcDbEntity
  8
_U+30EC_U+30A4_U+30E4_U+30FC 1
370
     0
100
AcDbVertex
100
AcDb2dVertex
 10
94.49759112220895
 20
-128.696364985187
 30
0.0
  0
VERTEX
  5
128
330
126
100
AcDbEntity
  8
_U+30EC_U+30A4_U+30E4_U+30FC 1
370
     0
100
AcDbVertex
100
AcDb2dVertex
 10
94.23335229849027
 20
-128.696364985187
 30
0.0
  0
VERTEX
  5
129
330
126
100
AcDbEntity
  8
_U+30EC_U+30A4_U+30E4_U+30FC 1
370
     0
100
AcDbVertex
100
AcDb2dVertex
 10
94.23335229849027
 20
-128.8507052629262
 30
0.0
  0
VERTEX
  5
12A
330
126
100
AcDbEntity
  8
_U+30EC_U+30A4_U+30E4_U+30FC 1
370
     0
100
AcDbVertex
100
AcDb2dVertex
 10
94.49759112220895
 20
-128.8507052629262
 30
0.0
  0
VERTEX
  5
12B
330
126
100
AcDbEntity
  8
_U+30EC_U+30A4_U+30E4_U+30FC 1
370
     0
100
AcDbVertex
100
AcDb2dVertex
 10
94.49759112220895
 20
-128.696364985187
 30
0.0
  0
SEQEND
  5
12C
330
126
100
AcDbEntity
  8
_U+30EC_U+30A4_U+30E4_U+30FC 1
370
     0
  0
POLYLINE
  5
12D
330
10B
100
AcDbEntity
  8
_U+30EC_U+30A4_U+30E4_U+30FC 1
370
     0
100
AcDb2dPolyline
 66
     1
 10
0.0
 20
0.0
 30
0.0
  0
VERTEX
  5
12E
330
12D
100
AcDbEntity
  8
_U+30EC_U+30A4_U+30E4_U+30FC 1
370
     0
100
AcDbVertex
100
AcDb2dVertex
 10
94.49759112220895
 20
-129.0095241647962
 30
0.0
  0
VERTEX
  5
12F
330
12D
100
AcDbEntity
  8
_U+30EC_U+30A4_U+30E4_U+30FC 1
370
     0
100
AcDbVertex
100
AcDb2dVertex
 10
94.23335229849027
 20
-129.0095241647962
 30
0.0
  0
VERTEX
  5
130
330
12D
100
AcDbEntity
  8
_U+30EC_U+30A4_U+30E4_U+30FC 1
370
     0
100
AcDbVertex
100
AcDb2dVertex
 10
94.23335229849027
 20
-129.1745442385397
 30
0.0
  0
VERTEX
  5
131
330
12D
100
AcDbEntity
  8
_U+30EC_U+30A4_U+30E4_U+30FC 1
370
     0
100
AcDbVertex
100
AcDb2dVertex
 10
94.49759112220895
 20
-129.1745442385397
 30
0.0
  0
VERTEX
  5
132
330
12D
100
AcDbEntity
  8
_U+30EC_U+30A4_U+30E4_U+30FC 1
370
     0
100
AcDbVertex
100
AcDb2dVertex
 10
94.49759112220895
 20
-129.0095241647962
 30
0.0
  0
SEQEND
  5
133
330
12D
100
AcDbEntity
  8
_U+30EC_U+30A4_U+30E4_U+30FC 1
370
     0
  0
HATCH
  5
134
330
10B
100
AcDbEntity
  8
_U+30EC_U+30A4_U+30E4_U+30FC 1
 62
   179
420
  2234388
100
AcDbHatch
 10
0.0
 20
0.0
 30
0.0
210
0.0
220
0.0
230
1.0
  2
SOLID
 70
     1
 71
     0
 91
        7
 92
        1
 93
        1
 72
     4
 94
        3
 73
     0
 74
     1
 95
       77
 96
       73
 40
0.0
 40
0.0
 40
0.0
 40
0.0
 40
1.0
 40
1.0
 40
1.0
 40
2.0
 40
2.0
 40
2.0
 40
3.0
 40
3.0
 40
3.0
 40
4.0
 40
4.0
 40
4.0
 40
5.0
 40
5.0
 40
5.0
 40
6.0
 40
6.0
 40
6.0
 40
7.0
 40
7.0
 40
7.0
 40
8.0
 40
8.0
 40
8.0
 40
9.0
 40
9.0
 40
9.0
 40
10.0
 40
10.0
 40
10.0
 40
11.0
 40
11.0
 40
11.0
 40
12.0
 40
12.0
 40
12.0
 40
13.0
 40
13.0
 40
13.0
 40
14.0
 40
14.0
 40
14.0
 40
15.0
 40
15.0
 40
15.0
 40
16.0
 40
16.0
 40
16.0
 40
17.0
 40
17.0
 40
17.0
 40
18.0
 40
18.0
 40
18.0
 40
19.0
 40
19.0
 40
19.0
 40
20.0
 40
20.0
 40
20.0
 40
21.0
 40
21.0
 40
21.0
 40
22.0
 40
22.0
 40
22.0
 40
23.0
 40
23.0
 40
23.0
 40
24.0
 40
24.0
 40
24.0
 40
24.0
 10
93.27079261991148
 20
-128.4023260855209
 10
93.2518445947426
 20
-128.544091764739
 10
93.1925889523963
 20
-128.7618217994068
 10
93.1650281885143
 20
-128.8379584096308
 10
93.1650281885143
 20
-128.8379584096308
 10
93.25597870932489
 20
-128.8379584096308
 10
93.25597870932489
 20
-128.8379584096308
 10
93.30248749837577
 20
-128.8379584096308
 10
93.4420138655284
 20
-128.8338242950485
 10
93.48645559728811
 20
-128.8296901804662
 10
93.48438853999696
 20
-128.8761989695171
 10
93.48025442541466
 20
-129.0877278323114
 10
93.48025442541466
 20
-129.1214897680669
 10
93.48025442541466
 20
-129.1214897680669
 10
93.48025442541466
 20
-129.4239691516718
 10
93.48025442541466
 20
-129.4239691516718
 10
93.48025442541466
 20
-129.5107855579001
 10
93.48232148270581
 20
-129.5552272896598
 10
93.49058971187041
 20
-129.7309271594075
 10
93.36381019801321
 20
-129.7243814779856
 10
93.3193684662535
 20
-129.7223144206944
 10
93.23461911731636
 20
-129.7223144206944
 10
93.23461911731636
 20
-129.7223144206944
 10
93.12265351404572
 20
-129.7223144206944
 10
93.12265351404572
 20
-129.7223144206944
 10
93.12265351404572
 20
-129.7836371203319
 10
93.12472057133688
 20
-129.8597737305559
 10
93.12678762862802
 20
-129.8914686090202
 10
93.12678762862802
 20
-129.8914686090202
 10
92.94281952971569
 20
-129.8914686090202
 10
92.94281952971569
 20
-129.8914686090202
 10
92.94281952971569
 20
-129.8577066732647
 10
92.94281952971569
 20
-129.8322129666739
 10
92.95349932571996
 20
-129.6144829320061
 10
92.95970049759342
 20
-129.4939045900224
 10
92.95970049759342
 20
-129.4770236221446
 10
92.95970049759342
 20
-129.3902072159163
 10
92.95970049759342
 20
-129.3902072159163
 10
92.95970049759342
 20
-129.2486137914726
 10
92.95970049759342
 20
-129.2486137914726
 10
92.94902070158913
 20
-129.2634277020591
 10
92.94281952971569
 20
-129.2716959312237
 10
92.92180444725567
 20
-129.2971896378146
 10
92.92180444725567
 20
-129.2971896378146
 10
92.74610457750792
 20
-129.15111758924
 10
92.74610457750792
 20
-129.15111758924
 10
92.79054630926764
 20
-129.1087429147714
 10
92.88769800195169
 20
-129.0136582793785
 10
92.97244735088884
 20
-128.7955837351622
 10
93.00620928664428
 20
-128.7048054691259
 10
93.05478513298631
 20
-128.544091764739
 10
93.0740776677037
 20
-128.4023260855209
 10
92.97451440817999
 20
-128.4023260855209
 10
92.89424368337366
 20
-128.4023260855209
 10
92.82430824502309
 20
-128.4149006840421
 10
92.82430824502309
 20
-128.4149006840421
 10
92.82430824502309
 20
-128.2245591584821
 10
92.82430824502309
 20
-128.2245591584821
 10
92.91732582312484
 20
-128.2414401263598
 10
93.04858396111285
 20
-128.2414401263598
 10
93.05719669982598
 20
-128.2414401263598
 10
93.05719669982598
 20
-128.2414401263598
 10
93.2918077023715
 20
-128.2414401263598
 10
93.2918077023715
 20
-128.2414401263598
 10
93.31316729438005
 20
-128.2414401263598
 10
93.4337456363638
 20
-128.2393730690686
 10
93.52469615717439
 20
-128.2245591584821
 10
93.52469615717439
 20
-128.2245591584821
 10
93.52469615717439
 20
-128.4149006840421
 10
93.52469615717439
 20
-128.4149006840421
 10
93.45269366153266
 20
-128.4023260855209
 10
93.37001136988667
 20
-128.4023260855209
 10
93.27079261991148
 20
-128.4023260855209
 97
        0
 97
        0
 92
        1
 93
        4
 72
     1
 10
93.31316729438005
 20
-128.9967773115008
 11
93.12265351404572
 21
-128.9967773115008
 72
     1
 10
93.12265351404572
 20
-128.9967773115008
 11
93.12265351404572
 21
-129.5741753148287
 72
     1
 10
93.12265351404572
 20
-129.5741753148287
 11
93.31316729438005
 21
-129.5741753148287
 72
     1
 10
93.31316729438005
 20
-129.5741753148287
 11
93.31316729438005
 21
-128.9967773115008
 97
        0
 92
        1
 93
        1
 72
     4
 94
        3
 73
     0
 74
     1
 95
      119
 96
      115
 40
0.0
 40
0.0
 40
0.0
 40
0.0
 40
1.0
 40
1.0
 40
1.0
 40
2.0
 40
2.0
 40
2.0
 40
3.0
 40
3.0
 40
3.0
 40
4.0
 40
4.0
 40
4.0
 40
5.0
 40
5.0
 40
5.0
 40
6.0
 40
6.0
 40
6.0
 40
7.0
 40
7.0
 40
7.0
 40
8.0
 40
8.0
 40
8.0
 40
9.0
 40
9.0
 40
9.0
 40
10.0
 40
10.0
 40
10.0
 40
11.0
 40
11.0
 40
11.0
 40
12.0
 40
12.0
 40
12.0
 40
13.0
 40
13.0
 40
13.0
 40
14.0
 40
14.0
 40
14.0
 40
15.0
 40
15.0
 40
15.0
 40
16.0
 40
16.0
 40
16.0
 40
17.0
 40
17.0
 40
17.0
 40
18.0
 40
18.0
 40
18.0
 40
19.0
 40
19.0
 40
19.0
 40
20.0
 40
20.0
 40
20.0
 40
21.0
 40
21.0
 40
21.0
 40
22.0
 40
22.0
 40
22.0
 40
23.0
 40
23.0
 40
23.0
 40
24.0
 40
24.0
 40
24.0
 40
25.0
 40
25.0
 40
25.0
 40
26.0
 40
26.0
 40
26.0
 40
27.0
 40
27.0
 40
27.0
 40
28.0
 40
28.0
 40
28.0
 40
29.0
 40
29.0
 40
29.0
 40
30.0
 40
30.0
 40
30.0
 40
31.0
 40
31.0
 40
31.0
 40
32.0
 40
32.0
 40
32.0
 40
33.0
 40
33.0
 40
33.0
 40
34.0
 40
34.0
 40
34.0
 40
35.0
 40
35.0
 40
35.0
 40
36.0
 40
36.0
 40
36.0
 40
37.0
 40
37.0
 40
37.0
 40
38.0
 40
38.0
 40
38.0
 40
38.0
 10
94.64986434265698
 20
-130.0947292426499
 10
94.42145451198492
 20
-130.0630343641856
 10
94.19717879589516
 20
-129.9889648112528
 10
94.01114363969167
 20
-129.8494384441001
 10
93.84198945136589
 20
-130.0247938042993
 10
93.58808591410298
 20
-130.0757812174811
 10
93.35313040200894
 20
-130.088183561228
 10
93.35313040200894
 20
-130.088183561228
 10
93.23909774144717
 20
-129.8914686090202
 10
93.23909774144717
 20
-129.8914686090202
 10
93.48438853999696
 20
-129.8935356663114
 10
93.68764917362671
 20
-129.8725205838513
 10
93.86713864840821
 20
-129.7116346246902
 10
93.78480086631075
 20
-129.6144829320061
 10
93.74449324913333
 20
-129.5255994684867
 10
93.71693248525132
 20
-129.4663438261404
 10
93.71693248525132
 20
-129.4663438261404
 10
93.8819525589948
 20
-129.3498995987389
 10
93.8819525589948
 20
-129.3498995987389
 10
93.89676646958137
 20
-129.3943413304986
 10
93.91812606158992
 20
-129.4556640301361
 10
93.99219561452279
 20
-129.5531602323687
 10
94.00907658240051
 20
-129.5169867297735
 10
94.03009166486054
 20
-129.4749565648535
 10
94.04077146086482
 20
-129.3350856881523
 10
94.04077146086482
 20
-129.3350856881523
 10
93.86713864840821
 20
-129.3350856881523
 10
93.86713864840821
 20
-129.3350856881523
 10
93.80168183418847
 20
-129.3350856881523
 10
93.77618812759762
 20
-129.3350856881523
 10
93.60703393927186
 20
-129.3436984268655
 10
93.61116805385416
 20
-129.2992566951058
 10
93.61771373527613
 20
-129.1066758574803
 10
93.61771373527613
 20
-129.0663682403029
 10
93.61771373527613
 20
-129.0663682403029
 10
93.61771373527613
 20
-128.827623123175
 10
93.61771373527613
 20
-128.827623123175
 10
93.61771373527613
 20
-128.7979953020019
 10
93.61771373527613
 20
-128.6624307946573
 10
93.6049668819807
 20
-128.5354790260259
 10
93.70866425608672
 20
-128.5397853953824
 10
93.7234781666733
 20
-128.5397853953824
 10
93.89263235499907
 20
-128.5397853953824
 10
93.89263235499907
 20
-128.5397853953824
 10
94.04697263273826
 20
-128.5397853953824
 10
94.04697263273826
 20
-128.5397853953824
 10
94.04697263273826
 20
-128.5397853953824
 10
94.04697263273826
 20
-128.3938856015821
 10
94.04697263273826
 20
-128.3938856015821
 10
94.04697263273826
 20
-128.3938856015821
 10
93.96670190793193
 20
-128.3938856015821
 10
93.96670190793193
 20
-128.3938856015821
 10
93.89676646958137
 20
-128.3938856015821
 10
93.70866425608672
 20
-128.3980197161644
 10
93.57327200351641
 20
-128.4064602001033
 10
93.57327200351641
 20
-128.4064602001033
 10
93.57327200351641
 20
-128.2202527891255
 10
93.57327200351641
 20
-128.2202527891255
 10
93.70246308421328
 20
-128.2288655278386
 10
93.8819525589948
 20
-128.2329996424209
 10
93.96670190793193
 20
-128.2329996424209
 10
93.96670190793193
 20
-128.2329996424209
 10
94.35186358318288
 20
-128.2329996424209
 10
94.35186358318288
 20
-128.2329996424209
 10
94.43626842257149
 20
-128.2329996424209
 10
94.61610240690153
 20
-128.2288655278386
 10
94.74736054488956
 20
-128.2202527891255
 10
94.74736054488956
 20
-128.2202527891255
 10
94.74736054488956
 20
-128.4064602001033
 10
94.74736054488956
 20
-128.4064602001033
 10
94.62678220290582
 20
-128.4000867734555
 10
94.43006725069804
 20
-128.3938856015821
 10
94.35186358318288
 20
-128.3938856015821
 10
94.35186358318288
 20
-128.3938856015821
 10
94.23335229849027
 20
-128.3938856015821
 10
94.23335229849027
 20
-128.3938856015821
 10
94.23335229849027
 20
-128.3938856015821
 10
94.23335229849027
 20
-128.5397853953824
 10
94.23335229849027
 20
-128.5397853953824
 10
94.23335229849027
 20
-128.5397853953824
 10
94.42352156927606
 20
-128.5397853953824
 10
94.42352156927606
 20
-128.5397853953824
 10
94.42593313611575
 20
-128.5397853953824
 10
94.67535804924783
 20
-128.5354790260259
 10
94.69878469854753
 20
-128.5354790260259
 10
94.69671764125638
 20
-128.565106847199
 10
94.6943060744167
 20
-128.5757866432033
 10
94.6901719598344
 20
-128.668804221305
 10
94.68810490254326
 20
-128.7533813154679
 10
94.68810490254326
 20
-128.7618217994068
 10
94.68810490254326
 20
-128.8062635311665
 10
94.68810490254326
 20
-128.8062635311665
 10
94.68810490254326
 20
-129.0791150935983
 10
94.68810490254326
 20
-129.0791150935983
 10
94.68810490254326
 20
-129.15111758924
 10
94.69223901712556
 20
-129.2210530275906
 10
94.70085175583868
 20
-129.3436984268655
 10
94.61196829231923
 20
-129.3371527454435
 10
94.5272189433821
 20
-129.3350856881523
 10
94.41318628282032
 20
-129.3350856881523
 10
94.41318628282032
 20
-129.3350856881523
 10
94.2268066170683
 20
-129.3350856881523
 10
94.2268066170683
 20
-129.3350856881523
 10
94.20785859189942
 20
-129.5531602323687
 10
94.16134980284856
 20
-129.6420436958881
 10
94.12965492438425
 20
-129.6947536568124
 10
94.17616371343513
 20
-129.7350612739899
 10
94.22921818390797
 20
-129.7729573243276
 10
94.33498261530515
 20
-129.8111978842139
 10
94.47037486787546
 20
-129.8597737305559
 10
94.61403534961039
 20
-129.8852674371468
 10
94.75804034089383
 20
-129.8914686090202
 10
94.75804034089383
 20
-129.8914686090202
 10
94.64986434265698
 20
-130.0947292426499
 10
94.64986434265698
 20
-130.0947292426499
 97
        0
 97
        0
 92
        1
 93
        4
 72
     1
 10
94.04697263273826
 20
-128.696364985187
 11
93.79754771960617
 21
-128.696364985187
 72
     1
 10
93.79754771960617
 20
-128.696364985187
 11
93.79754771960617
 21
-128.8507052629262
 72
     1
 10
93.79754771960617
 20
-128.8507052629262
 11
94.04697263273826
 21
-128.8507052629262
 72
     1
 10
94.04697263273826
 20
-128.8507052629262
 11
94.04697263273826
 21
-128.696364985187
 97
        0
 92
        1
 93
        4
 72
     1
 10
94.04697263273826
 20
-129.0095241647962
 11
93.79754771960617
 21
-129.0095241647962
 72
     1
 10
93.79754771960617
 20
-129.0095241647962
 11
93.79754771960617
 21
-129.1745442385397
 72
     1
 10
93.79754771960617
 20
-129.1745442385397
 11
94.04697263273826
 21
-129.1745442385397
 72
     1
 10
94.04697263273826
 20
-129.1745442385397
 11
94.04697263273826
 21
-129.0095241647962
 97
        0
 92
        1
 93
        4
 72
     1
 10
94.49759112220895
 20
-128.696364985187
 11
94.23335229849027
 21
-128.696364985187
 72
     1
 10
94.23335229849027
 20
-128.696364985187
 11
94.23335229849027
 21
-128.8507052629262
 72
     1
 10
94.23335229849027
 20
-128.8507052629262
 11
94.49759112220895
 21
-128.8507052629262
 72
     1
 10
94.49759112220895
 20
-128.8507052629262
 11
94.49759112220895
 21
-128.696364985187
 97
        0
 92
        1
 93
        4
 72
     1
 10
94.49759112220895
 20
-129.0095241647962
 11
94.23335229849027
 21
-129.0095241647962
 72
     1
 10
94.23335229849027
 20
-129.0095241647962
 11
94.23335229849027
 21
-129.1745442385397
 72
     1
 10
94.23335229849027
 20
-129.1745442385397
 11
94.49759112220895
 21
-129.1745442385397
 72
     1
 10
94.49759112220895
 20
-129.1745442385397
 11
94.49759112220895
 21
-129.0095241647962
 97
        0
 75
     2
 76
     1
 98
        0
  0
SPLINE
  5
135
330
10B
100
AcDbEntity
  8
_U+30EC_U+30A4_U+30E4_U+30FC 1
370
     0
100
AcDbSpline
210
0.0
220
0.0
230
1.0
 70
    11
 71
     3
 72
    71
 73
    67
 74
     0
 42
0.0000000001
 43
0.0000000001
 12
1.0
 22
0.0
 32
0.0
 13
1.0
 23
0.0
 33
0.0
 40
0.0
 40
0.0
 40
0.0
 40
0.0
 40
1.0
 40
1.0
 40
1.0
 40
2.0
 40
2.0
 40
2.0
 40
3.0
 40
3.0
 40
3.0
 40
4.0
 40
4.0
 40
4.0
 40
5.0
 40
5.0
 40
5.0
 40
6.0
 40
6.0
 40
6.0
 40
7.0
 40
7.0
 40
7.0
 40
8.0
 40
8.0
 40
8.0
 40
9.0
 40
9.0
 40
9.0
 40
10.0
 40
10.0
 40
10.0
 40
11.0
 40
11.0
 40
11.0
 40
12.0
 40
12.0
 40
12.0
 40
13.0
 40
13.0
 40
13.0
 40
14.0
 40
14.0
 40
14.0
 40
15.0
 40
15.0
 40
15.0
 40
16.0
 40
16.0
 40
16.0
 40
17.0
 40
17.0
 40
17.0
 40
18.0
 40
18.0
 40
18.0
 40
19.0
 40
19.0
 40
19.0
 40
20.0
 40
20.0
 40
20.0
 40
21.0
 40
21.0
 40
21.0
 40
22.0
 40
22.0
 40
22.0
 40
22.0
 10
95.83359915138882
 20
-128.3408311311092
 30
0.0
 10
95.81912975035078
 20
-128.3408311311092
 30
0.0
 10
95.80638289705536
 20
-128.336697016527
 30
0.0
 10
95.7808891904645
 20
-128.3282565325881
 30
0.0
 10
95.63929576602074
 20
-128.374765321639
 30
0.0
 10
95.46566295356415
 20
-128.3916462895167
 30
0.0
 10
95.32613658641152
 20
-128.3959526588732
 30
0.0
 10
95.32613658641152
 20
-128.3959526588732
 30
0.0
 10
95.32406952912038
 20
-128.4848361223927
 30
0.0
 10
95.32406952912038
 20
-128.4848361223927
 30
0.0
 10
95.32406952912038
 20
-128.4848361223927
 30
0.0
 10
95.58417423825674
 20
-128.4848361223927
 30
0.0
 10
95.58417423825674
 20
-128.4848361223927
 30
0.0
 10
95.63688419918105
 20
-128.4848361223927
 30
0.0
 10
95.81912975035078
 20
-128.4762233836796
 30
0.0
 10
95.86322697256198
 20
-128.4700222118061
 30
0.0
 10
95.86322697256198
 20
-128.4700222118061
 30
0.0
 10
95.86322697256198
 20
-128.630735916193
 30
0.0
 10
95.86322697256198
 20
-128.630735916193
 30
0.0
 10
95.8084499543465
 20
-128.6243624895453
 30
0.0
 10
95.68339298823193
 20
-128.6222954322542
 30
0.0
 10
95.64549693789418
 20
-128.6243624895453
 30
0.0
 10
95.64549693789418
 20
-128.6243624895453
 30
0.0
 10
95.64549693789418
 20
-128.734433290299
 30
0.0
 10
95.64549693789418
 20
-128.734433290299
 30
0.0
 10
95.64549693789418
 20
-128.7811143341242
 30
0.0
 10
95.64756399518534
 20
-128.8445040910528
 30
0.0
 10
95.6541096766073
 20
-128.8824001413905
 30
0.0
 10
95.6541096766073
 20
-128.8824001413905
 30
0.0
 10
95.46152883898185
 20
-128.8824001413905
 30
0.0
 10
95.46152883898185
 20
-128.8824001413905
 30
0.0
 10
95.46773001085529
 20
-128.8424370337616
 30
0.0
 10
95.47427569227727
 20
-128.7597547421156
 30
0.0
 10
95.47427569227727
 20
-128.744940831529
 30
0.0
 10
95.47427569227727
 20
-128.744940831529
 30
0.0
 10
95.47427569227727
 20
-128.6243624895453
 30
0.0
 10
95.47427569227727
 20
-128.6243624895453
 30
0.0
 10
95.47427569227727
 20
-128.6243624895453
 30
0.0
 10
95.3092556185338
 20
-128.6243624895453
 30
0.0
 10
95.3092556185338
 20
-128.6243624895453
 30
0.0
 10
95.26688094406524
 20
-128.8445040910528
 30
0.0
 10
95.21175941630123
 20
-128.9247748158591
 30
0.0
 10
95.10599498490406
 20
-129.0243380753828
 30
0.0
 10
95.10599498490406
 20
-129.0243380753828
 30
0.0
 10
94.93890785386944
 20
-128.9099609052725
 30
0.0
 10
94.93890785386944
 20
-128.9099609052725
 30
0.0
 10
95.00229761079804
 20
-128.8613850589305
 30
0.0
 10
95.15250377395493
 20
-128.7492472008856
 30
0.0
 10
95.15250377395493
 20
-128.4000867734555
 30
0.0
 10
95.15250377395493
 20
-128.3175767365838
 30
0.0
 10
95.14423554479033
 20
-128.2710679475329
 30
0.0
 10
95.13562280607721
 20
-128.2224921011909
 30
0.0
 10
95.2816948546518
 20
-128.2373060117775
 30
0.0
 10
95.29650876523837
 20
-128.2373060117775
 30
0.0
 10
95.33233775828498
 20
-128.2373060117775
 30
0.0
 10
95.4401692469733
 20
-128.2373060117775
 30
0.0
 10
95.5821071809656
 20
-128.2202527891255
 30
0.0
 10
95.74264863057823
 20
-128.1589300894881
 30
0.0
 10
95.74264863057823
 20
-128.1589300894881
 30
0.0
 10
95.85702580068853
 20
-128.2901882274761
 30
0.0
 10
95.85702580068853
 20
-128.2901882274761
 30
0.0
 10
95.86322697256198
 20
-128.2965616541238
 30
0.0
 10
95.8677055966928
 20
-128.3050021380626
 30
0.0
 10
95.8677055966928
 20
-128.3134426220015
 30
0.0
 10
95.8677055966928
 20
-128.336697016527
 30
0.0
 10
95.8484130619754
 20
-128.3408311311092
 30
0.0
 10
95.83359915138882
 20
-128.3408311311092
 30
0.0
  0
SPLINE
  5
136
330
10B
100
AcDbEntity
  8
_U+30EC_U+30A4_U+30E4_U+30FC 1
370
     0
100
AcDbSpline
210
0.0
220
0.0
230
1.0
 70
    11
 71
     3
 72
    74
 73
    70
 74
     0
 42
0.0000000001
 43
0.0000000001
 12
1.0
 22
0.0
 32
0.0
 13
1.0
 23
0.0
 33
0.0
 40
0.0
 40
0.0
 40
0.0
 40
0.0
 40
1.0
 40
1.0
 40
1.0
 40
2.0
 40
2.0
 40
2.0
 40
3.0
 40
3.0
 40
3.0
 40
4.0
 40
4.0
 40
4.0
 40
5.0
 40
5.0
 40
5.0
 40
6.0
 40
6.0
 40
6.0
 40
7.0
 40
7.0
 40
7.0
 40
8.0
 40
8.0
 40
8.0
 40
9.0
 40
9.0
 40
9.0
 40
10.0
 40
10.0
 40
10.0
 40
11.0
 40
11.0
 40
11.0
 40
12.0
 40
12.0
 40
12.0
 40
13.0
 40
13.0
 40
13.0
 40
14.0
 40
14.0
 40
14.0
 40
15.0
 40
15.0
 40
15.0
 40
16.0
 40
16.0
 40
16.0
 40
17.0
 40
17.0
 40
17.0
 40
18.0
 40
18.0
 40
18.0
 40
19.0
 40
19.0
 40
19.0
 40
20.0
 40
20.0
 40
20.0
 40
21.0
 40
21.0
 40
21.0
 40
22.0
 40
22.0
 40
22.0
 40
23.0
 40
23.0
 40
23.0
 40
23.0
 10
96.6714463734016
 20
-130.1074760959454
 30
0.0
 10
96.4578504533161
 20
-130.0967962999411
 30
0.0
 10
96.25700138652603
 20
-130.0099798937128
 30
0.0
 10
96.0813015167783
 20
-129.889401551729
 30
0.0
 10
96.0813015167783
 20
-129.889401551729
 30
0.0
 10
96.17845320946233
 20
-129.8025851455008
 30
0.0
 10
96.17845320946233
 20
-129.8025851455008
 30
0.0
 10
96.17845320946233
 20
-129.8025851455008
 30
0.0
 10
95.62654891272531
 20
-129.8025851455008
 30
0.0
 10
95.62654891272531
 20
-129.8025851455008
 30
0.0
 10
95.62654891272531
 20
-129.8025851455008
 30
0.0
 10
95.70681963753164
 20
-129.8663194119779
 30
0.0
 10
95.70681963753164
 20
-129.8663194119779
 30
0.0
 10
95.71302080940508
 20
-129.8704535265602
 30
0.0
 10
95.72370060540936
 20
-129.8811333225644
 30
0.0
 10
95.72370060540936
 20
-129.895947233151
 30
0.0
 10
95.72370060540936
 20
-129.9359103407799
 30
0.0
 10
95.64963105247648
 20
-129.9297091689065
 30
0.0
 10
95.63481714188991
 20
-129.9276421116153
 30
0.0
 10
95.40434025392669
 20
-130.0671684787679
 30
0.0
 10
95.26033526264325
 20
-130.0988633572322
 30
0.0
 10
95.15663788853723
 20
-130.11574432511
 30
0.0
 10
95.15663788853723
 20
-130.11574432511
 30
0.0
 10
95.02779131738889
 20
-129.9379773980711
 30
0.0
 10
95.02779131738889
 20
-129.9379773980711
 30
0.0
 10
95.27514917322983
 20
-129.9062825196068
 30
0.0
 10
95.3767794900447
 20
-129.8597737305559
 30
0.0
 10
95.46566295356415
 20
-129.8070637696316
 30
0.0
 10
95.39159340063128
 20
-129.8091308269227
 30
0.0
 10
95.2775607400695
 20
-129.8111978842139
 30
0.0
 10
95.24552135205668
 20
-129.813264941505
 30
0.0
 10
95.26033526264325
 20
-129.7243814779856
 30
0.0
 10
95.26274682948294
 20
-129.5955349068372
 30
0.0
 10
95.26274682948294
 20
-129.5214653539044
 30
0.0
 10
95.26274682948294
 20
-129.5214653539044
 30
0.0
 10
95.26274682948294
 20
-129.2210530275906
 30
0.0
 10
95.26274682948294
 20
-129.2210530275906
 30
0.0
 10
95.26274682948294
 20
-129.1214897680669
 30
0.0
 10
95.25620114806095
 20
-129.0222710180917
 30
0.0
 10
95.24552135205668
 20
-128.9247748158591
 30
0.0
 10
95.34715166887155
 20
-128.9309759877326
 30
0.0
 10
95.57762855683477
 20
-128.9375216691545
 30
0.0
 10
95.68580455507161
 20
-128.9375216691545
 30
0.0
 10
95.68580455507161
 20
-128.9375216691545
 30
0.0
 10
96.10886228066029
 20
-128.9375216691545
 30
0.0
 10
96.10886228066029
 20
-128.9375216691545
 30
0.0
 10
96.22737356535288
 20
-128.9375216691545
 30
0.0
 10
96.26940373027293
 20
-128.9375216691545
 30
0.0
 10
96.35208602191892
 20
-128.9333875545722
 30
0.0
 10
96.50022512778467
 20
-128.9268418731502
 30
0.0
 10
96.5171060956624
 20
-128.9268418731502
 30
0.0
 10
96.56361488471326
 20
-128.9247748158591
 30
0.0
 10
96.55500214600015
 20
-129.0050455406654
 30
0.0
 10
96.55086803141785
 20
-129.1638644425354
 30
0.0
 10
96.55086803141785
 20
-129.2462022246329
 30
0.0
 10
96.55086803141785
 20
-129.2462022246329
 30
0.0
 10
96.55086803141785
 20
-129.5318006403601
 30
0.0
 10
96.55086803141785
 20
-129.5318006403601
 30
0.0
 10
96.55086803141785
 20
-129.6038031360018
 30
0.0
 10
96.55293508870899
 20
-129.7350612739899
 30
0.0
 10
96.56361488471326
 20
-129.813264941505
 30
0.0
 10
96.49161238907155
 20
-129.8091308269227
 30
0.0
 10
96.36896698979665
 20
-129.8070637696316
 30
0.0
 10
96.29076332228148
 20
-129.8049967123404
 30
0.0
 10
96.40066186826095
 20
-129.8725205838513
 30
0.0
 10
96.55293508870899
 20
-129.9231634874845
 30
0.0
 10
96.76446395150333
 20
-129.9276421116153
 30
0.0
 10
96.76446395150333
 20
-129.9276421116153
 30
0.0
 10
96.6714463734016
 20
-130.1074760959454
 30
0.0
 10
96.6714463734016
 20
-130.1074760959454
 30
0.0
  0
POLYLINE
  5
137
330
10B
100
AcDbEntity
  8
_U+30EC_U+30A4_U+30E4_U+30FC 1
370
     0
100
AcDb2dPolyline
 66
     1
 10
0.0
 20
0.0
 30
0.0
  0
VERTEX
  5
138
330
137
100
AcDbEntity
  8
_U+30EC_U+30A4_U+30E4_U+30FC 1
370
     0
100
AcDbVertex
100
AcDb2dVertex
 10
96.3668999325055
 20
-129.0729139217248
 30
0.0
  0
VERTEX
  5
139
330
137
100
AcDbEntity
  8
_U+30EC_U+30A4_U+30E4_U+30FC 1
370
     0
100
AcDbVertex
100
AcDb2dVertex
 10
95.45498315755987
 20
-129.0729139217248
 30
0.0
  0
VERTEX
  5
13A
330
137
100
AcDbEntity
  8
_U+30EC_U+30A4_U+30E4_U+30FC 1
370
     0
100
AcDbVertex
100
AcDb2dVertex
 10
95.45498315755987
 20
-129.1848795249955
 30
0.0
  0
VERTEX
  5
13B
330
137
100
AcDbEntity
  8
_U+30EC_U+30A4_U+30E4_U+30FC 1
370
     0
100
AcDbVertex
100
AcDb2dVertex
 10
96.3668999325055
 20
-129.1848795249955
 30
0.0
  0
VERTEX
  5
13C
330
137
100
AcDbEntity
  8
_U+30EC_U+30A4_U+30E4_U+30FC 1
370
     0
100
AcDbVertex
100
AcDb2dVertex
 10
96.3668999325055
 20
-129.0729139217248
 30
0.0
  0
SEQEND
  5
13D
330
137
100
AcDbEntity
  8
_U+30EC_U+30A4_U+30E4_U+30FC 1
370
     0
  0
POLYLINE
  5
13E
330
10B
100
AcDbEntity
  8
_U+30EC_U+30A4_U+30E4_U+30FC 1
370
     0
100
AcDb2dPolyline
 66
     1
 10
0.0
 20
0.0
 30
0.0
  0
VERTEX
  5
13F
330
13E
100
AcDbEntity
  8
_U+30EC_U+30A4_U+30E4_U+30FC 1
370
     0
100
AcDbVertex
100
AcDb2dVertex
 10
96.3668999325055
 20
-129.3182047202746
 30
0.0
  0
VERTEX
  5
140
330
13E
100
AcDbEntity
  8
_U+30EC_U+30A4_U+30E4_U+30FC 1
370
     0
100
AcDbVertex
100
AcDb2dVertex
 10
95.45498315755987
 20
-129.3182047202746
 30
0.0
  0
VERTEX
  5
141
330
13E
100
AcDbEntity
  8
_U+30EC_U+30A4_U+30E4_U+30FC 1
370
     0
100
AcDbVertex
100
AcDb2dVertex
 10
95.45498315755987
 20
-129.4284477758026
 30
0.0
  0
VERTEX
  5
142
330
13E
100
AcDbEntity
  8
_U+30EC_U+30A4_U+30E4_U+30FC 1
370
     0
100
AcDbVertex
100
AcDb2dVertex
 10
96.3668999325055
 20
-129.4284477758026
 30
0.0
  0
VERTEX
  5
143
330
13E
100
AcDbEntity
  8
_U+30EC_U+30A4_U+30E4_U+30FC 1
370
     0
100
AcDbVertex
100
AcDb2dVertex
 10
96.3668999325055
 20
-129.3182047202746
 30
0.0
  0
SEQEND
  5
144
330
13E
100
AcDbEntity
  8
_U+30EC_U+30A4_U+30E4_U+30FC 1
370
     0
  0
POLYLINE
  5
145
330
10B
100
AcDbEntity
  8
_U+30EC_U+30A4_U+30E4_U+30FC 1
370
     0
100
AcDb2dPolyline
 66
     1
 10
0.0
 20
0.0
 30
0.0
  0
VERTEX
  5
146
330
145
100
AcDbEntity
  8
_U+30EC_U+30A4_U+30E4_U+30FC 1
370
     0
100
AcDbVertex
100
AcDb2dVertex
 10
96.3668999325055
 20
-129.5638400283729
 30
0.0
  0
VERTEX
  5
147
330
145
100
AcDbEntity
  8
_U+30EC_U+30A4_U+30E4_U+30FC 1
370
     0
100
AcDbVertex
100
AcDb2dVertex
 10
95.45498315755987
 20
-129.5638400283729
 30
0.0
  0
VERTEX
  5
148
330
145
100
AcDbEntity
  8
_U+30EC_U+30A4_U+30E4_U+30FC 1
370
     0
100
AcDbVertex
100
AcDb2dVertex
 10
95.45498315755987
 20
-129.6716715170612
 30
0.0
  0
VERTEX
  5
149
330
145
100
AcDbEntity
  8
_U+30EC_U+30A4_U+30E4_U+30FC 1
370
     0
100
AcDbVertex
100
AcDb2dVertex
 10
96.3668999325055
 20
-129.6716715170612
 30
0.0
  0
VERTEX
  5
14A
330
145
100
AcDbEntity
  8
_U+30EC_U+30A4_U+30E4_U+30FC 1
370
     0
100
AcDbVertex
100
AcDb2dVertex
 10
96.3668999325055
 20
-129.5638400283729
 30
0.0
  0
SEQEND
  5
14B
330
145
100
AcDbEntity
  8
_U+30EC_U+30A4_U+30E4_U+30FC 1
370
     0
  0
SPLINE
  5
14C
330
10B
100
AcDbEntity
  8
_U+30EC_U+30A4_U+30E4_U+30FC 1
370
     0
100
AcDbSpline
210
0.0
220
0.0
230
1.0
 70
    11
 71
     3
 72
    74
 73
    70
 74
     0
 42
0.0000000001
 43
0.0000000001
 12
1.0
 22
0.0
 32
0.0
 13
1.0
 23
0.0
 33
0.0
 40
0.0
 40
0.0
 40
0.0
 40
0.0
 40
1.0
 40
1.0
 40
1.0
 40
2.0
 40
2.0
 40
2.0
 40
3.0
 40
3.0
 40
3.0
 40
4.0
 40
4.0
 40
4.0
 40
5.0
 40
5.0
 40
5.0
 40
6.0
 40
6.0
 40
6.0
 40
7.0
 40
7.0
 40
7.0
 40
8.0
 40
8.0
 40
8.0
 40
9.0
 40
9.0
 40
9.0
 40
10.0
 40
10.0
 40
10.0
 40
11.0
 40
11.0
 40
11.0
 40
12.0
 40
12.0
 40
12.0
 40
13.0
 40
13.0
 40
13.0
 40
14.0
 40
14.0
 40
14.0
 40
15.0
 40
15.0
 40
15.0
 40
16.0
 40
16.0
 40
16.0
 40
17.0
 40
17.0
 40
17.0
 40
18.0
 40
18.0
 40
18.0
 40
19.0
 40
19.0
 40
19.0
 40
20.0
 40
20.0
 40
20.0
 40
21.0
 40
21.0
 40
21.0
 40
22.0
 40
22.0
 40
22.0
 40
23.0
 40
23.0
 40
23.0
 40
23.0
 10
96.684193226697
 20
-128.620228374963
 30
0.0
 10
96.684193226697
 20
-128.620228374963
 30
0.0
 10
96.52330726753584
 20
-128.620228374963
 30
0.0
 10
96.52330726753584
 20
-128.620228374963
 30
0.0
 10
96.52330726753584
 20
-128.620228374963
 30
0.0
 10
96.52330726753584
 20
-128.734433290299
 30
0.0
 10
96.52330726753584
 20
-128.734433290299
 30
0.0
 10
96.52330726753584
 20
-128.7745686527022
 30
0.0
 10
96.52985294895782
 20
-128.8486382056351
 30
0.0
 10
96.53398706354012
 20
-128.8741319122259
 30
0.0
 10
96.53398706354012
 20
-128.8741319122259
 30
0.0
 10
96.32245820074579
 20
-128.8741319122259
 30
0.0
 10
96.32245820074579
 20
-128.8741319122259
 30
0.0
 10
96.33313799675005
 20
-128.8083305884576
 30
0.0
 10
96.3352050540412
 20
-128.7492472008856
 30
0.0
 10
96.3352050540412
 20
-128.7470078888202
 30
0.0
 10
96.3352050540412
 20
-128.7470078888202
 30
0.0
 10
96.3352050540412
 20
-128.6243624895453
 30
0.0
 10
96.3352050540412
 20
-128.6243624895453
 30
0.0
 10
96.3352050540412
 20
-128.6243624895453
 30
0.0
 10
96.15537106971117
 20
-128.6243624895453
 30
0.0
 10
96.15537106971117
 20
-128.6243624895453
 30
0.0
 10
96.13642304454228
 20
-128.6836181318916
 30
0.0
 10
96.08991425549141
 20
-128.8296901804662
 30
0.0
 10
95.97553708538112
 20
-128.9120279625637
 30
0.0
 10
95.97553708538112
 20
-128.9120279625637
 30
0.0
 10
95.81912975035078
 20
-128.8062635311665
 30
0.0
 10
95.81912975035078
 20
-128.8062635311665
 30
0.0
 10
95.89285479373513
 20
-128.7597547421156
 30
0.0
 10
96.00929902113657
 20
-128.6856851891827
 30
0.0
 10
96.00929902113657
 20
-128.3642577804089
 30
0.0
 10
96.00929902113657
 20
-128.3091362526449
 30
0.0
 10
96.00516490655427
 20
-128.2646945208852
 30
0.0
 10
96.00309784926311
 20
-128.2266262157732
 30
0.0
 10
96.07923445948714
 20
-128.2350666997121
 30
0.0
 10
96.15330401242001
 20
-128.2414401263598
 30
0.0
 10
96.21669376934861
 20
-128.2414401263598
 30
0.0
 10
96.3944606963875
 20
-128.2414401263598
 30
0.0
 10
96.59324270588641
 20
-128.1821844840135
 30
0.0
 10
96.65456540552387
 20
-128.1525566628403
 30
0.0
 10
96.65456540552387
 20
-128.1525566628403
 30
0.0
 10
96.78134491938106
 20
-128.2879489154107
 30
0.0
 10
96.78134491938106
 20
-128.2879489154107
 30
0.0
 10
96.78582354351188
 20
-128.2922552847672
 30
0.0
 10
96.78789060080304
 20
-128.3006957687061
 30
0.0
 10
96.78789060080304
 20
-128.3070691953538
 30
0.0
 10
96.78789060080304
 20
-128.3282565325881
 30
0.0
 10
96.77307669021646
 20
-128.3346299592358
 30
0.0
 10
96.75619572233873
 20
-128.3346299592358
 30
0.0
 10
96.73483613033018
 20
-128.3346299592358
 30
0.0
 10
96.72002221974361
 20
-128.3261894752969
 30
0.0
 10
96.70107419457473
 20
-128.3155096792927
 30
0.0
 10
96.52778589166667
 20
-128.3726982643478
 30
0.0
 10
96.30971134745036
 20
-128.3980197161644
 30
0.0
 10
96.17638615217119
 20
-128.4000867734555
 30
0.0
 10
96.17638615217119
 20
-128.4000867734555
 30
0.0
 10
96.17225203758889
 20
-128.4825968103273
 30
0.0
 10
96.17225203758889
 20
-128.4825968103273
 30
0.0
 10
96.17225203758889
 20
-128.4825968103273
 30
0.0
 10
96.44510360002067
 20
-128.4825968103273
 30
0.0
 10
96.44510360002067
 20
-128.4825968103273
 30
0.0
 10
96.50229218507582
 20
-128.4825968103273
 30
0.0
 10
96.76446395150333
 20
-128.4636487851584
 30
0.0
 10
96.80890568326305
 20
-128.4572753585107
 30
0.0
 10
96.80890568326305
 20
-128.4572753585107
 30
0.0
 10
96.80890568326305
 20
-128.6264295468364
 30
0.0
 10
96.80890568326305
 20
-128.6264295468364
 30
0.0
 10
96.77514374750761
 20
-128.6222954322542
 30
0.0
 10
96.76239689421219
 20
-128.620228374963
 30
0.0
 10
96.684193226697
 20
-128.620228374963
 30
0.0
  0
HATCH
  5
14D
330
10B
100
AcDbEntity
  8
_U+30EC_U+30A4_U+30E4_U+30FC 1
 62
   179
420
  2234388
100
AcDbHatch
 10
0.0
 20
0.0
 30
0.0
210
0.0
220
0.0
230
1.0
  2
SOLID
 70
     1
 71
     0
 91
        6
 92
        1
 93
        1
 72
     4
 94
        3
 73
     0
 74
     1
 95
       71
 96
       67
 40
0.0
 40
0.0
 40
0.0
 40
0.0
 40
1.0
 40
1.0
 40
1.0
 40
2.0
 40
2.0
 40
2.0
 40
3.0
 40
3.0
 40
3.0
 40
4.0
 40
4.0
 40
4.0
 40
5.0
 40
5.0
 40
5.0
 40
6.0
 40
6.0
 40
6.0
 40
7.0
 40
7.0
 40
7.0
 40
8.0
 40
8.0
 40
8.0
 40
9.0
 40
9.0
 40
9.0
 40
10.0
 40
10.0
 40
10.0
 40
11.0
 40
11.0
 40
11.0
 40
12.0
 40
12.0
 40
12.0
 40
13.0
 40
13.0
 40
13.0
 40
14.0
 40
14.0
 40
14.0
 40
15.0
 40
15.0
 40
15.0
 40
16.0
 40
16.0
 40
16.0
 40
17.0
 40
17.0
 40
17.0
 40
18.0
 40
18.0
 40
18.0
 40
19.0
 40
19.0
 40
19.0
 40
20.0
 40
20.0
 40
20.0
 40
21.0
 40
21.0
 40
21.0
 40
22.0
 40
22.0
 40
22.0
 40
22.0
 10
95.83359915138882
 20
-128.3408311311092
 10
95.81912975035078
 20
-128.3408311311092
 10
95.80638289705536
 20
-128.336697016527
 10
95.7808891904645
 20
-128.3282565325881
 10
95.63929576602074
 20
-128.374765321639
 10
95.46566295356415
 20
-128.3916462895167
 10
95.32613658641152
 20
-128.3959526588732
 10
95.32613658641152
 20
-128.3959526588732
 10
95.32406952912038
 20
-128.4848361223927
 10
95.32406952912038
 20
-128.4848361223927
 10
95.32406952912038
 20
-128.4848361223927
 10
95.58417423825674
 20
-128.4848361223927
 10
95.58417423825674
 20
-128.4848361223927
 10
95.63688419918105
 20
-128.4848361223927
 10
95.81912975035078
 20
-128.4762233836796
 10
95.86322697256198
 20
-128.4700222118061
 10
95.86322697256198
 20
-128.4700222118061
 10
95.86322697256198
 20
-128.630735916193
 10
95.86322697256198
 20
-128.630735916193
 10
95.8084499543465
 20
-128.6243624895453
 10
95.68339298823193
 20
-128.6222954322542
 10
95.64549693789418
 20
-128.6243624895453
 10
95.64549693789418
 20
-128.6243624895453
 10
95.64549693789418
 20
-128.734433290299
 10
95.64549693789418
 20
-128.734433290299
 10
95.64549693789418
 20
-128.7811143341242
 10
95.64756399518534
 20
-128.8445040910528
 10
95.6541096766073
 20
-128.8824001413905
 10
95.6541096766073
 20
-128.8824001413905
 10
95.46152883898185
 20
-128.8824001413905
 10
95.46152883898185
 20
-128.8824001413905
 10
95.46773001085529
 20
-128.8424370337616
 10
95.47427569227727
 20
-128.7597547421156
 10
95.47427569227727
 20
-128.744940831529
 10
95.47427569227727
 20
-128.744940831529
 10
95.47427569227727
 20
-128.6243624895453
 10
95.47427569227727
 20
-128.6243624895453
 10
95.47427569227727
 20
-128.6243624895453
 10
95.3092556185338
 20
-128.6243624895453
 10
95.3092556185338
 20
-128.6243624895453
 10
95.26688094406524
 20
-128.8445040910528
 10
95.21175941630123
 20
-128.9247748158591
 10
95.10599498490406
 20
-129.0243380753828
 10
95.10599498490406
 20
-129.0243380753828
 10
94.93890785386944
 20
-128.9099609052725
 10
94.93890785386944
 20
-128.9099609052725
 10
95.00229761079804
 20
-128.8613850589305
 10
95.15250377395493
 20
-128.7492472008856
 10
95.15250377395493
 20
-128.4000867734555
 10
95.15250377395493
 20
-128.3175767365838
 10
95.14423554479033
 20
-128.2710679475329
 10
95.13562280607721
 20
-128.2224921011909
 10
95.2816948546518
 20
-128.2373060117775
 10
95.29650876523837
 20
-128.2373060117775
 10
95.33233775828498
 20
-128.2373060117775
 10
95.4401692469733
 20
-128.2373060117775
 10
95.5821071809656
 20
-128.2202527891255
 10
95.74264863057823
 20
-128.1589300894881
 10
95.74264863057823
 20
-128.1589300894881
 10
95.85702580068853
 20
-128.2901882274761
 10
95.85702580068853
 20
-128.2901882274761
 10
95.86322697256198
 20
-128.2965616541238
 10
95.8677055966928
 20
-128.3050021380626
 10
95.8677055966928
 20
-128.3134426220015
 10
95.8677055966928
 20
-128.336697016527
 10
95.8484130619754
 20
-128.3408311311092
 10
95.83359915138882
 20
-128.3408311311092
 97
        0
 97
        0
 92
        1
 93
        1
 72
     4
 94
        3
 73
     0
 74
     1
 95
       74
 96
       70
 40
0.0
 40
0.0
 40
0.0
 40
0.0
 40
1.0
 40
1.0
 40
1.0
 40
2.0
 40
2.0
 40
2.0
 40
3.0
 40
3.0
 40
3.0
 40
4.0
 40
4.0
 40
4.0
 40
5.0
 40
5.0
 40
5.0
 40
6.0
 40
6.0
 40
6.0
 40
7.0
 40
7.0
 40
7.0
 40
8.0
 40
8.0
 40
8.0
 40
9.0
 40
9.0
 40
9.0
 40
10.0
 40
10.0
 40
10.0
 40
11.0
 40
11.0
 40
11.0
 40
12.0
 40
12.0
 40
12.0
 40
13.0
 40
13.0
 40
13.0
 40
14.0
 40
14.0
 40
14.0
 40
15.0
 40
15.0
 40
15.0
 40
16.0
 40
16.0
 40
16.0
 40
17.0
 40
17.0
 40
17.0
 40
18.0
 40
18.0
 40
18.0
 40
19.0
 40
19.0
 40
19.0
 40
20.0
 40
20.0
 40
20.0
 40
21.0
 40
21.0
 40
21.0
 40
22.0
 40
22.0
 40
22.0
 40
23.0
 40
23.0
 40
23.0
 40
23.0
 10
96.6714463734016
 20
-130.1074760959454
 10
96.4578504533161
 20
-130.0967962999411
 10
96.25700138652603
 20
-130.0099798937128
 10
96.0813015167783
 20
-129.889401551729
 10
96.0813015167783
 20
-129.889401551729
 10
96.17845320946233
 20
-129.8025851455008
 10
96.17845320946233
 20
-129.8025851455008
 10
96.17845320946233
 20
-129.8025851455008
 10
95.62654891272531
 20
-129.8025851455008
 10
95.62654891272531
 20
-129.8025851455008
 10
95.62654891272531
 20
-129.8025851455008
 10
95.70681963753164
 20
-129.8663194119779
 10
95.70681963753164
 20
-129.8663194119779
 10
95.71302080940508
 20
-129.8704535265602
 10
95.72370060540936
 20
-129.8811333225644
 10
95.72370060540936
 20
-129.895947233151
 10
95.72370060540936
 20
-129.9359103407799
 10
95.64963105247648
 20
-129.9297091689065
 10
95.63481714188991
 20
-129.9276421116153
 10
95.40434025392669
 20
-130.0671684787679
 10
95.26033526264325
 20
-130.0988633572322
 10
95.15663788853723
 20
-130.11574432511
 10
95.15663788853723
 20
-130.11574432511
 10
95.02779131738889
 20
-129.9379773980711
 10
95.02779131738889
 20
-129.9379773980711
 10
95.27514917322983
 20
-129.9062825196068
 10
95.3767794900447
 20
-129.8597737305559
 10
95.46566295356415
 20
-129.8070637696316
 10
95.39159340063128
 20
-129.8091308269227
 10
95.2775607400695
 20
-129.8111978842139
 10
95.24552135205668
 20
-129.813264941505
 10
95.26033526264325
 20
-129.7243814779856
 10
95.26274682948294
 20
-129.5955349068372
 10
95.26274682948294
 20
-129.5214653539044
 10
95.26274682948294
 20
-129.5214653539044
 10
95.26274682948294
 20
-129.2210530275906
 10
95.26274682948294
 20
-129.2210530275906
 10
95.26274682948294
 20
-129.1214897680669
 10
95.25620114806095
 20
-129.0222710180917
 10
95.24552135205668
 20
-128.9247748158591
 10
95.34715166887155
 20
-128.9309759877326
 10
95.57762855683477
 20
-128.9375216691545
 10
95.68580455507161
 20
-128.9375216691545
 10
95.68580455507161
 20
-128.9375216691545
 10
96.10886228066029
 20
-128.9375216691545
 10
96.10886228066029
 20
-128.9375216691545
 10
96.22737356535288
 20
-128.9375216691545
 10
96.26940373027293
 20
-128.9375216691545
 10
96.35208602191892
 20
-128.9333875545722
 10
96.50022512778467
 20
-128.9268418731502
 10
96.5171060956624
 20
-128.9268418731502
 10
96.56361488471326
 20
-128.9247748158591
 10
96.55500214600015
 20
-129.0050455406654
 10
96.55086803141785
 20
-129.1638644425354
 10
96.55086803141785
 20
-129.2462022246329
 10
96.55086803141785
 20
-129.2462022246329
 10
96.55086803141785
 20
-129.5318006403601
 10
96.55086803141785
 20
-129.5318006403601
 10
96.55086803141785
 20
-129.6038031360018
 10
96.55293508870899
 20
-129.7350612739899
 10
96.56361488471326
 20
-129.813264941505
 10
96.49161238907155
 20
-129.8091308269227
 10
96.36896698979665
 20
-129.8070637696316
 10
96.29076332228148
 20
-129.8049967123404
 10
96.40066186826095
 20
-129.8725205838513
 10
96.55293508870899
 20
-129.9231634874845
 10
96.76446395150333
 20
-129.9276421116153
 10
96.76446395150333
 20
-129.9276421116153
 10
96.6714463734016
 20
-130.1074760959454
 10
96.6714463734016
 20
-130.1074760959454
 97
        0
 97
        0
 92
        1
 93
        4
 72
     1
 10
96.3668999325055
 20
-129.0729139217248
 11
95.45498315755987
 21
-129.0729139217248
 72
     1
 10
95.45498315755987
 20
-129.0729139217248
 11
95.45498315755987
 21
-129.1848795249955
 72
     1
 10
95.45498315755987
 20
-129.1848795249955
 11
96.3668999325055
 21
-129.1848795249955
 72
     1
 10
96.3668999325055
 20
-129.1848795249955
 11
96.3668999325055
 21
-129.0729139217248
 97
        0
 92
        1
 93
        4
 72
     1
 10
96.3668999325055
 20
-129.3182047202746
 11
95.45498315755987
 21
-129.3182047202746
 72
     1
 10
95.45498315755987
 20
-129.3182047202746
 11
95.45498315755987
 21
-129.4284477758026
 72
     1
 10
95.45498315755987
 20
-129.4284477758026
 11
96.3668999325055
 21
-129.4284477758026
 72
     1
 10
96.3668999325055
 20
-129.4284477758026
 11
96.3668999325055
 21
-129.3182047202746
 97
        0
 92
        1
 93
        4
 72
     1
 10
96.3668999325055
 20
-129.5638400283729
 11
95.45498315755987
 21
-129.5638400283729
 72
     1
 10
95.45498315755987
 20
-129.5638400283729
 11
95.45498315755987
 21
-129.6716715170612
 72
     1
 10
95.45498315755987
 20
-129.6716715170612
 11
96.3668999325055
 21
-129.6716715170612
 72
     1
 10
96.3668999325055
 20
-129.6716715170612
 11
96.3668999325055
 21
-129.5638400283729
 97
        0
 92
        1
 93
        1
 72
     4
 94
        3
 73
     0
 74
     1
 95
       74
 96
       70
 40
0.0
 40
0.0
 40
0.0
 40
0.0
 40
1.0
 40
1.0
 40
1.0
 40
2.0
 40
2.0
 40
2.0
 40
3.0
 40
3.0
 40
3.0
 40
4.0
 40
4.0
 40
4.0
 40
5.0
 40
5.0
 40
5.0
 40
6.0
 40
6.0
 40
6.0
 40
7.0
 40
7.0
 40
7.0
 40
8.0
 40
8.0
 40
8.0
 40
9.0
 40
9.0
 40
9.0
 40
10.0
 40
10.0
 40
10.0
 40
11.0
 40
11.0
 40
11.0
 40
12.0
 40
12.0
 40
12.0
 40
13.0
 40
13.0
 40
13.0
 40
14.0
 40
14.0
 40
14.0
 40
15.0
 40
15.0
 40
15.0
 40
16.0
 40
16.0
 40
16.0
 40
17.0
 40
17.0
 40
17.0
 40
18.0
 40
18.0
 40
18.0
 40
19.0
 40
19.0
 40
19.0
 40
20.0
 40
20.0
 40
20.0
 40
21.0
 40
21.0
 40
21.0
 40
22.0
 40
22.0
 40
22.0
 40
23.0
 40
23.0
 40
23.0
 40
23.0
 10
96.684193226697
 20
-128.620228374963
 10
96.684193226697
 20
-128.620228374963
 10
96.52330726753584
 20
-128.620228374963
 10
96.52330726753584
 20
-128.620228374963
 10
96.52330726753584
 20
-128.620228374963
 10
96.52330726753584
 20
-128.734433290299
 10
96.52330726753584
 20
-128.734433290299
 10
96.52330726753584
 20
-128.7745686527022
 10
96.52985294895782
 20
-128.8486382056351
 10
96.53398706354012
 20
-128.8741319122259
 10
96.53398706354012
 20
-128.8741319122259
 10
96.32245820074579
 20
-128.8741319122259
 10
96.32245820074579
 20
-128.8741319122259
 10
96.33313799675005
 20
-128.8083305884576
 10
96.3352050540412
 20
-128.7492472008856
 10
96.3352050540412
 20
-128.7470078888202
 10
96.3352050540412
 20
-128.7470078888202
 10
96.3352050540412
 20
-128.6243624895453
 10
96.3352050540412
 20
-128.6243624895453
 10
96.3352050540412
 20
-128.6243624895453
 10
96.15537106971117
 20
-128.6243624895453
 10
96.15537106971117
 20
-128.6243624895453
 10
96.13642304454228
 20
-128.6836181318916
 10
96.08991425549141
 20
-128.8296901804662
 10
95.97553708538112
 20
-128.9120279625637
 10
95.97553708538112
 20
-128.9120279625637
 10
95.81912975035078
 20
-128.8062635311665
 10
95.81912975035078
 20
-128.8062635311665
 10
95.89285479373513
 20
-128.7597547421156
 10
96.00929902113657
 20
-128.6856851891827
 10
96.00929902113657
 20
-128.3642577804089
 10
96.00929902113657
 20
-128.3091362526449
 10
96.00516490655427
 20
-128.2646945208852
 10
96.00309784926311
 20
-128.2266262157732
 10
96.07923445948714
 20
-128.2350666997121
 10
96.15330401242001
 20
-128.2414401263598
 10
96.21669376934861
 20
-128.2414401263598
 10
96.3944606963875
 20
-128.2414401263598
 10
96.59324270588641
 20
-128.1821844840135
 10
96.65456540552387
 20
-128.1525566628403
 10
96.65456540552387
 20
-128.1525566628403
 10
96.78134491938106
 20
-128.2879489154107
 10
96.78134491938106
 20
-128.2879489154107
 10
96.78582354351188
 20
-128.2922552847672
 10
96.78789060080304
 20
-128.3006957687061
 10
96.78789060080304
 20
-128.3070691953538
 10
96.78789060080304
 20
-128.3282565325881
 10
96.77307669021646
 20
-128.3346299592358
 10
96.75619572233873
 20
-128.3346299592358
 10
96.73483613033018
 20
-128.3346299592358
 10
96.72002221974361
 20
-128.3261894752969
 10
96.70107419457473
 20
-128.3155096792927
 10
96.52778589166667
 20
-128.3726982643478
 10
96.30971134745036
 20
-128.3980197161644
 10
96.17638615217119
 20
-128.4000867734555
 10
96.17638615217119
 20
-128.4000867734555
 10
96.17225203758889
 20
-128.4825968103273
 10
96.17225203758889
 20
-128.4825968103273
 10
96.17225203758889
 20
-128.4825968103273
 10
96.44510360002067
 20
-128.4825968103273
 10
96.44510360002067
 20
-128.4825968103273
 10
96.50229218507582
 20
-128.4825968103273
 10
96.76446395150333
 20
-128.4636487851584
 10
96.80890568326305
 20
-128.4572753585107
 10
96.80890568326305
 20
-128.4572753585107
 10
96.80890568326305
 20
-128.6264295468364
 10
96.80890568326305
 20
-128.6264295468364
 10
96.77514374750761
 20
-128.6222954322542
 10
96.76239689421219
 20
-128.620228374963
 10
96.684193226697
 20
-128.620228374963
 97
        0
 97
        0
 75
     2
 76
     1
 98
        0
  0
SPLINE
  5
14E
330
10B
100
AcDbEntity
  8
_U+30EC_U+30A4_U+30E4_U+30FC 1
370
     0
100
AcDbSpline
210
0.0
220
0.0
230
1.0
 70
    11
 71
     3
 72
   158
 73
   154
 74
     0
 42
0.0000000001
 43
0.0000000001
 12
1.0
 22
0.0
 32
0.0
 13
1.0
 23
0.0
 33
0.0
 40
0.0
 40
0.0
 40
0.0
 40
0.0
 40
1.0
 40
1.0
 40
1.0
 40
2.0
 40
2.0
 40
2.0
 40
3.0
 40
3.0
 40
3.0
 40
4.0
 40
4.0
 40
4.0
 40
5.0
 40
5.0
 40
5.0
 40
6.0
 40
6.0
 40
6.0
 40
7.0
 40
7.0
 40
7.0
 40
8.0
 40
8.0
 40
8.0
 40
9.0
 40
9.0
 40
9.0
 40
10.0
 40
10.0
 40
10.0
 40
11.0
 40
11.0
 40
11.0
 40
12.0
 40
12.0
 40
12.0
 40
13.0
 40
13.0
 40
13.0
 40
14.0
 40
14.0
 40
14.0
 40
15.0
 40
15.0
 40
15.0
 40
16.0
 40
16.0
 40
16.0
 40
17.0
 40
17.0
 40
17.0
 40
18.0
 40
18.0
 40
18.0
 40
19.0
 40
19.0
 40
19.0
 40
20.0
 40
20.0
 40
20.0
 40
21.0
 40
21.0
 40
21.0
 40
22.0
 40
22.0
 40
22.0
 40
23.0
 40
23.0
 40
23.0
 40
24.0
 40
24.0
 40
24.0
 40
25.0
 40
25.0
 40
25.0
 40
26.0
 40
26.0
 40
26.0
 40
27.0
 40
27.0
 40
27.0
 40
28.0
 40
28.0
 40
28.0
 40
29.0
 40
29.0
 40
29.0
 40
30.0
 40
30.0
 40
30.0
 40
31.0
 40
31.0
 40
31.0
 40
32.0
 40
32.0
 40
32.0
 40
33.0
 40
33.0
 40
33.0
 40
34.0
 40
34.0
 40
34.0
 40
35.0
 40
35.0
 40
35.0
 40
36.0
 40
36.0
 40
36.0
 40
37.0
 40
37.0
 40
37.0
 40
38.0
 40
38.0
 40
38.0
 40
39.0
 40
39.0
 40
39.0
 40
40.0
 40
40.0
 40
40.0
 40
41.0
 40
41.0
 40
41.0
 40
42.0
 40
42.0
 40
42.0
 40
43.0
 40
43.0
 40
43.0
 40
44.0
 40
44.0
 40
44.0
 40
45.0
 40
45.0
 40
45.0
 40
46.0
 40
46.0
 40
46.0
 40
47.0
 40
47.0
 40
47.0
 40
48.0
 40
48.0
 40
48.0
 40
49.0
 40
49.0
 40
49.0
 40
50.0
 40
50.0
 40
50.0
 40
51.0
 40
51.0
 40
51.0
 40
51.0
 10
98.5510904701539
 20
-128.5587334205513
 30
0.0
 10
98.5510904701539
 20
-128.5587334205513
 30
0.0
 10
98.0243353704592
 20
-128.5587334205513
 30
0.0
 10
98.0243353704592
 20
-128.5587334205513
 30
0.0
 10
98.00538734529033
 20
-128.5906005537899
 30
0.0
 10
98.00538734529033
 20
-128.5906005537899
 30
0.0
 10
97.93579641648827
 20
-128.6941256731216
 30
0.0
 10
97.9926404919949
 20
-128.696364985187
 30
0.0
 10
98.12803274456522
 20
-128.6984320424782
 30
0.0
 10
98.18522132962036
 20
-128.6984320424782
 30
0.0
 10
98.18522132962036
 20
-128.6984320424782
 30
0.0
 10
98.51319441981614
 20
-128.6984320424782
 30
0.0
 10
98.51319441981614
 20
-128.6984320424782
 30
0.0
 10
98.64445255780417
 20
-128.6984320424782
 30
0.0
 10
98.68889428956389
 20
-128.6941256731216
 30
0.0
 10
98.78397892495678
 20
-128.6899915585393
 30
0.0
 10
98.77984481037448
 20
-128.7663004235376
 30
0.0
 10
98.77743324353482
 20
-128.8128092125885
 30
0.0
 10
98.77743324353482
 20
-128.8761989695171
 30
0.0
 10
98.77743324353482
 20
-128.8761989695171
 30
0.0
 10
98.77743324353482
 20
-129.0136582793785
 30
0.0
 10
98.77743324353482
 20
-129.0136582793785
 30
0.0
 10
98.77743324353482
 20
-129.1342366213623
 30
0.0
 10
98.77984481037448
 20
-129.1469834746577
 30
0.0
 10
98.78604598224794
 20
-129.2189859702994
 30
0.0
 10
98.6696017548465
 20
-129.2124402888774
 30
0.0
 10
98.63583981909105
 20
-129.2124402888774
 30
0.0
 10
98.5152614771073
 20
-129.2124402888774
 30
0.0
 10
98.5152614771073
 20
-129.2124402888774
 30
0.0
 10
98.19796818291579
 20
-129.2124402888774
 30
0.0
 10
98.19796818291579
 20
-129.2124402888774
 30
0.0
 10
98.10908471939635
 20
-129.2124402888774
 30
0.0
 10
98.0160671412946
 20
-129.2165744034598
 30
0.0
 10
97.88067488872429
 20
-129.2231200848817
 30
0.0
 10
97.88480900330659
 20
-129.1659314998266
 30
0.0
 10
97.88687606059773
 20
-129.1087429147714
 30
0.0
 10
97.88687606059773
 20
-129.0518988392648
 30
0.0
 10
97.88687606059773
 20
-129.0518988392648
 30
0.0
 10
97.88687606059773
 20
-128.8910128801036
 30
0.0
 10
97.88687606059773
 20
-128.8910128801036
 30
0.0
 10
97.88687606059773
 20
-128.8486382056351
 30
0.0
 10
97.88687606059773
 20
-128.840025466922
 30
0.0
 10
97.88480900330659
 20
-128.7704345381199
 30
0.0
 10
97.87654077414199
 20
-128.7852484487065
 30
0.0
 10
97.87206215001116
 20
-128.7873155059976
 30
0.0
 10
97.85724823942458
 20
-128.8083305884576
 30
0.0
 10
97.85724823942458
 20
-128.8083305884576
 30
0.0
 10
97.72840166827623
 20
-128.7301269209425
 30
0.0
 10
97.72840166827623
 20
-128.7301269209425
 30
0.0
 10
97.72840166827623
 20
-128.7301269209425
 30
0.0
 10
97.72840166827623
 20
-128.840025466922
 30
0.0
 10
97.72840166827623
 20
-128.840025466922
 30
0.0
 10
97.67741425509453
 20
-128.8338242950485
 30
0.0
 10
97.60334470216166
 20
-128.8338242950485
 30
0.0
 10
97.56958276640621
 20
-128.8338242950485
 30
0.0
 10
97.56958276640621
 20
-128.8338242950485
 30
0.0
 10
97.50205889489533
 20
-128.8338242950485
 30
0.0
 10
97.50205889489533
 20
-128.8338242950485
 30
0.0
 10
97.50205889489533
 20
-128.8338242950485
 30
0.0
 10
97.50205889489533
 20
-129.4029540692118
 30
0.0
 10
97.50205889489533
 20
-129.4029540692118
 30
0.0
 10
97.53375377335962
 20
-129.3964083877898
 30
0.0
 10
97.64571937663024
 20
-129.3733262480386
 30
0.0
 10
97.74321557886282
 20
-129.3395643122832
 30
0.0
 10
97.74321557886282
 20
-129.3395643122832
 30
0.0
 10
97.72392304414541
 20
-129.5128526151912
 30
0.0
 10
97.72392304414541
 20
-129.5128526151912
 30
0.0
 10
97.68189287922536
 20
-129.529733583069
 30
0.0
 10
97.65226505805222
 20
-129.5404133790732
 30
0.0
 10
97.49551321347334
 20
-129.5869221681241
 30
0.0
 10
97.40249563537161
 20
-129.6144829320061
 30
0.0
 10
97.25435652950586
 20
-129.6589246637658
 30
0.0
 10
97.16133895140412
 20
-129.6864854276478
 30
0.0
 10
97.15720483682182
 20
-129.7116346246902
 30
0.0
 10
97.152726212691
 20
-129.7329942166987
 30
0.0
 10
97.13377818752211
 20
-129.7329942166987
 30
0.0
 10
97.11483016235324
 20
-129.7329942166987
 30
0.0
 10
97.10862899047979
 20
-129.7181803061121
 30
0.0
 10
97.10415036634896
 20
-129.7054334528167
 30
0.0
 10
97.10415036634896
 20
-129.7054334528167
 30
0.0
 10
97.03662649483807
 20
-129.4790906794358
 30
0.0
 10
97.03662649483807
 20
-129.4790906794358
 30
0.0
 10
97.20164656858154
 20
-129.4577310874272
 30
0.0
 10
97.23334144704583
 20
-129.4535969728449
 30
0.0
 10
97.31774628643446
 20
-129.4387830622584
 30
0.0
 10
97.31774628643446
 20
-129.4387830622584
 30
0.0
 10
97.31774628643446
 20
-128.8338242950485
 30
0.0
 10
97.31774628643446
 20
-128.8338242950485
 30
0.0
 10
97.31774628643446
 20
-128.8338242950485
 30
0.0
 10
97.26710338280128
 20
-128.8338242950485
 30
0.0
 10
97.26710338280128
 20
-128.8338242950485
 30
0.0
 10
97.19096677257727
 20
-128.8338242950485
 30
0.0
 10
97.09588213718436
 20
-128.840025466922
 30
0.0
 10
97.07245548788467
 20
-128.8424370337616
 30
0.0
 10
97.07245548788467
 20
-128.8424370337616
 30
0.0
 10
97.07245548788467
 20
-128.6603637373662
 30
0.0
 10
97.07245548788467
 20
-128.6603637373662
 30
0.0
 10
97.12964407293981
 20
-128.668804221305
 30
0.0
 10
97.23540850433699
 20
-128.6708712785962
 30
0.0
 10
97.24815535763241
 20
-128.6708712785962
 30
0.0
 10
97.24815535763241
 20
-128.6708712785962
 30
0.0
 10
97.31774628643446
 20
-128.6708712785962
 30
0.0
 10
97.31774628643446
 20
-128.6708712785962
 30
0.0
 10
97.31774628643446
 20
-128.6708712785962
 30
0.0
 10
97.31774628643446
 20
-128.2943223420584
 30
0.0
 10
97.31774628643446
 20
-128.2943223420584
 30
0.0
 10
97.31774628643446
 20
-128.2478135530075
 30
0.0
 10
97.31567922914331
 20
-128.214051617252
 30
0.0
 10
97.31361217185216
 20
-128.1780503694312
 30
0.0
 10
97.31361217185216
 20
-128.1780503694312
 30
0.0
 10
97.51893986277305
 20
-128.1949313373089
 30
0.0
 10
97.51893986277305
 20
-128.1949313373089
 30
0.0
 10
97.53168671606848
 20
-128.1949313373089
 30
0.0
 10
97.55476885581965
 20
-128.1992377066655
 30
0.0
 10
97.55476885581965
 20
-128.2181857318344
 30
0.0
 10
97.55476885581965
 20
-128.2393730690686
 30
0.0
 10
97.53168671606848
 20
-128.252119922364
 30
0.0
 10
97.51032712405993
 20
-128.2626274635941
 30
0.0
 10
97.50205889489533
 20
-128.412833626751
 30
0.0
 10
97.50205889489533
 20
-128.4869031796838
 30
0.0
 10
97.50205889489533
 20
-128.6708712785962
 30
0.0
 10
97.50205889489533
 20
-128.6708712785962
 30
0.0
 10
97.56958276640621
 20
-128.6708712785962
 30
0.0
 10
97.56958276640621
 20
-128.6708712785962
 30
0.0
 10
97.61609155545709
 20
-128.6708712785962
 30
0.0
 10
97.67948131238569
 20
-128.6667371640139
 30
0.0
 10
97.72392304414541
 20
-128.6560573680096
 30
0.0
 10
97.84691295296884
 20
-128.516531000857
 30
0.0
 10
97.9292507350663
 20
-128.3113755647103
 30
0.0
 10
97.95887855623945
 20
-128.1673705734269
 30
0.0
 10
97.95887855623945
 20
-128.1673705734269
 30
0.0
 10
98.1745415336161
 20
-128.2202527891255
 30
0.0
 10
98.1745415336161
 20
-128.2202527891255
 30
0.0
 10
98.18522132962036
 20
-128.2224921011909
 30
0.0
 10
98.20210229749809
 20
-128.2288655278386
 30
0.0
 10
98.20210229749809
 20
-128.2436794384252
 30
0.0
 10
98.20210229749809
 20
-128.2646945208852
 30
0.0
 10
98.18108721503806
 20
-128.2690008902418
 30
0.0
 10
98.14732527928261
 20
-128.2774413741807
 30
0.0
 10
98.12389862998292
 20
-128.3387640738181
 30
0.0
 10
98.11769745810948
 20
-128.3578843537612
 30
0.0
 10
98.10047198068322
 20
-128.3980197161644
 30
0.0
 10
98.10047198068322
 20
-128.3980197161644
 30
0.0
 10
98.54488929828045
 20
-128.3980197161644
 30
0.0
 10
98.54488929828045
 20
-128.3980197161644
 30
0.0
 10
98.78811303953908
 20
-128.3980197161644
 30
0.0
 10
98.81360674612993
 20
-128.3916462895167
 30
0.0
 10
98.9469319414091
 20
-128.3811387482867
 30
0.0
 10
98.9469319414091
 20
-128.3811387482867
 30
0.0
 10
98.9469319414091
 20
-128.5694132165556
 30
0.0
 10
98.9469319414091
 20
-128.5694132165556
 30
0.0
 10
98.83910045272079
 20
-128.5609727326167
 30
0.0
 10
98.55763615157588
 20
-128.5587334205513
 30
0.0
 10
98.5510904701539
 20
-128.5587334205513
 30
0.0
  0
SPLINE
  5
14F
330
10B
100
AcDbEntity
  8
_U+30EC_U+30A4_U+30E4_U+30FC 1
370
     0
100
AcDbSpline
210
0.0
220
0.0
230
1.0
 70
    11
 71
     3
 72
    47
 73
    43
 74
     0
 42
0.0000000001
 43
0.0000000001
 12
1.0
 22
0.0
 32
0.0
 13
1.0
 23
0.0
 33
0.0
 40
0.0
 40
0.0
 40
0.0
 40
0.0
 40
1.0
 40
1.0
 40
1.0
 40
2.0
 40
2.0
 40
2.0
 40
3.0
 40
3.0
 40
3.0
 40
4.0
 40
4.0
 40
4.0
 40
5.0
 40
5.0
 40
5.0
 40
6.0
 40
6.0
 40
6.0
 40
7.0
 40
7.0
 40
7.0
 40
8.0
 40
8.0
 40
8.0
 40
9.0
 40
9.0
 40
9.0
 40
10.0
 40
10.0
 40
10.0
 40
11.0
 40
11.0
 40
11.0
 40
12.0
 40
12.0
 40
12.0
 40
13.0
 40
13.0
 40
13.0
 40
14.0
 40
14.0
 40
14.0
 40
14.0
 10
98.6062119979179
 20
-130.0099798937128
 30
0.0
 10
98.6062119979179
 20
-130.0099798937128
 30
0.0
 10
98.03914928104577
 20
-130.0099798937128
 30
0.0
 10
98.03914928104577
 20
-130.0099798937128
 30
0.0
 10
97.9926404919949
 20
-130.0099798937128
 30
0.0
 10
97.74114852157166
 20
-130.012046951004
 30
0.0
 10
97.59300941570592
 20
-130.0268608615905
 30
0.0
 10
97.59300941570592
 20
-130.0268608615905
 30
0.0
 10
97.59300941570592
 20
-129.8449598199693
 30
0.0
 10
97.59300941570592
 20
-129.8449598199693
 30
0.0
 10
97.67121308322109
 20
-129.8494384441001
 30
0.0
 10
97.70910913355884
 20
-129.8515055013913
 30
0.0
 10
97.79799259707828
 20
-129.8535725586825
 30
0.0
 10
97.79799259707828
 20
-129.8535725586825
 30
0.0
 10
97.79799259707828
 20
-129.6313638998838
 30
0.0
 10
97.79799259707828
 20
-129.6313638998838
 30
0.0
 10
97.79799259707828
 20
-129.5342122071998
 30
0.0
 10
97.79385848249598
 20
-129.4346489476761
 30
0.0
 10
97.78765731062254
 20
-129.3350856881523
 30
0.0
 10
97.8741292073023
 20
-129.3416313695743
 30
0.0
 10
97.9885063774126
 20
-129.3478325414478
 30
0.0
 10
98.19176701104234
 20
-129.3478325414478
 30
0.0
 10
98.19176701104234
 20
-129.3478325414478
 30
0.0
 10
98.511127362525
 20
-129.3478325414478
 30
0.0
 10
98.511127362525
 20
-129.3478325414478
 30
0.0
 10
98.51319441981614
 20
-129.3478325414478
 30
0.0
 10
98.73333602132361
 20
-129.3457654841566
 30
0.0
 10
98.86424964976311
 20
-129.3350856881523
 30
0.0
 10
98.85598142059851
 20
-129.4622097115581
 30
0.0
 10
98.85391436330735
 20
-129.5552272896598
 30
0.0
 10
98.85391436330735
 20
-129.6038031360018
 30
0.0
 10
98.85391436330735
 20
-129.6038031360018
 30
0.0
 10
98.85391436330735
 20
-129.8387586480959
 30
0.0
 10
98.85391436330735
 20
-129.8387586480959
 30
0.0
 10
98.92557234940055
 20
-129.8366915908047
 30
0.0
 10
98.94038625998714
 20
-129.8346245335136
 30
0.0
 10
98.98482799174685
 20
-129.8280788520916
 30
0.0
 10
98.98482799174685
 20
-129.8280788520916
 30
0.0
 10
98.98482799174685
 20
-130.0185926324259
 30
0.0
 10
98.98482799174685
 20
-130.0185926324259
 30
0.0
 10
98.85804847788965
 20
-130.012046951004
 30
0.0
 10
98.73333602132361
 20
-130.0099798937128
 30
0.0
 10
98.6062119979179
 20
-130.0099798937128
 30
0.0
  0
POLYLINE
  5
150
330
10B
100
AcDbEntity
  8
_U+30EC_U+30A4_U+30E4_U+30FC 1
370
     0
100
AcDb2dPolyline
 66
     1
 10
0.0
 20
0.0
 30
0.0
  0
VERTEX
  5
151
330
150
100
AcDbEntity
  8
_U+30EC_U+30A4_U+30E4_U+30FC 1
370
     0
100
AcDbVertex
100
AcDb2dVertex
 10
98.10047198068322
 20
-129.502172819187
 30
0.0
  0
VERTEX
  5
152
330
150
100
AcDbEntity
  8
_U+30EC_U+30A4_U+30E4_U+30FC 1
370
     0
100
AcDbVertex
100
AcDb2dVertex
 10
97.97782658140832
 20
-129.502172819187
 30
0.0
  0
VERTEX
  5
153
330
150
100
AcDbEntity
  8
_U+30EC_U+30A4_U+30E4_U+30FC 1
370
     0
100
AcDbVertex
100
AcDb2dVertex
 10
97.97782658140832
 20
-129.8556396159736
 30
0.0
  0
VERTEX
  5
154
330
150
100
AcDbEntity
  8
_U+30EC_U+30A4_U+30E4_U+30FC 1
370
     0
100
AcDbVertex
100
AcDb2dVertex
 10
98.10047198068322
 20
-129.8556396159736
 30
0.0
  0
VERTEX
  5
155
330
150
100
AcDbEntity
  8
_U+30EC_U+30A4_U+30E4_U+30FC 1
370
     0
100
AcDbVertex
100
AcDb2dVertex
 10
98.10047198068322
 20
-129.502172819187
 30
0.0
  0
SEQEND
  5
156
330
150
100
AcDbEntity
  8
_U+30EC_U+30A4_U+30E4_U+30FC 1
370
     0
  0
POLYLINE
  5
157
330
10B
100
AcDbEntity
  8
_U+30EC_U+30A4_U+30E4_U+30FC 1
370
     0
100
AcDb2dPolyline
 66
     1
 10
0.0
 20
0.0
 30
0.0
  0
VERTEX
  5
158
330
157
100
AcDbEntity
  8
_U+30EC_U+30A4_U+30E4_U+30FC 1
370
     0
100
AcDbVertex
100
AcDb2dVertex
 10
98.6020778833356
 20
-128.8527723202174
 30
0.0
  0
VERTEX
  5
159
330
157
100
AcDbEntity
  8
_U+30EC_U+30A4_U+30E4_U+30FC 1
370
     0
100
AcDbVertex
100
AcDb2dVertex
 10
98.06257593034547
 20
-128.8527723202174
 30
0.0
  0
VERTEX
  5
15A
330
157
100
AcDbEntity
  8
_U+30EC_U+30A4_U+30E4_U+30FC 1
370
     0
100
AcDbVertex
100
AcDb2dVertex
 10
98.06257593034547
 20
-129.0622341257206
 30
0.0
  0
VERTEX
  5
15B
330
157
100
AcDbEntity
  8
_U+30EC_U+30A4_U+30E4_U+30FC 1
370
     0
100
AcDbVertex
100
AcDb2dVertex
 10
98.6020778833356
 20
-129.0622341257206
 30
0.0
  0
VERTEX
  5
15C
330
157
100
AcDbEntity
  8
_U+30EC_U+30A4_U+30E4_U+30FC 1
370
     0
100
AcDbVertex
100
AcDb2dVertex
 10
98.6020778833356
 20
-128.8527723202174
 30
0.0
  0
SEQEND
  5
15D
330
157
100
AcDbEntity
  8
_U+30EC_U+30A4_U+30E4_U+30FC 1
370
     0
  0
POLYLINE
  5
15E
330
10B
100
AcDbEntity
  8
_U+30EC_U+30A4_U+30E4_U+30FC 1
370
     0
100
AcDb2dPolyline
 66
     1
 10
0.0
 20
0.0
 30
0.0
  0
VERTEX
  5
15F
330
15E
100
AcDbEntity
  8
_U+30EC_U+30A4_U+30E4_U+30FC 1
370
     0
100
AcDbVertex
100
AcDb2dVertex
 10
98.38607039641043
 20
-129.5045843860266
 30
0.0
  0
VERTEX
  5
160
330
15E
100
AcDbEntity
  8
_U+30EC_U+30A4_U+30E4_U+30FC 1
370
     0
100
AcDbVertex
100
AcDb2dVertex
 10
98.25929088255323
 20
-129.5045843860266
 30
0.0
  0
VERTEX
  5
161
330
15E
100
AcDbEntity
  8
_U+30EC_U+30A4_U+30E4_U+30FC 1
370
     0
100
AcDbVertex
100
AcDb2dVertex
 10
98.25929088255323
 20
-129.8494384441001
 30
0.0
  0
VERTEX
  5
162
330
15E
100
AcDbEntity
  8
_U+30EC_U+30A4_U+30E4_U+30FC 1
370
     0
100
AcDbVertex
100
AcDb2dVertex
 10
98.38607039641043
 20
-129.8494384441001
 30
0.0
  0
VERTEX
  5
163
330
15E
100
AcDbEntity
  8
_U+30EC_U+30A4_U+30E4_U+30FC 1
370
     0
100
AcDbVertex
100
AcDb2dVertex
 10
98.38607039641043
 20
-129.5045843860266
 30
0.0
  0
SEQEND
  5
164
330
15E
100
AcDbEntity
  8
_U+30EC_U+30A4_U+30E4_U+30FC 1
370
     0
  0
POLYLINE
  5
165
330
10B
100
AcDbEntity
  8
_U+30EC_U+30A4_U+30E4_U+30FC 1
370
     0
100
AcDb2dPolyline
 66
     1
 10
0.0
 20
0.0
 30
0.0
  0
VERTEX
  5
166
330
165
100
AcDbEntity
  8
_U+30EC_U+30A4_U+30E4_U+30FC 1
370
     0
100
AcDbVertex
100
AcDb2dVertex
 10
98.67408037897732
 20
-129.502172819187
 30
0.0
  0
VERTEX
  5
167
330
165
100
AcDbEntity
  8
_U+30EC_U+30A4_U+30E4_U+30FC 1
370
     0
100
AcDbVertex
100
AcDb2dVertex
 10
98.5469563555716
 20
-129.502172819187
 30
0.0
  0
VERTEX
  5
168
330
165
100
AcDbEntity
  8
_U+30EC_U+30A4_U+30E4_U+30FC 1
370
     0
100
AcDbVertex
100
AcDb2dVertex
 10
98.5469563555716
 20
-129.8428927626782
 30
0.0
  0
VERTEX
  5
169
330
165
100
AcDbEntity
  8
_U+30EC_U+30A4_U+30E4_U+30FC 1
370
     0
100
AcDbVertex
100
AcDb2dVertex
 10
98.67408037897732
 20
-129.8428927626782
 30
0.0
  0
VERTEX
  5
16A
330
165
100
AcDbEntity
  8
_U+30EC_U+30A4_U+30E4_U+30FC 1
370
     0
100
AcDbVertex
100
AcDb2dVertex
 10
98.67408037897732
 20
-129.502172819187
 30
0.0
  0
SEQEND
  5
16B
330
165
100
AcDbEntity
  8
_U+30EC_U+30A4_U+30E4_U+30FC 1
370
     0
  0
HATCH
  5
16C
330
10B
100
AcDbEntity
  8
_U+30EC_U+30A4_U+30E4_U+30FC 1
 62
   179
420
  2234388
100
AcDbHatch
 10
0.0
 20
0.0
 30
0.0
210
0.0
220
0.0
230
1.0
  2
SOLID
 70
     1
 71
     0
 91
        6
 92
        1
 93
        1
 72
     4
 94
        3
 73
     0
 74
     1
 95
      158
 96
      154
 40
0.0
 40
0.0
 40
0.0
 40
0.0
 40
1.0
 40
1.0
 40
1.0
 40
2.0
 40
2.0
 40
2.0
 40
3.0
 40
3.0
 40
3.0
 40
4.0
 40
4.0
 40
4.0
 40
5.0
 40
5.0
 40
5.0
 40
6.0
 40
6.0
 40
6.0
 40
7.0
 40
7.0
 40
7.0
 40
8.0
 40
8.0
 40
8.0
 40
9.0
 40
9.0
 40
9.0
 40
10.0
 40
10.0
 40
10.0
 40
11.0
 40
11.0
 40
11.0
 40
12.0
 40
12.0
 40
12.0
 40
13.0
 40
13.0
 40
13.0
 40
14.0
 40
14.0
 40
14.0
 40
15.0
 40
15.0
 40
15.0
 40
16.0
 40
16.0
 40
16.0
 40
17.0
 40
17.0
 40
17.0
 40
18.0
 40
18.0
 40
18.0
 40
19.0
 40
19.0
 40
19.0
 40
20.0
 40
20.0
 40
20.0
 40
21.0
 40
21.0
 40
21.0
 40
22.0
 40
22.0
 40
22.0
 40
23.0
 40
23.0
 40
23.0
 40
24.0
 40
24.0
 40
24.0
 40
25.0
 40
25.0
 40
25.0
 40
26.0
 40
26.0
 40
26.0
 40
27.0
 40
27.0
 40
27.0
 40
28.0
 40
28.0
 40
28.0
 40
29.0
 40
29.0
 40
29.0
 40
30.0
 40
30.0
 40
30.0
 40
31.0
 40
31.0
 40
31.0
 40
32.0
 40
32.0
 40
32.0
 40
33.0
 40
33.0
 40
33.0
 40
34.0
 40
34.0
 40
34.0
 40
35.0
 40
35.0
 40
35.0
 40
36.0
 40
36.0
 40
36.0
 40
37.0
 40
37.0
 40
37.0
 40
38.0
 40
38.0
 40
38.0
 40
39.0
 40
39.0
 40
39.0
 40
40.0
 40
40.0
 40
40.0
 40
41.0
 40
41.0
 40
41.0
 40
42.0
 40
42.0
 40
42.0
 40
43.0
 40
43.0
 40
43.0
 40
44.0
 40
44.0
 40
44.0
 40
45.0
 40
45.0
 40
45.0
 40
46.0
 40
46.0
 40
46.0
 40
47.0
 40
47.0
 40
47.0
 40
48.0
 40
48.0
 40
48.0
 40
49.0
 40
49.0
 40
49.0
 40
50.0
 40
50.0
 40
50.0
 40
51.0
 40
51.0
 40
51.0
 40
51.0
 10
98.5510904701539
 20
-128.5587334205513
 10
98.5510904701539
 20
-128.5587334205513
 10
98.0243353704592
 20
-128.5587334205513
 10
98.0243353704592
 20
-128.5587334205513
 10
98.00538734529033
 20
-128.5906005537899
 10
98.00538734529033
 20
-128.5906005537899
 10
97.93579641648827
 20
-128.6941256731216
 10
97.9926404919949
 20
-128.696364985187
 10
98.12803274456522
 20
-128.6984320424782
 10
98.18522132962036
 20
-128.6984320424782
 10
98.18522132962036
 20
-128.6984320424782
 10
98.51319441981614
 20
-128.6984320424782
 10
98.51319441981614
 20
-128.6984320424782
 10
98.64445255780417
 20
-128.6984320424782
 10
98.68889428956389
 20
-128.6941256731216
 10
98.78397892495678
 20
-128.6899915585393
 10
98.77984481037448
 20
-128.7663004235376
 10
98.77743324353482
 20
-128.8128092125885
 10
98.77743324353482
 20
-128.8761989695171
 10
98.77743324353482
 20
-128.8761989695171
 10
98.77743324353482
 20
-129.0136582793785
 10
98.77743324353482
 20
-129.0136582793785
 10
98.77743324353482
 20
-129.1342366213623
 10
98.77984481037448
 20
-129.1469834746577
 10
98.78604598224794
 20
-129.2189859702994
 10
98.6696017548465
 20
-129.2124402888774
 10
98.63583981909105
 20
-129.2124402888774
 10
98.5152614771073
 20
-129.2124402888774
 10
98.5152614771073
 20
-129.2124402888774
 10
98.19796818291579
 20
-129.2124402888774
 10
98.19796818291579
 20
-129.2124402888774
 10
98.10908471939635
 20
-129.2124402888774
 10
98.0160671412946
 20
-129.2165744034598
 10
97.88067488872429
 20
-129.2231200848817
 10
97.88480900330659
 20
-129.1659314998266
 10
97.88687606059773
 20
-129.1087429147714
 10
97.88687606059773
 20
-129.0518988392648
 10
97.88687606059773
 20
-129.0518988392648
 10
97.88687606059773
 20
-128.8910128801036
 10
97.88687606059773
 20
-128.8910128801036
 10
97.88687606059773
 20
-128.8486382056351
 10
97.88687606059773
 20
-128.840025466922
 10
97.88480900330659
 20
-128.7704345381199
 10
97.87654077414199
 20
-128.7852484487065
 10
97.87206215001116
 20
-128.7873155059976
 10
97.85724823942458
 20
-128.8083305884576
 10
97.85724823942458
 20
-128.8083305884576
 10
97.72840166827623
 20
-128.7301269209425
 10
97.72840166827623
 20
-128.7301269209425
 10
97.72840166827623
 20
-128.7301269209425
 10
97.72840166827623
 20
-128.840025466922
 10
97.72840166827623
 20
-128.840025466922
 10
97.67741425509453
 20
-128.8338242950485
 10
97.60334470216166
 20
-128.8338242950485
 10
97.56958276640621
 20
-128.8338242950485
 10
97.56958276640621
 20
-128.8338242950485
 10
97.50205889489533
 20
-128.8338242950485
 10
97.50205889489533
 20
-128.8338242950485
 10
97.50205889489533
 20
-128.8338242950485
 10
97.50205889489533
 20
-129.4029540692118
 10
97.50205889489533
 20
-129.4029540692118
 10
97.53375377335962
 20
-129.3964083877898
 10
97.64571937663024
 20
-129.3733262480386
 10
97.74321557886282
 20
-129.3395643122832
 10
97.74321557886282
 20
-129.3395643122832
 10
97.72392304414541
 20
-129.5128526151912
 10
97.72392304414541
 20
-129.5128526151912
 10
97.68189287922536
 20
-129.529733583069
 10
97.65226505805222
 20
-129.5404133790732
 10
97.49551321347334
 20
-129.5869221681241
 10
97.40249563537161
 20
-129.6144829320061
 10
97.25435652950586
 20
-129.6589246637658
 10
97.16133895140412
 20
-129.6864854276478
 10
97.15720483682182
 20
-129.7116346246902
 10
97.152726212691
 20
-129.7329942166987
 10
97.13377818752211
 20
-129.7329942166987
 10
97.11483016235324
 20
-129.7329942166987
 10
97.10862899047979
 20
-129.7181803061121
 10
97.10415036634896
 20
-129.7054334528167
 10
97.10415036634896
 20
-129.7054334528167
 10
97.03662649483807
 20
-129.4790906794358
 10
97.03662649483807
 20
-129.4790906794358
 10
97.20164656858154
 20
-129.4577310874272
 10
97.23334144704583
 20
-129.4535969728449
 10
97.31774628643446
 20
-129.4387830622584
 10
97.31774628643446
 20
-129.4387830622584
 10
97.31774628643446
 20
-128.8338242950485
 10
97.31774628643446
 20
-128.8338242950485
 10
97.31774628643446
 20
-128.8338242950485
 10
97.26710338280128
 20
-128.8338242950485
 10
97.26710338280128
 20
-128.8338242950485
 10
97.19096677257727
 20
-128.8338242950485
 10
97.09588213718436
 20
-128.840025466922
 10
97.07245548788467
 20
-128.8424370337616
 10
97.07245548788467
 20
-128.8424370337616
 10
97.07245548788467
 20
-128.6603637373662
 10
97.07245548788467
 20
-128.6603637373662
 10
97.12964407293981
 20
-128.668804221305
 10
97.23540850433699
 20
-128.6708712785962
 10
97.24815535763241
 20
-128.6708712785962
 10
97.24815535763241
 20
-128.6708712785962
 10
97.31774628643446
 20
-128.6708712785962
 10
97.31774628643446
 20
-128.6708712785962
 10
97.31774628643446
 20
-128.6708712785962
 10
97.31774628643446
 20
-128.2943223420584
 10
97.31774628643446
 20
-128.2943223420584
 10
97.31774628643446
 20
-128.2478135530075
 10
97.31567922914331
 20
-128.214051617252
 10
97.31361217185216
 20
-128.1780503694312
 10
97.31361217185216
 20
-128.1780503694312
 10
97.51893986277305
 20
-128.1949313373089
 10
97.51893986277305
 20
-128.1949313373089
 10
97.53168671606848
 20
-128.1949313373089
 10
97.55476885581965
 20
-128.1992377066655
 10
97.55476885581965
 20
-128.2181857318344
 10
97.55476885581965
 20
-128.2393730690686
 10
97.53168671606848
 20
-128.252119922364
 10
97.51032712405993
 20
-128.2626274635941
 10
97.50205889489533
 20
-128.412833626751
 10
97.50205889489533
 20
-128.4869031796838
 10
97.50205889489533
 20
-128.6708712785962
 10
97.50205889489533
 20
-128.6708712785962
 10
97.56958276640621
 20
-128.6708712785962
 10
97.56958276640621
 20
-128.6708712785962
 10
97.61609155545709
 20
-128.6708712785962
 10
97.67948131238569
 20
-128.6667371640139
 10
97.72392304414541
 20
-128.6560573680096
 10
97.84691295296884
 20
-128.516531000857
 10
97.9292507350663
 20
-128.3113755647103
 10
97.95887855623945
 20
-128.1673705734269
 10
97.95887855623945
 20
-128.1673705734269
 10
98.1745415336161
 20
-128.2202527891255
 10
98.1745415336161
 20
-128.2202527891255
 10
98.18522132962036
 20
-128.2224921011909
 10
98.20210229749809
 20
-128.2288655278386
 10
98.20210229749809
 20
-128.2436794384252
 10
98.20210229749809
 20
-128.2646945208852
 10
98.18108721503806
 20
-128.2690008902418
 10
98.14732527928261
 20
-128.2774413741807
 10
98.12389862998292
 20
-128.3387640738181
 10
98.11769745810948
 20
-128.3578843537612
 10
98.10047198068322
 20
-128.3980197161644
 10
98.10047198068322
 20
-128.3980197161644
 10
98.54488929828045
 20
-128.3980197161644
 10
98.54488929828045
 20
-128.3980197161644
 10
98.78811303953908
 20
-128.3980197161644
 10
98.81360674612993
 20
-128.3916462895167
 10
98.9469319414091
 20
-128.3811387482867
 10
98.9469319414091
 20
-128.3811387482867
 10
98.9469319414091
 20
-128.5694132165556
 10
98.9469319414091
 20
-128.5694132165556
 10
98.83910045272079
 20
-128.5609727326167
 10
98.55763615157588
 20
-128.5587334205513
 10
98.5510904701539
 20
-128.5587334205513
 97
        0
 97
        0
 92
        1
 93
        1
 72
     4
 94
        3
 73
     0
 74
     1
 95
       47
 96
       43
 40
0.0
 40
0.0
 40
0.0
 40
0.0
 40
1.0
 40
1.0
 40
1.0
 40
2.0
 40
2.0
 40
2.0
 40
3.0
 40
3.0
 40
3.0
 40
4.0
 40
4.0
 40
4.0
 40
5.0
 40
5.0
 40
5.0
 40
6.0
 40
6.0
 40
6.0
 40
7.0
 40
7.0
 40
7.0
 40
8.0
 40
8.0
 40
8.0
 40
9.0
 40
9.0
 40
9.0
 40
10.0
 40
10.0
 40
10.0
 40
11.0
 40
11.0
 40
11.0
 40
12.0
 40
12.0
 40
12.0
 40
13.0
 40
13.0
 40
13.0
 40
14.0
 40
14.0
 40
14.0
 40
14.0
 10
98.6062119979179
 20
-130.0099798937128
 10
98.6062119979179
 20
-130.0099798937128
 10
98.03914928104577
 20
-130.0099798937128
 10
98.03914928104577
 20
-130.0099798937128
 10
97.9926404919949
 20
-130.0099798937128
 10
97.74114852157166
 20
-130.012046951004
 10
97.59300941570592
 20
-130.0268608615905
 10
97.59300941570592
 20
-130.0268608615905
 10
97.59300941570592
 20
-129.8449598199693
 10
97.59300941570592
 20
-129.8449598199693
 10
97.67121308322109
 20
-129.8494384441001
 10
97.70910913355884
 20
-129.8515055013913
 10
97.79799259707828
 20
-129.8535725586825
 10
97.79799259707828
 20
-129.8535725586825
 10
97.79799259707828
 20
-129.6313638998838
 10
97.79799259707828
 20
-129.6313638998838
 10
97.79799259707828
 20
-129.5342122071998
 10
97.79385848249598
 20
-129.4346489476761
 10
97.78765731062254
 20
-129.3350856881523
 10
97.8741292073023
 20
-129.3416313695743
 10
97.9885063774126
 20
-129.3478325414478
 10
98.19176701104234
 20
-129.3478325414478
 10
98.19176701104234
 20
-129.3478325414478
 10
98.511127362525
 20
-129.3478325414478
 10
98.511127362525
 20
-129.3478325414478
 10
98.51319441981614
 20
-129.3478325414478
 10
98.73333602132361
 20
-129.3457654841566
 10
98.86424964976311
 20
-129.3350856881523
 10
98.85598142059851
 20
-129.4622097115581
 10
98.85391436330735
 20
-129.5552272896598
 10
98.85391436330735
 20
-129.6038031360018
 10
98.85391436330735
 20
-129.6038031360018
 10
98.85391436330735
 20
-129.8387586480959
 10
98.85391436330735
 20
-129.8387586480959
 10
98.92557234940055
 20
-129.8366915908047
 10
98.94038625998714
 20
-129.8346245335136
 10
98.98482799174685
 20
-129.8280788520916
 10
98.98482799174685
 20
-129.8280788520916
 10
98.98482799174685
 20
-130.0185926324259
 10
98.98482799174685
 20
-130.0185926324259
 10
98.85804847788965
 20
-130.012046951004
 10
98.73333602132361
 20
-130.0099798937128
 10
98.6062119979179
 20
-130.0099798937128
 97
        0
 97
        0
 92
        1
 93
        4
 72
     1
 10
98.10047198068322
 20
-129.502172819187
 11
97.97782658140832
 21
-129.502172819187
 72
     1
 10
97.97782658140832
 20
-129.502172819187
 11
97.97782658140832
 21
-129.8556396159736
 72
     1
 10
97.97782658140832
 20
-129.8556396159736
 11
98.10047198068322
 21
-129.8556396159736
 72
     1
 10
98.10047198068322
 20
-129.8556396159736
 11
98.10047198068322
 21
-129.502172819187
 97
        0
 92
        1
 93
        4
 72
     1
 10
98.6020778833356
 20
-128.8527723202174
 11
98.06257593034547
 21
-128.8527723202174
 72
     1
 10
98.06257593034547
 20
-128.8527723202174
 11
98.06257593034547
 21
-129.0622341257206
 72
     1
 10
98.06257593034547
 20
-129.0622341257206
 11
98.6020778833356
 21
-129.0622341257206
 72
     1
 10
98.6020778833356
 20
-129.0622341257206
 11
98.6020778833356
 21
-128.8527723202174
 97
        0
 92
        1
 93
        4
 72
     1
 10
98.38607039641043
 20
-129.5045843860266
 11
98.25929088255323
 21
-129.5045843860266
 72
     1
 10
98.25929088255323
 20
-129.5045843860266
 11
98.25929088255323
 21
-129.8494384441001
 72
     1
 10
98.25929088255323
 20
-129.8494384441001
 11
98.38607039641043
 21
-129.8494384441001
 72
     1
 10
98.38607039641043
 20
-129.8494384441001
 11
98.38607039641043
 21
-129.5045843860266
 97
        0
 92
        1
 93
        4
 72
     1
 10
98.67408037897732
 20
-129.502172819187
 11
98.5469563555716
 21
-129.502172819187
 72
     1
 10
98.5469563555716
 20
-129.502172819187
 11
98.5469563555716
 21
-129.8428927626782
 72
     1
 10
98.5469563555716
 20
-129.8428927626782
 11
98.67408037897732
 21
-129.8428927626782
 72
     1
 10
98.67408037897732
 20
-129.8428927626782
 11
98.67408037897732
 21
-129.502172819187
 97
        0
 75
     2
 76
     1
 98
        0
  0
SPLINE
  5
16D
330
10B
100
AcDbEntity
  8
_U+30EC_U+30A4_U+30E4_U+30FC 1
370
     0
100
AcDbSpline
210
0.0
220
0.0
230
1.0
 70
    11
 71
     3
 72
    74
 73
    70
 74
     0
 42
0.0000000001
 43
0.0000000001
 12
1.0
 22
0.0
 32
0.0
 13
1.0
 23
0.0
 33
0.0
 40
0.0
 40
0.0
 40
0.0
 40
0.0
 40
1.0
 40
1.0
 40
1.0
 40
2.0
 40
2.0
 40
2.0
 40
3.0
 40
3.0
 40
3.0
 40
4.0
 40
4.0
 40
4.0
 40
5.0
 40
5.0
 40
5.0
 40
6.0
 40
6.0
 40
6.0
 40
7.0
 40
7.0
 40
7.0
 40
8.0
 40
8.0
 40
8.0
 40
9.0
 40
9.0
 40
9.0
 40
10.0
 40
10.0
 40
10.0
 40
11.0
 40
11.0
 40
11.0
 40
12.0
 40
12.0
 40
12.0
 40
13.0
 40
13.0
 40
13.0
 40
14.0
 40
14.0
 40
14.0
 40
15.0
 40
15.0
 40
15.0
 40
16.0
 40
16.0
 40
16.0
 40
17.0
 40
17.0
 40
17.0
 40
18.0
 40
18.0
 40
18.0
 40
19.0
 40
19.0
 40
19.0
 40
20.0
 40
20.0
 40
20.0
 40
21.0
 40
21.0
 40
21.0
 40
22.0
 40
22.0
 40
22.0
 40
23.0
 40
23.0
 40
23.0
 40
23.0
 10
99.92327200192891
 20
-129.9379773980711
 30
0.0
 10
99.31796872517052
 20
-129.9379773980711
 30
0.0
 10
99.24837779636846
 20
-129.8301459093827
 30
0.0
 10
99.24837779636846
 20
-129.5087185006089
 30
0.0
 10
99.24837779636846
 20
-129.5087185006089
 30
0.0
 10
99.24837779636846
 20
-128.8720648549348
 30
0.0
 10
99.24837779636846
 20
-128.8720648549348
 30
0.0
 10
99.24837779636846
 20
-128.7237534942948
 30
0.0
 10
99.24837779636846
 20
-128.5397853953824
 30
0.0
 10
99.24631073907732
 20
-128.4255804800464
 30
0.0
 10
99.24424368178616
 20
-128.3599514110524
 30
0.0
 10
99.24183211494649
 20
-128.3323906471704
 30
0.0
 10
99.23769800036419
 20
-128.2901882274761
 30
0.0
 10
99.23769800036419
 20
-128.2901882274761
 30
0.0
 10
99.48953448033595
 20
-128.336697016527
 30
0.0
 10
99.48953448033595
 20
-128.336697016527
 30
0.0
 10
99.52122935880026
 20
-128.3430704431747
 30
0.0
 10
99.54017738396912
 20
-128.3451375004658
 30
0.0
 10
99.54017738396912
 20
-128.374765321639
 30
0.0
 10
99.54017738396912
 20
-128.3875121749344
 30
0.0
 10
99.53397621209568
 20
-128.4000867734555
 30
0.0
 10
99.5274305306737
 20
-128.4086995121687
 30
0.0
 10
99.50434839092253
 20
-128.4360880212764
 30
0.0
 10
99.50021427634023
 20
-128.440394390633
 30
0.0
 10
99.48540036575365
 20
-128.4657158424496
 30
0.0
 10
99.47885468433168
 20
-128.5461588220301
 30
0.0
 10
99.46197371645395
 20
-128.8148762698796
 30
0.0
 10
99.45990665916281
 20
-128.8824001413905
 30
0.0
 10
99.45990665916281
 20
-128.8824001413905
 30
0.0
 10
99.45783960187165
 20
-128.9671494903277
 30
0.0
 10
99.45783960187165
 20
-128.9671494903277
 30
0.0
 10
99.5825520584377
 20
-128.9650824330365
 30
0.0
 10
100.1220540114278
 20
-128.8296901804662
 30
0.0
 10
100.4266004523239
 20
-128.6560573680096
 30
0.0
 10
100.4266004523239
 20
-128.6560573680096
 30
0.0
 10
100.5492458515988
 20
-128.8696532880951
 30
0.0
 10
100.5492458515988
 20
-128.8696532880951
 30
0.0
 10
100.5537244757296
 20
-128.8761989695171
 30
0.0
 10
100.5619927048942
 20
-128.8930799373948
 30
0.0
 10
100.5619927048942
 20
-128.9037597333991
 30
0.0
 10
100.5619927048942
 20
-128.9140950198548
 30
0.0
 10
100.5537244757296
 20
-128.9247748158591
 30
0.0
 10
100.5282307691388
 20
-128.9247748158591
 30
0.0
 10
100.5154839158434
 20
-128.9247748158591
 30
0.0
 10
100.5048041198391
 20
-128.9247748158591
 30
0.0
 10
100.4775878655056
 20
-128.9037597333991
 30
0.0
 10
100.0924261902547
 20
-129.0326063045474
 30
0.0
 10
99.96978079097978
 20
-129.0663682403029
 30
0.0
 10
99.82164168511405
 20
-129.095996061476
 30
0.0
 10
99.69899628583914
 20
-129.1214897680669
 30
0.0
 10
99.53190915480452
 20
-129.15111758924
 30
0.0
 10
99.45783960187165
 20
-129.1531846465311
 30
0.0
 10
99.45783960187165
 20
-129.1531846465311
 30
0.0
 10
99.45783960187165
 20
-129.4980387046047
 30
0.0
 10
99.45783960187165
 20
-129.4980387046047
 30
0.0
 10
99.45783960187165
 20
-129.5255994684867
 30
0.0
 10
99.45783960187165
 20
-129.6420436958881
 30
0.0
 10
99.51054956279597
 20
-129.682006803517
 30
0.0
 10
99.59943302631542
 20
-129.7498751845764
 30
0.0
 10
99.80269365994516
 20
-129.7605549805807
 30
0.0
 10
99.91672632050694
 20
-129.7605549805807
 30
0.0
 10
100.0882920756724
 20
-129.7605549805807
 30
0.0
 10
100.4266004523239
 20
-129.7181803061121
 30
0.0
 10
100.5809407300631
 20
-129.6568576064747
 30
0.0
 10
100.5809407300631
 20
-129.6568576064747
 30
0.0
 10
100.5833522969028
 20
-129.889401551729
 30
0.0
 10
100.5833522969028
 20
-129.889401551729
 30
0.0
 10
100.3632106953953
 20
-129.9210964301933
 30
0.0
 10
100.1430690938878
 20
-129.9379773980711
 30
0.0
 10
99.92327200192891
 20
-129.9379773980711
 30
0.0
  0
SPLINE
  5
16E
330
10B
100
AcDbEntity
  8
_U+30EC_U+30A4_U+30E4_U+30FC 1
370
     0
100
AcDbSpline
210
0.0
220
0.0
230
1.0
 70
    11
 71
     3
 72
    17
 73
    13
 74
     0
 42
0.0000000001
 43
0.0000000001
 12
1.0
 22
0.0
 32
0.0
 13
1.0
 23
0.0
 33
0.0
 40
0.0
 40
0.0
 40
0.0
 40
0.0
 40
1.0
 40
1.0
 40
1.0
 40
2.0
 40
2.0
 40
2.0
 40
3.0
 40
3.0
 40
3.0
 40
4.0
 40
4.0
 40
4.0
 40
4.0
 10
100.5196180304257
 20
-128.5862941844333
 30
0.0
 10
100.4669080695013
 20
-128.516531000857
 30
0.0
 10
100.3463297275176
 20
-128.4276475373375
 30
0.0
 10
100.2657144931627
 20
-128.3916462895167
 30
0.0
 10
100.2657144931627
 20
-128.3916462895167
 30
0.0
 10
100.359076580813
 20
-128.2733072595983
 30
0.0
 10
100.359076580813
 20
-128.2733072595983
 30
0.0
 10
100.4500271016236
 20
-128.3070691953538
 30
0.0
 10
100.5537244757296
 20
-128.3895792322255
 30
0.0
 10
100.6191812899494
 20
-128.4636487851584
 30
0.0
 10
100.6191812899494
 20
-128.4636487851584
 30
0.0
 10
100.5196180304257
 20
-128.5862941844333
 30
0.0
 10
100.5196180304257
 20
-128.5862941844333
 30
0.0
  0
SPLINE
  5
16F
330
10B
100
AcDbEntity
  8
_U+30EC_U+30A4_U+30E4_U+30FC 1
370
     0
100
AcDbSpline
210
0.0
220
0.0
230
1.0
 70
    11
 71
     3
 72
    17
 73
    13
 74
     0
 42
0.0000000001
 43
0.0000000001
 12
1.0
 22
0.0
 32
0.0
 13
1.0
 23
0.0
 33
0.0
 40
0.0
 40
0.0
 40
0.0
 40
0.0
 40
1.0
 40
1.0
 40
1.0
 40
2.0
 40
2.0
 40
2.0
 40
3.0
 40
3.0
 40
3.0
 40
4.0
 40
4.0
 40
4.0
 40
4.0
 10
100.7904025355663
 20
-128.4107665694598
 30
0.0
 10
100.6846381041691
 20
-128.3155096792927
 30
0.0
 10
100.6805039895868
 20
-128.3155096792927
 30
0.0
 10
100.5302978264299
 20
-128.2202527891255
 30
0.0
 10
100.5302978264299
 20
-128.2202527891255
 30
0.0
 10
100.6319281432448
 20
-128.1019137592072
 30
0.0
 10
100.6319281432448
 20
-128.1019137592072
 30
0.0
 10
100.73114689322
 20
-128.1463554909669
 30
0.0
 10
100.7969482169883
 20
-128.1949313373089
 30
0.0
 10
100.8878987377989
 20
-128.2943223420584
 30
0.0
 10
100.8878987377989
 20
-128.2943223420584
 30
0.0
 10
100.7904025355663
 20
-128.4107665694598
 30
0.0
 10
100.7904025355663
 20
-128.4107665694598
 30
0.0
  0
HATCH
  5
170
330
10B
100
AcDbEntity
  8
_U+30EC_U+30A4_U+30E4_U+30FC 1
 62
   179
420
  2234388
100
AcDbHatch
 10
0.0
 20
0.0
 30
0.0
210
0.0
220
0.0
230
1.0
  2
SOLID
 70
     1
 71
     0
 91
        3
 92
        1
 93
        1
 72
     4
 94
        3
 73
     0
 74
     1
 95
       74
 96
       70
 40
0.0
 40
0.0
 40
0.0
 40
0.0
 40
1.0
 40
1.0
 40
1.0
 40
2.0
 40
2.0
 40
2.0
 40
3.0
 40
3.0
 40
3.0
 40
4.0
 40
4.0
 40
4.0
 40
5.0
 40
5.0
 40
5.0
 40
6.0
 40
6.0
 40
6.0
 40
7.0
 40
7.0
 40
7.0
 40
8.0
 40
8.0
 40
8.0
 40
9.0
 40
9.0
 40
9.0
 40
10.0
 40
10.0
 40
10.0
 40
11.0
 40
11.0
 40
11.0
 40
12.0
 40
12.0
 40
12.0
 40
13.0
 40
13.0
 40
13.0
 40
14.0
 40
14.0
 40
14.0
 40
15.0
 40
15.0
 40
15.0
 40
16.0
 40
16.0
 40
16.0
 40
17.0
 40
17.0
 40
17.0
 40
18.0
 40
18.0
 40
18.0
 40
19.0
 40
19.0
 40
19.0
 40
20.0
 40
20.0
 40
20.0
 40
21.0
 40
21.0
 40
21.0
 40
22.0
 40
22.0
 40
22.0
 40
23.0
 40
23.0
 40
23.0
 40
23.0
 10
99.92327200192891
 20
-129.9379773980711
 10
99.31796872517052
 20
-129.9379773980711
 10
99.24837779636846
 20
-129.8301459093827
 10
99.24837779636846
 20
-129.5087185006089
 10
99.24837779636846
 20
-129.5087185006089
 10
99.24837779636846
 20
-128.8720648549348
 10
99.24837779636846
 20
-128.8720648549348
 10
99.24837779636846
 20
-128.7237534942948
 10
99.24837779636846
 20
-128.5397853953824
 10
99.24631073907732
 20
-128.4255804800464
 10
99.24424368178616
 20
-128.3599514110524
 10
99.24183211494649
 20
-128.3323906471704
 10
99.23769800036419
 20
-128.2901882274761
 10
99.23769800036419
 20
-128.2901882274761
 10
99.48953448033595
 20
-128.336697016527
 10
99.48953448033595
 20
-128.336697016527
 10
99.52122935880026
 20
-128.3430704431747
 10
99.54017738396912
 20
-128.3451375004658
 10
99.54017738396912
 20
-128.374765321639
 10
99.54017738396912
 20
-128.3875121749344
 10
99.53397621209568
 20
-128.4000867734555
 10
99.5274305306737
 20
-128.4086995121687
 10
99.50434839092253
 20
-128.4360880212764
 10
99.50021427634023
 20
-128.440394390633
 10
99.48540036575365
 20
-128.4657158424496
 10
99.47885468433168
 20
-128.5461588220301
 10
99.46197371645395
 20
-128.8148762698796
 10
99.45990665916281
 20
-128.8824001413905
 10
99.45990665916281
 20
-128.8824001413905
 10
99.45783960187165
 20
-128.9671494903277
 10
99.45783960187165
 20
-128.9671494903277
 10
99.5825520584377
 20
-128.9650824330365
 10
100.1220540114278
 20
-128.8296901804662
 10
100.4266004523239
 20
-128.6560573680096
 10
100.4266004523239
 20
-128.6560573680096
 10
100.5492458515988
 20
-128.8696532880951
 10
100.5492458515988
 20
-128.8696532880951
 10
100.5537244757296
 20
-128.8761989695171
 10
100.5619927048942
 20
-128.8930799373948
 10
100.5619927048942
 20
-128.9037597333991
 10
100.5619927048942
 20
-128.9140950198548
 10
100.5537244757296
 20
-128.9247748158591
 10
100.5282307691388
 20
-128.9247748158591
 10
100.5154839158434
 20
-128.9247748158591
 10
100.5048041198391
 20
-128.9247748158591
 10
100.4775878655056
 20
-128.9037597333991
 10
100.0924261902547
 20
-129.0326063045474
 10
99.96978079097978
 20
-129.0663682403029
 10
99.82164168511405
 20
-129.095996061476
 10
99.69899628583914
 20
-129.1214897680669
 10
99.53190915480452
 20
-129.15111758924
 10
99.45783960187165
 20
-129.1531846465311
 10
99.45783960187165
 20
-129.1531846465311
 10
99.45783960187165
 20
-129.4980387046047
 10
99.45783960187165
 20
-129.4980387046047
 10
99.45783960187165
 20
-129.5255994684867
 10
99.45783960187165
 20
-129.6420436958881
 10
99.51054956279597
 20
-129.682006803517
 10
99.59943302631542
 20
-129.7498751845764
 10
99.80269365994516
 20
-129.7605549805807
 10
99.91672632050694
 20
-129.7605549805807
 10
100.0882920756724
 20
-129.7605549805807
 10
100.4266004523239
 20
-129.7181803061121
 10
100.5809407300631
 20
-129.6568576064747
 10
100.5809407300631
 20
-129.6568576064747
 10
100.5833522969028
 20
-129.889401551729
 10
100.5833522969028
 20
-129.889401551729
 10
100.3632106953953
 20
-129.9210964301933
 10
100.1430690938878
 20
-129.9379773980711
 10
99.92327200192891
 20
-129.9379773980711
 97
        0
 97
        0
 92
        1
 93
        1
 72
     4
 94
        3
 73
     0
 74
     1
 95
       17
 96
       13
 40
0.0
 40
0.0
 40
0.0
 40
0.0
 40
1.0
 40
1.0
 40
1.0
 40
2.0
 40
2.0
 40
2.0
 40
3.0
 40
3.0
 40
3.0
 40
4.0
 40
4.0
 40
4.0
 40
4.0
 10
100.5196180304257
 20
-128.5862941844333
 10
100.4669080695013
 20
-128.516531000857
 10
100.3463297275176
 20
-128.4276475373375
 10
100.2657144931627
 20
-128.3916462895167
 10
100.2657144931627
 20
-128.3916462895167
 10
100.359076580813
 20
-128.2733072595983
 10
100.359076580813
 20
-128.2733072595983
 10
100.4500271016236
 20
-128.3070691953538
 10
100.5537244757296
 20
-128.3895792322255
 10
100.6191812899494
 20
-128.4636487851584
 10
100.6191812899494
 20
-128.4636487851584
 10
100.5196180304257
 20
-128.5862941844333
 10
100.5196180304257
 20
-128.5862941844333
 97
        0
 97
        0
 92
        1
 93
        1
 72
     4
 94
        3
 73
     0
 74
     1
 95
       17
 96
       13
 40
0.0
 40
0.0
 40
0.0
 40
0.0
 40
1.0
 40
1.0
 40
1.0
 40
2.0
 40
2.0
 40
2.0
 40
3.0
 40
3.0
 40
3.0
 40
4.0
 40
4.0
 40
4.0
 40
4.0
 10
100.7904025355663
 20
-128.4107665694598
 10
100.6846381041691
 20
-128.3155096792927
 10
100.6805039895868
 20
-128.3155096792927
 10
100.5302978264299
 20
-128.2202527891255
 10
100.5302978264299
 20
-128.2202527891255
 10
100.6319281432448
 20
-128.1019137592072
 10
100.6319281432448
 20
-128.1019137592072
 10
100.73114689322
 20
-128.1463554909669
 10
100.7969482169883
 20
-128.1949313373089
 10
100.8878987377989
 20
-128.2943223420584
 10
100.8878987377989
 20
-128.2943223420584
 10
100.7904025355663
 20
-128.4107665694598
 10
100.7904025355663
 20
-128.4107665694598
 97
        0
 97
        0
 75
     2
 76
     1
 98
        0
  0
ENDBLK
  5
10E
330
10B
100
AcDbEntity
  8
0
100
AcDbBlockEnd
  0
ENDSEC
  0
SECTION
  2
ENTITIES
  0
SPLINE
  5
41
330
1F
100
AcDbEntity
  8
_U+30EC_U+30A4_U+30E4_U+30FC 1
370
     0
100
AcDbSpline
210
0.0
220
0.0
230
1.0
 70
    11
 71
     3
 72
    38
 73
    34
 74
     0
 42
0.0000000001
 43
0.0000000001
 12
1.0
 22
0.0
 32
0.0
 13
1.0
 23
0.0
 33
0.0
 40
0.0
 40
0.0
 40
0.0
 40
0.0
 40
1.0
 40
1.0
 40
1.0
 40
2.0
 40
2.0
 40
2.0
 40
3.0
 40
3.0
 40
3.0
 40
4.0
 40
4.0
 40
4.0
 40
5.0
 40
5.0
 40
5.0
 40
6.0
 40
6.0
 40
6.0
 40
7.0
 40
7.0
 40
7.0
 40
8.0
 40
8.0
 40
8.0
 40
9.0
 40
9.0
 40
9.0
 40
10.0
 40
10.0
 40
10.0
 40
11.0
 40
11.0
 40
11.0
 40
11.0
 10
102.8898587639499
 20
-133.9666555220637
 30
0.0
 10
102.8898587639499
 20
-133.9666555220637
 30
0.0
 10
80.43417794795316
 20
-133.9666555220637
 30
0.0
 10
80.43417794795316
 20
-133.9666555220637
 30
0.0
 10
80.43417794795316
 20
-133.9666555220637
 30
0.0
 10
80.43417794795316
 20
-111.2602196944073
 30
0.0
 10
80.43417794795316
 20
-111.2602196944073
 30
0.0
 10
80.43417794795316
 20
-109.9083752503007
 30
0.0
 10
79.337958313499
 20
-108.8121183061303
 30
0.0
 10
77.98576109161463
 20
-108.8121183061303
 30
0.0
 10
76.63391664750803
 20
-108.8121183061303
 30
0.0
 10
75.5376930728729
 20
-109.9083752503007
 30
0.0
 10
75.5376930728729
 20
-111.2602196944073
 30
0.0
 10
75.5376930728729
 20
-111.2602196944073
 30
0.0
 10
75.5376930728729
 20
-136.1639671881812
 30
0.0
 10
75.5376930728729
 20
-136.1639671881812
 30
0.0
 10
75.5376930728729
 20
-136.205983021504
 30
0.0
 10
75.54182057276759
 20
-136.2473285770494
 30
0.0
 10
75.54386668382651
 20
-136.2893444103722
 30
0.0
 10
75.54182057276759
 20
-136.3313955214725
 30
0.0
 10
75.5376930728729
 20
-136.372741077018
 30
0.0
 10
75.5376930728729
 20
-136.4154624658963
 30
0.0
 10
75.5376930728729
 20
-137.7673069100029
 30
0.0
 10
76.63391664750803
 20
-138.8635285763951
 30
0.0
 10
77.9861138693924
 20
-138.8635285763951
 30
0.0
 10
77.9861138693924
 20
-138.8635285763951
 30
0.0
 10
102.8898587639499
 20
-138.8635285763951
 30
0.0
 10
102.8898587639499
 20
-138.8635285763951
 30
0.0
 10
104.2417031739059
 20
-138.8635285763951
 30
0.0
 10
105.3379248126056
 20
-137.7673069100029
 30
0.0
 10
105.3379248126056
 20
-136.4154624658963
 30
0.0
 10
105.3379248126056
 20
-135.0629124662342
 30
0.0
 10
104.2417031739059
 20
-133.9666555220637
 30
0.0
 10
102.8898587639499
 20
-133.9666555220637
 30
0.0
  0
HATCH
  5
42
330
1F
100
AcDbEntity
  8
_U+30EC_U+30A4_U+30E4_U+30FC 1
 62
     2
420
 16773120
100
AcDbHatch
 10
0.0
 20
0.0
 30
0.0
210
0.0
220
0.0
230
1.0
  2
SOLID
 70
     1
 71
     0
 91
        1
 92
        1
 93
        1
 72
     4
 94
        3
 73
     0
 74
     1
 95
       38
 96
       34
 40
0.0
 40
0.0
 40
0.0
 40
0.0
 40
1.0
 40
1.0
 40
1.0
 40
2.0
 40
2.0
 40
2.0
 40
3.0
 40
3.0
 40
3.0
 40
4.0
 40
4.0
 40
4.0
 40
5.0
 40
5.0
 40
5.0
 40
6.0
 40
6.0
 40
6.0
 40
7.0
 40
7.0
 40
7.0
 40
8.0
 40
8.0
 40
8.0
 40
9.0
 40
9.0
 40
9.0
 40
10.0
 40
10.0
 40
10.0
 40
11.0
 40
11.0
 40
11.0
 40
11.0
 10
102.8898587639499
 20
-133.9666555220637
 10
102.8898587639499
 20
-133.9666555220637
 10
80.43417794795316
 20
-133.9666555220637
 10
80.43417794795316
 20
-133.9666555220637
 10
80.43417794795316
 20
-133.9666555220637
 10
80.43417794795316
 20
-111.2602196944073
 10
80.43417794795316
 20
-111.2602196944073
 10
80.43417794795316
 20
-109.9083752503007
 10
79.337958313499
 20
-108.8121183061303
 10
77.98576109161463
 20
-108.8121183061303
 10
76.63391664750803
 20
-108.8121183061303
 10
75.5376930728729
 20
-109.9083752503007
 10
75.5376930728729
 20
-111.2602196944073
 10
75.5376930728729
 20
-111.2602196944073
 10
75.5376930728729
 20
-136.1639671881812
 10
75.5376930728729
 20
-136.1639671881812
 10
75.5376930728729
 20
-136.205983021504
 10
75.54182057276759
 20
-136.2473285770494
 10
75.54386668382651
 20
-136.2893444103722
 10
75.54182057276759
 20
-136.3313955214725
 10
75.5376930728729
 20
-136.372741077018
 10
75.5376930728729
 20
-136.4154624658963
 10
75.5376930728729
 20
-137.7673069100029
 10
76.63391664750803
 20
-138.8635285763951
 10
77.9861138693924
 20
-138.8635285763951
 10
77.9861138693924
 20
-138.8635285763951
 10
102.8898587639499
 20
-138.8635285763951
 10
102.8898587639499
 20
-138.8635285763951
 10
104.2417031739059
 20
-138.8635285763951
 10
105.3379248126056
 20
-137.7673069100029
 10
105.3379248126056
 20
-136.4154624658963
 10
105.3379248126056
 20
-135.0629124662342
 10
104.2417031739059
 20
-133.9666555220637
 10
102.8898587639499
 20
-133.9666555220637
 97
        0
 97
        0
 75
     2
 76
     1
 98
        0
  0
SPLINE
  5
43
330
1F
100
AcDbEntity
  8
_U+30EC_U+30A4_U+30E4_U+30FC 1
 62
   179
420
  2234388
370
    25
100
AcDbSpline
210
0.0
220
0.0
230
1.0
 70
    11
 71
     3
 72
    32
 73
    28
 74
     0
 42
0.0000000001
 43
0.0000000001
 12
1.0
 22
0.0
 32
0.0
 13
1.0
 23
0.0
 33
0.0
 40
0.0
 40
0.0
 40
0.0
 40
0.0
 40
1.0
 40
1.0
 40
1.0
 40
2.0
 40
2.0
 40
2.0
 40
3.0
 40
3.0
 40
3.0
 40
4.0
 40
4.0
 40
4.0
 40
5.0
 40
5.0
 40
5.0
 40
6.0
 40
6.0
 40
6.0
 40
7.0
 40
7.0
 40
7.0
 40
8.0
 40
8.0
 40
8.0
 40
9.0
 40
9.0
 40
9.0
 40
9.0
 10
102.1367487831633
 20
-133.9301430220731
 30
0.0
 10
102.1367487831633
 20
-133.9301430220731
 30
0.0
 10
80.3084499799228
 20
-133.9301430220731
 30
0.0
 10
80.3084499799228
 20
-133.9301430220731
 30
0.0
 10
80.3084499799228
 20
-133.9301430220731
 30
0.0
 10
80.3084499799228
 20
-111.850699138704
 30
0.0
 10
80.3084499799228
 20
-111.850699138704
 30
0.0
 10
80.3084499799228
 20
-111.0886638611167
 30
0.0
 10
79.69006380027042
 20
-110.469926916827
 30
0.0
 10
78.9273249802681
 20
-110.469926916827
 30
0.0
 10
78.16489967251394
 20
-110.469926916827
 30
0.0
 10
77.54651552162358
 20
-111.0886638611167
 30
0.0
 10
77.54651552162358
 20
-111.850699138704
 30
0.0
 10
77.54651552162358
 20
-111.850699138704
 30
0.0
 10
77.54651552162358
 20
-134.8720596885044
 30
0.0
 10
77.54651552162358
 20
-134.8720596885044
 30
0.0
 10
77.54651552162358
 20
-135.6609766327518
 30
0.0
 10
78.46461966486744
 20
-136.6924282991601
 30
0.0
 10
79.11574159270039
 20
-136.6924282991601
 30
0.0
 10
79.11574159270039
 20
-136.6924282991601
 30
0.0
 10
102.1367487831633
 20
-136.6924282991601
 30
0.0
 10
102.1367487831633
 20
-136.6924282991601
 30
0.0
 10
102.8994895970375
 20
-136.6924282991601
 30
0.0
 10
103.5182265256967
 20
-136.0736913548704
 30
0.0
 10
103.5182265256967
 20
-135.3116207995053
 30
0.0
 10
103.5182265256967
 20
-134.5488799663628
 30
0.0
 10
102.8994895970375
 20
-133.9301430220731
 30
0.0
 10
102.1367487831633
 20
-133.9301430220731
 30
0.0
  0
HATCH
  5
44
330
1F
100
AcDbEntity
  8
_U+30EC_U+30A4_U+30E4_U+30FC 1
 62
    31
420
 15976259
100
AcDbHatch
 10
0.0
 20
0.0
 30
0.0
210
0.0
220
0.0
230
1.0
  2
SOLID
 70
     1
 71
     0
 91
        1
 92
        1
 93
        1
 72
     4
 94
        3
 73
     0
 74
     1
 95
       32
 96
       28
 40
0.0
 40
0.0
 40
0.0
 40
0.0
 40
1.0
 40
1.0
 40
1.0
 40
2.0
 40
2.0
 40
2.0
 40
3.0
 40
3.0
 40
3.0
 40
4.0
 40
4.0
 40
4.0
 40
5.0
 40
5.0
 40
5.0
 40
6.0
 40
6.0
 40
6.0
 40
7.0
 40
7.0
 40
7.0
 40
8.0
 40
8.0
 40
8.0
 40
9.0
 40
9.0
 40
9.0
 40
9.0
 10
102.1367487831633
 20
-133.9301430220731
 10
102.1367487831633
 20
-133.9301430220731
 10
80.3084499799228
 20
-133.9301430220731
 10
80.3084499799228
 20
-133.9301430220731
 10
80.3084499799228
 20
-133.9301430220731
 10
80.3084499799228
 20
-111.850699138704
 10
80.3084499799228
 20
-111.850699138704
 10
80.3084499799228
 20
-111.0886638611167
 10
79.69006380027042
 20
-110.469926916827
 10
78.9273249802681
 20
-110.469926916827
 10
78.16489967251394
 20
-110.469926916827
 10
77.54651552162358
 20
-111.0886638611167
 10
77.54651552162358
 20
-111.850699138704
 10
77.54651552162358
 20
-111.850699138704
 10
77.54651552162358
 20
-134.8720596885044
 10
77.54651552162358
 20
-134.8720596885044
 10
77.54651552162358
 20
-135.6609766327518
 10
78.46461966486744
 20
-136.6924282991601
 10
79.11574159270039
 20
-136.6924282991601
 10
79.11574159270039
 20
-136.6924282991601
 10
102.1367487831633
 20
-136.6924282991601
 10
102.1367487831633
 20
-136.6924282991601
 10
102.8994895970375
 20
-136.6924282991601
 10
103.5182265256967
 20
-136.0736913548704
 10
103.5182265256967
 20
-135.3116207995053
 10
103.5182265256967
 20
-134.5488799663628
 10
102.8994895970375
 20
-133.9301430220731
 10
102.1367487831633
 20
-133.9301430220731
 97
        0
 97
        0
 75
     2
 76
     1
 98
        0
  0
SPLINE
  5
45
330
1F
100
AcDbEntity
  8
_U+30EC_U+30A4_U+30E4_U+30FC 1
 62
   179
420
  2234388
370
    25
100
AcDbSpline
210
0.0
220
0.0
230
1.0
 70
    11
 71
     3
 72
    38
 73
    34
 74
     0
 42
0.0000000001
 43
0.0000000001
 12
1.0
 22
0.0
 32
0.0
 13
1.0
 23
0.0
 33
0.0
 40
0.0
 40
0.0
 40
0.0
 40
0.0
 40
1.0
 40
1.0
 40
1.0
 40
2.0
 40
2.0
 40
2.0
 40
3.0
 40
3.0
 40
3.0
 40
4.0
 40
4.0
 40
4.0
 40
5.0
 40
5.0
 40
5.0
 40
6.0
 40
6.0
 40
6.0
 40
7.0
 40
7.0
 40
7.0
 40
8.0
 40
8.0
 40
8.0
 40
9.0
 40
9.0
 40
9.0
 40
10.0
 40
10.0
 40
10.0
 40
11.0
 40
11.0
 40
11.0
 40
11.0
 10
102.8898587639499
 20
-133.9666555220637
 30
0.0
 10
102.8898587639499
 20
-133.9666555220637
 30
0.0
 10
80.43417794795316
 20
-133.9666555220637
 30
0.0
 10
80.43417794795316
 20
-133.9666555220637
 30
0.0
 10
80.43417794795316
 20
-133.9666555220637
 30
0.0
 10
80.43417794795316
 20
-111.2602196944073
 30
0.0
 10
80.43417794795316
 20
-111.2602196944073
 30
0.0
 10
80.43417794795316
 20
-109.9083752503007
 30
0.0
 10
79.337958313499
 20
-108.8121183061303
 30
0.0
 10
77.98576109161463
 20
-108.8121183061303
 30
0.0
 10
76.63391664750803
 20
-108.8121183061303
 30
0.0
 10
75.5376930728729
 20
-109.9083752503007
 30
0.0
 10
75.5376930728729
 20
-111.2602196944073
 30
0.0
 10
75.5376930728729
 20
-111.2602196944073
 30
0.0
 10
75.5376930728729
 20
-136.1639671881812
 30
0.0
 10
75.5376930728729
 20
-136.1639671881812
 30
0.0
 10
75.5376930728729
 20
-136.205983021504
 30
0.0
 10
75.54182057276759
 20
-136.2473285770494
 30
0.0
 10
75.54386668382651
 20
-136.2893444103722
 30
0.0
 10
75.54182057276759
 20
-136.3313955214725
 30
0.0
 10
75.5376930728729
 20
-136.372741077018
 30
0.0
 10
75.5376930728729
 20
-136.4154624658963
 30
0.0
 10
75.5376930728729
 20
-137.7673069100029
 30
0.0
 10
76.63391664750803
 20
-138.8635285763951
 30
0.0
 10
77.9861138693924
 20
-138.8635285763951
 30
0.0
 10
77.9861138693924
 20
-138.8635285763951
 30
0.0
 10
102.8898587639499
 20
-138.8635285763951
 30
0.0
 10
102.8898587639499
 20
-138.8635285763951
 30
0.0
 10
104.2417031739059
 20
-138.8635285763951
 30
0.0
 10
105.3379248126056
 20
-137.7673069100029
 30
0.0
 10
105.3379248126056
 20
-136.4154624658963
 30
0.0
 10
105.3379248126056
 20
-135.0629124662342
 30
0.0
 10
104.2417031739059
 20
-133.9666555220637
 30
0.0
 10
102.8898587639499
 20
-133.9666555220637
 30
0.0
  0
POLYLINE
  5
46
330
1F
100
AcDbEntity
  8
_U+30EC_U+30A4_U+30E4_U+30FC 1
 62
   179
420
  2234388
370
     9
100
AcDb2dPolyline
 66
     1
 10
0.0
 20
0.0
 30
0.0
  0
VERTEX
  5
47
330
46
100
AcDbEntity
  8
_U+30EC_U+30A4_U+30E4_U+30FC 1
 62
   179
420
  2234388
370
     9
100
AcDbVertex
100
AcDb2dVertex
 10
70.2901237623051
 20
-108.9375308060988
 30
0.0
  0
VERTEX
  5
48
330
46
100
AcDbEntity
  8
_U+30EC_U+30A4_U+30E4_U+30FC 1
 62
   179
420
  2234388
370
     9
100
AcDbVertex
100
AcDb2dVertex
 10
77.07005386711245
 20
-108.9375308060988
 30
0.0
  0
SEQEND
  5
49
330
46
100
AcDbEntity
  8
_U+30EC_U+30A4_U+30E4_U+30FC 1
 62
   179
420
  2234388
370
     9
  0
POLYLINE
  5
4A
330
1F
100
AcDbEntity
  8
_U+30EC_U+30A4_U+30E4_U+30FC 1
 62
   179
420
  2234388
370
     9
100
AcDb2dPolyline
 66
     1
 10
0.0
 20
0.0
 30
0.0
  0
VERTEX
  5
4B
330
4A
100
AcDbEntity
  8
_U+30EC_U+30A4_U+30E4_U+30FC 1
 62
   179
420
  2234388
370
     9
100
AcDbVertex
100
AcDb2dVertex
 10
70.2901237623051
 20
-138.8642341319507
 30
0.0
  0
VERTEX
  5
4C
330
4A
100
AcDbEntity
  8
_U+30EC_U+30A4_U+30E4_U+30FC 1
 62
   179
420
  2234388
370
     9
100
AcDbVertex
100
AcDb2dVertex
 10
77.7049832953585
 20
-138.8642341319507
 30
0.0
  0
SEQEND
  5
4D
330
4A
100
AcDbEntity
  8
_U+30EC_U+30A4_U+30E4_U+30FC 1
 62
   179
420
  2234388
370
     9
  0
POLYLINE
  5
4E
330
1F
100
AcDbEntity
  8
_U+30EC_U+30A4_U+30E4_U+30FC 1
 62
   179
420
  2234388
370
     9
100
AcDb2dPolyline
 66
     1
 10
0.0
 20
0.0
 30
0.0
  0
VERTEX
  5
4F
330
4E
100
AcDbEntity
  8
_U+30EC_U+30A4_U+30E4_U+30FC 1
 62
   179
420
  2234388
370
     9
100
AcDbVertex
100
AcDb2dVertex
 10
103.1041359807055
 20
-138.8642341319507
 30
0.0
  0
VERTEX
  5
50
330
4E
100
AcDbEntity
  8
_U+30EC_U+30A4_U+30E4_U+30FC 1
 62
   179
420
  2234388
370
     9
100
AcDbVertex
100
AcDb2dVertex
 10
111.1394638611038
 20
-138.8642341319507
 30
0.0
  0
SEQEND
  5
51
330
4E
100
AcDbEntity
  8
_U+30EC_U+30A4_U+30E4_U+30FC 1
 62
   179
420
  2234388
370
     9
  0
POLYLINE
  5
52
330
1F
100
AcDbEntity
  8
_U+30EC_U+30A4_U+30E4_U+30FC 1
 62
   179
420
  2234388
370
     9
100
AcDb2dPolyline
 66
     1
 10
0.0
 20
0.0
 30
0.0
  0
VERTEX
  5
53
330
52
100
AcDbEntity
  8
_U+30EC_U+30A4_U+30E4_U+30FC 1
 62
   179
420
  2234388
370
     9
100
AcDbVertex
100
AcDb2dVertex
 10
105.364100923049
 20
-145.0164669081901
 30
0.0
  0
VERTEX
  5
54
330
52
100
AcDbEntity
  8
_U+30EC_U+30A4_U+30E4_U+30FC 1
 62
   179
420
  2234388
370
     9
100
AcDbVertex
100
AcDb2dVertex
 10
105.364100923049
 20
-136.9811416324213
 30
0.0
  0
SEQEND
  5
55
330
52
100
AcDbEntity
  8
_U+30EC_U+30A4_U+30E4_U+30FC 1
 62
   179
420
  2234388
370
     9
  0
POLYLINE
  5
56
330
1F
100
AcDbEntity
  8
_U+30EC_U+30A4_U+30E4_U+30FC 1
 62
   179
420
  2234388
370
     9
100
AcDb2dPolyline
 66
     1
 10
0.0
 20
0.0
 30
0.0
  0
VERTEX
  5
57
330
56
100
AcDbEntity
  8
_U+30EC_U+30A4_U+30E4_U+30FC 1
 62
   179
420
  2234388
370
     9
100
AcDbVertex
100
AcDb2dVertex
 10
75.52629835094137
 20
-144.9282724637677
 30
0.0
  0
VERTEX
  5
58
330
56
100
AcDbEntity
  8
_U+30EC_U+30A4_U+30E4_U+30FC 1
 62
   179
420
  2234388
370
     9
100
AcDbVertex
100
AcDb2dVertex
 10
75.52629835094137
 20
-136.2783377437085
 30
0.0
  0
SEQEND
  5
59
330
56
100
AcDbEntity
  8
_U+30EC_U+30A4_U+30E4_U+30FC 1
 62
   179
420
  2234388
370
     9
  0
POLYLINE
  5
5A
330
1F
100
AcDbEntity
  8
_U+30EC_U+30A4_U+30E4_U+30FC 1
 62
   179
420
  2234388
370
     9
100
AcDb2dPolyline
 66
     1
 10
0.0
 20
0.0
 30
0.0
  0
VERTEX
  5
5B
330
5A
100
AcDbEntity
  8
_U+30EC_U+30A4_U+30E4_U+30FC 1
 62
   179
420
  2234388
370
     9
100
AcDbVertex
100
AcDb2dVertex
 10
103.1041359807055
 20
-133.9597763553987
 30
0.0
  0
VERTEX
  5
5C
330
5A
100
AcDbEntity
  8
_U+30EC_U+30A4_U+30E4_U+30FC 1
 62
   179
420
  2234388
370
     9
100
AcDbVertex
100
AcDb2dVertex
 10
111.1394638611038
 20
-133.9597763553987
 30
0.0
  0
SEQEND
  5
5D
330
5A
100
AcDbEntity
  8
_U+30EC_U+30A4_U+30E4_U+30FC 1
 62
   179
420
  2234388
370
     9
  0
POLYLINE
  5
5E
330
1F
100
AcDbEntity
  8
_U+30EC_U+30A4_U+30E4_U+30FC 1
 62
   179
420
  2234388
370
     9
100
AcDb2dPolyline
 66
     1
 10
0.0
 20
0.0
 30
0.0
  0
VERTEX
  5
5F
330
5E
100
AcDbEntity
  8
_U+30EC_U+30A4_U+30E4_U+30FC 1
 62
   179
420
  2234388
370
     9
100
AcDbVertex
100
AcDb2dVertex
 10
110.0563274700069
 20
-130.3568921896332
 30
0.0
  0
VERTEX
  5
60
330
5E
100
AcDbEntity
  8
_U+30EC_U+30A4_U+30E4_U+30FC 1
 62
   179
420
  2234388
370
     9
100
AcDbVertex
100
AcDb2dVertex
 10
110.0563274700069
 20
-142.2982788533144
 30
0.0
  0
SEQEND
  5
61
330
5E
100
AcDbEntity
  8
_U+30EC_U+30A4_U+30E4_U+30FC 1
 62
   179
420
  2234388
370
     9
  0
POLYLINE
  5
62
330
1F
100
AcDbEntity
  8
_U+30EC_U+30A4_U+30E4_U+30FC 1
 62
   179
420
  2234388
370
     9
100
AcDb2dPolyline
 66
     1
 10
0.0
 20
0.0
 30
0.0
  0
VERTEX
  5
63
330
62
100
AcDbEntity
  8
_U+30EC_U+30A4_U+30E4_U+30FC 1
 62
   179
420
  2234388
370
     9
100
AcDbVertex
100
AcDb2dVertex
 10
109.6167310923331
 20
-140.4972071870979
 30
0.0
  0
VERTEX
  5
64
330
62
100
AcDbEntity
  8
_U+30EC_U+30A4_U+30E4_U+30FC 1
 62
   179
420
  2234388
370
     9
100
AcDbVertex
100
AcDb2dVertex
 10
110.0528702478729
 20
-138.7587888541993
 30
0.0
  0
VERTEX
  5
65
330
62
100
AcDbEntity
  8
_U+30EC_U+30A4_U+30E4_U+30FC 1
 62
   179
420
  2234388
370
     9
100
AcDbVertex
100
AcDb2dVertex
 10
110.4890446811896
 20
-140.4972071870979
 30
0.0
  0
VERTEX
  5
66
330
62
100
AcDbEntity
  8
_U+30EC_U+30A4_U+30E4_U+30FC 1
 62
   179
420
  2234388
370
     9
100
AcDbVertex
100
AcDb2dVertex
 10
109.6167310923331
 20
-140.4972071870979
 30
0.0
  0
SEQEND
  5
68
330
62
100
AcDbEntity
  8
_U+30EC_U+30A4_U+30E4_U+30FC 1
 62
   179
420
  2234388
370
     9
  0
HATCH
  5
67
330
1F
100
AcDbEntity
  8
_U+30EC_U+30A4_U+30E4_U+30FC 1
 62
   179
420
  2234388
100
AcDbHatch
 10
0.0
 20
0.0
 30
0.0
210
0.0
220
0.0
230
1.0
  2
SOLID
 70
     1
 71
     0
 91
        1
 92
        1
 93
        3
 72
     1
 10
109.6167310923331
 20
-140.4972071870979
 11
110.0528702478729
 21
-138.7587888541993
 72
     1
 10
110.0528702478729
 20
-138.7587888541993
 11
110.4890446811896
 21
-140.4972071870979
 72
     1
 10
110.4890446811896
 20
-140.4972071870979
 11
109.6167310923331
 21
-140.4972071870979
 97
        0
 75
     2
 76
     1
 98
        0
  0
POLYLINE
  5
69
330
1F
100
AcDbEntity
  8
_U+30EC_U+30A4_U+30E4_U+30FC 1
 62
   179
420
  2234388
370
     9
100
AcDb2dPolyline
 66
     1
 10
0.0
 20
0.0
 30
0.0
  0
VERTEX
  5
6A
330
69
100
AcDbEntity
  8
_U+30EC_U+30A4_U+30E4_U+30FC 1
 62
   179
420
  2234388
370
     9
100
AcDbVertex
100
AcDb2dVertex
 10
110.4897149589503
 20
-132.1387021891875
 30
0.0
  0
VERTEX
  5
6B
330
69
100
AcDbEntity
  8
_U+30EC_U+30A4_U+30E4_U+30FC 1
 62
   179
420
  2234388
370
     9
100
AcDbVertex
100
AcDb2dVertex
 10
110.0535758034105
 20
-133.8770852443085
 30
0.0
  0
VERTEX
  5
6C
330
69
100
AcDbEntity
  8
_U+30EC_U+30A4_U+30E4_U+30FC 1
 62
   179
420
  2234388
370
     9
100
AcDbVertex
100
AcDb2dVertex
 10
109.6167310923331
 20
-132.1387021891875
 30
0.0
  0
VERTEX
  5
6D
330
69
100
AcDbEntity
  8
_U+30EC_U+30A4_U+30E4_U+30FC 1
 62
   179
420
  2234388
370
     9
100
AcDbVertex
100
AcDb2dVertex
 10
110.4897149589503
 20
-132.1387021891875
 30
0.0
  0
SEQEND
  5
6F
330
69
100
AcDbEntity
  8
_U+30EC_U+30A4_U+30E4_U+30FC 1
 62
   179
420
  2234388
370
     9
  0
HATCH
  5
6E
330
1F
100
AcDbEntity
  8
_U+30EC_U+30A4_U+30E4_U+30FC 1
 62
   179
420
  2234388
100
AcDbHatch
 10
0.0
 20
0.0
 30
0.0
210
0.0
220
0.0
230
1.0
  2
SOLID
 70
     1
 71
     0
 91
        1
 92
        1
 93
        3
 72
     1
 10
110.4897149589503
 20
-132.1387021891875
 11
110.0535758034105
 21
-133.8770852443085
 72
     1
 10
110.0535758034105
 20
-133.8770852443085
 11
109.6167310923331
 21
-132.1387021891875
 72
     1
 10
109.6167310923331
 20
-132.1387021891875
 11
110.4897149589503
 21
-132.1387021891875
 97
        0
 75
     2
 76
     1
 98
        0
  0
POLYLINE
  5
70
330
1F
100
AcDbEntity
  8
_U+30EC_U+30A4_U+30E4_U+30FC 1
 62
   179
420
  2234388
370
     9
100
AcDb2dPolyline
 66
     1
 10
0.0
 20
0.0
 30
0.0
  0
VERTEX
  5
71
330
70
100
AcDbEntity
  8
_U+30EC_U+30A4_U+30E4_U+30FC 1
 62
   179
420
  2234388
370
     9
100
AcDbVertex
100
AcDb2dVertex
 10
77.11002358831496
 20
-143.656332186308
 30
0.0
  0
VERTEX
  5
72
330
70
100
AcDbEntity
  8
_U+30EC_U+30A4_U+30E4_U+30FC 1
 62
   179
420
  2234388
370
     9
100
AcDbVertex
100
AcDb2dVertex
 10
105.2138881491034
 20
-143.656332186308
 30
0.0
  0
SEQEND
  5
73
330
70
100
AcDbEntity
  8
_U+30EC_U+30A4_U+30E4_U+30FC 1
 62
   179
420
  2234388
370
     9
  0
POLYLINE
  5
74
330
1F
100
AcDbEntity
  8
_U+30EC_U+30A4_U+30E4_U+30FC 1
 62
   179
420
  2234388
370
     9
100
AcDb2dPolyline
 66
     1
 10
0.0
 20
0.0
 30
0.0
  0
VERTEX
  5
75
330
74
100
AcDbEntity
  8
_U+30EC_U+30A4_U+30E4_U+30FC 1
 62
   179
420
  2234388
370
     9
100
AcDbVertex
100
AcDb2dVertex
 10
77.25332191799245
 20
-144.0966341306427
 30
0.0
  0
VERTEX
  5
76
330
74
100
AcDbEntity
  8
_U+30EC_U+30A4_U+30E4_U+30FC 1
 62
   179
420
  2234388
370
     9
100
AcDbVertex
100
AcDb2dVertex
 10
75.51493890678674
 20
-143.6604949640849
 30
0.0
  0
VERTEX
  5
77
330
74
100
AcDbEntity
  8
_U+30EC_U+30A4_U+30E4_U+30FC 1
 62
   179
420
  2234388
370
     9
100
AcDbVertex
100
AcDb2dVertex
 10
77.25332191799245
 20
-143.2236502419722
 30
0.0
  0
VERTEX
  5
78
330
74
100
AcDbEntity
  8
_U+30EC_U+30A4_U+30E4_U+30FC 1
 62
   179
420
  2234388
370
     9
100
AcDbVertex
100
AcDb2dVertex
 10
77.25332191799245
 20
-144.0966341306427
 30
0.0
  0
SEQEND
  5
7A
330
74
100
AcDbEntity
  8
_U+30EC_U+30A4_U+30E4_U+30FC 1
 62
   179
420
  2234388
370
     9
  0
HATCH
  5
79
330
1F
100
AcDbEntity
  8
_U+30EC_U+30A4_U+30E4_U+30FC 1
 62
   179
420
  2234388
100
AcDbHatch
 10
0.0
 20
0.0
 30
0.0
210
0.0
220
0.0
230
1.0
  2
SOLID
 70
     1
 71
     0
 91
        1
 92
        1
 93
        3
 72
     1
 10
77.25332191799245
 20
-144.0966341306427
 11
75.51493890678674
 21
-143.6604949640849
 72
     1
 10
75.51493890678674
 20
-143.6604949640849
 11
77.25332191799245
 21
-143.2236502419722
 72
     1
 10
77.25332191799245
 20
-143.2236502419722
 11
77.25332191799245
 21
-144.0966341306427
 97
        0
 75
     2
 76
     1
 98
        0
  0
POLYLINE
  5
7B
330
1F
100
AcDbEntity
  8
_U+30EC_U+30A4_U+30E4_U+30FC 1
 62
   179
420
  2234388
370
     9
100
AcDb2dPolyline
 66
     1
 10
0.0
 20
0.0
 30
0.0
  0
VERTEX
  5
7C
330
7B
100
AcDbEntity
  8
_U+30EC_U+30A4_U+30E4_U+30FC 1
 62
   179
420
  2234388
370
     9
100
AcDbVertex
100
AcDb2dVertex
 10
103.5588665246599
 20
-143.2236502419722
 30
0.0
  0
VERTEX
  5
7D
330
7B
100
AcDbEntity
  8
_U+30EC_U+30A4_U+30E4_U+30FC 1
 62
   179
420
  2234388
370
     9
100
AcDbVertex
100
AcDb2dVertex
 10
105.2972848136425
 20
-143.6597894085293
 30
0.0
  0
VERTEX
  5
7E
330
7B
100
AcDbEntity
  8
_U+30EC_U+30A4_U+30E4_U+30FC 1
 62
   179
420
  2234388
370
     9
100
AcDbVertex
100
AcDb2dVertex
 10
103.5588665246599
 20
-144.0959285750872
 30
0.0
  0
VERTEX
  5
7F
330
7B
100
AcDbEntity
  8
_U+30EC_U+30A4_U+30E4_U+30FC 1
 62
   179
420
  2234388
370
     9
100
AcDbVertex
100
AcDb2dVertex
 10
103.5588665246599
 20
-143.2236502419722
 30
0.0
  0
SEQEND
  5
81
330
7B
100
AcDbEntity
  8
_U+30EC_U+30A4_U+30E4_U+30FC 1
 62
   179
420
  2234388
370
     9
  0
HATCH
  5
80
330
1F
100
AcDbEntity
  8
_U+30EC_U+30A4_U+30E4_U+30FC 1
 62
   179
420
  2234388
100
AcDbHatch
 10
0.0
 20
0.0
 30
0.0
210
0.0
220
0.0
230
1.0
  2
SOLID
 70
     1
 71
     0
 91
        1
 92
        1
 93
        3
 72
     1
 10
103.5588665246599
 20
-143.2236502419722
 11
105.2972848136425
 21
-143.6597894085293
 72
     1
 10
105.2972848136425
 20
-143.6597894085293
 11
103.5588665246599
 21
-144.0959285750872
 72
     1
 10
103.5588665246599
 20
-144.0959285750872
 11
103.5588665246599
 21
-143.2236502419722
 97
        0
 75
     2
 76
     1
 98
        0
  0
POLYLINE
  5
82
330
1F
100
AcDbEntity
  8
_U+30EC_U+30A4_U+30E4_U+30FC 1
 62
   179
420
  2234388
370
     9
100
AcDb2dPolyline
 66
     1
 10
0.0
 20
0.0
 30
0.0
  0
VERTEX
  5
83
330
82
100
AcDbEntity
  8
_U+30EC_U+30A4_U+30E4_U+30FC 1
 62
   179
420
  2234388
370
     9
100
AcDbVertex
100
AcDb2dVertex
 10
73.35417507302353
 20
-137.1444424657139
 30
0.0
  0
VERTEX
  5
84
330
82
100
AcDbEntity
  8
_U+30EC_U+30A4_U+30E4_U+30FC 1
 62
   179
420
  2234388
370
     9
100
AcDbVertex
100
AcDb2dVertex
 10
73.35417507302353
 20
-109.0408946949621
 30
0.0
  0
SEQEND
  5
85
330
82
100
AcDbEntity
  8
_U+30EC_U+30A4_U+30E4_U+30FC 1
 62
   179
420
  2234388
370
     9
  0
POLYLINE
  5
86
330
1F
100
AcDbEntity
  8
_U+30EC_U+30A4_U+30E4_U+30FC 1
 62
   179
420
  2234388
370
     9
100
AcDb2dPolyline
 66
     1
 10
0.0
 20
0.0
 30
0.0
  0
VERTEX
  5
87
330
86
100
AcDbEntity
  8
_U+30EC_U+30A4_U+30E4_U+30FC 1
 62
   179
420
  2234388
370
     9
100
AcDbVertex
100
AcDb2dVertex
 10
73.79412422846616
 20
-137.0011088546385
 30
0.0
  0
VERTEX
  5
88
330
86
100
AcDbEntity
  8
_U+30EC_U+30A4_U+30E4_U+30FC 1
 62
   179
420
  2234388
370
     9
100
AcDbVertex
100
AcDb2dVertex
 10
73.35794979514945
 20
-138.7394919097595
 30
0.0
  0
VERTEX
  5
89
330
86
100
AcDbEntity
  8
_U+30EC_U+30A4_U+30E4_U+30FC 1
 62
   179
420
  2234388
370
     9
100
AcDbVertex
100
AcDb2dVertex
 10
72.92145786184084
 20
-137.0011088546385
 30
0.0
  0
VERTEX
  5
8A
330
86
100
AcDbEntity
  8
_U+30EC_U+30A4_U+30E4_U+30FC 1
 62
   179
420
  2234388
370
     9
100
AcDbVertex
100
AcDb2dVertex
 10
73.79412422846616
 20
-137.0011088546385
 30
0.0
  0
SEQEND
  5
8C
330
86
100
AcDbEntity
  8
_U+30EC_U+30A4_U+30E4_U+30FC 1
 62
   179
420
  2234388
370
     9
  0
HATCH
  5
8B
330
1F
100
AcDbEntity
  8
_U+30EC_U+30A4_U+30E4_U+30FC 1
 62
   179
420
  2234388
100
AcDbHatch
 10
0.0
 20
0.0
 30
0.0
210
0.0
220
0.0
230
1.0
  2
SOLID
 70
     1
 71
     0
 91
        1
 92
        1
 93
        3
 72
     1
 10
73.79412422846616
 20
-137.0011088546385
 11
73.35794979514945
 21
-138.7394919097595
 72
     1
 10
73.35794979514945
 20
-138.7394919097595
 11
72.92145786184084
 21
-137.0011088546385
 72
     1
 10
72.92145786184084
 20
-137.0011088546385
 11
73.79412422846616
 21
-137.0011088546385
 97
        0
 75
     2
 76
     1
 98
        0
  0
POLYLINE
  5
8D
330
1F
100
AcDbEntity
  8
_U+30EC_U+30A4_U+30E4_U+30FC 1
 62
   179
420
  2234388
370
     9
100
AcDb2dPolyline
 66
     1
 10
0.0
 20
0.0
 30
0.0
  0
VERTEX
  5
8E
330
8D
100
AcDbEntity
  8
_U+30EC_U+30A4_U+30E4_U+30FC 1
 62
   179
420
  2234388
370
     9
100
AcDbVertex
100
AcDb2dVertex
 10
72.92114036184894
 20
-110.6952108056594
 30
0.0
  0
VERTEX
  5
8F
330
8D
100
AcDbEntity
  8
_U+30EC_U+30A4_U+30E4_U+30FC 1
 62
   179
420
  2234388
370
     9
100
AcDbVertex
100
AcDb2dVertex
 10
73.35727951738878
 20
-108.9568277505387
 30
0.0
  0
VERTEX
  5
90
330
8D
100
AcDbEntity
  8
_U+30EC_U+30A4_U+30E4_U+30FC 1
 62
   179
420
  2234388
370
     9
100
AcDbVertex
100
AcDb2dVertex
 10
73.79377145069738
 20
-110.6952108056594
 30
0.0
  0
VERTEX
  5
91
330
8D
100
AcDbEntity
  8
_U+30EC_U+30A4_U+30E4_U+30FC 1
 62
   179
420
  2234388
370
     9
100
AcDbVertex
100
AcDb2dVertex
 10
72.92114036184894
 20
-110.6952108056594
 30
0.0
  0
SEQEND
  5
93
330
8D
100
AcDbEntity
  8
_U+30EC_U+30A4_U+30E4_U+30FC 1
 62
   179
420
  2234388
370
     9
  0
HATCH
  5
92
330
1F
100
AcDbEntity
  8
_U+30EC_U+30A4_U+30E4_U+30FC 1
 62
   179
420
  2234388
100
AcDbHatch
 10
0.0
 20
0.0
 30
0.0
210
0.0
220
0.0
230
1.0
  2
SOLID
 70
     1
 71
     0
 91
        1
 92
        1
 93
        3
 72
     1
 10
72.92114036184894
 20
-110.6952108056594
 11
73.35727951738878
 21
-108.9568277505387
 72
     1
 10
73.35727951738878
 20
-108.9568277505387
 11
73.79377145069738
 21
-110.6952108056594
 72
     1
 10
73.79377145069738
 20
-110.6952108056594
 11
72.92114036184894
 21
-110.6952108056594
 97
        0
 75
     2
 76
     1
 98
        0
  0
INSERT
  5
95
330
1F
100
AcDbEntity
  8
_U+30EC_U+30A4_U+30E4_U+30FC 1
100
AcDbBlockReference
  2
block 2
 10
0.0
 20
0.0
 30
0.0
  0
INSERT
  5
9E
330
1F
100
AcDbEntity
  8
_U+30EC_U+30A4_U+30E4_U+30FC 1
100
AcDbBlockReference
  2
block 3
 10
0.0
 20
0.0
 30
0.0
  0
INSERT
  5
A7
330
1F
100
AcDbEntity
  8
_U+30EC_U+30A4_U+30E4_U+30FC 1
100
AcDbBlockReference
  2
block 4
 10
0.0
 20
0.0
 30
0.0
  0
INSERT
  5
AD
330
1F
100
AcDbEntity
  8
_U+30EC_U+30A4_U+30E4_U+30FC 1
100
AcDbBlockReference
  2
block 5
 10
0.0
 20
0.0
 30
0.0
  0
INSERT
  5
10C
330
1F
100
AcDbEntity
  8
_U+30EC_U+30A4_U+30E4_U+30FC 1
100
AcDbBlockReference
  2
block 6
 10
0.0
 20
0.0
 30
0.0
  0
POLYLINE
  5
171
330
1F
100
AcDbEntity
  8
_U+30EC_U+30A4_U+30E4_U+30FC 1
 62
   179
420
  2234388
370
     9
100
AcDb2dPolyline
 66
     1
 10
0.0
 20
0.0
 30
0.0
  0
VERTEX
  5
172
330
171
100
AcDbEntity
  8
_U+30EC_U+30A4_U+30E4_U+30FC 1
 62
   179
420
  2234388
370
     9
100
AcDbVertex
100
AcDb2dVertex
 10
83.04177220146187
 20
-138.8642341319507
 30
0.0
  0
VERTEX
  5
173
330
171
100
AcDbEntity
  8
_U+30EC_U+30A4_U+30E4_U+30FC 1
 62
   179
420
  2234388
370
     9
100
AcDbVertex
100
AcDb2dVertex
 10
92.04053126296154
 20
-147.8628191297008
 30
0.0
  0
VERTEX
  5
174
330
171
100
AcDbEntity
  8
_U+30EC_U+30A4_U+30E4_U+30FC 1
 62
   179
420
  2234388
370
     9
100
AcDbVertex
100
AcDb2dVertex
 10
100.8889385372199
 20
-147.8628191297008
 30
0.0
  0
SEQEND
  5
175
330
171
100
AcDbEntity
  8
_U+30EC_U+30A4_U+30E4_U+30FC 1
 62
   179
420
  2234388
370
     9
  0
POLYLINE
  5
176
330
1F
100
AcDbEntity
  8
_U+30EC_U+30A4_U+30E4_U+30FC 1
 62
   179
420
  2234388
370
     9
100
AcDb2dPolyline
 66
     1
 10
0.0
 20
0.0
 30
0.0
  0
VERTEX
  5
177
330
176
100
AcDbEntity
  8
_U+30EC_U+30A4_U+30E4_U+30FC 1
 62
   179
420
  2234388
370
     9
100
AcDbVertex
100
AcDb2dVertex
 10
88.56874164452438
 20
-133.9301430220731
 30
0.0
  0
VERTEX
  5
178
330
176
100
AcDbEntity
  8
_U+30EC_U+30A4_U+30E4_U+30FC 1
 62
   179
420
  2234388
370
     9
100
AcDbVertex
100
AcDb2dVertex
 10
92.04053126296154
 20
-130.4588802451633
 30
0.0
  0
VERTEX
  5
179
330
176
100
AcDbEntity
  8
_U+30EC_U+30A4_U+30E4_U+30FC 1
 62
   179
420
  2234388
370
     9
100
AcDbVertex
100
AcDb2dVertex
 10
100.8889385372199
 20
-130.4588802451633
 30
0.0
  0
SEQEND
  5
17A
330
176
100
AcDbEntity
  8
_U+30EC_U+30A4_U+30E4_U+30FC 1
 62
   179
420
  2234388
370
     9
  0
ENDSEC
  0
SECTION
  2
OBJECTS
  0
DICTIONARY
  5
C
330
0
100
AcDbDictionary
281
     1
  3
ACAD_GROUP
350
D
  3
ACAD_LAYOUT
350
1A
  3
ACAD_MATERIAL
350
3B
  3
ACAD_MLEADERSTYLE
350
17C
  3
ACAD_MLINESTYLE
350
17
  3
ACAD_PLOTSETTINGS
350
19
  3
ACAD_PLOTSTYLENAME
350
E
  3
ACAD_TABLESTYLE
350
17B
  3
ACAD_VISUALSTYLE
350
2A
  0
SUN
  5
3F
330
29
100
AcDbSun
 90
        1
290
     0
 63
     7
421
 16777215
 40
1.0
291
     1
 91
  2455826
 92
 54000000
292
     0
 70
     2
 71
   256
280
     1
  0
DICTIONARY
  5
D
102
{ACAD_REACTORS
330
C
102
}
330
C
100
AcDbDictionary
281
     1
  0
DICTIONARY
  5
1A
102
{ACAD_REACTORS
330
C
102
}
330
C
100
AcDbDictionary
281
     1
  3
Layout1
350
1E
  3
Layout2
350
26
  3
Model
350
22
  0
DICTIONARY
  5
3B
102
{ACAD_REACTORS
330
C
102
}
330
C
100
AcDbDictionary
281
     1
  3
ByBlock
350
3D
  3
ByLayer
350
3C
  3
Global
350
3E
  0
DICTIONARY
  5
17C
102
{ACAD_REACTORS
330
C
102
}
330
C
100
AcDbDictionary
281
     1
  0
DICTIONARY
  5
17
102
{ACAD_REACTORS
330
C
102
}
330
C
100
AcDbDictionary
281
     1
  3
Standard
350
18
  0
DICTIONARY
  5
19
102
{ACAD_REACTORS
330
C
102
}
330
C
100
AcDbDictionary
281
     1
  0
ACDBDICTIONARYWDFLT
  5
E
102
{ACAD_REACTORS
330
C
102
}
330
C
100
AcDbDictionary
281
     1
  3
Normal
350
F
100
AcDbDictionaryWithDefault
340
F
  0
DICTIONARY
  5
17B
102
{ACAD_REACTORS
330
C
102
}
330
C
100
AcDbDictionary
281
     1
  0
DICTIONARY
  5
2A
102
{ACAD_REACTORS
330
C
102
}
330
C
100
AcDbDictionary
281
     1
  3
2dWireframe
350
2F
  3
3D Hidden
350
31
  3
3dWireframe
350
30
  3
Basic
350
32
  3
Brighten
350
36
  3
ColorChange
350
3A
  3
Conceptual
350
34
  3
Dim
350
35
  3
Facepattern
350
39
  3
Flat
350
2B
  3
FlatWithEdges
350
2C
  3
Gouraud
350
2D
  3
GouraudWithEdges
350
2E
  3
Linepattern
350
38
  3
Realistic
350
33
  3
Thicken
350
37
  0
LAYOUT
  5
1E
102
{ACAD_REACTORS
330
1A
102
}
330
1A
100
AcDbPlotSettings
  1

  2
none_device
  4

  6

 40
0.0
 41
0.0
 42
0.0
 43
0.0
 44
0.0
 45
0.0
 46
0.0
 47
0.0
 48
0.0
 49
0.0
140
0.0
141
0.0
142
1.0
143
1.0
 70
   688
 72
     0
 73
     0
 74
     5
  7

 75
    16
 76
     0
 77
     2
 78
   300
147
1.0
148
0.0
149
0.0
100
AcDbLayout
  1
Layout1
 70
     1
 71
     1
 10
0.0
 20
0.0
 11
12.0
 21
9.0
 12
0.0
 22
0.0
 32
0.0
 14
1.000000000000000E+20
 24
1.000000000000000E+20
 34
1.000000000000000E+20
 15
-1.000000000000000E+20
 25
-1.000000000000000E+20
 35
-1.000000000000000E+20
146
0.0
 13
0.0
 23
0.0
 33
0.0
 16
1.0
 26
0.0
 36
0.0
 17
0.0
 27
1.0
 37
0.0
 76
     0
330
1B
  0
LAYOUT
  5
26
102
{ACAD_REACTORS
330
1A
102
}
330
1A
100
AcDbPlotSettings
  1

  2
none_device
  4

  6

 40
0.0
 41
0.0
 42
0.0
 43
0.0
 44
0.0
 45
0.0
 46
0.0
 47
0.0
 48
0.0
 49
0.0
140
0.0
141
0.0
142
1.0
143
1.0
 70
   688
 72
     0
 73
     0
 74
     5
  7

 75
    16
 76
     0
 77
     2
 78
   300
147
1.0
148
0.0
149
0.0
100
AcDbLayout
  1
Layout2
 70
     1
 71
     2
 10
0.0
 20
0.0
 11
0.0
 21
0.0
 12
0.0
 22
0.0
 32
0.0
 14
0.0
 24
0.0
 34
0.0
 15
0.0
 25
0.0
 35
0.0
146
0.0
 13
0.0
 23
0.0
 33
0.0
 16
1.0
 26
0.0
 36
0.0
 17
0.0
 27
1.0
 37
0.0
 76
     0
330
23
  0
LAYOUT
  5
22
102
{ACAD_REACTORS
330
1A
102
}
330
1A
100
AcDbPlotSettings
  1

  2
none_device
  4

  6

 40
0.0
 41
0.0
 42
0.0
 43
0.0
 44
0.0
 45
0.0
 46
0.0
 47
0.0
 48
0.0
 49
0.0
140
0.0
141
0.0
142
1.0
143
1.0
 70
  1712
 72
     0
 73
     0
 74
     0
  7

 75
     0
 76
     0
 77
     2
 78
   300
147
1.0
148
0.0
149
0.0
100
AcDbLayout
  1
Model
 70
     1
 71
     0
 10
0.0
 20
0.0
 11
12.0
 21
9.0
 12
0.0
 22
0.0
 32
0.0
 14
1.000000000000000E+20
 24
1.000000000000000E+20
 34
1.000000000000000E+20
 15
-1.000000000000000E+20
 25
-1.000000000000000E+20
 35
-1.000000000000000E+20
146
0.0
 13
0.0
 23
0.0
 33
0.0
 16
1.0
 26
0.0
 36
0.0
 17
0.0
 27
1.0
 37
0.0
 76
     0
330
1F
331
29
  0
MATERIAL
  5
3D
102
{ACAD_REACTORS
330
3B
102
}
330
3B
100
AcDbMaterial
  1
ByBlock
 72
     1
 94
      127
  0
MATERIAL
  5
3C
102
{ACAD_REACTORS
330
3B
102
}
330
3B
100
AcDbMaterial
  1
ByLayer
 72
     1
 94
      127
  0
MATERIAL
  5
3E
102
{ACAD_REACTORS
330
3B
102
}
330
3B
100
AcDbMaterial
  1
Global
 72
     1
 94
      127
  0
MLINESTYLE
  5
18
102
{ACAD_REACTORS
330
17
102
}
330
17
100
AcDbMlineStyle
  2
Standard
 70
     0
  3

 62
   256
 51
90.0
 52
90.0
 71
     2
 49
0.5
 62
   256
  6
BYLAYER
 49
-0.5
 62
   256
  6
BYLAYER
  0
ACDBPLACEHOLDER
  5
F
102
{ACAD_REACTORS
330
E
102
}
330
E
  0
VISUALSTYLE
  5
2F
102
{ACAD_REACTORS
330
2A
102
}
330
2A
100
AcDbVisualStyle
  2
2dWireframe
 70
     4
177
     2
291
     0
 71
     0
176
     1
 72
     2
176
     1
 73
     0
176
     1
 90
        0
176
     1
 40
-0.6
176
     1
 41
-30.0
176
     1
 62
     5
 63
     7
421
 16777215
176
     1
 74
     1
176
     1
 91
        4
176
     1
 64
     7
176
     1
 65
   257
176
     1
 75
     1
176
     1
175
     1
176
     1
 42
1.0
176
     1
 92
        0
176
     1
 66
   257
176
     1
 43
1.0
176
     1
 76
     1
176
     1
 77
     6
176
     1
 78
     2
176
     1
 67
     7
176
     1
 79
     5
176
     1
170
     0
176
     1
171
     0
176
     1
290
     0
176
     1
 93
        1
176
     1
 44
0.0
176
     1
173
     0
176
     1
  0
VISUALSTYLE
  5
31
102
{ACAD_REACTORS
330
2A
102
}
330
2A
100
AcDbVisualStyle
  2
3D Hidden
 70
     6
177
     2
291
     0
 71
     1
176
     1
 72
     2
176
     1
 73
     2
176
     1
 90
        0
176
     1
 40
-0.6
176
     1
 41
-30.0
176
     1
 62
     5
 63
     7
421
 16777215
176
     1
 74
     2
176
     1
 91
        2
176
     1
 64
     7
176
     1
 65
   257
176
     1
 75
     2
176
     1
175
     1
176
     1
 42
40.0
176
     1
 92
        0
176
     1
 66
   257
176
     1
 43
1.0
176
     1
 76
     1
176
     1
 77
     6
176
     1
 78
     2
176
     1
 67
     7
176
     1
 79
     3
176
     1
170
     0
176
     1
171
     0
176
     1
290
     0
176
     1
 93
        1
176
     1
 44
0.0
176
     1
173
     0
176
     1
  0
VISUALSTYLE
  5
30
102
{ACAD_REACTORS
330
2A
102
}
330
2A
100
AcDbVisualStyle
  2
3dWireframe
 70
     5
177
     2
291
     0
 71
     0
176
     1
 72
     2
176
     1
 73
     0
176
     1
 90
        0
176
     1
 40
-0.6
176
     1
 41
-30.0
176
     1
 62
     5
 63
     7
421
 16777215
176
     1
 74
     1
176
     1
 91
        4
176
     1
 64
     7
176
     1
 65
   257
176
     1
 75
     1
176
     1
175
     1
176
     1
 42
1.0
176
     1
 92
        0
176
     1
 66
   257
176
     1
 43
1.0
176
     1
 76
     1
176
     1
 77
     6
176
     1
 78
     2
176
     1
 67
     7
176
     1
 79
     5
176
     1
170
     0
176
     1
171
     0
176
     1
290
     0
176
     1
 93
        1
176
     1
 44
0.0
176
     1
173
     0
176
     1
  0
VISUALSTYLE
  5
32
102
{ACAD_REACTORS
330
2A
102
}
330
2A
100
AcDbVisualStyle
  2
Basic
 70
     7
177
     2
291
     1
 71
     1
176
     1
 72
     0
176
     1
 73
     1
176
     1
 90
        0
176
     1
 40
-0.6
176
     1
 41
-30.0
176
     1
 62
     5
 63
     7
421
 16777215
176
     1
 74
     0
176
     1
 91
        4
176
     1
 64
     7
176
     1
 65
   257
176
     1
 75
     1
176
     1
175
     1
176
     1
 42
1.0
176
     1
 92
        8
176
     1
 66
     7
176
     1
 43
1.0
176
     1
 76
     1
176
     1
 77
     6
176
     1
 78
     2
176
     1
 67
     7
176
     1
 79
     5
176
     1
170
     0
176
     1
171
     0
176
     1
290
     0
176
     1
 93
        1
176
     1
 44
0.0
176
     1
173
     0
176
     1
  0
VISUALSTYLE
  5
36
102
{ACAD_REACTORS
330
2A
102
}
330
2A
100
AcDbVisualStyle
  2
Brighten
 70
    12
177
     2
291
     1
 71
     2
176
     1
 72
     2
176
     1
 73
     0
176
     1
 90
        0
176
     1
 40
-0.6
176
     1
 41
-30.0
176
     1
 62
     5
 63
     7
421
 16777215
176
     1
 74
     1
176
     1
 91
        4
176
     1
 64
     7
176
     1
 65
   257
176
     1
 75
     1
176
     1
175
     1
176
     1
 42
1.0
176
     1
 92
        8
176
     1
 66
     7
176
     1
 43
1.0
176
     1
 76
     1
176
     1
 77
     6
176
     1
 78
     2
176
     1
 67
     7
176
     1
 79
     5
176
     1
170
     0
176
     1
171
     0
176
     1
290
     0
176
     1
 93
        1
176
     1
 44
50.0
176
     1
173
     0
176
     1
  0
VISUALSTYLE
  5
3A
102
{ACAD_REACTORS
330
2A
102
}
330
2A
100
AcDbVisualStyle
  2
ColorChange
 70
    16
177
     2
291
     1
 71
     2
176
     1
 72
     2
176
     1
 73
     3
176
     1
 90
        0
176
     1
 40
-0.6
176
     1
 41
-30.0
176
     1
 62
     5
 63
     8
421
  8421504
176
     1
 74
     1
176
     1
 91
        4
176
     1
 64
     7
176
     1
 65
   257
176
     1
 75
     1
176
     1
175
     1
176
     1
 42
1.0
176
     1
 92
        8
176
     1
 66
     8
424
  8421504
176
     1
 43
1.0
176
     1
 76
     1
176
     1
 77
     6
176
     1
 78
     2
176
     1
 67
     7
176
     1
 79
     5
176
     1
170
     0
176
     1
171
     0
176
     1
290
     0
176
     1
 93
        1
176
     1
 44
0.0
176
     1
173
     0
176
     1
  0
VISUALSTYLE
  5
34
102
{ACAD_REACTORS
330
2A
102
}
330
2A
100
AcDbVisualStyle
  2
Conceptual
 70
     9
177
     2
291
     0
 71
     3
176
     1
 72
     2
176
     1
 73
     0
176
     1
 90
        0
176
     1
 40
-0.6
176
     1
 41
-30.0
176
     1
 62
     5
 63
     7
421
 16777215
176
     1
 74
     2
176
     1
 91
        2
176
     1
 64
     7
176
     1
 65
   257
176
     1
 75
     1
176
     1
175
     1
176
     1
 42
40.0
176
     1
 92
        8
176
     1
 66
     7
176
     1
 43
1.0
176
     1
 76
     1
176
     1
 77
     6
176
     1
 78
     2
176
     1
 67
     7
176
     1
 79
     3
176
     1
170
     0
176
     1
171
     0
176
     1
290
     0
176
     1
 93
        1
176
     1
 44
0.0
176
     1
173
     0
176
     1
  0
VISUALSTYLE
  5
35
102
{ACAD_REACTORS
330
2A
102
}
330
2A
100
AcDbVisualStyle
  2
Dim
 70
    11
177
     2
291
     1
 71
     2
176
     1
 72
     2
176
     1
 73
     0
176
     1
 90
        0
176
     1
 40
-0.6
176
     1
 41
-30.0
176
     1
 62
     5
 63
     7
421
 16777215
176
     1
 74
     1
176
     1
 91
        4
176
     1
 64
     7
176
     1
 65
   257
176
     1
 75
     1
176
     1
175
     1
176
     1
 42
1.0
176
     1
 92
        8
176
     1
 66
     7
176
     1
 43
1.0
176
     1
 76
     1
176
     1
 77
     6
176
     1
 78
     2
176
     1
 67
     7
176
     1
 79
     5
176
     1
170
     0
176
     1
171
     0
176
     1
290
     0
176
     1
 93
        1
176
     1
 44
-50.0
176
     1
173
     0
176
     1
  0
VISUALSTYLE
  5
39
102
{ACAD_REACTORS
330
2A
102
}
330
2A
100
AcDbVisualStyle
  2
Facepattern
 70
    15
177
     2
291
     1
 71
     2
176
     1
 72
     2
176
     1
 73
     0
176
     1
 90
        0
176
     1
 40
-0.6
176
     1
 41
-30.0
176
     1
 62
     5
 63
     7
421
 16777215
176
     1
 74
     1
176
     1
 91
        4
176
     1
 64
     7
176
     1
 65
   257
176
     1
 75
     1
176
     1
175
     1
176
     1
 42
1.0
176
     1
 92
        8
176
     1
 66
     7
176
     1
 43
1.0
176
     1
 76
     1
176
     1
 77
     6
176
     1
 78
     2
176
     1
 67
     7
176
     1
 79
     5
176
     1
170
     0
176
     1
171
     0
176
     1
290
     0
176
     1
 93
        1
176
     1
 44
0.0
176
     1
173
     0
176
     1
  0
VISUALSTYLE
  5
2B
102
{ACAD_REACTORS
330
2A
102
}
330
2A
100
AcDbVisualStyle
  2
Flat
 70
     0
177
     2
291
     1
 71
     2
176
     1
 72
     1
176
     1
 73
     1
176
     1
 90
        2
176
     1
 40
-0.6
176
     1
 41
30.0
176
     1
 62
     5
 63
     7
421
 16777215
176
     1
 74
     0
176
     1
 91
        4
176
     1
 64
     7
176
     1
 65
   257
176
     1
 75
     1
176
     1
175
     1
176
     1
 42
1.0
176
     1
 92
        8
176
     1
 66
     7
176
     1
 43
1.0
176
     1
 76
     1
176
     1
 77
     6
176
     1
 78
     2
176
     1
 67
     7
176
     1
 79
     5
176
     1
170
     0
176
     1
171
     0
176
     1
290
     0
176
     1
 93
       13
176
     1
 44
0.0
176
     1
173
     0
176
     1
  0
VISUALSTYLE
  5
2C
102
{ACAD_REACTORS
330
2A
102
}
330
2A
100
AcDbVisualStyle
  2
FlatWithEdges
 70
     1
177
     2
291
     1
 71
     2
176
     1
 72
     1
176
     1
 73
     1
176
     1
 90
        2
176
     1
 40
-0.6
176
     1
 41
30.0
176
     1
 62
     5
 63
     7
421
 16777215
176
     1
 74
     1
176
     1
 91
        4
176
     1
 64
     7
176
     1
 65
   257
176
     1
 75
     1
176
     1
175
     1
176
     1
 42
1.0
176
     1
 92
        0
176
     1
 66
   257
176
     1
 43
1.0
176
     1
 76
     1
176
     1
 77
     6
176
     1
 78
     2
176
     1
 67
     7
176
     1
 79
     5
176
     1
170
     0
176
     1
171
     0
176
     1
290
     0
176
     1
 93
       13
176
     1
 44
0.0
176
     1
173
     0
176
     1
  0
VISUALSTYLE
  5
2D
102
{ACAD_REACTORS
330
2A
102
}
330
2A
100
AcDbVisualStyle
  2
Gouraud
 70
     2
177
     2
291
     1
 71
     2
176
     1
 72
     2
176
     1
 73
     1
176
     1
 90
        2
176
     1
 40
-0.6
176
     1
 41
30.0
176
     1
 62
     5
 63
     7
421
 16777215
176
     1
 74
     0
176
     1
 91
        4
176
     1
 64
     7
176
     1
 65
   257
176
     1
 75
     1
176
     1
175
     1
176
     1
 42
1.0
176
     1
 92
        0
176
     1
 66
     7
176
     1
 43
1.0
176
     1
 76
     1
176
     1
 77
     6
176
     1
 78
     2
176
     1
 67
     7
176
     1
 79
     5
176
     1
170
     0
176
     1
171
     0
176
     1
290
     0
176
     1
 93
       13
176
     1
 44
0.0
176
     1
173
     0
176
     1
  0
VISUALSTYLE
  5
2E
102
{ACAD_REACTORS
330
2A
102
}
330
2A
100
AcDbVisualStyle
  2
GouraudWithEdges
 70
     3
177
     2
291
     1
 71
     2
176
     1
 72
     2
176
     1
 73
     1
176
     1
 90
        2
176
     1
 40
-0.6
176
     1
 41
30.0
176
     1
 62
     5
 63
     7
421
 16777215
176
     1
 74
     1
176
     1
 91
        4
176
     1
 64
     7
176
     1
 65
   257
176
     1
 75
     1
176
     1
175
     1
176
     1
 42
1.0
176
     1
 92
        0
176
     1
 66
   257
176
     1
 43
1.0
176
     1
 76
     1
176
     1
 77
     6
176
     1
 78
     2
176
     1
 67
     7
176
     1
 79
     5
176
     1
170
     0
176
     1
171
     0
176
     1
290
     0
176
     1
 93
       13
176
     1
 44
0.0
176
     1
173
     0
176
     1
  0
VISUALSTYLE
  5
38
102
{ACAD_REACTORS
330
2A
102
}
330
2A
100
AcDbVisualStyle
  2
Linepattern
 70
    14
177
     2
291
     1
 71
     2
176
     1
 72
     2
176
     1
 73
     0
176
     1
 90
        0
176
     1
 40
-0.6
176
     1
 41
-30.0
176
     1
 62
     5
 63
     7
421
 16777215
176
     1
 74
     1
176
     1
 91
        4
176
     1
 64
     7
176
     1
 65
   257
176
     1
 75
     7
176
     1
175
     7
176
     1
 42
1.0
176
     1
 92
        8
176
     1
 66
     7
176
     1
 43
1.0
176
     1
 76
     1
176
     1
 77
     6
176
     1
 78
     2
176
     1
 67
     7
176
     1
 79
     5
176
     1
170
     0
176
     1
171
     0
176
     1
290
     0
176
     1
 93
        1
176
     1
 44
0.0
176
     1
173
     0
176
     1
  0
VISUALSTYLE
  5
33
102
{ACAD_REACTORS
330
2A
102
}
330
2A
100
AcDbVisualStyle
  2
Realistic
 70
     8
177
     2
291
     0
 71
     2
176
     1
 72
     2
176
     1
 73
     0
176
     1
 90
        0
176
     1
 40
-0.6
176
     1
 41
-30.0
176
     1
 62
     5
 63
     7
421
 16777215
176
     1
 74
     1
176
     1
 91
        0
176
     1
 64
     7
176
     1
 65
   257
176
     1
 75
     1
176
     1
175
     1
176
     1
 42
1.0
176
     1
 92
        8
176
     1
 66
     8
424
  7895160
176
     1
 43
1.0
176
     1
 76
     1
176
     1
 77
     6
176
     1
 78
     2
176
     1
 67
     7
176
     1
 79
     5
176
     1
170
     0
176
     1
171
     0
176
     1
290
     0
176
     1
 93
       13
176
     1
 44
0.0
176
     1
173
     0
176
     1
  0
VISUALSTYLE
  5
37
102
{ACAD_REACTORS
330
2A
102
}
330
2A
100
AcDbVisualStyle
  2
Thicken
 70
    13
177
     2
291
     1
 71
     2
176
     1
 72
     2
176
     1
 73
     0
176
     1
 90
        0
176
     1
 40
-0.6
176
     1
 41
-30.0
176
     1
 62
     5
 63
     7
421
 16777215
176
     1
 74
     1
176
     1
 91
        4
176
     1
 64
     7
176
     1
 65
   257
176
     1
 75
     1
176
     1
175
     1
176
     1
 42
1.0
176
     1
 92
       12
176
     1
 66
     7
176
     1
 43
1.0
176
     1
 76
     1
176
     1
 77
     6
176
     1
 78
     2
176
     1
 67
     7
176
     1
 79
     5
176
     1
170
     0
176
     1
171
     0
176
     1
290
     0
176
     1
 93
        1
176
     1
 44
0.0
176
     1
173
     0
176
     1
  0
ENDSEC
  0
EOF
