  0
SECTION
  2
HEADER
  9
$ACADVER
  1
AC1024
  9
$ACADMAINTVER
 70
     6
  9
$DWGCODEPAGE
  3
UNDEFINED
  9
$INSBASE
 10
0.0
 20
0.0
 30
0.0
  9
$EXTMIN
 10
1.000000000000000E+20
 20
1.000000000000000E+20
 30
1.000000000000000E+20
  9
$EXTMAX
 10
-1.000000000000000E+20
 20
-1.000000000000000E+20
 30
-1.000000000000000E+20
  9
$LIMMIN
 10
0.0
 20
0.0
  9
$LIMMAX
 10
12.0
 20
9.0
  9
$ORTHOMODE
 70
     0
  9
$REGENMODE
 70
     1
  9
$FILLMODE
 70
     1
  9
$QTEXTMODE
 70
     0
  9
$MIRRTEXT
 70
     1
  9
$LTSCALE
 40
1.0
  9
$ATTMODE
 70
     1
  9
$TEXTSIZE
 40
0.2
  9
$TRACEWID
 40
0.05
  9
$TEXTSTYLE
  7
Standard
  9
$CLAYER
  8
0
  9
$CELTYPE
  6
ByLayer
  9
$CECOLOR
 62
   256
  9
$CELTSCALE
 40
1.0
  9
$DISPSILH
 70
     0
  9
$DIMSCALE
 40
1.0
  9
$DIMASZ
 40
0.18
  9
$DIMEXO
 40
0.0625
  9
$DIMDLI
 40
0.38
  9
$DIMRND
 40
0.0
  9
$DIMDLE
 40
0.0
  9
$DIMEXE
 40
0.18
  9
$DIMTP
 40
0.0
  9
$DIMTM
 40
0.0
  9
$DIMTXT
 40
0.18
  9
$DIMCEN
 40
0.09
  9
$DIMTSZ
 40
0.0
  9
$DIMTOL
 70
     0
  9
$DIMLIM
 70
     0
  9
$DIMTIH
 70
     1
  9
$DIMTOH
 70
     1
  9
$DIMSE1
 70
     0
  9
$DIMSE2
 70
     0
  9
$DIMTAD
 70
     0
  9
$DIMZIN
 70
     0
  9
$DIMBLK
  1

  9
$DIMASO
 70
     1
  9
$DIMSHO
 70
     1
  9
$DIMPOST
  1

  9
$DIMAPOST
  1

  9
$DIMALT
 70
     0
  9
$DIMALTD
 70
     2
  9
$DIMALTF
 40
25.4
  9
$DIMLFAC
 40
1.0
  9
$DIMTOFL
 70
     0
  9
$DIMTVP
 40
0.0
  9
$DIMTIX
 70
     0
  9
$DIMSOXD
 70
     0
  9
$DIMSAH
 70
     0
  9
$DIMBLK1
  1

  9
$DIMBLK2
  1

  9
$DIMSTYLE
  2
Standard
  9
$DIMCLRD
 70
     0
  9
$DIMCLRE
 70
     0
  9
$DIMCLRT
 70
     0
  9
$DIMTFAC
 40
1.0
  9
$DIMGAP
 40
0.09
  9
$DIMJUST
 70
     0
  9
$DIMSD1
 70
     0
  9
$DIMSD2
 70
     0
  9
$DIMTOLJ
 70
     1
  9
$DIMTZIN
 70
     0
  9
$DIMALTZ
 70
     0
  9
$DIMALTTZ
 70
     0
  9
$DIMUPT
 70
     0
  9
$DIMDEC
 70
     4
  9
$DIMTDEC
 70
     4
  9
$DIMALTU
 70
     2
  9
$DIMALTTD
 70
     2
  9
$DIMTXSTY
  7
Standard
  9
$DIMAUNIT
 70
     0
  9
$DIMADEC
 70
     0
  9
$DIMALTRND
 40
0.0
  9
$DIMAZIN
 70
     0
  9
$DIMDSEP
 70
    46
  9
$DIMATFIT
 70
     3
  9
$DIMFRAC
 70
     0
  9
$DIMLDRBLK
  1

  9
$DIMLUNIT
 70
     2
  9
$DIMLWD
 70
    -2
  9
$DIMLWE
 70
    -2
  9
$DIMTMOVE
 70
     0
  9
$DIMFXL
 40
1.0
  9
$DIMFXLON
 70
     0
  9
$DIMJOGANG
 40
0.7853981633974483
  9
$DIMTFILL
 70
     0
  9
$DIMTFILLCLR
 70
     0
  9
$DIMARCSYM
 70
     0
  9
$DIMLTYPE
  6

  9
$DIMLTEX1
  6

  9
$DIMLTEX2
  6

  9
$DIMTXTDIRECTION
 70
     0
  9
$LUNITS
 70
     2
  9
$LUPREC
 70
     4
  9
$SKETCHINC
 40
0.1
  9
$FILLETRAD
 40
0.5
  9
$AUNITS
 70
     0
  9
$AUPREC
 70
     0
  9
$MENU
  1
.
  9
$ELEVATION
 40
0.0
  9
$PELEVATION
 40
0.0
  9
$THICKNESS
 40
0.0
  9
$LIMCHECK
 70
     0
  9
$CHAMFERA
 40
0.5
  9
$CHAMFERB
 40
0.5
  9
$CHAMFERC
 40
1.0
  9
$CHAMFERD
 40
0.0
  9
$SKPOLY
 70
     0
  9
$TDCREATE
 40
2457917.632025463
  9
$TDUCREATE
 40
2457917.257025463
  9
$TDUPDATE
 40
2457917.632025463
  9
$TDUUPDATE
 40
2457917.257025463
  9
$TDINDWG
 40
0.0000000116
  9
$TDUSRTIMER
 40
0.0000000116
  9
$USRTIMER
 70
     1
  9
$ANGBASE
 50
0.0
  9
$ANGDIR
 70
     0
  9
$PDMODE
 70
     0
  9
$PDSIZE
 40
0.0
  9
$PLINEWID
 40
0.0
  9
$SPLFRAME
 70
     0
  9
$SPLINETYPE
 70
     6
  9
$SPLINESEGS
 70
     8
  9
$HANDSEED
  5
C6
  9
$SURFTAB1
 70
     6
  9
$SURFTAB2
 70
     6
  9
$SURFTYPE
 70
     6
  9
$SURFU
 70
     6
  9
$SURFV
 70
     6
  9
$UCSBASE
  2

  9
$UCSNAME
  2

  9
$UCSORG
 10
0.0
 20
0.0
 30
0.0
  9
$UCSXDIR
 10
1.0
 20
0.0
 30
0.0
  9
$UCSYDIR
 10
0.0
 20
1.0
 30
0.0
  9
$UCSORTHOREF
  2

  9
$UCSORTHOVIEW
 70
     0
  9
$UCSORGTOP
 10
0.0
 20
0.0
 30
0.0
  9
$UCSORGBOTTOM
 10
0.0
 20
0.0
 30
0.0
  9
$UCSORGLEFT
 10
0.0
 20
0.0
 30
0.0
  9
$UCSORGRIGHT
 10
0.0
 20
0.0
 30
0.0
  9
$UCSORGFRONT
 10
0.0
 20
0.0
 30
0.0
  9
$UCSORGBACK
 10
0.0
 20
0.0
 30
0.0
  9
$PUCSBASE
  2

  9
$PUCSNAME
  2

  9
$PUCSORG
 10
0.0
 20
0.0
 30
0.0
  9
$PUCSXDIR
 10
1.0
 20
0.0
 30
0.0
  9
$PUCSYDIR
 10
0.0
 20
1.0
 30
0.0
  9
$PUCSORTHOREF
  2

  9
$PUCSORTHOVIEW
 70
     0
  9
$PUCSORGTOP
 10
0.0
 20
0.0
 30
0.0
  9
$PUCSORGBOTTOM
 10
0.0
 20
0.0
 30
0.0
  9
$PUCSORGLEFT
 10
0.0
 20
0.0
 30
0.0
  9
$PUCSORGRIGHT
 10
0.0
 20
0.0
 30
0.0
  9
$PUCSORGFRONT
 10
0.0
 20
0.0
 30
0.0
  9
$PUCSORGBACK
 10
0.0
 20
0.0
 30
0.0
  9
$USERI1
 70
     0
  9
$USERI2
 70
     0
  9
$USERI3
 70
     0
  9
$USERI4
 70
     0
  9
$USERI5
 70
     0
  9
$USERR1
 40
0.0
  9
$USERR2
 40
0.0
  9
$USERR3
 40
0.0
  9
$USERR4
 40
0.0
  9
$USERR5
 40
0.0
  9
$WORLDVIEW
 70
     1
  9
$SHADEDGE
 70
     3
  9
$SHADEDIF
 70
    70
  9
$TILEMODE
 70
     1
  9
$MAXACTVP
 70
    64
  9
$PINSBASE
 10
0.0
 20
0.0
 30
0.0
  9
$PLIMCHECK
 70
     0
  9
$PEXTMIN
 10
1.000000000000000E+20
 20
1.000000000000000E+20
 30
1.000000000000000E+20
  9
$PEXTMAX
 10
-1.000000000000000E+20
 20
-1.000000000000000E+20
 30
-1.000000000000000E+20
  9
$PLIMMIN
 10
0.0
 20
0.0
  9
$PLIMMAX
 10
12.0
 20
9.0
  9
$UNITMODE
 70
     0
  9
$VISRETAIN
 70
     1
  9
$PLINEGEN
 70
     0
  9
$PSLTSCALE
 70
     1
  9
$TREEDEPTH
 70
  3020
  9
$CMLSTYLE
  2
Standard
  9
$CMLJUST
 70
     0
  9
$CMLSCALE
 40
1.0
  9
$PROXYGRAPHICS
 70
     1
  9
$MEASUREMENT
 70
     0
  9
$CELWEIGHT
370
    -1
  9
$ENDCAPS
280
     0
  9
$JOINSTYLE
280
     0
  9
$LWDISPLAY
290
     1
  9
$INSUNITS
 70
     1
  9
$HYPERLINKBASE
  1

  9
$STYLESHEET
  1

  9
$XEDIT
290
     1
  9
$CEPSNTYPE
380
     0
  9
$PSTYLEMODE
290
     1
  9
$FINGERPRINTGUID
  2
{00D46C15-E50E-303C-DCFB-41A995977164}
  9
$VERSIONGUID
  2
{FAEB1C32-E019-11D5-929B-00C0DF256EC4}
  9
$EXTNAMES
290
     1
  9
$PSVPSCALE
 40
0.0
  9
$OLESTARTUP
290
     0
  9
$SORTENTS
280
   127
  9
$INDEXCTL
280
     0
  9
$HIDETEXT
280
     1
  9
$XCLIPFRAME
280
     2
  9
$HALOGAP
280
     0
  9
$OBSCOLOR
 70
   257
  9
$OBSLTYPE
280
     0
  9
$INTERSECTIONDISPLAY
280
     0
  9
$INTERSECTIONCOLOR
 70
   257
  9
$DIMASSOC
280
     2
  9
$PROJECTNAME
  1

  9
$CAMERADISPLAY
290
     0
  9
$LENSLENGTH
 40
50.0
  9
$CAMERAHEIGHT
 40
0.0
  9
$STEPSPERSEC
 40
2.0
  9
$STEPSIZE
 40
6.0
  9
$3DDWFPREC
 40
2.0
  9
$PSOLWIDTH
 40
0.25
  9
$PSOLHEIGHT
 40
4.0
  9
$LOFTANG1
 40
1.570796326794897
  9
$LOFTANG2
 40
1.570796326794897
  9
$LOFTMAG1
 40
0.0
  9
$LOFTMAG2
 40
0.0
  9
$LOFTPARAM
 70
     7
  9
$LOFTNORMALS
280
     1
  9
$LATITUDE
 40
37.795
  9
$LONGITUDE
 40
-122.394
  9
$NORTHDIRECTION
 40
0.0
  9
$TIMEZONE
 70
 -8000
  9
$LIGHTGLYPHDISPLAY
280
     1
  9
$TILEMODELIGHTSYNCH
280
     1
  9
$CMATERIAL
347
3C
  9
$SOLIDHIST
280
     1
  9
$SHOWHIST
280
     1
  9
$DWFFRAME
280
     2
  9
$DGNFRAME
280
     2
  9
$REALWORLDSCALE
290
     1
  9
$INTERFERECOLOR
 62
   256
  9
$CSHADOW
280
     0
  9
$SHADOWPLANELOCATION
 40
0.0
  0
ENDSEC
  0
SECTION
  2
CLASSES
  0
CLASS
  1
ACDBDICTIONARYWDFLT
  2
AcDbDictionaryWithDefault
  3
ObjectDBX Classes
 90
        0
 91
        4
280
     0
281
     0
  0
CLASS
  1
VISUALSTYLE
  2
AcDbVisualStyle
  3
ObjectDBX Classes
 90
     4095
 91
        4
280
     0
281
     0
  0
CLASS
  1
MATERIAL
  2
AcDbMaterial
  3
ObjectDBX Classes
 90
     1153
 91
        4
280
     0
281
     0
  0
CLASS
  1
SUN
  2
AcDbSun
  3
SCENEOE
 90
     1024
 91
        4
280
     0
281
     0
  0
ENDSEC
  0
SECTION
  2
TABLES
  0
TABLE
  2
VPORT
  5
8
330
0
100
AcDbSymbolTable
 70
     1
  0
VPORT
  5
29
330
8
100
AcDbSymbolTableRecord
100
AcDbViewportTableRecord
  2
*Active
 70
     0
 10
0.0
 20
0.0
 11
1.0
 21
1.0
 12
0.0
 22
0.0
 13
0.0
 23
0.0
 14
0.5
 24
0.5
 15
0.5
 25
0.5
 16
0.0
 26
0.0
 36
1.0
 17
91.00082462281999
 27
-128.4993055234307
 37
0.0
 40
256.9986110468615
 41
0.7081814508812795
 42
50.0
 43
0.0
 44
0.0
 50
0.0
 51
0.0
 71
     0
 72
   100
 73
     1
 74
     3
 75
     0
 76
     0
 77
     0
 78
     0
281
     0
 65
     1
110
0.0
120
0.0
130
0.0
111
1.0
121
0.0
131
0.0
112
0.0
122
1.0
132
0.0
 79
     0
146
0.0
 60
     3
 61
     5
292
     1
282
     1
141
0.0
142
0.0
 63
   250
361
3F
  0
ENDTAB
  0
TABLE
  2
LTYPE
  5
5
330
0
100
AcDbSymbolTable
 70
     1
  0
LTYPE
  5
14
330
5
100
AcDbSymbolTableRecord
100
AcDbLinetypeTableRecord
  2
ByBlock
 70
     0
  3

 72
    65
 73
     0
 40
0.0
  0
LTYPE
  5
15
330
5
100
AcDbSymbolTableRecord
100
AcDbLinetypeTableRecord
  2
ByLayer
 70
     0
  3

 72
    65
 73
     0
 40
0.0
  0
LTYPE
  5
16
330
5
100
AcDbSymbolTableRecord
100
AcDbLinetypeTableRecord
  2
Continuous
 70
     0
  3
Solid line
 72
    65
 73
     0
 40
0.0
  0
ENDTAB
  0
TABLE
  2
LAYER
  5
2
330
0
100
AcDbSymbolTable
 70
     2
  0
LAYER
  5
10
330
2
100
AcDbSymbolTableRecord
100
AcDbLayerTableRecord
  2
0
 70
     0
 62
     7
  6
Continuous
370
    -3
390
F
347
3E
  0
LAYER
  5
40
330
2
100
AcDbSymbolTableRecord
100
AcDbLayerTableRecord
  2
_U+30EC_U+30A4_U+30E4_U+30FC 1
 70
     0
 62
     7
  6
Continuous
370
    -3
390
F
347
3E
  0
ENDTAB
  0
TABLE
  2
STYLE
  5
3
330
0
100
AcDbSymbolTable
 70
     1
  0
STYLE
  5
11
330
3
100
AcDbSymbolTableRecord
100
AcDbTextStyleTableRecord
  2
Standard
 70
     0
 40
0.0
 41
1.0
 50
0.0
 71
     0
 42
0.2
  3
txt
  4

  0
ENDTAB
  0
TABLE
  2
VIEW
  5
6
330
0
100
AcDbSymbolTable
 70
     0
  0
ENDTAB
  0
TABLE
  2
UCS
  5
7
330
0
100
AcDbSymbolTable
 70
     0
  0
ENDTAB
  0
TABLE
  2
APPID
  5
9
330
0
100
AcDbSymbolTable
 70
     1
  0
APPID
  5
12
330
9
100
AcDbSymbolTableRecord
100
AcDbRegAppTableRecord
  2
ACAD
 70
     0
  0
ENDTAB
  0
TABLE
  2
DIMSTYLE
  5
A
330
0
100
AcDbSymbolTable
 70
     1
100
AcDbDimStyleTable
  0
DIMSTYLE
105
27
330
A
100
AcDbSymbolTableRecord
100
AcDbDimStyleTableRecord
  2
Standard
 70
     0
178
     0
340
11
  0
ENDTAB
  0
TABLE
  2
BLOCK_RECORD
  5
1
330
0
100
AcDbSymbolTable
 70
     6
  0
BLOCK_RECORD
  5
1F
330
1
100
AcDbSymbolTableRecord
100
AcDbBlockTableRecord
  2
*Model_Space
340
22
 70
     0
280
     1
281
     0
  0
BLOCK_RECORD
  5
1B
330
1
100
AcDbSymbolTableRecord
100
AcDbBlockTableRecord
  2
*Paper_Space
340
1E
 70
     0
280
     1
281
     0
  0
BLOCK_RECORD
  5
23
330
1
100
AcDbSymbolTableRecord
100
AcDbBlockTableRecord
  2
*Paper_Space0
340
26
 70
     0
280
     1
281
     0
  0
BLOCK_RECORD
  5
91
330
1
100
AcDbSymbolTableRecord
100
AcDbBlockTableRecord
  2
block 2
340
0
102
{BLKREFS
331
92
102
}
 70
     0
280
     1
281
     0
  0
BLOCK_RECORD
  5
97
330
1
100
AcDbSymbolTableRecord
100
AcDbBlockTableRecord
  2
block 3
340
0
102
{BLKREFS
331
98
102
}
 70
     0
280
     1
281
     0
  0
BLOCK_RECORD
  5
9E
330
1
100
AcDbSymbolTableRecord
100
AcDbBlockTableRecord
  2
block 4
340
0
102
{BLKREFS
331
9F
102
}
 70
     0
280
     1
281
     0
  0
BLOCK_RECORD
  5
A6
330
1
100
AcDbSymbolTableRecord
100
AcDbBlockTableRecord
  2
block 5
340
0
102
{BLKREFS
331
A7
102
}
 70
     0
280
     1
281
     0
  0
BLOCK_RECORD
  5
AE
330
1
100
AcDbSymbolTableRecord
100
AcDbBlockTableRecord
  2
block 6
340
0
102
{BLKREFS
331
AF
102
}
 70
     0
280
     1
281
     0
  0
ENDTAB
  0
ENDSEC
  0
SECTION
  2
BLOCKS
  0
BLOCK
  5
20
330
1F
100
AcDbEntity
  8
0
100
AcDbBlockBegin
  2
*Model_Space
 70
     0
 10
0.0
 20
0.0
 30
0.0
  3
*Model_Space
  1

  0
ENDBLK
  5
21
330
1F
100
AcDbEntity
  8
0
100
AcDbBlockEnd
  0
BLOCK
  5
1C
330
1B
100
AcDbEntity
 67
     1
  8
0
100
AcDbBlockBegin
  2
*Paper_Space
 70
     0
 10
0.0
 20
0.0
 30
0.0
  3
*Paper_Space
  1

  0
ENDBLK
  5
1D
330
1B
100
AcDbEntity
 67
     1
  8
0
100
AcDbBlockEnd
  0
BLOCK
  5
24
330
23
100
AcDbEntity
  8
0
100
AcDbBlockBegin
  2
*Paper_Space0
 70
     0
 10
0.0
 20
0.0
 30
0.0
  3
*Paper_Space0
  1

  0
ENDBLK
  5
25
330
23
100
AcDbEntity
  8
0
100
AcDbBlockEnd
  0
BLOCK
  5
93
330
91
100
AcDbEntity
  8
0
100
AcDbBlockBegin
  2
block 2
 70
     0
 10
0.0
 20
0.0
 30
0.0
  3
block 2
  1

  0
SPLINE
  5
95
330
91
100
AcDbEntity
  8
_U+30EC_U+30A4_U+30E4_U+30FC 1
370
     0
100
AcDbSpline
210
0.0
220
0.0
230
1.0
 70
    11
 71
     3
 72
    26
 73
    22
 74
     0
 42
0.0000000001
 43
0.0000000001
 12
1.0
 22
0.0
 32
0.0
 13
1.0
 23
0.0
 33
0.0
 40
0.0
 40
0.0
 40
0.0
 40
0.0
 40
1.0
 40
1.0
 40
1.0
 40
2.0
 40
2.0
 40
2.0
 40
3.0
 40
3.0
 40
3.0
 40
4.0
 40
4.0
 40
4.0
 40
5.0
 40
5.0
 40
5.0
 40
6.0
 40
6.0
 40
6.0
 40
7.0
 40
7.0
 40
7.0
 40
7.0
 10
84.83513181472873
 20
-106.4754991053256
 30
0.0
 10
84.83513181472873
 20
-106.4754991053256
 30
0.0
 10
84.83513181472873
 20
-105.3711737475287
 30
0.0
 10
84.83513181472873
 20
-105.3711737475287
 30
0.0
 10
84.83513181472873
 20
-105.3711737475287
 30
0.0
 10
84.50509166724179
 20
-105.3711737475287
 30
0.0
 10
84.50509166724179
 20
-105.3711737475287
 30
0.0
 10
84.50509166724179
 20
-105.3711737475287
 30
0.0
 10
84.50509166724179
 20
-105.2232068964373
 30
0.0
 10
84.50509166724179
 20
-105.2232068964373
 30
0.0
 10
84.83719887201987
 20
-105.2083929858507
 30
0.0
 10
84.88370766107074
 20
-105.0454399693984
 30
0.0
 10
84.9133354822439
 20
-104.9312350540623
 30
0.0
 10
84.9133354822439
 20
-104.9312350540623
 30
0.0
 10
85.05940753081849
 20
-104.9312350540623
 30
0.0
 10
85.05940753081849
 20
-104.9312350540623
 30
0.0
 10
85.05940753081849
 20
-104.9312350540623
 30
0.0
 10
85.05940753081849
 20
-106.4754991053256
 30
0.0
 10
85.05940753081849
 20
-106.4754991053256
 30
0.0
 10
85.05940753081849
 20
-106.4754991053256
 30
0.0
 10
84.83513181472873
 20
-106.4754991053256
 30
0.0
 10
84.83513181472873
 20
-106.4754991053256
 30
0.0
  0
HATCH
  5
96
330
91
100
AcDbEntity
  8
_U+30EC_U+30A4_U+30E4_U+30FC 1
 62
     7
420
 16777215
100
AcDbHatch
 10
0.0
 20
0.0
 30
0.0
210
0.0
220
0.0
230
1.0
  2
SOLID
 70
     1
 71
     0
 91
        1
 92
        1
 93
        1
 72
     4
 94
        3
 73
     0
 74
     1
 95
       26
 96
       22
 40
0.0
 40
0.0
 40
0.0
 40
0.0
 40
1.0
 40
1.0
 40
1.0
 40
2.0
 40
2.0
 40
2.0
 40
3.0
 40
3.0
 40
3.0
 40
4.0
 40
4.0
 40
4.0
 40
5.0
 40
5.0
 40
5.0
 40
6.0
 40
6.0
 40
6.0
 40
7.0
 40
7.0
 40
7.0
 40
7.0
 10
84.83513181472873
 20
-106.4754991053256
 10
84.83513181472873
 20
-106.4754991053256
 10
84.83513181472873
 20
-105.3711737475287
 10
84.83513181472873
 20
-105.3711737475287
 10
84.83513181472873
 20
-105.3711737475287
 10
84.50509166724179
 20
-105.3711737475287
 10
84.50509166724179
 20
-105.3711737475287
 10
84.50509166724179
 20
-105.3711737475287
 10
84.50509166724179
 20
-105.2232068964373
 10
84.50509166724179
 20
-105.2232068964373
 10
84.83719887201987
 20
-105.2083929858507
 10
84.88370766107074
 20
-105.0454399693984
 10
84.9133354822439
 20
-104.9312350540623
 10
84.9133354822439
 20
-104.9312350540623
 10
85.05940753081849
 20
-104.9312350540623
 10
85.05940753081849
 20
-104.9312350540623
 10
85.05940753081849
 20
-104.9312350540623
 10
85.05940753081849
 20
-106.4754991053256
 10
85.05940753081849
 20
-106.4754991053256
 10
85.05940753081849
 20
-106.4754991053256
 10
84.83513181472873
 20
-106.4754991053256
 10
84.83513181472873
 20
-106.4754991053256
 97
        0
 97
        0
 75
     2
 76
     1
 98
        0
  0
ENDBLK
  5
94
330
91
100
AcDbEntity
  8
0
100
AcDbBlockEnd
  0
BLOCK
  5
99
330
97
100
AcDbEntity
  8
0
100
AcDbBlockBegin
  2
block 3
 70
     0
 10
0.0
 20
0.0
 30
0.0
  3
block 3
  1

  0
SPLINE
  5
9B
330
97
100
AcDbEntity
  8
_U+30EC_U+30A4_U+30E4_U+30FC 1
370
     0
100
AcDbSpline
210
0.0
220
0.0
230
1.0
 70
    11
 71
     3
 72
    32
 73
    28
 74
     0
 42
0.0000000001
 43
0.0000000001
 12
1.0
 22
0.0
 32
0.0
 13
1.0
 23
0.0
 33
0.0
 40
0.0
 40
0.0
 40
0.0
 40
0.0
 40
1.0
 40
1.0
 40
1.0
 40
2.0
 40
2.0
 40
2.0
 40
3.0
 40
3.0
 40
3.0
 40
4.0
 40
4.0
 40
4.0
 40
5.0
 40
5.0
 40
5.0
 40
6.0
 40
6.0
 40
6.0
 40
7.0
 40
7.0
 40
7.0
 40
8.0
 40
8.0
 40
8.0
 40
9.0
 40
9.0
 40
9.0
 40
9.0
 10
88.9813042312269
 20
-151.5966036947397
 30
0.0
 10
88.80801592831884
 20
-151.5966036947397
 30
0.0
 10
88.56238062022052
 20
-151.5270127659377
 30
0.0
 10
88.52448456988277
 20
-151.1949055611596
 30
0.0
 10
88.52448456988277
 20
-151.1949055611596
 30
0.0
 10
88.73808048996827
 20
-151.1949055611596
 30
0.0
 10
88.73808048996827
 20
-151.1949055611596
 30
0.0
 10
88.74876028597254
 20
-151.2541612035059
 30
0.0
 10
88.78045516443683
 20
-151.4019557998231
 30
0.0
 10
88.98337128851804
 20
-151.4019557998231
 30
0.0
 10
89.27551538566723
 20
-151.4019557998231
 30
0.0
 10
89.31341143600498
 20
-151.0722601618847
 30
0.0
 10
89.32615828930041
 20
-150.8669324709638
 30
0.0
 10
89.23520776848981
 20
-150.9472031957702
 30
0.0
 10
89.16768389697891
 20
-151.0043917808253
 30
0.0
 10
88.98578285535773
 20
-151.0043917808253
 30
0.0
 10
88.80594887102768
 20
-151.0043917808253
 30
0.0
 10
88.50312497787422
 20
-150.8986273494281
 30
0.0
 10
88.50312497787422
 20
-150.4924505917172
 30
0.0
 10
88.50312497787422
 20
-150.1730902402345
 30
0.0
 10
88.70225149692166
 20
-149.952948638727
 30
0.0
 10
89.01954479111318
 20
-149.952948638727
 30
0.0
 10
89.53355303751245
 20
-149.952948638727
 30
0.0
 10
89.54423283351673
 20
-150.5072645023037
 30
0.0
 10
89.54423283351673
 20
-150.7208604223892
 30
0.0
 10
89.54423283351673
 20
-150.9513373103524
 30
0.0
 10
89.52494029879932
 20
-151.5966036947397
 30
0.0
 10
88.9813042312269
 20
-151.5966036947397
 30
0.0
  0
SPLINE
  5
9C
330
97
100
AcDbEntity
  8
_U+30EC_U+30A4_U+30E4_U+30FC 1
370
     0
100
AcDbSpline
210
0.0
220
0.0
230
1.0
 70
    11
 71
     3
 72
    17
 73
    13
 74
     0
 42
0.0000000001
 43
0.0000000001
 12
1.0
 22
0.0
 32
0.0
 13
1.0
 23
0.0
 33
0.0
 40
0.0
 40
0.0
 40
0.0
 40
0.0
 40
1.0
 40
1.0
 40
1.0
 40
2.0
 40
2.0
 40
2.0
 40
3.0
 40
3.0
 40
3.0
 40
4.0
 40
4.0
 40
4.0
 40
4.0
 10
89.02161184840432
 20
-150.1455294763525
 30
0.0
 10
88.90310056371173
 20
-150.1455294763525
 30
0.0
 10
88.72740069396399
 20
-150.2027180614077
 30
0.0
 10
88.72740069396399
 20
-150.4883164771349
 30
0.0
 10
88.72740069396399
 20
-150.7146592505158
 30
0.0
 10
88.86727157066512
 20
-150.8097438859087
 30
0.0
 10
89.00266382323545
 20
-150.8097438859087
 30
0.0
 10
89.26483558966297
 20
-150.8097438859087
 30
0.0
 10
89.30307614954924
 20
-150.6002820804055
 30
0.0
 10
89.30307614954924
 20
-150.483837853004
 30
0.0
 10
89.30307614954924
 20
-150.3084824928048
 30
0.0
 10
89.20764700460782
 20
-150.1455294763525
 30
0.0
 10
89.02161184840432
 20
-150.1455294763525
 30
0.0
  0
HATCH
  5
9D
330
97
100
AcDbEntity
  8
_U+30EC_U+30A4_U+30E4_U+30FC 1
 62
     7
420
 16777215
100
AcDbHatch
 10
0.0
 20
0.0
 30
0.0
210
0.0
220
0.0
230
1.0
  2
SOLID
 70
     1
 71
     0
 91
        2
 92
        1
 93
        1
 72
     4
 94
        3
 73
     0
 74
     1
 95
       32
 96
       28
 40
0.0
 40
0.0
 40
0.0
 40
0.0
 40
1.0
 40
1.0
 40
1.0
 40
2.0
 40
2.0
 40
2.0
 40
3.0
 40
3.0
 40
3.0
 40
4.0
 40
4.0
 40
4.0
 40
5.0
 40
5.0
 40
5.0
 40
6.0
 40
6.0
 40
6.0
 40
7.0
 40
7.0
 40
7.0
 40
8.0
 40
8.0
 40
8.0
 40
9.0
 40
9.0
 40
9.0
 40
9.0
 10
88.9813042312269
 20
-151.5966036947397
 10
88.80801592831884
 20
-151.5966036947397
 10
88.56238062022052
 20
-151.5270127659377
 10
88.52448456988277
 20
-151.1949055611596
 10
88.52448456988277
 20
-151.1949055611596
 10
88.73808048996827
 20
-151.1949055611596
 10
88.73808048996827
 20
-151.1949055611596
 10
88.74876028597254
 20
-151.2541612035059
 10
88.78045516443683
 20
-151.4019557998231
 10
88.98337128851804
 20
-151.4019557998231
 10
89.27551538566723
 20
-151.4019557998231
 10
89.31341143600498
 20
-151.0722601618847
 10
89.32615828930041
 20
-150.8669324709638
 10
89.23520776848981
 20
-150.9472031957702
 10
89.16768389697891
 20
-151.0043917808253
 10
88.98578285535773
 20
-151.0043917808253
 10
88.80594887102768
 20
-151.0043917808253
 10
88.50312497787422
 20
-150.8986273494281
 10
88.50312497787422
 20
-150.4924505917172
 10
88.50312497787422
 20
-150.1730902402345
 10
88.70225149692166
 20
-149.952948638727
 10
89.01954479111318
 20
-149.952948638727
 10
89.53355303751245
 20
-149.952948638727
 10
89.54423283351673
 20
-150.5072645023037
 10
89.54423283351673
 20
-150.7208604223892
 10
89.54423283351673
 20
-150.9513373103524
 10
89.52494029879932
 20
-151.5966036947397
 10
88.9813042312269
 20
-151.5966036947397
 97
        0
 97
        0
 92
        1
 93
        1
 72
     4
 94
        3
 73
     0
 74
     1
 95
       17
 96
       13
 40
0.0
 40
0.0
 40
0.0
 40
0.0
 40
1.0
 40
1.0
 40
1.0
 40
2.0
 40
2.0
 40
2.0
 40
3.0
 40
3.0
 40
3.0
 40
4.0
 40
4.0
 40
4.0
 40
4.0
 10
89.02161184840432
 20
-150.1455294763525
 10
88.90310056371173
 20
-150.1455294763525
 10
88.72740069396399
 20
-150.2027180614077
 10
88.72740069396399
 20
-150.4883164771349
 10
88.72740069396399
 20
-150.7146592505158
 10
88.86727157066512
 20
-150.8097438859087
 10
89.00266382323545
 20
-150.8097438859087
 10
89.26483558966297
 20
-150.8097438859087
 10
89.30307614954924
 20
-150.6002820804055
 10
89.30307614954924
 20
-150.483837853004
 10
89.30307614954924
 20
-150.3084824928048
 10
89.20764700460782
 20
-150.1455294763525
 10
89.02161184840432
 20
-150.1455294763525
 97
        0
 97
        0
 75
     2
 76
     1
 98
        0
  0
ENDBLK
  5
9A
330
97
100
AcDbEntity
  8
0
100
AcDbBlockEnd
  0
BLOCK
  5
A0
330
9E
100
AcDbEntity
  8
0
100
AcDbBlockBegin
  2
block 4
 70
     0
 10
0.0
 20
0.0
 30
0.0
  3
block 4
  1

  0
SPLINE
  5
A2
330
9E
100
AcDbEntity
  8
_U+30EC_U+30A4_U+30E4_U+30FC 1
370
     0
100
AcDbSpline
210
0.0
220
0.0
230
1.0
 70
    11
 71
     3
 72
    29
 73
    25
 74
     0
 42
0.0000000001
 43
0.0000000001
 12
1.0
 22
0.0
 32
0.0
 13
1.0
 23
0.0
 33
0.0
 40
0.0
 40
0.0
 40
0.0
 40
0.0
 40
1.0
 40
1.0
 40
1.0
 40
2.0
 40
2.0
 40
2.0
 40
3.0
 40
3.0
 40
3.0
 40
4.0
 40
4.0
 40
4.0
 40
5.0
 40
5.0
 40
5.0
 40
6.0
 40
6.0
 40
6.0
 40
7.0
 40
7.0
 40
7.0
 40
8.0
 40
8.0
 40
8.0
 40
8.0
 10
89.49996335653127
 20
-106.4963419330113
 30
0.0
 10
89.23331296597293
 20
-106.4963419330113
 30
0.0
 10
88.97940942871001
 20
-106.3587103683756
 30
0.0
 10
88.97940942871001
 20
-106.0097221957198
 30
0.0
 10
88.97940942871001
 20
-105.7537516011657
 30
0.0
 10
89.12134736270231
 20
-105.6584947109986
 30
0.0
 10
89.22711179409947
 20
-105.5971720113611
 30
0.0
 10
89.10239933753343
 20
-105.5379163690148
 30
0.0
 10
89.02626272730942
 20
-105.4237114536788
 30
0.0
 10
89.02626272730942
 20
-105.2629977492919
 30
0.0
 10
89.02626272730942
 20
-104.9879068747947
 30
0.0
 10
89.22504473680833
 20
-104.8525146222244
 30
0.0
 10
89.49996335653127
 20
-104.8525146222244
 30
0.0
 10
89.78349471496732
 20
-104.8525146222244
 30
0.0
 10
89.97400849530165
 20
-104.9963473587336
 30
0.0
 10
89.97400849530165
 20
-105.2629977492919
 30
0.0
 10
89.97400849530165
 20
-105.4237114536788
 30
0.0
 10
89.89546031823795
 20
-105.5379163690148
 30
0.0
 10
89.77074786167191
 20
-105.5971720113611
 30
0.0
 10
89.85963132519134
 20
-105.6479871697686
 30
0.0
 10
90.01845022706136
 20
-105.7432440599357
 30
0.0
 10
90.01845022706136
 20
-106.0055880811375
 30
0.0
 10
90.01845022706136
 20
-106.3798977056099
 30
0.0
 10
89.7390529832076
 20
-106.4963419330113
 30
0.0
 10
89.49996335653127
 20
-106.4963419330113
 30
0.0
  0
SPLINE
  5
A3
330
9E
100
AcDbEntity
  8
_U+30EC_U+30A4_U+30E4_U+30FC 1
370
     0
100
AcDbSpline
210
0.0
220
0.0
230
1.0
 70
    11
 71
     3
 72
    17
 73
    13
 74
     0
 42
0.0000000001
 43
0.0000000001
 12
1.0
 22
0.0
 32
0.0
 13
1.0
 23
0.0
 33
0.0
 40
0.0
 40
0.0
 40
0.0
 40
0.0
 40
1.0
 40
1.0
 40
1.0
 40
2.0
 40
2.0
 40
2.0
 40
3.0
 40
3.0
 40
3.0
 40
4.0
 40
4.0
 40
4.0
 40
4.0
 10
89.49996335653127
 20
-105.7051757548237
 30
0.0
 10
89.35630287479634
 20
-105.7051757548237
 30
0.0
 10
89.20368514479978
 20
-105.7918199062777
 30
0.0
 10
89.20368514479978
 20
-105.9949082851332
 30
0.0
 10
89.20368514479978
 20
-106.2000637212798
 30
0.0
 10
89.33080916820549
 20
-106.3016940380947
 30
0.0
 10
89.49996335653127
 20
-106.3016940380947
 30
0.0
 10
89.68599851273476
 20
-106.3016940380947
 30
0.0
 10
89.79624156826274
 20
-106.1790486388198
 30
0.0
 10
89.79624156826274
 20
-106.0012817117809
 30
0.0
 10
89.79624156826274
 20
-105.7790730529823
 30
0.0
 10
89.63328855181044
 20
-105.7051757548237
 30
0.0
 10
89.49996335653127
 20
-105.7051757548237
 30
0.0
  0
SPLINE
  5
A4
330
9E
100
AcDbEntity
  8
_U+30EC_U+30A4_U+30E4_U+30FC 1
370
     0
100
AcDbSpline
210
0.0
220
0.0
230
1.0
 70
    11
 71
     3
 72
    17
 73
    13
 74
     0
 42
0.0000000001
 43
0.0000000001
 12
1.0
 22
0.0
 32
0.0
 13
1.0
 23
0.0
 33
0.0
 40
0.0
 40
0.0
 40
0.0
 40
0.0
 40
1.0
 40
1.0
 40
1.0
 40
2.0
 40
2.0
 40
2.0
 40
3.0
 40
3.0
 40
3.0
 40
4.0
 40
4.0
 40
4.0
 40
4.0
 10
89.49996335653127
 20
-105.0450954598498
 30
0.0
 10
89.33494328278779
 20
-105.0450954598498
 30
0.0
 10
89.25019393385065
 20
-105.1401800952427
 30
0.0
 10
89.25019393385065
 20
-105.2755723478131
 30
0.0
 10
89.25019393385065
 20
-105.3983900018622
 30
0.0
 10
89.32219642949237
 20
-105.5169012865548
 30
0.0
 10
89.49996335653127
 20
-105.5169012865548
 30
0.0
 10
89.67773028357016
 20
-105.5169012865548
 30
0.0
 10
89.74973277921188
 20
-105.3983900018622
 30
0.0
 10
89.74973277921188
 20
-105.2755723478131
 30
0.0
 10
89.74973277921188
 20
-105.1401800952427
 30
0.0
 10
89.66291637298357
 20
-105.0450954598498
 30
0.0
 10
89.49996335653127
 20
-105.0450954598498
 30
0.0
  0
HATCH
  5
A5
330
9E
100
AcDbEntity
  8
_U+30EC_U+30A4_U+30E4_U+30FC 1
 62
     7
420
 16777215
100
AcDbHatch
 10
0.0
 20
0.0
 30
0.0
210
0.0
220
0.0
230
1.0
  2
SOLID
 70
     1
 71
     0
 91
        3
 92
        1
 93
        1
 72
     4
 94
        3
 73
     0
 74
     1
 95
       29
 96
       25
 40
0.0
 40
0.0
 40
0.0
 40
0.0
 40
1.0
 40
1.0
 40
1.0
 40
2.0
 40
2.0
 40
2.0
 40
3.0
 40
3.0
 40
3.0
 40
4.0
 40
4.0
 40
4.0
 40
5.0
 40
5.0
 40
5.0
 40
6.0
 40
6.0
 40
6.0
 40
7.0
 40
7.0
 40
7.0
 40
8.0
 40
8.0
 40
8.0
 40
8.0
 10
89.49996335653127
 20
-106.4963419330113
 10
89.23331296597293
 20
-106.4963419330113
 10
88.97940942871001
 20
-106.3587103683756
 10
88.97940942871001
 20
-106.0097221957198
 10
88.97940942871001
 20
-105.7537516011657
 10
89.12134736270231
 20
-105.6584947109986
 10
89.22711179409947
 20
-105.5971720113611
 10
89.10239933753343
 20
-105.5379163690148
 10
89.02626272730942
 20
-105.4237114536788
 10
89.02626272730942
 20
-105.2629977492919
 10
89.02626272730942
 20
-104.9879068747947
 10
89.22504473680833
 20
-104.8525146222244
 10
89.49996335653127
 20
-104.8525146222244
 10
89.78349471496732
 20
-104.8525146222244
 10
89.97400849530165
 20
-104.9963473587336
 10
89.97400849530165
 20
-105.2629977492919
 10
89.97400849530165
 20
-105.4237114536788
 10
89.89546031823795
 20
-105.5379163690148
 10
89.77074786167191
 20
-105.5971720113611
 10
89.85963132519134
 20
-105.6479871697686
 10
90.01845022706136
 20
-105.7432440599357
 10
90.01845022706136
 20
-106.0055880811375
 10
90.01845022706136
 20
-106.3798977056099
 10
89.7390529832076
 20
-106.4963419330113
 10
89.49996335653127
 20
-106.4963419330113
 97
        0
 97
        0
 92
        1
 93
        1
 72
     4
 94
        3
 73
     0
 74
     1
 95
       17
 96
       13
 40
0.0
 40
0.0
 40
0.0
 40
0.0
 40
1.0
 40
1.0
 40
1.0
 40
2.0
 40
2.0
 40
2.0
 40
3.0
 40
3.0
 40
3.0
 40
4.0
 40
4.0
 40
4.0
 40
4.0
 10
89.49996335653127
 20
-105.7051757548237
 10
89.35630287479634
 20
-105.7051757548237
 10
89.20368514479978
 20
-105.7918199062777
 10
89.20368514479978
 20
-105.9949082851332
 10
89.20368514479978
 20
-106.2000637212798
 10
89.33080916820549
 20
-106.3016940380947
 10
89.49996335653127
 20
-106.3016940380947
 10
89.68599851273476
 20
-106.3016940380947
 10
89.79624156826274
 20
-106.1790486388198
 10
89.79624156826274
 20
-106.0012817117809
 10
89.79624156826274
 20
-105.7790730529823
 10
89.63328855181044
 20
-105.7051757548237
 10
89.49996335653127
 20
-105.7051757548237
 97
        0
 97
        0
 92
        1
 93
        1
 72
     4
 94
        3
 73
     0
 74
     1
 95
       17
 96
       13
 40
0.0
 40
0.0
 40
0.0
 40
0.0
 40
1.0
 40
1.0
 40
1.0
 40
2.0
 40
2.0
 40
2.0
 40
3.0
 40
3.0
 40
3.0
 40
4.0
 40
4.0
 40
4.0
 40
4.0
 10
89.49996335653127
 20
-105.0450954598498
 10
89.33494328278779
 20
-105.0450954598498
 10
89.25019393385065
 20
-105.1401800952427
 10
89.25019393385065
 20
-105.2755723478131
 10
89.25019393385065
 20
-105.3983900018622
 10
89.32219642949237
 20
-105.5169012865548
 10
89.49996335653127
 20
-105.5169012865548
 10
89.67773028357016
 20
-105.5169012865548
 10
89.74973277921188
 20
-105.3983900018622
 10
89.74973277921188
 20
-105.2755723478131
 10
89.74973277921188
 20
-105.1401800952427
 10
89.66291637298357
 20
-105.0450954598498
 10
89.49996335653127
 20
-105.0450954598498
 97
        0
 97
        0
 75
     2
 76
     1
 98
        0
  0
ENDBLK
  5
A1
330
9E
100
AcDbEntity
  8
0
100
AcDbBlockEnd
  0
BLOCK
  5
A8
330
A6
100
AcDbEntity
  8
0
100
AcDbBlockBegin
  2
block 5
 70
     0
 10
0.0
 20
0.0
 30
0.0
  3
block 5
  1

  0
SPLINE
  5
AA
330
A6
100
AcDbEntity
  8
_U+30EC_U+30A4_U+30E4_U+30FC 1
370
     0
100
AcDbSpline
210
0.0
220
0.0
230
1.0
 70
    11
 71
     3
 72
    26
 73
    22
 74
     0
 42
0.0000000001
 43
0.0000000001
 12
1.0
 22
0.0
 32
0.0
 13
1.0
 23
0.0
 33
0.0
 40
0.0
 40
0.0
 40
0.0
 40
0.0
 40
1.0
 40
1.0
 40
1.0
 40
2.0
 40
2.0
 40
2.0
 40
3.0
 40
3.0
 40
3.0
 40
4.0
 40
4.0
 40
4.0
 40
5.0
 40
5.0
 40
5.0
 40
6.0
 40
6.0
 40
6.0
 40
7.0
 40
7.0
 40
7.0
 40
7.0
 10
97.18579912934939
 20
-142.7919731630867
 30
0.0
 10
97.18579912934939
 20
-142.7919731630867
 30
0.0
 10
96.08164602632681
 20
-142.7919731630867
 30
0.0
 10
96.08164602632681
 20
-142.7919731630867
 30
0.0
 10
96.08164602632681
 20
-142.7919731630867
 30
0.0
 10
96.08164602632681
 20
-143.1220133105737
 30
0.0
 10
96.08164602632681
 20
-143.1220133105737
 30
0.0
 10
96.08164602632681
 20
-143.1220133105737
 30
0.0
 10
95.93350692046107
 20
-143.1220133105737
 30
0.0
 10
95.93350692046107
 20
-143.1220133105737
 30
0.0
 10
95.9186930098745
 20
-142.7899061057956
 30
0.0
 10
95.75573999342218
 20
-142.7433973167447
 30
0.0
 10
95.64136282331188
 20
-142.7137694955716
 30
0.0
 10
95.64136282331188
 20
-142.7137694955716
 30
0.0
 10
95.64136282331188
 20
-142.567697446997
 30
0.0
 10
95.64136282331188
 20
-142.567697446997
 30
0.0
 10
95.64136282331188
 20
-142.567697446997
 30
0.0
 10
97.18579912934939
 20
-142.567697446997
 30
0.0
 10
97.18579912934939
 20
-142.567697446997
 30
0.0
 10
97.18579912934939
 20
-142.567697446997
 30
0.0
 10
97.18579912934939
 20
-142.7919731630867
 30
0.0
 10
97.18579912934939
 20
-142.7919731630867
 30
0.0
  0
HATCH
  5
AB
330
A6
100
AcDbEntity
  8
_U+30EC_U+30A4_U+30E4_U+30FC 1
 62
     7
420
 16777215
100
AcDbHatch
 10
0.0
 20
0.0
 30
0.0
210
0.0
220
0.0
230
1.0
  2
SOLID
 70
     1
 71
     0
 91
        1
 92
        1
 93
        1
 72
     4
 94
        3
 73
     0
 74
     1
 95
       26
 96
       22
 40
0.0
 40
0.0
 40
0.0
 40
0.0
 40
1.0
 40
1.0
 40
1.0
 40
2.0
 40
2.0
 40
2.0
 40
3.0
 40
3.0
 40
3.0
 40
4.0
 40
4.0
 40
4.0
 40
5.0
 40
5.0
 40
5.0
 40
6.0
 40
6.0
 40
6.0
 40
7.0
 40
7.0
 40
7.0
 40
7.0
 10
97.18579912934939
 20
-142.7919731630867
 10
97.18579912934939
 20
-142.7919731630867
 10
96.08164602632681
 20
-142.7919731630867
 10
96.08164602632681
 20
-142.7919731630867
 10
96.08164602632681
 20
-142.7919731630867
 10
96.08164602632681
 20
-143.1220133105737
 10
96.08164602632681
 20
-143.1220133105737
 10
96.08164602632681
 20
-143.1220133105737
 10
95.93350692046107
 20
-143.1220133105737
 10
95.93350692046107
 20
-143.1220133105737
 10
95.9186930098745
 20
-142.7899061057956
 10
95.75573999342218
 20
-142.7433973167447
 10
95.64136282331188
 20
-142.7137694955716
 10
95.64136282331188
 20
-142.7137694955716
 10
95.64136282331188
 20
-142.567697446997
 10
95.64136282331188
 20
-142.567697446997
 10
95.64136282331188
 20
-142.567697446997
 10
97.18579912934939
 20
-142.567697446997
 10
97.18579912934939
 20
-142.567697446997
 10
97.18579912934939
 20
-142.567697446997
 10
97.18579912934939
 20
-142.7919731630867
 10
97.18579912934939
 20
-142.7919731630867
 97
        0
 97
        0
 75
     2
 76
     1
 98
        0
  0
SPLINE
  5
AC
330
A6
100
AcDbEntity
  8
_U+30EC_U+30A4_U+30E4_U+30FC 1
370
     0
100
AcDbSpline
210
0.0
220
0.0
230
1.0
 70
    11
 71
     3
 72
    44
 73
    40
 74
     0
 42
0.0000000001
 43
0.0000000001
 12
1.0
 22
0.0
 32
0.0
 13
1.0
 23
0.0
 33
0.0
 40
0.0
 40
0.0
 40
0.0
 40
0.0
 40
1.0
 40
1.0
 40
1.0
 40
2.0
 40
2.0
 40
2.0
 40
3.0
 40
3.0
 40
3.0
 40
4.0
 40
4.0
 40
4.0
 40
5.0
 40
5.0
 40
5.0
 40
6.0
 40
6.0
 40
6.0
 40
7.0
 40
7.0
 40
7.0
 40
8.0
 40
8.0
 40
8.0
 40
9.0
 40
9.0
 40
9.0
 40
10.0
 40
10.0
 40
10.0
 40
11.0
 40
11.0
 40
11.0
 40
12.0
 40
12.0
 40
12.0
 40
13.0
 40
13.0
 40
13.0
 40
13.0
 10
96.6039225018907
 20
-141.4735351208816
 30
0.0
 10
96.76274140376071
 20
-141.6912651555494
 30
0.0
 10
96.83681095669358
 20
-141.7842827336512
 30
0.0
 10
96.9804714384285
 20
-141.8332030895417
 30
0.0
 10
96.9804714384285
 20
-141.8332030895417
 30
0.0
 10
96.9804714384285
 20
-141.0546115098752
 30
0.0
 10
96.9804714384285
 20
-141.0546115098752
 30
0.0
 10
96.9804714384285
 20
-141.0546115098752
 30
0.0
 10
97.18579912934939
 20
-141.0546115098752
 30
0.0
 10
97.18579912934939
 20
-141.0546115098752
 30
0.0
 10
97.18579912934939
 20
-141.0546115098752
 30
0.0
 10
97.18579912934939
 20
-142.0826280026738
 30
0.0
 10
97.18579912934939
 20
-142.0826280026738
 30
0.0
 10
96.82819821798046
 20
-142.0509331242095
 30
0.0
 10
96.74999455046529
 20
-141.9854763099897
 30
0.0
 10
96.45164928144264
 20
-141.6003146347388
 30
0.0
 10
96.25286727194373
 20
-141.3443440401848
 30
0.0
 10
96.18499889088432
 20
-141.278887225965
 30
0.0
 10
96.04753958102285
 20
-141.278887225965
 30
0.0
 10
95.92902829633024
 20
-141.278887225965
 30
0.0
 10
95.79811466789076
 20
-141.3508897216067
 30
0.0
 10
95.79811466789076
 20
-141.5476046738145
 30
0.0
 10
95.79811466789076
 20
-141.8077093829509
 30
0.0
 10
96.02859155585396
 20
-141.8159776121155
 30
0.0
 10
96.14503578325541
 20
-141.8204562362463
 30
0.0
 10
96.14503578325541
 20
-141.8204562362463
 30
0.0
 10
96.14503578325541
 20
-142.044731952336
 30
0.0
 10
96.14503578325541
 20
-142.044731952336
 30
0.0
 10
96.0179117598497
 20
-142.0361192136229
 30
0.0
 10
95.90594615657908
 20
-142.0254394176187
 30
0.0
 10
95.78743487188648
 20
-141.9451686928123
 30
0.0
 10
95.62654891272531
 20
-141.8352701468329
 30
0.0
 10
95.59278697696986
 20
-141.6488904810808
 30
0.0
 10
95.59278697696986
 20
-141.5327907632279
 30
0.0
 10
95.59278697696986
 20
-141.2554605766653
 30
0.0
 10
95.7767550758822
 20
-141.0480658284533
 30
0.0
 10
96.04960663831399
 20
-141.0480658284533
 30
0.0
 10
96.27836097853458
 20
-141.0480658284533
 30
0.0
 10
96.37757972850977
 20
-141.1645100558547
 30
0.0
 10
96.6039225018907
 20
-141.4735351208816
 30
0.0
  0
HATCH
  5
AD
330
A6
100
AcDbEntity
  8
_U+30EC_U+30A4_U+30E4_U+30FC 1
 62
     7
420
 16777215
100
AcDbHatch
 10
0.0
 20
0.0
 30
0.0
210
0.0
220
0.0
230
1.0
  2
SOLID
 70
     1
 71
     0
 91
        1
 92
        1
 93
        1
 72
     4
 94
        3
 73
     0
 74
     1
 95
       44
 96
       40
 40
0.0
 40
0.0
 40
0.0
 40
0.0
 40
1.0
 40
1.0
 40
1.0
 40
2.0
 40
2.0
 40
2.0
 40
3.0
 40
3.0
 40
3.0
 40
4.0
 40
4.0
 40
4.0
 40
5.0
 40
5.0
 40
5.0
 40
6.0
 40
6.0
 40
6.0
 40
7.0
 40
7.0
 40
7.0
 40
8.0
 40
8.0
 40
8.0
 40
9.0
 40
9.0
 40
9.0
 40
10.0
 40
10.0
 40
10.0
 40
11.0
 40
11.0
 40
11.0
 40
12.0
 40
12.0
 40
12.0
 40
13.0
 40
13.0
 40
13.0
 40
13.0
 10
96.6039225018907
 20
-141.4735351208816
 10
96.76274140376071
 20
-141.6912651555494
 10
96.83681095669358
 20
-141.7842827336512
 10
96.9804714384285
 20
-141.8332030895417
 10
96.9804714384285
 20
-141.8332030895417
 10
96.9804714384285
 20
-141.0546115098752
 10
96.9804714384285
 20
-141.0546115098752
 10
96.9804714384285
 20
-141.0546115098752
 10
97.18579912934939
 20
-141.0546115098752
 10
97.18579912934939
 20
-141.0546115098752
 10
97.18579912934939
 20
-141.0546115098752
 10
97.18579912934939
 20
-142.0826280026738
 10
97.18579912934939
 20
-142.0826280026738
 10
96.82819821798046
 20
-142.0509331242095
 10
96.74999455046529
 20
-141.9854763099897
 10
96.45164928144264
 20
-141.6003146347388
 10
96.25286727194373
 20
-141.3443440401848
 10
96.18499889088432
 20
-141.278887225965
 10
96.04753958102285
 20
-141.278887225965
 10
95.92902829633024
 20
-141.278887225965
 10
95.79811466789076
 20
-141.3508897216067
 10
95.79811466789076
 20
-141.5476046738145
 10
95.79811466789076
 20
-141.8077093829509
 10
96.02859155585396
 20
-141.8159776121155
 10
96.14503578325541
 20
-141.8204562362463
 10
96.14503578325541
 20
-141.8204562362463
 10
96.14503578325541
 20
-142.044731952336
 10
96.14503578325541
 20
-142.044731952336
 10
96.0179117598497
 20
-142.0361192136229
 10
95.90594615657908
 20
-142.0254394176187
 10
95.78743487188648
 20
-141.9451686928123
 10
95.62654891272531
 20
-141.8352701468329
 10
95.59278697696986
 20
-141.6488904810808
 10
95.59278697696986
 20
-141.5327907632279
 10
95.59278697696986
 20
-141.2554605766653
 10
95.7767550758822
 20
-141.0480658284533
 10
96.04960663831399
 20
-141.0480658284533
 10
96.27836097853458
 20
-141.0480658284533
 10
96.37757972850977
 20
-141.1645100558547
 10
96.6039225018907
 20
-141.4735351208816
 97
        0
 97
        0
 75
     2
 76
     1
 98
        0
  0
ENDBLK
  5
A9
330
A6
100
AcDbEntity
  8
0
100
AcDbBlockEnd
  0
BLOCK
  5
B0
330
AE
100
AcDbEntity
  8
0
100
AcDbBlockBegin
  2
block 6
 70
     0
 10
0.0
 20
0.0
 30
0.0
  3
block 6
  1

  0
SPLINE
  5
B2
330
AE
100
AcDbEntity
  8
_U+30EC_U+30A4_U+30E4_U+30FC 1
370
     0
100
AcDbSpline
210
0.0
220
0.0
230
1.0
 70
    11
 71
     3
 72
    44
 73
    40
 74
     0
 42
0.0000000001
 43
0.0000000001
 12
1.0
 22
0.0
 32
0.0
 13
1.0
 23
0.0
 33
0.0
 40
0.0
 40
0.0
 40
0.0
 40
0.0
 40
1.0
 40
1.0
 40
1.0
 40
2.0
 40
2.0
 40
2.0
 40
3.0
 40
3.0
 40
3.0
 40
4.0
 40
4.0
 40
4.0
 40
5.0
 40
5.0
 40
5.0
 40
6.0
 40
6.0
 40
6.0
 40
7.0
 40
7.0
 40
7.0
 40
8.0
 40
8.0
 40
8.0
 40
9.0
 40
9.0
 40
9.0
 40
10.0
 40
10.0
 40
10.0
 40
11.0
 40
11.0
 40
11.0
 40
12.0
 40
12.0
 40
12.0
 40
13.0
 40
13.0
 40
13.0
 40
13.0
 10
96.60254446369659
 20
-124.1757106894422
 30
0.0
 10
96.76136336556661
 20
-124.39344072411
 30
0.0
 10
96.83543291849948
 20
-124.4864583022117
 30
0.0
 10
96.9790934002344
 20
-124.5353786581023
 30
0.0
 10
96.9790934002344
 20
-124.5353786581023
 30
0.0
 10
96.9790934002344
 20
-123.7567870784358
 30
0.0
 10
96.9790934002344
 20
-123.7567870784358
 30
0.0
 10
96.9790934002344
 20
-123.7567870784358
 30
0.0
 10
97.18442109115529
 20
-123.7567870784358
 30
0.0
 10
97.18442109115529
 20
-123.7567870784358
 30
0.0
 10
97.18442109115529
 20
-123.7567870784358
 30
0.0
 10
97.18442109115529
 20
-124.7848035712344
 30
0.0
 10
97.18442109115529
 20
-124.7848035712344
 30
0.0
 10
96.82682017978635
 20
-124.7531086927701
 30
0.0
 10
96.74861651227118
 20
-124.6876518785503
 30
0.0
 10
96.45027124324855
 20
-124.3024902032994
 30
0.0
 10
96.25148923374964
 20
-124.0465196087453
 30
0.0
 10
96.18362085269021
 20
-123.9810627945256
 30
0.0
 10
96.04616154282874
 20
-123.9810627945256
 30
0.0
 10
95.92765025813615
 20
-123.9810627945256
 30
0.0
 10
95.79673662969665
 20
-124.0530652901673
 30
0.0
 10
95.79673662969665
 20
-124.2497802423751
 30
0.0
 10
95.79673662969665
 20
-124.5098849515114
 30
0.0
 10
96.02721351765987
 20
-124.518153180676
 30
0.0
 10
96.14365774506132
 20
-124.5226318048068
 30
0.0
 10
96.14365774506132
 20
-124.5226318048068
 30
0.0
 10
96.14365774506132
 20
-124.7469075208966
 30
0.0
 10
96.14365774506132
 20
-124.7469075208966
 30
0.0
 10
96.01653372165559
 20
-124.7382947821835
 30
0.0
 10
95.90456811838497
 20
-124.7276149861792
 30
0.0
 10
95.78605683369238
 20
-124.6473442613729
 30
0.0
 10
95.62517087453121
 20
-124.5374457153934
 30
0.0
 10
95.59140893877576
 20
-124.3510660496414
 30
0.0
 10
95.59140893877576
 20
-124.2349663317885
 30
0.0
 10
95.59140893877576
 20
-123.9576361452259
 30
0.0
 10
95.7753770376881
 20
-123.7502413970138
 30
0.0
 10
96.0482286001199
 20
-123.7502413970138
 30
0.0
 10
96.27698294034047
 20
-123.7502413970138
 30
0.0
 10
96.37620169031568
 20
-123.8666856244153
 30
0.0
 10
96.60254446369659
 20
-124.1757106894422
 30
0.0
  0
HATCH
  5
B3
330
AE
100
AcDbEntity
  8
_U+30EC_U+30A4_U+30E4_U+30FC 1
 62
     7
420
 16777215
100
AcDbHatch
 10
0.0
 20
0.0
 30
0.0
210
0.0
220
0.0
230
1.0
  2
SOLID
 70
     1
 71
     0
 91
        1
 92
        1
 93
        1
 72
     4
 94
        3
 73
     0
 74
     1
 95
       44
 96
       40
 40
0.0
 40
0.0
 40
0.0
 40
0.0
 40
1.0
 40
1.0
 40
1.0
 40
2.0
 40
2.0
 40
2.0
 40
3.0
 40
3.0
 40
3.0
 40
4.0
 40
4.0
 40
4.0
 40
5.0
 40
5.0
 40
5.0
 40
6.0
 40
6.0
 40
6.0
 40
7.0
 40
7.0
 40
7.0
 40
8.0
 40
8.0
 40
8.0
 40
9.0
 40
9.0
 40
9.0
 40
10.0
 40
10.0
 40
10.0
 40
11.0
 40
11.0
 40
11.0
 40
12.0
 40
12.0
 40
12.0
 40
13.0
 40
13.0
 40
13.0
 40
13.0
 10
96.60254446369659
 20
-124.1757106894422
 10
96.76136336556661
 20
-124.39344072411
 10
96.83543291849948
 20
-124.4864583022117
 10
96.9790934002344
 20
-124.5353786581023
 10
96.9790934002344
 20
-124.5353786581023
 10
96.9790934002344
 20
-123.7567870784358
 10
96.9790934002344
 20
-123.7567870784358
 10
96.9790934002344
 20
-123.7567870784358
 10
97.18442109115529
 20
-123.7567870784358
 10
97.18442109115529
 20
-123.7567870784358
 10
97.18442109115529
 20
-123.7567870784358
 10
97.18442109115529
 20
-124.7848035712344
 10
97.18442109115529
 20
-124.7848035712344
 10
96.82682017978635
 20
-124.7531086927701
 10
96.74861651227118
 20
-124.6876518785503
 10
96.45027124324855
 20
-124.3024902032994
 10
96.25148923374964
 20
-124.0465196087453
 10
96.18362085269021
 20
-123.9810627945256
 10
96.04616154282874
 20
-123.9810627945256
 10
95.92765025813615
 20
-123.9810627945256
 10
95.79673662969665
 20
-124.0530652901673
 10
95.79673662969665
 20
-124.2497802423751
 10
95.79673662969665
 20
-124.5098849515114
 10
96.02721351765987
 20
-124.518153180676
 10
96.14365774506132
 20
-124.5226318048068
 10
96.14365774506132
 20
-124.5226318048068
 10
96.14365774506132
 20
-124.7469075208966
 10
96.14365774506132
 20
-124.7469075208966
 10
96.01653372165559
 20
-124.7382947821835
 10
95.90456811838497
 20
-124.7276149861792
 10
95.78605683369238
 20
-124.6473442613729
 10
95.62517087453121
 20
-124.5374457153934
 10
95.59140893877576
 20
-124.3510660496414
 10
95.59140893877576
 20
-124.2349663317885
 10
95.59140893877576
 20
-123.9576361452259
 10
95.7753770376881
 20
-123.7502413970138
 10
96.0482286001199
 20
-123.7502413970138
 10
96.27698294034047
 20
-123.7502413970138
 10
96.37620169031568
 20
-123.8666856244153
 10
96.60254446369659
 20
-124.1757106894422
 97
        0
 97
        0
 75
     2
 76
     1
 98
        0
  0
SPLINE
  5
B4
330
AE
100
AcDbEntity
  8
_U+30EC_U+30A4_U+30E4_U+30FC 1
370
     0
100
AcDbSpline
210
0.0
220
0.0
230
1.0
 70
    11
 71
     3
 72
    53
 73
    49
 74
     0
 42
0.0000000001
 43
0.0000000001
 12
1.0
 22
0.0
 32
0.0
 13
1.0
 23
0.0
 33
0.0
 40
0.0
 40
0.0
 40
0.0
 40
0.0
 40
1.0
 40
1.0
 40
1.0
 40
2.0
 40
2.0
 40
2.0
 40
3.0
 40
3.0
 40
3.0
 40
4.0
 40
4.0
 40
4.0
 40
5.0
 40
5.0
 40
5.0
 40
6.0
 40
6.0
 40
6.0
 40
7.0
 40
7.0
 40
7.0
 40
8.0
 40
8.0
 40
8.0
 40
9.0
 40
9.0
 40
9.0
 40
10.0
 40
10.0
 40
10.0
 40
11.0
 40
11.0
 40
11.0
 40
12.0
 40
12.0
 40
12.0
 40
13.0
 40
13.0
 40
13.0
 40
14.0
 40
14.0
 40
14.0
 40
15.0
 40
15.0
 40
15.0
 40
16.0
 40
16.0
 40
16.0
 40
16.0
 10
97.23506399478846
 20
-123.1108316749515
 30
0.0
 10
97.23506399478846
 20
-123.1890353424666
 30
0.0
 10
97.21818302691074
 20
-123.2906656592815
 30
0.0
 10
97.15479326998214
 20
-123.3922959760964
 30
0.0
 10
97.04489472400267
 20
-123.5655842790044
 30
0.0
 10
96.91363658601465
 20
-123.586943871013
 30
0.0
 10
96.80580509732633
 20
-123.6058918961819
 30
0.0
 10
96.80580509732633
 20
-123.6058918961819
 30
0.0
 10
96.80580509732633
 20
-123.3836832373833
 30
0.0
 10
96.80580509732633
 20
-123.3836832373833
 30
0.0
 10
97.00458710682524
 20
-123.3289062191678
 30
0.0
 10
97.03421492799839
 20
-123.2017821957621
 30
0.0
 10
97.03421492799839
 20
-123.1087646176603
 30
0.0
 10
97.03421492799839
 20
-122.9692382505077
 30
0.0
 10
96.93465166847467
 20
-122.8169650300596
 30
0.0
 10
96.70210772322031
 20
-122.8169650300596
 30
0.0
 10
96.44613712866625
 20
-122.8169650300596
 30
0.0
 10
96.37620169031568
 20
-122.9967990143897
 30
0.0
 10
96.37620169031568
 20
-123.1173773563734
 30
0.0
 10
96.37620169031568
 20
-123.1490722348377
 30
0.0
 10
96.37620169031568
 20
-123.2906656592815
 30
0.0
 10
96.50539277101255
 20
-123.379549122801
 30
0.0
 10
96.50539277101255
 20
-123.379549122801
 30
0.0
 10
96.48644474584367
 20
-123.5552489925487
 30
0.0
 10
96.48644474584367
 20
-123.5552489925487
 30
0.0
 10
96.48644474584367
 20
-123.5552489925487
 30
0.0
 10
95.63998478511779
 20
-123.434670650565
 30
0.0
 10
95.63998478511779
 20
-123.434670650565
 30
0.0
 10
95.63998478511779
 20
-123.434670650565
 30
0.0
 10
95.63998478511779
 20
-122.6560790708985
 30
0.0
 10
95.63998478511779
 20
-122.6560790708985
 30
0.0
 10
95.63998478511779
 20
-122.6560790708985
 30
0.0
 10
95.8346326800344
 20
-122.6560790708985
 30
0.0
 10
95.8346326800344
 20
-122.6560790708985
 30
0.0
 10
95.8346326800344
 20
-122.6560790708985
 30
0.0
 10
95.8346326800344
 20
-123.2717176341126
 30
0.0
 10
95.8346326800344
 20
-123.2717176341126
 30
0.0
 10
95.8346326800344
 20
-123.2717176341126
 30
0.0
 10
96.25769040562308
 20
-123.3371744483324
 30
0.0
 10
96.25769040562308
 20
-123.3371744483324
 30
0.0
 10
96.22392846986763
 20
-123.2758517486949
 30
0.0
 10
96.18362085269021
 20
-123.1935139665975
 30
0.0
 10
96.18362085269021
 20
-123.0750026819049
 30
0.0
 10
96.18362085269021
 20
-122.8210991446419
 30
0.0
 10
96.37000051844223
 20
-122.5840765752568
 30
0.0
 10
96.68315969805144
 20
-122.5840765752568
 30
0.0
 10
97.00045299224294
 20
-122.5840765752568
 30
0.0
 10
97.23506399478846
 20
-122.8083522913465
 30
0.0
 10
97.23506399478846
 20
-123.1108316749515
 30
0.0
  0
HATCH
  5
B5
330
AE
100
AcDbEntity
  8
_U+30EC_U+30A4_U+30E4_U+30FC 1
 62
     7
420
 16777215
100
AcDbHatch
 10
0.0
 20
0.0
 30
0.0
210
0.0
220
0.0
230
1.0
  2
SOLID
 70
     1
 71
     0
 91
        1
 92
        1
 93
        1
 72
     4
 94
        3
 73
     0
 74
     1
 95
       53
 96
       49
 40
0.0
 40
0.0
 40
0.0
 40
0.0
 40
1.0
 40
1.0
 40
1.0
 40
2.0
 40
2.0
 40
2.0
 40
3.0
 40
3.0
 40
3.0
 40
4.0
 40
4.0
 40
4.0
 40
5.0
 40
5.0
 40
5.0
 40
6.0
 40
6.0
 40
6.0
 40
7.0
 40
7.0
 40
7.0
 40
8.0
 40
8.0
 40
8.0
 40
9.0
 40
9.0
 40
9.0
 40
10.0
 40
10.0
 40
10.0
 40
11.0
 40
11.0
 40
11.0
 40
12.0
 40
12.0
 40
12.0
 40
13.0
 40
13.0
 40
13.0
 40
14.0
 40
14.0
 40
14.0
 40
15.0
 40
15.0
 40
15.0
 40
16.0
 40
16.0
 40
16.0
 40
16.0
 10
97.23506399478846
 20
-123.1108316749515
 10
97.23506399478846
 20
-123.1890353424666
 10
97.21818302691074
 20
-123.2906656592815
 10
97.15479326998214
 20
-123.3922959760964
 10
97.04489472400267
 20
-123.5655842790044
 10
96.91363658601465
 20
-123.586943871013
 10
96.80580509732633
 20
-123.6058918961819
 10
96.80580509732633
 20
-123.6058918961819
 10
96.80580509732633
 20
-123.3836832373833
 10
96.80580509732633
 20
-123.3836832373833
 10
97.00458710682524
 20
-123.3289062191678
 10
97.03421492799839
 20
-123.2017821957621
 10
97.03421492799839
 20
-123.1087646176603
 10
97.03421492799839
 20
-122.9692382505077
 10
96.93465166847467
 20
-122.8169650300596
 10
96.70210772322031
 20
-122.8169650300596
 10
96.44613712866625
 20
-122.8169650300596
 10
96.37620169031568
 20
-122.9967990143897
 10
96.37620169031568
 20
-123.1173773563734
 10
96.37620169031568
 20
-123.1490722348377
 10
96.37620169031568
 20
-123.2906656592815
 10
96.50539277101255
 20
-123.379549122801
 10
96.50539277101255
 20
-123.379549122801
 10
96.48644474584367
 20
-123.5552489925487
 10
96.48644474584367
 20
-123.5552489925487
 10
96.48644474584367
 20
-123.5552489925487
 10
95.63998478511779
 20
-123.434670650565
 10
95.63998478511779
 20
-123.434670650565
 10
95.63998478511779
 20
-123.434670650565
 10
95.63998478511779
 20
-122.6560790708985
 10
95.63998478511779
 20
-122.6560790708985
 10
95.63998478511779
 20
-122.6560790708985
 10
95.8346326800344
 20
-122.6560790708985
 10
95.8346326800344
 20
-122.6560790708985
 10
95.8346326800344
 20
-122.6560790708985
 10
95.8346326800344
 20
-123.2717176341126
 10
95.8346326800344
 20
-123.2717176341126
 10
95.8346326800344
 20
-123.2717176341126
 10
96.25769040562308
 20
-123.3371744483324
 10
96.25769040562308
 20
-123.3371744483324
 10
96.22392846986763
 20
-123.2758517486949
 10
96.18362085269021
 20
-123.1935139665975
 10
96.18362085269021
 20
-123.0750026819049
 10
96.18362085269021
 20
-122.8210991446419
 10
96.37000051844223
 20
-122.5840765752568
 10
96.68315969805144
 20
-122.5840765752568
 10
97.00045299224294
 20
-122.5840765752568
 10
97.23506399478846
 20
-122.8083522913465
 10
97.23506399478846
 20
-123.1108316749515
 97
        0
 97
        0
 75
     2
 76
     1
 98
        0
  0
ENDBLK
  5
B1
330
AE
100
AcDbEntity
  8
0
100
AcDbBlockEnd
  0
ENDSEC
  0
SECTION
  2
ENTITIES
  0
POLYLINE
  5
41
330
1F
100
AcDbEntity
  8
_U+30EC_U+30A4_U+30E4_U+30FC 1
370
     0
100
AcDb2dPolyline
 66
     1
 10
0.0
 20
0.0
 30
0.0
  0
VERTEX
  5
42
330
41
100
AcDbEntity
  8
_U+30EC_U+30A4_U+30E4_U+30FC 1
370
     0
100
AcDbVertex
100
AcDb2dVertex
 10
93.58876942104699
 20
-148.1577060740715
 30
0.0
  0
VERTEX
  5
43
330
41
100
AcDbEntity
  8
_U+30EC_U+30A4_U+30E4_U+30FC 1
370
     0
100
AcDbVertex
100
AcDb2dVertex
 10
93.59360011222833
 20
-136.1949763548403
 30
0.0
  0
VERTEX
  5
44
330
41
100
AcDbEntity
  8
_U+30EC_U+30A4_U+30E4_U+30FC 1
370
     0
100
AcDbVertex
100
AcDb2dVertex
 10
93.44303456051402
 20
-136.1921894103964
 30
0.0
  0
VERTEX
  5
45
330
41
100
AcDbEntity
  8
_U+30EC_U+30A4_U+30E4_U+30FC 1
370
     0
100
AcDbVertex
100
AcDb2dVertex
 10
85.40823865438763
 20
-136.1921894103964
 30
0.0
  0
VERTEX
  5
46
330
41
100
AcDbEntity
  8
_U+30EC_U+30A4_U+30E4_U+30FC 1
370
     0
100
AcDbVertex
100
AcDb2dVertex
 10
85.41166059874477
 20
-136.1894377437306
 30
0.0
  0
VERTEX
  5
47
330
41
100
AcDbEntity
  8
_U+30EC_U+30A4_U+30E4_U+30FC 1
370
     0
100
AcDbVertex
100
AcDb2dVertex
 10
85.41166059874477
 20
-111.1923452499796
 30
0.0
  0
VERTEX
  5
48
330
41
100
AcDbEntity
  8
_U+30EC_U+30A4_U+30E4_U+30FC 1
370
     0
100
AcDbVertex
100
AcDb2dVertex
 10
84.44014590130796
 20
-111.1923452499796
 30
0.0
  0
VERTEX
  5
49
330
41
100
AcDbEntity
  8
_U+30EC_U+30A4_U+30E4_U+30FC 1
370
     0
100
AcDbVertex
100
AcDb2dVertex
 10
84.44014590130796
 20
-137.087927465728
 30
0.0
  0
VERTEX
  5
4A
330
41
100
AcDbEntity
  8
_U+30EC_U+30A4_U+30E4_U+30FC 1
370
     0
100
AcDbVertex
100
AcDb2dVertex
 10
84.61999200783082
 20
-137.087927465728
 30
0.0
  0
VERTEX
  5
4B
330
41
100
AcDbEntity
  8
_U+30EC_U+30A4_U+30E4_U+30FC 1
370
     0
100
AcDbVertex
100
AcDb2dVertex
 10
92.6406768032061
 20
-137.0893032990608
 30
0.0
  0
VERTEX
  5
4C
330
41
100
AcDbEntity
  8
_U+30EC_U+30A4_U+30E4_U+30FC 1
370
     0
100
AcDbVertex
100
AcDb2dVertex
 10
92.6406768032061
 20
-137.0893032990608
 30
0.0
  0
VERTEX
  5
4D
330
41
100
AcDbEntity
  8
_U+30EC_U+30A4_U+30E4_U+30FC 1
370
     0
100
AcDbVertex
100
AcDb2dVertex
 10
92.6406768032061
 20
-147.1717274632073
 30
0.0
  0
VERTEX
  5
4E
330
41
100
AcDbEntity
  8
_U+30EC_U+30A4_U+30E4_U+30FC 1
370
     0
100
AcDbVertex
100
AcDb2dVertex
 10
92.6382779143784
 20
-147.1717274632073
 30
0.0
  0
VERTEX
  5
4F
330
41
100
AcDbEntity
  8
_U+30EC_U+30A4_U+30E4_U+30FC 1
370
     0
100
AcDbVertex
100
AcDb2dVertex
 10
84.51059562173286
 20
-147.1717274632073
 30
0.0
  0
VERTEX
  5
50
330
41
100
AcDbEntity
  8
_U+30EC_U+30A4_U+30E4_U+30FC 1
370
     0
100
AcDbVertex
100
AcDb2dVertex
 10
84.51059562173286
 20
-148.1577060740715
 30
0.0
  0
VERTEX
  5
51
330
41
100
AcDbEntity
  8
_U+30EC_U+30A4_U+30E4_U+30FC 1
370
     0
100
AcDbVertex
100
AcDb2dVertex
 10
93.58876942104699
 20
-148.1577060740715
 30
0.0
  0
VERTEX
  5
52
330
41
100
AcDbEntity
  8
_U+30EC_U+30A4_U+30E4_U+30FC 1
370
     0
100
AcDbVertex
100
AcDb2dVertex
 10
93.58876942104699
 20
-148.1577060740715
 30
0.0
  0
SEQEND
  5
54
330
41
100
AcDbEntity
  8
_U+30EC_U+30A4_U+30E4_U+30FC 1
370
     0
  0
HATCH
  5
53
330
1F
100
AcDbEntity
  8
_U+30EC_U+30A4_U+30E4_U+30FC 1
 62
   253
420
 11711154
100
AcDbHatch
 10
0.0
 20
0.0
 30
0.0
210
0.0
220
0.0
230
1.0
  2
SOLID
 70
     1
 71
     0
 91
        1
 92
        1
 93
       14
 72
     1
 10
93.58876942104699
 20
-148.1577060740715
 11
93.59360011222833
 21
-136.1949763548403
 72
     1
 10
93.59360011222833
 20
-136.1949763548403
 11
93.44303456051402
 21
-136.1921894103964
 72
     1
 10
93.44303456051402
 20
-136.1921894103964
 11
85.40823865438763
 21
-136.1921894103964
 72
     1
 10
85.40823865438763
 20
-136.1921894103964
 11
85.41166059874477
 21
-136.1894377437306
 72
     1
 10
85.41166059874477
 20
-136.1894377437306
 11
85.41166059874477
 21
-111.1923452499796
 72
     1
 10
85.41166059874477
 20
-111.1923452499796
 11
84.44014590130796
 21
-111.1923452499796
 72
     1
 10
84.44014590130796
 20
-111.1923452499796
 11
84.44014590130796
 21
-137.087927465728
 72
     1
 10
84.44014590130796
 20
-137.087927465728
 11
84.61999200783082
 21
-137.087927465728
 72
     1
 10
84.61999200783082
 20
-137.087927465728
 11
92.6406768032061
 21
-137.0893032990608
 72
     1
 10
92.6406768032061
 20
-137.0893032990608
 11
92.6406768032061
 21
-147.1717274632073
 72
     1
 10
92.6406768032061
 20
-147.1717274632073
 11
92.6382779143784
 21
-147.1717274632073
 72
     1
 10
92.6382779143784
 20
-147.1717274632073
 11
84.51059562173286
 21
-147.1717274632073
 72
     1
 10
84.51059562173286
 20
-147.1717274632073
 11
84.51059562173286
 21
-148.1577060740715
 72
     1
 10
84.51059562173286
 20
-148.1577060740715
 11
93.58876942104699
 21
-148.1577060740715
 97
        0
 75
     2
 76
     1
 98
        0
  0
SPLINE
  5
55
330
1F
100
AcDbEntity
  8
_U+30EC_U+30A4_U+30E4_U+30FC 1
 62
     7
420
 16777215
370
     9
100
AcDbSpline
210
0.0
220
0.0
230
1.0
 70
    11
 71
     3
 72
    17
 73
    13
 74
     0
 42
0.0000000001
 43
0.0000000001
 12
1.0
 22
0.0
 32
0.0
 13
1.0
 23
0.0
 33
0.0
 40
0.0
 40
0.0
 40
0.0
 40
0.0
 40
1.0
 40
1.0
 40
1.0
 40
2.0
 40
2.0
 40
2.0
 40
3.0
 40
3.0
 40
3.0
 40
4.0
 40
4.0
 40
4.0
 40
4.0
 10
85.51227497862192
 20
-107.1919158065353
 30
0.0
 10
85.51227497862192
 20
-107.1367766398826
 30
0.0
 10
85.46747220085551
 20
-107.0920091398937
 30
0.0
 10
85.41201337651356
 20
-107.0920091398937
 30
0.0
 10
85.35687421125361
 20
-107.0920091398937
 30
0.0
 10
85.31210671239572
 20
-107.1367766398826
 30
0.0
 10
85.31210671239572
 20
-107.1919158065353
 30
0.0
 10
85.31210671239572
 20
-107.2473724731883
 30
0.0
 10
85.35687421125361
 20
-107.2921752509547
 30
0.0
 10
85.41201337651356
 20
-107.2921752509547
 30
0.0
 10
85.46747220085551
 20
-107.2921752509547
 30
0.0
 10
85.51227497862192
 20
-107.2473724731883
 30
0.0
 10
85.51227497862192
 20
-107.1919158065353
 30
0.0
  0
SPLINE
  5
56
330
1F
100
AcDbEntity
  8
_U+30EC_U+30A4_U+30E4_U+30FC 1
 62
     7
420
 16777215
370
     9
100
AcDbSpline
210
0.0
220
0.0
230
1.0
 70
    11
 71
     3
 72
    17
 73
    13
 74
     0
 42
0.0000000001
 43
0.0000000001
 12
1.0
 22
0.0
 32
0.0
 13
1.0
 23
0.0
 33
0.0
 40
0.0
 40
0.0
 40
0.0
 40
0.0
 40
1.0
 40
1.0
 40
1.0
 40
2.0
 40
2.0
 40
2.0
 40
3.0
 40
3.0
 40
3.0
 40
4.0
 40
4.0
 40
4.0
 40
4.0
 10
84.4969805344314
 20
-107.1919158065353
 30
0.0
 10
84.4969805344314
 20
-107.1367766398826
 30
0.0
 10
84.45221090100016
 20
-107.0920091398937
 30
0.0
 10
84.39707173574021
 20
-107.0920091398937
 30
0.0
 10
84.34196784825714
 20
-107.0920091398937
 30
0.0
 10
84.29716507162237
 20
-107.1367766398826
 30
0.0
 10
84.29716507162237
 20
-107.1919158065353
 30
0.0
 10
84.29716507162237
 20
-107.2473724731883
 30
0.0
 10
84.34196784825714
 20
-107.2921752509547
 30
0.0
 10
84.39707173574021
 20
-107.2921752509547
 30
0.0
 10
84.45221090100016
 20
-107.2921752509547
 30
0.0
 10
84.4969805344314
 20
-107.2473724731883
 30
0.0
 10
84.4969805344314
 20
-107.1919158065353
 30
0.0
  0
SPLINE
  5
57
330
1F
100
AcDbEntity
  8
_U+30EC_U+30A4_U+30E4_U+30FC 1
 62
     7
420
 16777215
370
     9
100
AcDbSpline
210
0.0
220
0.0
230
1.0
 70
    11
 71
     3
 72
    17
 73
    13
 74
     0
 42
0.0000000001
 43
0.0000000001
 12
1.0
 22
0.0
 32
0.0
 13
1.0
 23
0.0
 33
0.0
 40
0.0
 40
0.0
 40
0.0
 40
0.0
 40
1.0
 40
1.0
 40
1.0
 40
2.0
 40
2.0
 40
2.0
 40
3.0
 40
3.0
 40
3.0
 40
4.0
 40
4.0
 40
4.0
 40
4.0
 10
98.08876499754713
 20
-111.1923452499796
 30
0.0
 10
98.08876499754713
 20
-111.1368885833269
 30
0.0
 10
98.04396222091236
 20
-111.0920858055602
 30
0.0
 10
97.98885833342929
 20
-111.0920858055602
 30
0.0
 10
97.93371916816933
 20
-111.0920858055602
 30
0.0
 10
97.88895166931145
 20
-111.1368885833269
 30
0.0
 10
97.88895166931145
 20
-111.1923452499796
 30
0.0
 10
97.88895166931145
 20
-111.2474844166326
 30
0.0
 10
97.93371916816933
 20
-111.2922519166215
 30
0.0
 10
97.98885833342929
 20
-111.2922519166215
 30
0.0
 10
98.04396222091236
 20
-111.2922519166215
 30
0.0
 10
98.08876499754713
 20
-111.2474844166326
 30
0.0
 10
98.08876499754713
 20
-111.1923452499796
 30
0.0
  0
SPLINE
  5
58
330
1F
100
AcDbEntity
  8
_U+30EC_U+30A4_U+30E4_U+30FC 1
 62
     7
420
 16777215
370
     9
100
AcDbSpline
210
0.0
220
0.0
230
1.0
 70
    11
 71
     3
 72
    17
 73
    13
 74
     0
 42
0.0000000001
 43
0.0000000001
 12
1.0
 22
0.0
 32
0.0
 13
1.0
 23
0.0
 33
0.0
 40
0.0
 40
0.0
 40
0.0
 40
0.0
 40
1.0
 40
1.0
 40
1.0
 40
2.0
 40
2.0
 40
2.0
 40
3.0
 40
3.0
 40
3.0
 40
4.0
 40
4.0
 40
4.0
 40
4.0
 10
98.08876499754713
 20
-136.1680946881805
 30
0.0
 10
98.08876499754713
 20
-136.1129555215275
 30
0.0
 10
98.04396222091236
 20
-136.0681880215382
 30
0.0
 10
97.98885833342929
 20
-136.0681880215382
 30
0.0
 10
97.93371916816933
 20
-136.0681880215382
 30
0.0
 10
97.88895166931145
 20
-136.1129555215275
 30
0.0
 10
97.88895166931145
 20
-136.1680946881805
 30
0.0
 10
97.88895166931145
 20
-136.2231985770554
 30
0.0
 10
97.93371916816933
 20
-136.2680013548222
 30
0.0
 10
97.98885833342929
 20
-136.2680013548222
 30
0.0
 10
98.04396222091236
 20
-136.2680013548222
 30
0.0
 10
98.08876499754713
 20
-136.2231985770554
 30
0.0
 10
98.08876499754713
 20
-136.1680946881805
 30
0.0
  0
SPLINE
  5
59
330
1F
100
AcDbEntity
  8
_U+30EC_U+30A4_U+30E4_U+30FC 1
 62
     7
420
 16777215
370
     9
100
AcDbSpline
210
0.0
220
0.0
230
1.0
 70
    11
 71
     3
 72
    17
 73
    13
 74
     0
 42
0.0000000001
 43
0.0000000001
 12
1.0
 22
0.0
 32
0.0
 13
1.0
 23
0.0
 33
0.0
 40
0.0
 40
0.0
 40
0.0
 40
0.0
 40
1.0
 40
1.0
 40
1.0
 40
2.0
 40
2.0
 40
2.0
 40
3.0
 40
3.0
 40
3.0
 40
4.0
 40
4.0
 40
4.0
 40
4.0
 10
93.68867372091391
 20
-107.1912102509801
 30
0.0
 10
93.68867372091391
 20
-107.1357535843271
 30
0.0
 10
93.64390622205603
 20
-107.0909508065607
 30
0.0
 10
93.58876942104699
 20
-107.0909508065607
 30
0.0
 10
93.533663169313
 20
-107.0909508065607
 30
0.0
 10
93.48886039267825
 20
-107.1357535843271
 30
0.0
 10
93.48886039267825
 20
-107.1912102509801
 30
0.0
 10
93.48886039267825
 20
-107.2466669176328
 30
0.0
 10
93.533663169313
 20
-107.2911169176217
 30
0.0
 10
93.58876942104699
 20
-107.2911169176217
 30
0.0
 10
93.64390622205603
 20
-107.2911169176217
 30
0.0
 10
93.68867372091391
 20
-107.2466669176328
 30
0.0
 10
93.68867372091391
 20
-107.1912102509801
 30
0.0
  0
SPLINE
  5
5A
330
1F
100
AcDbEntity
  8
_U+30EC_U+30A4_U+30E4_U+30FC 1
 62
     7
420
 16777215
370
     9
100
AcDbSpline
210
0.0
220
0.0
230
1.0
 70
    11
 71
     3
 72
    17
 73
    13
 74
     0
 42
0.0000000001
 43
0.0000000001
 12
1.0
 22
0.0
 32
0.0
 13
1.0
 23
0.0
 33
0.0
 40
0.0
 40
0.0
 40
0.0
 40
0.0
 40
1.0
 40
1.0
 40
1.0
 40
2.0
 40
2.0
 40
2.0
 40
3.0
 40
3.0
 40
3.0
 40
4.0
 40
4.0
 40
4.0
 40
4.0
 10
93.68867372091391
 20
-152.1919316286188
 30
0.0
 10
93.68867372091391
 20
-152.1367924619657
 30
0.0
 10
93.64390622205603
 20
-152.0920249619771
 30
0.0
 10
93.58876942104699
 20
-152.0920249619771
 30
0.0
 10
93.533663169313
 20
-152.0920249619771
 30
0.0
 10
93.48886039267825
 20
-152.1367924619657
 30
0.0
 10
93.48886039267825
 20
-152.1919316286188
 30
0.0
 10
93.48886039267825
 20
-152.2470355174937
 30
0.0
 10
93.533663169313
 20
-152.2918382952604
 30
0.0
 10
93.58876942104699
 20
-152.2918382952604
 30
0.0
 10
93.64390622205603
 20
-152.2918382952604
 30
0.0
 10
93.68867372091391
 20
-152.2470355174937
 30
0.0
 10
93.68867372091391
 20
-152.1919316286188
 30
0.0
  0
SPLINE
  5
5B
330
1F
100
AcDbEntity
  8
_U+30EC_U+30A4_U+30E4_U+30FC 1
 62
     7
420
 16777215
370
     9
100
AcDbSpline
210
0.0
220
0.0
230
1.0
 70
    11
 71
     3
 72
    17
 73
    13
 74
     0
 42
0.0000000001
 43
0.0000000001
 12
1.0
 22
0.0
 32
0.0
 13
1.0
 23
0.0
 33
0.0
 40
0.0
 40
0.0
 40
0.0
 40
0.0
 40
1.0
 40
1.0
 40
1.0
 40
2.0
 40
2.0
 40
2.0
 40
3.0
 40
3.0
 40
3.0
 40
4.0
 40
4.0
 40
4.0
 40
4.0
 10
84.5597022871467
 20
-152.1919316286188
 30
0.0
 10
84.5597022871467
 20
-152.1367924619657
 30
0.0
 10
84.51525228828072
 20
-152.0920249619771
 30
0.0
 10
84.45979562302888
 20
-152.0920249619771
 30
0.0
 10
84.40465645776892
 20
-152.0920249619771
 30
0.0
 10
84.35988895891104
 20
-152.1367924619657
 30
0.0
 10
84.35988895891104
 20
-152.1919316286188
 30
0.0
 10
84.35988895891104
 20
-152.2470355174937
 30
0.0
 10
84.40465645776892
 20
-152.2918382952604
 30
0.0
 10
84.45979562302888
 20
-152.2918382952604
 30
0.0
 10
84.51525228828072
 20
-152.2918382952604
 30
0.0
 10
84.5597022871467
 20
-152.2470355174937
 30
0.0
 10
84.5597022871467
 20
-152.1919316286188
 30
0.0
  0
SPLINE
  5
5C
330
1F
100
AcDbEntity
  8
_U+30EC_U+30A4_U+30E4_U+30FC 1
 62
     7
420
 16777215
370
     9
100
AcDbSpline
210
0.0
220
0.0
230
1.0
 70
    11
 71
     3
 72
    17
 73
    13
 74
     0
 42
0.0000000001
 43
0.0000000001
 12
1.0
 22
0.0
 32
0.0
 13
1.0
 23
0.0
 33
0.0
 40
0.0
 40
0.0
 40
0.0
 40
0.0
 40
1.0
 40
1.0
 40
1.0
 40
2.0
 40
2.0
 40
2.0
 40
3.0
 40
3.0
 40
3.0
 40
4.0
 40
4.0
 40
4.0
 40
4.0
 10
98.08876499754713
 20
-148.1432421851865
 30
0.0
 10
98.08876499754713
 20
-148.0874327407561
 30
0.0
 10
98.04396222091236
 20
-148.0426299629894
 30
0.0
 10
97.98885833342929
 20
-148.0426299629894
 30
0.0
 10
97.93371916816933
 20
-148.0426299629894
 30
0.0
 10
97.88895166931145
 20
-148.0874327407561
 30
0.0
 10
97.88895166931145
 20
-148.1432421851865
 30
0.0
 10
97.88895166931145
 20
-148.1983460740614
 30
0.0
 10
97.93371916816933
 20
-148.2431488518282
 30
0.0
 10
97.98885833342929
 20
-148.2431488518282
 30
0.0
 10
98.04396222091236
 20
-148.2431488518282
 30
0.0
 10
98.08876499754713
 20
-148.1983460740614
 30
0.0
 10
98.08876499754713
 20
-148.1432421851865
 30
0.0
  0
POLYLINE
  5
5D
330
1F
100
AcDbEntity
  8
_U+30EC_U+30A4_U+30E4_U+30FC 1
 62
     7
420
 16777215
370
     9
100
AcDb2dPolyline
 66
     1
 10
0.0
 20
0.0
 30
0.0
  0
VERTEX
  5
5E
330
5D
100
AcDbEntity
  8
_U+30EC_U+30A4_U+30E4_U+30FC 1
 62
     7
420
 16777215
370
     9
100
AcDbVertex
100
AcDb2dVertex
 10
84.38056386779385
 20
-107.1919158065353
 30
0.0
  0
VERTEX
  5
5F
330
5D
100
AcDbEntity
  8
_U+30EC_U+30A4_U+30E4_U+30FC 1
 62
     7
420
 16777215
370
     9
100
AcDbVertex
100
AcDb2dVertex
 10
85.41201337651356
 20
-107.1919158065353
 30
0.0
  0
SEQEND
  5
60
330
5D
100
AcDbEntity
  8
_U+30EC_U+30A4_U+30E4_U+30FC 1
 62
     7
420
 16777215
370
     9
  0
POLYLINE
  5
61
330
1F
100
AcDbEntity
  8
_U+30EC_U+30A4_U+30E4_U+30FC 1
 62
     7
420
 16777215
370
     9
100
AcDb2dPolyline
 66
     1
 10
0.0
 20
0.0
 30
0.0
  0
VERTEX
  5
62
330
61
100
AcDbEntity
  8
_U+30EC_U+30A4_U+30E4_U+30FC 1
 62
     7
420
 16777215
370
     9
100
AcDbVertex
100
AcDb2dVertex
 10
84.39707173574021
 20
-108.6519219172815
 30
0.0
  0
VERTEX
  5
63
330
61
100
AcDbEntity
  8
_U+30EC_U+30A4_U+30E4_U+30FC 1
 62
     7
420
 16777215
370
     9
100
AcDbVertex
100
AcDb2dVertex
 10
84.39707173574021
 20
-106.1921435845631
 30
0.0
  0
SEQEND
  5
64
330
61
100
AcDbEntity
  8
_U+30EC_U+30A4_U+30E4_U+30FC 1
 62
     7
420
 16777215
370
     9
  0
POLYLINE
  5
65
330
1F
100
AcDbEntity
  8
_U+30EC_U+30A4_U+30E4_U+30FC 1
 62
     7
420
 16777215
370
     9
100
AcDb2dPolyline
 66
     1
 10
0.0
 20
0.0
 30
0.0
  0
VERTEX
  5
66
330
65
100
AcDbEntity
  8
_U+30EC_U+30A4_U+30E4_U+30FC 1
 62
     7
420
 16777215
370
     9
100
AcDbVertex
100
AcDb2dVertex
 10
85.41201337651356
 20
-108.6519219172815
 30
0.0
  0
VERTEX
  5
67
330
65
100
AcDbEntity
  8
_U+30EC_U+30A4_U+30E4_U+30FC 1
 62
     7
420
 16777215
370
     9
100
AcDbVertex
100
AcDb2dVertex
 10
85.41201337651356
 20
-106.1921435845631
 30
0.0
  0
SEQEND
  5
68
330
65
100
AcDbEntity
  8
_U+30EC_U+30A4_U+30E4_U+30FC 1
 62
     7
420
 16777215
370
     9
  0
POLYLINE
  5
69
330
1F
100
AcDbEntity
  8
_U+30EC_U+30A4_U+30E4_U+30FC 1
 62
     7
420
 16777215
370
     9
100
AcDb2dPolyline
 66
     1
 10
0.0
 20
0.0
 30
0.0
  0
VERTEX
  5
6A
330
69
100
AcDbEntity
  8
_U+30EC_U+30A4_U+30E4_U+30FC 1
 62
     7
420
 16777215
370
     9
100
AcDbVertex
100
AcDb2dVertex
 10
99.44886440729255
 20
-148.1432421851865
 30
0.0
  0
VERTEX
  5
6B
330
69
100
AcDbEntity
  8
_U+30EC_U+30A4_U+30E4_U+30FC 1
 62
     7
420
 16777215
370
     9
100
AcDbVertex
100
AcDb2dVertex
 10
96.9887333589446
 20
-148.1432421851865
 30
0.0
  0
SEQEND
  5
6C
330
69
100
AcDbEntity
  8
_U+30EC_U+30A4_U+30E4_U+30FC 1
 62
     7
420
 16777215
370
     9
  0
POLYLINE
  5
6D
330
1F
100
AcDbEntity
  8
_U+30EC_U+30A4_U+30E4_U+30FC 1
 62
     7
420
 16777215
370
     9
100
AcDb2dPolyline
 66
     1
 10
0.0
 20
0.0
 30
0.0
  0
VERTEX
  5
6E
330
6D
100
AcDbEntity
  8
_U+30EC_U+30A4_U+30E4_U+30FC 1
 62
     7
420
 16777215
370
     9
100
AcDbVertex
100
AcDb2dVertex
 10
84.40380979112386
 20
-152.1919316286188
 30
0.0
  0
VERTEX
  5
6F
330
6D
100
AcDbEntity
  8
_U+30EC_U+30A4_U+30E4_U+30FC 1
 62
     7
420
 16777215
370
     9
100
AcDbVertex
100
AcDb2dVertex
 10
93.58876942104699
 20
-152.1919316286188
 30
0.0
  0
SEQEND
  5
70
330
6D
100
AcDbEntity
  8
_U+30EC_U+30A4_U+30E4_U+30FC 1
 62
     7
420
 16777215
370
     9
  0
POLYLINE
  5
71
330
1F
100
AcDbEntity
  8
_U+30EC_U+30A4_U+30E4_U+30FC 1
 62
     7
420
 16777215
370
     9
100
AcDb2dPolyline
 66
     1
 10
0.0
 20
0.0
 30
0.0
  0
VERTEX
  5
72
330
71
100
AcDbEntity
  8
_U+30EC_U+30A4_U+30E4_U+30FC 1
 62
     7
420
 16777215
370
     9
100
AcDbVertex
100
AcDb2dVertex
 10
84.45979562302888
 20
-150.7318902400951
 30
0.0
  0
VERTEX
  5
73
330
71
100
AcDbEntity
  8
_U+30EC_U+30A4_U+30E4_U+30FC 1
 62
     7
420
 16777215
370
     9
100
AcDbVertex
100
AcDb2dVertex
 10
84.45979562302888
 20
-153.1916685728132
 30
0.0
  0
SEQEND
  5
74
330
71
100
AcDbEntity
  8
_U+30EC_U+30A4_U+30E4_U+30FC 1
 62
     7
420
 16777215
370
     9
  0
POLYLINE
  5
75
330
1F
100
AcDbEntity
  8
_U+30EC_U+30A4_U+30E4_U+30FC 1
 62
     7
420
 16777215
370
     9
100
AcDb2dPolyline
 66
     1
 10
0.0
 20
0.0
 30
0.0
  0
VERTEX
  5
76
330
75
100
AcDbEntity
  8
_U+30EC_U+30A4_U+30E4_U+30FC 1
 62
     7
420
 16777215
370
     9
100
AcDbVertex
100
AcDb2dVertex
 10
93.58876942104699
 20
-150.7318902400951
 30
0.0
  0
VERTEX
  5
77
330
75
100
AcDbEntity
  8
_U+30EC_U+30A4_U+30E4_U+30FC 1
 62
     7
420
 16777215
370
     9
100
AcDbVertex
100
AcDb2dVertex
 10
93.58876942104699
 20
-153.1916685728132
 30
0.0
  0
SEQEND
  5
78
330
75
100
AcDbEntity
  8
_U+30EC_U+30A4_U+30E4_U+30FC 1
 62
     7
420
 16777215
370
     9
  0
POLYLINE
  5
79
330
1F
100
AcDbEntity
  8
_U+30EC_U+30A4_U+30E4_U+30FC 1
 62
     7
420
 16777215
370
     9
100
AcDb2dPolyline
 66
     1
 10
0.0
 20
0.0
 30
0.0
  0
VERTEX
  5
7A
330
79
100
AcDbEntity
  8
_U+30EC_U+30A4_U+30E4_U+30FC 1
 62
     7
420
 16777215
370
     9
100
AcDbVertex
100
AcDb2dVertex
 10
93.58876942104699
 20
-107.1912102509801
 30
0.0
  0
VERTEX
  5
7B
330
79
100
AcDbEntity
  8
_U+30EC_U+30A4_U+30E4_U+30FC 1
 62
     7
420
 16777215
370
     9
100
AcDbVertex
100
AcDb2dVertex
 10
85.41303643204301
 20
-107.1912102509801
 30
0.0
  0
SEQEND
  5
7C
330
79
100
AcDbEntity
  8
_U+30EC_U+30A4_U+30E4_U+30FC 1
 62
     7
420
 16777215
370
     9
  0
POLYLINE
  5
7D
330
1F
100
AcDbEntity
  8
_U+30EC_U+30A4_U+30E4_U+30FC 1
 62
     7
420
 16777215
370
     9
100
AcDb2dPolyline
 66
     1
 10
0.0
 20
0.0
 30
0.0
  0
VERTEX
  5
7E
330
7D
100
AcDbEntity
  8
_U+30EC_U+30A4_U+30E4_U+30FC 1
 62
     7
420
 16777215
370
     9
100
AcDbVertex
100
AcDb2dVertex
 10
93.58876942104699
 20
-133.1522680222676
 30
0.0
  0
VERTEX
  5
7F
330
7D
100
AcDbEntity
  8
_U+30EC_U+30A4_U+30E4_U+30FC 1
 62
     7
420
 16777215
370
     9
100
AcDbVertex
100
AcDb2dVertex
 10
93.58876942104699
 20
-106.1911205290076
 30
0.0
  0
SEQEND
  5
80
330
7D
100
AcDbEntity
  8
_U+30EC_U+30A4_U+30E4_U+30FC 1
 62
     7
420
 16777215
370
     9
  0
POLYLINE
  5
81
330
1F
100
AcDbEntity
  8
_U+30EC_U+30A4_U+30E4_U+30FC 1
 62
     7
420
 16777215
370
     9
100
AcDb2dPolyline
 66
     1
 10
0.0
 20
0.0
 30
0.0
  0
VERTEX
  5
82
330
81
100
AcDbEntity
  8
_U+30EC_U+30A4_U+30E4_U+30FC 1
 62
     7
420
 16777215
370
     9
100
AcDbVertex
100
AcDb2dVertex
 10
97.98885833342929
 20
-136.992148299085
 30
0.0
  0
VERTEX
  5
83
330
81
100
AcDbEntity
  8
_U+30EC_U+30A4_U+30E4_U+30FC 1
 62
     7
420
 16777215
370
     9
100
AcDbVertex
100
AcDb2dVertex
 10
97.98885833342929
 20
-148.1432421851865
 30
0.0
  0
SEQEND
  5
84
330
81
100
AcDbEntity
  8
_U+30EC_U+30A4_U+30E4_U+30FC 1
 62
     7
420
 16777215
370
     9
  0
POLYLINE
  5
85
330
1F
100
AcDbEntity
  8
_U+30EC_U+30A4_U+30E4_U+30FC 1
 62
     7
420
 16777215
370
     9
100
AcDb2dPolyline
 66
     1
 10
0.0
 20
0.0
 30
0.0
  0
VERTEX
  5
86
330
85
100
AcDbEntity
  8
_U+30EC_U+30A4_U+30E4_U+30FC 1
 62
     7
420
 16777215
370
     9
100
AcDbVertex
100
AcDb2dVertex
 10
99.24873608629862
 20
-136.1680946881805
 30
0.0
  0
VERTEX
  5
87
330
85
100
AcDbEntity
  8
_U+30EC_U+30A4_U+30E4_U+30FC 1
 62
     7
420
 16777215
370
     9
100
AcDbVertex
100
AcDb2dVertex
 10
96.9887333589446
 20
-136.1680946881805
 30
0.0
  0
SEQEND
  5
88
330
85
100
AcDbEntity
  8
_U+30EC_U+30A4_U+30E4_U+30FC 1
 62
     7
420
 16777215
370
     9
  0
POLYLINE
  5
89
330
1F
100
AcDbEntity
  8
_U+30EC_U+30A4_U+30E4_U+30FC 1
 62
     7
420
 16777215
370
     9
100
AcDb2dPolyline
 66
     1
 10
0.0
 20
0.0
 30
0.0
  0
VERTEX
  5
8A
330
89
100
AcDbEntity
  8
_U+30EC_U+30A4_U+30E4_U+30FC 1
 62
     7
420
 16777215
370
     9
100
AcDbVertex
100
AcDb2dVertex
 10
97.98885833342929
 20
-136.992148299085
 30
0.0
  0
VERTEX
  5
8B
330
89
100
AcDbEntity
  8
_U+30EC_U+30A4_U+30E4_U+30FC 1
 62
     7
420
 16777215
370
     9
100
AcDbVertex
100
AcDb2dVertex
 10
97.98885833342929
 20
-111.1923452499796
 30
0.0
  0
SEQEND
  5
8C
330
89
100
AcDbEntity
  8
_U+30EC_U+30A4_U+30E4_U+30FC 1
 62
     7
420
 16777215
370
     9
  0
POLYLINE
  5
8D
330
1F
100
AcDbEntity
  8
_U+30EC_U+30A4_U+30E4_U+30FC 1
 62
     7
420
 16777215
370
     9
100
AcDb2dPolyline
 66
     1
 10
0.0
 20
0.0
 30
0.0
  0
VERTEX
  5
8E
330
8D
100
AcDbEntity
  8
_U+30EC_U+30A4_U+30E4_U+30FC 1
 62
     7
420
 16777215
370
     9
100
AcDbVertex
100
AcDb2dVertex
 10
99.24873608629862
 20
-111.1923452499796
 30
0.0
  0
VERTEX
  5
8F
330
8D
100
AcDbEntity
  8
_U+30EC_U+30A4_U+30E4_U+30FC 1
 62
     7
420
 16777215
370
     9
100
AcDbVertex
100
AcDb2dVertex
 10
86.96765750349243
 20
-111.1923452499796
 30
0.0
  0
SEQEND
  5
90
330
8D
100
AcDbEntity
  8
_U+30EC_U+30A4_U+30E4_U+30FC 1
 62
     7
420
 16777215
370
     9
  0
INSERT
  5
92
330
1F
100
AcDbEntity
  8
_U+30EC_U+30A4_U+30E4_U+30FC 1
100
AcDbBlockReference
  2
block 2
 10
0.0
 20
0.0
 30
0.0
  0
INSERT
  5
98
330
1F
100
AcDbEntity
  8
_U+30EC_U+30A4_U+30E4_U+30FC 1
100
AcDbBlockReference
  2
block 3
 10
0.0
 20
0.0
 30
0.0
  0
INSERT
  5
9F
330
1F
100
AcDbEntity
  8
_U+30EC_U+30A4_U+30E4_U+30FC 1
100
AcDbBlockReference
  2
block 4
 10
0.0
 20
0.0
 30
0.0
  0
INSERT
  5
A7
330
1F
100
AcDbEntity
  8
_U+30EC_U+30A4_U+30E4_U+30FC 1
100
AcDbBlockReference
  2
block 5
 10
0.0
 20
0.0
 30
0.0
  0
INSERT
  5
AF
330
1F
100
AcDbEntity
  8
_U+30EC_U+30A4_U+30E4_U+30FC 1
100
AcDbBlockReference
  2
block 6
 10
0.0
 20
0.0
 30
0.0
  0
POLYLINE
  5
B6
330
1F
100
AcDbEntity
  8
_U+30EC_U+30A4_U+30E4_U+30FC 1
 62
     7
420
 16777215
370
    25
100
AcDb2dPolyline
 66
     1
 10
0.0
 20
0.0
 30
0.0
  0
VERTEX
  5
B7
330
B6
100
AcDbEntity
  8
_U+30EC_U+30A4_U+30E4_U+30FC 1
 62
     7
420
 16777215
370
    25
100
AcDbVertex
100
AcDb2dVertex
 10
84.36175868108556
 20
-137.1389038546042
 30
0.0
  0
VERTEX
  5
B8
330
B6
100
AcDbEntity
  8
_U+30EC_U+30A4_U+30E4_U+30FC 1
 62
     7
420
 16777215
370
    25
100
AcDbVertex
100
AcDb2dVertex
 10
84.36175868108556
 20
-111.1923452499796
 30
0.0
  0
VERTEX
  5
B9
330
B6
100
AcDbEntity
  8
_U+30EC_U+30A4_U+30E4_U+30FC 1
 62
     7
420
 16777215
370
    25
100
AcDbVertex
100
AcDb2dVertex
 10
85.41166059874477
 20
-111.1923452499796
 30
0.0
  0
VERTEX
  5
BA
330
B6
100
AcDbEntity
  8
_U+30EC_U+30A4_U+30E4_U+30FC 1
 62
     7
420
 16777215
370
    25
100
AcDbVertex
100
AcDb2dVertex
 10
85.40823865438763
 20
-136.1921894103964
 30
0.0
  0
VERTEX
  5
BB
330
B6
100
AcDbEntity
  8
_U+30EC_U+30A4_U+30E4_U+30FC 1
 62
     7
420
 16777215
370
    25
100
AcDbVertex
100
AcDb2dVertex
 10
93.58534511243893
 20
-136.1921894103964
 30
0.0
  0
VERTEX
  5
BC
330
B6
100
AcDbEntity
  8
_U+30EC_U+30A4_U+30E4_U+30FC 1
 62
     7
420
 16777215
370
    25
100
AcDbVertex
100
AcDb2dVertex
 10
93.58876942104699
 20
-148.1577060740715
 30
0.0
  0
VERTEX
  5
BD
330
B6
100
AcDbEntity
  8
_U+30EC_U+30A4_U+30E4_U+30FC 1
 62
     7
420
 16777215
370
    25
100
AcDbVertex
100
AcDb2dVertex
 10
84.45824340084626
 20
-148.1577060740715
 30
0.0
  0
VERTEX
  5
BE
330
B6
100
AcDbEntity
  8
_U+30EC_U+30A4_U+30E4_U+30FC 1
 62
     7
420
 16777215
370
    25
100
AcDbVertex
100
AcDb2dVertex
 10
84.45806701196187
 20
-148.1577060740715
 30
0.0
  0
VERTEX
  5
BF
330
B6
100
AcDbEntity
  8
_U+30EC_U+30A4_U+30E4_U+30FC 1
 62
     7
420
 16777215
370
    25
100
AcDbVertex
100
AcDb2dVertex
 10
84.45806701196187
 20
-147.1627669076538
 30
0.0
  0
VERTEX
  5
C0
330
B6
100
AcDbEntity
  8
_U+30EC_U+30A4_U+30E4_U+30FC 1
 62
     7
420
 16777215
370
    25
100
AcDbVertex
100
AcDb2dVertex
 10
92.57177930496383
 20
-147.1627669076538
 30
0.0
  0
VERTEX
  5
C1
330
B6
100
AcDbEntity
  8
_U+30EC_U+30A4_U+30E4_U+30FC 1
 62
     7
420
 16777215
370
    25
100
AcDbVertex
100
AcDb2dVertex
 10
92.56765180506912
 20
-137.1423610768255
 30
0.0
  0
VERTEX
  5
C2
330
B6
100
AcDbEntity
  8
_U+30EC_U+30A4_U+30E4_U+30FC 1
 62
     7
420
 16777215
370
    25
100
AcDbVertex
100
AcDb2dVertex
 10
84.36175868108556
 20
-137.1389038546042
 30
0.0
  0
SEQEND
  5
C3
330
B6
100
AcDbEntity
  8
_U+30EC_U+30A4_U+30E4_U+30FC 1
 62
     7
420
 16777215
370
    25
  0
ENDSEC
  0
SECTION
  2
OBJECTS
  0
DICTIONARY
  5
C
330
0
100
AcDbDictionary
281
     1
  3
ACAD_GROUP
350
D
  3
ACAD_LAYOUT
350
1A
  3
ACAD_MATERIAL
350
3B
  3
ACAD_MLEADERSTYLE
350
C5
  3
ACAD_MLINESTYLE
350
17
  3
ACAD_PLOTSETTINGS
350
19
  3
ACAD_PLOTSTYLENAME
350
E
  3
ACAD_TABLESTYLE
350
C4
  3
ACAD_VISUALSTYLE
350
2A
  0
SUN
  5
3F
330
29
100
AcDbSun
 90
        1
290
     0
 63
     7
421
 16777215
 40
1.0
291
     1
 91
  2455826
 92
 54000000
292
     0
 70
     2
 71
   256
280
     1
  0
DICTIONARY
  5
D
102
{ACAD_REACTORS
330
C
102
}
330
C
100
AcDbDictionary
281
     1
  0
DICTIONARY
  5
1A
102
{ACAD_REACTORS
330
C
102
}
330
C
100
AcDbDictionary
281
     1
  3
Layout1
350
1E
  3
Layout2
350
26
  3
Model
350
22
  0
DICTIONARY
  5
3B
102
{ACAD_REACTORS
330
C
102
}
330
C
100
AcDbDictionary
281
     1
  3
ByBlock
350
3D
  3
ByLayer
350
3C
  3
Global
350
3E
  0
DICTIONARY
  5
C5
102
{ACAD_REACTORS
330
C
102
}
330
C
100
AcDbDictionary
281
     1
  0
DICTIONARY
  5
17
102
{ACAD_REACTORS
330
C
102
}
330
C
100
AcDbDictionary
281
     1
  3
Standard
350
18
  0
DICTIONARY
  5
19
102
{ACAD_REACTORS
330
C
102
}
330
C
100
AcDbDictionary
281
     1
  0
ACDBDICTIONARYWDFLT
  5
E
102
{ACAD_REACTORS
330
C
102
}
330
C
100
AcDbDictionary
281
     1
  3
Normal
350
F
100
AcDbDictionaryWithDefault
340
F
  0
DICTIONARY
  5
C4
102
{ACAD_REACTORS
330
C
102
}
330
C
100
AcDbDictionary
281
     1
  0
DICTIONARY
  5
2A
102
{ACAD_REACTORS
330
C
102
}
330
C
100
AcDbDictionary
281
     1
  3
2dWireframe
350
2F
  3
3D Hidden
350
31
  3
3dWireframe
350
30
  3
Basic
350
32
  3
Brighten
350
36
  3
ColorChange
350
3A
  3
Conceptual
350
34
  3
Dim
350
35
  3
Facepattern
350
39
  3
Flat
350
2B
  3
FlatWithEdges
350
2C
  3
Gouraud
350
2D
  3
GouraudWithEdges
350
2E
  3
Linepattern
350
38
  3
Realistic
350
33
  3
Thicken
350
37
  0
LAYOUT
  5
1E
102
{ACAD_REACTORS
330
1A
102
}
330
1A
100
AcDbPlotSettings
  1

  2
none_device
  4

  6

 40
0.0
 41
0.0
 42
0.0
 43
0.0
 44
0.0
 45
0.0
 46
0.0
 47
0.0
 48
0.0
 49
0.0
140
0.0
141
0.0
142
1.0
143
1.0
 70
   688
 72
     0
 73
     0
 74
     5
  7

 75
    16
 76
     0
 77
     2
 78
   300
147
1.0
148
0.0
149
0.0
100
AcDbLayout
  1
Layout1
 70
     1
 71
     1
 10
0.0
 20
0.0
 11
12.0
 21
9.0
 12
0.0
 22
0.0
 32
0.0
 14
1.000000000000000E+20
 24
1.000000000000000E+20
 34
1.000000000000000E+20
 15
-1.000000000000000E+20
 25
-1.000000000000000E+20
 35
-1.000000000000000E+20
146
0.0
 13
0.0
 23
0.0
 33
0.0
 16
1.0
 26
0.0
 36
0.0
 17
0.0
 27
1.0
 37
0.0
 76
     0
330
1B
  0
LAYOUT
  5
26
102
{ACAD_REACTORS
330
1A
102
}
330
1A
100
AcDbPlotSettings
  1

  2
none_device
  4

  6

 40
0.0
 41
0.0
 42
0.0
 43
0.0
 44
0.0
 45
0.0
 46
0.0
 47
0.0
 48
0.0
 49
0.0
140
0.0
141
0.0
142
1.0
143
1.0
 70
   688
 72
     0
 73
     0
 74
     5
  7

 75
    16
 76
     0
 77
     2
 78
   300
147
1.0
148
0.0
149
0.0
100
AcDbLayout
  1
Layout2
 70
     1
 71
     2
 10
0.0
 20
0.0
 11
0.0
 21
0.0
 12
0.0
 22
0.0
 32
0.0
 14
0.0
 24
0.0
 34
0.0
 15
0.0
 25
0.0
 35
0.0
146
0.0
 13
0.0
 23
0.0
 33
0.0
 16
1.0
 26
0.0
 36
0.0
 17
0.0
 27
1.0
 37
0.0
 76
     0
330
23
  0
LAYOUT
  5
22
102
{ACAD_REACTORS
330
1A
102
}
330
1A
100
AcDbPlotSettings
  1

  2
none_device
  4

  6

 40
0.0
 41
0.0
 42
0.0
 43
0.0
 44
0.0
 45
0.0
 46
0.0
 47
0.0
 48
0.0
 49
0.0
140
0.0
141
0.0
142
1.0
143
1.0
 70
  1712
 72
     0
 73
     0
 74
     0
  7

 75
     0
 76
     0
 77
     2
 78
   300
147
1.0
148
0.0
149
0.0
100
AcDbLayout
  1
Model
 70
     1
 71
     0
 10
0.0
 20
0.0
 11
12.0
 21
9.0
 12
0.0
 22
0.0
 32
0.0
 14
1.000000000000000E+20
 24
1.000000000000000E+20
 34
1.000000000000000E+20
 15
-1.000000000000000E+20
 25
-1.000000000000000E+20
 35
-1.000000000000000E+20
146
0.0
 13
0.0
 23
0.0
 33
0.0
 16
1.0
 26
0.0
 36
0.0
 17
0.0
 27
1.0
 37
0.0
 76
     0
330
1F
331
29
  0
MATERIAL
  5
3D
102
{ACAD_REACTORS
330
3B
102
}
330
3B
100
AcDbMaterial
  1
ByBlock
 72
     1
 94
      127
  0
MATERIAL
  5
3C
102
{ACAD_REACTORS
330
3B
102
}
330
3B
100
AcDbMaterial
  1
ByLayer
 72
     1
 94
      127
  0
MATERIAL
  5
3E
102
{ACAD_REACTORS
330
3B
102
}
330
3B
100
AcDbMaterial
  1
Global
 72
     1
 94
      127
  0
MLINESTYLE
  5
18
102
{ACAD_REACTORS
330
17
102
}
330
17
100
AcDbMlineStyle
  2
Standard
 70
     0
  3

 62
   256
 51
90.0
 52
90.0
 71
     2
 49
0.5
 62
   256
  6
BYLAYER
 49
-0.5
 62
   256
  6
BYLAYER
  0
ACDBPLACEHOLDER
  5
F
102
{ACAD_REACTORS
330
E
102
}
330
E
  0
VISUALSTYLE
  5
2F
102
{ACAD_REACTORS
330
2A
102
}
330
2A
100
AcDbVisualStyle
  2
2dWireframe
 70
     4
177
     2
291
     0
 71
     0
176
     1
 72
     2
176
     1
 73
     0
176
     1
 90
        0
176
     1
 40
-0.6
176
     1
 41
-30.0
176
     1
 62
     5
 63
     7
421
 16777215
176
     1
 74
     1
176
     1
 91
        4
176
     1
 64
     7
176
     1
 65
   257
176
     1
 75
     1
176
     1
175
     1
176
     1
 42
1.0
176
     1
 92
        0
176
     1
 66
   257
176
     1
 43
1.0
176
     1
 76
     1
176
     1
 77
     6
176
     1
 78
     2
176
     1
 67
     7
176
     1
 79
     5
176
     1
170
     0
176
     1
171
     0
176
     1
290
     0
176
     1
 93
        1
176
     1
 44
0.0
176
     1
173
     0
176
     1
  0
VISUALSTYLE
  5
31
102
{ACAD_REACTORS
330
2A
102
}
330
2A
100
AcDbVisualStyle
  2
3D Hidden
 70
     6
177
     2
291
     0
 71
     1
176
     1
 72
     2
176
     1
 73
     2
176
     1
 90
        0
176
     1
 40
-0.6
176
     1
 41
-30.0
176
     1
 62
     5
 63
     7
421
 16777215
176
     1
 74
     2
176
     1
 91
        2
176
     1
 64
     7
176
     1
 65
   257
176
     1
 75
     2
176
     1
175
     1
176
     1
 42
40.0
176
     1
 92
        0
176
     1
 66
   257
176
     1
 43
1.0
176
     1
 76
     1
176
     1
 77
     6
176
     1
 78
     2
176
     1
 67
     7
176
     1
 79
     3
176
     1
170
     0
176
     1
171
     0
176
     1
290
     0
176
     1
 93
        1
176
     1
 44
0.0
176
     1
173
     0
176
     1
  0
VISUALSTYLE
  5
30
102
{ACAD_REACTORS
330
2A
102
}
330
2A
100
AcDbVisualStyle
  2
3dWireframe
 70
     5
177
     2
291
     0
 71
     0
176
     1
 72
     2
176
     1
 73
     0
176
     1
 90
        0
176
     1
 40
-0.6
176
     1
 41
-30.0
176
     1
 62
     5
 63
     7
421
 16777215
176
     1
 74
     1
176
     1
 91
        4
176
     1
 64
     7
176
     1
 65
   257
176
     1
 75
     1
176
     1
175
     1
176
     1
 42
1.0
176
     1
 92
        0
176
     1
 66
   257
176
     1
 43
1.0
176
     1
 76
     1
176
     1
 77
     6
176
     1
 78
     2
176
     1
 67
     7
176
     1
 79
     5
176
     1
170
     0
176
     1
171
     0
176
     1
290
     0
176
     1
 93
        1
176
     1
 44
0.0
176
     1
173
     0
176
     1
  0
VISUALSTYLE
  5
32
102
{ACAD_REACTORS
330
2A
102
}
330
2A
100
AcDbVisualStyle
  2
Basic
 70
     7
177
     2
291
     1
 71
     1
176
     1
 72
     0
176
     1
 73
     1
176
     1
 90
        0
176
     1
 40
-0.6
176
     1
 41
-30.0
176
     1
 62
     5
 63
     7
421
 16777215
176
     1
 74
     0
176
     1
 91
        4
176
     1
 64
     7
176
     1
 65
   257
176
     1
 75
     1
176
     1
175
     1
176
     1
 42
1.0
176
     1
 92
        8
176
     1
 66
     7
176
     1
 43
1.0
176
     1
 76
     1
176
     1
 77
     6
176
     1
 78
     2
176
     1
 67
     7
176
     1
 79
     5
176
     1
170
     0
176
     1
171
     0
176
     1
290
     0
176
     1
 93
        1
176
     1
 44
0.0
176
     1
173
     0
176
     1
  0
VISUALSTYLE
  5
36
102
{ACAD_REACTORS
330
2A
102
}
330
2A
100
AcDbVisualStyle
  2
Brighten
 70
    12
177
     2
291
     1
 71
     2
176
     1
 72
     2
176
     1
 73
     0
176
     1
 90
        0
176
     1
 40
-0.6
176
     1
 41
-30.0
176
     1
 62
     5
 63
     7
421
 16777215
176
     1
 74
     1
176
     1
 91
        4
176
     1
 64
     7
176
     1
 65
   257
176
     1
 75
     1
176
     1
175
     1
176
     1
 42
1.0
176
     1
 92
        8
176
     1
 66
     7
176
     1
 43
1.0
176
     1
 76
     1
176
     1
 77
     6
176
     1
 78
     2
176
     1
 67
     7
176
     1
 79
     5
176
     1
170
     0
176
     1
171
     0
176
     1
290
     0
176
     1
 93
        1
176
     1
 44
50.0
176
     1
173
     0
176
     1
  0
VISUALSTYLE
  5
3A
102
{ACAD_REACTORS
330
2A
102
}
330
2A
100
AcDbVisualStyle
  2
ColorChange
 70
    16
177
     2
291
     1
 71
     2
176
     1
 72
     2
176
     1
 73
     3
176
     1
 90
        0
176
     1
 40
-0.6
176
     1
 41
-30.0
176
     1
 62
     5
 63
     8
421
  8421504
176
     1
 74
     1
176
     1
 91
        4
176
     1
 64
     7
176
     1
 65
   257
176
     1
 75
     1
176
     1
175
     1
176
     1
 42
1.0
176
     1
 92
        8
176
     1
 66
     8
424
  8421504
176
     1
 43
1.0
176
     1
 76
     1
176
     1
 77
     6
176
     1
 78
     2
176
     1
 67
     7
176
     1
 79
     5
176
     1
170
     0
176
     1
171
     0
176
     1
290
     0
176
     1
 93
        1
176
     1
 44
0.0
176
     1
173
     0
176
     1
  0
VISUALSTYLE
  5
34
102
{ACAD_REACTORS
330
2A
102
}
330
2A
100
AcDbVisualStyle
  2
Conceptual
 70
     9
177
     2
291
     0
 71
     3
176
     1
 72
     2
176
     1
 73
     0
176
     1
 90
        0
176
     1
 40
-0.6
176
     1
 41
-30.0
176
     1
 62
     5
 63
     7
421
 16777215
176
     1
 74
     2
176
     1
 91
        2
176
     1
 64
     7
176
     1
 65
   257
176
     1
 75
     1
176
     1
175
     1
176
     1
 42
40.0
176
     1
 92
        8
176
     1
 66
     7
176
     1
 43
1.0
176
     1
 76
     1
176
     1
 77
     6
176
     1
 78
     2
176
     1
 67
     7
176
     1
 79
     3
176
     1
170
     0
176
     1
171
     0
176
     1
290
     0
176
     1
 93
        1
176
     1
 44
0.0
176
     1
173
     0
176
     1
  0
VISUALSTYLE
  5
35
102
{ACAD_REACTORS
330
2A
102
}
330
2A
100
AcDbVisualStyle
  2
Dim
 70
    11
177
     2
291
     1
 71
     2
176
     1
 72
     2
176
     1
 73
     0
176
     1
 90
        0
176
     1
 40
-0.6
176
     1
 41
-30.0
176
     1
 62
     5
 63
     7
421
 16777215
176
     1
 74
     1
176
     1
 91
        4
176
     1
 64
     7
176
     1
 65
   257
176
     1
 75
     1
176
     1
175
     1
176
     1
 42
1.0
176
     1
 92
        8
176
     1
 66
     7
176
     1
 43
1.0
176
     1
 76
     1
176
     1
 77
     6
176
     1
 78
     2
176
     1
 67
     7
176
     1
 79
     5
176
     1
170
     0
176
     1
171
     0
176
     1
290
     0
176
     1
 93
        1
176
     1
 44
-50.0
176
     1
173
     0
176
     1
  0
VISUALSTYLE
  5
39
102
{ACAD_REACTORS
330
2A
102
}
330
2A
100
AcDbVisualStyle
  2
Facepattern
 70
    15
177
     2
291
     1
 71
     2
176
     1
 72
     2
176
     1
 73
     0
176
     1
 90
        0
176
     1
 40
-0.6
176
     1
 41
-30.0
176
     1
 62
     5
 63
     7
421
 16777215
176
     1
 74
     1
176
     1
 91
        4
176
     1
 64
     7
176
     1
 65
   257
176
     1
 75
     1
176
     1
175
     1
176
     1
 42
1.0
176
     1
 92
        8
176
     1
 66
     7
176
     1
 43
1.0
176
     1
 76
     1
176
     1
 77
     6
176
     1
 78
     2
176
     1
 67
     7
176
     1
 79
     5
176
     1
170
     0
176
     1
171
     0
176
     1
290
     0
176
     1
 93
        1
176
     1
 44
0.0
176
     1
173
     0
176
     1
  0
VISUALSTYLE
  5
2B
102
{ACAD_REACTORS
330
2A
102
}
330
2A
100
AcDbVisualStyle
  2
Flat
 70
     0
177
     2
291
     1
 71
     2
176
     1
 72
     1
176
     1
 73
     1
176
     1
 90
        2
176
     1
 40
-0.6
176
     1
 41
30.0
176
     1
 62
     5
 63
     7
421
 16777215
176
     1
 74
     0
176
     1
 91
        4
176
     1
 64
     7
176
     1
 65
   257
176
     1
 75
     1
176
     1
175
     1
176
     1
 42
1.0
176
     1
 92
        8
176
     1
 66
     7
176
     1
 43
1.0
176
     1
 76
     1
176
     1
 77
     6
176
     1
 78
     2
176
     1
 67
     7
176
     1
 79
     5
176
     1
170
     0
176
     1
171
     0
176
     1
290
     0
176
     1
 93
       13
176
     1
 44
0.0
176
     1
173
     0
176
     1
  0
VISUALSTYLE
  5
2C
102
{ACAD_REACTORS
330
2A
102
}
330
2A
100
AcDbVisualStyle
  2
FlatWithEdges
 70
     1
177
     2
291
     1
 71
     2
176
     1
 72
     1
176
     1
 73
     1
176
     1
 90
        2
176
     1
 40
-0.6
176
     1
 41
30.0
176
     1
 62
     5
 63
     7
421
 16777215
176
     1
 74
     1
176
     1
 91
        4
176
     1
 64
     7
176
     1
 65
   257
176
     1
 75
     1
176
     1
175
     1
176
     1
 42
1.0
176
     1
 92
        0
176
     1
 66
   257
176
     1
 43
1.0
176
     1
 76
     1
176
     1
 77
     6
176
     1
 78
     2
176
     1
 67
     7
176
     1
 79
     5
176
     1
170
     0
176
     1
171
     0
176
     1
290
     0
176
     1
 93
       13
176
     1
 44
0.0
176
     1
173
     0
176
     1
  0
VISUALSTYLE
  5
2D
102
{ACAD_REACTORS
330
2A
102
}
330
2A
100
AcDbVisualStyle
  2
Gouraud
 70
     2
177
     2
291
     1
 71
     2
176
     1
 72
     2
176
     1
 73
     1
176
     1
 90
        2
176
     1
 40
-0.6
176
     1
 41
30.0
176
     1
 62
     5
 63
     7
421
 16777215
176
     1
 74
     0
176
     1
 91
        4
176
     1
 64
     7
176
     1
 65
   257
176
     1
 75
     1
176
     1
175
     1
176
     1
 42
1.0
176
     1
 92
        0
176
     1
 66
     7
176
     1
 43
1.0
176
     1
 76
     1
176
     1
 77
     6
176
     1
 78
     2
176
     1
 67
     7
176
     1
 79
     5
176
     1
170
     0
176
     1
171
     0
176
     1
290
     0
176
     1
 93
       13
176
     1
 44
0.0
176
     1
173
     0
176
     1
  0
VISUALSTYLE
  5
2E
102
{ACAD_REACTORS
330
2A
102
}
330
2A
100
AcDbVisualStyle
  2
GouraudWithEdges
 70
     3
177
     2
291
     1
 71
     2
176
     1
 72
     2
176
     1
 73
     1
176
     1
 90
        2
176
     1
 40
-0.6
176
     1
 41
30.0
176
     1
 62
     5
 63
     7
421
 16777215
176
     1
 74
     1
176
     1
 91
        4
176
     1
 64
     7
176
     1
 65
   257
176
     1
 75
     1
176
     1
175
     1
176
     1
 42
1.0
176
     1
 92
        0
176
     1
 66
   257
176
     1
 43
1.0
176
     1
 76
     1
176
     1
 77
     6
176
     1
 78
     2
176
     1
 67
     7
176
     1
 79
     5
176
     1
170
     0
176
     1
171
     0
176
     1
290
     0
176
     1
 93
       13
176
     1
 44
0.0
176
     1
173
     0
176
     1
  0
VISUALSTYLE
  5
38
102
{ACAD_REACTORS
330
2A
102
}
330
2A
100
AcDbVisualStyle
  2
Linepattern
 70
    14
177
     2
291
     1
 71
     2
176
     1
 72
     2
176
     1
 73
     0
176
     1
 90
        0
176
     1
 40
-0.6
176
     1
 41
-30.0
176
     1
 62
     5
 63
     7
421
 16777215
176
     1
 74
     1
176
     1
 91
        4
176
     1
 64
     7
176
     1
 65
   257
176
     1
 75
     7
176
     1
175
     7
176
     1
 42
1.0
176
     1
 92
        8
176
     1
 66
     7
176
     1
 43
1.0
176
     1
 76
     1
176
     1
 77
     6
176
     1
 78
     2
176
     1
 67
     7
176
     1
 79
     5
176
     1
170
     0
176
     1
171
     0
176
     1
290
     0
176
     1
 93
        1
176
     1
 44
0.0
176
     1
173
     0
176
     1
  0
VISUALSTYLE
  5
33
102
{ACAD_REACTORS
330
2A
102
}
330
2A
100
AcDbVisualStyle
  2
Realistic
 70
     8
177
     2
291
     0
 71
     2
176
     1
 72
     2
176
     1
 73
     0
176
     1
 90
        0
176
     1
 40
-0.6
176
     1
 41
-30.0
176
     1
 62
     5
 63
     7
421
 16777215
176
     1
 74
     1
176
     1
 91
        0
176
     1
 64
     7
176
     1
 65
   257
176
     1
 75
     1
176
     1
175
     1
176
     1
 42
1.0
176
     1
 92
        8
176
     1
 66
     8
424
  7895160
176
     1
 43
1.0
176
     1
 76
     1
176
     1
 77
     6
176
     1
 78
     2
176
     1
 67
     7
176
     1
 79
     5
176
     1
170
     0
176
     1
171
     0
176
     1
290
     0
176
     1
 93
       13
176
     1
 44
0.0
176
     1
173
     0
176
     1
  0
VISUALSTYLE
  5
37
102
{ACAD_REACTORS
330
2A
102
}
330
2A
100
AcDbVisualStyle
  2
Thicken
 70
    13
177
     2
291
     1
 71
     2
176
     1
 72
     2
176
     1
 73
     0
176
     1
 90
        0
176
     1
 40
-0.6
176
     1
 41
-30.0
176
     1
 62
     5
 63
     7
421
 16777215
176
     1
 74
     1
176
     1
 91
        4
176
     1
 64
     7
176
     1
 65
   257
176
     1
 75
     1
176
     1
175
     1
176
     1
 42
1.0
176
     1
 92
       12
176
     1
 66
     7
176
     1
 43
1.0
176
     1
 76
     1
176
     1
 77
     6
176
     1
 78
     2
176
     1
 67
     7
176
     1
 79
     5
176
     1
170
     0
176
     1
171
     0
176
     1
290
     0
176
     1
 93
        1
176
     1
 44
0.0
176
     1
173
     0
176
     1
  0
ENDSEC
  0
EOF
