  0
SECTION
  2
HEADER
  9
$ACADVER
  1
AC1024
  9
$ACADMAINTVER
 70
     6
  9
$DWGCODEPAGE
  3
UNDEFINED
  9
$INSBASE
 10
0.0
 20
0.0
 30
0.0
  9
$EXTMIN
 10
1.000000000000000E+20
 20
1.000000000000000E+20
 30
1.000000000000000E+20
  9
$EXTMAX
 10
-1.000000000000000E+20
 20
-1.000000000000000E+20
 30
-1.000000000000000E+20
  9
$LIMMIN
 10
0.0
 20
0.0
  9
$LIMMAX
 10
12.0
 20
9.0
  9
$ORTHOMODE
 70
     0
  9
$REGENMODE
 70
     1
  9
$FILLMODE
 70
     1
  9
$QTEXTMODE
 70
     0
  9
$MIRRTEXT
 70
     1
  9
$LTSCALE
 40
1.0
  9
$ATTMODE
 70
     1
  9
$TEXTSIZE
 40
0.2
  9
$TRACEWID
 40
0.05
  9
$TEXTSTYLE
  7
Standard
  9
$CLAYER
  8
0
  9
$CELTYPE
  6
ByLayer
  9
$CECOLOR
 62
   256
  9
$CELTSCALE
 40
1.0
  9
$DISPSILH
 70
     0
  9
$DIMSCALE
 40
1.0
  9
$DIMASZ
 40
0.18
  9
$DIMEXO
 40
0.0625
  9
$DIMDLI
 40
0.38
  9
$DIMRND
 40
0.0
  9
$DIMDLE
 40
0.0
  9
$DIMEXE
 40
0.18
  9
$DIMTP
 40
0.0
  9
$DIMTM
 40
0.0
  9
$DIMTXT
 40
0.18
  9
$DIMCEN
 40
0.09
  9
$DIMTSZ
 40
0.0
  9
$DIMTOL
 70
     0
  9
$DIMLIM
 70
     0
  9
$DIMTIH
 70
     1
  9
$DIMTOH
 70
     1
  9
$DIMSE1
 70
     0
  9
$DIMSE2
 70
     0
  9
$DIMTAD
 70
     0
  9
$DIMZIN
 70
     0
  9
$DIMBLK
  1

  9
$DIMASO
 70
     1
  9
$DIMSHO
 70
     1
  9
$DIMPOST
  1

  9
$DIMAPOST
  1

  9
$DIMALT
 70
     0
  9
$DIMALTD
 70
     2
  9
$DIMALTF
 40
25.4
  9
$DIMLFAC
 40
1.0
  9
$DIMTOFL
 70
     0
  9
$DIMTVP
 40
0.0
  9
$DIMTIX
 70
     0
  9
$DIMSOXD
 70
     0
  9
$DIMSAH
 70
     0
  9
$DIMBLK1
  1

  9
$DIMBLK2
  1

  9
$DIMSTYLE
  2
Standard
  9
$DIMCLRD
 70
     0
  9
$DIMCLRE
 70
     0
  9
$DIMCLRT
 70
     0
  9
$DIMTFAC
 40
1.0
  9
$DIMGAP
 40
0.09
  9
$DIMJUST
 70
     0
  9
$DIMSD1
 70
     0
  9
$DIMSD2
 70
     0
  9
$DIMTOLJ
 70
     1
  9
$DIMTZIN
 70
     0
  9
$DIMALTZ
 70
     0
  9
$DIMALTTZ
 70
     0
  9
$DIMUPT
 70
     0
  9
$DIMDEC
 70
     4
  9
$DIMTDEC
 70
     4
  9
$DIMALTU
 70
     2
  9
$DIMALTTD
 70
     2
  9
$DIMTXSTY
  7
Standard
  9
$DIMAUNIT
 70
     0
  9
$DIMADEC
 70
     0
  9
$DIMALTRND
 40
0.0
  9
$DIMAZIN
 70
     0
  9
$DIMDSEP
 70
    46
  9
$DIMATFIT
 70
     3
  9
$DIMFRAC
 70
     0
  9
$DIMLDRBLK
  1

  9
$DIMLUNIT
 70
     2
  9
$DIMLWD
 70
    -2
  9
$DIMLWE
 70
    -2
  9
$DIMTMOVE
 70
     0
  9
$DIMFXL
 40
1.0
  9
$DIMFXLON
 70
     0
  9
$DIMJOGANG
 40
0.7853981633974483
  9
$DIMTFILL
 70
     0
  9
$DIMTFILLCLR
 70
     0
  9
$DIMARCSYM
 70
     0
  9
$DIMLTYPE
  6

  9
$DIMLTEX1
  6

  9
$DIMLTEX2
  6

  9
$DIMTXTDIRECTION
 70
     0
  9
$LUNITS
 70
     2
  9
$LUPREC
 70
     4
  9
$SKETCHINC
 40
0.1
  9
$FILLETRAD
 40
0.5
  9
$AUNITS
 70
     0
  9
$AUPREC
 70
     0
  9
$MENU
  1
.
  9
$ELEVATION
 40
0.0
  9
$PELEVATION
 40
0.0
  9
$THICKNESS
 40
0.0
  9
$LIMCHECK
 70
     0
  9
$CHAMFERA
 40
0.5
  9
$CHAMFERB
 40
0.5
  9
$CHAMFERC
 40
1.0
  9
$CHAMFERD
 40
0.0
  9
$SKPOLY
 70
     0
  9
$TDCREATE
 40
2457917.631770833
  9
$TDUCREATE
 40
2457917.256770833
  9
$TDUPDATE
 40
2457917.631770833
  9
$TDUUPDATE
 40
2457917.256770833
  9
$TDINDWG
 40
0.0000000116
  9
$TDUSRTIMER
 40
0.0000000116
  9
$USRTIMER
 70
     1
  9
$ANGBASE
 50
0.0
  9
$ANGDIR
 70
     0
  9
$PDMODE
 70
     0
  9
$PDSIZE
 40
0.0
  9
$PLINEWID
 40
0.0
  9
$SPLFRAME
 70
     0
  9
$SPLINETYPE
 70
     6
  9
$SPLINESEGS
 70
     8
  9
$HANDSEED
  5
1A7
  9
$SURFTAB1
 70
     6
  9
$SURFTAB2
 70
     6
  9
$SURFTYPE
 70
     6
  9
$SURFU
 70
     6
  9
$SURFV
 70
     6
  9
$UCSBASE
  2

  9
$UCSNAME
  2

  9
$UCSORG
 10
0.0
 20
0.0
 30
0.0
  9
$UCSXDIR
 10
1.0
 20
0.0
 30
0.0
  9
$UCSYDIR
 10
0.0
 20
1.0
 30
0.0
  9
$UCSORTHOREF
  2

  9
$UCSORTHOVIEW
 70
     0
  9
$UCSORGTOP
 10
0.0
 20
0.0
 30
0.0
  9
$UCSORGBOTTOM
 10
0.0
 20
0.0
 30
0.0
  9
$UCSORGLEFT
 10
0.0
 20
0.0
 30
0.0
  9
$UCSORGRIGHT
 10
0.0
 20
0.0
 30
0.0
  9
$UCSORGFRONT
 10
0.0
 20
0.0
 30
0.0
  9
$UCSORGBACK
 10
0.0
 20
0.0
 30
0.0
  9
$PUCSBASE
  2

  9
$PUCSNAME
  2

  9
$PUCSORG
 10
0.0
 20
0.0
 30
0.0
  9
$PUCSXDIR
 10
1.0
 20
0.0
 30
0.0
  9
$PUCSYDIR
 10
0.0
 20
1.0
 30
0.0
  9
$PUCSORTHOREF
  2

  9
$PUCSORTHOVIEW
 70
     0
  9
$PUCSORGTOP
 10
0.0
 20
0.0
 30
0.0
  9
$PUCSORGBOTTOM
 10
0.0
 20
0.0
 30
0.0
  9
$PUCSORGLEFT
 10
0.0
 20
0.0
 30
0.0
  9
$PUCSORGRIGHT
 10
0.0
 20
0.0
 30
0.0
  9
$PUCSORGFRONT
 10
0.0
 20
0.0
 30
0.0
  9
$PUCSORGBACK
 10
0.0
 20
0.0
 30
0.0
  9
$USERI1
 70
     0
  9
$USERI2
 70
     0
  9
$USERI3
 70
     0
  9
$USERI4
 70
     0
  9
$USERI5
 70
     0
  9
$USERR1
 40
0.0
  9
$USERR2
 40
0.0
  9
$USERR3
 40
0.0
  9
$USERR4
 40
0.0
  9
$USERR5
 40
0.0
  9
$WORLDVIEW
 70
     1
  9
$SHADEDGE
 70
     3
  9
$SHADEDIF
 70
    70
  9
$TILEMODE
 70
     1
  9
$MAXACTVP
 70
    64
  9
$PINSBASE
 10
0.0
 20
0.0
 30
0.0
  9
$PLIMCHECK
 70
     0
  9
$PEXTMIN
 10
1.000000000000000E+20
 20
1.000000000000000E+20
 30
1.000000000000000E+20
  9
$PEXTMAX
 10
-1.000000000000000E+20
 20
-1.000000000000000E+20
 30
-1.000000000000000E+20
  9
$PLIMMIN
 10
0.0
 20
0.0
  9
$PLIMMAX
 10
12.0
 20
9.0
  9
$UNITMODE
 70
     0
  9
$VISRETAIN
 70
     1
  9
$PLINEGEN
 70
     0
  9
$PSLTSCALE
 70
     1
  9
$TREEDEPTH
 70
  3020
  9
$CMLSTYLE
  2
Standard
  9
$CMLJUST
 70
     0
  9
$CMLSCALE
 40
1.0
  9
$PROXYGRAPHICS
 70
     1
  9
$MEASUREMENT
 70
     0
  9
$CELWEIGHT
370
    -1
  9
$ENDCAPS
280
     0
  9
$JOINSTYLE
280
     0
  9
$LWDISPLAY
290
     1
  9
$INSUNITS
 70
     1
  9
$HYPERLINKBASE
  1

  9
$STYLESHEET
  1

  9
$XEDIT
290
     1
  9
$CEPSNTYPE
380
     0
  9
$PSTYLEMODE
290
     1
  9
$FINGERPRINTGUID
  2
{3C9928E6-A400-50B4-6B09-9813A3006C8C}
  9
$VERSIONGUID
  2
{FAEB1C32-E019-11D5-929B-00C0DF256EC4}
  9
$EXTNAMES
290
     1
  9
$PSVPSCALE
 40
0.0
  9
$OLESTARTUP
290
     0
  9
$SORTENTS
280
   127
  9
$INDEXCTL
280
     0
  9
$HIDETEXT
280
     1
  9
$XCLIPFRAME
280
     2
  9
$HALOGAP
280
     0
  9
$OBSCOLOR
 70
   257
  9
$OBSLTYPE
280
     0
  9
$INTERSECTIONDISPLAY
280
     0
  9
$INTERSECTIONCOLOR
 70
   257
  9
$DIMASSOC
280
     2
  9
$PROJECTNAME
  1

  9
$CAMERADISPLAY
290
     0
  9
$LENSLENGTH
 40
50.0
  9
$CAMERAHEIGHT
 40
0.0
  9
$STEPSPERSEC
 40
2.0
  9
$STEPSIZE
 40
6.0
  9
$3DDWFPREC
 40
2.0
  9
$PSOLWIDTH
 40
0.25
  9
$PSOLHEIGHT
 40
4.0
  9
$LOFTANG1
 40
1.570796326794897
  9
$LOFTANG2
 40
1.570796326794897
  9
$LOFTMAG1
 40
0.0
  9
$LOFTMAG2
 40
0.0
  9
$LOFTPARAM
 70
     7
  9
$LOFTNORMALS
280
     1
  9
$LATITUDE
 40
37.795
  9
$LONGITUDE
 40
-122.394
  9
$NORTHDIRECTION
 40
0.0
  9
$TIMEZONE
 70
 -8000
  9
$LIGHTGLYPHDISPLAY
280
     1
  9
$TILEMODELIGHTSYNCH
280
     1
  9
$CMATERIAL
347
3C
  9
$SOLIDHIST
280
     1
  9
$SHOWHIST
280
     1
  9
$DWFFRAME
280
     2
  9
$DGNFRAME
280
     2
  9
$REALWORLDSCALE
290
     1
  9
$INTERFERECOLOR
 62
   256
  9
$CSHADOW
280
     0
  9
$SHADOWPLANELOCATION
 40
0.0
  0
ENDSEC
  0
SECTION
  2
CLASSES
  0
CLASS
  1
ACDBDICTIONARYWDFLT
  2
AcDbDictionaryWithDefault
  3
ObjectDBX Classes
 90
        0
 91
        4
280
     0
281
     0
  0
CLASS
  1
VISUALSTYLE
  2
AcDbVisualStyle
  3
ObjectDBX Classes
 90
     4095
 91
        4
280
     0
281
     0
  0
CLASS
  1
MATERIAL
  2
AcDbMaterial
  3
ObjectDBX Classes
 90
     1153
 91
        4
280
     0
281
     0
  0
CLASS
  1
SUN
  2
AcDbSun
  3
SCENEOE
 90
     1024
 91
        4
280
     0
281
     0
  0
ENDSEC
  0
SECTION
  2
TABLES
  0
TABLE
  2
VPORT
  5
8
330
0
100
AcDbSymbolTable
 70
     1
  0
VPORT
  5
29
330
8
100
AcDbSymbolTableRecord
100
AcDbViewportTableRecord
  2
*Active
 70
     0
 10
0.0
 20
0.0
 11
1.0
 21
1.0
 12
0.0
 22
0.0
 13
0.0
 23
0.0
 14
0.5
 24
0.5
 15
0.5
 25
0.5
 16
0.0
 26
0.0
 36
1.0
 17
91.00082462281999
 27
-128.4993055234307
 37
0.0
 40
256.9986110468615
 41
0.7081814508812795
 42
50.0
 43
0.0
 44
0.0
 50
0.0
 51
0.0
 71
     0
 72
   100
 73
     1
 74
     3
 75
     0
 76
     0
 77
     0
 78
     0
281
     0
 65
     1
110
0.0
120
0.0
130
0.0
111
1.0
121
0.0
131
0.0
112
0.0
122
1.0
132
0.0
 79
     0
146
0.0
 60
     3
 61
     5
292
     1
282
     1
141
0.0
142
0.0
 63
   250
361
3F
  0
ENDTAB
  0
TABLE
  2
LTYPE
  5
5
330
0
100
AcDbSymbolTable
 70
     1
  0
LTYPE
  5
14
330
5
100
AcDbSymbolTableRecord
100
AcDbLinetypeTableRecord
  2
ByBlock
 70
     0
  3

 72
    65
 73
     0
 40
0.0
  0
LTYPE
  5
15
330
5
100
AcDbSymbolTableRecord
100
AcDbLinetypeTableRecord
  2
ByLayer
 70
     0
  3

 72
    65
 73
     0
 40
0.0
  0
LTYPE
  5
16
330
5
100
AcDbSymbolTableRecord
100
AcDbLinetypeTableRecord
  2
Continuous
 70
     0
  3
Solid line
 72
    65
 73
     0
 40
0.0
  0
ENDTAB
  0
TABLE
  2
LAYER
  5
2
330
0
100
AcDbSymbolTable
 70
     2
  0
LAYER
  5
10
330
2
100
AcDbSymbolTableRecord
100
AcDbLayerTableRecord
  2
0
 70
     0
 62
     7
  6
Continuous
370
    -3
390
F
347
3E
  0
LAYER
  5
40
330
2
100
AcDbSymbolTableRecord
100
AcDbLayerTableRecord
  2
_U+30EC_U+30A4_U+30E4_U+30FC 1
 70
     0
 62
     7
  6
Continuous
370
    -3
390
F
347
3E
  0
ENDTAB
  0
TABLE
  2
STYLE
  5
3
330
0
100
AcDbSymbolTable
 70
     1
  0
STYLE
  5
11
330
3
100
AcDbSymbolTableRecord
100
AcDbTextStyleTableRecord
  2
Standard
 70
     0
 40
0.0
 41
1.0
 50
0.0
 71
     0
 42
0.2
  3
txt
  4

  0
ENDTAB
  0
TABLE
  2
VIEW
  5
6
330
0
100
AcDbSymbolTable
 70
     0
  0
ENDTAB
  0
TABLE
  2
UCS
  5
7
330
0
100
AcDbSymbolTable
 70
     0
  0
ENDTAB
  0
TABLE
  2
APPID
  5
9
330
0
100
AcDbSymbolTable
 70
     1
  0
APPID
  5
12
330
9
100
AcDbSymbolTableRecord
100
AcDbRegAppTableRecord
  2
ACAD
 70
     0
  0
ENDTAB
  0
TABLE
  2
DIMSTYLE
  5
A
330
0
100
AcDbSymbolTable
 70
     1
100
AcDbDimStyleTable
  0
DIMSTYLE
105
27
330
A
100
AcDbSymbolTableRecord
100
AcDbDimStyleTableRecord
  2
Standard
 70
     0
178
     0
340
11
  0
ENDTAB
  0
TABLE
  2
BLOCK_RECORD
  5
1
330
0
100
AcDbSymbolTable
 70
     7
  0
BLOCK_RECORD
  5
1F
330
1
100
AcDbSymbolTableRecord
100
AcDbBlockTableRecord
  2
*Model_Space
340
22
 70
     0
280
     1
281
     0
  0
BLOCK_RECORD
  5
1B
330
1
100
AcDbSymbolTableRecord
100
AcDbBlockTableRecord
  2
*Paper_Space
340
1E
 70
     0
280
     1
281
     0
  0
BLOCK_RECORD
  5
23
330
1
100
AcDbSymbolTableRecord
100
AcDbBlockTableRecord
  2
*Paper_Space0
340
26
 70
     0
280
     1
281
     0
  0
BLOCK_RECORD
  5
116
330
1
100
AcDbSymbolTableRecord
100
AcDbBlockTableRecord
  2
block 2
340
0
102
{BLKREFS
331
117
102
}
 70
     0
280
     1
281
     0
  0
BLOCK_RECORD
  5
130
330
1
100
AcDbSymbolTableRecord
100
AcDbBlockTableRecord
  2
block 3
340
0
102
{BLKREFS
331
131
102
}
 70
     0
280
     1
281
     0
  0
BLOCK_RECORD
  5
146
330
1
100
AcDbSymbolTableRecord
100
AcDbBlockTableRecord
  2
block 4
340
0
102
{BLKREFS
331
147
102
}
 70
     0
280
     1
281
     0
  0
BLOCK_RECORD
  5
162
330
1
100
AcDbSymbolTableRecord
100
AcDbBlockTableRecord
  2
block 5
340
0
102
{BLKREFS
331
163
102
}
 70
     0
280
     1
281
     0
  0
BLOCK_RECORD
  5
180
330
1
100
AcDbSymbolTableRecord
100
AcDbBlockTableRecord
  2
block 6
340
0
102
{BLKREFS
331
181
102
}
 70
     0
280
     1
281
     0
  0
BLOCK_RECORD
  5
195
330
1
100
AcDbSymbolTableRecord
100
AcDbBlockTableRecord
  2
block 7
340
0
102
{BLKREFS
331
196
102
}
 70
     0
280
     1
281
     0
  0
ENDTAB
  0
ENDSEC
  0
SECTION
  2
BLOCKS
  0
BLOCK
  5
20
330
1F
100
AcDbEntity
  8
0
100
AcDbBlockBegin
  2
*Model_Space
 70
     0
 10
0.0
 20
0.0
 30
0.0
  3
*Model_Space
  1

  0
ENDBLK
  5
21
330
1F
100
AcDbEntity
  8
0
100
AcDbBlockEnd
  0
BLOCK
  5
1C
330
1B
100
AcDbEntity
 67
     1
  8
0
100
AcDbBlockBegin
  2
*Paper_Space
 70
     0
 10
0.0
 20
0.0
 30
0.0
  3
*Paper_Space
  1

  0
ENDBLK
  5
1D
330
1B
100
AcDbEntity
 67
     1
  8
0
100
AcDbBlockEnd
  0
BLOCK
  5
24
330
23
100
AcDbEntity
  8
0
100
AcDbBlockBegin
  2
*Paper_Space0
 70
     0
 10
0.0
 20
0.0
 30
0.0
  3
*Paper_Space0
  1

  0
ENDBLK
  5
25
330
23
100
AcDbEntity
  8
0
100
AcDbBlockEnd
  0
BLOCK
  5
118
330
116
100
AcDbEntity
  8
0
100
AcDbBlockBegin
  2
block 2
 70
     0
 10
0.0
 20
0.0
 30
0.0
  3
block 2
  1

  0
SPLINE
  5
11A
330
116
100
AcDbEntity
  8
_U+30EC_U+30A4_U+30E4_U+30FC 1
370
     0
100
AcDbSpline
210
0.0
220
0.0
230
1.0
 70
    11
 71
     3
 72
    44
 73
    40
 74
     0
 42
0.0000000001
 43
0.0000000001
 12
1.0
 22
0.0
 32
0.0
 13
1.0
 23
0.0
 33
0.0
 40
0.0
 40
0.0
 40
0.0
 40
0.0
 40
1.0
 40
1.0
 40
1.0
 40
2.0
 40
2.0
 40
2.0
 40
3.0
 40
3.0
 40
3.0
 40
4.0
 40
4.0
 40
4.0
 40
5.0
 40
5.0
 40
5.0
 40
6.0
 40
6.0
 40
6.0
 40
7.0
 40
7.0
 40
7.0
 40
8.0
 40
8.0
 40
8.0
 40
9.0
 40
9.0
 40
9.0
 40
10.0
 40
10.0
 40
10.0
 40
11.0
 40
11.0
 40
11.0
 40
12.0
 40
12.0
 40
12.0
 40
13.0
 40
13.0
 40
13.0
 40
13.0
 10
94.46314016735644
 20
-137.561973706929
 30
0.0
 10
94.24541013268865
 20
-137.720792608799
 30
0.0
 10
94.15239255458691
 20
-137.7948621617319
 30
0.0
 10
94.10347219869635
 20
-137.9385226434668
 30
0.0
 10
94.10347219869635
 20
-137.9385226434668
 30
0.0
 10
94.88206377836282
 20
-137.9385226434668
 30
0.0
 10
94.88206377836282
 20
-137.9385226434668
 30
0.0
 10
94.88206377836282
 20
-137.9385226434668
 30
0.0
 10
94.88206377836282
 20
-138.1438503343877
 30
0.0
 10
94.88206377836282
 20
-138.1438503343877
 30
0.0
 10
94.88206377836282
 20
-138.1438503343877
 30
0.0
 10
93.85404728556426
 20
-138.1438503343877
 30
0.0
 10
93.85404728556426
 20
-138.1438503343877
 30
0.0
 10
93.88574216402857
 20
-137.7862494230187
 30
0.0
 10
93.95119897824831
 20
-137.7080457555035
 30
0.0
 10
94.33636065349924
 20
-137.4097004864809
 30
0.0
 10
94.59233124805331
 20
-137.210918476982
 30
0.0
 10
94.65778806227306
 20
-137.1430500959226
 30
0.0
 10
94.65778806227306
 20
-137.0055907860611
 30
0.0
 10
94.65778806227306
 20
-136.8870795013685
 30
0.0
 10
94.58578556663133
 20
-136.756165872929
 30
0.0
 10
94.38907061442357
 20
-136.756165872929
 30
0.0
 10
94.1289659052872
 20
-136.756165872929
 30
0.0
 10
94.12035316657408
 20
-136.9866427608922
 30
0.0
 10
94.11621905199178
 20
-137.1030869882937
 30
0.0
 10
94.11621905199178
 20
-137.1030869882937
 30
0.0
 10
93.89194333590201
 20
-137.1030869882937
 30
0.0
 10
93.89194333590201
 20
-137.1030869882937
 30
0.0
 10
93.90055607461514
 20
-136.975962964888
 30
0.0
 10
93.91123587061942
 20
-136.8639973616174
 30
0.0
 10
93.99150659542573
 20
-136.7454860769247
 30
0.0
 10
94.10140514140521
 20
-136.5846001177636
 30
0.0
 10
94.28778480715722
 20
-136.5508381820081
 30
0.0
 10
94.40388452501014
 20
-136.5508381820081
 30
0.0
 10
94.68121471157275
 20
-136.5508381820081
 30
0.0
 10
94.8886094597848
 20
-136.7348062809205
 30
0.0
 10
94.8886094597848
 20
-137.0076578433523
 30
0.0
 10
94.8886094597848
 20
-137.2364121835728
 30
0.0
 10
94.77216523238336
 20
-137.335630933548
 30
0.0
 10
94.46314016735644
 20
-137.561973706929
 30
0.0
  0
HATCH
  5
11B
330
116
100
AcDbEntity
  8
_U+30EC_U+30A4_U+30E4_U+30FC 1
 62
   179
420
  2234388
100
AcDbHatch
 10
0.0
 20
0.0
 30
0.0
210
0.0
220
0.0
230
1.0
  2
SOLID
 70
     1
 71
     0
 91
        1
 92
        1
 93
        1
 72
     4
 94
        3
 73
     0
 74
     1
 95
       44
 96
       40
 40
0.0
 40
0.0
 40
0.0
 40
0.0
 40
1.0
 40
1.0
 40
1.0
 40
2.0
 40
2.0
 40
2.0
 40
3.0
 40
3.0
 40
3.0
 40
4.0
 40
4.0
 40
4.0
 40
5.0
 40
5.0
 40
5.0
 40
6.0
 40
6.0
 40
6.0
 40
7.0
 40
7.0
 40
7.0
 40
8.0
 40
8.0
 40
8.0
 40
9.0
 40
9.0
 40
9.0
 40
10.0
 40
10.0
 40
10.0
 40
11.0
 40
11.0
 40
11.0
 40
12.0
 40
12.0
 40
12.0
 40
13.0
 40
13.0
 40
13.0
 40
13.0
 10
94.46314016735644
 20
-137.561973706929
 10
94.24541013268865
 20
-137.720792608799
 10
94.15239255458691
 20
-137.7948621617319
 10
94.10347219869635
 20
-137.9385226434668
 10
94.10347219869635
 20
-137.9385226434668
 10
94.88206377836282
 20
-137.9385226434668
 10
94.88206377836282
 20
-137.9385226434668
 10
94.88206377836282
 20
-137.9385226434668
 10
94.88206377836282
 20
-138.1438503343877
 10
94.88206377836282
 20
-138.1438503343877
 10
94.88206377836282
 20
-138.1438503343877
 10
93.85404728556426
 20
-138.1438503343877
 10
93.85404728556426
 20
-138.1438503343877
 10
93.88574216402857
 20
-137.7862494230187
 10
93.95119897824831
 20
-137.7080457555035
 10
94.33636065349924
 20
-137.4097004864809
 10
94.59233124805331
 20
-137.210918476982
 10
94.65778806227306
 20
-137.1430500959226
 10
94.65778806227306
 20
-137.0055907860611
 10
94.65778806227306
 20
-136.8870795013685
 10
94.58578556663133
 20
-136.756165872929
 10
94.38907061442357
 20
-136.756165872929
 10
94.1289659052872
 20
-136.756165872929
 10
94.12035316657408
 20
-136.9866427608922
 10
94.11621905199178
 20
-137.1030869882937
 10
94.11621905199178
 20
-137.1030869882937
 10
93.89194333590201
 20
-137.1030869882937
 10
93.89194333590201
 20
-137.1030869882937
 10
93.90055607461514
 20
-136.975962964888
 10
93.91123587061942
 20
-136.8639973616174
 10
93.99150659542573
 20
-136.7454860769247
 10
94.10140514140521
 20
-136.5846001177636
 10
94.28778480715722
 20
-136.5508381820081
 10
94.40388452501014
 20
-136.5508381820081
 10
94.68121471157275
 20
-136.5508381820081
 10
94.8886094597848
 20
-136.7348062809205
 10
94.8886094597848
 20
-137.0076578433523
 10
94.8886094597848
 20
-137.2364121835728
 10
94.77216523238336
 20
-137.335630933548
 10
94.46314016735644
 20
-137.561973706929
 97
        0
 97
        0
 75
     2
 76
     1
 98
        0
  0
SPLINE
  5
11C
330
116
100
AcDbEntity
  8
_U+30EC_U+30A4_U+30E4_U+30FC 1
370
     0
100
AcDbSpline
210
0.0
220
0.0
230
1.0
 70
    11
 71
     3
 72
    29
 73
    25
 74
     0
 42
0.0000000001
 43
0.0000000001
 12
1.0
 22
0.0
 32
0.0
 13
1.0
 23
0.0
 33
0.0
 40
0.0
 40
0.0
 40
0.0
 40
0.0
 40
1.0
 40
1.0
 40
1.0
 40
2.0
 40
2.0
 40
2.0
 40
3.0
 40
3.0
 40
3.0
 40
4.0
 40
4.0
 40
4.0
 40
5.0
 40
5.0
 40
5.0
 40
6.0
 40
6.0
 40
6.0
 40
7.0
 40
7.0
 40
7.0
 40
8.0
 40
8.0
 40
8.0
 40
8.0
 10
95.54696720701604
 20
-138.1944932380208
 30
0.0
 10
95.2803168164577
 20
-138.1944932380208
 30
0.0
 10
95.02641327919478
 20
-138.0570339281594
 30
0.0
 10
95.02641327919478
 20
-137.7080457555035
 30
0.0
 10
95.02641327919478
 20
-137.4520751609495
 30
0.0
 10
95.16835121318708
 20
-137.3569905255566
 30
0.0
 10
95.27411564458426
 20
-137.2956678259191
 30
0.0
 10
95.14940318801821
 20
-137.2364121835728
 30
0.0
 10
95.07326657779419
 20
-137.1220350134626
 30
0.0
 10
95.07326657779419
 20
-136.9611490543014
 30
0.0
 10
95.07326657779419
 20
-136.6862304345784
 30
0.0
 10
95.2720485872931
 20
-136.5508381820081
 30
0.0
 10
95.54696720701604
 20
-136.5508381820081
 30
0.0
 10
95.8304985654521
 20
-136.5508381820081
 30
0.0
 10
96.02101234578642
 20
-136.6948431732916
 30
0.0
 10
96.02101234578642
 20
-136.9611490543014
 30
0.0
 10
96.02101234578642
 20
-137.1220350134626
 30
0.0
 10
95.94246416872272
 20
-137.2364121835728
 30
0.0
 10
95.81775171215668
 20
-137.2956678259191
 30
0.0
 10
95.90663517567613
 20
-137.3463107295523
 30
0.0
 10
96.06545407754614
 20
-137.4413953649452
 30
0.0
 10
96.06545407754614
 20
-137.7039116409213
 30
0.0
 10
96.06545407754614
 20
-138.0783935201679
 30
0.0
 10
95.78605683369238
 20
-138.1944932380208
 30
0.0
 10
95.54696720701604
 20
-138.1944932380208
 30
0.0
  0
SPLINE
  5
11D
330
116
100
AcDbEntity
  8
_U+30EC_U+30A4_U+30E4_U+30FC 1
370
     0
100
AcDbSpline
210
0.0
220
0.0
230
1.0
 70
    11
 71
     3
 72
    17
 73
    13
 74
     0
 42
0.0000000001
 43
0.0000000001
 12
1.0
 22
0.0
 32
0.0
 13
1.0
 23
0.0
 33
0.0
 40
0.0
 40
0.0
 40
0.0
 40
0.0
 40
1.0
 40
1.0
 40
1.0
 40
2.0
 40
2.0
 40
2.0
 40
3.0
 40
3.0
 40
3.0
 40
4.0
 40
4.0
 40
4.0
 40
4.0
 10
95.54696720701604
 20
-137.4034993146075
 30
0.0
 10
95.40330672528113
 20
-137.4034993146075
 30
0.0
 10
95.25068899528455
 20
-137.4903157208358
 30
0.0
 10
95.25068899528455
 20
-137.693231844917
 30
0.0
 10
95.25068899528455
 20
-137.8985595358379
 30
0.0
 10
95.37781301869028
 20
-137.9998453431042
 30
0.0
 10
95.54696720701604
 20
-137.9998453431042
 30
0.0
 10
95.73300236321953
 20
-137.9998453431042
 30
0.0
 10
95.84324541874753
 20
-137.8771999438293
 30
0.0
 10
95.84324541874753
 20
-137.6994330167904
 30
0.0
 10
95.84324541874753
 20
-137.4775688675403
 30
0.0
 10
95.68029240229521
 20
-137.4034993146075
 30
0.0
 10
95.54696720701604
 20
-137.4034993146075
 30
0.0
  0
SPLINE
  5
11E
330
116
100
AcDbEntity
  8
_U+30EC_U+30A4_U+30E4_U+30FC 1
370
     0
100
AcDbSpline
210
0.0
220
0.0
230
1.0
 70
    11
 71
     3
 72
    17
 73
    13
 74
     0
 42
0.0000000001
 43
0.0000000001
 12
1.0
 22
0.0
 32
0.0
 13
1.0
 23
0.0
 33
0.0
 40
0.0
 40
0.0
 40
0.0
 40
0.0
 40
1.0
 40
1.0
 40
1.0
 40
2.0
 40
2.0
 40
2.0
 40
3.0
 40
3.0
 40
3.0
 40
4.0
 40
4.0
 40
4.0
 40
4.0
 10
95.54696720701604
 20
-136.7434190196336
 30
0.0
 10
95.38194713327258
 20
-136.7434190196336
 30
0.0
 10
95.29719778433542
 20
-136.8385036550265
 30
0.0
 10
95.29719778433542
 20
-136.9738959075968
 30
0.0
 10
95.29719778433542
 20
-137.0965413068717
 30
0.0
 10
95.36920027997715
 20
-137.2150525915643
 30
0.0
 10
95.54696720701604
 20
-137.2150525915643
 30
0.0
 10
95.72473413405493
 20
-137.2150525915643
 30
0.0
 10
95.79673662969665
 20
-137.0965413068717
 30
0.0
 10
95.79673662969665
 20
-136.9738959075968
 30
0.0
 10
95.79673662969665
 20
-136.8385036550265
 30
0.0
 10
95.70992022346836
 20
-136.7434190196336
 30
0.0
 10
95.54696720701604
 20
-136.7434190196336
 30
0.0
  0
HATCH
  5
11F
330
116
100
AcDbEntity
  8
_U+30EC_U+30A4_U+30E4_U+30FC 1
 62
   179
420
  2234388
100
AcDbHatch
 10
0.0
 20
0.0
 30
0.0
210
0.0
220
0.0
230
1.0
  2
SOLID
 70
     1
 71
     0
 91
        3
 92
        1
 93
        1
 72
     4
 94
        3
 73
     0
 74
     1
 95
       29
 96
       25
 40
0.0
 40
0.0
 40
0.0
 40
0.0
 40
1.0
 40
1.0
 40
1.0
 40
2.0
 40
2.0
 40
2.0
 40
3.0
 40
3.0
 40
3.0
 40
4.0
 40
4.0
 40
4.0
 40
5.0
 40
5.0
 40
5.0
 40
6.0
 40
6.0
 40
6.0
 40
7.0
 40
7.0
 40
7.0
 40
8.0
 40
8.0
 40
8.0
 40
8.0
 10
95.54696720701604
 20
-138.1944932380208
 10
95.2803168164577
 20
-138.1944932380208
 10
95.02641327919478
 20
-138.0570339281594
 10
95.02641327919478
 20
-137.7080457555035
 10
95.02641327919478
 20
-137.4520751609495
 10
95.16835121318708
 20
-137.3569905255566
 10
95.27411564458426
 20
-137.2956678259191
 10
95.14940318801821
 20
-137.2364121835728
 10
95.07326657779419
 20
-137.1220350134626
 10
95.07326657779419
 20
-136.9611490543014
 10
95.07326657779419
 20
-136.6862304345784
 10
95.2720485872931
 20
-136.5508381820081
 10
95.54696720701604
 20
-136.5508381820081
 10
95.8304985654521
 20
-136.5508381820081
 10
96.02101234578642
 20
-136.6948431732916
 10
96.02101234578642
 20
-136.9611490543014
 10
96.02101234578642
 20
-137.1220350134626
 10
95.94246416872272
 20
-137.2364121835728
 10
95.81775171215668
 20
-137.2956678259191
 10
95.90663517567613
 20
-137.3463107295523
 10
96.06545407754614
 20
-137.4413953649452
 10
96.06545407754614
 20
-137.7039116409213
 10
96.06545407754614
 20
-138.0783935201679
 10
95.78605683369238
 20
-138.1944932380208
 10
95.54696720701604
 20
-138.1944932380208
 97
        0
 97
        0
 92
        1
 93
        1
 72
     4
 94
        3
 73
     0
 74
     1
 95
       17
 96
       13
 40
0.0
 40
0.0
 40
0.0
 40
0.0
 40
1.0
 40
1.0
 40
1.0
 40
2.0
 40
2.0
 40
2.0
 40
3.0
 40
3.0
 40
3.0
 40
4.0
 40
4.0
 40
4.0
 40
4.0
 10
95.54696720701604
 20
-137.4034993146075
 10
95.40330672528113
 20
-137.4034993146075
 10
95.25068899528455
 20
-137.4903157208358
 10
95.25068899528455
 20
-137.693231844917
 10
95.25068899528455
 20
-137.8985595358379
 10
95.37781301869028
 20
-137.9998453431042
 10
95.54696720701604
 20
-137.9998453431042
 10
95.73300236321953
 20
-137.9998453431042
 10
95.84324541874753
 20
-137.8771999438293
 10
95.84324541874753
 20
-137.6994330167904
 10
95.84324541874753
 20
-137.4775688675403
 10
95.68029240229521
 20
-137.4034993146075
 10
95.54696720701604
 20
-137.4034993146075
 97
        0
 97
        0
 92
        1
 93
        1
 72
     4
 94
        3
 73
     0
 74
     1
 95
       17
 96
       13
 40
0.0
 40
0.0
 40
0.0
 40
0.0
 40
1.0
 40
1.0
 40
1.0
 40
2.0
 40
2.0
 40
2.0
 40
3.0
 40
3.0
 40
3.0
 40
4.0
 40
4.0
 40
4.0
 40
4.0
 10
95.54696720701604
 20
-136.7434190196336
 10
95.38194713327258
 20
-136.7434190196336
 10
95.29719778433542
 20
-136.8385036550265
 10
95.29719778433542
 20
-136.9738959075968
 10
95.29719778433542
 20
-137.0965413068717
 10
95.36920027997715
 20
-137.2150525915643
 10
95.54696720701604
 20
-137.2150525915643
 10
95.72473413405493
 20
-137.2150525915643
 10
95.79673662969665
 20
-137.0965413068717
 10
95.79673662969665
 20
-136.9738959075968
 10
95.79673662969665
 20
-136.8385036550265
 10
95.70992022346836
 20
-136.7434190196336
 10
95.54696720701604
 20
-136.7434190196336
 97
        0
 97
        0
 75
     2
 76
     1
 98
        0
  0
ENDBLK
  5
119
330
116
100
AcDbEntity
  8
0
100
AcDbBlockEnd
  0
BLOCK
  5
132
330
130
100
AcDbEntity
  8
0
100
AcDbBlockBegin
  2
block 3
 70
     0
 10
0.0
 20
0.0
 30
0.0
  3
block 3
  1

  0
SPLINE
  5
134
330
130
100
AcDbEntity
  8
_U+30EC_U+30A4_U+30E4_U+30FC 1
370
     0
100
AcDbSpline
210
0.0
220
0.0
230
1.0
 70
    11
 71
     3
 72
    26
 73
    22
 74
     0
 42
0.0000000001
 43
0.0000000001
 12
1.0
 22
0.0
 32
0.0
 13
1.0
 23
0.0
 33
0.0
 40
0.0
 40
0.0
 40
0.0
 40
0.0
 40
1.0
 40
1.0
 40
1.0
 40
2.0
 40
2.0
 40
2.0
 40
3.0
 40
3.0
 40
3.0
 40
4.0
 40
4.0
 40
4.0
 40
5.0
 40
5.0
 40
5.0
 40
6.0
 40
6.0
 40
6.0
 40
7.0
 40
7.0
 40
7.0
 40
7.0
 10
110.4973035748062
 20
-130.7865044160881
 30
0.0
 10
110.4973035748062
 20
-130.7865044160881
 30
0.0
 10
109.3931504717837
 20
-130.7865044160881
 30
0.0
 10
109.3931504717837
 20
-130.7865044160881
 30
0.0
 10
109.3931504717837
 20
-130.7865044160881
 30
0.0
 10
109.3931504717837
 20
-131.116544563575
 30
0.0
 10
109.3931504717837
 20
-131.116544563575
 30
0.0
 10
109.3931504717837
 20
-131.116544563575
 30
0.0
 10
109.2450113659179
 20
-131.116544563575
 30
0.0
 10
109.2450113659179
 20
-131.116544563575
 30
0.0
 10
109.2301974553313
 20
-130.784437358797
 30
0.0
 10
109.067244438879
 20
-130.7379285697461
 30
0.0
 10
108.9528672687687
 20
-130.7083007485729
 30
0.0
 10
108.9528672687687
 20
-130.7083007485729
 30
0.0
 10
108.9528672687687
 20
-130.5622286999983
 30
0.0
 10
108.9528672687687
 20
-130.5622286999983
 30
0.0
 10
108.9528672687687
 20
-130.5622286999983
 30
0.0
 10
110.4973035748062
 20
-130.5622286999983
 30
0.0
 10
110.4973035748062
 20
-130.5622286999983
 30
0.0
 10
110.4973035748062
 20
-130.5622286999983
 30
0.0
 10
110.4973035748062
 20
-130.7865044160881
 30
0.0
 10
110.4973035748062
 20
-130.7865044160881
 30
0.0
  0
HATCH
  5
135
330
130
100
AcDbEntity
  8
_U+30EC_U+30A4_U+30E4_U+30FC 1
 62
   179
420
  2234388
100
AcDbHatch
 10
0.0
 20
0.0
 30
0.0
210
0.0
220
0.0
230
1.0
  2
SOLID
 70
     1
 71
     0
 91
        1
 92
        1
 93
        1
 72
     4
 94
        3
 73
     0
 74
     1
 95
       26
 96
       22
 40
0.0
 40
0.0
 40
0.0
 40
0.0
 40
1.0
 40
1.0
 40
1.0
 40
2.0
 40
2.0
 40
2.0
 40
3.0
 40
3.0
 40
3.0
 40
4.0
 40
4.0
 40
4.0
 40
5.0
 40
5.0
 40
5.0
 40
6.0
 40
6.0
 40
6.0
 40
7.0
 40
7.0
 40
7.0
 40
7.0
 10
110.4973035748062
 20
-130.7865044160881
 10
110.4973035748062
 20
-130.7865044160881
 10
109.3931504717837
 20
-130.7865044160881
 10
109.3931504717837
 20
-130.7865044160881
 10
109.3931504717837
 20
-130.7865044160881
 10
109.3931504717837
 20
-131.116544563575
 10
109.3931504717837
 20
-131.116544563575
 10
109.3931504717837
 20
-131.116544563575
 10
109.2450113659179
 20
-131.116544563575
 10
109.2450113659179
 20
-131.116544563575
 10
109.2301974553313
 20
-130.784437358797
 10
109.067244438879
 20
-130.7379285697461
 10
108.9528672687687
 20
-130.7083007485729
 10
108.9528672687687
 20
-130.7083007485729
 10
108.9528672687687
 20
-130.5622286999983
 10
108.9528672687687
 20
-130.5622286999983
 10
108.9528672687687
 20
-130.5622286999983
 10
110.4973035748062
 20
-130.5622286999983
 10
110.4973035748062
 20
-130.5622286999983
 10
110.4973035748062
 20
-130.5622286999983
 10
110.4973035748062
 20
-130.7865044160881
 10
110.4973035748062
 20
-130.7865044160881
 97
        0
 97
        0
 75
     2
 76
     1
 98
        0
  0
ENDBLK
  5
133
330
130
100
AcDbEntity
  8
0
100
AcDbBlockEnd
  0
BLOCK
  5
148
330
146
100
AcDbEntity
  8
0
100
AcDbBlockBegin
  2
block 4
 70
     0
 10
0.0
 20
0.0
 30
0.0
  3
block 4
  1

  0
SPLINE
  5
14A
330
146
100
AcDbEntity
  8
_U+30EC_U+30A4_U+30E4_U+30FC 1
370
     0
100
AcDbSpline
210
0.0
220
0.0
230
1.0
 70
    11
 71
     3
 72
    44
 73
    40
 74
     0
 42
0.0000000001
 43
0.0000000001
 12
1.0
 22
0.0
 32
0.0
 13
1.0
 23
0.0
 33
0.0
 40
0.0
 40
0.0
 40
0.0
 40
0.0
 40
1.0
 40
1.0
 40
1.0
 40
2.0
 40
2.0
 40
2.0
 40
3.0
 40
3.0
 40
3.0
 40
4.0
 40
4.0
 40
4.0
 40
5.0
 40
5.0
 40
5.0
 40
6.0
 40
6.0
 40
6.0
 40
7.0
 40
7.0
 40
7.0
 40
8.0
 40
8.0
 40
8.0
 40
9.0
 40
9.0
 40
9.0
 40
10.0
 40
10.0
 40
10.0
 40
11.0
 40
11.0
 40
11.0
 40
12.0
 40
12.0
 40
12.0
 40
13.0
 40
13.0
 40
13.0
 40
13.0
 10
75.85617945152207
 20
-138.4621771572247
 30
0.0
 10
76.01499835339209
 20
-138.6799071918925
 30
0.0
 10
76.08906790632496
 20
-138.7729247699943
 30
0.0
 10
76.23272838805988
 20
-138.8218451258848
 30
0.0
 10
76.23272838805988
 20
-138.8218451258848
 30
0.0
 10
76.23272838805988
 20
-138.0432535462184
 30
0.0
 10
76.23272838805988
 20
-138.0432535462184
 30
0.0
 10
76.23272838805988
 20
-138.0432535462184
 30
0.0
 10
76.43805607898076
 20
-138.0432535462184
 30
0.0
 10
76.43805607898076
 20
-138.0432535462184
 30
0.0
 10
76.43805607898076
 20
-138.0432535462184
 30
0.0
 10
76.43805607898076
 20
-139.0712700390169
 30
0.0
 10
76.43805607898076
 20
-139.0712700390169
 30
0.0
 10
76.08045516761183
 20
-139.0395751605526
 30
0.0
 10
76.00225150009666
 20
-138.9741183463329
 30
0.0
 10
75.70390623107403
 20
-138.5889566710819
 30
0.0
 10
75.50512422157512
 20
-138.3329860765279
 30
0.0
 10
75.43725584051569
 20
-138.2675292623081
 30
0.0
 10
75.29979653065422
 20
-138.2675292623081
 30
0.0
 10
75.18128524596163
 20
-138.2675292623081
 30
0.0
 10
75.05037161752213
 20
-138.3395317579499
 30
0.0
 10
75.05037161752213
 20
-138.5362467101576
 30
0.0
 10
75.05037161752213
 20
-138.796351419294
 30
0.0
 10
75.28084850548535
 20
-138.8049641580071
 30
0.0
 10
75.3972927328868
 20
-138.8090982725894
 30
0.0
 10
75.3972927328868
 20
-138.8090982725894
 30
0.0
 10
75.3972927328868
 20
-139.0333739886792
 30
0.0
 10
75.3972927328868
 20
-139.0333739886792
 30
0.0
 10
75.27016870948107
 20
-139.024761249966
 30
0.0
 10
75.15820310621045
 20
-139.0140814539618
 30
0.0
 10
75.03969182151786
 20
-138.9338107291555
 30
0.0
 10
74.87880586235669
 20
-138.823912183176
 30
0.0
 10
74.84504392660125
 20
-138.6375325174239
 30
0.0
 10
74.84504392660125
 20
-138.521432799571
 30
0.0
 10
74.84504392660125
 20
-138.2441026130084
 30
0.0
 10
75.02901202551358
 20
-138.0367078647964
 30
0.0
 10
75.30186358794538
 20
-138.0367078647964
 30
0.0
 10
75.53061792816597
 20
-138.0367078647964
 30
0.0
 10
75.62983667814116
 20
-138.1531520921978
 30
0.0
 10
75.85617945152207
 20
-138.4621771572247
 30
0.0
  0
HATCH
  5
14B
330
146
100
AcDbEntity
  8
_U+30EC_U+30A4_U+30E4_U+30FC 1
 62
   179
420
  2234388
100
AcDbHatch
 10
0.0
 20
0.0
 30
0.0
210
0.0
220
0.0
230
1.0
  2
SOLID
 70
     1
 71
     0
 91
        1
 92
        1
 93
        1
 72
     4
 94
        3
 73
     0
 74
     1
 95
       44
 96
       40
 40
0.0
 40
0.0
 40
0.0
 40
0.0
 40
1.0
 40
1.0
 40
1.0
 40
2.0
 40
2.0
 40
2.0
 40
3.0
 40
3.0
 40
3.0
 40
4.0
 40
4.0
 40
4.0
 40
5.0
 40
5.0
 40
5.0
 40
6.0
 40
6.0
 40
6.0
 40
7.0
 40
7.0
 40
7.0
 40
8.0
 40
8.0
 40
8.0
 40
9.0
 40
9.0
 40
9.0
 40
10.0
 40
10.0
 40
10.0
 40
11.0
 40
11.0
 40
11.0
 40
12.0
 40
12.0
 40
12.0
 40
13.0
 40
13.0
 40
13.0
 40
13.0
 10
75.85617945152207
 20
-138.4621771572247
 10
76.01499835339209
 20
-138.6799071918925
 10
76.08906790632496
 20
-138.7729247699943
 10
76.23272838805988
 20
-138.8218451258848
 10
76.23272838805988
 20
-138.8218451258848
 10
76.23272838805988
 20
-138.0432535462184
 10
76.23272838805988
 20
-138.0432535462184
 10
76.23272838805988
 20
-138.0432535462184
 10
76.43805607898076
 20
-138.0432535462184
 10
76.43805607898076
 20
-138.0432535462184
 10
76.43805607898076
 20
-138.0432535462184
 10
76.43805607898076
 20
-139.0712700390169
 10
76.43805607898076
 20
-139.0712700390169
 10
76.08045516761183
 20
-139.0395751605526
 10
76.00225150009666
 20
-138.9741183463329
 10
75.70390623107403
 20
-138.5889566710819
 10
75.50512422157512
 20
-138.3329860765279
 10
75.43725584051569
 20
-138.2675292623081
 10
75.29979653065422
 20
-138.2675292623081
 10
75.18128524596163
 20
-138.2675292623081
 10
75.05037161752213
 20
-138.3395317579499
 10
75.05037161752213
 20
-138.5362467101576
 10
75.05037161752213
 20
-138.796351419294
 10
75.28084850548535
 20
-138.8049641580071
 10
75.3972927328868
 20
-138.8090982725894
 10
75.3972927328868
 20
-138.8090982725894
 10
75.3972927328868
 20
-139.0333739886792
 10
75.3972927328868
 20
-139.0333739886792
 10
75.27016870948107
 20
-139.024761249966
 10
75.15820310621045
 20
-139.0140814539618
 10
75.03969182151786
 20
-138.9338107291555
 10
74.87880586235669
 20
-138.823912183176
 10
74.84504392660125
 20
-138.6375325174239
 10
74.84504392660125
 20
-138.521432799571
 10
74.84504392660125
 20
-138.2441026130084
 10
75.02901202551358
 20
-138.0367078647964
 10
75.30186358794538
 20
-138.0367078647964
 10
75.53061792816597
 20
-138.0367078647964
 10
75.62983667814116
 20
-138.1531520921978
 10
75.85617945152207
 20
-138.4621771572247
 97
        0
 97
        0
 75
     2
 76
     1
 98
        0
  0
POLYLINE
  5
14C
330
146
100
AcDbEntity
  8
_U+30EC_U+30A4_U+30E4_U+30FC 1
370
     0
100
AcDb2dPolyline
 66
     1
 10
0.0
 20
0.0
 30
0.0
  0
VERTEX
  5
14D
330
14C
100
AcDbEntity
  8
_U+30EC_U+30A4_U+30E4_U+30FC 1
370
     0
100
AcDbVertex
100
AcDb2dVertex
 10
76.43805607898076
 20
-137.8182888110316
 30
0.0
  0
VERTEX
  5
14E
330
14C
100
AcDbEntity
  8
_U+30EC_U+30A4_U+30E4_U+30FC 1
370
     0
100
AcDbVertex
100
AcDb2dVertex
 10
76.18621959900901
 20
-137.8182888110316
 30
0.0
  0
VERTEX
  5
14F
330
14C
100
AcDbEntity
  8
_U+30EC_U+30A4_U+30E4_U+30FC 1
370
     0
100
AcDbVertex
100
AcDb2dVertex
 10
76.18621959900901
 20
-137.5664523310598
 30
0.0
  0
VERTEX
  5
150
330
14C
100
AcDbEntity
  8
_U+30EC_U+30A4_U+30E4_U+30FC 1
370
     0
100
AcDbVertex
100
AcDb2dVertex
 10
76.43805607898076
 20
-137.5664523310598
 30
0.0
  0
VERTEX
  5
151
330
14C
100
AcDbEntity
  8
_U+30EC_U+30A4_U+30E4_U+30FC 1
370
     0
100
AcDbVertex
100
AcDb2dVertex
 10
76.43805607898076
 20
-137.8182888110316
 30
0.0
  0
SEQEND
  5
152
330
14C
100
AcDbEntity
  8
_U+30EC_U+30A4_U+30E4_U+30FC 1
370
     0
  0
HATCH
  5
153
330
146
100
AcDbEntity
  8
_U+30EC_U+30A4_U+30E4_U+30FC 1
 62
   179
420
  2234388
100
AcDbHatch
 10
0.0
 20
0.0
 30
0.0
210
0.0
220
0.0
230
1.0
  2
SOLID
 70
     1
 71
     0
 91
        1
 92
        1
 93
        4
 72
     1
 10
76.43805607898076
 20
-137.8182888110316
 11
76.18621959900901
 21
-137.8182888110316
 72
     1
 10
76.18621959900901
 20
-137.8182888110316
 11
76.18621959900901
 21
-137.5664523310598
 72
     1
 10
76.18621959900901
 20
-137.5664523310598
 11
76.43805607898076
 21
-137.5664523310598
 72
     1
 10
76.43805607898076
 20
-137.5664523310598
 11
76.43805607898076
 21
-137.8182888110316
 97
        0
 75
     2
 76
     1
 98
        0
  0
SPLINE
  5
154
330
146
100
AcDbEntity
  8
_U+30EC_U+30A4_U+30E4_U+30FC 1
370
     0
100
AcDbSpline
210
0.0
220
0.0
230
1.0
 70
    11
 71
     3
 72
    53
 73
    49
 74
     0
 42
0.0000000001
 43
0.0000000001
 12
1.0
 22
0.0
 32
0.0
 13
1.0
 23
0.0
 33
0.0
 40
0.0
 40
0.0
 40
0.0
 40
0.0
 40
1.0
 40
1.0
 40
1.0
 40
2.0
 40
2.0
 40
2.0
 40
3.0
 40
3.0
 40
3.0
 40
4.0
 40
4.0
 40
4.0
 40
5.0
 40
5.0
 40
5.0
 40
6.0
 40
6.0
 40
6.0
 40
7.0
 40
7.0
 40
7.0
 40
8.0
 40
8.0
 40
8.0
 40
9.0
 40
9.0
 40
9.0
 40
10.0
 40
10.0
 40
10.0
 40
11.0
 40
11.0
 40
11.0
 40
12.0
 40
12.0
 40
12.0
 40
13.0
 40
13.0
 40
13.0
 40
14.0
 40
14.0
 40
14.0
 40
15.0
 40
15.0
 40
15.0
 40
16.0
 40
16.0
 40
16.0
 40
16.0
 10
76.48869898261394
 20
-136.8491834510308
 30
0.0
 10
76.48869898261394
 20
-136.9273871185459
 30
0.0
 10
76.47181801473621
 20
-137.0290174353608
 30
0.0
 10
76.40842825780761
 20
-137.1306477521757
 30
0.0
 10
76.29852971182815
 20
-137.3039360550837
 30
0.0
 10
76.16727157384013
 20
-137.3252956470923
 30
0.0
 10
76.0594400851518
 20
-137.3442436722612
 30
0.0
 10
76.0594400851518
 20
-137.3442436722612
 30
0.0
 10
76.0594400851518
 20
-137.1220350134626
 30
0.0
 10
76.0594400851518
 20
-137.1220350134626
 30
0.0
 10
76.25822209465072
 20
-137.0672579952471
 30
0.0
 10
76.28784991582387
 20
-136.9401339718414
 30
0.0
 10
76.28784991582387
 20
-136.8471163937396
 30
0.0
 10
76.28784991582387
 20
-136.707590026587
 30
0.0
 10
76.18828665630015
 20
-136.555316806139
 30
0.0
 10
75.95574271104579
 20
-136.555316806139
 30
0.0
 10
75.69977211649173
 20
-136.555316806139
 30
0.0
 10
75.62983667814116
 20
-136.735150790469
 30
0.0
 10
75.62983667814116
 20
-136.8557291324528
 30
0.0
 10
75.62983667814116
 20
-136.887424010917
 30
0.0
 10
75.62983667814116
 20
-137.0290174353608
 30
0.0
 10
75.75902775883803
 20
-137.1179008988803
 30
0.0
 10
75.75902775883803
 20
-137.1179008988803
 30
0.0
 10
75.74007973366915
 20
-137.293600768628
 30
0.0
 10
75.74007973366915
 20
-137.293600768628
 30
0.0
 10
75.74007973366915
 20
-137.293600768628
 30
0.0
 10
74.89361977294327
 20
-137.1730224266443
 30
0.0
 10
74.89361977294327
 20
-137.1730224266443
 30
0.0
 10
74.89361977294327
 20
-137.1730224266443
 30
0.0
 10
74.89361977294327
 20
-136.3944308469778
 30
0.0
 10
74.89361977294327
 20
-136.3944308469778
 30
0.0
 10
74.89361977294327
 20
-136.3944308469778
 30
0.0
 10
75.08826766785988
 20
-136.3944308469778
 30
0.0
 10
75.08826766785988
 20
-136.3944308469778
 30
0.0
 10
75.08826766785988
 20
-136.3944308469778
 30
0.0
 10
75.08826766785988
 20
-137.0100694101919
 30
0.0
 10
75.08826766785988
 20
-137.0100694101919
 30
0.0
 10
75.08826766785988
 20
-137.0100694101919
 30
0.0
 10
75.51132539344856
 20
-137.0755262244117
 30
0.0
 10
75.51132539344856
 20
-137.0755262244117
 30
0.0
 10
75.47756345769311
 20
-137.0142035247742
 30
0.0
 10
75.43725584051569
 20
-136.9318657426768
 30
0.0
 10
75.43725584051569
 20
-136.8133544579842
 30
0.0
 10
75.43725584051569
 20
-136.5594509207212
 30
0.0
 10
75.6236355062677
 20
-136.3224283513361
 30
0.0
 10
75.93679468587692
 20
-136.3224283513361
 30
0.0
 10
76.25408798006842
 20
-136.3224283513361
 30
0.0
 10
76.48869898261394
 20
-136.5467040674258
 30
0.0
 10
76.48869898261394
 20
-136.8491834510308
 30
0.0
  0
HATCH
  5
155
330
146
100
AcDbEntity
  8
_U+30EC_U+30A4_U+30E4_U+30FC 1
 62
   179
420
  2234388
100
AcDbHatch
 10
0.0
 20
0.0
 30
0.0
210
0.0
220
0.0
230
1.0
  2
SOLID
 70
     1
 71
     0
 91
        1
 92
        1
 93
        1
 72
     4
 94
        3
 73
     0
 74
     1
 95
       53
 96
       49
 40
0.0
 40
0.0
 40
0.0
 40
0.0
 40
1.0
 40
1.0
 40
1.0
 40
2.0
 40
2.0
 40
2.0
 40
3.0
 40
3.0
 40
3.0
 40
4.0
 40
4.0
 40
4.0
 40
5.0
 40
5.0
 40
5.0
 40
6.0
 40
6.0
 40
6.0
 40
7.0
 40
7.0
 40
7.0
 40
8.0
 40
8.0
 40
8.0
 40
9.0
 40
9.0
 40
9.0
 40
10.0
 40
10.0
 40
10.0
 40
11.0
 40
11.0
 40
11.0
 40
12.0
 40
12.0
 40
12.0
 40
13.0
 40
13.0
 40
13.0
 40
14.0
 40
14.0
 40
14.0
 40
15.0
 40
15.0
 40
15.0
 40
16.0
 40
16.0
 40
16.0
 40
16.0
 10
76.48869898261394
 20
-136.8491834510308
 10
76.48869898261394
 20
-136.9273871185459
 10
76.47181801473621
 20
-137.0290174353608
 10
76.40842825780761
 20
-137.1306477521757
 10
76.29852971182815
 20
-137.3039360550837
 10
76.16727157384013
 20
-137.3252956470923
 10
76.0594400851518
 20
-137.3442436722612
 10
76.0594400851518
 20
-137.3442436722612
 10
76.0594400851518
 20
-137.1220350134626
 10
76.0594400851518
 20
-137.1220350134626
 10
76.25822209465072
 20
-137.0672579952471
 10
76.28784991582387
 20
-136.9401339718414
 10
76.28784991582387
 20
-136.8471163937396
 10
76.28784991582387
 20
-136.707590026587
 10
76.18828665630015
 20
-136.555316806139
 10
75.95574271104579
 20
-136.555316806139
 10
75.69977211649173
 20
-136.555316806139
 10
75.62983667814116
 20
-136.735150790469
 10
75.62983667814116
 20
-136.8557291324528
 10
75.62983667814116
 20
-136.887424010917
 10
75.62983667814116
 20
-137.0290174353608
 10
75.75902775883803
 20
-137.1179008988803
 10
75.75902775883803
 20
-137.1179008988803
 10
75.74007973366915
 20
-137.293600768628
 10
75.74007973366915
 20
-137.293600768628
 10
75.74007973366915
 20
-137.293600768628
 10
74.89361977294327
 20
-137.1730224266443
 10
74.89361977294327
 20
-137.1730224266443
 10
74.89361977294327
 20
-137.1730224266443
 10
74.89361977294327
 20
-136.3944308469778
 10
74.89361977294327
 20
-136.3944308469778
 10
74.89361977294327
 20
-136.3944308469778
 10
75.08826766785988
 20
-136.3944308469778
 10
75.08826766785988
 20
-136.3944308469778
 10
75.08826766785988
 20
-136.3944308469778
 10
75.08826766785988
 20
-137.0100694101919
 10
75.08826766785988
 20
-137.0100694101919
 10
75.08826766785988
 20
-137.0100694101919
 10
75.51132539344856
 20
-137.0755262244117
 10
75.51132539344856
 20
-137.0755262244117
 10
75.47756345769311
 20
-137.0142035247742
 10
75.43725584051569
 20
-136.9318657426768
 10
75.43725584051569
 20
-136.8133544579842
 10
75.43725584051569
 20
-136.5594509207212
 10
75.6236355062677
 20
-136.3224283513361
 10
75.93679468587692
 20
-136.3224283513361
 10
76.25408798006842
 20
-136.3224283513361
 10
76.48869898261394
 20
-136.5467040674258
 10
76.48869898261394
 20
-136.8491834510308
 97
        0
 97
        0
 75
     2
 76
     1
 98
        0
  0
ENDBLK
  5
149
330
146
100
AcDbEntity
  8
0
100
AcDbBlockEnd
  0
BLOCK
  5
164
330
162
100
AcDbEntity
  8
0
100
AcDbBlockBegin
  2
block 5
 70
     0
 10
0.0
 20
0.0
 30
0.0
  3
block 5
  1

  0
SPLINE
  5
166
330
162
100
AcDbEntity
  8
_U+30EC_U+30A4_U+30E4_U+30FC 1
370
     0
100
AcDbSpline
210
0.0
220
0.0
230
1.0
 70
    11
 71
     3
 72
    26
 73
    22
 74
     0
 42
0.0000000001
 43
0.0000000001
 12
1.0
 22
0.0
 32
0.0
 13
1.0
 23
0.0
 33
0.0
 40
0.0
 40
0.0
 40
0.0
 40
0.0
 40
1.0
 40
1.0
 40
1.0
 40
2.0
 40
2.0
 40
2.0
 40
3.0
 40
3.0
 40
3.0
 40
4.0
 40
4.0
 40
4.0
 40
5.0
 40
5.0
 40
5.0
 40
6.0
 40
6.0
 40
6.0
 40
7.0
 40
7.0
 40
7.0
 40
7.0
 10
72.43830022060571
 20
-130.3713704101155
 30
0.0
 10
72.43830022060571
 20
-130.3713704101155
 30
0.0
 10
71.33414711758313
 20
-130.3713704101155
 30
0.0
 10
71.33414711758313
 20
-130.3713704101155
 30
0.0
 10
71.33414711758313
 20
-130.3713704101155
 30
0.0
 10
71.33414711758313
 20
-130.7014105576024
 30
0.0
 10
71.33414711758313
 20
-130.7014105576024
 30
0.0
 10
71.33414711758313
 20
-130.7014105576024
 30
0.0
 10
71.18600801171739
 20
-130.7014105576024
 30
0.0
 10
71.18600801171739
 20
-130.7014105576024
 30
0.0
 10
71.17119410113082
 20
-130.3693033528243
 30
0.0
 10
71.0082410846785
 20
-130.3227945637735
 30
0.0
 10
70.8938639145682
 20
-130.2931667426003
 30
0.0
 10
70.8938639145682
 20
-130.2931667426003
 30
0.0
 10
70.8938639145682
 20
-130.1470946940257
 30
0.0
 10
70.8938639145682
 20
-130.1470946940257
 30
0.0
 10
70.8938639145682
 20
-130.1470946940257
 30
0.0
 10
72.43830022060571
 20
-130.1470946940257
 30
0.0
 10
72.43830022060571
 20
-130.1470946940257
 30
0.0
 10
72.43830022060571
 20
-130.1470946940257
 30
0.0
 10
72.43830022060571
 20
-130.3713704101155
 30
0.0
 10
72.43830022060571
 20
-130.3713704101155
 30
0.0
  0
HATCH
  5
167
330
162
100
AcDbEntity
  8
_U+30EC_U+30A4_U+30E4_U+30FC 1
 62
   179
420
  2234388
100
AcDbHatch
 10
0.0
 20
0.0
 30
0.0
210
0.0
220
0.0
230
1.0
  2
SOLID
 70
     1
 71
     0
 91
        1
 92
        1
 93
        1
 72
     4
 94
        3
 73
     0
 74
     1
 95
       26
 96
       22
 40
0.0
 40
0.0
 40
0.0
 40
0.0
 40
1.0
 40
1.0
 40
1.0
 40
2.0
 40
2.0
 40
2.0
 40
3.0
 40
3.0
 40
3.0
 40
4.0
 40
4.0
 40
4.0
 40
5.0
 40
5.0
 40
5.0
 40
6.0
 40
6.0
 40
6.0
 40
7.0
 40
7.0
 40
7.0
 40
7.0
 10
72.43830022060571
 20
-130.3713704101155
 10
72.43830022060571
 20
-130.3713704101155
 10
71.33414711758313
 20
-130.3713704101155
 10
71.33414711758313
 20
-130.3713704101155
 10
71.33414711758313
 20
-130.3713704101155
 10
71.33414711758313
 20
-130.7014105576024
 10
71.33414711758313
 20
-130.7014105576024
 10
71.33414711758313
 20
-130.7014105576024
 10
71.18600801171739
 20
-130.7014105576024
 10
71.18600801171739
 20
-130.7014105576024
 10
71.17119410113082
 20
-130.3693033528243
 10
71.0082410846785
 20
-130.3227945637735
 10
70.8938639145682
 20
-130.2931667426003
 10
70.8938639145682
 20
-130.2931667426003
 10
70.8938639145682
 20
-130.1470946940257
 10
70.8938639145682
 20
-130.1470946940257
 10
70.8938639145682
 20
-130.1470946940257
 10
72.43830022060571
 20
-130.1470946940257
 10
72.43830022060571
 20
-130.1470946940257
 10
72.43830022060571
 20
-130.1470946940257
 10
72.43830022060571
 20
-130.3713704101155
 10
72.43830022060571
 20
-130.3713704101155
 97
        0
 97
        0
 75
     2
 76
     1
 98
        0
  0
SPLINE
  5
168
330
162
100
AcDbEntity
  8
_U+30EC_U+30A4_U+30E4_U+30FC 1
370
     0
100
AcDbSpline
210
0.0
220
0.0
230
1.0
 70
    11
 71
     3
 72
    26
 73
    22
 74
     0
 42
0.0000000001
 43
0.0000000001
 12
1.0
 22
0.0
 32
0.0
 13
1.0
 23
0.0
 33
0.0
 40
0.0
 40
0.0
 40
0.0
 40
0.0
 40
1.0
 40
1.0
 40
1.0
 40
2.0
 40
2.0
 40
2.0
 40
3.0
 40
3.0
 40
3.0
 40
4.0
 40
4.0
 40
4.0
 40
5.0
 40
5.0
 40
5.0
 40
6.0
 40
6.0
 40
6.0
 40
7.0
 40
7.0
 40
7.0
 40
7.0
 10
72.43830022060571
 20
-129.1945257923541
 30
0.0
 10
72.43830022060571
 20
-129.1945257923541
 30
0.0
 10
71.33414711758313
 20
-129.1945257923541
 30
0.0
 10
71.33414711758313
 20
-129.1945257923541
 30
0.0
 10
71.33414711758313
 20
-129.1945257923541
 30
0.0
 10
71.33414711758313
 20
-129.5245659398411
 30
0.0
 10
71.33414711758313
 20
-129.5245659398411
 30
0.0
 10
71.33414711758313
 20
-129.5245659398411
 30
0.0
 10
71.18600801171739
 20
-129.5245659398411
 30
0.0
 10
71.18600801171739
 20
-129.5245659398411
 30
0.0
 10
71.17119410113082
 20
-129.192458735063
 30
0.0
 10
71.0082410846785
 20
-129.1459499460121
 30
0.0
 10
70.8938639145682
 20
-129.116322124839
 30
0.0
 10
70.8938639145682
 20
-129.116322124839
 30
0.0
 10
70.8938639145682
 20
-128.9702500762644
 30
0.0
 10
70.8938639145682
 20
-128.9702500762644
 30
0.0
 10
70.8938639145682
 20
-128.9702500762644
 30
0.0
 10
72.43830022060571
 20
-128.9702500762644
 30
0.0
 10
72.43830022060571
 20
-128.9702500762644
 30
0.0
 10
72.43830022060571
 20
-128.9702500762644
 30
0.0
 10
72.43830022060571
 20
-129.1945257923541
 30
0.0
 10
72.43830022060571
 20
-129.1945257923541
 30
0.0
  0
HATCH
  5
169
330
162
100
AcDbEntity
  8
_U+30EC_U+30A4_U+30E4_U+30FC 1
 62
   179
420
  2234388
100
AcDbHatch
 10
0.0
 20
0.0
 30
0.0
210
0.0
220
0.0
230
1.0
  2
SOLID
 70
     1
 71
     0
 91
        1
 92
        1
 93
        1
 72
     4
 94
        3
 73
     0
 74
     1
 95
       26
 96
       22
 40
0.0
 40
0.0
 40
0.0
 40
0.0
 40
1.0
 40
1.0
 40
1.0
 40
2.0
 40
2.0
 40
2.0
 40
3.0
 40
3.0
 40
3.0
 40
4.0
 40
4.0
 40
4.0
 40
5.0
 40
5.0
 40
5.0
 40
6.0
 40
6.0
 40
6.0
 40
7.0
 40
7.0
 40
7.0
 40
7.0
 10
72.43830022060571
 20
-129.1945257923541
 10
72.43830022060571
 20
-129.1945257923541
 10
71.33414711758313
 20
-129.1945257923541
 10
71.33414711758313
 20
-129.1945257923541
 10
71.33414711758313
 20
-129.1945257923541
 10
71.33414711758313
 20
-129.5245659398411
 10
71.33414711758313
 20
-129.5245659398411
 10
71.33414711758313
 20
-129.5245659398411
 10
71.18600801171739
 20
-129.5245659398411
 10
71.18600801171739
 20
-129.5245659398411
 10
71.17119410113082
 20
-129.192458735063
 10
71.0082410846785
 20
-129.1459499460121
 10
70.8938639145682
 20
-129.116322124839
 10
70.8938639145682
 20
-129.116322124839
 10
70.8938639145682
 20
-128.9702500762644
 10
70.8938639145682
 20
-128.9702500762644
 10
70.8938639145682
 20
-128.9702500762644
 10
72.43830022060571
 20
-128.9702500762644
 10
72.43830022060571
 20
-128.9702500762644
 10
72.43830022060571
 20
-128.9702500762644
 10
72.43830022060571
 20
-129.1945257923541
 10
72.43830022060571
 20
-129.1945257923541
 97
        0
 97
        0
 75
     2
 76
     1
 98
        0
  0
POLYLINE
  5
16A
330
162
100
AcDbEntity
  8
_U+30EC_U+30A4_U+30E4_U+30FC 1
370
     0
100
AcDb2dPolyline
 66
     1
 10
0.0
 20
0.0
 30
0.0
  0
VERTEX
  5
16B
330
16A
100
AcDbEntity
  8
_U+30EC_U+30A4_U+30E4_U+30FC 1
370
     0
100
AcDbVertex
100
AcDb2dVertex
 10
72.43830022060571
 20
-128.4090440217172
 30
0.0
  0
VERTEX
  5
16C
330
16A
100
AcDbEntity
  8
_U+30EC_U+30A4_U+30E4_U+30FC 1
370
     0
100
AcDbVertex
100
AcDb2dVertex
 10
72.18646374063394
 20
-128.4090440217172
 30
0.0
  0
VERTEX
  5
16D
330
16A
100
AcDbEntity
  8
_U+30EC_U+30A4_U+30E4_U+30FC 1
370
     0
100
AcDbVertex
100
AcDb2dVertex
 10
72.18646374063394
 20
-128.1572075417454
 30
0.0
  0
VERTEX
  5
16E
330
16A
100
AcDbEntity
  8
_U+30EC_U+30A4_U+30E4_U+30FC 1
370
     0
100
AcDbVertex
100
AcDb2dVertex
 10
72.43830022060571
 20
-128.1572075417454
 30
0.0
  0
VERTEX
  5
16F
330
16A
100
AcDbEntity
  8
_U+30EC_U+30A4_U+30E4_U+30FC 1
370
     0
100
AcDbVertex
100
AcDb2dVertex
 10
72.43830022060571
 20
-128.4090440217172
 30
0.0
  0
SEQEND
  5
170
330
16A
100
AcDbEntity
  8
_U+30EC_U+30A4_U+30E4_U+30FC 1
370
     0
  0
HATCH
  5
171
330
162
100
AcDbEntity
  8
_U+30EC_U+30A4_U+30E4_U+30FC 1
 62
   179
420
  2234388
100
AcDbHatch
 10
0.0
 20
0.0
 30
0.0
210
0.0
220
0.0
230
1.0
  2
SOLID
 70
     1
 71
     0
 91
        1
 92
        1
 93
        4
 72
     1
 10
72.43830022060571
 20
-128.4090440217172
 11
72.18646374063394
 21
-128.4090440217172
 72
     1
 10
72.18646374063394
 20
-128.4090440217172
 11
72.18646374063394
 21
-128.1572075417454
 72
     1
 10
72.18646374063394
 20
-128.1572075417454
 11
72.43830022060571
 21
-128.1572075417454
 72
     1
 10
72.43830022060571
 20
-128.1572075417454
 11
72.43830022060571
 21
-128.4090440217172
 97
        0
 75
     2
 76
     1
 98
        0
  0
SPLINE
  5
172
330
162
100
AcDbEntity
  8
_U+30EC_U+30A4_U+30E4_U+30FC 1
370
     0
100
AcDbSpline
210
0.0
220
0.0
230
1.0
 70
    11
 71
     3
 72
    53
 73
    49
 74
     0
 42
0.0000000001
 43
0.0000000001
 12
1.0
 22
0.0
 32
0.0
 13
1.0
 23
0.0
 33
0.0
 40
0.0
 40
0.0
 40
0.0
 40
0.0
 40
1.0
 40
1.0
 40
1.0
 40
2.0
 40
2.0
 40
2.0
 40
3.0
 40
3.0
 40
3.0
 40
4.0
 40
4.0
 40
4.0
 40
5.0
 40
5.0
 40
5.0
 40
6.0
 40
6.0
 40
6.0
 40
7.0
 40
7.0
 40
7.0
 40
8.0
 40
8.0
 40
8.0
 40
9.0
 40
9.0
 40
9.0
 40
10.0
 40
10.0
 40
10.0
 40
11.0
 40
11.0
 40
11.0
 40
12.0
 40
12.0
 40
12.0
 40
13.0
 40
13.0
 40
13.0
 40
14.0
 40
14.0
 40
14.0
 40
15.0
 40
15.0
 40
15.0
 40
16.0
 40
16.0
 40
16.0
 40
16.0
 10
72.48894312423887
 20
-127.4399386617164
 30
0.0
 10
72.48894312423887
 20
-127.5181423292316
 30
0.0
 10
72.47206215636115
 20
-127.6197726460465
 30
0.0
 10
72.40867239943256
 20
-127.7214029628613
 30
0.0
 10
72.29877385345308
 20
-127.8946912657694
 30
0.0
 10
72.16751571546507
 20
-127.9160508577779
 30
0.0
 10
72.05968422677675
 20
-127.9349988829468
 30
0.0
 10
72.05968422677675
 20
-127.9349988829468
 30
0.0
 10
72.05968422677675
 20
-127.7127902241482
 30
0.0
 10
72.05968422677675
 20
-127.7127902241482
 30
0.0
 10
72.25846623627567
 20
-127.6580132059327
 30
0.0
 10
72.28809405744882
 20
-127.530889182527
 30
0.0
 10
72.28809405744882
 20
-127.4378716044253
 30
0.0
 10
72.28809405744882
 20
-127.2983452372726
 30
0.0
 10
72.1885307979251
 20
-127.1460720168246
 30
0.0
 10
71.95598685267073
 20
-127.1460720168246
 30
0.0
 10
71.70001625811666
 20
-127.1460720168246
 30
0.0
 10
71.63008081976609
 20
-127.3259060011546
 30
0.0
 10
71.63008081976609
 20
-127.4464843431384
 30
0.0
 10
71.63008081976609
 20
-127.4781792216027
 30
0.0
 10
71.63008081976609
 20
-127.6197726460465
 30
0.0
 10
71.75927190046296
 20
-127.7086561095659
 30
0.0
 10
71.75927190046296
 20
-127.7086561095659
 30
0.0
 10
71.7403238752941
 20
-127.8843559793136
 30
0.0
 10
71.7403238752941
 20
-127.8843559793136
 30
0.0
 10
71.7403238752941
 20
-127.8843559793136
 30
0.0
 10
70.8938639145682
 20
-127.7637776373299
 30
0.0
 10
70.8938639145682
 20
-127.7637776373299
 30
0.0
 10
70.8938639145682
 20
-127.7637776373299
 30
0.0
 10
70.8938639145682
 20
-126.9851860576634
 30
0.0
 10
70.8938639145682
 20
-126.9851860576634
 30
0.0
 10
70.8938639145682
 20
-126.9851860576634
 30
0.0
 10
71.08851180948481
 20
-126.9851860576634
 30
0.0
 10
71.08851180948481
 20
-126.9851860576634
 30
0.0
 10
71.08851180948481
 20
-126.9851860576634
 30
0.0
 10
71.08851180948481
 20
-127.6008246208776
 30
0.0
 10
71.08851180948481
 20
-127.6008246208776
 30
0.0
 10
71.08851180948481
 20
-127.6008246208776
 30
0.0
 10
71.5115695350735
 20
-127.6662814350973
 30
0.0
 10
71.5115695350735
 20
-127.6662814350973
 30
0.0
 10
71.47780759931806
 20
-127.6049587354599
 30
0.0
 10
71.43749998214062
 20
-127.5226209533624
 30
0.0
 10
71.43749998214062
 20
-127.4041096686698
 30
0.0
 10
71.43749998214062
 20
-127.1502061314069
 30
0.0
 10
71.62387964789265
 20
-126.9131835620217
 30
0.0
 10
71.93703882750185
 20
-126.9131835620217
 30
0.0
 10
72.25433212169337
 20
-126.9131835620217
 30
0.0
 10
72.48894312423887
 20
-127.1374592781115
 30
0.0
 10
72.48894312423887
 20
-127.4399386617164
 30
0.0
  0
HATCH
  5
173
330
162
100
AcDbEntity
  8
_U+30EC_U+30A4_U+30E4_U+30FC 1
 62
   179
420
  2234388
100
AcDbHatch
 10
0.0
 20
0.0
 30
0.0
210
0.0
220
0.0
230
1.0
  2
SOLID
 70
     1
 71
     0
 91
        1
 92
        1
 93
        1
 72
     4
 94
        3
 73
     0
 74
     1
 95
       53
 96
       49
 40
0.0
 40
0.0
 40
0.0
 40
0.0
 40
1.0
 40
1.0
 40
1.0
 40
2.0
 40
2.0
 40
2.0
 40
3.0
 40
3.0
 40
3.0
 40
4.0
 40
4.0
 40
4.0
 40
5.0
 40
5.0
 40
5.0
 40
6.0
 40
6.0
 40
6.0
 40
7.0
 40
7.0
 40
7.0
 40
8.0
 40
8.0
 40
8.0
 40
9.0
 40
9.0
 40
9.0
 40
10.0
 40
10.0
 40
10.0
 40
11.0
 40
11.0
 40
11.0
 40
12.0
 40
12.0
 40
12.0
 40
13.0
 40
13.0
 40
13.0
 40
14.0
 40
14.0
 40
14.0
 40
15.0
 40
15.0
 40
15.0
 40
16.0
 40
16.0
 40
16.0
 40
16.0
 10
72.48894312423887
 20
-127.4399386617164
 10
72.48894312423887
 20
-127.5181423292316
 10
72.47206215636115
 20
-127.6197726460465
 10
72.40867239943256
 20
-127.7214029628613
 10
72.29877385345308
 20
-127.8946912657694
 10
72.16751571546507
 20
-127.9160508577779
 10
72.05968422677675
 20
-127.9349988829468
 10
72.05968422677675
 20
-127.9349988829468
 10
72.05968422677675
 20
-127.7127902241482
 10
72.05968422677675
 20
-127.7127902241482
 10
72.25846623627567
 20
-127.6580132059327
 10
72.28809405744882
 20
-127.530889182527
 10
72.28809405744882
 20
-127.4378716044253
 10
72.28809405744882
 20
-127.2983452372726
 10
72.1885307979251
 20
-127.1460720168246
 10
71.95598685267073
 20
-127.1460720168246
 10
71.70001625811666
 20
-127.1460720168246
 10
71.63008081976609
 20
-127.3259060011546
 10
71.63008081976609
 20
-127.4464843431384
 10
71.63008081976609
 20
-127.4781792216027
 10
71.63008081976609
 20
-127.6197726460465
 10
71.75927190046296
 20
-127.7086561095659
 10
71.75927190046296
 20
-127.7086561095659
 10
71.7403238752941
 20
-127.8843559793136
 10
71.7403238752941
 20
-127.8843559793136
 10
71.7403238752941
 20
-127.8843559793136
 10
70.8938639145682
 20
-127.7637776373299
 10
70.8938639145682
 20
-127.7637776373299
 10
70.8938639145682
 20
-127.7637776373299
 10
70.8938639145682
 20
-126.9851860576634
 10
70.8938639145682
 20
-126.9851860576634
 10
70.8938639145682
 20
-126.9851860576634
 10
71.08851180948481
 20
-126.9851860576634
 10
71.08851180948481
 20
-126.9851860576634
 10
71.08851180948481
 20
-126.9851860576634
 10
71.08851180948481
 20
-127.6008246208776
 10
71.08851180948481
 20
-127.6008246208776
 10
71.08851180948481
 20
-127.6008246208776
 10
71.5115695350735
 20
-127.6662814350973
 10
71.5115695350735
 20
-127.6662814350973
 10
71.47780759931806
 20
-127.6049587354599
 10
71.43749998214062
 20
-127.5226209533624
 10
71.43749998214062
 20
-127.4041096686698
 10
71.43749998214062
 20
-127.1502061314069
 10
71.62387964789265
 20
-126.9131835620217
 10
71.93703882750185
 20
-126.9131835620217
 10
72.25433212169337
 20
-126.9131835620217
 10
72.48894312423887
 20
-127.1374592781115
 10
72.48894312423887
 20
-127.4399386617164
 97
        0
 97
        0
 75
     2
 76
     1
 98
        0
  0
ENDBLK
  5
165
330
162
100
AcDbEntity
  8
0
100
AcDbBlockEnd
  0
BLOCK
  5
182
330
180
100
AcDbEntity
  8
0
100
AcDbBlockBegin
  2
block 6
 70
     0
 10
0.0
 20
0.0
 30
0.0
  3
block 6
  1

  0
SPLINE
  5
184
330
180
100
AcDbEntity
  8
_U+30EC_U+30A4_U+30E4_U+30FC 1
370
     0
100
AcDbSpline
210
0.0
220
0.0
230
1.0
 70
    11
 71
     3
 72
    26
 73
    22
 74
     0
 42
0.0000000001
 43
0.0000000001
 12
1.0
 22
0.0
 32
0.0
 13
1.0
 23
0.0
 33
0.0
 40
0.0
 40
0.0
 40
0.0
 40
0.0
 40
1.0
 40
1.0
 40
1.0
 40
2.0
 40
2.0
 40
2.0
 40
3.0
 40
3.0
 40
3.0
 40
4.0
 40
4.0
 40
4.0
 40
5.0
 40
5.0
 40
5.0
 40
6.0
 40
6.0
 40
6.0
 40
7.0
 40
7.0
 40
7.0
 40
7.0
 10
88.82179631025983
 20
-118.6439208687765
 30
0.0
 10
88.82179631025983
 20
-118.6439208687765
 30
0.0
 10
88.82179631025983
 20
-117.539767765754
 30
0.0
 10
88.82179631025983
 20
-117.539767765754
 30
0.0
 10
88.82179631025983
 20
-117.539767765754
 30
0.0
 10
88.4917561627729
 20
-117.539767765754
 30
0.0
 10
88.4917561627729
 20
-117.539767765754
 30
0.0
 10
88.4917561627729
 20
-117.539767765754
 30
0.0
 10
88.4917561627729
 20
-117.3916286598882
 30
0.0
 10
88.4917561627729
 20
-117.3916286598882
 30
0.0
 10
88.82386336755098
 20
-117.3768147493016
 30
0.0
 10
88.87037215660186
 20
-117.2138617328493
 30
0.0
 10
88.89999997777501
 20
-117.099484562739
 30
0.0
 10
88.89999997777501
 20
-117.099484562739
 30
0.0
 10
89.04607202634959
 20
-117.099484562739
 30
0.0
 10
89.04607202634959
 20
-117.099484562739
 30
0.0
 10
89.04607202634959
 20
-117.099484562739
 30
0.0
 10
89.04607202634959
 20
-118.6439208687765
 30
0.0
 10
89.04607202634959
 20
-118.6439208687765
 30
0.0
 10
89.04607202634959
 20
-118.6439208687765
 30
0.0
 10
88.82179631025983
 20
-118.6439208687765
 30
0.0
 10
88.82179631025983
 20
-118.6439208687765
 30
0.0
  0
HATCH
  5
185
330
180
100
AcDbEntity
  8
_U+30EC_U+30A4_U+30E4_U+30FC 1
 62
   179
420
  2234388
100
AcDbHatch
 10
0.0
 20
0.0
 30
0.0
210
0.0
220
0.0
230
1.0
  2
SOLID
 70
     1
 71
     0
 91
        1
 92
        1
 93
        1
 72
     4
 94
        3
 73
     0
 74
     1
 95
       26
 96
       22
 40
0.0
 40
0.0
 40
0.0
 40
0.0
 40
1.0
 40
1.0
 40
1.0
 40
2.0
 40
2.0
 40
2.0
 40
3.0
 40
3.0
 40
3.0
 40
4.0
 40
4.0
 40
4.0
 40
5.0
 40
5.0
 40
5.0
 40
6.0
 40
6.0
 40
6.0
 40
7.0
 40
7.0
 40
7.0
 40
7.0
 10
88.82179631025983
 20
-118.6439208687765
 10
88.82179631025983
 20
-118.6439208687765
 10
88.82179631025983
 20
-117.539767765754
 10
88.82179631025983
 20
-117.539767765754
 10
88.82179631025983
 20
-117.539767765754
 10
88.4917561627729
 20
-117.539767765754
 10
88.4917561627729
 20
-117.539767765754
 10
88.4917561627729
 20
-117.539767765754
 10
88.4917561627729
 20
-117.3916286598882
 10
88.4917561627729
 20
-117.3916286598882
 10
88.82386336755098
 20
-117.3768147493016
 10
88.87037215660186
 20
-117.2138617328493
 10
88.89999997777501
 20
-117.099484562739
 10
88.89999997777501
 20
-117.099484562739
 10
89.04607202634959
 20
-117.099484562739
 10
89.04607202634959
 20
-117.099484562739
 10
89.04607202634959
 20
-117.099484562739
 10
89.04607202634959
 20
-118.6439208687765
 10
89.04607202634959
 20
-118.6439208687765
 10
89.04607202634959
 20
-118.6439208687765
 10
88.82179631025983
 20
-118.6439208687765
 10
88.82179631025983
 20
-118.6439208687765
 97
        0
 97
        0
 75
     2
 76
     1
 98
        0
  0
SPLINE
  5
186
330
180
100
AcDbEntity
  8
_U+30EC_U+30A4_U+30E4_U+30FC 1
370
     0
100
AcDbSpline
210
0.0
220
0.0
230
1.0
 70
    11
 71
     3
 72
    29
 73
    25
 74
     0
 42
0.0000000001
 43
0.0000000001
 12
1.0
 22
0.0
 32
0.0
 13
1.0
 23
0.0
 33
0.0
 40
0.0
 40
0.0
 40
0.0
 40
0.0
 40
1.0
 40
1.0
 40
1.0
 40
2.0
 40
2.0
 40
2.0
 40
3.0
 40
3.0
 40
3.0
 40
4.0
 40
4.0
 40
4.0
 40
5.0
 40
5.0
 40
5.0
 40
6.0
 40
6.0
 40
6.0
 40
7.0
 40
7.0
 40
7.0
 40
8.0
 40
8.0
 40
8.0
 40
8.0
 10
90.44512530290956
 20
-118.4661539417376
 30
0.0
 10
90.33694930467271
 20
-118.6756157472408
 30
0.0
 10
90.16366100176464
 20
-118.6945637724097
 30
0.0
 10
90.04721677436319
 20
-118.6945637724097
 30
0.0
 10
89.88633081520203
 20
-118.6945637724097
 30
0.0
 10
89.74473739075826
 20
-118.6480549833588
 30
0.0
 10
89.64965275536537
 20
-118.4661539417376
 30
0.0
 10
89.54595538125935
 20
-118.271506046821
 30
0.0
 10
89.52666284654195
 20
-118.0344834774358
 30
0.0
 10
89.52666284654195
 20
-117.871874970532
 30
0.0
 10
89.52666284654195
 20
-117.7278699792486
 30
0.0
 10
89.5438883239682
 20
-117.4760334992768
 30
0.0
 10
89.64965275536537
 20
-117.2772514897779
 30
0.0
 10
89.75748424405369
 20
-117.0743353656967
 30
0.0
 10
89.91837020321486
 20
-117.050908716397
 30
0.0
 10
90.04721677436319
 20
-117.050908716397
 30
0.0
 10
90.20603567623321
 20
-117.050908716397
 30
0.0
 10
90.34969615796814
 20
-117.0953504481567
 30
0.0
 10
90.44512530290956
 20
-117.2772514897779
 30
0.0
 10
90.54434405288475
 20
-117.4698323274034
 30
0.0
 10
90.56777070218445
 20
-117.6982421580754
 30
0.0
 10
90.56777070218445
 20
-117.871874970532
 30
0.0
 10
90.56777070218445
 20
-118.043096216149
 30
0.0
 10
90.5464111101759
 20
-118.2735731041122
 30
0.0
 10
90.44512530290956
 20
-118.4661539417376
 30
0.0
  0
SPLINE
  5
187
330
180
100
AcDbEntity
  8
_U+30EC_U+30A4_U+30E4_U+30FC 1
370
     0
100
AcDbSpline
210
0.0
220
0.0
230
1.0
 70
    11
 71
     3
 72
    17
 73
    13
 74
     0
 42
0.0000000001
 43
0.0000000001
 12
1.0
 22
0.0
 32
0.0
 13
1.0
 23
0.0
 33
0.0
 40
0.0
 40
0.0
 40
0.0
 40
0.0
 40
1.0
 40
1.0
 40
1.0
 40
2.0
 40
2.0
 40
2.0
 40
3.0
 40
3.0
 40
3.0
 40
4.0
 40
4.0
 40
4.0
 40
4.0
 10
90.04721677436319
 20
-117.2434895540225
 30
0.0
 10
89.79744735168259
 20
-117.2434895540225
 30
0.0
 10
89.75093856263172
 20
-117.5270209124585
 30
0.0
 10
89.75093856263172
 20
-117.871874970532
 30
0.0
 10
89.75093856263172
 20
-118.1912353220147
 30
0.0
 10
89.78711206522684
 20
-118.4999158774931
 30
0.0
 10
90.04721677436319
 20
-118.4999158774931
 30
0.0
 10
90.29491913975266
 20
-118.4999158774931
 30
0.0
 10
90.34349498609468
 20
-118.2187960858967
 30
0.0
 10
90.34349498609468
 20
-117.871874970532
 30
0.0
 10
90.34349498609468
 20
-117.5521701095008
 30
0.0
 10
90.3052544262084
 20
-117.2434895540225
 30
0.0
 10
90.04721677436319
 20
-117.2434895540225
 30
0.0
  0
HATCH
  5
188
330
180
100
AcDbEntity
  8
_U+30EC_U+30A4_U+30E4_U+30FC 1
 62
   179
420
  2234388
100
AcDbHatch
 10
0.0
 20
0.0
 30
0.0
210
0.0
220
0.0
230
1.0
  2
SOLID
 70
     1
 71
     0
 91
        2
 92
        1
 93
        1
 72
     4
 94
        3
 73
     0
 74
     1
 95
       29
 96
       25
 40
0.0
 40
0.0
 40
0.0
 40
0.0
 40
1.0
 40
1.0
 40
1.0
 40
2.0
 40
2.0
 40
2.0
 40
3.0
 40
3.0
 40
3.0
 40
4.0
 40
4.0
 40
4.0
 40
5.0
 40
5.0
 40
5.0
 40
6.0
 40
6.0
 40
6.0
 40
7.0
 40
7.0
 40
7.0
 40
8.0
 40
8.0
 40
8.0
 40
8.0
 10
90.44512530290956
 20
-118.4661539417376
 10
90.33694930467271
 20
-118.6756157472408
 10
90.16366100176464
 20
-118.6945637724097
 10
90.04721677436319
 20
-118.6945637724097
 10
89.88633081520203
 20
-118.6945637724097
 10
89.74473739075826
 20
-118.6480549833588
 10
89.64965275536537
 20
-118.4661539417376
 10
89.54595538125935
 20
-118.271506046821
 10
89.52666284654195
 20
-118.0344834774358
 10
89.52666284654195
 20
-117.871874970532
 10
89.52666284654195
 20
-117.7278699792486
 10
89.5438883239682
 20
-117.4760334992768
 10
89.64965275536537
 20
-117.2772514897779
 10
89.75748424405369
 20
-117.0743353656967
 10
89.91837020321486
 20
-117.050908716397
 10
90.04721677436319
 20
-117.050908716397
 10
90.20603567623321
 20
-117.050908716397
 10
90.34969615796814
 20
-117.0953504481567
 10
90.44512530290956
 20
-117.2772514897779
 10
90.54434405288475
 20
-117.4698323274034
 10
90.56777070218445
 20
-117.6982421580754
 10
90.56777070218445
 20
-117.871874970532
 10
90.56777070218445
 20
-118.043096216149
 10
90.5464111101759
 20
-118.2735731041122
 10
90.44512530290956
 20
-118.4661539417376
 97
        0
 97
        0
 92
        1
 93
        1
 72
     4
 94
        3
 73
     0
 74
     1
 95
       17
 96
       13
 40
0.0
 40
0.0
 40
0.0
 40
0.0
 40
1.0
 40
1.0
 40
1.0
 40
2.0
 40
2.0
 40
2.0
 40
3.0
 40
3.0
 40
3.0
 40
4.0
 40
4.0
 40
4.0
 40
4.0
 10
90.04721677436319
 20
-117.2434895540225
 10
89.79744735168259
 20
-117.2434895540225
 10
89.75093856263172
 20
-117.5270209124585
 10
89.75093856263172
 20
-117.871874970532
 10
89.75093856263172
 20
-118.1912353220147
 10
89.78711206522684
 20
-118.4999158774931
 10
90.04721677436319
 20
-118.4999158774931
 10
90.29491913975266
 20
-118.4999158774931
 10
90.34349498609468
 20
-118.2187960858967
 10
90.34349498609468
 20
-117.871874970532
 10
90.34349498609468
 20
-117.5521701095008
 10
90.3052544262084
 20
-117.2434895540225
 10
90.04721677436319
 20
-117.2434895540225
 97
        0
 97
        0
 75
     2
 76
     1
 98
        0
  0
ENDBLK
  5
183
330
180
100
AcDbEntity
  8
0
100
AcDbBlockEnd
  0
BLOCK
  5
197
330
195
100
AcDbEntity
  8
0
100
AcDbBlockBegin
  2
block 7
 70
     0
 10
0.0
 20
0.0
 30
0.0
  3
block 7
  1

  0
SPLINE
  5
199
330
195
100
AcDbEntity
  8
_U+30EC_U+30A4_U+30E4_U+30FC 1
370
     0
100
AcDbSpline
210
0.0
220
0.0
230
1.0
 70
    11
 71
     3
 72
    62
 73
    58
 74
     0
 42
0.0000000001
 43
0.0000000001
 12
1.0
 22
0.0
 32
0.0
 13
1.0
 23
0.0
 33
0.0
 40
0.0
 40
0.0
 40
0.0
 40
0.0
 40
1.0
 40
1.0
 40
1.0
 40
2.0
 40
2.0
 40
2.0
 40
3.0
 40
3.0
 40
3.0
 40
4.0
 40
4.0
 40
4.0
 40
5.0
 40
5.0
 40
5.0
 40
6.0
 40
6.0
 40
6.0
 40
7.0
 40
7.0
 40
7.0
 40
8.0
 40
8.0
 40
8.0
 40
9.0
 40
9.0
 40
9.0
 40
10.0
 40
10.0
 40
10.0
 40
11.0
 40
11.0
 40
11.0
 40
12.0
 40
12.0
 40
12.0
 40
13.0
 40
13.0
 40
13.0
 40
14.0
 40
14.0
 40
14.0
 40
15.0
 40
15.0
 40
15.0
 40
16.0
 40
16.0
 40
16.0
 40
17.0
 40
17.0
 40
17.0
 40
18.0
 40
18.0
 40
18.0
 40
19.0
 40
19.0
 40
19.0
 40
19.0
 10
81.91506888143095
 20
-118.6945637724097
 30
0.0
 10
81.81963973648953
 20
-118.6945637724097
 30
0.0
 10
81.60190970182175
 20
-118.6735486899497
 30
0.0
 10
81.47685273570718
 20
-118.4875135337462
 30
0.0
 10
81.40278318277431
 20
-118.375203420927
 30
0.0
 10
81.39864906819201
 20
-118.2759846709518
 30
0.0
 10
81.39451495360971
 20
-118.1912353220147
 30
0.0
 10
81.39451495360971
 20
-118.1912353220147
 30
0.0
 10
81.61465655511718
 20
-118.1912353220147
 30
0.0
 10
81.61465655511718
 20
-118.1912353220147
 30
0.0
 10
81.61672361240832
 20
-118.2653048749476
 30
0.0
 10
81.62705889886408
 20
-118.4999158774931
 30
0.0
 10
81.91059025730013
 20
-118.4999158774931
 30
0.0
 10
82.0480495671616
 20
-118.4999158774931
 30
0.0
 10
82.20066729715818
 20
-118.430324948691
 30
0.0
 10
82.20066729715818
 20
-118.201915118019
 30
0.0
 10
82.20066729715818
 20
-118.0854708906175
 30
0.0
 10
82.1624267372719
 20
-118.0368950442755
 30
0.0
 10
82.1307318588076
 20
-118.0052001658112
 30
0.0
 10
82.05666230587472
 20
-117.9311306128783
 30
0.0
 10
81.94021807847328
 20
-117.9183837595829
 30
0.0
 10
81.8854410602578
 20
-117.9183837595829
 30
0.0
 10
81.86614852554041
 20
-117.9183837595829
 30
0.0
 10
81.83031953249382
 20
-117.9204508168741
 30
0.0
 10
81.80275876861181
 20
-117.9245849314564
 30
0.0
 10
81.80275876861181
 20
-117.9245849314564
 30
0.0
 10
81.80275876861181
 20
-117.7299370365397
 30
0.0
 10
81.80275876861181
 20
-117.7299370365397
 30
0.0
 10
81.84099932849809
 20
-117.7364827179617
 30
0.0
 10
81.88302949341814
 20
-117.7385497752529
 30
0.0
 10
81.8895751748401
 20
-117.7385497752529
 30
0.0
 10
81.95503198905986
 20
-117.7385497752529
 30
0.0
 10
82.15381399855877
 20
-117.7171901832443
 30
0.0
 10
82.15381399855877
 20
-117.4805121234076
 30
0.0
 10
82.15381399855877
 20
-117.3027451963688
 30
0.0
 10
82.02290037011927
 20
-117.2476236686048
 30
0.0
 10
81.91265731459129
 20
-117.2476236686048
 30
0.0
 10
81.64841849087261
 20
-117.2476236686048
 30
0.0
 10
81.6398057521595
 20
-117.4805121234076
 30
0.0
 10
81.6356716375772
 20
-117.5521701095008
 30
0.0
 10
81.6356716375772
 20
-117.5521701095008
 30
0.0
 10
81.43241100394745
 20
-117.5521701095008
 30
0.0
 10
81.43241100394745
 20
-117.5521701095008
 30
0.0
 10
81.44102374266058
 20
-117.4274576529348
 30
0.0
 10
81.46858450654258
 20
-117.050908716397
 30
0.0
 10
81.92540416788671
 20
-117.050908716397
 30
0.0
 10
82.14967988397648
 20
-117.050908716397
 30
0.0
 10
82.39083656794396
 20
-117.1780327398027
 30
0.0
 10
82.39083656794396
 20
-117.4739664419857
 30
0.0
 10
82.39083656794396
 20
-117.6603461077377
 30
0.0
 10
82.29575193255107
 20
-117.7426838898352
 30
0.0
 10
82.19618867302735
 20
-117.8040065894726
 30
0.0
 10
82.2575113726648
 20
-117.8315673533546
 30
0.0
 10
82.43941241428598
 20
-117.9118380781609
 30
0.0
 10
82.43941241428598
 20
-118.1891682647235
 30
0.0
 10
82.43941241428598
 20
-118.5274766413751
 30
0.0
 10
82.19205455844505
 20
-118.6945637724097
 30
0.0
 10
81.91506888143095
 20
-118.6945637724097
 30
0.0
  0
HATCH
  5
19A
330
195
100
AcDbEntity
  8
_U+30EC_U+30A4_U+30E4_U+30FC 1
 62
   179
420
  2234388
100
AcDbHatch
 10
0.0
 20
0.0
 30
0.0
210
0.0
220
0.0
230
1.0
  2
SOLID
 70
     1
 71
     0
 91
        1
 92
        1
 93
        1
 72
     4
 94
        3
 73
     0
 74
     1
 95
       62
 96
       58
 40
0.0
 40
0.0
 40
0.0
 40
0.0
 40
1.0
 40
1.0
 40
1.0
 40
2.0
 40
2.0
 40
2.0
 40
3.0
 40
3.0
 40
3.0
 40
4.0
 40
4.0
 40
4.0
 40
5.0
 40
5.0
 40
5.0
 40
6.0
 40
6.0
 40
6.0
 40
7.0
 40
7.0
 40
7.0
 40
8.0
 40
8.0
 40
8.0
 40
9.0
 40
9.0
 40
9.0
 40
10.0
 40
10.0
 40
10.0
 40
11.0
 40
11.0
 40
11.0
 40
12.0
 40
12.0
 40
12.0
 40
13.0
 40
13.0
 40
13.0
 40
14.0
 40
14.0
 40
14.0
 40
15.0
 40
15.0
 40
15.0
 40
16.0
 40
16.0
 40
16.0
 40
17.0
 40
17.0
 40
17.0
 40
18.0
 40
18.0
 40
18.0
 40
19.0
 40
19.0
 40
19.0
 40
19.0
 10
81.91506888143095
 20
-118.6945637724097
 10
81.81963973648953
 20
-118.6945637724097
 10
81.60190970182175
 20
-118.6735486899497
 10
81.47685273570718
 20
-118.4875135337462
 10
81.40278318277431
 20
-118.375203420927
 10
81.39864906819201
 20
-118.2759846709518
 10
81.39451495360971
 20
-118.1912353220147
 10
81.39451495360971
 20
-118.1912353220147
 10
81.61465655511718
 20
-118.1912353220147
 10
81.61465655511718
 20
-118.1912353220147
 10
81.61672361240832
 20
-118.2653048749476
 10
81.62705889886408
 20
-118.4999158774931
 10
81.91059025730013
 20
-118.4999158774931
 10
82.0480495671616
 20
-118.4999158774931
 10
82.20066729715818
 20
-118.430324948691
 10
82.20066729715818
 20
-118.201915118019
 10
82.20066729715818
 20
-118.0854708906175
 10
82.1624267372719
 20
-118.0368950442755
 10
82.1307318588076
 20
-118.0052001658112
 10
82.05666230587472
 20
-117.9311306128783
 10
81.94021807847328
 20
-117.9183837595829
 10
81.8854410602578
 20
-117.9183837595829
 10
81.86614852554041
 20
-117.9183837595829
 10
81.83031953249382
 20
-117.9204508168741
 10
81.80275876861181
 20
-117.9245849314564
 10
81.80275876861181
 20
-117.9245849314564
 10
81.80275876861181
 20
-117.7299370365397
 10
81.80275876861181
 20
-117.7299370365397
 10
81.84099932849809
 20
-117.7364827179617
 10
81.88302949341814
 20
-117.7385497752529
 10
81.8895751748401
 20
-117.7385497752529
 10
81.95503198905986
 20
-117.7385497752529
 10
82.15381399855877
 20
-117.7171901832443
 10
82.15381399855877
 20
-117.4805121234076
 10
82.15381399855877
 20
-117.3027451963688
 10
82.02290037011927
 20
-117.2476236686048
 10
81.91265731459129
 20
-117.2476236686048
 10
81.64841849087261
 20
-117.2476236686048
 10
81.6398057521595
 20
-117.4805121234076
 10
81.6356716375772
 20
-117.5521701095008
 10
81.6356716375772
 20
-117.5521701095008
 10
81.43241100394745
 20
-117.5521701095008
 10
81.43241100394745
 20
-117.5521701095008
 10
81.44102374266058
 20
-117.4274576529348
 10
81.46858450654258
 20
-117.050908716397
 10
81.92540416788671
 20
-117.050908716397
 10
82.14967988397648
 20
-117.050908716397
 10
82.39083656794396
 20
-117.1780327398027
 10
82.39083656794396
 20
-117.4739664419857
 10
82.39083656794396
 20
-117.6603461077377
 10
82.29575193255107
 20
-117.7426838898352
 10
82.19618867302735
 20
-117.8040065894726
 10
82.2575113726648
 20
-117.8315673533546
 10
82.43941241428598
 20
-117.9118380781609
 10
82.43941241428598
 20
-118.1891682647235
 10
82.43941241428598
 20
-118.5274766413751
 10
82.19205455844505
 20
-118.6945637724097
 10
81.91506888143095
 20
-118.6945637724097
 97
        0
 97
        0
 75
     2
 76
     1
 98
        0
  0
POLYLINE
  5
19B
330
195
100
AcDbEntity
  8
_U+30EC_U+30A4_U+30E4_U+30FC 1
370
     0
100
AcDb2dPolyline
 66
     1
 10
0.0
 20
0.0
 30
0.0
  0
VERTEX
  5
19C
330
19B
100
AcDbEntity
  8
_U+30EC_U+30A4_U+30E4_U+30FC 1
370
     0
100
AcDbVertex
100
AcDb2dVertex
 10
82.6602430348905
 20
-118.6439208687765
 30
0.0
  0
VERTEX
  5
19D
330
19B
100
AcDbEntity
  8
_U+30EC_U+30A4_U+30E4_U+30FC 1
370
     0
100
AcDbVertex
100
AcDb2dVertex
 10
82.6602430348905
 20
-118.3920843888048
 30
0.0
  0
VERTEX
  5
19E
330
19B
100
AcDbEntity
  8
_U+30EC_U+30A4_U+30E4_U+30FC 1
370
     0
100
AcDbVertex
100
AcDb2dVertex
 10
82.91207951486226
 20
-118.3920843888048
 30
0.0
  0
VERTEX
  5
19F
330
19B
100
AcDbEntity
  8
_U+30EC_U+30A4_U+30E4_U+30FC 1
370
     0
100
AcDbVertex
100
AcDb2dVertex
 10
82.91207951486226
 20
-118.6439208687765
 30
0.0
  0
VERTEX
  5
1A0
330
19B
100
AcDbEntity
  8
_U+30EC_U+30A4_U+30E4_U+30FC 1
370
     0
100
AcDbVertex
100
AcDb2dVertex
 10
82.6602430348905
 20
-118.6439208687765
 30
0.0
  0
SEQEND
  5
1A1
330
19B
100
AcDbEntity
  8
_U+30EC_U+30A4_U+30E4_U+30FC 1
370
     0
  0
HATCH
  5
1A2
330
195
100
AcDbEntity
  8
_U+30EC_U+30A4_U+30E4_U+30FC 1
 62
   179
420
  2234388
100
AcDbHatch
 10
0.0
 20
0.0
 30
0.0
210
0.0
220
0.0
230
1.0
  2
SOLID
 70
     1
 71
     0
 91
        1
 92
        1
 93
        4
 72
     1
 10
82.6602430348905
 20
-118.6439208687765
 11
82.6602430348905
 21
-118.3920843888048
 72
     1
 10
82.6602430348905
 20
-118.3920843888048
 11
82.91207951486226
 21
-118.3920843888048
 72
     1
 10
82.91207951486226
 20
-118.3920843888048
 11
82.91207951486226
 21
-118.6439208687765
 72
     1
 10
82.91207951486226
 20
-118.6439208687765
 11
82.6602430348905
 21
-118.6439208687765
 97
        0
 75
     2
 76
     1
 98
        0
  0
SPLINE
  5
1A3
330
195
100
AcDbEntity
  8
_U+30EC_U+30A4_U+30E4_U+30FC 1
370
     0
100
AcDbSpline
210
0.0
220
0.0
230
1.0
 70
    11
 71
     3
 72
    53
 73
    49
 74
     0
 42
0.0000000001
 43
0.0000000001
 12
1.0
 22
0.0
 32
0.0
 13
1.0
 23
0.0
 33
0.0
 40
0.0
 40
0.0
 40
0.0
 40
0.0
 40
1.0
 40
1.0
 40
1.0
 40
2.0
 40
2.0
 40
2.0
 40
3.0
 40
3.0
 40
3.0
 40
4.0
 40
4.0
 40
4.0
 40
5.0
 40
5.0
 40
5.0
 40
6.0
 40
6.0
 40
6.0
 40
7.0
 40
7.0
 40
7.0
 40
8.0
 40
8.0
 40
8.0
 40
9.0
 40
9.0
 40
9.0
 40
10.0
 40
10.0
 40
10.0
 40
11.0
 40
11.0
 40
11.0
 40
12.0
 40
12.0
 40
12.0
 40
13.0
 40
13.0
 40
13.0
 40
14.0
 40
14.0
 40
14.0
 40
15.0
 40
15.0
 40
15.0
 40
16.0
 40
16.0
 40
16.0
 40
16.0
 10
83.62934839489128
 20
-118.6945637724097
 30
0.0
 10
83.55114472737611
 20
-118.6945637724097
 30
0.0
 10
83.44951441056124
 20
-118.677682804532
 30
0.0
 10
83.34788409374637
 20
-118.6142930476034
 30
0.0
 10
83.1745957908383
 20
-118.5043945016239
 30
0.0
 10
83.15323619882975
 20
-118.3731363636359
 30
0.0
 10
83.13428817366088
 20
-118.2653048749476
 30
0.0
 10
83.13428817366088
 20
-118.2653048749476
 30
0.0
 10
83.35649683245948
 20
-118.2653048749476
 30
0.0
 10
83.35649683245948
 20
-118.2653048749476
 30
0.0
 10
83.41127385067496
 20
-118.4640868844465
 30
0.0
 10
83.53839787408069
 20
-118.4937147056196
 30
0.0
 10
83.63141545218242
 20
-118.4937147056196
 30
0.0
 10
83.77094181933505
 20
-118.4937147056196
 30
0.0
 10
83.92321503978309
 20
-118.3941514460959
 30
0.0
 10
83.92321503978309
 20
-118.1616075008416
 30
0.0
 10
83.92321503978309
 20
-117.9056369062875
 30
0.0
 10
83.74338105545304
 20
-117.8357014679369
 30
0.0
 10
83.6228027134693
 20
-117.8357014679369
 30
0.0
 10
83.591107835005
 20
-117.8357014679369
 30
0.0
 10
83.44951441056124
 20
-117.8357014679369
 30
0.0
 10
83.36063094704178
 20
-117.9648925486338
 30
0.0
 10
83.36063094704178
 20
-117.9648925486338
 30
0.0
 10
83.18493107729405
 20
-117.9459445234649
 30
0.0
 10
83.18493107729405
 20
-117.9459445234649
 30
0.0
 10
83.18493107729405
 20
-117.9459445234649
 30
0.0
 10
83.3055094192778
 20
-117.099484562739
 30
0.0
 10
83.3055094192778
 20
-117.099484562739
 30
0.0
 10
83.3055094192778
 20
-117.099484562739
 30
0.0
 10
84.08410099894425
 20
-117.099484562739
 30
0.0
 10
84.08410099894425
 20
-117.099484562739
 30
0.0
 10
84.08410099894425
 20
-117.099484562739
 30
0.0
 10
84.08410099894425
 20
-117.2941324576556
 30
0.0
 10
84.08410099894425
 20
-117.2941324576556
 30
0.0
 10
84.08410099894425
 20
-117.2941324576556
 30
0.0
 10
83.46846243573012
 20
-117.2941324576556
 30
0.0
 10
83.46846243573012
 20
-117.2941324576556
 30
0.0
 10
83.46846243573012
 20
-117.2941324576556
 30
0.0
 10
83.40300562151036
 20
-117.7171901832443
 30
0.0
 10
83.40300562151036
 20
-117.7171901832443
 30
0.0
 10
83.4643283211478
 20
-117.6834282474889
 30
0.0
 10
83.54666610324529
 20
-117.6431206303114
 30
0.0
 10
83.66517738793787
 20
-117.6431206303114
 30
0.0
 10
83.91908092520079
 20
-117.6431206303114
 30
0.0
 10
84.15610349458598
 20
-117.8295002960635
 30
0.0
 10
84.15610349458598
 20
-118.1426594756727
 30
0.0
 10
84.15610349458598
 20
-118.4599527698642
 30
0.0
 10
83.93182777849621
 20
-118.6945637724097
 30
0.0
 10
83.62934839489128
 20
-118.6945637724097
 30
0.0
  0
HATCH
  5
1A4
330
195
100
AcDbEntity
  8
_U+30EC_U+30A4_U+30E4_U+30FC 1
 62
   179
420
  2234388
100
AcDbHatch
 10
0.0
 20
0.0
 30
0.0
210
0.0
220
0.0
230
1.0
  2
SOLID
 70
     1
 71
     0
 91
        1
 92
        1
 93
        1
 72
     4
 94
        3
 73
     0
 74
     1
 95
       53
 96
       49
 40
0.0
 40
0.0
 40
0.0
 40
0.0
 40
1.0
 40
1.0
 40
1.0
 40
2.0
 40
2.0
 40
2.0
 40
3.0
 40
3.0
 40
3.0
 40
4.0
 40
4.0
 40
4.0
 40
5.0
 40
5.0
 40
5.0
 40
6.0
 40
6.0
 40
6.0
 40
7.0
 40
7.0
 40
7.0
 40
8.0
 40
8.0
 40
8.0
 40
9.0
 40
9.0
 40
9.0
 40
10.0
 40
10.0
 40
10.0
 40
11.0
 40
11.0
 40
11.0
 40
12.0
 40
12.0
 40
12.0
 40
13.0
 40
13.0
 40
13.0
 40
14.0
 40
14.0
 40
14.0
 40
15.0
 40
15.0
 40
15.0
 40
16.0
 40
16.0
 40
16.0
 40
16.0
 10
83.62934839489128
 20
-118.6945637724097
 10
83.55114472737611
 20
-118.6945637724097
 10
83.44951441056124
 20
-118.677682804532
 10
83.34788409374637
 20
-118.6142930476034
 10
83.1745957908383
 20
-118.5043945016239
 10
83.15323619882975
 20
-118.3731363636359
 10
83.13428817366088
 20
-118.2653048749476
 10
83.13428817366088
 20
-118.2653048749476
 10
83.35649683245948
 20
-118.2653048749476
 10
83.35649683245948
 20
-118.2653048749476
 10
83.41127385067496
 20
-118.4640868844465
 10
83.53839787408069
 20
-118.4937147056196
 10
83.63141545218242
 20
-118.4937147056196
 10
83.77094181933505
 20
-118.4937147056196
 10
83.92321503978309
 20
-118.3941514460959
 10
83.92321503978309
 20
-118.1616075008416
 10
83.92321503978309
 20
-117.9056369062875
 10
83.74338105545304
 20
-117.8357014679369
 10
83.6228027134693
 20
-117.8357014679369
 10
83.591107835005
 20
-117.8357014679369
 10
83.44951441056124
 20
-117.8357014679369
 10
83.36063094704178
 20
-117.9648925486338
 10
83.36063094704178
 20
-117.9648925486338
 10
83.18493107729405
 20
-117.9459445234649
 10
83.18493107729405
 20
-117.9459445234649
 10
83.18493107729405
 20
-117.9459445234649
 10
83.3055094192778
 20
-117.099484562739
 10
83.3055094192778
 20
-117.099484562739
 10
83.3055094192778
 20
-117.099484562739
 10
84.08410099894425
 20
-117.099484562739
 10
84.08410099894425
 20
-117.099484562739
 10
84.08410099894425
 20
-117.099484562739
 10
84.08410099894425
 20
-117.2941324576556
 10
84.08410099894425
 20
-117.2941324576556
 10
84.08410099894425
 20
-117.2941324576556
 10
83.46846243573012
 20
-117.2941324576556
 10
83.46846243573012
 20
-117.2941324576556
 10
83.46846243573012
 20
-117.2941324576556
 10
83.40300562151036
 20
-117.7171901832443
 10
83.40300562151036
 20
-117.7171901832443
 10
83.4643283211478
 20
-117.6834282474889
 10
83.54666610324529
 20
-117.6431206303114
 10
83.66517738793787
 20
-117.6431206303114
 10
83.91908092520079
 20
-117.6431206303114
 10
84.15610349458598
 20
-117.8295002960635
 10
84.15610349458598
 20
-118.1426594756727
 10
84.15610349458598
 20
-118.4599527698642
 10
83.93182777849621
 20
-118.6945637724097
 10
83.62934839489128
 20
-118.6945637724097
 97
        0
 97
        0
 75
     2
 76
     1
 98
        0
  0
ENDBLK
  5
198
330
195
100
AcDbEntity
  8
0
100
AcDbBlockEnd
  0
ENDSEC
  0
SECTION
  2
ENTITIES
  0
SPLINE
  5
41
330
1F
100
AcDbEntity
  8
_U+30EC_U+30A4_U+30E4_U+30FC 1
370
     0
100
AcDbSpline
210
0.0
220
0.0
230
1.0
 70
    11
 71
     3
 72
   173
 73
   169
 74
     0
 42
0.0000000001
 43
0.0000000001
 12
1.0
 22
0.0
 32
0.0
 13
1.0
 23
0.0
 33
0.0
 40
0.0
 40
0.0
 40
0.0
 40
0.0
 40
1.0
 40
1.0
 40
1.0
 40
2.0
 40
2.0
 40
2.0
 40
3.0
 40
3.0
 40
3.0
 40
4.0
 40
4.0
 40
4.0
 40
5.0
 40
5.0
 40
5.0
 40
6.0
 40
6.0
 40
6.0
 40
7.0
 40
7.0
 40
7.0
 40
8.0
 40
8.0
 40
8.0
 40
9.0
 40
9.0
 40
9.0
 40
10.0
 40
10.0
 40
10.0
 40
11.0
 40
11.0
 40
11.0
 40
12.0
 40
12.0
 40
12.0
 40
13.0
 40
13.0
 40
13.0
 40
14.0
 40
14.0
 40
14.0
 40
15.0
 40
15.0
 40
15.0
 40
16.0
 40
16.0
 40
16.0
 40
17.0
 40
17.0
 40
17.0
 40
18.0
 40
18.0
 40
18.0
 40
19.0
 40
19.0
 40
19.0
 40
20.0
 40
20.0
 40
20.0
 40
21.0
 40
21.0
 40
21.0
 40
22.0
 40
22.0
 40
22.0
 40
23.0
 40
23.0
 40
23.0
 40
24.0
 40
24.0
 40
24.0
 40
25.0
 40
25.0
 40
25.0
 40
26.0
 40
26.0
 40
26.0
 40
27.0
 40
27.0
 40
27.0
 40
28.0
 40
28.0
 40
28.0
 40
29.0
 40
29.0
 40
29.0
 40
30.0
 40
30.0
 40
30.0
 40
31.0
 40
31.0
 40
31.0
 40
32.0
 40
32.0
 40
32.0
 40
33.0
 40
33.0
 40
33.0
 40
34.0
 40
34.0
 40
34.0
 40
35.0
 40
35.0
 40
35.0
 40
36.0
 40
36.0
 40
36.0
 40
37.0
 40
37.0
 40
37.0
 40
38.0
 40
38.0
 40
38.0
 40
39.0
 40
39.0
 40
39.0
 40
40.0
 40
40.0
 40
40.0
 40
41.0
 40
41.0
 40
41.0
 40
42.0
 40
42.0
 40
42.0
 40
43.0
 40
43.0
 40
43.0
 40
44.0
 40
44.0
 40
44.0
 40
45.0
 40
45.0
 40
45.0
 40
46.0
 40
46.0
 40
46.0
 40
47.0
 40
47.0
 40
47.0
 40
48.0
 40
48.0
 40
48.0
 40
49.0
 40
49.0
 40
49.0
 40
50.0
 40
50.0
 40
50.0
 40
51.0
 40
51.0
 40
51.0
 40
52.0
 40
52.0
 40
52.0
 40
53.0
 40
53.0
 40
53.0
 40
54.0
 40
54.0
 40
54.0
 40
55.0
 40
55.0
 40
55.0
 40
56.0
 40
56.0
 40
56.0
 40
56.0
 10
84.53472775664417
 20
-130.2511294118816
 30
0.0
 10
87.12541972168981
 20
-127.7492999680626
 30
0.0
 10
90.33555630645907
 20
-125.9819891351712
 30
0.0
 10
93.83475899496474
 20
-125.1303483020508
 30
0.0
 10
93.83475899496474
 20
-125.1303483020508
 30
0.0
 10
94.53481119932715
 20
-126.1397513573539
 30
0.0
 10
94.53481119932715
 20
-126.1397513573539
 30
0.0
 10
94.53481119932715
 20
-126.1397513573539
 30
0.0
 10
94.53481119932715
 20
-123.2400238580789
 30
0.0
 10
94.53481119932715
 20
-123.2400238580789
 30
0.0
 10
94.06314732247141
 20
-123.3292413580565
 30
0.0
 10
93.594270389989
 20
-123.4343338580304
 30
0.0
 10
93.12955623517819
 20
-123.554560524667
 30
0.0
 10
93.12955623517819
 20
-123.554560524667
 30
0.0
 10
92.97726207239687
 20
-124.3197002466978
 30
0.0
 10
92.97726207239687
 20
-124.3197002466978
 30
0.0
 10
92.97726207239687
 20
-124.3197002466978
 30
0.0
 10
92.45465708572964
 20
-123.7405802468426
 30
0.0
 10
92.45465708572964
 20
-123.7405802468426
 30
0.0
 10
91.85073682335914
 20
-123.9173219134651
 30
0.0
 10
91.2540485052486
 20
-124.1202396911923
 30
0.0
 10
90.66766129798636
 20
-124.3479577466908
 30
0.0
 10
90.66766129798636
 20
-124.3479577466908
 30
0.0
 10
90.60599574400403
 20
-125.1255152464963
 30
0.0
 10
90.60599574400403
 20
-125.1255152464963
 30
0.0
 10
90.60599574400403
 20
-125.1255152464963
 30
0.0
 10
90.01932631452677
 20
-124.6118708021802
 30
0.0
 10
90.01932631452677
 20
-124.6118708021802
 30
0.0
 10
89.43537327386909
 20
-124.8602616354515
 30
0.0
 10
88.86246217737417
 20
-125.134123024272
 30
0.0
 10
88.30228635833211
 20
-125.4321496908642
 30
0.0
 10
88.30228635833211
 20
-125.4321496908642
 30
0.0
 10
88.33329552420766
 20
-126.2114005240029
 30
0.0
 10
88.33329552420766
 20
-126.2114005240029
 30
0.0
 10
88.33329552420766
 20
-126.2114005240029
 30
0.0
 10
87.68972304062656
 20
-125.7704283018909
 30
0.0
 10
87.68972304062656
 20
-125.7704283018909
 30
0.0
 10
87.13233416595784
 20
-126.0901508018108
 30
0.0
 10
86.58902112426337
 20
-126.4343208017247
 30
0.0
 10
86.06158308216388
 20
-126.8015624682996
 30
0.0
 10
86.06158308216388
 20
-126.8015624682996
 30
0.0
 10
86.18526696789732
 20
-127.5718880236627
 30
0.0
 10
86.18526696789732
 20
-127.5718880236627
 30
0.0
 10
86.18526696789732
 20
-127.5718880236627
 30
0.0
 10
85.4938225410931
 20
-127.2108552459752
 30
0.0
 10
85.4938225410931
 20
-127.2108552459752
 30
0.0
 10
83.80228841758107
 20
-128.47069524566
 30
0.0
 10
82.30023331275841
 20
-129.9679546897302
 30
0.0
 10
81.03449987708211
 20
-131.6553613559749
 30
0.0
 10
81.03449987708211
 20
-131.6553613559749
 30
0.0
 10
81.03449987708211
 20
-134.7400855218704
 30
0.0
 10
81.03449987708211
 20
-134.7400855218704
 30
0.0
 10
81.53713764203654
 20
-133.865725799867
 30
0.0
 10
82.10387512757787
 20
-133.0299599667426
 30
0.0
 10
82.73086705602641
 20
-132.239984689162
 30
0.0
 10
82.73086705602641
 20
-132.239984689162
 30
0.0
 10
83.53495553467195
 20
-132.239984689162
 30
0.0
 10
83.53495553467195
 20
-132.239984689162
 30
0.0
 10
83.53495553467195
 20
-132.239984689162
 30
0.0
 10
83.53495553467195
 20
-134.7400855218704
 30
0.0
 10
83.53495553467195
 20
-134.7400855218704
 30
0.0
 10
83.53495553467195
 20
-134.7400855218704
 30
0.0
 10
84.73453894935292
 20
-134.7400855218704
 30
0.0
 10
84.73453894935292
 20
-134.7400855218704
 30
0.0
 10
84.73453894935292
 20
-134.7400855218704
 30
0.0
 10
85.465565041814
 20
-134.1399752442425
 30
0.0
 10
85.465565041814
 20
-134.1399752442425
 30
0.0
 10
85.465565041814
 20
-134.1399752442425
 30
0.0
 10
86.19627363428319
 20
-134.7400855218704
 30
0.0
 10
86.19627363428319
 20
-134.7400855218704
 30
0.0
 10
86.19627363428319
 20
-134.7400855218704
 30
0.0
 10
86.92698222675237
 20
-134.1399752442425
 30
0.0
 10
86.92698222675237
 20
-134.1399752442425
 30
0.0
 10
86.92698222675237
 20
-134.1399752442425
 30
0.0
 10
87.65804359699032
 20
-134.7400855218704
 30
0.0
 10
87.65804359699032
 20
-134.7400855218704
 30
0.0
 10
87.65804359699032
 20
-134.7400855218704
 30
0.0
 10
88.38839941169073
 20
-134.1399752442425
 30
0.0
 10
88.38839941169073
 20
-134.1399752442425
 30
0.0
 10
88.38839941169073
 20
-134.1399752442425
 30
0.0
 10
89.1194607819287
 20
-134.7400855218704
 30
0.0
 10
89.1194607819287
 20
-134.7400855218704
 30
0.0
 10
89.1194607819287
 20
-134.7400855218704
 30
0.0
 10
89.85016937439788
 20
-134.1399752442425
 30
0.0
 10
89.85016937439788
 20
-134.1399752442425
 30
0.0
 10
89.85016937439788
 20
-134.1399752442425
 30
0.0
 10
90.58084268909018
 20
-134.7400855218704
 30
0.0
 10
90.58084268909018
 20
-134.7400855218704
 30
0.0
 10
90.58084268909018
 20
-134.7400855218704
 30
0.0
 10
91.31155128155936
 20
-134.1399752442425
 30
0.0
 10
91.31155128155936
 20
-134.1399752442425
 30
0.0
 10
91.31155128155936
 20
-134.1399752442425
 30
0.0
 10
92.04225987402855
 20
-134.7400855218704
 30
0.0
 10
92.04225987402855
 20
-134.7400855218704
 30
0.0
 10
92.04225987402855
 20
-134.7400855218704
 30
0.0
 10
92.7733212442665
 20
-134.1399752442425
 30
0.0
 10
92.7733212442665
 20
-134.1399752442425
 30
0.0
 10
92.7733212442665
 20
-134.1399752442425
 30
0.0
 10
93.50402983673568
 20
-134.7400855218704
 30
0.0
 10
93.50402983673568
 20
-134.7400855218704
 30
0.0
 10
93.50402983673568
 20
-134.7400855218704
 30
0.0
 10
94.23473842920487
 20
-134.1399752442425
 30
0.0
 10
94.23473842920487
 20
-134.1399752442425
 30
0.0
 10
94.23473842920487
 20
-134.1399752442425
 30
0.0
 10
94.96544702167405
 20
-134.7400855218704
 30
0.0
 10
94.96544702167405
 20
-134.7400855218704
 30
0.0
 10
94.96544702167405
 20
-134.7400855218704
 30
0.0
 10
95.69612033636635
 20
-134.1399752442425
 30
0.0
 10
95.69612033636635
 20
-134.1399752442425
 30
0.0
 10
95.69612033636635
 20
-134.1399752442425
 30
0.0
 10
96.42718170660432
 20
-134.7400855218704
 30
0.0
 10
96.42718170660432
 20
-134.7400855218704
 30
0.0
 10
96.42718170660432
 20
-134.7400855218704
 30
0.0
 10
97.1578902990735
 20
-134.1399752442425
 30
0.0
 10
97.1578902990735
 20
-134.1399752442425
 30
0.0
 10
97.1578902990735
 20
-134.1399752442425
 30
0.0
 10
97.88859889154267
 20
-134.7400855218704
 30
0.0
 10
97.88859889154267
 20
-134.7400855218704
 30
0.0
 10
97.88859889154267
 20
-134.7400855218704
 30
0.0
 10
98.61930748401186
 20
-134.1399752442425
 30
0.0
 10
98.61930748401186
 20
-134.1399752442425
 30
0.0
 10
98.61930748401186
 20
-134.1399752442425
 30
0.0
 10
99.35001607648104
 20
-134.7400855218704
 30
0.0
 10
99.35001607648104
 20
-134.7400855218704
 30
0.0
 10
99.35001607648104
 20
-134.7400855218704
 30
0.0
 10
100.0810421689421
 20
-134.1399752442425
 30
0.0
 10
100.0810421689421
 20
-134.1399752442425
 30
0.0
 10
100.0810421689421
 20
-134.1399752442425
 30
0.0
 10
100.8117507614113
 20
-134.7400855218704
 30
0.0
 10
100.8117507614113
 20
-134.7400855218704
 30
0.0
 10
100.8117507614113
 20
-134.7400855218704
 30
0.0
 10
101.5424593538805
 20
-134.1399752442425
 30
0.0
 10
101.5424593538805
 20
-134.1399752442425
 30
0.0
 10
101.5424593538805
 20
-134.1399752442425
 30
0.0
 10
102.2731679463497
 20
-134.7400855218704
 30
0.0
 10
102.2731679463497
 20
-134.7400855218704
 30
0.0
 10
102.2731679463497
 20
-134.7400855218704
 30
0.0
 10
103.0038765388188
 20
-134.1399752442425
 30
0.0
 10
103.0038765388188
 20
-134.1399752442425
 30
0.0
 10
103.0038765388188
 20
-134.1399752442425
 30
0.0
 10
103.734585131288
 20
-134.7400855218704
 30
0.0
 10
103.734585131288
 20
-134.7400855218704
 30
0.0
 10
103.734585131288
 20
-134.7400855218704
 30
0.0
 10
109.0348594405112
 20
-134.7400855218704
 30
0.0
 10
109.0348594405112
 20
-134.7400855218704
 30
0.0
 10
109.0348594405112
 20
-134.7400855218704
 30
0.0
 10
109.0348594405112
 20
-133.7399957998982
 30
0.0
 10
109.0348594405112
 20
-133.7399957998982
 30
0.0
 10
109.0348594405112
 20
-133.7399957998982
 30
0.0
 10
96.02928608710405
 20
-133.7399957998982
 30
0.0
 10
96.02928608710405
 20
-133.7399957998982
 30
0.0
 10
96.02928608710405
 20
-133.7399957998982
 30
0.0
 10
96.02928608710405
 20
-132.6409871890621
 30
0.0
 10
96.02928608710405
 20
-132.6409871890621
 30
0.0
 10
96.02928608710405
 20
-132.6409871890621
 30
0.0
 10
95.06810535238834
 20
-133.24046246669
 30
0.0
 10
95.06810535238834
 20
-133.24046246669
 30
0.0
 10
95.06810535238834
 20
-133.24046246669
 30
0.0
 10
94.00631482392133
 20
-132.6409871890621
 30
0.0
 10
94.00631482392133
 20
-132.6409871890621
 30
0.0
 10
94.00631482392133
 20
-132.6409871890621
 30
0.0
 10
94.00631482392133
 20
-133.7399957998982
 30
0.0
 10
94.00631482392133
 20
-133.7399957998982
 30
0.0
 10
94.00631482392133
 20
-133.7399957998982
 30
0.0
 10
84.53472775664417
 20
-133.7399957998982
 30
0.0
 10
84.53472775664417
 20
-133.7399957998982
 30
0.0
 10
84.53472775664417
 20
-133.7399957998982
 30
0.0
 10
84.53472775664417
 20
-130.2511294118816
 30
0.0
 10
84.53472775664417
 20
-130.2511294118816
 30
0.0
  0
HATCH
  5
42
330
1F
100
AcDbEntity
  8
_U+30EC_U+30A4_U+30E4_U+30FC 1
 62
     9
420
 13224394
100
AcDbHatch
 10
0.0
 20
0.0
 30
0.0
210
0.0
220
0.0
230
1.0
  2
SOLID
 70
     1
 71
     0
 91
        1
 92
        1
 93
        1
 72
     4
 94
        3
 73
     0
 74
     1
 95
      173
 96
      169
 40
0.0
 40
0.0
 40
0.0
 40
0.0
 40
1.0
 40
1.0
 40
1.0
 40
2.0
 40
2.0
 40
2.0
 40
3.0
 40
3.0
 40
3.0
 40
4.0
 40
4.0
 40
4.0
 40
5.0
 40
5.0
 40
5.0
 40
6.0
 40
6.0
 40
6.0
 40
7.0
 40
7.0
 40
7.0
 40
8.0
 40
8.0
 40
8.0
 40
9.0
 40
9.0
 40
9.0
 40
10.0
 40
10.0
 40
10.0
 40
11.0
 40
11.0
 40
11.0
 40
12.0
 40
12.0
 40
12.0
 40
13.0
 40
13.0
 40
13.0
 40
14.0
 40
14.0
 40
14.0
 40
15.0
 40
15.0
 40
15.0
 40
16.0
 40
16.0
 40
16.0
 40
17.0
 40
17.0
 40
17.0
 40
18.0
 40
18.0
 40
18.0
 40
19.0
 40
19.0
 40
19.0
 40
20.0
 40
20.0
 40
20.0
 40
21.0
 40
21.0
 40
21.0
 40
22.0
 40
22.0
 40
22.0
 40
23.0
 40
23.0
 40
23.0
 40
24.0
 40
24.0
 40
24.0
 40
25.0
 40
25.0
 40
25.0
 40
26.0
 40
26.0
 40
26.0
 40
27.0
 40
27.0
 40
27.0
 40
28.0
 40
28.0
 40
28.0
 40
29.0
 40
29.0
 40
29.0
 40
30.0
 40
30.0
 40
30.0
 40
31.0
 40
31.0
 40
31.0
 40
32.0
 40
32.0
 40
32.0
 40
33.0
 40
33.0
 40
33.0
 40
34.0
 40
34.0
 40
34.0
 40
35.0
 40
35.0
 40
35.0
 40
36.0
 40
36.0
 40
36.0
 40
37.0
 40
37.0
 40
37.0
 40
38.0
 40
38.0
 40
38.0
 40
39.0
 40
39.0
 40
39.0
 40
40.0
 40
40.0
 40
40.0
 40
41.0
 40
41.0
 40
41.0
 40
42.0
 40
42.0
 40
42.0
 40
43.0
 40
43.0
 40
43.0
 40
44.0
 40
44.0
 40
44.0
 40
45.0
 40
45.0
 40
45.0
 40
46.0
 40
46.0
 40
46.0
 40
47.0
 40
47.0
 40
47.0
 40
48.0
 40
48.0
 40
48.0
 40
49.0
 40
49.0
 40
49.0
 40
50.0
 40
50.0
 40
50.0
 40
51.0
 40
51.0
 40
51.0
 40
52.0
 40
52.0
 40
52.0
 40
53.0
 40
53.0
 40
53.0
 40
54.0
 40
54.0
 40
54.0
 40
55.0
 40
55.0
 40
55.0
 40
56.0
 40
56.0
 40
56.0
 40
56.0
 10
84.53472775664417
 20
-130.2511294118816
 10
87.12541972168981
 20
-127.7492999680626
 10
90.33555630645907
 20
-125.9819891351712
 10
93.83475899496474
 20
-125.1303483020508
 10
93.83475899496474
 20
-125.1303483020508
 10
94.53481119932715
 20
-126.1397513573539
 10
94.53481119932715
 20
-126.1397513573539
 10
94.53481119932715
 20
-126.1397513573539
 10
94.53481119932715
 20
-123.2400238580789
 10
94.53481119932715
 20
-123.2400238580789
 10
94.06314732247141
 20
-123.3292413580565
 10
93.594270389989
 20
-123.4343338580304
 10
93.12955623517819
 20
-123.554560524667
 10
93.12955623517819
 20
-123.554560524667
 10
92.97726207239687
 20
-124.3197002466978
 10
92.97726207239687
 20
-124.3197002466978
 10
92.97726207239687
 20
-124.3197002466978
 10
92.45465708572964
 20
-123.7405802468426
 10
92.45465708572964
 20
-123.7405802468426
 10
91.85073682335914
 20
-123.9173219134651
 10
91.2540485052486
 20
-124.1202396911923
 10
90.66766129798636
 20
-124.3479577466908
 10
90.66766129798636
 20
-124.3479577466908
 10
90.60599574400403
 20
-125.1255152464963
 10
90.60599574400403
 20
-125.1255152464963
 10
90.60599574400403
 20
-125.1255152464963
 10
90.01932631452677
 20
-124.6118708021802
 10
90.01932631452677
 20
-124.6118708021802
 10
89.43537327386909
 20
-124.8602616354515
 10
88.86246217737417
 20
-125.134123024272
 10
88.30228635833211
 20
-125.4321496908642
 10
88.30228635833211
 20
-125.4321496908642
 10
88.33329552420766
 20
-126.2114005240029
 10
88.33329552420766
 20
-126.2114005240029
 10
88.33329552420766
 20
-126.2114005240029
 10
87.68972304062656
 20
-125.7704283018909
 10
87.68972304062656
 20
-125.7704283018909
 10
87.13233416595784
 20
-126.0901508018108
 10
86.58902112426337
 20
-126.4343208017247
 10
86.06158308216388
 20
-126.8015624682996
 10
86.06158308216388
 20
-126.8015624682996
 10
86.18526696789732
 20
-127.5718880236627
 10
86.18526696789732
 20
-127.5718880236627
 10
86.18526696789732
 20
-127.5718880236627
 10
85.4938225410931
 20
-127.2108552459752
 10
85.4938225410931
 20
-127.2108552459752
 10
83.80228841758107
 20
-128.47069524566
 10
82.30023331275841
 20
-129.9679546897302
 10
81.03449987708211
 20
-131.6553613559749
 10
81.03449987708211
 20
-131.6553613559749
 10
81.03449987708211
 20
-134.7400855218704
 10
81.03449987708211
 20
-134.7400855218704
 10
81.53713764203654
 20
-133.865725799867
 10
82.10387512757787
 20
-133.0299599667426
 10
82.73086705602641
 20
-132.239984689162
 10
82.73086705602641
 20
-132.239984689162
 10
83.53495553467195
 20
-132.239984689162
 10
83.53495553467195
 20
-132.239984689162
 10
83.53495553467195
 20
-132.239984689162
 10
83.53495553467195
 20
-134.7400855218704
 10
83.53495553467195
 20
-134.7400855218704
 10
83.53495553467195
 20
-134.7400855218704
 10
84.73453894935292
 20
-134.7400855218704
 10
84.73453894935292
 20
-134.7400855218704
 10
84.73453894935292
 20
-134.7400855218704
 10
85.465565041814
 20
-134.1399752442425
 10
85.465565041814
 20
-134.1399752442425
 10
85.465565041814
 20
-134.1399752442425
 10
86.19627363428319
 20
-134.7400855218704
 10
86.19627363428319
 20
-134.7400855218704
 10
86.19627363428319
 20
-134.7400855218704
 10
86.92698222675237
 20
-134.1399752442425
 10
86.92698222675237
 20
-134.1399752442425
 10
86.92698222675237
 20
-134.1399752442425
 10
87.65804359699032
 20
-134.7400855218704
 10
87.65804359699032
 20
-134.7400855218704
 10
87.65804359699032
 20
-134.7400855218704
 10
88.38839941169073
 20
-134.1399752442425
 10
88.38839941169073
 20
-134.1399752442425
 10
88.38839941169073
 20
-134.1399752442425
 10
89.1194607819287
 20
-134.7400855218704
 10
89.1194607819287
 20
-134.7400855218704
 10
89.1194607819287
 20
-134.7400855218704
 10
89.85016937439788
 20
-134.1399752442425
 10
89.85016937439788
 20
-134.1399752442425
 10
89.85016937439788
 20
-134.1399752442425
 10
90.58084268909018
 20
-134.7400855218704
 10
90.58084268909018
 20
-134.7400855218704
 10
90.58084268909018
 20
-134.7400855218704
 10
91.31155128155936
 20
-134.1399752442425
 10
91.31155128155936
 20
-134.1399752442425
 10
91.31155128155936
 20
-134.1399752442425
 10
92.04225987402855
 20
-134.7400855218704
 10
92.04225987402855
 20
-134.7400855218704
 10
92.04225987402855
 20
-134.7400855218704
 10
92.7733212442665
 20
-134.1399752442425
 10
92.7733212442665
 20
-134.1399752442425
 10
92.7733212442665
 20
-134.1399752442425
 10
93.50402983673568
 20
-134.7400855218704
 10
93.50402983673568
 20
-134.7400855218704
 10
93.50402983673568
 20
-134.7400855218704
 10
94.23473842920487
 20
-134.1399752442425
 10
94.23473842920487
 20
-134.1399752442425
 10
94.23473842920487
 20
-134.1399752442425
 10
94.96544702167405
 20
-134.7400855218704
 10
94.96544702167405
 20
-134.7400855218704
 10
94.96544702167405
 20
-134.7400855218704
 10
95.69612033636635
 20
-134.1399752442425
 10
95.69612033636635
 20
-134.1399752442425
 10
95.69612033636635
 20
-134.1399752442425
 10
96.42718170660432
 20
-134.7400855218704
 10
96.42718170660432
 20
-134.7400855218704
 10
96.42718170660432
 20
-134.7400855218704
 10
97.1578902990735
 20
-134.1399752442425
 10
97.1578902990735
 20
-134.1399752442425
 10
97.1578902990735
 20
-134.1399752442425
 10
97.88859889154267
 20
-134.7400855218704
 10
97.88859889154267
 20
-134.7400855218704
 10
97.88859889154267
 20
-134.7400855218704
 10
98.61930748401186
 20
-134.1399752442425
 10
98.61930748401186
 20
-134.1399752442425
 10
98.61930748401186
 20
-134.1399752442425
 10
99.35001607648104
 20
-134.7400855218704
 10
99.35001607648104
 20
-134.7400855218704
 10
99.35001607648104
 20
-134.7400855218704
 10
100.0810421689421
 20
-134.1399752442425
 10
100.0810421689421
 20
-134.1399752442425
 10
100.0810421689421
 20
-134.1399752442425
 10
100.8117507614113
 20
-134.7400855218704
 10
100.8117507614113
 20
-134.7400855218704
 10
100.8117507614113
 20
-134.7400855218704
 10
101.5424593538805
 20
-134.1399752442425
 10
101.5424593538805
 20
-134.1399752442425
 10
101.5424593538805
 20
-134.1399752442425
 10
102.2731679463497
 20
-134.7400855218704
 10
102.2731679463497
 20
-134.7400855218704
 10
102.2731679463497
 20
-134.7400855218704
 10
103.0038765388188
 20
-134.1399752442425
 10
103.0038765388188
 20
-134.1399752442425
 10
103.0038765388188
 20
-134.1399752442425
 10
103.734585131288
 20
-134.7400855218704
 10
103.734585131288
 20
-134.7400855218704
 10
103.734585131288
 20
-134.7400855218704
 10
109.0348594405112
 20
-134.7400855218704
 10
109.0348594405112
 20
-134.7400855218704
 10
109.0348594405112
 20
-134.7400855218704
 10
109.0348594405112
 20
-133.7399957998982
 10
109.0348594405112
 20
-133.7399957998982
 10
109.0348594405112
 20
-133.7399957998982
 10
96.02928608710405
 20
-133.7399957998982
 10
96.02928608710405
 20
-133.7399957998982
 10
96.02928608710405
 20
-133.7399957998982
 10
96.02928608710405
 20
-132.6409871890621
 10
96.02928608710405
 20
-132.6409871890621
 10
96.02928608710405
 20
-132.6409871890621
 10
95.06810535238834
 20
-133.24046246669
 10
95.06810535238834
 20
-133.24046246669
 10
95.06810535238834
 20
-133.24046246669
 10
94.00631482392133
 20
-132.6409871890621
 10
94.00631482392133
 20
-132.6409871890621
 10
94.00631482392133
 20
-132.6409871890621
 10
94.00631482392133
 20
-133.7399957998982
 10
94.00631482392133
 20
-133.7399957998982
 10
94.00631482392133
 20
-133.7399957998982
 10
84.53472775664417
 20
-133.7399957998982
 10
84.53472775664417
 20
-133.7399957998982
 10
84.53472775664417
 20
-133.7399957998982
 10
84.53472775664417
 20
-130.2511294118816
 10
84.53472775664417
 20
-130.2511294118816
 97
        0
 97
        0
 75
     2
 76
     1
 98
        0
  0
POLYLINE
  5
43
330
1F
100
AcDbEntity
  8
_U+30EC_U+30A4_U+30E4_U+30FC 1
 62
   179
420
  2234388
370
    25
100
AcDb2dPolyline
 66
     1
 10
0.0
 20
0.0
 30
0.0
  0
VERTEX
  5
44
330
43
100
AcDbEntity
  8
_U+30EC_U+30A4_U+30E4_U+30FC 1
 62
   179
420
  2234388
370
    25
100
AcDbVertex
100
AcDb2dVertex
 10
83.53495553467195
 20
-134.7400855218704
 30
0.0
  0
VERTEX
  5
45
330
43
100
AcDbEntity
  8
_U+30EC_U+30A4_U+30E4_U+30FC 1
 62
   179
420
  2234388
370
    25
100
AcDbVertex
100
AcDb2dVertex
 10
84.73453894935292
 20
-134.7400855218704
 30
0.0
  0
SEQEND
  5
46
330
43
100
AcDbEntity
  8
_U+30EC_U+30A4_U+30E4_U+30FC 1
 62
   179
420
  2234388
370
    25
  0
POLYLINE
  5
47
330
1F
100
AcDbEntity
  8
_U+30EC_U+30A4_U+30E4_U+30FC 1
 62
   179
420
  2234388
370
    25
100
AcDb2dPolyline
 66
     1
 10
0.0
 20
0.0
 30
0.0
  0
VERTEX
  5
48
330
47
100
AcDbEntity
  8
_U+30EC_U+30A4_U+30E4_U+30FC 1
 62
   179
420
  2234388
370
    25
100
AcDbVertex
100
AcDb2dVertex
 10
81.03449987708211
 20
-131.6553613559749
 30
0.0
  0
VERTEX
  5
49
330
47
100
AcDbEntity
  8
_U+30EC_U+30A4_U+30E4_U+30FC 1
 62
   179
420
  2234388
370
    25
100
AcDbVertex
100
AcDb2dVertex
 10
81.03449987708211
 20
-134.7400855218704
 30
0.0
  0
SEQEND
  5
4A
330
47
100
AcDbEntity
  8
_U+30EC_U+30A4_U+30E4_U+30FC 1
 62
   179
420
  2234388
370
    25
  0
POLYLINE
  5
4B
330
1F
100
AcDbEntity
  8
_U+30EC_U+30A4_U+30E4_U+30FC 1
 62
   179
420
  2234388
370
    25
100
AcDb2dPolyline
 66
     1
 10
0.0
 20
0.0
 30
0.0
  0
VERTEX
  5
4C
330
4B
100
AcDbEntity
  8
_U+30EC_U+30A4_U+30E4_U+30FC 1
 62
   179
420
  2234388
370
    25
100
AcDbVertex
100
AcDb2dVertex
 10
84.53472775664417
 20
-130.2511294118816
 30
0.0
  0
VERTEX
  5
4D
330
4B
100
AcDbEntity
  8
_U+30EC_U+30A4_U+30E4_U+30FC 1
 62
   179
420
  2234388
370
    25
100
AcDbVertex
100
AcDb2dVertex
 10
84.53472775664417
 20
-133.7399957998982
 30
0.0
  0
SEQEND
  5
4E
330
4B
100
AcDbEntity
  8
_U+30EC_U+30A4_U+30E4_U+30FC 1
 62
   179
420
  2234388
370
    25
  0
POLYLINE
  5
4F
330
1F
100
AcDbEntity
  8
_U+30EC_U+30A4_U+30E4_U+30FC 1
 62
   179
420
  2234388
370
    25
100
AcDb2dPolyline
 66
     1
 10
0.0
 20
0.0
 30
0.0
  0
VERTEX
  5
50
330
4F
100
AcDbEntity
  8
_U+30EC_U+30A4_U+30E4_U+30FC 1
 62
   179
420
  2234388
370
    25
100
AcDbVertex
100
AcDb2dVertex
 10
94.53481119932715
 20
-123.2400238580789
 30
0.0
  0
VERTEX
  5
51
330
4F
100
AcDbEntity
  8
_U+30EC_U+30A4_U+30E4_U+30FC 1
 62
   179
420
  2234388
370
    25
100
AcDbVertex
100
AcDb2dVertex
 10
94.53481119932715
 20
-126.1397513573539
 30
0.0
  0
SEQEND
  5
52
330
4F
100
AcDbEntity
  8
_U+30EC_U+30A4_U+30E4_U+30FC 1
 62
   179
420
  2234388
370
    25
  0
POLYLINE
  5
53
330
1F
100
AcDbEntity
  8
_U+30EC_U+30A4_U+30E4_U+30FC 1
 62
   179
420
  2234388
370
    25
100
AcDb2dPolyline
 66
     1
 10
0.0
 20
0.0
 30
0.0
  0
VERTEX
  5
54
330
53
100
AcDbEntity
  8
_U+30EC_U+30A4_U+30E4_U+30FC 1
 62
   179
420
  2234388
370
    25
100
AcDbVertex
100
AcDb2dVertex
 10
82.73086705602641
 20
-132.239984689162
 30
0.0
  0
VERTEX
  5
55
330
53
100
AcDbEntity
  8
_U+30EC_U+30A4_U+30E4_U+30FC 1
 62
   179
420
  2234388
370
    25
100
AcDbVertex
100
AcDb2dVertex
 10
83.53495553467195
 20
-132.239984689162
 30
0.0
  0
SEQEND
  5
56
330
53
100
AcDbEntity
  8
_U+30EC_U+30A4_U+30E4_U+30FC 1
 62
   179
420
  2234388
370
    25
  0
POLYLINE
  5
57
330
1F
100
AcDbEntity
  8
_U+30EC_U+30A4_U+30E4_U+30FC 1
 62
   179
420
  2234388
370
    25
100
AcDb2dPolyline
 66
     1
 10
0.0
 20
0.0
 30
0.0
  0
VERTEX
  5
58
330
57
100
AcDbEntity
  8
_U+30EC_U+30A4_U+30E4_U+30FC 1
 62
   179
420
  2234388
370
    25
100
AcDbVertex
100
AcDb2dVertex
 10
83.53495553467195
 20
-132.239984689162
 30
0.0
  0
VERTEX
  5
59
330
57
100
AcDbEntity
  8
_U+30EC_U+30A4_U+30E4_U+30FC 1
 62
   179
420
  2234388
370
    25
100
AcDbVertex
100
AcDb2dVertex
 10
83.53495553467195
 20
-134.7400855218704
 30
0.0
  0
SEQEND
  5
5A
330
57
100
AcDbEntity
  8
_U+30EC_U+30A4_U+30E4_U+30FC 1
 62
   179
420
  2234388
370
    25
  0
POLYLINE
  5
5B
330
1F
100
AcDbEntity
  8
_U+30EC_U+30A4_U+30E4_U+30FC 1
 62
   179
420
  2234388
370
    25
100
AcDb2dPolyline
 66
     1
 10
0.0
 20
0.0
 30
0.0
  0
VERTEX
  5
5C
330
5B
100
AcDbEntity
  8
_U+30EC_U+30A4_U+30E4_U+30FC 1
 62
   179
420
  2234388
370
    25
100
AcDbVertex
100
AcDb2dVertex
 10
84.53472775664417
 20
-133.7399957998982
 30
0.0
  0
VERTEX
  5
5D
330
5B
100
AcDbEntity
  8
_U+30EC_U+30A4_U+30E4_U+30FC 1
 62
   179
420
  2234388
370
    25
100
AcDbVertex
100
AcDb2dVertex
 10
93.99185093540144
 20
-133.7399957998982
 30
0.0
  0
VERTEX
  5
5E
330
5B
100
AcDbEntity
  8
_U+30EC_U+30A4_U+30E4_U+30FC 1
 62
   179
420
  2234388
370
    25
100
AcDbVertex
100
AcDb2dVertex
 10
93.99185093540144
 20
-132.6409871890621
 30
0.0
  0
VERTEX
  5
5F
330
5B
100
AcDbEntity
  8
_U+30EC_U+30A4_U+30E4_U+30FC 1
 62
   179
420
  2234388
370
    25
100
AcDbVertex
100
AcDb2dVertex
 10
95.0267597978876
 20
-133.24046246669
 30
0.0
  0
VERTEX
  5
60
330
5B
100
AcDbEntity
  8
_U+30EC_U+30A4_U+30E4_U+30FC 1
 62
   179
420
  2234388
370
    25
100
AcDbVertex
100
AcDb2dVertex
 10
96.00585921735315
 20
-132.6409871890621
 30
0.0
  0
VERTEX
  5
61
330
5B
100
AcDbEntity
  8
_U+30EC_U+30A4_U+30E4_U+30FC 1
 62
   179
420
  2234388
370
    25
100
AcDbVertex
100
AcDb2dVertex
 10
96.00585921735315
 20
-133.7399957998982
 30
0.0
  0
VERTEX
  5
62
330
5B
100
AcDbEntity
  8
_U+30EC_U+30A4_U+30E4_U+30FC 1
 62
   179
420
  2234388
370
    25
100
AcDbVertex
100
AcDb2dVertex
 10
109.0348594405112
 20
-133.7399957998982
 30
0.0
  0
SEQEND
  5
63
330
5B
100
AcDbEntity
  8
_U+30EC_U+30A4_U+30E4_U+30FC 1
 62
   179
420
  2234388
370
    25
  0
POLYLINE
  5
64
330
1F
100
AcDbEntity
  8
_U+30EC_U+30A4_U+30E4_U+30FC 1
 62
   179
420
  2234388
370
    25
100
AcDb2dPolyline
 66
     1
 10
0.0
 20
0.0
 30
0.0
  0
VERTEX
  5
65
330
64
100
AcDbEntity
  8
_U+30EC_U+30A4_U+30E4_U+30FC 1
 62
   179
420
  2234388
370
    25
100
AcDbVertex
100
AcDb2dVertex
 10
109.0348594405112
 20
-133.7399957998982
 30
0.0
  0
VERTEX
  5
66
330
64
100
AcDbEntity
  8
_U+30EC_U+30A4_U+30E4_U+30FC 1
 62
   179
420
  2234388
370
    25
100
AcDbVertex
100
AcDb2dVertex
 10
109.0348594405112
 20
-134.7400855218704
 30
0.0
  0
SEQEND
  5
67
330
64
100
AcDbEntity
  8
_U+30EC_U+30A4_U+30E4_U+30FC 1
 62
   179
420
  2234388
370
    25
  0
POLYLINE
  5
68
330
1F
100
AcDbEntity
  8
_U+30EC_U+30A4_U+30E4_U+30FC 1
 62
   179
420
  2234388
370
    25
100
AcDb2dPolyline
 66
     1
 10
0.0
 20
0.0
 30
0.0
  0
VERTEX
  5
69
330
68
100
AcDbEntity
  8
_U+30EC_U+30A4_U+30E4_U+30FC 1
 62
   179
420
  2234388
370
    25
100
AcDbVertex
100
AcDb2dVertex
 10
102.2731679463497
 20
-134.7400855218704
 30
0.0
  0
VERTEX
  5
6A
330
68
100
AcDbEntity
  8
_U+30EC_U+30A4_U+30E4_U+30FC 1
 62
   179
420
  2234388
370
    25
100
AcDbVertex
100
AcDb2dVertex
 10
103.0038765388188
 20
-134.1399752442425
 30
0.0
  0
SEQEND
  5
6B
330
68
100
AcDbEntity
  8
_U+30EC_U+30A4_U+30E4_U+30FC 1
 62
   179
420
  2234388
370
    25
  0
POLYLINE
  5
6C
330
1F
100
AcDbEntity
  8
_U+30EC_U+30A4_U+30E4_U+30FC 1
 62
   179
420
  2234388
370
    25
100
AcDb2dPolyline
 66
     1
 10
0.0
 20
0.0
 30
0.0
  0
VERTEX
  5
6D
330
6C
100
AcDbEntity
  8
_U+30EC_U+30A4_U+30E4_U+30FC 1
 62
   179
420
  2234388
370
    25
100
AcDbVertex
100
AcDb2dVertex
 10
103.0038765388188
 20
-134.1399752442425
 30
0.0
  0
VERTEX
  5
6E
330
6C
100
AcDbEntity
  8
_U+30EC_U+30A4_U+30E4_U+30FC 1
 62
   179
420
  2234388
370
    25
100
AcDbVertex
100
AcDb2dVertex
 10
103.734585131288
 20
-134.7400855218704
 30
0.0
  0
SEQEND
  5
6F
330
6C
100
AcDbEntity
  8
_U+30EC_U+30A4_U+30E4_U+30FC 1
 62
   179
420
  2234388
370
    25
  0
POLYLINE
  5
70
330
1F
100
AcDbEntity
  8
_U+30EC_U+30A4_U+30E4_U+30FC 1
 62
   179
420
  2234388
370
    25
100
AcDb2dPolyline
 66
     1
 10
0.0
 20
0.0
 30
0.0
  0
VERTEX
  5
71
330
70
100
AcDbEntity
  8
_U+30EC_U+30A4_U+30E4_U+30FC 1
 62
   179
420
  2234388
370
    25
100
AcDbVertex
100
AcDb2dVertex
 10
101.5424593538805
 20
-134.1399752442425
 30
0.0
  0
VERTEX
  5
72
330
70
100
AcDbEntity
  8
_U+30EC_U+30A4_U+30E4_U+30FC 1
 62
   179
420
  2234388
370
    25
100
AcDbVertex
100
AcDb2dVertex
 10
102.2731679463497
 20
-134.7400855218704
 30
0.0
  0
SEQEND
  5
73
330
70
100
AcDbEntity
  8
_U+30EC_U+30A4_U+30E4_U+30FC 1
 62
   179
420
  2234388
370
    25
  0
POLYLINE
  5
74
330
1F
100
AcDbEntity
  8
_U+30EC_U+30A4_U+30E4_U+30FC 1
 62
   179
420
  2234388
370
    25
100
AcDb2dPolyline
 66
     1
 10
0.0
 20
0.0
 30
0.0
  0
VERTEX
  5
75
330
74
100
AcDbEntity
  8
_U+30EC_U+30A4_U+30E4_U+30FC 1
 62
   179
420
  2234388
370
    25
100
AcDbVertex
100
AcDb2dVertex
 10
100.8117507614113
 20
-134.7400855218704
 30
0.0
  0
VERTEX
  5
76
330
74
100
AcDbEntity
  8
_U+30EC_U+30A4_U+30E4_U+30FC 1
 62
   179
420
  2234388
370
    25
100
AcDbVertex
100
AcDb2dVertex
 10
101.5424593538805
 20
-134.1399752442425
 30
0.0
  0
SEQEND
  5
77
330
74
100
AcDbEntity
  8
_U+30EC_U+30A4_U+30E4_U+30FC 1
 62
   179
420
  2234388
370
    25
  0
POLYLINE
  5
78
330
1F
100
AcDbEntity
  8
_U+30EC_U+30A4_U+30E4_U+30FC 1
 62
   179
420
  2234388
370
    25
100
AcDb2dPolyline
 66
     1
 10
0.0
 20
0.0
 30
0.0
  0
VERTEX
  5
79
330
78
100
AcDbEntity
  8
_U+30EC_U+30A4_U+30E4_U+30FC 1
 62
   179
420
  2234388
370
    25
100
AcDbVertex
100
AcDb2dVertex
 10
99.35001607648104
 20
-134.7400855218704
 30
0.0
  0
VERTEX
  5
7A
330
78
100
AcDbEntity
  8
_U+30EC_U+30A4_U+30E4_U+30FC 1
 62
   179
420
  2234388
370
    25
100
AcDbVertex
100
AcDb2dVertex
 10
100.0810421689421
 20
-134.1399752442425
 30
0.0
  0
SEQEND
  5
7B
330
78
100
AcDbEntity
  8
_U+30EC_U+30A4_U+30E4_U+30FC 1
 62
   179
420
  2234388
370
    25
  0
POLYLINE
  5
7C
330
1F
100
AcDbEntity
  8
_U+30EC_U+30A4_U+30E4_U+30FC 1
 62
   179
420
  2234388
370
    25
100
AcDb2dPolyline
 66
     1
 10
0.0
 20
0.0
 30
0.0
  0
VERTEX
  5
7D
330
7C
100
AcDbEntity
  8
_U+30EC_U+30A4_U+30E4_U+30FC 1
 62
   179
420
  2234388
370
    25
100
AcDbVertex
100
AcDb2dVertex
 10
100.0810421689421
 20
-134.1399752442425
 30
0.0
  0
VERTEX
  5
7E
330
7C
100
AcDbEntity
  8
_U+30EC_U+30A4_U+30E4_U+30FC 1
 62
   179
420
  2234388
370
    25
100
AcDbVertex
100
AcDb2dVertex
 10
100.8117507614113
 20
-134.7400855218704
 30
0.0
  0
SEQEND
  5
7F
330
7C
100
AcDbEntity
  8
_U+30EC_U+30A4_U+30E4_U+30FC 1
 62
   179
420
  2234388
370
    25
  0
POLYLINE
  5
80
330
1F
100
AcDbEntity
  8
_U+30EC_U+30A4_U+30E4_U+30FC 1
 62
   179
420
  2234388
370
    25
100
AcDb2dPolyline
 66
     1
 10
0.0
 20
0.0
 30
0.0
  0
VERTEX
  5
81
330
80
100
AcDbEntity
  8
_U+30EC_U+30A4_U+30E4_U+30FC 1
 62
   179
420
  2234388
370
    25
100
AcDbVertex
100
AcDb2dVertex
 10
98.61930748401186
 20
-134.1399752442425
 30
0.0
  0
VERTEX
  5
82
330
80
100
AcDbEntity
  8
_U+30EC_U+30A4_U+30E4_U+30FC 1
 62
   179
420
  2234388
370
    25
100
AcDbVertex
100
AcDb2dVertex
 10
99.35001607648104
 20
-134.7400855218704
 30
0.0
  0
SEQEND
  5
83
330
80
100
AcDbEntity
  8
_U+30EC_U+30A4_U+30E4_U+30FC 1
 62
   179
420
  2234388
370
    25
  0
POLYLINE
  5
84
330
1F
100
AcDbEntity
  8
_U+30EC_U+30A4_U+30E4_U+30FC 1
 62
   179
420
  2234388
370
    25
100
AcDb2dPolyline
 66
     1
 10
0.0
 20
0.0
 30
0.0
  0
VERTEX
  5
85
330
84
100
AcDbEntity
  8
_U+30EC_U+30A4_U+30E4_U+30FC 1
 62
   179
420
  2234388
370
    25
100
AcDbVertex
100
AcDb2dVertex
 10
97.88859889154267
 20
-134.7400855218704
 30
0.0
  0
VERTEX
  5
86
330
84
100
AcDbEntity
  8
_U+30EC_U+30A4_U+30E4_U+30FC 1
 62
   179
420
  2234388
370
    25
100
AcDbVertex
100
AcDb2dVertex
 10
98.61930748401186
 20
-134.1399752442425
 30
0.0
  0
SEQEND
  5
87
330
84
100
AcDbEntity
  8
_U+30EC_U+30A4_U+30E4_U+30FC 1
 62
   179
420
  2234388
370
    25
  0
POLYLINE
  5
88
330
1F
100
AcDbEntity
  8
_U+30EC_U+30A4_U+30E4_U+30FC 1
 62
   179
420
  2234388
370
    25
100
AcDb2dPolyline
 66
     1
 10
0.0
 20
0.0
 30
0.0
  0
VERTEX
  5
89
330
88
100
AcDbEntity
  8
_U+30EC_U+30A4_U+30E4_U+30FC 1
 62
   179
420
  2234388
370
    25
100
AcDbVertex
100
AcDb2dVertex
 10
96.42718170660432
 20
-134.7400855218704
 30
0.0
  0
VERTEX
  5
8A
330
88
100
AcDbEntity
  8
_U+30EC_U+30A4_U+30E4_U+30FC 1
 62
   179
420
  2234388
370
    25
100
AcDbVertex
100
AcDb2dVertex
 10
97.1578902990735
 20
-134.1399752442425
 30
0.0
  0
SEQEND
  5
8B
330
88
100
AcDbEntity
  8
_U+30EC_U+30A4_U+30E4_U+30FC 1
 62
   179
420
  2234388
370
    25
  0
POLYLINE
  5
8C
330
1F
100
AcDbEntity
  8
_U+30EC_U+30A4_U+30E4_U+30FC 1
 62
   179
420
  2234388
370
    25
100
AcDb2dPolyline
 66
     1
 10
0.0
 20
0.0
 30
0.0
  0
VERTEX
  5
8D
330
8C
100
AcDbEntity
  8
_U+30EC_U+30A4_U+30E4_U+30FC 1
 62
   179
420
  2234388
370
    25
100
AcDbVertex
100
AcDb2dVertex
 10
97.1578902990735
 20
-134.1399752442425
 30
0.0
  0
VERTEX
  5
8E
330
8C
100
AcDbEntity
  8
_U+30EC_U+30A4_U+30E4_U+30FC 1
 62
   179
420
  2234388
370
    25
100
AcDbVertex
100
AcDb2dVertex
 10
97.88859889154267
 20
-134.7400855218704
 30
0.0
  0
SEQEND
  5
8F
330
8C
100
AcDbEntity
  8
_U+30EC_U+30A4_U+30E4_U+30FC 1
 62
   179
420
  2234388
370
    25
  0
POLYLINE
  5
90
330
1F
100
AcDbEntity
  8
_U+30EC_U+30A4_U+30E4_U+30FC 1
 62
   179
420
  2234388
370
    25
100
AcDb2dPolyline
 66
     1
 10
0.0
 20
0.0
 30
0.0
  0
VERTEX
  5
91
330
90
100
AcDbEntity
  8
_U+30EC_U+30A4_U+30E4_U+30FC 1
 62
   179
420
  2234388
370
    25
100
AcDbVertex
100
AcDb2dVertex
 10
95.69612033636635
 20
-134.1399752442425
 30
0.0
  0
VERTEX
  5
92
330
90
100
AcDbEntity
  8
_U+30EC_U+30A4_U+30E4_U+30FC 1
 62
   179
420
  2234388
370
    25
100
AcDbVertex
100
AcDb2dVertex
 10
96.42718170660432
 20
-134.7400855218704
 30
0.0
  0
SEQEND
  5
93
330
90
100
AcDbEntity
  8
_U+30EC_U+30A4_U+30E4_U+30FC 1
 62
   179
420
  2234388
370
    25
  0
POLYLINE
  5
94
330
1F
100
AcDbEntity
  8
_U+30EC_U+30A4_U+30E4_U+30FC 1
 62
   179
420
  2234388
370
    25
100
AcDb2dPolyline
 66
     1
 10
0.0
 20
0.0
 30
0.0
  0
VERTEX
  5
95
330
94
100
AcDbEntity
  8
_U+30EC_U+30A4_U+30E4_U+30FC 1
 62
   179
420
  2234388
370
    25
100
AcDbVertex
100
AcDb2dVertex
 10
94.96544702167405
 20
-134.7400855218704
 30
0.0
  0
VERTEX
  5
96
330
94
100
AcDbEntity
  8
_U+30EC_U+30A4_U+30E4_U+30FC 1
 62
   179
420
  2234388
370
    25
100
AcDbVertex
100
AcDb2dVertex
 10
95.69612033636635
 20
-134.1399752442425
 30
0.0
  0
SEQEND
  5
97
330
94
100
AcDbEntity
  8
_U+30EC_U+30A4_U+30E4_U+30FC 1
 62
   179
420
  2234388
370
    25
  0
POLYLINE
  5
98
330
1F
100
AcDbEntity
  8
_U+30EC_U+30A4_U+30E4_U+30FC 1
 62
   179
420
  2234388
370
    25
100
AcDb2dPolyline
 66
     1
 10
0.0
 20
0.0
 30
0.0
  0
VERTEX
  5
99
330
98
100
AcDbEntity
  8
_U+30EC_U+30A4_U+30E4_U+30FC 1
 62
   179
420
  2234388
370
    25
100
AcDbVertex
100
AcDb2dVertex
 10
93.50402983673568
 20
-134.7400855218704
 30
0.0
  0
VERTEX
  5
9A
330
98
100
AcDbEntity
  8
_U+30EC_U+30A4_U+30E4_U+30FC 1
 62
   179
420
  2234388
370
    25
100
AcDbVertex
100
AcDb2dVertex
 10
94.23473842920487
 20
-134.1399752442425
 30
0.0
  0
SEQEND
  5
9B
330
98
100
AcDbEntity
  8
_U+30EC_U+30A4_U+30E4_U+30FC 1
 62
   179
420
  2234388
370
    25
  0
POLYLINE
  5
9C
330
1F
100
AcDbEntity
  8
_U+30EC_U+30A4_U+30E4_U+30FC 1
 62
   179
420
  2234388
370
    25
100
AcDb2dPolyline
 66
     1
 10
0.0
 20
0.0
 30
0.0
  0
VERTEX
  5
9D
330
9C
100
AcDbEntity
  8
_U+30EC_U+30A4_U+30E4_U+30FC 1
 62
   179
420
  2234388
370
    25
100
AcDbVertex
100
AcDb2dVertex
 10
94.23473842920487
 20
-134.1399752442425
 30
0.0
  0
VERTEX
  5
9E
330
9C
100
AcDbEntity
  8
_U+30EC_U+30A4_U+30E4_U+30FC 1
 62
   179
420
  2234388
370
    25
100
AcDbVertex
100
AcDb2dVertex
 10
94.96544702167405
 20
-134.7400855218704
 30
0.0
  0
SEQEND
  5
9F
330
9C
100
AcDbEntity
  8
_U+30EC_U+30A4_U+30E4_U+30FC 1
 62
   179
420
  2234388
370
    25
  0
POLYLINE
  5
A0
330
1F
100
AcDbEntity
  8
_U+30EC_U+30A4_U+30E4_U+30FC 1
 62
   179
420
  2234388
370
    25
100
AcDb2dPolyline
 66
     1
 10
0.0
 20
0.0
 30
0.0
  0
VERTEX
  5
A1
330
A0
100
AcDbEntity
  8
_U+30EC_U+30A4_U+30E4_U+30FC 1
 62
   179
420
  2234388
370
    25
100
AcDbVertex
100
AcDb2dVertex
 10
92.7733212442665
 20
-134.1399752442425
 30
0.0
  0
VERTEX
  5
A2
330
A0
100
AcDbEntity
  8
_U+30EC_U+30A4_U+30E4_U+30FC 1
 62
   179
420
  2234388
370
    25
100
AcDbVertex
100
AcDb2dVertex
 10
93.50402983673568
 20
-134.7400855218704
 30
0.0
  0
SEQEND
  5
A3
330
A0
100
AcDbEntity
  8
_U+30EC_U+30A4_U+30E4_U+30FC 1
 62
   179
420
  2234388
370
    25
  0
POLYLINE
  5
A4
330
1F
100
AcDbEntity
  8
_U+30EC_U+30A4_U+30E4_U+30FC 1
 62
   179
420
  2234388
370
    25
100
AcDb2dPolyline
 66
     1
 10
0.0
 20
0.0
 30
0.0
  0
VERTEX
  5
A5
330
A4
100
AcDbEntity
  8
_U+30EC_U+30A4_U+30E4_U+30FC 1
 62
   179
420
  2234388
370
    25
100
AcDbVertex
100
AcDb2dVertex
 10
92.04225987402855
 20
-134.7400855218704
 30
0.0
  0
VERTEX
  5
A6
330
A4
100
AcDbEntity
  8
_U+30EC_U+30A4_U+30E4_U+30FC 1
 62
   179
420
  2234388
370
    25
100
AcDbVertex
100
AcDb2dVertex
 10
92.7733212442665
 20
-134.1399752442425
 30
0.0
  0
SEQEND
  5
A7
330
A4
100
AcDbEntity
  8
_U+30EC_U+30A4_U+30E4_U+30FC 1
 62
   179
420
  2234388
370
    25
  0
POLYLINE
  5
A8
330
1F
100
AcDbEntity
  8
_U+30EC_U+30A4_U+30E4_U+30FC 1
 62
   179
420
  2234388
370
    25
100
AcDb2dPolyline
 66
     1
 10
0.0
 20
0.0
 30
0.0
  0
VERTEX
  5
A9
330
A8
100
AcDbEntity
  8
_U+30EC_U+30A4_U+30E4_U+30FC 1
 62
   179
420
  2234388
370
    25
100
AcDbVertex
100
AcDb2dVertex
 10
90.58084268909018
 20
-134.7400855218704
 30
0.0
  0
VERTEX
  5
AA
330
A8
100
AcDbEntity
  8
_U+30EC_U+30A4_U+30E4_U+30FC 1
 62
   179
420
  2234388
370
    25
100
AcDbVertex
100
AcDb2dVertex
 10
91.31155128155936
 20
-134.1399752442425
 30
0.0
  0
SEQEND
  5
AB
330
A8
100
AcDbEntity
  8
_U+30EC_U+30A4_U+30E4_U+30FC 1
 62
   179
420
  2234388
370
    25
  0
POLYLINE
  5
AC
330
1F
100
AcDbEntity
  8
_U+30EC_U+30A4_U+30E4_U+30FC 1
 62
   179
420
  2234388
370
    25
100
AcDb2dPolyline
 66
     1
 10
0.0
 20
0.0
 30
0.0
  0
VERTEX
  5
AD
330
AC
100
AcDbEntity
  8
_U+30EC_U+30A4_U+30E4_U+30FC 1
 62
   179
420
  2234388
370
    25
100
AcDbVertex
100
AcDb2dVertex
 10
91.31155128155936
 20
-134.1399752442425
 30
0.0
  0
VERTEX
  5
AE
330
AC
100
AcDbEntity
  8
_U+30EC_U+30A4_U+30E4_U+30FC 1
 62
   179
420
  2234388
370
    25
100
AcDbVertex
100
AcDb2dVertex
 10
92.04225987402855
 20
-134.7400855218704
 30
0.0
  0
SEQEND
  5
AF
330
AC
100
AcDbEntity
  8
_U+30EC_U+30A4_U+30E4_U+30FC 1
 62
   179
420
  2234388
370
    25
  0
POLYLINE
  5
B0
330
1F
100
AcDbEntity
  8
_U+30EC_U+30A4_U+30E4_U+30FC 1
 62
   179
420
  2234388
370
    25
100
AcDb2dPolyline
 66
     1
 10
0.0
 20
0.0
 30
0.0
  0
VERTEX
  5
B1
330
B0
100
AcDbEntity
  8
_U+30EC_U+30A4_U+30E4_U+30FC 1
 62
   179
420
  2234388
370
    25
100
AcDbVertex
100
AcDb2dVertex
 10
89.85016937439788
 20
-134.1399752442425
 30
0.0
  0
VERTEX
  5
B2
330
B0
100
AcDbEntity
  8
_U+30EC_U+30A4_U+30E4_U+30FC 1
 62
   179
420
  2234388
370
    25
100
AcDbVertex
100
AcDb2dVertex
 10
90.58084268909018
 20
-134.7400855218704
 30
0.0
  0
SEQEND
  5
B3
330
B0
100
AcDbEntity
  8
_U+30EC_U+30A4_U+30E4_U+30FC 1
 62
   179
420
  2234388
370
    25
  0
POLYLINE
  5
B4
330
1F
100
AcDbEntity
  8
_U+30EC_U+30A4_U+30E4_U+30FC 1
 62
   179
420
  2234388
370
    25
100
AcDb2dPolyline
 66
     1
 10
0.0
 20
0.0
 30
0.0
  0
VERTEX
  5
B5
330
B4
100
AcDbEntity
  8
_U+30EC_U+30A4_U+30E4_U+30FC 1
 62
   179
420
  2234388
370
    25
100
AcDbVertex
100
AcDb2dVertex
 10
89.1194607819287
 20
-134.7400855218704
 30
0.0
  0
VERTEX
  5
B6
330
B4
100
AcDbEntity
  8
_U+30EC_U+30A4_U+30E4_U+30FC 1
 62
   179
420
  2234388
370
    25
100
AcDbVertex
100
AcDb2dVertex
 10
89.85016937439788
 20
-134.1399752442425
 30
0.0
  0
SEQEND
  5
B7
330
B4
100
AcDbEntity
  8
_U+30EC_U+30A4_U+30E4_U+30FC 1
 62
   179
420
  2234388
370
    25
  0
POLYLINE
  5
B8
330
1F
100
AcDbEntity
  8
_U+30EC_U+30A4_U+30E4_U+30FC 1
 62
   179
420
  2234388
370
    25
100
AcDb2dPolyline
 66
     1
 10
0.0
 20
0.0
 30
0.0
  0
VERTEX
  5
B9
330
B8
100
AcDbEntity
  8
_U+30EC_U+30A4_U+30E4_U+30FC 1
 62
   179
420
  2234388
370
    25
100
AcDbVertex
100
AcDb2dVertex
 10
87.65804359699032
 20
-134.7400855218704
 30
0.0
  0
VERTEX
  5
BA
330
B8
100
AcDbEntity
  8
_U+30EC_U+30A4_U+30E4_U+30FC 1
 62
   179
420
  2234388
370
    25
100
AcDbVertex
100
AcDb2dVertex
 10
88.38839941169073
 20
-134.1399752442425
 30
0.0
  0
SEQEND
  5
BB
330
B8
100
AcDbEntity
  8
_U+30EC_U+30A4_U+30E4_U+30FC 1
 62
   179
420
  2234388
370
    25
  0
POLYLINE
  5
BC
330
1F
100
AcDbEntity
  8
_U+30EC_U+30A4_U+30E4_U+30FC 1
 62
   179
420
  2234388
370
    25
100
AcDb2dPolyline
 66
     1
 10
0.0
 20
0.0
 30
0.0
  0
VERTEX
  5
BD
330
BC
100
AcDbEntity
  8
_U+30EC_U+30A4_U+30E4_U+30FC 1
 62
   179
420
  2234388
370
    25
100
AcDbVertex
100
AcDb2dVertex
 10
88.38839941169073
 20
-134.1399752442425
 30
0.0
  0
VERTEX
  5
BE
330
BC
100
AcDbEntity
  8
_U+30EC_U+30A4_U+30E4_U+30FC 1
 62
   179
420
  2234388
370
    25
100
AcDbVertex
100
AcDb2dVertex
 10
89.1194607819287
 20
-134.7400855218704
 30
0.0
  0
SEQEND
  5
BF
330
BC
100
AcDbEntity
  8
_U+30EC_U+30A4_U+30E4_U+30FC 1
 62
   179
420
  2234388
370
    25
  0
POLYLINE
  5
C0
330
1F
100
AcDbEntity
  8
_U+30EC_U+30A4_U+30E4_U+30FC 1
 62
   179
420
  2234388
370
    25
100
AcDb2dPolyline
 66
     1
 10
0.0
 20
0.0
 30
0.0
  0
VERTEX
  5
C1
330
C0
100
AcDbEntity
  8
_U+30EC_U+30A4_U+30E4_U+30FC 1
 62
   179
420
  2234388
370
    25
100
AcDbVertex
100
AcDb2dVertex
 10
86.92698222675237
 20
-134.1399752442425
 30
0.0
  0
VERTEX
  5
C2
330
C0
100
AcDbEntity
  8
_U+30EC_U+30A4_U+30E4_U+30FC 1
 62
   179
420
  2234388
370
    25
100
AcDbVertex
100
AcDb2dVertex
 10
87.65804359699032
 20
-134.7400855218704
 30
0.0
  0
SEQEND
  5
C3
330
C0
100
AcDbEntity
  8
_U+30EC_U+30A4_U+30E4_U+30FC 1
 62
   179
420
  2234388
370
    25
  0
POLYLINE
  5
C4
330
1F
100
AcDbEntity
  8
_U+30EC_U+30A4_U+30E4_U+30FC 1
 62
   179
420
  2234388
370
    25
100
AcDb2dPolyline
 66
     1
 10
0.0
 20
0.0
 30
0.0
  0
VERTEX
  5
C5
330
C4
100
AcDbEntity
  8
_U+30EC_U+30A4_U+30E4_U+30FC 1
 62
   179
420
  2234388
370
    25
100
AcDbVertex
100
AcDb2dVertex
 10
86.19627363428319
 20
-134.7400855218704
 30
0.0
  0
VERTEX
  5
C6
330
C4
100
AcDbEntity
  8
_U+30EC_U+30A4_U+30E4_U+30FC 1
 62
   179
420
  2234388
370
    25
100
AcDbVertex
100
AcDb2dVertex
 10
86.92698222675237
 20
-134.1399752442425
 30
0.0
  0
SEQEND
  5
C7
330
C4
100
AcDbEntity
  8
_U+30EC_U+30A4_U+30E4_U+30FC 1
 62
   179
420
  2234388
370
    25
  0
POLYLINE
  5
C8
330
1F
100
AcDbEntity
  8
_U+30EC_U+30A4_U+30E4_U+30FC 1
 62
   179
420
  2234388
370
    25
100
AcDb2dPolyline
 66
     1
 10
0.0
 20
0.0
 30
0.0
  0
VERTEX
  5
C9
330
C8
100
AcDbEntity
  8
_U+30EC_U+30A4_U+30E4_U+30FC 1
 62
   179
420
  2234388
370
    25
100
AcDbVertex
100
AcDb2dVertex
 10
84.73453894935292
 20
-134.7400855218704
 30
0.0
  0
VERTEX
  5
CA
330
C8
100
AcDbEntity
  8
_U+30EC_U+30A4_U+30E4_U+30FC 1
 62
   179
420
  2234388
370
    25
100
AcDbVertex
100
AcDb2dVertex
 10
85.465565041814
 20
-134.1399752442425
 30
0.0
  0
SEQEND
  5
CB
330
C8
100
AcDbEntity
  8
_U+30EC_U+30A4_U+30E4_U+30FC 1
 62
   179
420
  2234388
370
    25
  0
POLYLINE
  5
CC
330
1F
100
AcDbEntity
  8
_U+30EC_U+30A4_U+30E4_U+30FC 1
 62
   179
420
  2234388
370
    25
100
AcDb2dPolyline
 66
     1
 10
0.0
 20
0.0
 30
0.0
  0
VERTEX
  5
CD
330
CC
100
AcDbEntity
  8
_U+30EC_U+30A4_U+30E4_U+30FC 1
 62
   179
420
  2234388
370
    25
100
AcDbVertex
100
AcDb2dVertex
 10
85.465565041814
 20
-134.1399752442425
 30
0.0
  0
VERTEX
  5
CE
330
CC
100
AcDbEntity
  8
_U+30EC_U+30A4_U+30E4_U+30FC 1
 62
   179
420
  2234388
370
    25
100
AcDbVertex
100
AcDb2dVertex
 10
86.19627363428319
 20
-134.7400855218704
 30
0.0
  0
SEQEND
  5
CF
330
CC
100
AcDbEntity
  8
_U+30EC_U+30A4_U+30E4_U+30FC 1
 62
   179
420
  2234388
370
    25
  0
POLYLINE
  5
D0
330
1F
100
AcDbEntity
  8
_U+30EC_U+30A4_U+30E4_U+30FC 1
 62
   179
420
  2234388
370
    25
100
AcDb2dPolyline
 66
     1
 10
0.0
 20
0.0
 30
0.0
  0
VERTEX
  5
D1
330
D0
100
AcDbEntity
  8
_U+30EC_U+30A4_U+30E4_U+30FC 1
 62
   179
420
  2234388
370
    25
100
AcDbVertex
100
AcDb2dVertex
 10
103.734585131288
 20
-134.7400855218704
 30
0.0
  0
VERTEX
  5
D2
330
D0
100
AcDbEntity
  8
_U+30EC_U+30A4_U+30E4_U+30FC 1
 62
   179
420
  2234388
370
    25
100
AcDbVertex
100
AcDb2dVertex
 10
109.0348594405112
 20
-134.7400855218704
 30
0.0
  0
SEQEND
  5
D3
330
D0
100
AcDbEntity
  8
_U+30EC_U+30A4_U+30E4_U+30FC 1
 62
   179
420
  2234388
370
    25
  0
POLYLINE
  5
D4
330
1F
100
AcDbEntity
  8
_U+30EC_U+30A4_U+30E4_U+30FC 1
 62
   179
420
  2234388
370
    25
100
AcDb2dPolyline
 66
     1
 10
0.0
 20
0.0
 30
0.0
  0
VERTEX
  5
D5
330
D4
100
AcDbEntity
  8
_U+30EC_U+30A4_U+30E4_U+30FC 1
 62
   179
420
  2234388
370
    25
100
AcDbVertex
100
AcDb2dVertex
 10
94.53481119932715
 20
-126.1397513573539
 30
0.0
  0
VERTEX
  5
D6
330
D4
100
AcDbEntity
  8
_U+30EC_U+30A4_U+30E4_U+30FC 1
 62
   179
420
  2234388
370
    25
100
AcDbVertex
100
AcDb2dVertex
 10
93.83475899496474
 20
-125.1303483020508
 30
0.0
  0
SEQEND
  5
D7
330
D4
100
AcDbEntity
  8
_U+30EC_U+30A4_U+30E4_U+30FC 1
 62
   179
420
  2234388
370
    25
  0
POLYLINE
  5
D8
330
1F
100
AcDbEntity
  8
_U+30EC_U+30A4_U+30E4_U+30FC 1
 62
   179
420
  2234388
370
    25
100
AcDb2dPolyline
 66
     1
 10
0.0
 20
0.0
 30
0.0
  0
VERTEX
  5
D9
330
D8
100
AcDbEntity
  8
_U+30EC_U+30A4_U+30E4_U+30FC 1
 62
   179
420
  2234388
370
    25
100
AcDbVertex
100
AcDb2dVertex
 10
92.97726207239687
 20
-124.3197002466978
 30
0.0
  0
VERTEX
  5
DA
330
D8
100
AcDbEntity
  8
_U+30EC_U+30A4_U+30E4_U+30FC 1
 62
   179
420
  2234388
370
    25
100
AcDbVertex
100
AcDb2dVertex
 10
92.45465708572964
 20
-123.7405802468426
 30
0.0
  0
SEQEND
  5
DB
330
D8
100
AcDbEntity
  8
_U+30EC_U+30A4_U+30E4_U+30FC 1
 62
   179
420
  2234388
370
    25
  0
POLYLINE
  5
DC
330
1F
100
AcDbEntity
  8
_U+30EC_U+30A4_U+30E4_U+30FC 1
 62
   179
420
  2234388
370
    25
100
AcDb2dPolyline
 66
     1
 10
0.0
 20
0.0
 30
0.0
  0
VERTEX
  5
DD
330
DC
100
AcDbEntity
  8
_U+30EC_U+30A4_U+30E4_U+30FC 1
 62
   179
420
  2234388
370
    25
100
AcDbVertex
100
AcDb2dVertex
 10
92.97726207239687
 20
-124.3197002466978
 30
0.0
  0
VERTEX
  5
DE
330
DC
100
AcDbEntity
  8
_U+30EC_U+30A4_U+30E4_U+30FC 1
 62
   179
420
  2234388
370
    25
100
AcDbVertex
100
AcDb2dVertex
 10
93.12955623517819
 20
-123.554560524667
 30
0.0
  0
SEQEND
  5
DF
330
DC
100
AcDbEntity
  8
_U+30EC_U+30A4_U+30E4_U+30FC 1
 62
   179
420
  2234388
370
    25
  0
POLYLINE
  5
E0
330
1F
100
AcDbEntity
  8
_U+30EC_U+30A4_U+30E4_U+30FC 1
 62
   179
420
  2234388
370
    25
100
AcDb2dPolyline
 66
     1
 10
0.0
 20
0.0
 30
0.0
  0
VERTEX
  5
E1
330
E0
100
AcDbEntity
  8
_U+30EC_U+30A4_U+30E4_U+30FC 1
 62
   179
420
  2234388
370
    25
100
AcDbVertex
100
AcDb2dVertex
 10
90.60599574400403
 20
-125.1255152464963
 30
0.0
  0
VERTEX
  5
E2
330
E0
100
AcDbEntity
  8
_U+30EC_U+30A4_U+30E4_U+30FC 1
 62
   179
420
  2234388
370
    25
100
AcDbVertex
100
AcDb2dVertex
 10
90.01932631452677
 20
-124.6118708021802
 30
0.0
  0
SEQEND
  5
E3
330
E0
100
AcDbEntity
  8
_U+30EC_U+30A4_U+30E4_U+30FC 1
 62
   179
420
  2234388
370
    25
  0
POLYLINE
  5
E4
330
1F
100
AcDbEntity
  8
_U+30EC_U+30A4_U+30E4_U+30FC 1
 62
   179
420
  2234388
370
    25
100
AcDb2dPolyline
 66
     1
 10
0.0
 20
0.0
 30
0.0
  0
VERTEX
  5
E5
330
E4
100
AcDbEntity
  8
_U+30EC_U+30A4_U+30E4_U+30FC 1
 62
   179
420
  2234388
370
    25
100
AcDbVertex
100
AcDb2dVertex
 10
90.60599574400403
 20
-125.1255152464963
 30
0.0
  0
VERTEX
  5
E6
330
E4
100
AcDbEntity
  8
_U+30EC_U+30A4_U+30E4_U+30FC 1
 62
   179
420
  2234388
370
    25
100
AcDbVertex
100
AcDb2dVertex
 10
90.66766129798636
 20
-124.3479577466908
 30
0.0
  0
SEQEND
  5
E7
330
E4
100
AcDbEntity
  8
_U+30EC_U+30A4_U+30E4_U+30FC 1
 62
   179
420
  2234388
370
    25
  0
POLYLINE
  5
E8
330
1F
100
AcDbEntity
  8
_U+30EC_U+30A4_U+30E4_U+30FC 1
 62
   179
420
  2234388
370
    25
100
AcDb2dPolyline
 66
     1
 10
0.0
 20
0.0
 30
0.0
  0
VERTEX
  5
E9
330
E8
100
AcDbEntity
  8
_U+30EC_U+30A4_U+30E4_U+30FC 1
 62
   179
420
  2234388
370
    25
100
AcDbVertex
100
AcDb2dVertex
 10
88.33329552420766
 20
-126.2114005240029
 30
0.0
  0
VERTEX
  5
EA
330
E8
100
AcDbEntity
  8
_U+30EC_U+30A4_U+30E4_U+30FC 1
 62
   179
420
  2234388
370
    25
100
AcDbVertex
100
AcDb2dVertex
 10
87.68972304062656
 20
-125.7704283018909
 30
0.0
  0
SEQEND
  5
EB
330
E8
100
AcDbEntity
  8
_U+30EC_U+30A4_U+30E4_U+30FC 1
 62
   179
420
  2234388
370
    25
  0
POLYLINE
  5
EC
330
1F
100
AcDbEntity
  8
_U+30EC_U+30A4_U+30E4_U+30FC 1
 62
   179
420
  2234388
370
    25
100
AcDb2dPolyline
 66
     1
 10
0.0
 20
0.0
 30
0.0
  0
VERTEX
  5
ED
330
EC
100
AcDbEntity
  8
_U+30EC_U+30A4_U+30E4_U+30FC 1
 62
   179
420
  2234388
370
    25
100
AcDbVertex
100
AcDb2dVertex
 10
88.33329552420766
 20
-126.2114005240029
 30
0.0
  0
VERTEX
  5
EE
330
EC
100
AcDbEntity
  8
_U+30EC_U+30A4_U+30E4_U+30FC 1
 62
   179
420
  2234388
370
    25
100
AcDbVertex
100
AcDb2dVertex
 10
88.30228635833211
 20
-125.4321496908642
 30
0.0
  0
SEQEND
  5
EF
330
EC
100
AcDbEntity
  8
_U+30EC_U+30A4_U+30E4_U+30FC 1
 62
   179
420
  2234388
370
    25
  0
POLYLINE
  5
F0
330
1F
100
AcDbEntity
  8
_U+30EC_U+30A4_U+30E4_U+30FC 1
 62
   179
420
  2234388
370
    25
100
AcDb2dPolyline
 66
     1
 10
0.0
 20
0.0
 30
0.0
  0
VERTEX
  5
F1
330
F0
100
AcDbEntity
  8
_U+30EC_U+30A4_U+30E4_U+30FC 1
 62
   179
420
  2234388
370
    25
100
AcDbVertex
100
AcDb2dVertex
 10
86.18526696789732
 20
-127.5718880236627
 30
0.0
  0
VERTEX
  5
F2
330
F0
100
AcDbEntity
  8
_U+30EC_U+30A4_U+30E4_U+30FC 1
 62
   179
420
  2234388
370
    25
100
AcDbVertex
100
AcDb2dVertex
 10
85.4938225410931
 20
-127.2108552459752
 30
0.0
  0
SEQEND
  5
F3
330
F0
100
AcDbEntity
  8
_U+30EC_U+30A4_U+30E4_U+30FC 1
 62
   179
420
  2234388
370
    25
  0
POLYLINE
  5
F4
330
1F
100
AcDbEntity
  8
_U+30EC_U+30A4_U+30E4_U+30FC 1
 62
   179
420
  2234388
370
    25
100
AcDb2dPolyline
 66
     1
 10
0.0
 20
0.0
 30
0.0
  0
VERTEX
  5
F5
330
F4
100
AcDbEntity
  8
_U+30EC_U+30A4_U+30E4_U+30FC 1
 62
   179
420
  2234388
370
    25
100
AcDbVertex
100
AcDb2dVertex
 10
86.18526696789732
 20
-127.5718880236627
 30
0.0
  0
VERTEX
  5
F6
330
F4
100
AcDbEntity
  8
_U+30EC_U+30A4_U+30E4_U+30FC 1
 62
   179
420
  2234388
370
    25
100
AcDbVertex
100
AcDb2dVertex
 10
86.06158308216388
 20
-126.8015624682996
 30
0.0
  0
SEQEND
  5
F7
330
F4
100
AcDbEntity
  8
_U+30EC_U+30A4_U+30E4_U+30FC 1
 62
   179
420
  2234388
370
    25
  0
SPLINE
  5
F8
330
1F
100
AcDbEntity
  8
_U+30EC_U+30A4_U+30E4_U+30FC 1
 62
   179
420
  2234388
370
     9
100
AcDbSpline
210
0.0
220
0.0
230
1.0
 70
    11
 71
     3
 72
    17
 73
    13
 74
     0
 42
0.0000000001
 43
0.0000000001
 12
1.0
 22
0.0
 32
0.0
 13
1.0
 23
0.0
 33
0.0
 40
0.0
 40
0.0
 40
0.0
 40
0.0
 40
1.0
 40
1.0
 40
1.0
 40
2.0
 40
2.0
 40
2.0
 40
3.0
 40
3.0
 40
3.0
 40
4.0
 40
4.0
 40
4.0
 40
4.0
 10
111.1938946632074
 20
-133.7399957998982
 30
0.0
 10
111.1938946632074
 20
-133.684503855468
 30
0.0
 10
111.1491271643495
 20
-133.6397363554788
 30
0.0
 10
111.0939879990896
 20
-133.6397363554788
 30
0.0
 10
111.0388841116065
 20
-133.6397363554788
 30
0.0
 10
110.9940813349717
 20
-133.684503855468
 30
0.0
 10
110.9940813349717
 20
-133.7399957998982
 30
0.0
 10
110.9940813349717
 20
-133.7950996887731
 30
0.0
 10
111.0388841116065
 20
-133.8399024665399
 30
0.0
 10
111.0939879990896
 20
-133.8399024665399
 30
0.0
 10
111.1491271643495
 20
-133.8399024665399
 30
0.0
 10
111.1938946632074
 20
-133.7950996887731
 30
0.0
 10
111.1938946632074
 20
-133.7399957998982
 30
0.0
  0
SPLINE
  5
F9
330
1F
100
AcDbEntity
  8
_U+30EC_U+30A4_U+30E4_U+30FC 1
 62
   179
420
  2234388
370
     9
100
AcDbSpline
210
0.0
220
0.0
230
1.0
 70
    11
 71
     3
 72
    17
 73
    13
 74
     0
 42
0.0000000001
 43
0.0000000001
 12
1.0
 22
0.0
 32
0.0
 13
1.0
 23
0.0
 33
0.0
 40
0.0
 40
0.0
 40
0.0
 40
0.0
 40
1.0
 40
1.0
 40
1.0
 40
2.0
 40
2.0
 40
2.0
 40
3.0
 40
3.0
 40
3.0
 40
4.0
 40
4.0
 40
4.0
 40
4.0
 10
111.1938946632074
 20
-134.7400855218704
 30
0.0
 10
111.1938946632074
 20
-134.6846288552177
 30
0.0
 10
111.1491271643495
 20
-134.6401788552287
 30
0.0
 10
111.0939879990896
 20
-134.6401788552287
 30
0.0
 10
111.0388841116065
 20
-134.6401788552287
 30
0.0
 10
110.9940813349717
 20
-134.6846288552177
 30
0.0
 10
110.9940813349717
 20
-134.7400855218704
 30
0.0
 10
110.9940813349717
 20
-134.7952246885234
 30
0.0
 10
111.0388841116065
 20
-134.839992188512
 30
0.0
 10
111.0939879990896
 20
-134.839992188512
 30
0.0
 10
111.1491271643495
 20
-134.839992188512
 30
0.0
 10
111.1938946632074
 20
-134.7952246885234
 30
0.0
 10
111.1938946632074
 20
-134.7400855218704
 30
0.0
  0
SPLINE
  5
FA
330
1F
100
AcDbEntity
  8
_U+30EC_U+30A4_U+30E4_U+30FC 1
 62
   179
420
  2234388
370
     9
100
AcDbSpline
210
0.0
220
0.0
230
1.0
 70
    11
 71
     3
 72
    17
 73
    13
 74
     0
 42
0.0000000001
 43
0.0000000001
 12
1.0
 22
0.0
 32
0.0
 13
1.0
 23
0.0
 33
0.0
 40
0.0
 40
0.0
 40
0.0
 40
0.0
 40
1.0
 40
1.0
 40
1.0
 40
2.0
 40
2.0
 40
2.0
 40
3.0
 40
3.0
 40
3.0
 40
4.0
 40
4.0
 40
4.0
 40
4.0
 10
109.1347661046291
 20
-138.7398446875372
 30
0.0
 10
109.1347661046291
 20
-138.6847407986623
 30
0.0
 10
109.0899633279943
 20
-138.6399380208956
 30
0.0
 10
109.0348594405112
 20
-138.6399380208956
 30
0.0
 10
108.9794055283106
 20
-138.6399380208956
 30
0.0
 10
108.9346027505439
 20
-138.6847407986623
 30
0.0
 10
108.9346027505439
 20
-138.7398446875372
 30
0.0
 10
108.9346027505439
 20
-138.7953013541899
 30
0.0
 10
108.9794055283106
 20
-138.8401041319567
 30
0.0
 10
109.0348594405112
 20
-138.8401041319567
 30
0.0
 10
109.0899633279943
 20
-138.8401041319567
 30
0.0
 10
109.1347661046291
 20
-138.7953013541899
 30
0.0
 10
109.1347661046291
 20
-138.7398446875372
 30
0.0
  0
SPLINE
  5
FB
330
1F
100
AcDbEntity
  8
_U+30EC_U+30A4_U+30E4_U+30FC 1
 62
   179
420
  2234388
370
     9
100
AcDbSpline
210
0.0
220
0.0
230
1.0
 70
    11
 71
     3
 72
    17
 73
    13
 74
     0
 42
0.0000000001
 43
0.0000000001
 12
1.0
 22
0.0
 32
0.0
 13
1.0
 23
0.0
 33
0.0
 40
0.0
 40
0.0
 40
0.0
 40
0.0
 40
1.0
 40
1.0
 40
1.0
 40
2.0
 40
2.0
 40
2.0
 40
3.0
 40
3.0
 40
3.0
 40
4.0
 40
4.0
 40
4.0
 40
4.0
 10
81.13475931896873
 20
-138.7398446875372
 30
0.0
 10
81.13475931896873
 20
-138.6847407986623
 30
0.0
 10
81.08995654233397
 20
-138.6399380208956
 30
0.0
 10
81.03449987708211
 20
-138.6399380208956
 30
0.0
 10
80.97939598959904
 20
-138.6399380208956
 30
0.0
 10
80.93459321296429
 20
-138.6847407986623
 30
0.0
 10
80.93459321296429
 20
-138.7398446875372
 30
0.0
 10
80.93459321296429
 20
-138.7953013541899
 30
0.0
 10
80.97939598959904
 20
-138.8401041319567
 30
0.0
 10
81.03449987708211
 20
-138.8401041319567
 30
0.0
 10
81.08995654233397
 20
-138.8401041319567
 30
0.0
 10
81.13475931896873
 20
-138.7953013541899
 30
0.0
 10
81.13475931896873
 20
-138.7398446875372
 30
0.0
  0
SPLINE
  5
FC
330
1F
100
AcDbEntity
  8
_U+30EC_U+30A4_U+30E4_U+30FC 1
 62
   179
420
  2234388
370
     9
100
AcDbSpline
210
0.0
220
0.0
230
1.0
 70
    11
 71
     3
 72
    17
 73
    13
 74
     0
 42
0.0000000001
 43
0.0000000001
 12
1.0
 22
0.0
 32
0.0
 13
1.0
 23
0.0
 33
0.0
 40
0.0
 40
0.0
 40
0.0
 40
0.0
 40
1.0
 40
1.0
 40
1.0
 40
2.0
 40
2.0
 40
2.0
 40
3.0
 40
3.0
 40
3.0
 40
4.0
 40
4.0
 40
4.0
 40
4.0
 10
77.13464747657564
 20
-134.7400855218704
 30
0.0
 10
77.13464747657564
 20
-134.6846288552177
 30
0.0
 10
77.08987997771776
 20
-134.6401788552287
 30
0.0
 10
77.03474081245781
 20
-134.6401788552287
 30
0.0
 10
76.97963886964399
 20
-134.6401788552287
 30
0.0
 10
76.93483609187727
 20
-134.6846288552177
 30
0.0
 10
76.93483609187727
 20
-134.7400855218704
 30
0.0
 10
76.93483609187727
 20
-134.7952246885234
 30
0.0
 10
76.97963886964399
 20
-134.839992188512
 30
0.0
 10
77.03474081245781
 20
-134.839992188512
 30
0.0
 10
77.08987997771776
 20
-134.839992188512
 30
0.0
 10
77.13464747657564
 20
-134.7952246885234
 30
0.0
 10
77.13464747657564
 20
-134.7400855218704
 30
0.0
  0
SPLINE
  5
FD
330
1F
100
AcDbEntity
  8
_U+30EC_U+30A4_U+30E4_U+30FC 1
 62
   179
420
  2234388
370
     9
100
AcDbSpline
210
0.0
220
0.0
230
1.0
 70
    11
 71
     3
 72
    17
 73
    13
 74
     0
 42
0.0000000001
 43
0.0000000001
 12
1.0
 22
0.0
 32
0.0
 13
1.0
 23
0.0
 33
0.0
 40
0.0
 40
0.0
 40
0.0
 40
0.0
 40
1.0
 40
1.0
 40
1.0
 40
2.0
 40
2.0
 40
2.0
 40
3.0
 40
3.0
 40
3.0
 40
4.0
 40
4.0
 40
4.0
 40
4.0
 10
77.13464747657564
 20
-132.239984689162
 30
0.0
 10
77.13464747657564
 20
-132.1845280225093
 30
0.0
 10
77.08987997771776
 20
-132.1397252447426
 30
0.0
 10
77.03474081245781
 20
-132.1397252447426
 30
0.0
 10
76.97963886964399
 20
-132.1397252447426
 30
0.0
 10
76.93483609187727
 20
-132.1845280225093
 30
0.0
 10
76.93483609187727
 20
-132.239984689162
 30
0.0
 10
76.93483609187727
 20
-132.295123855815
 30
0.0
 10
76.97963886964399
 20
-132.3398913558036
 30
0.0
 10
77.03474081245781
 20
-132.3398913558036
 30
0.0
 10
77.08987997771776
 20
-132.3398913558036
 30
0.0
 10
77.13464747657564
 20
-132.295123855815
 30
0.0
 10
77.13464747657564
 20
-132.239984689162
 30
0.0
  0
SPLINE
  5
FE
330
1F
100
AcDbEntity
  8
_U+30EC_U+30A4_U+30E4_U+30FC 1
 62
   179
420
  2234388
370
    25
100
AcDbSpline
210
0.0
220
0.0
230
1.0
 70
     8
 71
     3
 72
     8
 73
     4
 74
     0
 42
0.0000000001
 43
0.0000000001
 12
1.0
 22
0.0
 32
0.0
 13
1.0
 23
0.0
 33
0.0
 40
0.0
 40
0.0
 40
0.0
 40
0.0
 40
1.0
 40
1.0
 40
1.0
 40
1.0
 10
93.83475899496474
 20
-125.1303483020508
 30
0.0
 10
90.33555630645907
 20
-125.9819891351712
 30
0.0
 10
87.12541972168981
 20
-127.7492999680626
 30
0.0
 10
84.53472775664417
 20
-130.2511294118816
 30
0.0
  0
SPLINE
  5
FF
330
1F
100
AcDbEntity
  8
_U+30EC_U+30A4_U+30E4_U+30FC 1
 62
   179
420
  2234388
370
    25
100
AcDbSpline
210
0.0
220
0.0
230
1.0
 70
     8
 71
     3
 72
     8
 73
     4
 74
     0
 42
0.0000000001
 43
0.0000000001
 12
1.0
 22
0.0
 32
0.0
 13
1.0
 23
0.0
 33
0.0
 40
0.0
 40
0.0
 40
0.0
 40
0.0
 40
1.0
 40
1.0
 40
1.0
 40
1.0
 10
94.53481119932715
 20
-123.2400238580789
 30
0.0
 10
94.06314732247141
 20
-123.3292413580565
 30
0.0
 10
93.594270389989
 20
-123.4343338580304
 30
0.0
 10
93.12955623517819
 20
-123.554560524667
 30
0.0
  0
SPLINE
  5
100
330
1F
100
AcDbEntity
  8
_U+30EC_U+30A4_U+30E4_U+30FC 1
 62
   179
420
  2234388
370
    25
100
AcDbSpline
210
0.0
220
0.0
230
1.0
 70
     8
 71
     3
 72
     8
 73
     4
 74
     0
 42
0.0000000001
 43
0.0000000001
 12
1.0
 22
0.0
 32
0.0
 13
1.0
 23
0.0
 33
0.0
 40
0.0
 40
0.0
 40
0.0
 40
0.0
 40
1.0
 40
1.0
 40
1.0
 40
1.0
 10
82.73086705602641
 20
-132.239984689162
 30
0.0
 10
82.10387512757787
 20
-133.0299599667426
 30
0.0
 10
81.53713764203654
 20
-133.865725799867
 30
0.0
 10
81.03449987708211
 20
-134.7400855218704
 30
0.0
  0
SPLINE
  5
101
330
1F
100
AcDbEntity
  8
_U+30EC_U+30A4_U+30E4_U+30FC 1
 62
   179
420
  2234388
370
    25
100
AcDbSpline
210
0.0
220
0.0
230
1.0
 70
     8
 71
     3
 72
     8
 73
     4
 74
     0
 42
0.0000000001
 43
0.0000000001
 12
1.0
 22
0.0
 32
0.0
 13
1.0
 23
0.0
 33
0.0
 40
0.0
 40
0.0
 40
0.0
 40
0.0
 40
1.0
 40
1.0
 40
1.0
 40
1.0
 10
85.4938225410931
 20
-127.2108552459752
 30
0.0
 10
83.80228841758107
 20
-128.47069524566
 30
0.0
 10
82.30023331275841
 20
-129.9679546897302
 30
0.0
 10
81.03449987708211
 20
-131.6553613559749
 30
0.0
  0
SPLINE
  5
102
330
1F
100
AcDbEntity
  8
_U+30EC_U+30A4_U+30E4_U+30FC 1
 62
   179
420
  2234388
370
    25
100
AcDbSpline
210
0.0
220
0.0
230
1.0
 70
     8
 71
     3
 72
     8
 73
     4
 74
     0
 42
0.0000000001
 43
0.0000000001
 12
1.0
 22
0.0
 32
0.0
 13
1.0
 23
0.0
 33
0.0
 40
0.0
 40
0.0
 40
0.0
 40
0.0
 40
1.0
 40
1.0
 40
1.0
 40
1.0
 10
87.68972304062656
 20
-125.7704283018909
 30
0.0
 10
87.13233416595784
 20
-126.0901508018108
 30
0.0
 10
86.58902112426337
 20
-126.4343208017247
 30
0.0
 10
86.06158308216388
 20
-126.8015624682996
 30
0.0
  0
SPLINE
  5
103
330
1F
100
AcDbEntity
  8
_U+30EC_U+30A4_U+30E4_U+30FC 1
 62
   179
420
  2234388
370
    25
100
AcDbSpline
210
0.0
220
0.0
230
1.0
 70
     8
 71
     3
 72
     8
 73
     4
 74
     0
 42
0.0000000001
 43
0.0000000001
 12
1.0
 22
0.0
 32
0.0
 13
1.0
 23
0.0
 33
0.0
 40
0.0
 40
0.0
 40
0.0
 40
0.0
 40
1.0
 40
1.0
 40
1.0
 40
1.0
 10
90.01932631452677
 20
-124.6118708021802
 30
0.0
 10
89.43537327386909
 20
-124.8602616354515
 30
0.0
 10
88.86246217737417
 20
-125.134123024272
 30
0.0
 10
88.30228635833211
 20
-125.4321496908642
 30
0.0
  0
SPLINE
  5
104
330
1F
100
AcDbEntity
  8
_U+30EC_U+30A4_U+30E4_U+30FC 1
 62
   179
420
  2234388
370
    25
100
AcDbSpline
210
0.0
220
0.0
230
1.0
 70
     8
 71
     3
 72
     8
 73
     4
 74
     0
 42
0.0000000001
 43
0.0000000001
 12
1.0
 22
0.0
 32
0.0
 13
1.0
 23
0.0
 33
0.0
 40
0.0
 40
0.0
 40
0.0
 40
0.0
 40
1.0
 40
1.0
 40
1.0
 40
1.0
 10
92.45465708572964
 20
-123.7405802468426
 30
0.0
 10
91.85073682335914
 20
-123.9173219134651
 30
0.0
 10
91.2540485052486
 20
-124.1202396911923
 30
0.0
 10
90.66766129798636
 20
-124.3479577466908
 30
0.0
  0
SPLINE
  5
105
330
1F
100
AcDbEntity
  8
_U+30EC_U+30A4_U+30E4_U+30FC 1
 62
   179
420
  2234388
370
     9
100
AcDbSpline
210
0.0
220
0.0
230
1.0
 70
    11
 71
     3
 72
    17
 73
    13
 74
     0
 42
0.0000000001
 43
0.0000000001
 12
1.0
 22
0.0
 32
0.0
 13
1.0
 23
0.0
 33
0.0
 40
0.0
 40
0.0
 40
0.0
 40
0.0
 40
1.0
 40
1.0
 40
1.0
 40
2.0
 40
2.0
 40
2.0
 40
3.0
 40
3.0
 40
3.0
 40
4.0
 40
4.0
 40
4.0
 40
4.0
 10
73.13488841195134
 20
-123.2400238580789
 30
0.0
 10
73.13488841195134
 20
-123.1845671914259
 30
0.0
 10
73.09012091309344
 20
-123.1397644136595
 30
0.0
 10
73.03462897006472
 20
-123.1397644136595
 30
0.0
 10
72.97952508258165
 20
-123.1397644136595
 30
0.0
 10
72.93472230594688
 20
-123.1845671914259
 30
0.0
 10
72.93472230594688
 20
-123.2400238580789
 30
0.0
 10
72.93472230594688
 20
-123.2951277469539
 30
0.0
 10
72.97952508258165
 20
-123.3399305247206
 30
0.0
 10
73.03462897006472
 20
-123.3399305247206
 30
0.0
 10
73.09012091309344
 20
-123.3399305247206
 30
0.0
 10
73.13488841195134
 20
-123.2951277469539
 30
0.0
 10
73.13488841195134
 20
-123.2400238580789
 30
0.0
  0
SPLINE
  5
106
330
1F
100
AcDbEntity
  8
_U+30EC_U+30A4_U+30E4_U+30FC 1
 62
   179
420
  2234388
370
     9
100
AcDbSpline
210
0.0
220
0.0
230
1.0
 70
    11
 71
     3
 72
    17
 73
    13
 74
     0
 42
0.0000000001
 43
0.0000000001
 12
1.0
 22
0.0
 32
0.0
 13
1.0
 23
0.0
 33
0.0
 40
0.0
 40
0.0
 40
0.0
 40
0.0
 40
1.0
 40
1.0
 40
1.0
 40
2.0
 40
2.0
 40
2.0
 40
3.0
 40
3.0
 40
3.0
 40
4.0
 40
4.0
 40
4.0
 40
4.0
 10
73.13488841195134
 20
-134.7400855218704
 30
0.0
 10
73.13488841195134
 20
-134.6846288552177
 30
0.0
 10
73.09012091309344
 20
-134.6401788552287
 30
0.0
 10
73.03462897006472
 20
-134.6401788552287
 30
0.0
 10
72.97952508258165
 20
-134.6401788552287
 30
0.0
 10
72.93472230594688
 20
-134.6846288552177
 30
0.0
 10
72.93472230594688
 20
-134.7400855218704
 30
0.0
 10
72.93472230594688
 20
-134.7952246885234
 30
0.0
 10
72.97952508258165
 20
-134.839992188512
 30
0.0
 10
73.03462897006472
 20
-134.839992188512
 30
0.0
 10
73.09012091309344
 20
-134.839992188512
 30
0.0
 10
73.13488841195134
 20
-134.7952246885234
 30
0.0
 10
73.13488841195134
 20
-134.7400855218704
 30
0.0
  0
SPLINE
  5
107
330
1F
100
AcDbEntity
  8
_U+30EC_U+30A4_U+30E4_U+30FC 1
 62
   179
420
  2234388
370
     9
100
AcDbSpline
210
0.0
220
0.0
230
1.0
 70
    11
 71
     3
 72
    17
 73
    13
 74
     0
 42
0.0000000001
 43
0.0000000001
 12
1.0
 22
0.0
 32
0.0
 13
1.0
 23
0.0
 33
0.0
 40
0.0
 40
0.0
 40
0.0
 40
0.0
 40
1.0
 40
1.0
 40
1.0
 40
2.0
 40
2.0
 40
2.0
 40
3.0
 40
3.0
 40
3.0
 40
4.0
 40
4.0
 40
4.0
 40
4.0
 10
94.63471786344499
 20
-119.2399119146346
 30
0.0
 10
94.63471786344499
 20
-119.1848080257594
 30
0.0
 10
94.58991508681022
 20
-119.1400052479927
 30
0.0
 10
94.53481119932715
 20
-119.1400052479927
 30
0.0
 10
94.47931925629842
 20
-119.1400052479927
 30
0.0
 10
94.43490453520931
 20
-119.1848080257594
 30
0.0
 10
94.43490453520931
 20
-119.2399119146346
 30
0.0
 10
94.43490453520931
 20
-119.2950510812874
 30
0.0
 10
94.47931925629842
 20
-119.3398185812762
 30
0.0
 10
94.53481119932715
 20
-119.3398185812762
 30
0.0
 10
94.58991508681022
 20
-119.3398185812762
 30
0.0
 10
94.63471786344499
 20
-119.2950510812874
 30
0.0
 10
94.63471786344499
 20
-119.2399119146346
 30
0.0
  0
SPLINE
  5
108
330
1F
100
AcDbEntity
  8
_U+30EC_U+30A4_U+30E4_U+30FC 1
 62
   179
420
  2234388
370
     9
100
AcDbSpline
210
0.0
220
0.0
230
1.0
 70
    11
 71
     3
 72
    17
 73
    13
 74
     0
 42
0.0000000001
 43
0.0000000001
 12
1.0
 22
0.0
 32
0.0
 13
1.0
 23
0.0
 33
0.0
 40
0.0
 40
0.0
 40
0.0
 40
0.0
 40
1.0
 40
1.0
 40
1.0
 40
2.0
 40
2.0
 40
2.0
 40
3.0
 40
3.0
 40
3.0
 40
4.0
 40
4.0
 40
4.0
 40
4.0
 10
84.63463228523509
 20
-119.2399119146346
 30
0.0
 10
84.63463228523509
 20
-119.1848080257594
 30
0.0
 10
84.58982950860033
 20
-119.1400052479927
 30
0.0
 10
84.53472775664417
 20
-119.1400052479927
 30
0.0
 10
84.4795864558573
 20
-119.1400052479927
 30
0.0
 10
84.43481895699942
 20
-119.1848080257594
 30
0.0
 10
84.43481895699942
 20
-119.2399119146346
 30
0.0
 10
84.43481895699942
 20
-119.2950510812874
 30
0.0
 10
84.4795864558573
 20
-119.3398185812762
 30
0.0
 10
84.53472775664417
 20
-119.3398185812762
 30
0.0
 10
84.58982950860033
 20
-119.3398185812762
 30
0.0
 10
84.63463228523509
 20
-119.2950510812874
 30
0.0
 10
84.63463228523509
 20
-119.2399119146346
 30
0.0
  0
SPLINE
  5
109
330
1F
100
AcDbEntity
  8
_U+30EC_U+30A4_U+30E4_U+30FC 1
 62
   179
420
  2234388
370
     9
100
AcDbSpline
210
0.0
220
0.0
230
1.0
 70
    11
 71
     3
 72
    17
 73
    13
 74
     0
 42
0.0000000001
 43
0.0000000001
 12
1.0
 22
0.0
 32
0.0
 13
1.0
 23
0.0
 33
0.0
 40
0.0
 40
0.0
 40
0.0
 40
0.0
 40
1.0
 40
1.0
 40
1.0
 40
2.0
 40
2.0
 40
2.0
 40
3.0
 40
3.0
 40
3.0
 40
4.0
 40
4.0
 40
4.0
 40
4.0
 10
81.13475931896873
 20
-119.2399119146346
 30
0.0
 10
81.13475931896873
 20
-119.1848080257594
 30
0.0
 10
81.08995654233397
 20
-119.1400052479927
 30
0.0
 10
81.03449987708211
 20
-119.1400052479927
 30
0.0
 10
80.97939598959904
 20
-119.1400052479927
 30
0.0
 10
80.93459321296429
 20
-119.1848080257594
 30
0.0
 10
80.93459321296429
 20
-119.2399119146346
 30
0.0
 10
80.93459321296429
 20
-119.2950510812874
 30
0.0
 10
80.97939598959904
 20
-119.3398185812762
 30
0.0
 10
81.03449987708211
 20
-119.3398185812762
 30
0.0
 10
81.08995654233397
 20
-119.3398185812762
 30
0.0
 10
81.13475931896873
 20
-119.2950510812874
 30
0.0
 10
81.13475931896873
 20
-119.2399119146346
 30
0.0
  0
POLYLINE
  5
10A
330
1F
100
AcDbEntity
  8
_U+30EC_U+30A4_U+30E4_U+30FC 1
 62
   179
420
  2234388
370
     9
100
AcDb2dPolyline
 66
     1
 10
0.0
 20
0.0
 30
0.0
  0
VERTEX
  5
10B
330
10A
100
AcDbEntity
  8
_U+30EC_U+30A4_U+30E4_U+30FC 1
 62
   179
420
  2234388
370
     9
100
AcDbVertex
100
AcDb2dVertex
 10
81.03449987708211
 20
-138.7398446875372
 30
0.0
  0
VERTEX
  5
10C
330
10A
100
AcDbEntity
  8
_U+30EC_U+30A4_U+30E4_U+30FC 1
 62
   179
420
  2234388
370
     9
100
AcDbVertex
100
AcDb2dVertex
 10
109.0348594405112
 20
-138.7398446875372
 30
0.0
  0
SEQEND
  5
10D
330
10A
100
AcDbEntity
  8
_U+30EC_U+30A4_U+30E4_U+30FC 1
 62
   179
420
  2234388
370
     9
  0
POLYLINE
  5
10E
330
1F
100
AcDbEntity
  8
_U+30EC_U+30A4_U+30E4_U+30FC 1
 62
   179
420
  2234388
370
     9
100
AcDb2dPolyline
 66
     1
 10
0.0
 20
0.0
 30
0.0
  0
VERTEX
  5
10F
330
10E
100
AcDbEntity
  8
_U+30EC_U+30A4_U+30E4_U+30FC 1
 62
   179
420
  2234388
370
     9
100
AcDbVertex
100
AcDb2dVertex
 10
81.03449987708211
 20
-137.2798032990135
 30
0.0
  0
VERTEX
  5
110
330
10E
100
AcDbEntity
  8
_U+30EC_U+30A4_U+30E4_U+30FC 1
 62
   179
420
  2234388
370
     9
100
AcDbVertex
100
AcDb2dVertex
 10
81.03449987708211
 20
-139.7399696872876
 30
0.0
  0
SEQEND
  5
111
330
10E
100
AcDbEntity
  8
_U+30EC_U+30A4_U+30E4_U+30FC 1
 62
   179
420
  2234388
370
     9
  0
POLYLINE
  5
112
330
1F
100
AcDbEntity
  8
_U+30EC_U+30A4_U+30E4_U+30FC 1
 62
   179
420
  2234388
370
     9
100
AcDb2dPolyline
 66
     1
 10
0.0
 20
0.0
 30
0.0
  0
VERTEX
  5
113
330
112
100
AcDbEntity
  8
_U+30EC_U+30A4_U+30E4_U+30FC 1
 62
   179
420
  2234388
370
     9
100
AcDbVertex
100
AcDb2dVertex
 10
109.0348594405112
 20
-137.2798032990135
 30
0.0
  0
VERTEX
  5
114
330
112
100
AcDbEntity
  8
_U+30EC_U+30A4_U+30E4_U+30FC 1
 62
   179
420
  2234388
370
     9
100
AcDbVertex
100
AcDb2dVertex
 10
109.0348594405112
 20
-139.7399696872876
 30
0.0
  0
SEQEND
  5
115
330
112
100
AcDbEntity
  8
_U+30EC_U+30A4_U+30E4_U+30FC 1
 62
   179
420
  2234388
370
     9
  0
INSERT
  5
117
330
1F
100
AcDbEntity
  8
_U+30EC_U+30A4_U+30E4_U+30FC 1
100
AcDbBlockReference
  2
block 2
 10
0.0
 20
0.0
 30
0.0
  0
POLYLINE
  5
120
330
1F
100
AcDbEntity
  8
_U+30EC_U+30A4_U+30E4_U+30FC 1
 62
   179
420
  2234388
370
     9
100
AcDb2dPolyline
 66
     1
 10
0.0
 20
0.0
 30
0.0
  0
VERTEX
  5
121
330
120
100
AcDbEntity
  8
_U+30EC_U+30A4_U+30E4_U+30FC 1
 62
   179
420
  2234388
370
     9
100
AcDbVertex
100
AcDb2dVertex
 10
111.0939879990896
 20
-133.7399957998982
 30
0.0
  0
VERTEX
  5
122
330
120
100
AcDbEntity
  8
_U+30EC_U+30A4_U+30E4_U+30FC 1
 62
   179
420
  2234388
370
     9
100
AcDbVertex
100
AcDb2dVertex
 10
111.0939879990896
 20
-129.9696833008408
 30
0.0
  0
SEQEND
  5
123
330
120
100
AcDbEntity
  8
_U+30EC_U+30A4_U+30E4_U+30FC 1
 62
   179
420
  2234388
370
     9
  0
POLYLINE
  5
124
330
1F
100
AcDbEntity
  8
_U+30EC_U+30A4_U+30E4_U+30FC 1
 62
   179
420
  2234388
370
     9
100
AcDb2dPolyline
 66
     1
 10
0.0
 20
0.0
 30
0.0
  0
VERTEX
  5
125
330
124
100
AcDbEntity
  8
_U+30EC_U+30A4_U+30E4_U+30FC 1
 62
   179
420
  2234388
370
     9
100
AcDbVertex
100
AcDb2dVertex
 10
111.0939879990896
 20
-135.7398577438429
 30
0.0
  0
VERTEX
  5
126
330
124
100
AcDbEntity
  8
_U+30EC_U+30A4_U+30E4_U+30FC 1
 62
   179
420
  2234388
370
     9
100
AcDbVertex
100
AcDb2dVertex
 10
111.0939879990896
 20
-133.7399957998982
 30
0.0
  0
SEQEND
  5
127
330
124
100
AcDbEntity
  8
_U+30EC_U+30A4_U+30E4_U+30FC 1
 62
   179
420
  2234388
370
     9
  0
POLYLINE
  5
128
330
1F
100
AcDbEntity
  8
_U+30EC_U+30A4_U+30E4_U+30FC 1
 62
   179
420
  2234388
370
     9
100
AcDb2dPolyline
 66
     1
 10
0.0
 20
0.0
 30
0.0
  0
VERTEX
  5
129
330
128
100
AcDbEntity
  8
_U+30EC_U+30A4_U+30E4_U+30FC 1
 62
   179
420
  2234388
370
     9
100
AcDbVertex
100
AcDb2dVertex
 10
109.6339466474494
 20
-134.7400855218704
 30
0.0
  0
VERTEX
  5
12A
330
128
100
AcDbEntity
  8
_U+30EC_U+30A4_U+30E4_U+30FC 1
 62
   179
420
  2234388
370
     9
100
AcDbVertex
100
AcDb2dVertex
 10
112.0937601958055
 20
-134.7400855218704
 30
0.0
  0
SEQEND
  5
12B
330
128
100
AcDbEntity
  8
_U+30EC_U+30A4_U+30E4_U+30FC 1
 62
   179
420
  2234388
370
     9
  0
POLYLINE
  5
12C
330
1F
100
AcDbEntity
  8
_U+30EC_U+30A4_U+30E4_U+30FC 1
 62
   179
420
  2234388
370
     9
100
AcDb2dPolyline
 66
     1
 10
0.0
 20
0.0
 30
0.0
  0
VERTEX
  5
12D
330
12C
100
AcDbEntity
  8
_U+30EC_U+30A4_U+30E4_U+30FC 1
 62
   179
420
  2234388
370
     9
100
AcDbVertex
100
AcDb2dVertex
 10
109.6339466474494
 20
-133.7399957998982
 30
0.0
  0
VERTEX
  5
12E
330
12C
100
AcDbEntity
  8
_U+30EC_U+30A4_U+30E4_U+30FC 1
 62
   179
420
  2234388
370
     9
100
AcDbVertex
100
AcDb2dVertex
 10
112.0937601958055
 20
-133.7399957998982
 30
0.0
  0
SEQEND
  5
12F
330
12C
100
AcDbEntity
  8
_U+30EC_U+30A4_U+30E4_U+30FC 1
 62
   179
420
  2234388
370
     9
  0
INSERT
  5
131
330
1F
100
AcDbEntity
  8
_U+30EC_U+30A4_U+30E4_U+30FC 1
100
AcDbBlockReference
  2
block 3
 10
0.0
 20
0.0
 30
0.0
  0
POLYLINE
  5
136
330
1F
100
AcDbEntity
  8
_U+30EC_U+30A4_U+30E4_U+30FC 1
 62
   179
420
  2234388
370
     9
100
AcDb2dPolyline
 66
     1
 10
0.0
 20
0.0
 30
0.0
  0
VERTEX
  5
137
330
136
100
AcDbEntity
  8
_U+30EC_U+30A4_U+30E4_U+30FC 1
 62
   179
420
  2234388
370
     9
100
AcDbVertex
100
AcDb2dVertex
 10
77.03474081245781
 20
-134.7400855218704
 30
0.0
  0
VERTEX
  5
138
330
136
100
AcDbEntity
  8
_U+30EC_U+30A4_U+30E4_U+30FC 1
 62
   179
420
  2234388
370
     9
100
AcDbVertex
100
AcDb2dVertex
 10
77.03474081245781
 20
-139.9976738538897
 30
0.0
  0
SEQEND
  5
139
330
136
100
AcDbEntity
  8
_U+30EC_U+30A4_U+30E4_U+30FC 1
 62
   179
420
  2234388
370
     9
  0
POLYLINE
  5
13A
330
1F
100
AcDbEntity
  8
_U+30EC_U+30A4_U+30E4_U+30FC 1
 62
   179
420
  2234388
370
     9
100
AcDb2dPolyline
 66
     1
 10
0.0
 20
0.0
 30
0.0
  0
VERTEX
  5
13B
330
13A
100
AcDbEntity
  8
_U+30EC_U+30A4_U+30E4_U+30FC 1
 62
   179
420
  2234388
370
     9
100
AcDbVertex
100
AcDb2dVertex
 10
77.03474081245781
 20
-134.7400855218704
 30
0.0
  0
VERTEX
  5
13C
330
13A
100
AcDbEntity
  8
_U+30EC_U+30A4_U+30E4_U+30FC 1
 62
   179
420
  2234388
370
     9
100
AcDbVertex
100
AcDb2dVertex
 10
77.03474081245781
 20
-131.2398949671898
 30
0.0
  0
SEQEND
  5
13D
330
13A
100
AcDbEntity
  8
_U+30EC_U+30A4_U+30E4_U+30FC 1
 62
   179
420
  2234388
370
     9
  0
POLYLINE
  5
13E
330
1F
100
AcDbEntity
  8
_U+30EC_U+30A4_U+30E4_U+30FC 1
 62
   179
420
  2234388
370
     9
100
AcDb2dPolyline
 66
     1
 10
0.0
 20
0.0
 30
0.0
  0
VERTEX
  5
13F
330
13E
100
AcDbEntity
  8
_U+30EC_U+30A4_U+30E4_U+30FC 1
 62
   179
420
  2234388
370
     9
100
AcDbVertex
100
AcDb2dVertex
 10
80.99453015587962
 20
-134.7400855218704
 30
0.0
  0
VERTEX
  5
140
330
13E
100
AcDbEntity
  8
_U+30EC_U+30A4_U+30E4_U+30FC 1
 62
   179
420
  2234388
370
     9
100
AcDbVertex
100
AcDb2dVertex
 10
76.0349686157419
 20
-134.7400855218704
 30
0.0
  0
SEQEND
  5
141
330
13E
100
AcDbEntity
  8
_U+30EC_U+30A4_U+30E4_U+30FC 1
 62
   179
420
  2234388
370
     9
  0
POLYLINE
  5
142
330
1F
100
AcDbEntity
  8
_U+30EC_U+30A4_U+30E4_U+30FC 1
 62
   179
420
  2234388
370
     9
100
AcDb2dPolyline
 66
     1
 10
0.0
 20
0.0
 30
0.0
  0
VERTEX
  5
143
330
142
100
AcDbEntity
  8
_U+30EC_U+30A4_U+30E4_U+30FC 1
 62
   179
420
  2234388
370
     9
100
AcDbVertex
100
AcDb2dVertex
 10
80.16772489919539
 20
-132.239984689162
 30
0.0
  0
VERTEX
  5
144
330
142
100
AcDbEntity
  8
_U+30EC_U+30A4_U+30E4_U+30FC 1
 62
   179
420
  2234388
370
     9
100
AcDbVertex
100
AcDb2dVertex
 10
76.0349686157419
 20
-132.239984689162
 30
0.0
  0
SEQEND
  5
145
330
142
100
AcDbEntity
  8
_U+30EC_U+30A4_U+30E4_U+30FC 1
 62
   179
420
  2234388
370
     9
  0
INSERT
  5
147
330
1F
100
AcDbEntity
  8
_U+30EC_U+30A4_U+30E4_U+30FC 1
100
AcDbBlockReference
  2
block 4
 10
0.0
 20
0.0
 30
0.0
  0
POLYLINE
  5
156
330
1F
100
AcDbEntity
  8
_U+30EC_U+30A4_U+30E4_U+30FC 1
 62
   179
420
  2234388
370
     9
100
AcDb2dPolyline
 66
     1
 10
0.0
 20
0.0
 30
0.0
  0
VERTEX
  5
157
330
156
100
AcDbEntity
  8
_U+30EC_U+30A4_U+30E4_U+30FC 1
 62
   179
420
  2234388
370
     9
100
AcDbVertex
100
AcDb2dVertex
 10
73.03462897006472
 20
-123.2400238580789
 30
0.0
  0
VERTEX
  5
158
330
156
100
AcDbEntity
  8
_U+30EC_U+30A4_U+30E4_U+30FC 1
 62
   179
420
  2234388
370
     9
100
AcDbVertex
100
AcDb2dVertex
 10
73.03462897006472
 20
-134.7400855218704
 30
0.0
  0
SEQEND
  5
159
330
156
100
AcDbEntity
  8
_U+30EC_U+30A4_U+30E4_U+30FC 1
 62
   179
420
  2234388
370
     9
  0
POLYLINE
  5
15A
330
1F
100
AcDbEntity
  8
_U+30EC_U+30A4_U+30E4_U+30FC 1
 62
   179
420
  2234388
370
     9
100
AcDb2dPolyline
 66
     1
 10
0.0
 20
0.0
 30
0.0
  0
VERTEX
  5
15B
330
15A
100
AcDbEntity
  8
_U+30EC_U+30A4_U+30E4_U+30FC 1
 62
   179
420
  2234388
370
     9
100
AcDbVertex
100
AcDb2dVertex
 10
91.99474070857418
 20
-123.2400238580789
 30
0.0
  0
VERTEX
  5
15C
330
15A
100
AcDbEntity
  8
_U+30EC_U+30A4_U+30E4_U+30FC 1
 62
   179
420
  2234388
370
     9
100
AcDbVertex
100
AcDb2dVertex
 10
72.03453927335691
 20
-123.2400238580789
 30
0.0
  0
SEQEND
  5
15D
330
15A
100
AcDbEntity
  8
_U+30EC_U+30A4_U+30E4_U+30FC 1
 62
   179
420
  2234388
370
     9
  0
POLYLINE
  5
15E
330
1F
100
AcDbEntity
  8
_U+30EC_U+30A4_U+30E4_U+30FC 1
 62
   179
420
  2234388
370
     9
100
AcDb2dPolyline
 66
     1
 10
0.0
 20
0.0
 30
0.0
  0
VERTEX
  5
15F
330
15E
100
AcDbEntity
  8
_U+30EC_U+30A4_U+30E4_U+30FC 1
 62
   179
420
  2234388
370
     9
100
AcDbVertex
100
AcDb2dVertex
 10
78.49478216409794
 20
-134.7400855218704
 30
0.0
  0
VERTEX
  5
160
330
15E
100
AcDbEntity
  8
_U+30EC_U+30A4_U+30E4_U+30FC 1
 62
   179
420
  2234388
370
     9
100
AcDbVertex
100
AcDb2dVertex
 10
72.03453927335691
 20
-134.7400855218704
 30
0.0
  0
SEQEND
  5
161
330
15E
100
AcDbEntity
  8
_U+30EC_U+30A4_U+30E4_U+30FC 1
 62
   179
420
  2234388
370
     9
  0
INSERT
  5
163
330
1F
100
AcDbEntity
  8
_U+30EC_U+30A4_U+30E4_U+30FC 1
100
AcDbBlockReference
  2
block 5
 10
0.0
 20
0.0
 30
0.0
  0
POLYLINE
  5
174
330
1F
100
AcDbEntity
  8
_U+30EC_U+30A4_U+30E4_U+30FC 1
 62
   179
420
  2234388
370
     9
100
AcDb2dPolyline
 66
     1
 10
0.0
 20
0.0
 30
0.0
  0
VERTEX
  5
175
330
174
100
AcDbEntity
  8
_U+30EC_U+30A4_U+30E4_U+30FC 1
 62
   179
420
  2234388
370
     9
100
AcDbVertex
100
AcDb2dVertex
 10
84.53472775664417
 20
-119.2399119146346
 30
0.0
  0
VERTEX
  5
176
330
174
100
AcDbEntity
  8
_U+30EC_U+30A4_U+30E4_U+30FC 1
 62
   179
420
  2234388
370
     9
100
AcDbVertex
100
AcDb2dVertex
 10
94.53481119932715
 20
-119.2399119146346
 30
0.0
  0
SEQEND
  5
177
330
174
100
AcDbEntity
  8
_U+30EC_U+30A4_U+30E4_U+30FC 1
 62
   179
420
  2234388
370
     9
  0
POLYLINE
  5
178
330
1F
100
AcDbEntity
  8
_U+30EC_U+30A4_U+30E4_U+30FC 1
 62
   179
420
  2234388
370
     9
100
AcDb2dPolyline
 66
     1
 10
0.0
 20
0.0
 30
0.0
  0
VERTEX
  5
179
330
178
100
AcDbEntity
  8
_U+30EC_U+30A4_U+30E4_U+30FC 1
 62
   179
420
  2234388
370
     9
100
AcDbVertex
100
AcDb2dVertex
 10
84.53472775664417
 20
-127.711058856961
 30
0.0
  0
VERTEX
  5
17A
330
178
100
AcDbEntity
  8
_U+30EC_U+30A4_U+30E4_U+30FC 1
 62
   179
420
  2234388
370
     9
100
AcDbVertex
100
AcDb2dVertex
 10
84.53472775664417
 20
-118.2401396926621
 30
0.0
  0
SEQEND
  5
17B
330
178
100
AcDbEntity
  8
_U+30EC_U+30A4_U+30E4_U+30FC 1
 62
   179
420
  2234388
370
     9
  0
POLYLINE
  5
17C
330
1F
100
AcDbEntity
  8
_U+30EC_U+30A4_U+30E4_U+30FC 1
 62
   179
420
  2234388
370
     9
100
AcDb2dPolyline
 66
     1
 10
0.0
 20
0.0
 30
0.0
  0
VERTEX
  5
17D
330
17C
100
AcDbEntity
  8
_U+30EC_U+30A4_U+30E4_U+30FC 1
 62
   179
420
  2234388
370
     9
100
AcDbVertex
100
AcDb2dVertex
 10
94.53481119932715
 20
-120.6999533031583
 30
0.0
  0
VERTEX
  5
17E
330
17C
100
AcDbEntity
  8
_U+30EC_U+30A4_U+30E4_U+30FC 1
 62
   179
420
  2234388
370
     9
100
AcDbVertex
100
AcDb2dVertex
 10
94.53481119932715
 20
-118.2401396926621
 30
0.0
  0
SEQEND
  5
17F
330
17C
100
AcDbEntity
  8
_U+30EC_U+30A4_U+30E4_U+30FC 1
 62
   179
420
  2234388
370
     9
  0
INSERT
  5
181
330
1F
100
AcDbEntity
  8
_U+30EC_U+30A4_U+30E4_U+30FC 1
100
AcDbBlockReference
  2
block 6
 10
0.0
 20
0.0
 30
0.0
  0
POLYLINE
  5
189
330
1F
100
AcDbEntity
  8
_U+30EC_U+30A4_U+30E4_U+30FC 1
 62
   179
420
  2234388
370
     9
100
AcDb2dPolyline
 66
     1
 10
0.0
 20
0.0
 30
0.0
  0
VERTEX
  5
18A
330
189
100
AcDbEntity
  8
_U+30EC_U+30A4_U+30E4_U+30FC 1
 62
   179
420
  2234388
370
     9
100
AcDbVertex
100
AcDb2dVertex
 10
81.03449987708211
 20
-119.2399119146346
 30
0.0
  0
VERTEX
  5
18B
330
189
100
AcDbEntity
  8
_U+30EC_U+30A4_U+30E4_U+30FC 1
 62
   179
420
  2234388
370
     9
100
AcDbVertex
100
AcDb2dVertex
 10
75.77694695565792
 20
-119.2399119146346
 30
0.0
  0
SEQEND
  5
18C
330
189
100
AcDbEntity
  8
_U+30EC_U+30A4_U+30E4_U+30FC 1
 62
   179
420
  2234388
370
     9
  0
POLYLINE
  5
18D
330
1F
100
AcDbEntity
  8
_U+30EC_U+30A4_U+30E4_U+30FC 1
 62
   179
420
  2234388
370
     9
100
AcDb2dPolyline
 66
     1
 10
0.0
 20
0.0
 30
0.0
  0
VERTEX
  5
18E
330
18D
100
AcDbEntity
  8
_U+30EC_U+30A4_U+30E4_U+30FC 1
 62
   179
420
  2234388
370
     9
100
AcDbVertex
100
AcDb2dVertex
 10
81.03449987708211
 20
-119.2399119146346
 30
0.0
  0
VERTEX
  5
18F
330
18D
100
AcDbEntity
  8
_U+30EC_U+30A4_U+30E4_U+30FC 1
 62
   179
420
  2234388
370
     9
100
AcDbVertex
100
AcDb2dVertex
 10
84.53472775664417
 20
-119.2399119146346
 30
0.0
  0
SEQEND
  5
190
330
18D
100
AcDbEntity
  8
_U+30EC_U+30A4_U+30E4_U+30FC 1
 62
   179
420
  2234388
370
     9
  0
POLYLINE
  5
191
330
1F
100
AcDbEntity
  8
_U+30EC_U+30A4_U+30E4_U+30FC 1
 62
   179
420
  2234388
370
     9
100
AcDb2dPolyline
 66
     1
 10
0.0
 20
0.0
 30
0.0
  0
VERTEX
  5
192
330
191
100
AcDbEntity
  8
_U+30EC_U+30A4_U+30E4_U+30FC 1
 62
   179
420
  2234388
370
     9
100
AcDbVertex
100
AcDb2dVertex
 10
81.03449987708211
 20
-129.1156435788324
 30
0.0
  0
VERTEX
  5
193
330
191
100
AcDbEntity
  8
_U+30EC_U+30A4_U+30E4_U+30FC 1
 62
   179
420
  2234388
370
     9
100
AcDbVertex
100
AcDb2dVertex
 10
81.03449987708211
 20
-118.2401396926621
 30
0.0
  0
SEQEND
  5
194
330
191
100
AcDbEntity
  8
_U+30EC_U+30A4_U+30E4_U+30FC 1
 62
   179
420
  2234388
370
     9
  0
INSERT
  5
196
330
1F
100
AcDbEntity
  8
_U+30EC_U+30A4_U+30E4_U+30FC 1
100
AcDbBlockReference
  2
block 7
 10
0.0
 20
0.0
 30
0.0
  0
ENDSEC
  0
SECTION
  2
OBJECTS
  0
DICTIONARY
  5
C
330
0
100
AcDbDictionary
281
     1
  3
ACAD_GROUP
350
D
  3
ACAD_LAYOUT
350
1A
  3
ACAD_MATERIAL
350
3B
  3
ACAD_MLEADERSTYLE
350
1A6
  3
ACAD_MLINESTYLE
350
17
  3
ACAD_PLOTSETTINGS
350
19
  3
ACAD_PLOTSTYLENAME
350
E
  3
ACAD_TABLESTYLE
350
1A5
  3
ACAD_VISUALSTYLE
350
2A
  0
SUN
  5
3F
330
29
100
AcDbSun
 90
        1
290
     0
 63
     7
421
 16777215
 40
1.0
291
     1
 91
  2455826
 92
 54000000
292
     0
 70
     2
 71
   256
280
     1
  0
DICTIONARY
  5
D
102
{ACAD_REACTORS
330
C
102
}
330
C
100
AcDbDictionary
281
     1
  0
DICTIONARY
  5
1A
102
{ACAD_REACTORS
330
C
102
}
330
C
100
AcDbDictionary
281
     1
  3
Layout1
350
1E
  3
Layout2
350
26
  3
Model
350
22
  0
DICTIONARY
  5
3B
102
{ACAD_REACTORS
330
C
102
}
330
C
100
AcDbDictionary
281
     1
  3
ByBlock
350
3D
  3
ByLayer
350
3C
  3
Global
350
3E
  0
DICTIONARY
  5
1A6
102
{ACAD_REACTORS
330
C
102
}
330
C
100
AcDbDictionary
281
     1
  0
DICTIONARY
  5
17
102
{ACAD_REACTORS
330
C
102
}
330
C
100
AcDbDictionary
281
     1
  3
Standard
350
18
  0
DICTIONARY
  5
19
102
{ACAD_REACTORS
330
C
102
}
330
C
100
AcDbDictionary
281
     1
  0
ACDBDICTIONARYWDFLT
  5
E
102
{ACAD_REACTORS
330
C
102
}
330
C
100
AcDbDictionary
281
     1
  3
Normal
350
F
100
AcDbDictionaryWithDefault
340
F
  0
DICTIONARY
  5
1A5
102
{ACAD_REACTORS
330
C
102
}
330
C
100
AcDbDictionary
281
     1
  0
DICTIONARY
  5
2A
102
{ACAD_REACTORS
330
C
102
}
330
C
100
AcDbDictionary
281
     1
  3
2dWireframe
350
2F
  3
3D Hidden
350
31
  3
3dWireframe
350
30
  3
Basic
350
32
  3
Brighten
350
36
  3
ColorChange
350
3A
  3
Conceptual
350
34
  3
Dim
350
35
  3
Facepattern
350
39
  3
Flat
350
2B
  3
FlatWithEdges
350
2C
  3
Gouraud
350
2D
  3
GouraudWithEdges
350
2E
  3
Linepattern
350
38
  3
Realistic
350
33
  3
Thicken
350
37
  0
LAYOUT
  5
1E
102
{ACAD_REACTORS
330
1A
102
}
330
1A
100
AcDbPlotSettings
  1

  2
none_device
  4

  6

 40
0.0
 41
0.0
 42
0.0
 43
0.0
 44
0.0
 45
0.0
 46
0.0
 47
0.0
 48
0.0
 49
0.0
140
0.0
141
0.0
142
1.0
143
1.0
 70
   688
 72
     0
 73
     0
 74
     5
  7

 75
    16
 76
     0
 77
     2
 78
   300
147
1.0
148
0.0
149
0.0
100
AcDbLayout
  1
Layout1
 70
     1
 71
     1
 10
0.0
 20
0.0
 11
12.0
 21
9.0
 12
0.0
 22
0.0
 32
0.0
 14
1.000000000000000E+20
 24
1.000000000000000E+20
 34
1.000000000000000E+20
 15
-1.000000000000000E+20
 25
-1.000000000000000E+20
 35
-1.000000000000000E+20
146
0.0
 13
0.0
 23
0.0
 33
0.0
 16
1.0
 26
0.0
 36
0.0
 17
0.0
 27
1.0
 37
0.0
 76
     0
330
1B
  0
LAYOUT
  5
26
102
{ACAD_REACTORS
330
1A
102
}
330
1A
100
AcDbPlotSettings
  1

  2
none_device
  4

  6

 40
0.0
 41
0.0
 42
0.0
 43
0.0
 44
0.0
 45
0.0
 46
0.0
 47
0.0
 48
0.0
 49
0.0
140
0.0
141
0.0
142
1.0
143
1.0
 70
   688
 72
     0
 73
     0
 74
     5
  7

 75
    16
 76
     0
 77
     2
 78
   300
147
1.0
148
0.0
149
0.0
100
AcDbLayout
  1
Layout2
 70
     1
 71
     2
 10
0.0
 20
0.0
 11
0.0
 21
0.0
 12
0.0
 22
0.0
 32
0.0
 14
0.0
 24
0.0
 34
0.0
 15
0.0
 25
0.0
 35
0.0
146
0.0
 13
0.0
 23
0.0
 33
0.0
 16
1.0
 26
0.0
 36
0.0
 17
0.0
 27
1.0
 37
0.0
 76
     0
330
23
  0
LAYOUT
  5
22
102
{ACAD_REACTORS
330
1A
102
}
330
1A
100
AcDbPlotSettings
  1

  2
none_device
  4

  6

 40
0.0
 41
0.0
 42
0.0
 43
0.0
 44
0.0
 45
0.0
 46
0.0
 47
0.0
 48
0.0
 49
0.0
140
0.0
141
0.0
142
1.0
143
1.0
 70
  1712
 72
     0
 73
     0
 74
     0
  7

 75
     0
 76
     0
 77
     2
 78
   300
147
1.0
148
0.0
149
0.0
100
AcDbLayout
  1
Model
 70
     1
 71
     0
 10
0.0
 20
0.0
 11
12.0
 21
9.0
 12
0.0
 22
0.0
 32
0.0
 14
1.000000000000000E+20
 24
1.000000000000000E+20
 34
1.000000000000000E+20
 15
-1.000000000000000E+20
 25
-1.000000000000000E+20
 35
-1.000000000000000E+20
146
0.0
 13
0.0
 23
0.0
 33
0.0
 16
1.0
 26
0.0
 36
0.0
 17
0.0
 27
1.0
 37
0.0
 76
     0
330
1F
331
29
  0
MATERIAL
  5
3D
102
{ACAD_REACTORS
330
3B
102
}
330
3B
100
AcDbMaterial
  1
ByBlock
 72
     1
 94
      127
  0
MATERIAL
  5
3C
102
{ACAD_REACTORS
330
3B
102
}
330
3B
100
AcDbMaterial
  1
ByLayer
 72
     1
 94
      127
  0
MATERIAL
  5
3E
102
{ACAD_REACTORS
330
3B
102
}
330
3B
100
AcDbMaterial
  1
Global
 72
     1
 94
      127
  0
MLINESTYLE
  5
18
102
{ACAD_REACTORS
330
17
102
}
330
17
100
AcDbMlineStyle
  2
Standard
 70
     0
  3

 62
   256
 51
90.0
 52
90.0
 71
     2
 49
0.5
 62
   256
  6
BYLAYER
 49
-0.5
 62
   256
  6
BYLAYER
  0
ACDBPLACEHOLDER
  5
F
102
{ACAD_REACTORS
330
E
102
}
330
E
  0
VISUALSTYLE
  5
2F
102
{ACAD_REACTORS
330
2A
102
}
330
2A
100
AcDbVisualStyle
  2
2dWireframe
 70
     4
177
     2
291
     0
 71
     0
176
     1
 72
     2
176
     1
 73
     0
176
     1
 90
        0
176
     1
 40
-0.6
176
     1
 41
-30.0
176
     1
 62
     5
 63
     7
421
 16777215
176
     1
 74
     1
176
     1
 91
        4
176
     1
 64
     7
176
     1
 65
   257
176
     1
 75
     1
176
     1
175
     1
176
     1
 42
1.0
176
     1
 92
        0
176
     1
 66
   257
176
     1
 43
1.0
176
     1
 76
     1
176
     1
 77
     6
176
     1
 78
     2
176
     1
 67
     7
176
     1
 79
     5
176
     1
170
     0
176
     1
171
     0
176
     1
290
     0
176
     1
 93
        1
176
     1
 44
0.0
176
     1
173
     0
176
     1
  0
VISUALSTYLE
  5
31
102
{ACAD_REACTORS
330
2A
102
}
330
2A
100
AcDbVisualStyle
  2
3D Hidden
 70
     6
177
     2
291
     0
 71
     1
176
     1
 72
     2
176
     1
 73
     2
176
     1
 90
        0
176
     1
 40
-0.6
176
     1
 41
-30.0
176
     1
 62
     5
 63
     7
421
 16777215
176
     1
 74
     2
176
     1
 91
        2
176
     1
 64
     7
176
     1
 65
   257
176
     1
 75
     2
176
     1
175
     1
176
     1
 42
40.0
176
     1
 92
        0
176
     1
 66
   257
176
     1
 43
1.0
176
     1
 76
     1
176
     1
 77
     6
176
     1
 78
     2
176
     1
 67
     7
176
     1
 79
     3
176
     1
170
     0
176
     1
171
     0
176
     1
290
     0
176
     1
 93
        1
176
     1
 44
0.0
176
     1
173
     0
176
     1
  0
VISUALSTYLE
  5
30
102
{ACAD_REACTORS
330
2A
102
}
330
2A
100
AcDbVisualStyle
  2
3dWireframe
 70
     5
177
     2
291
     0
 71
     0
176
     1
 72
     2
176
     1
 73
     0
176
     1
 90
        0
176
     1
 40
-0.6
176
     1
 41
-30.0
176
     1
 62
     5
 63
     7
421
 16777215
176
     1
 74
     1
176
     1
 91
        4
176
     1
 64
     7
176
     1
 65
   257
176
     1
 75
     1
176
     1
175
     1
176
     1
 42
1.0
176
     1
 92
        0
176
     1
 66
   257
176
     1
 43
1.0
176
     1
 76
     1
176
     1
 77
     6
176
     1
 78
     2
176
     1
 67
     7
176
     1
 79
     5
176
     1
170
     0
176
     1
171
     0
176
     1
290
     0
176
     1
 93
        1
176
     1
 44
0.0
176
     1
173
     0
176
     1
  0
VISUALSTYLE
  5
32
102
{ACAD_REACTORS
330
2A
102
}
330
2A
100
AcDbVisualStyle
  2
Basic
 70
     7
177
     2
291
     1
 71
     1
176
     1
 72
     0
176
     1
 73
     1
176
     1
 90
        0
176
     1
 40
-0.6
176
     1
 41
-30.0
176
     1
 62
     5
 63
     7
421
 16777215
176
     1
 74
     0
176
     1
 91
        4
176
     1
 64
     7
176
     1
 65
   257
176
     1
 75
     1
176
     1
175
     1
176
     1
 42
1.0
176
     1
 92
        8
176
     1
 66
     7
176
     1
 43
1.0
176
     1
 76
     1
176
     1
 77
     6
176
     1
 78
     2
176
     1
 67
     7
176
     1
 79
     5
176
     1
170
     0
176
     1
171
     0
176
     1
290
     0
176
     1
 93
        1
176
     1
 44
0.0
176
     1
173
     0
176
     1
  0
VISUALSTYLE
  5
36
102
{ACAD_REACTORS
330
2A
102
}
330
2A
100
AcDbVisualStyle
  2
Brighten
 70
    12
177
     2
291
     1
 71
     2
176
     1
 72
     2
176
     1
 73
     0
176
     1
 90
        0
176
     1
 40
-0.6
176
     1
 41
-30.0
176
     1
 62
     5
 63
     7
421
 16777215
176
     1
 74
     1
176
     1
 91
        4
176
     1
 64
     7
176
     1
 65
   257
176
     1
 75
     1
176
     1
175
     1
176
     1
 42
1.0
176
     1
 92
        8
176
     1
 66
     7
176
     1
 43
1.0
176
     1
 76
     1
176
     1
 77
     6
176
     1
 78
     2
176
     1
 67
     7
176
     1
 79
     5
176
     1
170
     0
176
     1
171
     0
176
     1
290
     0
176
     1
 93
        1
176
     1
 44
50.0
176
     1
173
     0
176
     1
  0
VISUALSTYLE
  5
3A
102
{ACAD_REACTORS
330
2A
102
}
330
2A
100
AcDbVisualStyle
  2
ColorChange
 70
    16
177
     2
291
     1
 71
     2
176
     1
 72
     2
176
     1
 73
     3
176
     1
 90
        0
176
     1
 40
-0.6
176
     1
 41
-30.0
176
     1
 62
     5
 63
     8
421
  8421504
176
     1
 74
     1
176
     1
 91
        4
176
     1
 64
     7
176
     1
 65
   257
176
     1
 75
     1
176
     1
175
     1
176
     1
 42
1.0
176
     1
 92
        8
176
     1
 66
     8
424
  8421504
176
     1
 43
1.0
176
     1
 76
     1
176
     1
 77
     6
176
     1
 78
     2
176
     1
 67
     7
176
     1
 79
     5
176
     1
170
     0
176
     1
171
     0
176
     1
290
     0
176
     1
 93
        1
176
     1
 44
0.0
176
     1
173
     0
176
     1
  0
VISUALSTYLE
  5
34
102
{ACAD_REACTORS
330
2A
102
}
330
2A
100
AcDbVisualStyle
  2
Conceptual
 70
     9
177
     2
291
     0
 71
     3
176
     1
 72
     2
176
     1
 73
     0
176
     1
 90
        0
176
     1
 40
-0.6
176
     1
 41
-30.0
176
     1
 62
     5
 63
     7
421
 16777215
176
     1
 74
     2
176
     1
 91
        2
176
     1
 64
     7
176
     1
 65
   257
176
     1
 75
     1
176
     1
175
     1
176
     1
 42
40.0
176
     1
 92
        8
176
     1
 66
     7
176
     1
 43
1.0
176
     1
 76
     1
176
     1
 77
     6
176
     1
 78
     2
176
     1
 67
     7
176
     1
 79
     3
176
     1
170
     0
176
     1
171
     0
176
     1
290
     0
176
     1
 93
        1
176
     1
 44
0.0
176
     1
173
     0
176
     1
  0
VISUALSTYLE
  5
35
102
{ACAD_REACTORS
330
2A
102
}
330
2A
100
AcDbVisualStyle
  2
Dim
 70
    11
177
     2
291
     1
 71
     2
176
     1
 72
     2
176
     1
 73
     0
176
     1
 90
        0
176
     1
 40
-0.6
176
     1
 41
-30.0
176
     1
 62
     5
 63
     7
421
 16777215
176
     1
 74
     1
176
     1
 91
        4
176
     1
 64
     7
176
     1
 65
   257
176
     1
 75
     1
176
     1
175
     1
176
     1
 42
1.0
176
     1
 92
        8
176
     1
 66
     7
176
     1
 43
1.0
176
     1
 76
     1
176
     1
 77
     6
176
     1
 78
     2
176
     1
 67
     7
176
     1
 79
     5
176
     1
170
     0
176
     1
171
     0
176
     1
290
     0
176
     1
 93
        1
176
     1
 44
-50.0
176
     1
173
     0
176
     1
  0
VISUALSTYLE
  5
39
102
{ACAD_REACTORS
330
2A
102
}
330
2A
100
AcDbVisualStyle
  2
Facepattern
 70
    15
177
     2
291
     1
 71
     2
176
     1
 72
     2
176
     1
 73
     0
176
     1
 90
        0
176
     1
 40
-0.6
176
     1
 41
-30.0
176
     1
 62
     5
 63
     7
421
 16777215
176
     1
 74
     1
176
     1
 91
        4
176
     1
 64
     7
176
     1
 65
   257
176
     1
 75
     1
176
     1
175
     1
176
     1
 42
1.0
176
     1
 92
        8
176
     1
 66
     7
176
     1
 43
1.0
176
     1
 76
     1
176
     1
 77
     6
176
     1
 78
     2
176
     1
 67
     7
176
     1
 79
     5
176
     1
170
     0
176
     1
171
     0
176
     1
290
     0
176
     1
 93
        1
176
     1
 44
0.0
176
     1
173
     0
176
     1
  0
VISUALSTYLE
  5
2B
102
{ACAD_REACTORS
330
2A
102
}
330
2A
100
AcDbVisualStyle
  2
Flat
 70
     0
177
     2
291
     1
 71
     2
176
     1
 72
     1
176
     1
 73
     1
176
     1
 90
        2
176
     1
 40
-0.6
176
     1
 41
30.0
176
     1
 62
     5
 63
     7
421
 16777215
176
     1
 74
     0
176
     1
 91
        4
176
     1
 64
     7
176
     1
 65
   257
176
     1
 75
     1
176
     1
175
     1
176
     1
 42
1.0
176
     1
 92
        8
176
     1
 66
     7
176
     1
 43
1.0
176
     1
 76
     1
176
     1
 77
     6
176
     1
 78
     2
176
     1
 67
     7
176
     1
 79
     5
176
     1
170
     0
176
     1
171
     0
176
     1
290
     0
176
     1
 93
       13
176
     1
 44
0.0
176
     1
173
     0
176
     1
  0
VISUALSTYLE
  5
2C
102
{ACAD_REACTORS
330
2A
102
}
330
2A
100
AcDbVisualStyle
  2
FlatWithEdges
 70
     1
177
     2
291
     1
 71
     2
176
     1
 72
     1
176
     1
 73
     1
176
     1
 90
        2
176
     1
 40
-0.6
176
     1
 41
30.0
176
     1
 62
     5
 63
     7
421
 16777215
176
     1
 74
     1
176
     1
 91
        4
176
     1
 64
     7
176
     1
 65
   257
176
     1
 75
     1
176
     1
175
     1
176
     1
 42
1.0
176
     1
 92
        0
176
     1
 66
   257
176
     1
 43
1.0
176
     1
 76
     1
176
     1
 77
     6
176
     1
 78
     2
176
     1
 67
     7
176
     1
 79
     5
176
     1
170
     0
176
     1
171
     0
176
     1
290
     0
176
     1
 93
       13
176
     1
 44
0.0
176
     1
173
     0
176
     1
  0
VISUALSTYLE
  5
2D
102
{ACAD_REACTORS
330
2A
102
}
330
2A
100
AcDbVisualStyle
  2
Gouraud
 70
     2
177
     2
291
     1
 71
     2
176
     1
 72
     2
176
     1
 73
     1
176
     1
 90
        2
176
     1
 40
-0.6
176
     1
 41
30.0
176
     1
 62
     5
 63
     7
421
 16777215
176
     1
 74
     0
176
     1
 91
        4
176
     1
 64
     7
176
     1
 65
   257
176
     1
 75
     1
176
     1
175
     1
176
     1
 42
1.0
176
     1
 92
        0
176
     1
 66
     7
176
     1
 43
1.0
176
     1
 76
     1
176
     1
 77
     6
176
     1
 78
     2
176
     1
 67
     7
176
     1
 79
     5
176
     1
170
     0
176
     1
171
     0
176
     1
290
     0
176
     1
 93
       13
176
     1
 44
0.0
176
     1
173
     0
176
     1
  0
VISUALSTYLE
  5
2E
102
{ACAD_REACTORS
330
2A
102
}
330
2A
100
AcDbVisualStyle
  2
GouraudWithEdges
 70
     3
177
     2
291
     1
 71
     2
176
     1
 72
     2
176
     1
 73
     1
176
     1
 90
        2
176
     1
 40
-0.6
176
     1
 41
30.0
176
     1
 62
     5
 63
     7
421
 16777215
176
     1
 74
     1
176
     1
 91
        4
176
     1
 64
     7
176
     1
 65
   257
176
     1
 75
     1
176
     1
175
     1
176
     1
 42
1.0
176
     1
 92
        0
176
     1
 66
   257
176
     1
 43
1.0
176
     1
 76
     1
176
     1
 77
     6
176
     1
 78
     2
176
     1
 67
     7
176
     1
 79
     5
176
     1
170
     0
176
     1
171
     0
176
     1
290
     0
176
     1
 93
       13
176
     1
 44
0.0
176
     1
173
     0
176
     1
  0
VISUALSTYLE
  5
38
102
{ACAD_REACTORS
330
2A
102
}
330
2A
100
AcDbVisualStyle
  2
Linepattern
 70
    14
177
     2
291
     1
 71
     2
176
     1
 72
     2
176
     1
 73
     0
176
     1
 90
        0
176
     1
 40
-0.6
176
     1
 41
-30.0
176
     1
 62
     5
 63
     7
421
 16777215
176
     1
 74
     1
176
     1
 91
        4
176
     1
 64
     7
176
     1
 65
   257
176
     1
 75
     7
176
     1
175
     7
176
     1
 42
1.0
176
     1
 92
        8
176
     1
 66
     7
176
     1
 43
1.0
176
     1
 76
     1
176
     1
 77
     6
176
     1
 78
     2
176
     1
 67
     7
176
     1
 79
     5
176
     1
170
     0
176
     1
171
     0
176
     1
290
     0
176
     1
 93
        1
176
     1
 44
0.0
176
     1
173
     0
176
     1
  0
VISUALSTYLE
  5
33
102
{ACAD_REACTORS
330
2A
102
}
330
2A
100
AcDbVisualStyle
  2
Realistic
 70
     8
177
     2
291
     0
 71
     2
176
     1
 72
     2
176
     1
 73
     0
176
     1
 90
        0
176
     1
 40
-0.6
176
     1
 41
-30.0
176
     1
 62
     5
 63
     7
421
 16777215
176
     1
 74
     1
176
     1
 91
        0
176
     1
 64
     7
176
     1
 65
   257
176
     1
 75
     1
176
     1
175
     1
176
     1
 42
1.0
176
     1
 92
        8
176
     1
 66
     8
424
  7895160
176
     1
 43
1.0
176
     1
 76
     1
176
     1
 77
     6
176
     1
 78
     2
176
     1
 67
     7
176
     1
 79
     5
176
     1
170
     0
176
     1
171
     0
176
     1
290
     0
176
     1
 93
       13
176
     1
 44
0.0
176
     1
173
     0
176
     1
  0
VISUALSTYLE
  5
37
102
{ACAD_REACTORS
330
2A
102
}
330
2A
100
AcDbVisualStyle
  2
Thicken
 70
    13
177
     2
291
     1
 71
     2
176
     1
 72
     2
176
     1
 73
     0
176
     1
 90
        0
176
     1
 40
-0.6
176
     1
 41
-30.0
176
     1
 62
     5
 63
     7
421
 16777215
176
     1
 74
     1
176
     1
 91
        4
176
     1
 64
     7
176
     1
 65
   257
176
     1
 75
     1
176
     1
175
     1
176
     1
 42
1.0
176
     1
 92
       12
176
     1
 66
     7
176
     1
 43
1.0
176
     1
 76
     1
176
     1
 77
     6
176
     1
 78
     2
176
     1
 67
     7
176
     1
 79
     5
176
     1
170
     0
176
     1
171
     0
176
     1
290
     0
176
     1
 93
        1
176
     1
 44
0.0
176
     1
173
     0
176
     1
  0
ENDSEC
  0
EOF
