  0
SECTION
  2
HEADER
  9
$ACADVER
  1
AC1024
  9
$ACADMAINTVER
 70
     6
  9
$DWGCODEPAGE
  3
UNDEFINED
  9
$INSBASE
 10
0.0
 20
0.0
 30
0.0
  9
$EXTMIN
 10
1.000000000000000E+20
 20
1.000000000000000E+20
 30
1.000000000000000E+20
  9
$EXTMAX
 10
-1.000000000000000E+20
 20
-1.000000000000000E+20
 30
-1.000000000000000E+20
  9
$LIMMIN
 10
0.0
 20
0.0
  9
$LIMMAX
 10
12.0
 20
9.0
  9
$ORTHOMODE
 70
     0
  9
$REGENMODE
 70
     1
  9
$FILLMODE
 70
     1
  9
$QTEXTMODE
 70
     0
  9
$MIRRTEXT
 70
     1
  9
$LTSCALE
 40
1.0
  9
$ATTMODE
 70
     1
  9
$TEXTSIZE
 40
0.2
  9
$TRACEWID
 40
0.05
  9
$TEXTSTYLE
  7
Standard
  9
$CLAYER
  8
0
  9
$CELTYPE
  6
ByLayer
  9
$CECOLOR
 62
   256
  9
$CELTSCALE
 40
1.0
  9
$DISPSILH
 70
     0
  9
$DIMSCALE
 40
1.0
  9
$DIMASZ
 40
0.18
  9
$DIMEXO
 40
0.0625
  9
$DIMDLI
 40
0.38
  9
$DIMRND
 40
0.0
  9
$DIMDLE
 40
0.0
  9
$DIMEXE
 40
0.18
  9
$DIMTP
 40
0.0
  9
$DIMTM
 40
0.0
  9
$DIMTXT
 40
0.18
  9
$DIMCEN
 40
0.09
  9
$DIMTSZ
 40
0.0
  9
$DIMTOL
 70
     0
  9
$DIMLIM
 70
     0
  9
$DIMTIH
 70
     1
  9
$DIMTOH
 70
     1
  9
$DIMSE1
 70
     0
  9
$DIMSE2
 70
     0
  9
$DIMTAD
 70
     0
  9
$DIMZIN
 70
     0
  9
$DIMBLK
  1

  9
$DIMASO
 70
     1
  9
$DIMSHO
 70
     1
  9
$DIMPOST
  1

  9
$DIMAPOST
  1

  9
$DIMALT
 70
     0
  9
$DIMALTD
 70
     2
  9
$DIMALTF
 40
25.4
  9
$DIMLFAC
 40
1.0
  9
$DIMTOFL
 70
     0
  9
$DIMTVP
 40
0.0
  9
$DIMTIX
 70
     0
  9
$DIMSOXD
 70
     0
  9
$DIMSAH
 70
     0
  9
$DIMBLK1
  1

  9
$DIMBLK2
  1

  9
$DIMSTYLE
  2
Standard
  9
$DIMCLRD
 70
     0
  9
$DIMCLRE
 70
     0
  9
$DIMCLRT
 70
     0
  9
$DIMTFAC
 40
1.0
  9
$DIMGAP
 40
0.09
  9
$DIMJUST
 70
     0
  9
$DIMSD1
 70
     0
  9
$DIMSD2
 70
     0
  9
$DIMTOLJ
 70
     1
  9
$DIMTZIN
 70
     0
  9
$DIMALTZ
 70
     0
  9
$DIMALTTZ
 70
     0
  9
$DIMUPT
 70
     0
  9
$DIMDEC
 70
     4
  9
$DIMTDEC
 70
     4
  9
$DIMALTU
 70
     2
  9
$DIMALTTD
 70
     2
  9
$DIMTXSTY
  7
Standard
  9
$DIMAUNIT
 70
     0
  9
$DIMADEC
 70
     0
  9
$DIMALTRND
 40
0.0
  9
$DIMAZIN
 70
     0
  9
$DIMDSEP
 70
    46
  9
$DIMATFIT
 70
     3
  9
$DIMFRAC
 70
     0
  9
$DIMLDRBLK
  1

  9
$DIMLUNIT
 70
     2
  9
$DIMLWD
 70
    -2
  9
$DIMLWE
 70
    -2
  9
$DIMTMOVE
 70
     0
  9
$DIMFXL
 40
1.0
  9
$DIMFXLON
 70
     0
  9
$DIMJOGANG
 40
0.7853981633974483
  9
$DIMTFILL
 70
     0
  9
$DIMTFILLCLR
 70
     0
  9
$DIMARCSYM
 70
     0
  9
$DIMLTYPE
  6

  9
$DIMLTEX1
  6

  9
$DIMLTEX2
  6

  9
$DIMTXTDIRECTION
 70
     0
  9
$LUNITS
 70
     2
  9
$LUPREC
 70
     4
  9
$SKETCHINC
 40
0.1
  9
$FILLETRAD
 40
0.5
  9
$AUNITS
 70
     0
  9
$AUPREC
 70
     0
  9
$MENU
  1
.
  9
$ELEVATION
 40
0.0
  9
$PELEVATION
 40
0.0
  9
$THICKNESS
 40
0.0
  9
$LIMCHECK
 70
     0
  9
$CHAMFERA
 40
0.5
  9
$CHAMFERB
 40
0.5
  9
$CHAMFERC
 40
1.0
  9
$CHAMFERD
 40
0.0
  9
$SKPOLY
 70
     0
  9
$TDCREATE
 40
2457917.631712951
  9
$TDUCREATE
 40
2457917.256712963
  9
$TDUPDATE
 40
2457917.631712951
  9
$TDUUPDATE
 40
2457917.256712963
  9
$TDINDWG
 40
0.0000000116
  9
$TDUSRTIMER
 40
0.0000000116
  9
$USRTIMER
 70
     1
  9
$ANGBASE
 50
0.0
  9
$ANGDIR
 70
     0
  9
$PDMODE
 70
     0
  9
$PDSIZE
 40
0.0
  9
$PLINEWID
 40
0.0
  9
$SPLFRAME
 70
     0
  9
$SPLINETYPE
 70
     6
  9
$SPLINESEGS
 70
     8
  9
$HANDSEED
  5
EF
  9
$SURFTAB1
 70
     6
  9
$SURFTAB2
 70
     6
  9
$SURFTYPE
 70
     6
  9
$SURFU
 70
     6
  9
$SURFV
 70
     6
  9
$UCSBASE
  2

  9
$UCSNAME
  2

  9
$UCSORG
 10
0.0
 20
0.0
 30
0.0
  9
$UCSXDIR
 10
1.0
 20
0.0
 30
0.0
  9
$UCSYDIR
 10
0.0
 20
1.0
 30
0.0
  9
$UCSORTHOREF
  2

  9
$UCSORTHOVIEW
 70
     0
  9
$UCSORGTOP
 10
0.0
 20
0.0
 30
0.0
  9
$UCSORGBOTTOM
 10
0.0
 20
0.0
 30
0.0
  9
$UCSORGLEFT
 10
0.0
 20
0.0
 30
0.0
  9
$UCSORGRIGHT
 10
0.0
 20
0.0
 30
0.0
  9
$UCSORGFRONT
 10
0.0
 20
0.0
 30
0.0
  9
$UCSORGBACK
 10
0.0
 20
0.0
 30
0.0
  9
$PUCSBASE
  2

  9
$PUCSNAME
  2

  9
$PUCSORG
 10
0.0
 20
0.0
 30
0.0
  9
$PUCSXDIR
 10
1.0
 20
0.0
 30
0.0
  9
$PUCSYDIR
 10
0.0
 20
1.0
 30
0.0
  9
$PUCSORTHOREF
  2

  9
$PUCSORTHOVIEW
 70
     0
  9
$PUCSORGTOP
 10
0.0
 20
0.0
 30
0.0
  9
$PUCSORGBOTTOM
 10
0.0
 20
0.0
 30
0.0
  9
$PUCSORGLEFT
 10
0.0
 20
0.0
 30
0.0
  9
$PUCSORGRIGHT
 10
0.0
 20
0.0
 30
0.0
  9
$PUCSORGFRONT
 10
0.0
 20
0.0
 30
0.0
  9
$PUCSORGBACK
 10
0.0
 20
0.0
 30
0.0
  9
$USERI1
 70
     0
  9
$USERI2
 70
     0
  9
$USERI3
 70
     0
  9
$USERI4
 70
     0
  9
$USERI5
 70
     0
  9
$USERR1
 40
0.0
  9
$USERR2
 40
0.0
  9
$USERR3
 40
0.0
  9
$USERR4
 40
0.0
  9
$USERR5
 40
0.0
  9
$WORLDVIEW
 70
     1
  9
$SHADEDGE
 70
     3
  9
$SHADEDIF
 70
    70
  9
$TILEMODE
 70
     1
  9
$MAXACTVP
 70
    64
  9
$PINSBASE
 10
0.0
 20
0.0
 30
0.0
  9
$PLIMCHECK
 70
     0
  9
$PEXTMIN
 10
1.000000000000000E+20
 20
1.000000000000000E+20
 30
1.000000000000000E+20
  9
$PEXTMAX
 10
-1.000000000000000E+20
 20
-1.000000000000000E+20
 30
-1.000000000000000E+20
  9
$PLIMMIN
 10
0.0
 20
0.0
  9
$PLIMMAX
 10
12.0
 20
9.0
  9
$UNITMODE
 70
     0
  9
$VISRETAIN
 70
     1
  9
$PLINEGEN
 70
     0
  9
$PSLTSCALE
 70
     1
  9
$TREEDEPTH
 70
  3020
  9
$CMLSTYLE
  2
Standard
  9
$CMLJUST
 70
     0
  9
$CMLSCALE
 40
1.0
  9
$PROXYGRAPHICS
 70
     1
  9
$MEASUREMENT
 70
     0
  9
$CELWEIGHT
370
    -1
  9
$ENDCAPS
280
     0
  9
$JOINSTYLE
280
     0
  9
$LWDISPLAY
290
     1
  9
$INSUNITS
 70
     1
  9
$HYPERLINKBASE
  1

  9
$STYLESHEET
  1

  9
$XEDIT
290
     1
  9
$CEPSNTYPE
380
     0
  9
$PSTYLEMODE
290
     1
  9
$FINGERPRINTGUID
  2
{3486BC3F-D502-8763-1A40-AFC23777424E}
  9
$VERSIONGUID
  2
{FAEB1C32-E019-11D5-929B-00C0DF256EC4}
  9
$EXTNAMES
290
     1
  9
$PSVPSCALE
 40
0.0
  9
$OLESTARTUP
290
     0
  9
$SORTENTS
280
   127
  9
$INDEXCTL
280
     0
  9
$HIDETEXT
280
     1
  9
$XCLIPFRAME
280
     2
  9
$HALOGAP
280
     0
  9
$OBSCOLOR
 70
   257
  9
$OBSLTYPE
280
     0
  9
$INTERSECTIONDISPLAY
280
     0
  9
$INTERSECTIONCOLOR
 70
   257
  9
$DIMASSOC
280
     2
  9
$PROJECTNAME
  1

  9
$CAMERADISPLAY
290
     0
  9
$LENSLENGTH
 40
50.0
  9
$CAMERAHEIGHT
 40
0.0
  9
$STEPSPERSEC
 40
2.0
  9
$STEPSIZE
 40
6.0
  9
$3DDWFPREC
 40
2.0
  9
$PSOLWIDTH
 40
0.25
  9
$PSOLHEIGHT
 40
4.0
  9
$LOFTANG1
 40
1.570796326794897
  9
$LOFTANG2
 40
1.570796326794897
  9
$LOFTMAG1
 40
0.0
  9
$LOFTMAG2
 40
0.0
  9
$LOFTPARAM
 70
     7
  9
$LOFTNORMALS
280
     1
  9
$LATITUDE
 40
37.795
  9
$LONGITUDE
 40
-122.394
  9
$NORTHDIRECTION
 40
0.0
  9
$TIMEZONE
 70
 -8000
  9
$LIGHTGLYPHDISPLAY
280
     1
  9
$TILEMODELIGHTSYNCH
280
     1
  9
$CMATERIAL
347
3C
  9
$SOLIDHIST
280
     1
  9
$SHOWHIST
280
     1
  9
$DWFFRAME
280
     2
  9
$DGNFRAME
280
     2
  9
$REALWORLDSCALE
290
     1
  9
$INTERFERECOLOR
 62
   256
  9
$CSHADOW
280
     0
  9
$SHADOWPLANELOCATION
 40
0.0
  0
ENDSEC
  0
SECTION
  2
CLASSES
  0
CLASS
  1
ACDBDICTIONARYWDFLT
  2
AcDbDictionaryWithDefault
  3
ObjectDBX Classes
 90
        0
 91
        4
280
     0
281
     0
  0
CLASS
  1
VISUALSTYLE
  2
AcDbVisualStyle
  3
ObjectDBX Classes
 90
     4095
 91
        4
280
     0
281
     0
  0
CLASS
  1
MATERIAL
  2
AcDbMaterial
  3
ObjectDBX Classes
 90
     1153
 91
        4
280
     0
281
     0
  0
CLASS
  1
SUN
  2
AcDbSun
  3
SCENEOE
 90
     1024
 91
        4
280
     0
281
     0
  0
ENDSEC
  0
SECTION
  2
TABLES
  0
TABLE
  2
VPORT
  5
8
330
0
100
AcDbSymbolTable
 70
     1
  0
VPORT
  5
29
330
8
100
AcDbSymbolTableRecord
100
AcDbViewportTableRecord
  2
*Active
 70
     0
 10
0.0
 20
0.0
 11
1.0
 21
1.0
 12
0.0
 22
0.0
 13
0.0
 23
0.0
 14
0.5
 24
0.5
 15
0.5
 25
0.5
 16
0.0
 26
0.0
 36
1.0
 17
91.00082462281999
 27
-128.4993055234307
 37
0.0
 40
256.9986110468615
 41
0.7081814508812795
 42
50.0
 43
0.0
 44
0.0
 50
0.0
 51
0.0
 71
     0
 72
   100
 73
     1
 74
     3
 75
     0
 76
     0
 77
     0
 78
     0
281
     0
 65
     1
110
0.0
120
0.0
130
0.0
111
1.0
121
0.0
131
0.0
112
0.0
122
1.0
132
0.0
 79
     0
146
0.0
 60
     3
 61
     5
292
     1
282
     1
141
0.0
142
0.0
 63
   250
361
3F
  0
ENDTAB
  0
TABLE
  2
LTYPE
  5
5
330
0
100
AcDbSymbolTable
 70
     1
  0
LTYPE
  5
14
330
5
100
AcDbSymbolTableRecord
100
AcDbLinetypeTableRecord
  2
ByBlock
 70
     0
  3

 72
    65
 73
     0
 40
0.0
  0
LTYPE
  5
15
330
5
100
AcDbSymbolTableRecord
100
AcDbLinetypeTableRecord
  2
ByLayer
 70
     0
  3

 72
    65
 73
     0
 40
0.0
  0
LTYPE
  5
16
330
5
100
AcDbSymbolTableRecord
100
AcDbLinetypeTableRecord
  2
Continuous
 70
     0
  3
Solid line
 72
    65
 73
     0
 40
0.0
  0
ENDTAB
  0
TABLE
  2
LAYER
  5
2
330
0
100
AcDbSymbolTable
 70
     2
  0
LAYER
  5
10
330
2
100
AcDbSymbolTableRecord
100
AcDbLayerTableRecord
  2
0
 70
     0
 62
     7
  6
Continuous
370
    -3
390
F
347
3E
  0
LAYER
  5
40
330
2
100
AcDbSymbolTableRecord
100
AcDbLayerTableRecord
  2
_U+30EC_U+30A4_U+30E4_U+30FC 1
 70
     0
 62
     7
  6
Continuous
370
    -3
390
F
347
3E
  0
ENDTAB
  0
TABLE
  2
STYLE
  5
3
330
0
100
AcDbSymbolTable
 70
     1
  0
STYLE
  5
11
330
3
100
AcDbSymbolTableRecord
100
AcDbTextStyleTableRecord
  2
Standard
 70
     0
 40
0.0
 41
1.0
 50
0.0
 71
     0
 42
0.2
  3
txt
  4

  0
ENDTAB
  0
TABLE
  2
VIEW
  5
6
330
0
100
AcDbSymbolTable
 70
     0
  0
ENDTAB
  0
TABLE
  2
UCS
  5
7
330
0
100
AcDbSymbolTable
 70
     0
  0
ENDTAB
  0
TABLE
  2
APPID
  5
9
330
0
100
AcDbSymbolTable
 70
     1
  0
APPID
  5
12
330
9
100
AcDbSymbolTableRecord
100
AcDbRegAppTableRecord
  2
ACAD
 70
     0
  0
ENDTAB
  0
TABLE
  2
DIMSTYLE
  5
A
330
0
100
AcDbSymbolTable
 70
     1
100
AcDbDimStyleTable
  0
DIMSTYLE
105
27
330
A
100
AcDbSymbolTableRecord
100
AcDbDimStyleTableRecord
  2
Standard
 70
     0
178
     0
340
11
  0
ENDTAB
  0
TABLE
  2
BLOCK_RECORD
  5
1
330
0
100
AcDbSymbolTable
 70
     5
  0
BLOCK_RECORD
  5
1F
330
1
100
AcDbSymbolTableRecord
100
AcDbBlockTableRecord
  2
*Model_Space
340
22
 70
     0
280
     1
281
     0
  0
BLOCK_RECORD
  5
1B
330
1
100
AcDbSymbolTableRecord
100
AcDbBlockTableRecord
  2
*Paper_Space
340
1E
 70
     0
280
     1
281
     0
  0
BLOCK_RECORD
  5
23
330
1
100
AcDbSymbolTableRecord
100
AcDbBlockTableRecord
  2
*Paper_Space0
340
26
 70
     0
280
     1
281
     0
  0
BLOCK_RECORD
  5
8D
330
1
100
AcDbSymbolTableRecord
100
AcDbBlockTableRecord
  2
block 2
340
0
102
{BLKREFS
331
8E
102
}
 70
     0
280
     1
281
     0
  0
BLOCK_RECORD
  5
A9
330
1
100
AcDbSymbolTableRecord
100
AcDbBlockTableRecord
  2
block 3
340
0
102
{BLKREFS
331
AA
102
}
 70
     0
280
     1
281
     0
  0
BLOCK_RECORD
  5
BD
330
1
100
AcDbSymbolTableRecord
100
AcDbBlockTableRecord
  2
block 4
340
0
102
{BLKREFS
331
BE
102
}
 70
     0
280
     1
281
     0
  0
BLOCK_RECORD
  5
D7
330
1
100
AcDbSymbolTableRecord
100
AcDbBlockTableRecord
  2
block 5
340
0
102
{BLKREFS
331
D8
102
}
 70
     0
280
     1
281
     0
  0
ENDTAB
  0
ENDSEC
  0
SECTION
  2
BLOCKS
  0
BLOCK
  5
20
330
1F
100
AcDbEntity
  8
0
100
AcDbBlockBegin
  2
*Model_Space
 70
     0
 10
0.0
 20
0.0
 30
0.0
  3
*Model_Space
  1

  0
ENDBLK
  5
21
330
1F
100
AcDbEntity
  8
0
100
AcDbBlockEnd
  0
BLOCK
  5
1C
330
1B
100
AcDbEntity
 67
     1
  8
0
100
AcDbBlockBegin
  2
*Paper_Space
 70
     0
 10
0.0
 20
0.0
 30
0.0
  3
*Paper_Space
  1

  0
ENDBLK
  5
1D
330
1B
100
AcDbEntity
 67
     1
  8
0
100
AcDbBlockEnd
  0
BLOCK
  5
24
330
23
100
AcDbEntity
  8
0
100
AcDbBlockBegin
  2
*Paper_Space0
 70
     0
 10
0.0
 20
0.0
 30
0.0
  3
*Paper_Space0
  1

  0
ENDBLK
  5
25
330
23
100
AcDbEntity
  8
0
100
AcDbBlockEnd
  0
BLOCK
  5
8F
330
8D
100
AcDbEntity
  8
0
100
AcDbBlockBegin
  2
block 2
 70
     0
 10
0.0
 20
0.0
 30
0.0
  3
block 2
  1

  0
SPLINE
  5
91
330
8D
100
AcDbEntity
  8
_U+30EC_U+30A4_U+30E4_U+30FC 1
370
     0
100
AcDbSpline
210
0.0
220
0.0
230
1.0
 70
    11
 71
     3
 72
    44
 73
    40
 74
     0
 42
0.0000000001
 43
0.0000000001
 12
1.0
 22
0.0
 32
0.0
 13
1.0
 23
0.0
 33
0.0
 40
0.0
 40
0.0
 40
0.0
 40
0.0
 40
1.0
 40
1.0
 40
1.0
 40
2.0
 40
2.0
 40
2.0
 40
3.0
 40
3.0
 40
3.0
 40
4.0
 40
4.0
 40
4.0
 40
5.0
 40
5.0
 40
5.0
 40
6.0
 40
6.0
 40
6.0
 40
7.0
 40
7.0
 40
7.0
 40
8.0
 40
8.0
 40
8.0
 40
9.0
 40
9.0
 40
9.0
 40
10.0
 40
10.0
 40
10.0
 40
11.0
 40
11.0
 40
11.0
 40
12.0
 40
12.0
 40
12.0
 40
13.0
 40
13.0
 40
13.0
 40
13.0
 10
112.2742838260981
 20
-130.3589680663686
 30
0.0
 10
112.4331027279681
 20
-130.5766981010364
 30
0.0
 10
112.507172280901
 20
-130.6697156791381
 30
0.0
 10
112.6508327626359
 20
-130.7186360350287
 30
0.0
 10
112.6508327626359
 20
-130.7186360350287
 30
0.0
 10
112.6508327626359
 20
-129.9400444553622
 30
0.0
 10
112.6508327626359
 20
-129.9400444553622
 30
0.0
 10
112.6508327626359
 20
-129.9400444553622
 30
0.0
 10
112.8561604535568
 20
-129.9400444553622
 30
0.0
 10
112.8561604535568
 20
-129.9400444553622
 30
0.0
 10
112.8561604535568
 20
-129.9400444553622
 30
0.0
 10
112.8561604535568
 20
-130.9680609481608
 30
0.0
 10
112.8561604535568
 20
-130.9680609481608
 30
0.0
 10
112.4985595421879
 20
-130.9363660696965
 30
0.0
 10
112.4203558746727
 20
-130.8709092554767
 30
0.0
 10
112.1220106056501
 20
-130.4857475802258
 30
0.0
 10
111.9232285961511
 20
-130.2297769856717
 30
0.0
 10
111.8553602150917
 20
-130.164320171452
 30
0.0
 10
111.7179009052303
 20
-130.164320171452
 30
0.0
 10
111.5993896205377
 20
-130.164320171452
 30
0.0
 10
111.4684759920982
 20
-130.2363226670937
 30
0.0
 10
111.4684759920982
 20
-130.4330376193015
 30
0.0
 10
111.4684759920982
 20
-130.6931423284378
 30
0.0
 10
111.6989528800614
 20
-130.701755067151
 30
0.0
 10
111.8153971074628
 20
-130.7058891817333
 30
0.0
 10
111.8153971074628
 20
-130.7058891817333
 30
0.0
 10
111.8153971074628
 20
-130.930164897823
 30
0.0
 10
111.8153971074628
 20
-130.930164897823
 30
0.0
 10
111.6882730840571
 20
-130.9215521591099
 30
0.0
 10
111.5763074807865
 20
-130.9108723631056
 30
0.0
 10
111.4577961960939
 20
-130.8306016382993
 30
0.0
 10
111.2969102369327
 20
-130.7207030923198
 30
0.0
 10
111.2631483011773
 20
-130.5343234265678
 30
0.0
 10
111.2631483011773
 20
-130.4182237087149
 30
0.0
 10
111.2631483011773
 20
-130.1408935221523
 30
0.0
 10
111.4471164000896
 20
-129.9334987739402
 30
0.0
 10
111.7199679625214
 20
-129.9334987739402
 30
0.0
 10
111.948722302742
 20
-129.9334987739402
 30
0.0
 10
112.0479410527172
 20
-130.0499430013417
 30
0.0
 10
112.2742838260981
 20
-130.3589680663686
 30
0.0
  0
HATCH
  5
92
330
8D
100
AcDbEntity
  8
_U+30EC_U+30A4_U+30E4_U+30FC 1
 62
   179
420
  2234388
100
AcDbHatch
 10
0.0
 20
0.0
 30
0.0
210
0.0
220
0.0
230
1.0
  2
SOLID
 70
     1
 71
     0
 91
        1
 92
        1
 93
        1
 72
     4
 94
        3
 73
     0
 74
     1
 95
       44
 96
       40
 40
0.0
 40
0.0
 40
0.0
 40
0.0
 40
1.0
 40
1.0
 40
1.0
 40
2.0
 40
2.0
 40
2.0
 40
3.0
 40
3.0
 40
3.0
 40
4.0
 40
4.0
 40
4.0
 40
5.0
 40
5.0
 40
5.0
 40
6.0
 40
6.0
 40
6.0
 40
7.0
 40
7.0
 40
7.0
 40
8.0
 40
8.0
 40
8.0
 40
9.0
 40
9.0
 40
9.0
 40
10.0
 40
10.0
 40
10.0
 40
11.0
 40
11.0
 40
11.0
 40
12.0
 40
12.0
 40
12.0
 40
13.0
 40
13.0
 40
13.0
 40
13.0
 10
112.2742838260981
 20
-130.3589680663686
 10
112.4331027279681
 20
-130.5766981010364
 10
112.507172280901
 20
-130.6697156791381
 10
112.6508327626359
 20
-130.7186360350287
 10
112.6508327626359
 20
-130.7186360350287
 10
112.6508327626359
 20
-129.9400444553622
 10
112.6508327626359
 20
-129.9400444553622
 10
112.6508327626359
 20
-129.9400444553622
 10
112.8561604535568
 20
-129.9400444553622
 10
112.8561604535568
 20
-129.9400444553622
 10
112.8561604535568
 20
-129.9400444553622
 10
112.8561604535568
 20
-130.9680609481608
 10
112.8561604535568
 20
-130.9680609481608
 10
112.4985595421879
 20
-130.9363660696965
 10
112.4203558746727
 20
-130.8709092554767
 10
112.1220106056501
 20
-130.4857475802258
 10
111.9232285961511
 20
-130.2297769856717
 10
111.8553602150917
 20
-130.164320171452
 10
111.7179009052303
 20
-130.164320171452
 10
111.5993896205377
 20
-130.164320171452
 10
111.4684759920982
 20
-130.2363226670937
 10
111.4684759920982
 20
-130.4330376193015
 10
111.4684759920982
 20
-130.6931423284378
 10
111.6989528800614
 20
-130.701755067151
 10
111.8153971074628
 20
-130.7058891817333
 10
111.8153971074628
 20
-130.7058891817333
 10
111.8153971074628
 20
-130.930164897823
 10
111.8153971074628
 20
-130.930164897823
 10
111.6882730840571
 20
-130.9215521591099
 10
111.5763074807865
 20
-130.9108723631056
 10
111.4577961960939
 20
-130.8306016382993
 10
111.2969102369327
 20
-130.7207030923198
 10
111.2631483011773
 20
-130.5343234265678
 10
111.2631483011773
 20
-130.4182237087149
 10
111.2631483011773
 20
-130.1408935221523
 10
111.4471164000896
 20
-129.9334987739402
 10
111.7199679625214
 20
-129.9334987739402
 10
111.948722302742
 20
-129.9334987739402
 10
112.0479410527172
 20
-130.0499430013417
 10
112.2742838260981
 20
-130.3589680663686
 97
        0
 97
        0
 75
     2
 76
     1
 98
        0
  0
POLYLINE
  5
93
330
8D
100
AcDbEntity
  8
_U+30EC_U+30A4_U+30E4_U+30FC 1
370
     0
100
AcDb2dPolyline
 66
     1
 10
0.0
 20
0.0
 30
0.0
  0
VERTEX
  5
94
330
93
100
AcDbEntity
  8
_U+30EC_U+30A4_U+30E4_U+30FC 1
370
     0
100
AcDbVertex
100
AcDb2dVertex
 10
112.8561604535568
 20
-129.7150797201754
 30
0.0
  0
VERTEX
  5
95
330
93
100
AcDbEntity
  8
_U+30EC_U+30A4_U+30E4_U+30FC 1
370
     0
100
AcDbVertex
100
AcDb2dVertex
 10
112.604323973585
 20
-129.7150797201754
 30
0.0
  0
VERTEX
  5
96
330
93
100
AcDbEntity
  8
_U+30EC_U+30A4_U+30E4_U+30FC 1
370
     0
100
AcDbVertex
100
AcDb2dVertex
 10
112.604323973585
 20
-129.4632432402036
 30
0.0
  0
VERTEX
  5
97
330
93
100
AcDbEntity
  8
_U+30EC_U+30A4_U+30E4_U+30FC 1
370
     0
100
AcDbVertex
100
AcDb2dVertex
 10
112.8561604535568
 20
-129.4632432402036
 30
0.0
  0
VERTEX
  5
98
330
93
100
AcDbEntity
  8
_U+30EC_U+30A4_U+30E4_U+30FC 1
370
     0
100
AcDbVertex
100
AcDb2dVertex
 10
112.8561604535568
 20
-129.7150797201754
 30
0.0
  0
SEQEND
  5
99
330
93
100
AcDbEntity
  8
_U+30EC_U+30A4_U+30E4_U+30FC 1
370
     0
  0
HATCH
  5
9A
330
8D
100
AcDbEntity
  8
_U+30EC_U+30A4_U+30E4_U+30FC 1
 62
   179
420
  2234388
100
AcDbHatch
 10
0.0
 20
0.0
 30
0.0
210
0.0
220
0.0
230
1.0
  2
SOLID
 70
     1
 71
     0
 91
        1
 92
        1
 93
        4
 72
     1
 10
112.8561604535568
 20
-129.7150797201754
 11
112.604323973585
 21
-129.7150797201754
 72
     1
 10
112.604323973585
 20
-129.7150797201754
 11
112.604323973585
 21
-129.4632432402036
 72
     1
 10
112.604323973585
 20
-129.4632432402036
 11
112.8561604535568
 21
-129.4632432402036
 72
     1
 10
112.8561604535568
 20
-129.4632432402036
 11
112.8561604535568
 21
-129.7150797201754
 97
        0
 75
     2
 76
     1
 98
        0
  0
SPLINE
  5
9B
330
8D
100
AcDbEntity
  8
_U+30EC_U+30A4_U+30E4_U+30FC 1
370
     0
100
AcDbSpline
210
0.0
220
0.0
230
1.0
 70
    11
 71
     3
 72
    53
 73
    49
 74
     0
 42
0.0000000001
 43
0.0000000001
 12
1.0
 22
0.0
 32
0.0
 13
1.0
 23
0.0
 33
0.0
 40
0.0
 40
0.0
 40
0.0
 40
0.0
 40
1.0
 40
1.0
 40
1.0
 40
2.0
 40
2.0
 40
2.0
 40
3.0
 40
3.0
 40
3.0
 40
4.0
 40
4.0
 40
4.0
 40
5.0
 40
5.0
 40
5.0
 40
6.0
 40
6.0
 40
6.0
 40
7.0
 40
7.0
 40
7.0
 40
8.0
 40
8.0
 40
8.0
 40
9.0
 40
9.0
 40
9.0
 40
10.0
 40
10.0
 40
10.0
 40
11.0
 40
11.0
 40
11.0
 40
12.0
 40
12.0
 40
12.0
 40
13.0
 40
13.0
 40
13.0
 40
14.0
 40
14.0
 40
14.0
 40
15.0
 40
15.0
 40
15.0
 40
16.0
 40
16.0
 40
16.0
 40
16.0
 10
112.90680335719
 20
-128.7459743601746
 30
0.0
 10
112.90680335719
 20
-128.8241780276898
 30
0.0
 10
112.8899223893122
 20
-128.9258083445047
 30
0.0
 10
112.8265326323836
 20
-129.0274386613195
 30
0.0
 10
112.7166340864042
 20
-129.2007269642276
 30
0.0
 10
112.5853759484162
 20
-129.2220865562361
 30
0.0
 10
112.4775444597278
 20
-129.241034581405
 30
0.0
 10
112.4775444597278
 20
-129.241034581405
 30
0.0
 10
112.4775444597278
 20
-129.0188259226064
 30
0.0
 10
112.4775444597278
 20
-129.0188259226064
 30
0.0
 10
112.6763264692268
 20
-128.9640489043909
 30
0.0
 10
112.7059542903999
 20
-128.8369248809852
 30
0.0
 10
112.7059542903999
 20
-128.7439073028835
 30
0.0
 10
112.7059542903999
 20
-128.6043809357309
 30
0.0
 10
112.6063910308762
 20
-128.4521077152828
 30
0.0
 10
112.3738470856218
 20
-128.4521077152828
 30
0.0
 10
112.1178764910678
 20
-128.4521077152828
 30
0.0
 10
112.0479410527172
 20
-128.6319416996129
 30
0.0
 10
112.0479410527172
 20
-128.7525200415966
 30
0.0
 10
112.0479410527172
 20
-128.7842149200609
 30
0.0
 10
112.0479410527172
 20
-128.9258083445047
 30
0.0
 10
112.1771321334141
 20
-129.0146918080241
 30
0.0
 10
112.1771321334141
 20
-129.0146918080241
 30
0.0
 10
112.1581841082452
 20
-129.1903916777719
 30
0.0
 10
112.1581841082452
 20
-129.1903916777719
 30
0.0
 10
112.1581841082452
 20
-129.1903916777719
 30
0.0
 10
111.3117241475193
 20
-129.0698133357881
 30
0.0
 10
111.3117241475193
 20
-129.0698133357881
 30
0.0
 10
111.3117241475193
 20
-129.0698133357881
 30
0.0
 10
111.3117241475193
 20
-128.2912217561216
 30
0.0
 10
111.3117241475193
 20
-128.2912217561216
 30
0.0
 10
111.3117241475193
 20
-128.2912217561216
 30
0.0
 10
111.5063720424359
 20
-128.2912217561216
 30
0.0
 10
111.5063720424359
 20
-128.2912217561216
 30
0.0
 10
111.5063720424359
 20
-128.2912217561216
 30
0.0
 10
111.5063720424359
 20
-128.9068603193358
 30
0.0
 10
111.5063720424359
 20
-128.9068603193358
 30
0.0
 10
111.5063720424359
 20
-128.9068603193358
 30
0.0
 10
111.9294297680246
 20
-128.9723171335555
 30
0.0
 10
111.9294297680246
 20
-128.9723171335555
 30
0.0
 10
111.8956678322691
 20
-128.9109944339181
 30
0.0
 10
111.8553602150917
 20
-128.8286566518206
 30
0.0
 10
111.8553602150917
 20
-128.710145367128
 30
0.0
 10
111.8553602150917
 20
-128.4562418298651
 30
0.0
 10
112.0417398808437
 20
-128.2192192604799
 30
0.0
 10
112.354899060453
 20
-128.2192192604799
 30
0.0
 10
112.6721923546445
 20
-128.2192192604799
 30
0.0
 10
112.90680335719
 20
-128.4434949765697
 30
0.0
 10
112.90680335719
 20
-128.7459743601746
 30
0.0
  0
HATCH
  5
9C
330
8D
100
AcDbEntity
  8
_U+30EC_U+30A4_U+30E4_U+30FC 1
 62
   179
420
  2234388
100
AcDbHatch
 10
0.0
 20
0.0
 30
0.0
210
0.0
220
0.0
230
1.0
  2
SOLID
 70
     1
 71
     0
 91
        1
 92
        1
 93
        1
 72
     4
 94
        3
 73
     0
 74
     1
 95
       53
 96
       49
 40
0.0
 40
0.0
 40
0.0
 40
0.0
 40
1.0
 40
1.0
 40
1.0
 40
2.0
 40
2.0
 40
2.0
 40
3.0
 40
3.0
 40
3.0
 40
4.0
 40
4.0
 40
4.0
 40
5.0
 40
5.0
 40
5.0
 40
6.0
 40
6.0
 40
6.0
 40
7.0
 40
7.0
 40
7.0
 40
8.0
 40
8.0
 40
8.0
 40
9.0
 40
9.0
 40
9.0
 40
10.0
 40
10.0
 40
10.0
 40
11.0
 40
11.0
 40
11.0
 40
12.0
 40
12.0
 40
12.0
 40
13.0
 40
13.0
 40
13.0
 40
14.0
 40
14.0
 40
14.0
 40
15.0
 40
15.0
 40
15.0
 40
16.0
 40
16.0
 40
16.0
 40
16.0
 10
112.90680335719
 20
-128.7459743601746
 10
112.90680335719
 20
-128.8241780276898
 10
112.8899223893122
 20
-128.9258083445047
 10
112.8265326323836
 20
-129.0274386613195
 10
112.7166340864042
 20
-129.2007269642276
 10
112.5853759484162
 20
-129.2220865562361
 10
112.4775444597278
 20
-129.241034581405
 10
112.4775444597278
 20
-129.241034581405
 10
112.4775444597278
 20
-129.0188259226064
 10
112.4775444597278
 20
-129.0188259226064
 10
112.6763264692268
 20
-128.9640489043909
 10
112.7059542903999
 20
-128.8369248809852
 10
112.7059542903999
 20
-128.7439073028835
 10
112.7059542903999
 20
-128.6043809357309
 10
112.6063910308762
 20
-128.4521077152828
 10
112.3738470856218
 20
-128.4521077152828
 10
112.1178764910678
 20
-128.4521077152828
 10
112.0479410527172
 20
-128.6319416996129
 10
112.0479410527172
 20
-128.7525200415966
 10
112.0479410527172
 20
-128.7842149200609
 10
112.0479410527172
 20
-128.9258083445047
 10
112.1771321334141
 20
-129.0146918080241
 10
112.1771321334141
 20
-129.0146918080241
 10
112.1581841082452
 20
-129.1903916777719
 10
112.1581841082452
 20
-129.1903916777719
 10
112.1581841082452
 20
-129.1903916777719
 10
111.3117241475193
 20
-129.0698133357881
 10
111.3117241475193
 20
-129.0698133357881
 10
111.3117241475193
 20
-129.0698133357881
 10
111.3117241475193
 20
-128.2912217561216
 10
111.3117241475193
 20
-128.2912217561216
 10
111.3117241475193
 20
-128.2912217561216
 10
111.5063720424359
 20
-128.2912217561216
 10
111.5063720424359
 20
-128.2912217561216
 10
111.5063720424359
 20
-128.2912217561216
 10
111.5063720424359
 20
-128.9068603193358
 10
111.5063720424359
 20
-128.9068603193358
 10
111.5063720424359
 20
-128.9068603193358
 10
111.9294297680246
 20
-128.9723171335555
 10
111.9294297680246
 20
-128.9723171335555
 10
111.8956678322691
 20
-128.9109944339181
 10
111.8553602150917
 20
-128.8286566518206
 10
111.8553602150917
 20
-128.710145367128
 10
111.8553602150917
 20
-128.4562418298651
 10
112.0417398808437
 20
-128.2192192604799
 10
112.354899060453
 20
-128.2192192604799
 10
112.6721923546445
 20
-128.2192192604799
 10
112.90680335719
 20
-128.4434949765697
 10
112.90680335719
 20
-128.7459743601746
 97
        0
 97
        0
 75
     2
 76
     1
 98
        0
  0
ENDBLK
  5
90
330
8D
100
AcDbEntity
  8
0
100
AcDbBlockEnd
  0
BLOCK
  5
AB
330
A9
100
AcDbEntity
  8
0
100
AcDbBlockBegin
  2
block 3
 70
     0
 10
0.0
 20
0.0
 30
0.0
  3
block 3
  1

  0
SPLINE
  5
AD
330
A9
100
AcDbEntity
  8
_U+30EC_U+30A4_U+30E4_U+30FC 1
370
     0
100
AcDbSpline
210
0.0
220
0.0
230
1.0
 70
    11
 71
     3
 72
    62
 73
    58
 74
     0
 42
0.0000000001
 43
0.0000000001
 12
1.0
 22
0.0
 32
0.0
 13
1.0
 23
0.0
 33
0.0
 40
0.0
 40
0.0
 40
0.0
 40
0.0
 40
1.0
 40
1.0
 40
1.0
 40
2.0
 40
2.0
 40
2.0
 40
3.0
 40
3.0
 40
3.0
 40
4.0
 40
4.0
 40
4.0
 40
5.0
 40
5.0
 40
5.0
 40
6.0
 40
6.0
 40
6.0
 40
7.0
 40
7.0
 40
7.0
 40
8.0
 40
8.0
 40
8.0
 40
9.0
 40
9.0
 40
9.0
 40
10.0
 40
10.0
 40
10.0
 40
11.0
 40
11.0
 40
11.0
 40
12.0
 40
12.0
 40
12.0
 40
13.0
 40
13.0
 40
13.0
 40
14.0
 40
14.0
 40
14.0
 40
15.0
 40
15.0
 40
15.0
 40
16.0
 40
16.0
 40
16.0
 40
17.0
 40
17.0
 40
17.0
 40
18.0
 40
18.0
 40
18.0
 40
19.0
 40
19.0
 40
19.0
 40
19.0
 10
91.27952742943707
 20
-115.1912461734591
 30
0.0
 10
91.18409828449565
 20
-115.1912461734591
 30
0.0
 10
90.96636824982785
 20
-115.1702310909991
 30
0.0
 10
90.84131128371328
 20
-114.9841959347956
 30
0.0
 10
90.76724173078041
 20
-114.8718858219765
 30
0.0
 10
90.76310761619811
 20
-114.7726670720013
 30
0.0
 10
90.75897350161581
 20
-114.6879177230641
 30
0.0
 10
90.75897350161581
 20
-114.6879177230641
 30
0.0
 10
90.97911510312328
 20
-114.6879177230641
 30
0.0
 10
90.97911510312328
 20
-114.6879177230641
 30
0.0
 10
90.98118216041443
 20
-114.761987275997
 30
0.0
 10
90.99151744687018
 20
-114.9965982785425
 30
0.0
 10
91.27504880530624
 20
-114.9965982785425
 30
0.0
 10
91.41250811516771
 20
-114.9965982785425
 30
0.0
 10
91.56512584516427
 20
-114.9270073497405
 30
0.0
 10
91.56512584516427
 20
-114.6985975190684
 30
0.0
 10
91.56512584516427
 20
-114.582153291667
 30
0.0
 10
91.526885285278
 20
-114.5335774453249
 30
0.0
 10
91.4951904068137
 20
-114.5018825668606
 30
0.0
 10
91.42112085388084
 20
-114.4278130139278
 30
0.0
 10
91.30467662647939
 20
-114.4150661606323
 30
0.0
 10
91.24989960826392
 20
-114.4150661606323
 30
0.0
 10
91.23060707354652
 20
-114.4150661606323
 30
0.0
 10
91.19477808049992
 20
-114.4171332179235
 30
0.0
 10
91.16721731661792
 20
-114.4212673325058
 30
0.0
 10
91.16721731661792
 20
-114.4212673325058
 30
0.0
 10
91.16721731661792
 20
-114.2266194375892
 30
0.0
 10
91.16721731661792
 20
-114.2266194375892
 30
0.0
 10
91.2054578765042
 20
-114.2331651190112
 30
0.0
 10
91.24748804142425
 20
-114.2352321763023
 30
0.0
 10
91.25403372284622
 20
-114.2352321763023
 30
0.0
 10
91.31949053706596
 20
-114.2352321763023
 30
0.0
 10
91.51827254656489
 20
-114.2138725842938
 30
0.0
 10
91.51827254656489
 20
-113.9771945244571
 30
0.0
 10
91.51827254656489
 20
-113.7994275974182
 30
0.0
 10
91.38735891812539
 20
-113.7443060696542
 30
0.0
 10
91.2771158625974
 20
-113.7443060696542
 30
0.0
 10
91.01287703887873
 20
-113.7443060696542
 30
0.0
 10
91.0042643001656
 20
-113.9771945244571
 30
0.0
 10
91.0001301855833
 20
-114.0488525105503
 30
0.0
 10
91.0001301855833
 20
-114.0488525105503
 30
0.0
 10
90.79686955195356
 20
-114.0488525105503
 30
0.0
 10
90.79686955195356
 20
-114.0488525105503
 30
0.0
 10
90.80548229066669
 20
-113.9241400539842
 30
0.0
 10
90.83304305454868
 20
-113.5475911174464
 30
0.0
 10
91.28986271589281
 20
-113.5475911174464
 30
0.0
 10
91.51413843198259
 20
-113.5475911174464
 30
0.0
 10
91.75529511595006
 20
-113.6747151408522
 30
0.0
 10
91.75529511595006
 20
-113.9706488430351
 30
0.0
 10
91.75529511595006
 20
-114.1570285087871
 30
0.0
 10
91.66021048055717
 20
-114.2393662908846
 30
0.0
 10
91.56064722103345
 20
-114.3006889905221
 30
0.0
 10
91.6219699206709
 20
-114.3282497544041
 30
0.0
 10
91.8038709622921
 20
-114.4085204792104
 30
0.0
 10
91.8038709622921
 20
-114.685850665773
 30
0.0
 10
91.8038709622921
 20
-115.0241590424245
 30
0.0
 10
91.55651310645115
 20
-115.1912461734591
 30
0.0
 10
91.27952742943707
 20
-115.1912461734591
 30
0.0
  0
HATCH
  5
AE
330
A9
100
AcDbEntity
  8
_U+30EC_U+30A4_U+30E4_U+30FC 1
 62
   179
420
  2234388
100
AcDbHatch
 10
0.0
 20
0.0
 30
0.0
210
0.0
220
0.0
230
1.0
  2
SOLID
 70
     1
 71
     0
 91
        1
 92
        1
 93
        1
 72
     4
 94
        3
 73
     0
 74
     1
 95
       62
 96
       58
 40
0.0
 40
0.0
 40
0.0
 40
0.0
 40
1.0
 40
1.0
 40
1.0
 40
2.0
 40
2.0
 40
2.0
 40
3.0
 40
3.0
 40
3.0
 40
4.0
 40
4.0
 40
4.0
 40
5.0
 40
5.0
 40
5.0
 40
6.0
 40
6.0
 40
6.0
 40
7.0
 40
7.0
 40
7.0
 40
8.0
 40
8.0
 40
8.0
 40
9.0
 40
9.0
 40
9.0
 40
10.0
 40
10.0
 40
10.0
 40
11.0
 40
11.0
 40
11.0
 40
12.0
 40
12.0
 40
12.0
 40
13.0
 40
13.0
 40
13.0
 40
14.0
 40
14.0
 40
14.0
 40
15.0
 40
15.0
 40
15.0
 40
16.0
 40
16.0
 40
16.0
 40
17.0
 40
17.0
 40
17.0
 40
18.0
 40
18.0
 40
18.0
 40
19.0
 40
19.0
 40
19.0
 40
19.0
 10
91.27952742943707
 20
-115.1912461734591
 10
91.18409828449565
 20
-115.1912461734591
 10
90.96636824982785
 20
-115.1702310909991
 10
90.84131128371328
 20
-114.9841959347956
 10
90.76724173078041
 20
-114.8718858219765
 10
90.76310761619811
 20
-114.7726670720013
 10
90.75897350161581
 20
-114.6879177230641
 10
90.75897350161581
 20
-114.6879177230641
 10
90.97911510312328
 20
-114.6879177230641
 10
90.97911510312328
 20
-114.6879177230641
 10
90.98118216041443
 20
-114.761987275997
 10
90.99151744687018
 20
-114.9965982785425
 10
91.27504880530624
 20
-114.9965982785425
 10
91.41250811516771
 20
-114.9965982785425
 10
91.56512584516427
 20
-114.9270073497405
 10
91.56512584516427
 20
-114.6985975190684
 10
91.56512584516427
 20
-114.582153291667
 10
91.526885285278
 20
-114.5335774453249
 10
91.4951904068137
 20
-114.5018825668606
 10
91.42112085388084
 20
-114.4278130139278
 10
91.30467662647939
 20
-114.4150661606323
 10
91.24989960826392
 20
-114.4150661606323
 10
91.23060707354652
 20
-114.4150661606323
 10
91.19477808049992
 20
-114.4171332179235
 10
91.16721731661792
 20
-114.4212673325058
 10
91.16721731661792
 20
-114.4212673325058
 10
91.16721731661792
 20
-114.2266194375892
 10
91.16721731661792
 20
-114.2266194375892
 10
91.2054578765042
 20
-114.2331651190112
 10
91.24748804142425
 20
-114.2352321763023
 10
91.25403372284622
 20
-114.2352321763023
 10
91.31949053706596
 20
-114.2352321763023
 10
91.51827254656489
 20
-114.2138725842938
 10
91.51827254656489
 20
-113.9771945244571
 10
91.51827254656489
 20
-113.7994275974182
 10
91.38735891812539
 20
-113.7443060696542
 10
91.2771158625974
 20
-113.7443060696542
 10
91.01287703887873
 20
-113.7443060696542
 10
91.0042643001656
 20
-113.9771945244571
 10
91.0001301855833
 20
-114.0488525105503
 10
91.0001301855833
 20
-114.0488525105503
 10
90.79686955195356
 20
-114.0488525105503
 10
90.79686955195356
 20
-114.0488525105503
 10
90.80548229066669
 20
-113.9241400539842
 10
90.83304305454868
 20
-113.5475911174464
 10
91.28986271589281
 20
-113.5475911174464
 10
91.51413843198259
 20
-113.5475911174464
 10
91.75529511595006
 20
-113.6747151408522
 10
91.75529511595006
 20
-113.9706488430351
 10
91.75529511595006
 20
-114.1570285087871
 10
91.66021048055717
 20
-114.2393662908846
 10
91.56064722103345
 20
-114.3006889905221
 10
91.6219699206709
 20
-114.3282497544041
 10
91.8038709622921
 20
-114.4085204792104
 10
91.8038709622921
 20
-114.685850665773
 10
91.8038709622921
 20
-115.0241590424245
 10
91.55651310645115
 20
-115.1912461734591
 10
91.27952742943707
 20
-115.1912461734591
 97
        0
 97
        0
 75
     2
 76
     1
 98
        0
  0
SPLINE
  5
AF
330
A9
100
AcDbEntity
  8
_U+30EC_U+30A4_U+30E4_U+30FC 1
370
     0
100
AcDbSpline
210
0.0
220
0.0
230
1.0
 70
    11
 71
     3
 72
    53
 73
    49
 74
     0
 42
0.0000000001
 43
0.0000000001
 12
1.0
 22
0.0
 32
0.0
 13
1.0
 23
0.0
 33
0.0
 40
0.0
 40
0.0
 40
0.0
 40
0.0
 40
1.0
 40
1.0
 40
1.0
 40
2.0
 40
2.0
 40
2.0
 40
3.0
 40
3.0
 40
3.0
 40
4.0
 40
4.0
 40
4.0
 40
5.0
 40
5.0
 40
5.0
 40
6.0
 40
6.0
 40
6.0
 40
7.0
 40
7.0
 40
7.0
 40
8.0
 40
8.0
 40
8.0
 40
9.0
 40
9.0
 40
9.0
 40
10.0
 40
10.0
 40
10.0
 40
11.0
 40
11.0
 40
11.0
 40
12.0
 40
12.0
 40
12.0
 40
13.0
 40
13.0
 40
13.0
 40
14.0
 40
14.0
 40
14.0
 40
15.0
 40
15.0
 40
15.0
 40
16.0
 40
16.0
 40
16.0
 40
16.0
 10
92.44569225119413
 20
-115.1912461734591
 30
0.0
 10
92.36748858367896
 20
-115.1912461734591
 30
0.0
 10
92.2658582668641
 20
-115.1743652055814
 30
0.0
 10
92.16422795004922
 20
-115.1109754486528
 30
0.0
 10
91.99093964714116
 20
-115.0010769026733
 30
0.0
 10
91.96958005513261
 20
-114.8698187646853
 30
0.0
 10
91.95063202996373
 20
-114.761987275997
 30
0.0
 10
91.95063202996373
 20
-114.761987275997
 30
0.0
 10
92.17284068876235
 20
-114.761987275997
 30
0.0
 10
92.17284068876235
 20
-114.761987275997
 30
0.0
 10
92.22761770697782
 20
-114.9607692854959
 30
0.0
 10
92.35474173038354
 20
-114.9903971066691
 30
0.0
 10
92.44775930848529
 20
-114.9903971066691
 30
0.0
 10
92.5872856756379
 20
-114.9903971066691
 30
0.0
 10
92.73955889608595
 20
-114.8908338471454
 30
0.0
 10
92.73955889608595
 20
-114.658289901891
 30
0.0
 10
92.73955889608595
 20
-114.4023193073369
 30
0.0
 10
92.55972491175591
 20
-114.3323838689864
 30
0.0
 10
92.43914656977216
 20
-114.3323838689864
 30
0.0
 10
92.40745169130787
 20
-114.3323838689864
 30
0.0
 10
92.2658582668641
 20
-114.3323838689864
 30
0.0
 10
92.17697480334465
 20
-114.4615749496832
 30
0.0
 10
92.17697480334465
 20
-114.4615749496832
 30
0.0
 10
92.0012749335969
 20
-114.4426269245143
 30
0.0
 10
92.0012749335969
 20
-114.4426269245143
 30
0.0
 10
92.0012749335969
 20
-114.4426269245143
 30
0.0
 10
92.12185327558065
 20
-113.5961669637885
 30
0.0
 10
92.12185327558065
 20
-113.5961669637885
 30
0.0
 10
92.12185327558065
 20
-113.5961669637885
 30
0.0
 10
92.90044485524712
 20
-113.5961669637885
 30
0.0
 10
92.90044485524712
 20
-113.5961669637885
 30
0.0
 10
92.90044485524712
 20
-113.5961669637885
 30
0.0
 10
92.90044485524712
 20
-113.7908148587051
 30
0.0
 10
92.90044485524712
 20
-113.7908148587051
 30
0.0
 10
92.90044485524712
 20
-113.7908148587051
 30
0.0
 10
92.28480629203297
 20
-113.7908148587051
 30
0.0
 10
92.28480629203297
 20
-113.7908148587051
 30
0.0
 10
92.28480629203297
 20
-113.7908148587051
 30
0.0
 10
92.21934947781322
 20
-114.2138725842938
 30
0.0
 10
92.21934947781322
 20
-114.2138725842938
 30
0.0
 10
92.28067217745067
 20
-114.1801106485383
 30
0.0
 10
92.36300995954814
 20
-114.1398030313609
 30
0.0
 10
92.48152124424074
 20
-114.1398030313609
 30
0.0
 10
92.73542478150365
 20
-114.1398030313609
 30
0.0
 10
92.97244735088884
 20
-114.3261826971129
 30
0.0
 10
92.97244735088884
 20
-114.6393418767221
 30
0.0
 10
92.97244735088884
 20
-114.9566351709136
 30
0.0
 10
92.74817163479908
 20
-115.1912461734591
 30
0.0
 10
92.44569225119413
 20
-115.1912461734591
 30
0.0
  0
HATCH
  5
B0
330
A9
100
AcDbEntity
  8
_U+30EC_U+30A4_U+30E4_U+30FC 1
 62
   179
420
  2234388
100
AcDbHatch
 10
0.0
 20
0.0
 30
0.0
210
0.0
220
0.0
230
1.0
  2
SOLID
 70
     1
 71
     0
 91
        1
 92
        1
 93
        1
 72
     4
 94
        3
 73
     0
 74
     1
 95
       53
 96
       49
 40
0.0
 40
0.0
 40
0.0
 40
0.0
 40
1.0
 40
1.0
 40
1.0
 40
2.0
 40
2.0
 40
2.0
 40
3.0
 40
3.0
 40
3.0
 40
4.0
 40
4.0
 40
4.0
 40
5.0
 40
5.0
 40
5.0
 40
6.0
 40
6.0
 40
6.0
 40
7.0
 40
7.0
 40
7.0
 40
8.0
 40
8.0
 40
8.0
 40
9.0
 40
9.0
 40
9.0
 40
10.0
 40
10.0
 40
10.0
 40
11.0
 40
11.0
 40
11.0
 40
12.0
 40
12.0
 40
12.0
 40
13.0
 40
13.0
 40
13.0
 40
14.0
 40
14.0
 40
14.0
 40
15.0
 40
15.0
 40
15.0
 40
16.0
 40
16.0
 40
16.0
 40
16.0
 10
92.44569225119413
 20
-115.1912461734591
 10
92.36748858367896
 20
-115.1912461734591
 10
92.2658582668641
 20
-115.1743652055814
 10
92.16422795004922
 20
-115.1109754486528
 10
91.99093964714116
 20
-115.0010769026733
 10
91.96958005513261
 20
-114.8698187646853
 10
91.95063202996373
 20
-114.761987275997
 10
91.95063202996373
 20
-114.761987275997
 10
92.17284068876235
 20
-114.761987275997
 10
92.17284068876235
 20
-114.761987275997
 10
92.22761770697782
 20
-114.9607692854959
 10
92.35474173038354
 20
-114.9903971066691
 10
92.44775930848529
 20
-114.9903971066691
 10
92.5872856756379
 20
-114.9903971066691
 10
92.73955889608595
 20
-114.8908338471454
 10
92.73955889608595
 20
-114.658289901891
 10
92.73955889608595
 20
-114.4023193073369
 10
92.55972491175591
 20
-114.3323838689864
 10
92.43914656977216
 20
-114.3323838689864
 10
92.40745169130787
 20
-114.3323838689864
 10
92.2658582668641
 20
-114.3323838689864
 10
92.17697480334465
 20
-114.4615749496832
 10
92.17697480334465
 20
-114.4615749496832
 10
92.0012749335969
 20
-114.4426269245143
 10
92.0012749335969
 20
-114.4426269245143
 10
92.0012749335969
 20
-114.4426269245143
 10
92.12185327558065
 20
-113.5961669637885
 10
92.12185327558065
 20
-113.5961669637885
 10
92.12185327558065
 20
-113.5961669637885
 10
92.90044485524712
 20
-113.5961669637885
 10
92.90044485524712
 20
-113.5961669637885
 10
92.90044485524712
 20
-113.5961669637885
 10
92.90044485524712
 20
-113.7908148587051
 10
92.90044485524712
 20
-113.7908148587051
 10
92.90044485524712
 20
-113.7908148587051
 10
92.28480629203297
 20
-113.7908148587051
 10
92.28480629203297
 20
-113.7908148587051
 10
92.28480629203297
 20
-113.7908148587051
 10
92.21934947781322
 20
-114.2138725842938
 10
92.21934947781322
 20
-114.2138725842938
 10
92.28067217745067
 20
-114.1801106485383
 10
92.36300995954814
 20
-114.1398030313609
 10
92.48152124424074
 20
-114.1398030313609
 10
92.73542478150365
 20
-114.1398030313609
 10
92.97244735088884
 20
-114.3261826971129
 10
92.97244735088884
 20
-114.6393418767221
 10
92.97244735088884
 20
-114.9566351709136
 10
92.74817163479908
 20
-115.1912461734591
 10
92.44569225119413
 20
-115.1912461734591
 97
        0
 97
        0
 75
     2
 76
     1
 98
        0
  0
ENDBLK
  5
AC
330
A9
100
AcDbEntity
  8
0
100
AcDbBlockEnd
  0
BLOCK
  5
BF
330
BD
100
AcDbEntity
  8
0
100
AcDbBlockBegin
  2
block 4
 70
     0
 10
0.0
 20
0.0
 30
0.0
  3
block 4
  1

  0
SPLINE
  5
C1
330
BD
100
AcDbEntity
  8
_U+30EC_U+30A4_U+30E4_U+30FC 1
370
     0
100
AcDbSpline
210
0.0
220
0.0
230
1.0
 70
    11
 71
     3
 72
    26
 73
    22
 74
     0
 42
0.0000000001
 43
0.0000000001
 12
1.0
 22
0.0
 32
0.0
 13
1.0
 23
0.0
 33
0.0
 40
0.0
 40
0.0
 40
0.0
 40
0.0
 40
1.0
 40
1.0
 40
1.0
 40
2.0
 40
2.0
 40
2.0
 40
3.0
 40
3.0
 40
3.0
 40
4.0
 40
4.0
 40
4.0
 40
5.0
 40
5.0
 40
5.0
 40
6.0
 40
6.0
 40
6.0
 40
7.0
 40
7.0
 40
7.0
 40
7.0
 10
69.85620115441095
 20
-130.7499864039445
 30
0.0
 10
69.85620115441095
 20
-130.7499864039445
 30
0.0
 10
68.75204805138839
 20
-130.7499864039445
 30
0.0
 10
68.75204805138839
 20
-130.7499864039445
 30
0.0
 10
68.75204805138839
 20
-130.7499864039445
 30
0.0
 10
68.75204805138839
 20
-131.0800265514314
 30
0.0
 10
68.75204805138839
 20
-131.0800265514314
 30
0.0
 10
68.75204805138839
 20
-131.0800265514314
 30
0.0
 10
68.60390894552263
 20
-131.0800265514314
 30
0.0
 10
68.60390894552263
 20
-131.0800265514314
 30
0.0
 10
68.58909503493607
 20
-130.7479193466533
 30
0.0
 10
68.42614201848374
 20
-130.7014105576024
 30
0.0
 10
68.31176484837346
 20
-130.6717827364293
 30
0.0
 10
68.31176484837346
 20
-130.6717827364293
 30
0.0
 10
68.31176484837346
 20
-130.5257106878547
 30
0.0
 10
68.31176484837346
 20
-130.5257106878547
 30
0.0
 10
68.31176484837346
 20
-130.5257106878547
 30
0.0
 10
69.85620115441095
 20
-130.5257106878547
 30
0.0
 10
69.85620115441095
 20
-130.5257106878547
 30
0.0
 10
69.85620115441095
 20
-130.5257106878547
 30
0.0
 10
69.85620115441095
 20
-130.7499864039445
 30
0.0
 10
69.85620115441095
 20
-130.7499864039445
 30
0.0
  0
HATCH
  5
C2
330
BD
100
AcDbEntity
  8
_U+30EC_U+30A4_U+30E4_U+30FC 1
 62
   179
420
  2234388
100
AcDbHatch
 10
0.0
 20
0.0
 30
0.0
210
0.0
220
0.0
230
1.0
  2
SOLID
 70
     1
 71
     0
 91
        1
 92
        1
 93
        1
 72
     4
 94
        3
 73
     0
 74
     1
 95
       26
 96
       22
 40
0.0
 40
0.0
 40
0.0
 40
0.0
 40
1.0
 40
1.0
 40
1.0
 40
2.0
 40
2.0
 40
2.0
 40
3.0
 40
3.0
 40
3.0
 40
4.0
 40
4.0
 40
4.0
 40
5.0
 40
5.0
 40
5.0
 40
6.0
 40
6.0
 40
6.0
 40
7.0
 40
7.0
 40
7.0
 40
7.0
 10
69.85620115441095
 20
-130.7499864039445
 10
69.85620115441095
 20
-130.7499864039445
 10
68.75204805138839
 20
-130.7499864039445
 10
68.75204805138839
 20
-130.7499864039445
 10
68.75204805138839
 20
-130.7499864039445
 10
68.75204805138839
 20
-131.0800265514314
 10
68.75204805138839
 20
-131.0800265514314
 10
68.75204805138839
 20
-131.0800265514314
 10
68.60390894552263
 20
-131.0800265514314
 10
68.60390894552263
 20
-131.0800265514314
 10
68.58909503493607
 20
-130.7479193466533
 10
68.42614201848374
 20
-130.7014105576024
 10
68.31176484837346
 20
-130.6717827364293
 10
68.31176484837346
 20
-130.6717827364293
 10
68.31176484837346
 20
-130.5257106878547
 10
68.31176484837346
 20
-130.5257106878547
 10
68.31176484837346
 20
-130.5257106878547
 10
69.85620115441095
 20
-130.5257106878547
 10
69.85620115441095
 20
-130.5257106878547
 10
69.85620115441095
 20
-130.5257106878547
 10
69.85620115441095
 20
-130.7499864039445
 10
69.85620115441095
 20
-130.7499864039445
 97
        0
 97
        0
 75
     2
 76
     1
 98
        0
  0
SPLINE
  5
C3
330
BD
100
AcDbEntity
  8
_U+30EC_U+30A4_U+30E4_U+30FC 1
370
     0
100
AcDbSpline
210
0.0
220
0.0
230
1.0
 70
    11
 71
     3
 72
    29
 73
    25
 74
     0
 42
0.0000000001
 43
0.0000000001
 12
1.0
 22
0.0
 32
0.0
 13
1.0
 23
0.0
 33
0.0
 40
0.0
 40
0.0
 40
0.0
 40
0.0
 40
1.0
 40
1.0
 40
1.0
 40
2.0
 40
2.0
 40
2.0
 40
3.0
 40
3.0
 40
3.0
 40
4.0
 40
4.0
 40
4.0
 40
5.0
 40
5.0
 40
5.0
 40
6.0
 40
6.0
 40
6.0
 40
7.0
 40
7.0
 40
7.0
 40
8.0
 40
8.0
 40
8.0
 40
8.0
 10
69.90684405804413
 20
-129.5245659398411
 30
0.0
 10
69.90684405804413
 20
-129.7912163303994
 30
0.0
 10
69.76938474818266
 20
-130.0451198676624
 30
0.0
 10
69.42039657552685
 20
-130.0451198676624
 30
0.0
 10
69.16442598097278
 20
-130.0451198676624
 30
0.0
 10
69.06934134557989
 20
-129.9031819336701
 30
0.0
 10
69.00801864594244
 20
-129.7974175022729
 30
0.0
 10
68.94876300359614
 20
-129.9221299588389
 30
0.0
 10
68.83438583348585
 20
-129.9982665690629
 30
0.0
 10
68.67349987432469
 20
-129.9982665690629
 30
0.0
 10
68.39858125460175
 20
-129.9982665690629
 30
0.0
 10
68.26318900203142
 20
-129.799484559564
 30
0.0
 10
68.26318900203142
 20
-129.5245659398411
 30
0.0
 10
68.26318900203142
 20
-129.241034581405
 30
0.0
 10
68.40719399331488
 20
-129.0505208010707
 30
0.0
 10
68.67349987432469
 20
-129.0505208010707
 30
0.0
 10
68.83438583348585
 20
-129.0505208010707
 30
0.0
 10
68.94876300359614
 20
-129.1290689781344
 30
0.0
 10
69.00801864594244
 20
-129.2537814347004
 30
0.0
 10
69.05866154957562
 20
-129.164897971181
 30
0.0
 10
69.15374618496851
 20
-129.006079069311
 30
0.0
 10
69.41626246094455
 20
-129.006079069311
 30
0.0
 10
69.79074434019121
 20
-129.006079069311
 30
0.0
 10
69.90684405804413
 20
-129.2854763131647
 30
0.0
 10
69.90684405804413
 20
-129.5245659398411
 30
0.0
  0
SPLINE
  5
C4
330
BD
100
AcDbEntity
  8
_U+30EC_U+30A4_U+30E4_U+30FC 1
370
     0
100
AcDbSpline
210
0.0
220
0.0
230
1.0
 70
    11
 71
     3
 72
    17
 73
    13
 74
     0
 42
0.0000000001
 43
0.0000000001
 12
1.0
 22
0.0
 32
0.0
 13
1.0
 23
0.0
 33
0.0
 40
0.0
 40
0.0
 40
0.0
 40
0.0
 40
1.0
 40
1.0
 40
1.0
 40
2.0
 40
2.0
 40
2.0
 40
3.0
 40
3.0
 40
3.0
 40
4.0
 40
4.0
 40
4.0
 40
4.0
 10
68.4557698396569
 20
-129.5245659398411
 30
0.0
 10
68.4557698396569
 20
-129.6895860135845
 30
0.0
 10
68.55085447504979
 20
-129.7743353625217
 30
0.0
 10
68.6862467276201
 20
-129.7743353625217
 30
0.0
 10
68.808892126895
 20
-129.7743353625217
 30
0.0
 10
68.92740341158759
 20
-129.70233286688
 30
0.0
 10
68.92740341158759
 20
-129.5245659398411
 30
0.0
 10
68.92740341158759
 20
-129.3467990128022
 30
0.0
 10
68.808892126895
 20
-129.2747965171605
 30
0.0
 10
68.6862467276201
 20
-129.2747965171605
 30
0.0
 10
68.55085447504979
 20
-129.2747965171605
 30
0.0
 10
68.4557698396569
 20
-129.3616129233888
 30
0.0
 10
68.4557698396569
 20
-129.5245659398411
 30
0.0
  0
SPLINE
  5
C5
330
BD
100
AcDbEntity
  8
_U+30EC_U+30A4_U+30E4_U+30FC 1
370
     0
100
AcDbSpline
210
0.0
220
0.0
230
1.0
 70
    11
 71
     3
 72
    17
 73
    13
 74
     0
 42
0.0000000001
 43
0.0000000001
 12
1.0
 22
0.0
 32
0.0
 13
1.0
 23
0.0
 33
0.0
 40
0.0
 40
0.0
 40
0.0
 40
0.0
 40
1.0
 40
1.0
 40
1.0
 40
2.0
 40
2.0
 40
2.0
 40
3.0
 40
3.0
 40
3.0
 40
4.0
 40
4.0
 40
4.0
 40
4.0
 10
69.11585013463076
 20
-129.5245659398411
 30
0.0
 10
69.11585013463076
 20
-129.668226421576
 30
0.0
 10
69.20266654085906
 20
-129.8208441515726
 30
0.0
 10
69.40558266494027
 20
-129.8208441515726
 30
0.0
 10
69.61091035586117
 20
-129.8208441515726
 30
0.0
 10
69.71219616312752
 20
-129.6937201281669
 30
0.0
 10
69.71219616312752
 20
-129.5245659398411
 30
0.0
 10
69.71219616312752
 20
-129.3385307836376
 30
0.0
 10
69.58955076385261
 20
-129.2282877281096
 30
0.0
 10
69.41178383681373
 20
-129.2282877281096
 30
0.0
 10
69.18991968756363
 20
-129.2282877281096
 30
0.0
 10
69.11585013463076
 20
-129.3912407445619
 30
0.0
 10
69.11585013463076
 20
-129.5245659398411
 30
0.0
  0
HATCH
  5
C6
330
BD
100
AcDbEntity
  8
_U+30EC_U+30A4_U+30E4_U+30FC 1
 62
   179
420
  2234388
100
AcDbHatch
 10
0.0
 20
0.0
 30
0.0
210
0.0
220
0.0
230
1.0
  2
SOLID
 70
     1
 71
     0
 91
        3
 92
        1
 93
        1
 72
     4
 94
        3
 73
     0
 74
     1
 95
       29
 96
       25
 40
0.0
 40
0.0
 40
0.0
 40
0.0
 40
1.0
 40
1.0
 40
1.0
 40
2.0
 40
2.0
 40
2.0
 40
3.0
 40
3.0
 40
3.0
 40
4.0
 40
4.0
 40
4.0
 40
5.0
 40
5.0
 40
5.0
 40
6.0
 40
6.0
 40
6.0
 40
7.0
 40
7.0
 40
7.0
 40
8.0
 40
8.0
 40
8.0
 40
8.0
 10
69.90684405804413
 20
-129.5245659398411
 10
69.90684405804413
 20
-129.7912163303994
 10
69.76938474818266
 20
-130.0451198676624
 10
69.42039657552685
 20
-130.0451198676624
 10
69.16442598097278
 20
-130.0451198676624
 10
69.06934134557989
 20
-129.9031819336701
 10
69.00801864594244
 20
-129.7974175022729
 10
68.94876300359614
 20
-129.9221299588389
 10
68.83438583348585
 20
-129.9982665690629
 10
68.67349987432469
 20
-129.9982665690629
 10
68.39858125460175
 20
-129.9982665690629
 10
68.26318900203142
 20
-129.799484559564
 10
68.26318900203142
 20
-129.5245659398411
 10
68.26318900203142
 20
-129.241034581405
 10
68.40719399331488
 20
-129.0505208010707
 10
68.67349987432469
 20
-129.0505208010707
 10
68.83438583348585
 20
-129.0505208010707
 10
68.94876300359614
 20
-129.1290689781344
 10
69.00801864594244
 20
-129.2537814347004
 10
69.05866154957562
 20
-129.164897971181
 10
69.15374618496851
 20
-129.006079069311
 10
69.41626246094455
 20
-129.006079069311
 10
69.79074434019121
 20
-129.006079069311
 10
69.90684405804413
 20
-129.2854763131647
 10
69.90684405804413
 20
-129.5245659398411
 97
        0
 97
        0
 92
        1
 93
        1
 72
     4
 94
        3
 73
     0
 74
     1
 95
       17
 96
       13
 40
0.0
 40
0.0
 40
0.0
 40
0.0
 40
1.0
 40
1.0
 40
1.0
 40
2.0
 40
2.0
 40
2.0
 40
3.0
 40
3.0
 40
3.0
 40
4.0
 40
4.0
 40
4.0
 40
4.0
 10
68.4557698396569
 20
-129.5245659398411
 10
68.4557698396569
 20
-129.6895860135845
 10
68.55085447504979
 20
-129.7743353625217
 10
68.6862467276201
 20
-129.7743353625217
 10
68.808892126895
 20
-129.7743353625217
 10
68.92740341158759
 20
-129.70233286688
 10
68.92740341158759
 20
-129.5245659398411
 10
68.92740341158759
 20
-129.3467990128022
 10
68.808892126895
 20
-129.2747965171605
 10
68.6862467276201
 20
-129.2747965171605
 10
68.55085447504979
 20
-129.2747965171605
 10
68.4557698396569
 20
-129.3616129233888
 10
68.4557698396569
 20
-129.5245659398411
 97
        0
 97
        0
 92
        1
 93
        1
 72
     4
 94
        3
 73
     0
 74
     1
 95
       17
 96
       13
 40
0.0
 40
0.0
 40
0.0
 40
0.0
 40
1.0
 40
1.0
 40
1.0
 40
2.0
 40
2.0
 40
2.0
 40
3.0
 40
3.0
 40
3.0
 40
4.0
 40
4.0
 40
4.0
 40
4.0
 10
69.11585013463076
 20
-129.5245659398411
 10
69.11585013463076
 20
-129.668226421576
 10
69.20266654085906
 20
-129.8208441515726
 10
69.40558266494027
 20
-129.8208441515726
 10
69.61091035586117
 20
-129.8208441515726
 10
69.71219616312752
 20
-129.6937201281669
 10
69.71219616312752
 20
-129.5245659398411
 10
69.71219616312752
 20
-129.3385307836376
 10
69.58955076385261
 20
-129.2282877281096
 10
69.41178383681373
 20
-129.2282877281096
 10
69.18991968756363
 20
-129.2282877281096
 10
69.11585013463076
 20
-129.3912407445619
 10
69.11585013463076
 20
-129.5245659398411
 97
        0
 97
        0
 75
     2
 76
     1
 98
        0
  0
ENDBLK
  5
C0
330
BD
100
AcDbEntity
  8
0
100
AcDbBlockEnd
  0
BLOCK
  5
D9
330
D7
100
AcDbEntity
  8
0
100
AcDbBlockBegin
  2
block 5
 70
     0
 10
0.0
 20
0.0
 30
0.0
  3
block 5
  1

  0
SPLINE
  5
DB
330
D7
100
AcDbEntity
  8
_U+30EC_U+30A4_U+30E4_U+30FC 1
370
     0
100
AcDbSpline
210
0.0
220
0.0
230
1.0
 70
    11
 71
     3
 72
    29
 73
    25
 74
     0
 42
0.0000000001
 43
0.0000000001
 12
1.0
 22
0.0
 32
0.0
 13
1.0
 23
0.0
 33
0.0
 40
0.0
 40
0.0
 40
0.0
 40
0.0
 40
1.0
 40
1.0
 40
1.0
 40
2.0
 40
2.0
 40
2.0
 40
3.0
 40
3.0
 40
3.0
 40
4.0
 40
4.0
 40
4.0
 40
5.0
 40
5.0
 40
5.0
 40
6.0
 40
6.0
 40
6.0
 40
7.0
 40
7.0
 40
7.0
 40
8.0
 40
8.0
 40
8.0
 40
8.0
 10
79.4170301450763
 20
-141.7160698430432
 30
0.0
 10
79.3508843117595
 20
-141.9420681068756
 30
0.0
 10
79.1841416902734
 20
-141.9940890487029
 30
0.0
 10
79.07010902971165
 20
-142.0161376598085
 30
0.0
 10
78.9123236564872
 20
-142.0467990096272
 30
0.0
 10
78.76418455062145
 20
-142.0285400035554
 30
0.0
 10
78.63602699857016
 20
-141.8676540443942
 30
0.0
 10
78.4971896505146
 20
-141.6967773083258
 30
0.0
 10
78.43345538403747
 20
-141.4676784585567
 30
0.0
 10
78.4021050151217
 20
-141.3078260280411
 30
0.0
 10
78.37488876078822
 20
-141.1665771131458
 30
0.0
 10
78.34353839187246
 20
-140.9161186713682
 30
0.0
 10
78.40933971564073
 20
-140.7008002035401
 30
0.0
 10
78.4765190776031
 20
-140.4810031115811
 30
0.0
 10
78.62982582669672
 20
-140.4272596220112
 30
0.0
 10
78.7566053405539
 20
-140.402799444066
 30
0.0
 10
78.9123236564872
 20
-140.3724826037958
 30
0.0
 10
79.06184080054705
 20
-140.3883300430279
 30
0.0
 10
79.18999835259834
 20
-140.5492160021891
 30
0.0
 10
79.32435707652309
 20
-140.7187147000634
 30
0.0
 10
79.39084741938841
 20
-140.9388563015708
 30
0.0
 10
79.4239203360468
 20
-141.1093885280907
 30
0.0
 10
79.45664874315668
 20
-141.2775091877709
 30
0.0
 10
79.48007539245637
 20
-141.5076415661856
 30
0.0
 10
79.4170301450763
 20
-141.7160698430432
 30
0.0
  0
SPLINE
  5
DC
330
D7
100
AcDbEntity
  8
_U+30EC_U+30A4_U+30E4_U+30FC 1
370
     0
100
AcDbSpline
210
0.0
220
0.0
230
1.0
 70
    11
 71
     3
 72
    17
 73
    13
 74
     0
 42
0.0000000001
 43
0.0000000001
 12
1.0
 22
0.0
 32
0.0
 13
1.0
 23
0.0
 33
0.0
 40
0.0
 40
0.0
 40
0.0
 40
0.0
 40
1.0
 40
1.0
 40
1.0
 40
2.0
 40
2.0
 40
2.0
 40
3.0
 40
3.0
 40
3.0
 40
4.0
 40
4.0
 40
4.0
 40
4.0
 10
78.79312335269756
 20
-140.5919351862062
 30
0.0
 10
78.54817706369629
 20
-140.6394775039026
 30
0.0
 10
78.55644529286089
 20
-140.926453957824
 30
0.0
 10
78.62224661662917
 20
-141.265106844024
 30
0.0
 10
78.68322480671809
 20
-141.5786105331817
 30
0.0
 10
78.77762042301393
 20
-141.8745442353647
 30
0.0
 10
79.03290199847095
 20
-141.8249348603771
 30
0.0
 10
79.27578123018105
 20
-141.7777370522292
 30
0.0
 10
79.27026907740466
 20
-141.4924831460505
 30
0.0
 10
79.20377873453934
 20
-141.1521077121078
 30
0.0
 10
79.14280054445041
 20
-140.8382595134015
 30
0.0
 10
79.04668238041194
 20
-140.5426703207671
 30
0.0
 10
78.79312335269756
 20
-140.5919351862062
 30
0.0
  0
HATCH
  5
DD
330
D7
100
AcDbEntity
  8
_U+30EC_U+30A4_U+30E4_U+30FC 1
 62
   179
420
  2234388
100
AcDbHatch
 10
0.0
 20
0.0
 30
0.0
210
0.0
220
0.0
230
1.0
  2
SOLID
 70
     1
 71
     0
 91
        2
 92
        1
 93
        1
 72
     4
 94
        3
 73
     0
 74
     1
 95
       29
 96
       25
 40
0.0
 40
0.0
 40
0.0
 40
0.0
 40
1.0
 40
1.0
 40
1.0
 40
2.0
 40
2.0
 40
2.0
 40
3.0
 40
3.0
 40
3.0
 40
4.0
 40
4.0
 40
4.0
 40
5.0
 40
5.0
 40
5.0
 40
6.0
 40
6.0
 40
6.0
 40
7.0
 40
7.0
 40
7.0
 40
8.0
 40
8.0
 40
8.0
 40
8.0
 10
79.4170301450763
 20
-141.7160698430432
 10
79.3508843117595
 20
-141.9420681068756
 10
79.1841416902734
 20
-141.9940890487029
 10
79.07010902971165
 20
-142.0161376598085
 10
78.9123236564872
 20
-142.0467990096272
 10
78.76418455062145
 20
-142.0285400035554
 10
78.63602699857016
 20
-141.8676540443942
 10
78.4971896505146
 20
-141.6967773083258
 10
78.43345538403747
 20
-141.4676784585567
 10
78.4021050151217
 20
-141.3078260280411
 10
78.37488876078822
 20
-141.1665771131458
 10
78.34353839187246
 20
-140.9161186713682
 10
78.40933971564073
 20
-140.7008002035401
 10
78.4765190776031
 20
-140.4810031115811
 10
78.62982582669672
 20
-140.4272596220112
 10
78.7566053405539
 20
-140.402799444066
 10
78.9123236564872
 20
-140.3724826037958
 10
79.06184080054705
 20
-140.3883300430279
 10
79.18999835259834
 20
-140.5492160021891
 10
79.32435707652309
 20
-140.7187147000634
 10
79.39084741938841
 20
-140.9388563015708
 10
79.4239203360468
 20
-141.1093885280907
 10
79.45664874315668
 20
-141.2775091877709
 10
79.48007539245637
 20
-141.5076415661856
 10
79.4170301450763
 20
-141.7160698430432
 97
        0
 97
        0
 92
        1
 93
        1
 72
     4
 94
        3
 73
     0
 74
     1
 95
       17
 96
       13
 40
0.0
 40
0.0
 40
0.0
 40
0.0
 40
1.0
 40
1.0
 40
1.0
 40
2.0
 40
2.0
 40
2.0
 40
3.0
 40
3.0
 40
3.0
 40
4.0
 40
4.0
 40
4.0
 40
4.0
 10
78.79312335269756
 20
-140.5919351862062
 10
78.54817706369629
 20
-140.6394775039026
 10
78.55644529286089
 20
-140.926453957824
 10
78.62224661662917
 20
-141.265106844024
 10
78.68322480671809
 20
-141.5786105331817
 10
78.77762042301393
 20
-141.8745442353647
 10
79.03290199847095
 20
-141.8249348603771
 10
79.27578123018105
 20
-141.7777370522292
 10
79.27026907740466
 20
-141.4924831460505
 10
79.20377873453934
 20
-141.1521077121078
 10
79.14280054445041
 20
-140.8382595134015
 10
79.04668238041194
 20
-140.5426703207671
 10
78.79312335269756
 20
-140.5919351862062
 97
        0
 97
        0
 75
     2
 76
     1
 98
        0
  0
POLYLINE
  5
DE
330
D7
100
AcDbEntity
  8
_U+30EC_U+30A4_U+30E4_U+30FC 1
370
     0
100
AcDb2dPolyline
 66
     1
 10
0.0
 20
0.0
 30
0.0
  0
VERTEX
  5
DF
330
DE
100
AcDbEntity
  8
_U+30EC_U+30A4_U+30E4_U+30FC 1
370
     0
100
AcDbVertex
100
AcDb2dVertex
 10
79.78358830470688
 20
-141.8259683890227
 30
0.0
  0
VERTEX
  5
E0
330
DE
100
AcDbEntity
  8
_U+30EC_U+30A4_U+30E4_U+30FC 1
370
     0
100
AcDbVertex
100
AcDb2dVertex
 10
79.73570147746192
 20
-141.5786105331817
 30
0.0
  0
VERTEX
  5
E1
330
DE
100
AcDbEntity
  8
_U+30EC_U+30A4_U+30E4_U+30FC 1
370
     0
100
AcDbVertex
100
AcDb2dVertex
 10
79.98271482375432
 20
-141.5303791963883
 30
0.0
  0
VERTEX
  5
E2
330
DE
100
AcDbEntity
  8
_U+30EC_U+30A4_U+30E4_U+30FC 1
370
     0
100
AcDbVertex
100
AcDb2dVertex
 10
80.03094616054783
 20
-141.7777370522292
 30
0.0
  0
VERTEX
  5
E3
330
DE
100
AcDbEntity
  8
_U+30EC_U+30A4_U+30E4_U+30FC 1
370
     0
100
AcDbVertex
100
AcDb2dVertex
 10
79.78358830470688
 20
-141.8259683890227
 30
0.0
  0
SEQEND
  5
E4
330
DE
100
AcDbEntity
  8
_U+30EC_U+30A4_U+30E4_U+30FC 1
370
     0
  0
HATCH
  5
E5
330
D7
100
AcDbEntity
  8
_U+30EC_U+30A4_U+30E4_U+30FC 1
 62
   179
420
  2234388
100
AcDbHatch
 10
0.0
 20
0.0
 30
0.0
210
0.0
220
0.0
230
1.0
  2
SOLID
 70
     1
 71
     0
 91
        1
 92
        1
 93
        4
 72
     1
 10
79.78358830470688
 20
-141.8259683890227
 11
79.73570147746192
 21
-141.5786105331817
 72
     1
 10
79.73570147746192
 20
-141.5786105331817
 11
79.98271482375432
 21
-141.5303791963883
 72
     1
 10
79.98271482375432
 20
-141.5303791963883
 11
80.03094616054783
 21
-141.7777370522292
 72
     1
 10
80.03094616054783
 20
-141.7777370522292
 11
79.78358830470688
 21
-141.8259683890227
 97
        0
 75
     2
 76
     1
 98
        0
  0
SPLINE
  5
E6
330
D7
100
AcDbEntity
  8
_U+30EC_U+30A4_U+30E4_U+30FC 1
370
     0
100
AcDbSpline
210
0.0
220
0.0
230
1.0
 70
    11
 71
     3
 72
    29
 73
    25
 74
     0
 42
0.0000000001
 43
0.0000000001
 12
1.0
 22
0.0
 32
0.0
 13
1.0
 23
0.0
 33
0.0
 40
0.0
 40
0.0
 40
0.0
 40
0.0
 40
1.0
 40
1.0
 40
1.0
 40
2.0
 40
2.0
 40
2.0
 40
3.0
 40
3.0
 40
3.0
 40
4.0
 40
4.0
 40
4.0
 40
5.0
 40
5.0
 40
5.0
 40
6.0
 40
6.0
 40
6.0
 40
7.0
 40
7.0
 40
7.0
 40
8.0
 40
8.0
 40
8.0
 40
8.0
 10
80.76337346071193
 20
-141.6867865314186
 30
0.0
 10
80.50189071338147
 20
-141.7377739446003
 30
0.0
 10
80.2262830745615
 20
-141.6513020479205
 30
0.0
 10
80.15979273169617
 20
-141.3088595566867
 30
0.0
 10
80.11087237580561
 20
-141.057712095812
 30
0.0
 10
80.23213973688641
 20
-140.9371337538282
 30
0.0
 10
80.32412378634258
 20
-140.8565185194734
 30
0.0
 10
80.19010957196636
 20
-140.8224120741694
 30
0.0
 10
80.09364689837938
 20
-140.7245713623883
 30
0.0
 10
80.06298554856065
 20
-140.5667859891639
 30
0.0
 10
80.01062009718486
 20
-140.2970350126688
 30
0.0
 10
80.18011879505914
 20
-140.1261582766004
 30
0.0
 10
80.4498697715542
 20
-140.0734483156761
 30
0.0
 10
80.72823348676239
 20
-140.0193603165577
 30
0.0
 10
80.94251842594493
 20
-140.1244357288578
 30
0.0
 10
80.99350583912663
 20
-140.3859184761882
 30
0.0
 10
81.02416718894536
 20
-140.5437038494127
 30
0.0
 10
80.96904566118135
 20
-140.6708278728184
 30
0.0
 10
80.85776907700779
 20
-140.7528211453674
 30
0.0
 10
80.9545762601433
 20
-140.7855495524772
 30
0.0
 10
81.12855358214843
 20
-140.8485947998573
 30
0.0
 10
81.17850746668455
 20
-141.106287942154
 30
0.0
 10
81.25016545277774
 20
-141.4738796304302
 30
0.0
 10
80.99832897280598
 20
-141.6413112710133
 30
0.0
 10
80.76337346071193
 20
-141.6867865314186
 30
0.0
  0
SPLINE
  5
E7
330
D7
100
AcDbEntity
  8
_U+30EC_U+30A4_U+30E4_U+30FC 1
370
     0
100
AcDbSpline
210
0.0
220
0.0
230
1.0
 70
    11
 71
     3
 72
    17
 73
    13
 74
     0
 42
0.0000000001
 43
0.0000000001
 12
1.0
 22
0.0
 32
0.0
 13
1.0
 23
0.0
 33
0.0
 40
0.0
 40
0.0
 40
0.0
 40
0.0
 40
1.0
 40
1.0
 40
1.0
 40
2.0
 40
2.0
 40
2.0
 40
3.0
 40
3.0
 40
3.0
 40
4.0
 40
4.0
 40
4.0
 40
4.0
 10
80.48673229324638
 20
-140.2625840578163
 30
0.0
 10
80.32446829589111
 20
-140.2942789362806
 30
0.0
 10
80.25970050076842
 20
-140.403488463163
 30
0.0
 10
80.28553871690778
 20
-140.5364691488937
 30
0.0
 10
80.30896536620749
 20
-140.6570474908774
 30
0.0
 10
80.40232745385775
 20
-140.7593668267893
 30
0.0
 10
80.57664928541139
 20
-140.7252603814854
 30
0.0
 10
80.75131562651356
 20
-140.6914984457299
 30
0.0
 10
80.79920245375854
 20
-140.561618345936
 30
0.0
 10
80.77577580445883
 20
-140.4410400039523
 30
0.0
 10
80.74959307877094
 20
-140.3080593182216
 30
0.0
 10
80.64658472376198
 20
-140.2315781984491
 30
0.0
 10
80.48673229324638
 20
-140.2625840578163
 30
0.0
  0
SPLINE
  5
E8
330
D7
100
AcDbEntity
  8
_U+30EC_U+30A4_U+30E4_U+30FC 1
370
     0
100
AcDbSpline
210
0.0
220
0.0
230
1.0
 70
    11
 71
     3
 72
    17
 73
    13
 74
     0
 42
0.0000000001
 43
0.0000000001
 12
1.0
 22
0.0
 32
0.0
 13
1.0
 23
0.0
 33
0.0
 40
0.0
 40
0.0
 40
0.0
 40
0.0
 40
1.0
 40
1.0
 40
1.0
 40
2.0
 40
2.0
 40
2.0
 40
3.0
 40
3.0
 40
3.0
 40
4.0
 40
4.0
 40
4.0
 40
4.0
 10
80.612478278458
 20
-140.9102620090433
 30
0.0
 10
80.47122936356276
 20
-140.9378227729253
 30
0.0
 10
80.33824867783211
 20
-141.0521999430356
 30
0.0
 10
80.37717825681543
 20
-141.251326462083
 30
0.0
 10
80.41645234534728
 20
-141.4528645479701
 30
0.0
 10
80.56045733663072
 20
-141.5279676295486
 30
0.0
 10
80.72651093901976
 20
-141.4955837319872
 30
0.0
 10
80.909100999738
 20
-141.4600992484891
 30
0.0
 10
80.99385034867515
 20
-141.3188503335939
 30
0.0
 10
80.95974390337118
 20
-141.1441839924917
 30
0.0
 10
80.91771373845113
 20
-140.926453957824
 30
0.0
 10
80.74339190689749
 20
-140.8847683024524
 30
0.0
 10
80.612478278458
 20
-140.9102620090433
 30
0.0
  0
HATCH
  5
E9
330
D7
100
AcDbEntity
  8
_U+30EC_U+30A4_U+30E4_U+30FC 1
 62
   179
420
  2234388
100
AcDbHatch
 10
0.0
 20
0.0
 30
0.0
210
0.0
220
0.0
230
1.0
  2
SOLID
 70
     1
 71
     0
 91
        3
 92
        1
 93
        1
 72
     4
 94
        3
 73
     0
 74
     1
 95
       29
 96
       25
 40
0.0
 40
0.0
 40
0.0
 40
0.0
 40
1.0
 40
1.0
 40
1.0
 40
2.0
 40
2.0
 40
2.0
 40
3.0
 40
3.0
 40
3.0
 40
4.0
 40
4.0
 40
4.0
 40
5.0
 40
5.0
 40
5.0
 40
6.0
 40
6.0
 40
6.0
 40
7.0
 40
7.0
 40
7.0
 40
8.0
 40
8.0
 40
8.0
 40
8.0
 10
80.76337346071193
 20
-141.6867865314186
 10
80.50189071338147
 20
-141.7377739446003
 10
80.2262830745615
 20
-141.6513020479205
 10
80.15979273169617
 20
-141.3088595566867
 10
80.11087237580561
 20
-141.057712095812
 10
80.23213973688641
 20
-140.9371337538282
 10
80.32412378634258
 20
-140.8565185194734
 10
80.19010957196636
 20
-140.8224120741694
 10
80.09364689837938
 20
-140.7245713623883
 10
80.06298554856065
 20
-140.5667859891639
 10
80.01062009718486
 20
-140.2970350126688
 10
80.18011879505914
 20
-140.1261582766004
 10
80.4498697715542
 20
-140.0734483156761
 10
80.72823348676239
 20
-140.0193603165577
 10
80.94251842594493
 20
-140.1244357288578
 10
80.99350583912663
 20
-140.3859184761882
 10
81.02416718894536
 20
-140.5437038494127
 10
80.96904566118135
 20
-140.6708278728184
 10
80.85776907700779
 20
-140.7528211453674
 10
80.9545762601433
 20
-140.7855495524772
 10
81.12855358214843
 20
-140.8485947998573
 10
81.17850746668455
 20
-141.106287942154
 10
81.25016545277774
 20
-141.4738796304302
 10
80.99832897280598
 20
-141.6413112710133
 10
80.76337346071193
 20
-141.6867865314186
 97
        0
 97
        0
 92
        1
 93
        1
 72
     4
 94
        3
 73
     0
 74
     1
 95
       17
 96
       13
 40
0.0
 40
0.0
 40
0.0
 40
0.0
 40
1.0
 40
1.0
 40
1.0
 40
2.0
 40
2.0
 40
2.0
 40
3.0
 40
3.0
 40
3.0
 40
4.0
 40
4.0
 40
4.0
 40
4.0
 10
80.48673229324638
 20
-140.2625840578163
 10
80.32446829589111
 20
-140.2942789362806
 10
80.25970050076842
 20
-140.403488463163
 10
80.28553871690778
 20
-140.5364691488937
 10
80.30896536620749
 20
-140.6570474908774
 10
80.40232745385775
 20
-140.7593668267893
 10
80.57664928541139
 20
-140.7252603814854
 10
80.75131562651356
 20
-140.6914984457299
 10
80.79920245375854
 20
-140.561618345936
 10
80.77577580445883
 20
-140.4410400039523
 10
80.74959307877094
 20
-140.3080593182216
 10
80.64658472376198
 20
-140.2315781984491
 10
80.48673229324638
 20
-140.2625840578163
 97
        0
 97
        0
 92
        1
 93
        1
 72
     4
 94
        3
 73
     0
 74
     1
 95
       17
 96
       13
 40
0.0
 40
0.0
 40
0.0
 40
0.0
 40
1.0
 40
1.0
 40
1.0
 40
2.0
 40
2.0
 40
2.0
 40
3.0
 40
3.0
 40
3.0
 40
4.0
 40
4.0
 40
4.0
 40
4.0
 10
80.612478278458
 20
-140.9102620090433
 10
80.47122936356276
 20
-140.9378227729253
 10
80.33824867783211
 20
-141.0521999430356
 10
80.37717825681543
 20
-141.251326462083
 10
80.41645234534728
 20
-141.4528645479701
 10
80.56045733663072
 20
-141.5279676295486
 10
80.72651093901976
 20
-141.4955837319872
 10
80.909100999738
 20
-141.4600992484891
 10
80.99385034867515
 20
-141.3188503335939
 10
80.95974390337118
 20
-141.1441839924917
 10
80.91771373845113
 20
-140.926453957824
 10
80.74339190689749
 20
-140.8847683024524
 10
80.612478278458
 20
-140.9102620090433
 97
        0
 97
        0
 75
     2
 76
     1
 98
        0
  0
ENDBLK
  5
DA
330
D7
100
AcDbEntity
  8
0
100
AcDbBlockEnd
  0
ENDSEC
  0
SECTION
  2
ENTITIES
  0
SPLINE
  5
41
330
1F
100
AcDbEntity
  8
_U+30EC_U+30A4_U+30E4_U+30FC 1
370
     0
100
AcDbSpline
210
0.0
220
0.0
230
1.0
 70
     8
 71
     3
 72
   110
 73
   106
 74
     0
 42
0.0000000001
 43
0.0000000001
 12
1.0
 22
0.0
 32
0.0
 13
1.0
 23
0.0
 33
0.0
 40
0.0
 40
0.0
 40
0.0
 40
0.0
 40
1.0
 40
1.0
 40
1.0
 40
2.0
 40
2.0
 40
2.0
 40
3.0
 40
3.0
 40
3.0
 40
4.0
 40
4.0
 40
4.0
 40
5.0
 40
5.0
 40
5.0
 40
6.0
 40
6.0
 40
6.0
 40
7.0
 40
7.0
 40
7.0
 40
8.0
 40
8.0
 40
8.0
 40
9.0
 40
9.0
 40
9.0
 40
10.0
 40
10.0
 40
10.0
 40
11.0
 40
11.0
 40
11.0
 40
12.0
 40
12.0
 40
12.0
 40
13.0
 40
13.0
 40
13.0
 40
14.0
 40
14.0
 40
14.0
 40
15.0
 40
15.0
 40
15.0
 40
16.0
 40
16.0
 40
16.0
 40
17.0
 40
17.0
 40
17.0
 40
18.0
 40
18.0
 40
18.0
 40
19.0
 40
19.0
 40
19.0
 40
20.0
 40
20.0
 40
20.0
 40
21.0
 40
21.0
 40
21.0
 40
22.0
 40
22.0
 40
22.0
 40
23.0
 40
23.0
 40
23.0
 40
24.0
 40
24.0
 40
24.0
 40
25.0
 40
25.0
 40
25.0
 40
26.0
 40
26.0
 40
26.0
 40
27.0
 40
27.0
 40
27.0
 40
28.0
 40
28.0
 40
28.0
 40
29.0
 40
29.0
 40
29.0
 40
30.0
 40
30.0
 40
30.0
 40
31.0
 40
31.0
 40
31.0
 40
32.0
 40
32.0
 40
32.0
 40
33.0
 40
33.0
 40
33.0
 40
34.0
 40
34.0
 40
34.0
 40
35.0
 40
35.0
 40
35.0
 40
35.0
 10
104.6819698293405
 20
-122.5472035804745
 30
0.0
 10
104.6819698293405
 20
-122.5472035804745
 30
0.0
 10
105.052668708772
 20
-121.8382260806515
 30
0.0
 10
105.052668708772
 20
-121.8382260806515
 30
0.0
 10
105.052668708772
 20
-121.8382260806515
 30
0.0
 10
106.1571833067939
 20
-121.839249136207
 30
0.0
 10
106.1571833067939
 20
-121.839249136207
 30
0.0
 10
107.4215388620337
 20
-121.8981630250809
 30
0.0
 10
107.368478371913
 20
-119.7558141367277
 30
0.0
 10
105.8522747994835
 20
-119.7380694145099
 30
0.0
 10
105.8522747994835
 20
-119.7380694145099
 30
0.0
 10
101.1045915872736
 20
-119.7380694145099
 30
0.0
 10
101.1045915872736
 20
-119.7380694145099
 30
0.0
 10
101.1045915872736
 20
-119.7380694145099
 30
0.0
 10
101.1190554757935
 20
-119.7380694145099
 30
0.0
 10
101.1190554757935
 20
-119.7380694145099
 30
0.0
 10
101.1190554757935
 20
-119.7380694145099
 30
0.0
 10
101.1094246427059
 20
-121.1381738586042
 30
0.0
 10
101.1094246427059
 20
-121.1381738586042
 30
0.0
 10
101.1094246427059
 20
-121.1381738586042
 30
0.0
 10
101.094960754186
 20
-121.1381738586042
 30
0.0
 10
101.094960754186
 20
-121.1381738586042
 30
0.0
 10
101.094960754186
 20
-121.1381738586042
 30
0.0
 10
95.83222199956077
 20
-121.1381738586042
 30
0.0
 10
95.83222199956077
 20
-121.1381738586042
 30
0.0
 10
95.83222199956077
 20
-121.1381738586042
 30
0.0
 10
95.84393422148419
 20
-121.1381738586042
 30
0.0
 10
95.84393422148419
 20
-121.1381738586042
 30
0.0
 10
95.84393422148419
 20
-121.1381738586042
 30
0.0
 10
95.85116616574413
 20
-119.7380694145099
 30
0.0
 10
95.85116616574413
 20
-119.7380694145099
 30
0.0
 10
95.85116616574413
 20
-119.7380694145099
 30
0.0
 10
95.83910116605195
 20
-119.7380694145099
 30
0.0
 10
95.83910116605195
 20
-119.7380694145099
 30
0.0
 10
95.83910116605195
 20
-119.7380694145099
 30
0.0
 10
89.01987161780276
 20
-119.7380694145099
 30
0.0
 10
89.01987161780276
 20
-119.7380694145099
 30
0.0
 10
89.01987161780276
 20
-119.7380694145099
 30
0.0
 10
89.01609689567684
 20
-121.1381738586042
 30
0.0
 10
89.01609689567684
 20
-121.1381738586042
 30
0.0
 10
89.01609689567684
 20
-121.1381738586042
 30
0.0
 10
84.11096896526152
 20
-121.1381738586042
 30
0.0
 10
84.11096896526152
 20
-121.1381738586042
 30
0.0
 10
84.11096896526152
 20
-121.1381738586042
 30
0.0
 10
84.11216840967536
 20
-119.7380694145099
 30
0.0
 10
84.11216840967536
 20
-119.7380694145099
 30
0.0
 10
84.11216840967536
 20
-119.7380694145099
 30
0.0
 10
78.39159466673047
 20
-119.7380694145099
 30
0.0
 10
78.39159466673047
 20
-119.7380694145099
 30
0.0
 10
78.00128331383293
 20
-119.7380694145099
 30
0.0
 10
77.38441413687023
 20
-119.9969730255564
 30
0.0
 10
77.483474134343
 20
-120.3192708032535
 30
0.0
 10
77.56373107673991
 20
-120.5803969142994
 30
0.0
 10
78.25260022583207
 20
-121.0382671919626
 30
0.0
 10
78.25260022583207
 20
-121.0382671919626
 30
0.0
 10
78.25260022583207
 20
-121.0382671919626
 30
0.0
 10
79.17123353572912
 20
-121.0382671919626
 30
0.0
 10
79.17123353572912
 20
-121.0382671919626
 30
0.0
 10
79.17123353572912
 20
-121.0382671919626
 30
0.0
 10
79.25184325589481
 20
-121.0382671919626
 30
0.0
 10
79.25184325589481
 20
-121.0382671919626
 30
0.0
 10
79.39651942459521
 20
-121.0382671919626
 30
0.0
 10
79.53434769313196
 20
-121.1009558030581
 30
0.0
 10
79.62906852404878
 20
-121.2098230252532
 30
0.0
 10
79.81064324163863
 20
-121.4185969140899
 30
0.0
 10
79.8889972022501
 20
-121.7348621917886
 30
0.0
 10
79.6805740782903
 20
-121.9164016361875
 30
0.0
 10
79.6805740782903
 20
-121.9164016361875
 30
0.0
 10
77.59491663149987
 20
-124.8869669132227
 30
0.0
 10
77.59491663149987
 20
-124.8869669132227
 30
0.0
 10
77.59491663149987
 20
-124.8869669132227
 30
0.0
 10
76.96654886975308
 20
-125.8383027463183
 30
0.0
 10
76.96654886975308
 20
-125.8383027463183
 30
0.0
 10
76.9666899808606
 20
-125.8383027463183
 30
0.0
 10
95.09015396293695
 20
-125.8383027463183
 30
0.0
 10
95.09015396293695
 20
-125.8383027463183
 30
0.0
 10
95.09015396293695
 20
-125.8383027463183
 30
0.0
 10
95.15217229468807
 20
-125.8383027463183
 30
0.0
 10
95.15217229468807
 20
-125.8383027463183
 30
0.0
 10
95.15217229468807
 20
-125.8383027463183
 30
0.0
 10
95.15217229468807
 20
-124.8382130243459
 30
0.0
 10
95.15217229468807
 20
-124.8382130243459
 30
0.0
 10
95.15217229468807
 20
-124.8382130243459
 30
0.0
 10
101.8521629570904
 20
-124.8382130243459
 30
0.0
 10
101.8521629570904
 20
-124.8382130243459
 30
0.0
 10
101.8521629570904
 20
-124.8382130243459
 30
0.0
 10
101.8521629570904
 20
-125.8383027463183
 30
0.0
 10
101.8521629570904
 20
-125.8383027463183
 30
0.0
 10
101.8521629570904
 20
-125.8383027463183
 30
0.0
 10
101.8366760130411
 20
-125.8383027463183
 30
0.0
 10
101.8366760130411
 20
-125.8383027463183
 30
0.0
 10
101.8366760130411
 20
-125.8383027463183
 30
0.0
 10
107.1948411541207
 20
-125.8383027463183
 30
0.0
 10
107.1951939318894
 20
-125.8383027463183
 30
0.0
 10
107.6134119767754
 20
-125.8383027463183
 30
0.0
 10
107.9517258570331
 20
-125.4993185797364
 30
0.0
 10
107.9517258570331
 20
-125.0814180242851
 30
0.0
 10
107.9517258570331
 20
-124.7996191354668
 30
0.0
 10
107.7953041943571
 20
-124.5408919133093
 30
0.0
 10
107.5458903118313
 20
-124.4103288577863
 30
0.0
 10
107.5458903118313
 20
-124.4103288577863
 30
0.0
 10
104.6819698293405
 20
-122.5472035804745
 30
0.0
 10
104.6819698293405
 20
-122.5472035804745
 30
0.0
 10
104.6819698293405
 20
-122.5472035804745
 30
0.0
 10
105.052668708772
 20
-121.8382260806515
 30
0.0
 10
105.052668708772
 20
-121.8382260806515
 30
0.0
  0
HATCH
  5
42
330
1F
100
AcDbEntity
  8
_U+30EC_U+30A4_U+30E4_U+30FC 1
 62
    43
420
 13941130
100
AcDbHatch
 10
0.0
 20
0.0
 30
0.0
210
0.0
220
0.0
230
1.0
  2
SOLID
 70
     1
 71
     0
 91
        1
 92
        1
 93
        2
 72
     4
 94
        3
 73
     0
 74
     0
 95
      110
 96
      106
 40
0.0
 40
0.0
 40
0.0
 40
0.0
 40
0.3527777776895833
 40
0.3527777776895833
 40
0.3527777776895833
 40
0.7055555553791667
 40
0.7055555553791667
 40
0.7055555553791667
 40
1.05833333306875
 40
1.05833333306875
 40
1.05833333306875
 40
1.411111110758333
 40
1.411111110758333
 40
1.411111110758333
 40
1.763888888447917
 40
1.763888888447917
 40
1.763888888447917
 40
2.1166666661375
 40
2.1166666661375
 40
2.1166666661375
 40
2.469444443827083
 40
2.469444443827083
 40
2.469444443827083
 40
2.822222221516667
 40
2.822222221516667
 40
2.822222221516667
 40
3.17499999920625
 40
3.17499999920625
 40
3.17499999920625
 40
3.527777776895833
 40
3.527777776895833
 40
3.527777776895833
 40
3.880555554585417
 40
3.880555554585417
 40
3.880555554585417
 40
4.233333332275
 40
4.233333332275
 40
4.233333332275
 40
4.586111109964584
 40
4.586111109964584
 40
4.586111109964584
 40
4.938888887654167
 40
4.938888887654167
 40
4.938888887654167
 40
5.29166666534375
 40
5.29166666534375
 40
5.29166666534375
 40
5.644444443033334
 40
5.644444443033334
 40
5.644444443033334
 40
5.997222220722917
 40
5.997222220722917
 40
5.997222220722917
 40
6.349999998412501
 40
6.349999998412501
 40
6.349999998412501
 40
6.702777776102083
 40
6.702777776102083
 40
6.702777776102083
 40
7.055555553791667
 40
7.055555553791667
 40
7.055555553791667
 40
7.40833333148125
 40
7.40833333148125
 40
7.40833333148125
 40
7.761111109170834
 40
7.761111109170834
 40
7.761111109170834
 40
8.113888886860417
 40
8.113888886860417
 40
8.113888886860417
 40
8.46666666455
 40
8.46666666455
 40
8.46666666455
 40
8.819444442239584
 40
8.819444442239584
 40
8.819444442239584
 40
9.172222219929168
 40
9.172222219929168
 40
9.172222219929168
 40
9.52499999761875
 40
9.52499999761875
 40
9.52499999761875
 40
9.877777775308333
 40
9.877777775308333
 40
9.877777775308333
 40
10.23055555299792
 40
10.23055555299792
 40
10.23055555299792
 40
10.5833333306875
 40
10.5833333306875
 40
10.5833333306875
 40
10.93611110837708
 40
10.93611110837708
 40
10.93611110837708
 40
11.28888888606667
 40
11.28888888606667
 40
11.28888888606667
 40
11.64166666375625
 40
11.64166666375625
 40
11.64166666375625
 40
11.99444444144583
 40
11.99444444144583
 40
11.99444444144583
 40
12.34722221913542
 40
12.34722221913542
 40
12.34722221913542
 40
12.34722221913542
 10
104.6819698293405
 20
-122.5472035804745
 10
104.6819698293405
 20
-122.5472035804745
 10
105.052668708772
 20
-121.8382260806515
 10
105.052668708772
 20
-121.8382260806515
 10
105.052668708772
 20
-121.8382260806515
 10
106.1571833067939
 20
-121.839249136207
 10
106.1571833067939
 20
-121.839249136207
 10
107.4215388620337
 20
-121.8981630250809
 10
107.368478371913
 20
-119.7558141367277
 10
105.8522747994835
 20
-119.7380694145099
 10
105.8522747994835
 20
-119.7380694145099
 10
101.1045915872736
 20
-119.7380694145099
 10
101.1045915872736
 20
-119.7380694145099
 10
101.1045915872736
 20
-119.7380694145099
 10
101.1190554757935
 20
-119.7380694145099
 10
101.1190554757935
 20
-119.7380694145099
 10
101.1190554757935
 20
-119.7380694145099
 10
101.1094246427059
 20
-121.1381738586042
 10
101.1094246427059
 20
-121.1381738586042
 10
101.1094246427059
 20
-121.1381738586042
 10
101.094960754186
 20
-121.1381738586042
 10
101.094960754186
 20
-121.1381738586042
 10
101.094960754186
 20
-121.1381738586042
 10
95.83222199956077
 20
-121.1381738586042
 10
95.83222199956077
 20
-121.1381738586042
 10
95.83222199956077
 20
-121.1381738586042
 10
95.84393422148419
 20
-121.1381738586042
 10
95.84393422148419
 20
-121.1381738586042
 10
95.84393422148419
 20
-121.1381738586042
 10
95.85116616574413
 20
-119.7380694145099
 10
95.85116616574413
 20
-119.7380694145099
 10
95.85116616574413
 20
-119.7380694145099
 10
95.83910116605195
 20
-119.7380694145099
 10
95.83910116605195
 20
-119.7380694145099
 10
95.83910116605195
 20
-119.7380694145099
 10
89.01987161780276
 20
-119.7380694145099
 10
89.01987161780276
 20
-119.7380694145099
 10
89.01987161780276
 20
-119.7380694145099
 10
89.01609689567684
 20
-121.1381738586042
 10
89.01609689567684
 20
-121.1381738586042
 10
89.01609689567684
 20
-121.1381738586042
 10
84.11096896526152
 20
-121.1381738586042
 10
84.11096896526152
 20
-121.1381738586042
 10
84.11096896526152
 20
-121.1381738586042
 10
84.11216840967536
 20
-119.7380694145099
 10
84.11216840967536
 20
-119.7380694145099
 10
84.11216840967536
 20
-119.7380694145099
 10
78.39159466673047
 20
-119.7380694145099
 10
78.39159466673047
 20
-119.7380694145099
 10
78.00128331383293
 20
-119.7380694145099
 10
77.38441413687023
 20
-119.9969730255564
 10
77.483474134343
 20
-120.3192708032535
 10
77.56373107673991
 20
-120.5803969142994
 10
78.25260022583207
 20
-121.0382671919626
 10
78.25260022583207
 20
-121.0382671919626
 10
78.25260022583207
 20
-121.0382671919626
 10
79.17123353572912
 20
-121.0382671919626
 10
79.17123353572912
 20
-121.0382671919626
 10
79.17123353572912
 20
-121.0382671919626
 10
79.25184325589481
 20
-121.0382671919626
 10
79.25184325589481
 20
-121.0382671919626
 10
79.39651942459521
 20
-121.0382671919626
 10
79.53434769313196
 20
-121.1009558030581
 10
79.62906852404878
 20
-121.2098230252532
 10
79.81064324163863
 20
-121.4185969140899
 10
79.8889972022501
 20
-121.7348621917886
 10
79.6805740782903
 20
-121.9164016361875
 10
79.6805740782903
 20
-121.9164016361875
 10
77.59491663149987
 20
-124.8869669132227
 10
77.59491663149987
 20
-124.8869669132227
 10
77.59491663149987
 20
-124.8869669132227
 10
76.96654886975308
 20
-125.8383027463183
 10
76.96654886975308
 20
-125.8383027463183
 10
76.9666899808606
 20
-125.8383027463183
 10
95.09015396293695
 20
-125.8383027463183
 10
95.09015396293695
 20
-125.8383027463183
 10
95.09015396293695
 20
-125.8383027463183
 10
95.15217229468807
 20
-125.8383027463183
 10
95.15217229468807
 20
-125.8383027463183
 10
95.15217229468807
 20
-125.8383027463183
 10
95.15217229468807
 20
-124.8382130243459
 10
95.15217229468807
 20
-124.8382130243459
 10
95.15217229468807
 20
-124.8382130243459
 10
101.8521629570904
 20
-124.8382130243459
 10
101.8521629570904
 20
-124.8382130243459
 10
101.8521629570904
 20
-124.8382130243459
 10
101.8521629570904
 20
-125.8383027463183
 10
101.8521629570904
 20
-125.8383027463183
 10
101.8521629570904
 20
-125.8383027463183
 10
101.8366760130411
 20
-125.8383027463183
 10
101.8366760130411
 20
-125.8383027463183
 10
101.8366760130411
 20
-125.8383027463183
 10
107.1948411541207
 20
-125.8383027463183
 10
107.1951939318894
 20
-125.8383027463183
 10
107.6134119767754
 20
-125.8383027463183
 10
107.9517258570331
 20
-125.4993185797364
 10
107.9517258570331
 20
-125.0814180242851
 10
107.9517258570331
 20
-124.7996191354668
 10
107.7953041943571
 20
-124.5408919133093
 10
107.5458903118313
 20
-124.4103288577863
 10
107.5458903118313
 20
-124.4103288577863
 10
104.6819698293405
 20
-122.5472035804745
 10
104.6819698293405
 20
-122.5472035804745
 10
104.6819698293405
 20
-122.5472035804745
 10
105.052668708772
 20
-121.8382260806515
 10
105.052668708772
 20
-121.8382260806515
 97
        0
 72
     1
 10
105.052668708772
 20
-121.8382260806515
 11
104.6819698293405
 21
-122.5472035804745
 97
        0
 75
     2
 76
     1
 98
        0
  0
SPLINE
  5
43
330
1F
100
AcDbEntity
  8
_U+30EC_U+30A4_U+30E4_U+30FC 1
 62
   179
420
  2234388
370
    25
100
AcDbSpline
210
0.0
220
0.0
230
1.0
 70
    11
 71
     3
 72
    20
 73
    16
 74
     0
 42
0.0000000001
 43
0.0000000001
 12
1.0
 22
0.0
 32
0.0
 13
1.0
 23
0.0
 33
0.0
 40
0.0
 40
0.0
 40
0.0
 40
0.0
 40
1.0
 40
1.0
 40
1.0
 40
2.0
 40
2.0
 40
2.0
 40
3.0
 40
3.0
 40
3.0
 40
4.0
 40
4.0
 40
4.0
 40
5.0
 40
5.0
 40
5.0
 40
5.0
 10
89.38298577520561
 20
-126.0047080240545
 30
0.0
 10
89.38298577520561
 20
-125.3601477464377
 30
0.0
 10
87.89884970195797
 20
-124.8382130243459
 30
0.0
 10
86.06796835977875
 20
-124.8382130243459
 30
0.0
 10
84.23673423983075
 20
-124.8382130243459
 30
0.0
 10
82.75256288880624
 20
-125.3601477464377
 30
0.0
 10
82.75256288880624
 20
-126.0047080240545
 30
0.0
 10
82.75256288880624
 20
-126.0047080240545
 30
0.0
 10
82.78321927691302
 20
-126.6432710794503
 30
0.0
 10
82.78321927691302
 20
-126.6432710794503
 30
0.0
 10
82.78321927691302
 20
-126.6432710794503
 30
0.0
 10
89.45516410669752
 20
-126.6212224683447
 30
0.0
 10
89.45516410669752
 20
-126.6212224683447
 30
0.0
 10
89.45516410669752
 20
-126.6212224683447
 30
0.0
 10
89.38298577520561
 20
-126.0047080240545
 30
0.0
 10
89.38298577520561
 20
-126.0047080240545
 30
0.0
  0
HATCH
  5
44
330
1F
100
AcDbEntity
  8
_U+30EC_U+30A4_U+30E4_U+30FC 1
 62
     7
420
 16711422
100
AcDbHatch
 10
0.0
 20
0.0
 30
0.0
210
0.0
220
0.0
230
1.0
  2
SOLID
 70
     1
 71
     0
 91
        1
 92
        1
 93
        1
 72
     4
 94
        3
 73
     0
 74
     1
 95
       20
 96
       16
 40
0.0
 40
0.0
 40
0.0
 40
0.0
 40
1.0
 40
1.0
 40
1.0
 40
2.0
 40
2.0
 40
2.0
 40
3.0
 40
3.0
 40
3.0
 40
4.0
 40
4.0
 40
4.0
 40
5.0
 40
5.0
 40
5.0
 40
5.0
 10
89.38298577520561
 20
-126.0047080240545
 10
89.38298577520561
 20
-125.3601477464377
 10
87.89884970195797
 20
-124.8382130243459
 10
86.06796835977875
 20
-124.8382130243459
 10
84.23673423983075
 20
-124.8382130243459
 10
82.75256288880624
 20
-125.3601477464377
 10
82.75256288880624
 20
-126.0047080240545
 10
82.75256288880624
 20
-126.0047080240545
 10
82.78321927691302
 20
-126.6432710794503
 10
82.78321927691302
 20
-126.6432710794503
 10
82.78321927691302
 20
-126.6432710794503
 10
89.45516410669752
 20
-126.6212224683447
 10
89.45516410669752
 20
-126.6212224683447
 10
89.45516410669752
 20
-126.6212224683447
 10
89.38298577520561
 20
-126.0047080240545
 10
89.38298577520561
 20
-126.0047080240545
 97
        0
 97
        0
 75
     2
 76
     1
 98
        0
  0
SPLINE
  5
45
330
1F
100
AcDbEntity
  8
_U+30EC_U+30A4_U+30E4_U+30FC 1
370
     0
100
AcDbSpline
210
0.0
220
0.0
230
1.0
 70
    11
 71
     3
 72
    89
 73
    85
 74
     0
 42
0.0000000001
 43
0.0000000001
 12
1.0
 22
0.0
 32
0.0
 13
1.0
 23
0.0
 33
0.0
 40
0.0
 40
0.0
 40
0.0
 40
0.0
 40
1.0
 40
1.0
 40
1.0
 40
2.0
 40
2.0
 40
2.0
 40
3.0
 40
3.0
 40
3.0
 40
4.0
 40
4.0
 40
4.0
 40
5.0
 40
5.0
 40
5.0
 40
6.0
 40
6.0
 40
6.0
 40
7.0
 40
7.0
 40
7.0
 40
8.0
 40
8.0
 40
8.0
 40
9.0
 40
9.0
 40
9.0
 40
10.0
 40
10.0
 40
10.0
 40
11.0
 40
11.0
 40
11.0
 40
12.0
 40
12.0
 40
12.0
 40
13.0
 40
13.0
 40
13.0
 40
14.0
 40
14.0
 40
14.0
 40
15.0
 40
15.0
 40
15.0
 40
16.0
 40
16.0
 40
16.0
 40
17.0
 40
17.0
 40
17.0
 40
18.0
 40
18.0
 40
18.0
 40
19.0
 40
19.0
 40
19.0
 40
20.0
 40
20.0
 40
20.0
 40
21.0
 40
21.0
 40
21.0
 40
22.0
 40
22.0
 40
22.0
 40
23.0
 40
23.0
 40
23.0
 40
24.0
 40
24.0
 40
24.0
 40
25.0
 40
25.0
 40
25.0
 40
26.0
 40
26.0
 40
26.0
 40
27.0
 40
27.0
 40
27.0
 40
28.0
 40
28.0
 40
28.0
 40
28.0
 10
75.5943491825386
 20
-122.3715202471849
 30
0.0
 10
75.5943491825386
 20
-122.3715202471849
 30
0.0
 10
75.63449720331357
 20
-122.2126996916689
 30
0.0
 10
75.63449720331357
 20
-122.2126996916689
 30
0.0
 10
75.70184056868514
 20
-122.0461180250442
 30
0.0
 10
75.84189334288988
 20
-121.9179538584092
 30
0.0
 10
76.01327278296208
 20
-121.8648960806449
 30
0.0
 10
76.01327278296208
 20
-121.8648960806449
 30
0.0
 10
76.19068472288036
 20
-121.8382260806515
 30
0.0
 10
76.19068472288036
 20
-121.8382260806515
 30
0.0
 10
76.19068472288036
 20
-121.8382260806515
 30
0.0
 10
78.55232220258402
 20
-121.8382260806515
 30
0.0
 10
78.55232220258402
 20
-121.8382260806515
 30
0.0
 10
78.55232220258402
 20
-121.8382260806515
 30
0.0
 10
75.95351222893113
 20
-123.6661794135278
 30
0.0
 10
75.95351222893113
 20
-123.6661794135278
 30
0.0
 10
75.2479566913758
 20
-124.2807888578188
 30
0.0
 10
75.17422613770127
 20
-125.3511871908846
 30
0.0
 10
75.78883556646572
 20
-126.0567427462638
 30
0.0
 10
76.11060416936783
 20
-126.4263833017267
 30
0.0
 10
76.57672943525377
 20
-126.638261635007
 30
0.0
 10
77.06659664497843
 20
-126.638261635007
 30
0.0
 10
77.06659664497843
 20
-126.638261635007
 30
0.0
 10
107.8955636362437
 20
-126.638261635007
 30
0.0
 10
107.8955636362437
 20
-126.638261635007
 30
0.0
 10
108.7554594476393
 20
-126.638261635007
 30
0.0
 10
109.4520544298677
 20
-125.9413138574035
 30
0.0
 10
109.4520544298677
 20
-125.0814180242851
 30
0.0
 10
109.4520544298677
 20
-124.5016277466523
 30
0.0
 10
109.1302858269656
 20
-123.970026913452
 30
0.0
 10
108.6169588956172
 20
-123.7013160801859
 30
0.0
 10
108.6169588956172
 20
-123.7013160801859
 30
0.0
 10
105.052668708772
 20
-121.8382260806515
 30
0.0
 10
105.052668708772
 20
-121.8382260806515
 30
0.0
 10
105.052668708772
 20
-121.8382260806515
 30
0.0
 10
104.6819698293405
 20
-122.5472035804745
 30
0.0
 10
104.6819698293405
 20
-122.5472035804745
 30
0.0
 10
104.6819698293405
 20
-122.5472035804745
 30
0.0
 10
108.2462600161856
 20
-124.4103288577863
 30
0.0
 10
108.2462600161856
 20
-124.4103288577863
 30
0.0
 10
108.4957091764883
 20
-124.5408919133093
 30
0.0
 10
108.6520955613874
 20
-124.7996191354668
 30
0.0
 10
108.6520955613874
 20
-125.0814180242851
 30
0.0
 10
108.6520955613874
 20
-125.4993185797364
 30
0.0
 10
108.3138169589065
 20
-125.8383027463183
 30
0.0
 10
107.8955636362437
 20
-125.8383027463183
 30
0.0
 10
107.8955636362437
 20
-125.8383027463183
 30
0.0
 10
77.06659664497843
 20
-125.8383027463183
 30
0.0
 10
77.06659664497843
 20
-125.8383027463183
 30
0.0
 10
76.80786942935688
 20
-125.8383027463183
 30
0.0
 10
76.5619127689651
 20
-125.7263310796797
 30
0.0
 10
76.39240305106743
 20
-125.5313508019506
 30
0.0
 10
76.06788278156885
 20
-125.1589585798212
 30
0.0
 10
76.10647666947314
 20
-124.5939496910736
 30
0.0
 10
76.47922165996361
 20
-124.269429413377
 30
0.0
 10
76.47922165996361
 20
-124.269429413377
 30
0.0
 10
79.6805740782903
 20
-121.9164016361875
 30
0.0
 10
79.6805740782903
 20
-121.9164016361875
 30
0.0
 10
79.8889972022501
 20
-121.7348621917886
 30
0.0
 10
79.81064324163863
 20
-121.4185969140899
 30
0.0
 10
79.62906852404878
 20
-121.2098230252532
 30
0.0
 10
79.53434769313196
 20
-121.1009558030581
 30
0.0
 10
79.39651942459521
 20
-121.0382671919626
 30
0.0
 10
79.25184325589481
 20
-121.0382671919626
 30
0.0
 10
79.25184325589481
 20
-121.0382671919626
 30
0.0
 10
76.19068472288036
 20
-121.0382671919626
 30
0.0
 10
76.19068472288036
 20
-121.0382671919626
 30
0.0
 10
75.66963195839574
 20
-121.0382671919626
 30
0.0
 10
75.32994224483973
 20
-121.3338596918888
 30
0.0
 10
75.32994224483973
 20
-121.3338596918888
 30
0.0
 10
75.1073747505179
 20
-121.5073205251787
 30
0.0
 10
74.9380766992815
 20
-121.7471035806745
 30
0.0
 10
74.85245753479916
 20
-122.0256216361604
 30
0.0
 10
74.85245753479916
 20
-122.0256216361604
 30
0.0
 10
74.7992233694906
 20
-122.2826202472073
 30
0.0
 10
74.7992233694906
 20
-122.2826202472073
 30
0.0
 10
74.17463032986974
 20
-127.8692091346993
 30
0.0
 10
74.394763657587
 20
-133.5174282999538
 30
0.0
 10
75.45242668615934
 20
-139.0381888541293
 30
0.0
 10
75.45242668615934
 20
-139.0381888541293
 30
0.0
 10
76.26751972092013
 20
-139.0381888541293
 30
0.0
 10
76.26751972092013
 20
-139.0381888541293
 30
0.0
 10
75.19987498120003
 20
-133.5487902443907
 30
0.0
 10
74.97286058728298
 20
-127.9291460791287
 30
0.0
 10
75.5943491825386
 20
-122.3715202471849
 30
0.0
  0
POLYLINE
  5
46
330
1F
100
AcDbEntity
  8
_U+30EC_U+30A4_U+30E4_U+30FC 1
 62
   179
420
  2234388
370
    25
100
AcDb2dPolyline
 66
     1
 10
0.0
 20
0.0
 30
0.0
  0
VERTEX
  5
47
330
46
100
AcDbEntity
  8
_U+30EC_U+30A4_U+30E4_U+30FC 1
 62
   179
420
  2234388
370
    25
100
AcDbVertex
100
AcDb2dVertex
 10
77.06659664497843
 20
-126.638261635007
 30
0.0
  0
VERTEX
  5
48
330
46
100
AcDbEntity
  8
_U+30EC_U+30A4_U+30E4_U+30FC 1
 62
   179
420
  2234388
370
    25
100
AcDbVertex
100
AcDb2dVertex
 10
107.8955636362437
 20
-126.638261635007
 30
0.0
  0
SEQEND
  5
49
330
46
100
AcDbEntity
  8
_U+30EC_U+30A4_U+30E4_U+30FC 1
 62
   179
420
  2234388
370
    25
  0
POLYLINE
  5
4A
330
1F
100
AcDbEntity
  8
_U+30EC_U+30A4_U+30E4_U+30FC 1
 62
   179
420
  2234388
370
    25
100
AcDb2dPolyline
 66
     1
 10
0.0
 20
0.0
 30
0.0
  0
VERTEX
  5
4B
330
4A
100
AcDbEntity
  8
_U+30EC_U+30A4_U+30E4_U+30FC 1
 62
   179
420
  2234388
370
    25
100
AcDbVertex
100
AcDb2dVertex
 10
79.6805740782903
 20
-121.9164016361875
 30
0.0
  0
VERTEX
  5
4C
330
4A
100
AcDbEntity
  8
_U+30EC_U+30A4_U+30E4_U+30FC 1
 62
   179
420
  2234388
370
    25
100
AcDbVertex
100
AcDb2dVertex
 10
76.47922165996361
 20
-124.269429413377
 30
0.0
  0
SEQEND
  5
4D
330
4A
100
AcDbEntity
  8
_U+30EC_U+30A4_U+30E4_U+30FC 1
 62
   179
420
  2234388
370
    25
  0
POLYLINE
  5
4E
330
1F
100
AcDbEntity
  8
_U+30EC_U+30A4_U+30E4_U+30FC 1
 62
   179
420
  2234388
370
    25
100
AcDb2dPolyline
 66
     1
 10
0.0
 20
0.0
 30
0.0
  0
VERTEX
  5
4F
330
4E
100
AcDbEntity
  8
_U+30EC_U+30A4_U+30E4_U+30FC 1
 62
   179
420
  2234388
370
    25
100
AcDbVertex
100
AcDb2dVertex
 10
77.06659664497843
 20
-125.8383027463183
 30
0.0
  0
VERTEX
  5
50
330
4E
100
AcDbEntity
  8
_U+30EC_U+30A4_U+30E4_U+30FC 1
 62
   179
420
  2234388
370
    25
100
AcDbVertex
100
AcDb2dVertex
 10
107.8955636362437
 20
-125.8383027463183
 30
0.0
  0
SEQEND
  5
51
330
4E
100
AcDbEntity
  8
_U+30EC_U+30A4_U+30E4_U+30FC 1
 62
   179
420
  2234388
370
    25
  0
POLYLINE
  5
52
330
1F
100
AcDbEntity
  8
_U+30EC_U+30A4_U+30E4_U+30FC 1
 62
   179
420
  2234388
370
    25
100
AcDb2dPolyline
 66
     1
 10
0.0
 20
0.0
 30
0.0
  0
VERTEX
  5
53
330
52
100
AcDbEntity
  8
_U+30EC_U+30A4_U+30E4_U+30FC 1
 62
   179
420
  2234388
370
    25
100
AcDbVertex
100
AcDb2dVertex
 10
108.6169588956172
 20
-123.7013160801859
 30
0.0
  0
VERTEX
  5
54
330
52
100
AcDbEntity
  8
_U+30EC_U+30A4_U+30E4_U+30FC 1
 62
   179
420
  2234388
370
    25
100
AcDbVertex
100
AcDb2dVertex
 10
105.052668708772
 20
-121.8382260806515
 30
0.0
  0
SEQEND
  5
55
330
52
100
AcDbEntity
  8
_U+30EC_U+30A4_U+30E4_U+30FC 1
 62
   179
420
  2234388
370
    25
  0
POLYLINE
  5
56
330
1F
100
AcDbEntity
  8
_U+30EC_U+30A4_U+30E4_U+30FC 1
 62
   179
420
  2234388
370
    25
100
AcDb2dPolyline
 66
     1
 10
0.0
 20
0.0
 30
0.0
  0
VERTEX
  5
57
330
56
100
AcDbEntity
  8
_U+30EC_U+30A4_U+30E4_U+30FC 1
 62
   179
420
  2234388
370
    25
100
AcDbVertex
100
AcDb2dVertex
 10
108.2462600161856
 20
-124.4103288577863
 30
0.0
  0
VERTEX
  5
58
330
56
100
AcDbEntity
  8
_U+30EC_U+30A4_U+30E4_U+30FC 1
 62
   179
420
  2234388
370
    25
100
AcDbVertex
100
AcDb2dVertex
 10
104.6819698293405
 20
-122.5472035804745
 30
0.0
  0
SEQEND
  5
59
330
56
100
AcDbEntity
  8
_U+30EC_U+30A4_U+30E4_U+30FC 1
 62
   179
420
  2234388
370
    25
  0
POLYLINE
  5
5A
330
1F
100
AcDbEntity
  8
_U+30EC_U+30A4_U+30E4_U+30FC 1
 62
   179
420
  2234388
370
    25
100
AcDb2dPolyline
 66
     1
 10
0.0
 20
0.0
 30
0.0
  0
VERTEX
  5
5B
330
5A
100
AcDbEntity
  8
_U+30EC_U+30A4_U+30E4_U+30FC 1
 62
   179
420
  2234388
370
    25
100
AcDbVertex
100
AcDb2dVertex
 10
82.75256288880624
 20
-125.8383027463183
 30
0.0
  0
VERTEX
  5
EB
330
5A
100
AcDbEntity
  8
0
100
AcDbVertex
100
AcDb2dVertex
 10
82.75256288880624
 20
-125.8383027463183
 30
0.0
  0
SEQEND
  5
5C
330
5A
100
AcDbEntity
  8
_U+30EC_U+30A4_U+30E4_U+30FC 1
 62
   179
420
  2234388
370
    25
  0
POLYLINE
  5
5D
330
1F
100
AcDbEntity
  8
_U+30EC_U+30A4_U+30E4_U+30FC 1
 62
   179
420
  2234388
370
    25
100
AcDb2dPolyline
 66
     1
 10
0.0
 20
0.0
 30
0.0
  0
VERTEX
  5
5E
330
5D
100
AcDbEntity
  8
_U+30EC_U+30A4_U+30E4_U+30FC 1
 62
   179
420
  2234388
370
    25
100
AcDbVertex
100
AcDb2dVertex
 10
89.45258882898544
 20
-125.8383027463183
 30
0.0
  0
VERTEX
  5
EC
330
5D
100
AcDbEntity
  8
0
100
AcDbVertex
100
AcDb2dVertex
 10
89.45258882898544
 20
-125.8383027463183
 30
0.0
  0
SEQEND
  5
5F
330
5D
100
AcDbEntity
  8
_U+30EC_U+30A4_U+30E4_U+30FC 1
 62
   179
420
  2234388
370
    25
  0
POLYLINE
  5
60
330
1F
100
AcDbEntity
  8
_U+30EC_U+30A4_U+30E4_U+30FC 1
 62
   179
420
  2234388
370
    25
100
AcDb2dPolyline
 66
     1
 10
0.0
 20
0.0
 30
0.0
  0
VERTEX
  5
61
330
60
100
AcDbEntity
  8
_U+30EC_U+30A4_U+30E4_U+30FC 1
 62
   179
420
  2234388
370
    25
100
AcDbVertex
100
AcDb2dVertex
 10
95.15217229468807
 20
-124.8382130243459
 30
0.0
  0
VERTEX
  5
62
330
60
100
AcDbEntity
  8
_U+30EC_U+30A4_U+30E4_U+30FC 1
 62
   179
420
  2234388
370
    25
100
AcDbVertex
100
AcDb2dVertex
 10
95.15217229468807
 20
-125.8383027463183
 30
0.0
  0
SEQEND
  5
63
330
60
100
AcDbEntity
  8
_U+30EC_U+30A4_U+30E4_U+30FC 1
 62
   179
420
  2234388
370
    25
  0
POLYLINE
  5
64
330
1F
100
AcDbEntity
  8
_U+30EC_U+30A4_U+30E4_U+30FC 1
 62
   179
420
  2234388
370
    25
100
AcDb2dPolyline
 66
     1
 10
0.0
 20
0.0
 30
0.0
  0
VERTEX
  5
65
330
64
100
AcDbEntity
  8
_U+30EC_U+30A4_U+30E4_U+30FC 1
 62
   179
420
  2234388
370
    25
100
AcDbVertex
100
AcDb2dVertex
 10
101.8521629570904
 20
-124.8382130243459
 30
0.0
  0
VERTEX
  5
66
330
64
100
AcDbEntity
  8
_U+30EC_U+30A4_U+30E4_U+30FC 1
 62
   179
420
  2234388
370
    25
100
AcDbVertex
100
AcDb2dVertex
 10
101.8521629570904
 20
-125.8383027463183
 30
0.0
  0
SEQEND
  5
67
330
64
100
AcDbEntity
  8
_U+30EC_U+30A4_U+30E4_U+30FC 1
 62
   179
420
  2234388
370
    25
  0
POLYLINE
  5
68
330
1F
100
AcDbEntity
  8
_U+30EC_U+30A4_U+30E4_U+30FC 1
 62
   179
420
  2234388
370
    25
100
AcDb2dPolyline
 66
     1
 10
0.0
 20
0.0
 30
0.0
  0
VERTEX
  5
69
330
68
100
AcDbEntity
  8
_U+30EC_U+30A4_U+30E4_U+30FC 1
 62
   179
420
  2234388
370
    25
100
AcDbVertex
100
AcDb2dVertex
 10
95.15217229468807
 20
-124.8382130243459
 30
0.0
  0
VERTEX
  5
6A
330
68
100
AcDbEntity
  8
_U+30EC_U+30A4_U+30E4_U+30FC 1
 62
   179
420
  2234388
370
    25
100
AcDbVertex
100
AcDb2dVertex
 10
101.8521629570904
 20
-124.8382130243459
 30
0.0
  0
SEQEND
  5
6B
330
68
100
AcDbEntity
  8
_U+30EC_U+30A4_U+30E4_U+30FC 1
 62
   179
420
  2234388
370
    25
  0
SPLINE
  5
6C
330
1F
100
AcDbEntity
  8
_U+30EC_U+30A4_U+30E4_U+30FC 1
 62
   179
420
  2234388
370
    25
100
AcDbSpline
210
0.0
220
0.0
230
1.0
 70
     8
 71
     3
 72
    11
 73
     7
 74
     0
 42
0.0000000001
 43
0.0000000001
 12
1.0
 22
0.0
 32
0.0
 13
1.0
 23
0.0
 33
0.0
 40
0.0
 40
0.0
 40
0.0
 40
0.0
 40
1.0
 40
1.0
 40
1.0
 40
2.0
 40
2.0
 40
2.0
 40
2.0
 10
76.47922165996361
 20
-124.269429413377
 30
0.0
 10
76.10647666947314
 20
-124.5939496910736
 30
0.0
 10
76.06788278156885
 20
-125.1589585798212
 30
0.0
 10
76.39240305106743
 20
-125.5313508019506
 30
0.0
 10
76.5619127689651
 20
-125.7263310796797
 30
0.0
 10
76.80786942935688
 20
-125.8383027463183
 30
0.0
 10
77.06659664497843
 20
-125.8383027463183
 30
0.0
  0
SPLINE
  5
6D
330
1F
100
AcDbEntity
  8
_U+30EC_U+30A4_U+30E4_U+30FC 1
 62
   179
420
  2234388
370
    25
100
AcDbSpline
210
0.0
220
0.0
230
1.0
 70
     8
 71
     3
 72
    11
 73
     7
 74
     0
 42
0.0000000001
 43
0.0000000001
 12
1.0
 22
0.0
 32
0.0
 13
1.0
 23
0.0
 33
0.0
 40
0.0
 40
0.0
 40
0.0
 40
0.0
 40
1.0
 40
1.0
 40
1.0
 40
2.0
 40
2.0
 40
2.0
 40
2.0
 10
107.8955636362437
 20
-126.638261635007
 30
0.0
 10
108.7554594476393
 20
-126.638261635007
 30
0.0
 10
109.4520544298677
 20
-125.9413138574035
 30
0.0
 10
109.4520544298677
 20
-125.0814180242851
 30
0.0
 10
109.4520544298677
 20
-124.5016277466523
 30
0.0
 10
109.1302858269656
 20
-123.970026913452
 30
0.0
 10
108.6169588956172
 20
-123.7013160801859
 30
0.0
  0
SPLINE
  5
6E
330
1F
100
AcDbEntity
  8
_U+30EC_U+30A4_U+30E4_U+30FC 1
 62
   179
420
  2234388
370
    25
100
AcDbSpline
210
0.0
220
0.0
230
1.0
 70
     8
 71
     3
 72
    11
 73
     7
 74
     0
 42
0.0000000001
 43
0.0000000001
 12
1.0
 22
0.0
 32
0.0
 13
1.0
 23
0.0
 33
0.0
 40
0.0
 40
0.0
 40
0.0
 40
0.0
 40
1.0
 40
1.0
 40
1.0
 40
2.0
 40
2.0
 40
2.0
 40
2.0
 10
107.8955636362437
 20
-125.8383027463183
 30
0.0
 10
108.3138169589065
 20
-125.8383027463183
 30
0.0
 10
108.6520955613874
 20
-125.4993185797364
 30
0.0
 10
108.6520955613874
 20
-125.0814180242851
 30
0.0
 10
108.6520955613874
 20
-124.7996191354668
 30
0.0
 10
108.4957091764883
 20
-124.5408919133093
 30
0.0
 10
108.2462600161856
 20
-124.4103288577863
 30
0.0
  0
POLYLINE
  5
6F
330
1F
100
AcDbEntity
  8
_U+30EC_U+30A4_U+30E4_U+30FC 1
 62
   179
420
  2234388
370
    25
100
AcDb2dPolyline
 66
     1
 10
0.0
 20
0.0
 30
0.0
  0
VERTEX
  5
70
330
6F
100
AcDbEntity
  8
_U+30EC_U+30A4_U+30E4_U+30FC 1
 62
   179
420
  2234388
370
    25
100
AcDbVertex
100
AcDb2dVertex
 10
75.45242668615934
 20
-139.0381888541293
 30
0.0
  0
VERTEX
  5
71
330
6F
100
AcDbEntity
  8
_U+30EC_U+30A4_U+30E4_U+30FC 1
 62
   179
420
  2234388
370
    25
100
AcDbVertex
100
AcDb2dVertex
 10
76.26751972092013
 20
-139.0381888541293
 30
0.0
  0
SEQEND
  5
72
330
6F
100
AcDbEntity
  8
_U+30EC_U+30A4_U+30E4_U+30FC 1
 62
   179
420
  2234388
370
    25
  0
SPLINE
  5
73
330
1F
100
AcDbEntity
  8
_U+30EC_U+30A4_U+30E4_U+30FC 1
 62
   179
420
  2234388
370
    25
100
AcDbSpline
210
0.0
220
0.0
230
1.0
 70
     8
 71
     3
 72
    23
 73
    19
 74
     0
 42
0.0000000001
 43
0.0000000001
 12
1.0
 22
0.0
 32
0.0
 13
1.0
 23
0.0
 33
0.0
 40
0.0
 40
0.0
 40
0.0
 40
0.0
 40
1.0
 40
1.0
 40
1.0
 40
2.0
 40
2.0
 40
2.0
 40
3.0
 40
3.0
 40
3.0
 40
4.0
 40
4.0
 40
4.0
 40
5.0
 40
5.0
 40
5.0
 40
6.0
 40
6.0
 40
6.0
 40
6.0
 10
76.26751972092013
 20
-139.0381888541293
 30
0.0
 10
75.19987498120003
 20
-133.5487902443907
 30
0.0
 10
74.97286058728298
 20
-127.9291460791287
 30
0.0
 10
75.5943491825386
 20
-122.3715202471849
 30
0.0
 10
75.62811001501062
 20
-122.0679902472609
 30
0.0
 10
75.88510861956514
 20
-121.8382260806515
 30
0.0
 10
76.19068472288036
 20
-121.8382260806515
 30
0.0
 10
76.19068472288036
 20
-121.8382260806515
 30
0.0
 10
78.5979696614654
 20
-121.7484794140074
 30
0.0
 10
78.4930555359323
 20
-121.8402721917621
 30
0.0
 10
78.14027775824272
 20
-122.1489527472405
 30
0.0
 10
75.95351222893113
 20
-123.6661794135278
 30
0.0
 10
75.95351222893113
 20
-123.6661794135278
 30
0.0
 10
75.2479566913758
 20
-124.2807888578188
 30
0.0
 10
75.17422613770127
 20
-125.3511871908846
 30
0.0
 10
75.78883556646572
 20
-126.0567427462638
 30
0.0
 10
76.11060416936783
 20
-126.4263833017267
 30
0.0
 10
76.57672943525377
 20
-126.638261635007
 30
0.0
 10
77.06659664497843
 20
-126.638261635007
 30
0.0
  0
SPLINE
  5
74
330
1F
100
AcDbEntity
  8
_U+30EC_U+30A4_U+30E4_U+30FC 1
 62
   179
420
  2234388
370
    25
100
AcDbSpline
210
0.0
220
0.0
230
1.0
 70
     8
 71
     3
 72
    23
 73
    19
 74
     0
 42
0.0000000001
 43
0.0000000001
 12
1.0
 22
0.0
 32
0.0
 13
1.0
 23
0.0
 33
0.0
 40
0.0
 40
0.0
 40
0.0
 40
0.0
 40
1.0
 40
1.0
 40
1.0
 40
2.0
 40
2.0
 40
2.0
 40
3.0
 40
3.0
 40
3.0
 40
4.0
 40
4.0
 40
4.0
 40
5.0
 40
5.0
 40
5.0
 40
6.0
 40
6.0
 40
6.0
 40
6.0
 10
79.6805740782903
 20
-121.9164016361875
 30
0.0
 10
79.8889972022501
 20
-121.7348621917886
 30
0.0
 10
79.81064324163863
 20
-121.4185969140899
 30
0.0
 10
79.62906852404878
 20
-121.2098230252532
 30
0.0
 10
79.53434769313196
 20
-121.1009558030581
 30
0.0
 10
79.39651942459521
 20
-121.0382671919626
 30
0.0
 10
79.25184325589481
 20
-121.0382671919626
 30
0.0
 10
79.25184325589481
 20
-121.0382671919626
 30
0.0
 10
79.17123353572912
 20
-121.0382671919626
 30
0.0
 10
79.17123353572912
 20
-121.0382671919626
 30
0.0
 10
79.17123353572912
 20
-121.0382671919626
 30
0.0
 10
76.19068472288036
 20
-121.0382671919626
 30
0.0
 10
76.19068472288036
 20
-121.0382671919626
 30
0.0
 10
75.47754446329631
 20
-121.0382671919626
 30
0.0
 10
74.87845725635808
 20
-121.574313025162
 30
0.0
 10
74.7992233694906
 20
-122.2826202472073
 30
0.0
 10
74.17463032986974
 20
-127.8692091346993
 30
0.0
 10
74.394763657587
 20
-133.5174282999538
 30
0.0
 10
75.45242668615934
 20
-139.0381888541293
 30
0.0
  0
SPLINE
  5
75
330
1F
100
AcDbEntity
  8
_U+30EC_U+30A4_U+30E4_U+30FC 1
 62
   179
420
  2234388
370
     9
100
AcDbSpline
210
0.0
220
0.0
230
1.0
 70
    11
 71
     3
 72
    17
 73
    13
 74
     0
 42
0.0000000001
 43
0.0000000001
 12
1.0
 22
0.0
 32
0.0
 13
1.0
 23
0.0
 33
0.0
 40
0.0
 40
0.0
 40
0.0
 40
0.0
 40
1.0
 40
1.0
 40
1.0
 40
2.0
 40
2.0
 40
2.0
 40
3.0
 40
3.0
 40
3.0
 40
4.0
 40
4.0
 40
4.0
 40
4.0
 10
113.5524257141474
 20
-126.638261635007
 30
0.0
 10
113.5524257141474
 20
-126.583157746132
 30
0.0
 10
113.5076229375126
 20
-126.5383549683653
 30
0.0
 10
113.4525190500296
 20
-126.5383549683653
 30
0.0
 10
113.3973798847696
 20
-126.5383549683653
 30
0.0
 10
113.3526123859117
 20
-126.583157746132
 30
0.0
 10
113.3526123859117
 20
-126.638261635007
 30
0.0
 10
113.3526123859117
 20
-126.69340080166
 30
0.0
 10
113.3973798847696
 20
-126.7381683016489
 30
0.0
 10
113.4525190500296
 20
-126.7381683016489
 30
0.0
 10
113.5076229375126
 20
-126.7381683016489
 30
0.0
 10
113.5524257141474
 20
-126.69340080166
 30
0.0
 10
113.5524257141474
 20
-126.638261635007
 30
0.0
  0
SPLINE
  5
76
330
1F
100
AcDbEntity
  8
_U+30EC_U+30A4_U+30E4_U+30FC 1
 62
   179
420
  2234388
370
     9
100
AcDbSpline
210
0.0
220
0.0
230
1.0
 70
    11
 71
     3
 72
    17
 73
    13
 74
     0
 42
0.0000000001
 43
0.0000000001
 12
1.0
 22
0.0
 32
0.0
 13
1.0
 23
0.0
 33
0.0
 40
0.0
 40
0.0
 40
0.0
 40
0.0
 40
1.0
 40
1.0
 40
1.0
 40
2.0
 40
2.0
 40
2.0
 40
3.0
 40
3.0
 40
3.0
 40
4.0
 40
4.0
 40
4.0
 40
4.0
 10
113.5524257141474
 20
-124.1381608022989
 30
0.0
 10
113.5524257141474
 20
-124.0830216356458
 30
0.0
 10
113.5076229375126
 20
-124.0382541356572
 30
0.0
 10
113.4525190500296
 20
-124.0382541356572
 30
0.0
 10
113.3973798847696
 20
-124.0382541356572
 30
0.0
 10
113.3526123859117
 20
-124.0830216356458
 30
0.0
 10
113.3526123859117
 20
-124.1381608022989
 30
0.0
 10
113.3526123859117
 20
-124.1932646911738
 30
0.0
 10
113.3973798847696
 20
-124.2380674689405
 30
0.0
 10
113.4525190500296
 20
-124.2380674689405
 30
0.0
 10
113.5076229375126
 20
-124.2380674689405
 30
0.0
 10
113.5524257141474
 20
-124.1932646911738
 30
0.0
 10
113.5524257141474
 20
-124.1381608022989
 30
0.0
  0
SPLINE
  5
77
330
1F
100
AcDbEntity
  8
_U+30EC_U+30A4_U+30E4_U+30FC 1
 62
   179
420
  2234388
370
     9
100
AcDbSpline
210
0.0
220
0.0
230
1.0
 70
    11
 71
     3
 72
    17
 73
    13
 74
     0
 42
0.0000000001
 43
0.0000000001
 12
1.0
 22
0.0
 32
0.0
 13
1.0
 23
0.0
 33
0.0
 40
0.0
 40
0.0
 40
0.0
 40
0.0
 40
1.0
 40
1.0
 40
1.0
 40
2.0
 40
2.0
 40
2.0
 40
3.0
 40
3.0
 40
3.0
 40
4.0
 40
4.0
 40
4.0
 40
4.0
 10
109.5526694170562
 20
-115.7383102488434
 30
0.0
 10
109.5526694170562
 20
-115.6832063599681
 30
0.0
 10
109.5078666392894
 20
-115.6384035822014
 30
0.0
 10
109.4520544298677
 20
-115.6384035822014
 30
0.0
 10
109.3969505423846
 20
-115.6384035822014
 30
0.0
 10
109.3521477657498
 20
-115.6832063599681
 30
0.0
 10
109.3521477657498
 20
-115.7383102488434
 30
0.0
 10
109.3521477657498
 20
-115.7934494154961
 30
0.0
 10
109.3969505423846
 20
-115.8382521932625
 30
0.0
 10
109.4520544298677
 20
-115.8382521932625
 30
0.0
 10
109.5078666392894
 20
-115.8382521932625
 30
0.0
 10
109.5526694170562
 20
-115.7934494154961
 30
0.0
 10
109.5526694170562
 20
-115.7383102488434
 30
0.0
  0
SPLINE
  5
78
330
1F
100
AcDbEntity
  8
_U+30EC_U+30A4_U+30E4_U+30FC 1
 62
   179
420
  2234388
370
     9
100
AcDbSpline
210
0.0
220
0.0
230
1.0
 70
    11
 71
     3
 72
    17
 73
    13
 74
     0
 42
0.0000000001
 43
0.0000000001
 12
1.0
 22
0.0
 32
0.0
 13
1.0
 23
0.0
 33
0.0
 40
0.0
 40
0.0
 40
0.0
 40
0.0
 40
1.0
 40
1.0
 40
1.0
 40
2.0
 40
2.0
 40
2.0
 40
3.0
 40
3.0
 40
3.0
 40
4.0
 40
4.0
 40
4.0
 40
4.0
 10
74.55256115356126
 20
-115.7383102488434
 30
0.0
 10
74.55256115356126
 20
-115.6832063599681
 30
0.0
 10
74.5077583769265
 20
-115.6384035822014
 30
0.0
 10
74.45265448944343
 20
-115.6384035822014
 30
0.0
 10
74.39751532418347
 20
-115.6384035822014
 30
0.0
 10
74.3527478253256
 20
-115.6832063599681
 30
0.0
 10
74.3527478253256
 20
-115.7383102488434
 30
0.0
 10
74.3527478253256
 20
-115.7934494154961
 30
0.0
 10
74.39751532418347
 20
-115.8382521932625
 30
0.0
 10
74.45265448944343
 20
-115.8382521932625
 30
0.0
 10
74.5077583769265
 20
-115.8382521932625
 30
0.0
 10
74.55256115356126
 20
-115.7934494154961
 30
0.0
 10
74.55256115356126
 20
-115.7383102488434
 30
0.0
  0
SPLINE
  5
79
330
1F
100
AcDbEntity
  8
_U+30EC_U+30A4_U+30E4_U+30FC 1
 62
   179
420
  2234388
370
     9
100
AcDbSpline
210
0.0
220
0.0
230
1.0
 70
    11
 71
     3
 72
    17
 73
    13
 74
     0
 42
0.0000000001
 43
0.0000000001
 12
1.0
 22
0.0
 32
0.0
 13
1.0
 23
0.0
 33
0.0
 40
0.0
 40
0.0
 40
0.0
 40
0.0
 40
1.0
 40
1.0
 40
1.0
 40
2.0
 40
2.0
 40
2.0
 40
3.0
 40
3.0
 40
3.0
 40
4.0
 40
4.0
 40
4.0
 40
4.0
 10
70.55280208893696
 20
-121.0382671919626
 30
0.0
 10
70.55280208893696
 20
-120.9831280253098
 30
0.0
 10
70.50799931230219
 20
-120.9383605253209
 30
0.0
 10
70.45254442683118
 20
-120.9383605253209
 30
0.0
 10
70.39708598179848
 20
-120.9383605253209
 30
0.0
 10
70.3526359829325
 20
-120.9831280253098
 30
0.0
 10
70.3526359829325
 20
-121.0382671919626
 30
0.0
 10
70.3526359829325
 20
-121.0933710808378
 30
0.0
 10
70.39708598179848
 20
-121.1381738586042
 30
0.0
 10
70.45254442683118
 20
-121.1381738586042
 30
0.0
 10
70.50799931230219
 20
-121.1381738586042
 30
0.0
 10
70.55280208893696
 20
-121.0933710808378
 30
0.0
 10
70.55280208893696
 20
-121.0382671919626
 30
0.0
  0
SPLINE
  5
7A
330
1F
100
AcDbEntity
  8
_U+30EC_U+30A4_U+30E4_U+30FC 1
 62
   179
420
  2234388
370
     9
100
AcDbSpline
210
0.0
220
0.0
230
1.0
 70
    11
 71
     3
 72
    17
 73
    13
 74
     0
 42
0.0000000001
 43
0.0000000001
 12
1.0
 22
0.0
 32
0.0
 13
1.0
 23
0.0
 33
0.0
 40
0.0
 40
0.0
 40
0.0
 40
0.0
 40
1.0
 40
1.0
 40
1.0
 40
2.0
 40
2.0
 40
2.0
 40
3.0
 40
3.0
 40
3.0
 40
4.0
 40
4.0
 40
4.0
 40
4.0
 10
70.55280208893696
 20
-139.0381888541293
 30
0.0
 10
70.55280208893696
 20
-138.9830849652544
 30
0.0
 10
70.50799931230219
 20
-138.9382821874876
 30
0.0
 10
70.45254442683118
 20
-138.9382821874876
 30
0.0
 10
70.39708598179848
 20
-138.9382821874876
 30
0.0
 10
70.3526359829325
 20
-138.9830849652544
 30
0.0
 10
70.3526359829325
 20
-139.0381888541293
 30
0.0
 10
70.3526359829325
 20
-139.0936807985601
 30
0.0
 10
70.39708598179848
 20
-139.1380955207709
 30
0.0
 10
70.45254442683118
 20
-139.1380955207709
 30
0.0
 10
70.50799931230219
 20
-139.1380955207709
 30
0.0
 10
70.55280208893696
 20
-139.0936807985601
 30
0.0
 10
70.55280208893696
 20
-139.0381888541293
 30
0.0
  0
SPLINE
  5
7B
330
1F
100
AcDbEntity
  8
_U+30EC_U+30A4_U+30E4_U+30FC 1
 62
   179
420
  2234388
370
     9
100
AcDbSpline
210
0.0
220
0.0
230
1.0
 70
    11
 71
     3
 72
    17
 73
    13
 74
     0
 42
0.0000000001
 43
0.0000000001
 12
1.0
 22
0.0
 32
0.0
 13
1.0
 23
0.0
 33
0.0
 40
0.0
 40
0.0
 40
0.0
 40
0.0
 40
1.0
 40
1.0
 40
1.0
 40
2.0
 40
2.0
 40
2.0
 40
3.0
 40
3.0
 40
3.0
 40
4.0
 40
4.0
 40
4.0
 40
4.0
 10
76.34573055225815
 20
-143.1175346864428
 30
0.0
 10
76.34573055225815
 20
-143.0620780197902
 30
0.0
 10
76.30092777562338
 20
-143.0172752420235
 30
0.0
 10
76.24582388814031
 20
-143.0172752420235
 30
0.0
 10
76.19036722288845
 20
-143.0172752420235
 30
0.0
 10
76.1455644462537
 20
-143.0620780197902
 30
0.0
 10
76.1455644462537
 20
-143.1175346864428
 30
0.0
 10
76.1455644462537
 20
-143.1726738530959
 30
0.0
 10
76.19036722288845
 20
-143.2174413530845
 30
0.0
 10
76.24582388814031
 20
-143.2174413530845
 30
0.0
 10
76.30092777562338
 20
-143.2174413530845
 30
0.0
 10
76.34573055225815
 20
-143.1726738530959
 30
0.0
 10
76.34573055225815
 20
-143.1175346864428
 30
0.0
  0
SPLINE
  5
7C
330
1F
100
AcDbEntity
  8
_U+30EC_U+30A4_U+30E4_U+30FC 1
 62
   179
420
  2234388
370
     9
100
AcDbSpline
210
0.0
220
0.0
230
1.0
 70
    11
 71
     3
 72
    17
 73
    13
 74
     0
 42
0.0000000001
 43
0.0000000001
 12
1.0
 22
0.0
 32
0.0
 13
1.0
 23
0.0
 33
0.0
 40
0.0
 40
0.0
 40
0.0
 40
0.0
 40
1.0
 40
1.0
 40
1.0
 40
2.0
 40
2.0
 40
2.0
 40
3.0
 40
3.0
 40
3.0
 40
4.0
 40
4.0
 40
4.0
 40
4.0
 10
77.13087275444973
 20
-142.9645702420365
 30
0.0
 10
77.13087275444973
 20
-142.9094663531616
 30
0.0
 10
77.08606997781496
 20
-142.8646635753949
 30
0.0
 10
77.03096609033189
 20
-142.8646635753949
 30
0.0
 10
76.97582692507194
 20
-142.8646635753949
 30
0.0
 10
76.93105942621405
 20
-142.9094663531616
 30
0.0
 10
76.93105942621405
 20
-142.9645702420365
 30
0.0
 10
76.93105942621405
 20
-143.0200269086892
 30
0.0
 10
76.97582692507194
 20
-143.0648296864559
 30
0.0
 10
77.03096609033189
 20
-143.0648296864559
 30
0.0
 10
77.08606997781496
 20
-143.0648296864559
 30
0.0
 10
77.13087275444973
 20
-143.0200269086892
 30
0.0
 10
77.13087275444973
 20
-142.9645702420365
 30
0.0
  0
POLYLINE
  5
7D
330
1F
100
AcDbEntity
  8
_U+30EC_U+30A4_U+30E4_U+30FC 1
 62
   179
420
  2234388
370
     9
100
AcDb2dPolyline
 66
     1
 10
0.0
 20
0.0
 30
0.0
  0
VERTEX
  5
7E
330
7D
100
AcDbEntity
  8
_U+30EC_U+30A4_U+30E4_U+30FC 1
 62
   179
420
  2234388
370
     9
100
AcDbVertex
100
AcDb2dVertex
 10
113.4525190500296
 20
-126.638261635007
 30
0.0
  0
VERTEX
  5
7F
330
7D
100
AcDbEntity
  8
_U+30EC_U+30A4_U+30E4_U+30FC 1
 62
   179
420
  2234388
370
     9
100
AcDbVertex
100
AcDb2dVertex
 10
113.4525190500296
 20
-131.8961674670259
 30
0.0
  0
SEQEND
  5
80
330
7D
100
AcDbEntity
  8
_U+30EC_U+30A4_U+30E4_U+30FC 1
 62
   179
420
  2234388
370
     9
  0
POLYLINE
  5
81
330
1F
100
AcDbEntity
  8
_U+30EC_U+30A4_U+30E4_U+30FC 1
 62
   179
420
  2234388
370
     9
100
AcDb2dPolyline
 66
     1
 10
0.0
 20
0.0
 30
0.0
  0
VERTEX
  5
82
330
81
100
AcDbEntity
  8
_U+30EC_U+30A4_U+30E4_U+30FC 1
 62
   179
420
  2234388
370
     9
100
AcDbVertex
100
AcDb2dVertex
 10
113.4525190500296
 20
-126.638261635007
 30
0.0
  0
VERTEX
  5
83
330
81
100
AcDbEntity
  8
_U+30EC_U+30A4_U+30E4_U+30FC 1
 62
   179
420
  2234388
370
     9
100
AcDbVertex
100
AcDb2dVertex
 10
113.4525190500296
 20
-123.1383885803267
 30
0.0
  0
SEQEND
  5
84
330
81
100
AcDbEntity
  8
_U+30EC_U+30A4_U+30E4_U+30FC 1
 62
   179
420
  2234388
370
     9
  0
POLYLINE
  5
85
330
1F
100
AcDbEntity
  8
_U+30EC_U+30A4_U+30E4_U+30FC 1
 62
   179
420
  2234388
370
     9
100
AcDb2dPolyline
 66
     1
 10
0.0
 20
0.0
 30
0.0
  0
VERTEX
  5
86
330
85
100
AcDbEntity
  8
_U+30EC_U+30A4_U+30E4_U+30FC 1
 62
   179
420
  2234388
370
     9
100
AcDbVertex
100
AcDb2dVertex
 10
110.4352813492279
 20
-126.638261635007
 30
0.0
  0
VERTEX
  5
87
330
85
100
AcDbEntity
  8
_U+30EC_U+30A4_U+30E4_U+30FC 1
 62
   179
420
  2234388
370
     9
100
AcDbVertex
100
AcDb2dVertex
 10
114.4522559689686
 20
-126.638261635007
 30
0.0
  0
SEQEND
  5
88
330
85
100
AcDbEntity
  8
_U+30EC_U+30A4_U+30E4_U+30FC 1
 62
   179
420
  2234388
370
     9
  0
POLYLINE
  5
89
330
1F
100
AcDbEntity
  8
_U+30EC_U+30A4_U+30E4_U+30FC 1
 62
   179
420
  2234388
370
     9
100
AcDb2dPolyline
 66
     1
 10
0.0
 20
0.0
 30
0.0
  0
VERTEX
  5
8A
330
89
100
AcDbEntity
  8
_U+30EC_U+30A4_U+30E4_U+30FC 1
 62
   179
420
  2234388
370
     9
100
AcDbVertex
100
AcDb2dVertex
 10
111.9924805275577
 20
-124.1381608022989
 30
0.0
  0
VERTEX
  5
8B
330
89
100
AcDbEntity
  8
_U+30EC_U+30A4_U+30E4_U+30FC 1
 62
   179
420
  2234388
370
     9
100
AcDbVertex
100
AcDb2dVertex
 10
114.4522559689686
 20
-124.1381608022989
 30
0.0
  0
SEQEND
  5
8C
330
89
100
AcDbEntity
  8
_U+30EC_U+30A4_U+30E4_U+30FC 1
 62
   179
420
  2234388
370
     9
  0
INSERT
  5
8E
330
1F
100
AcDbEntity
  8
_U+30EC_U+30A4_U+30E4_U+30FC 1
100
AcDbBlockReference
  2
block 2
 10
0.0
 20
0.0
 30
0.0
  0
POLYLINE
  5
9D
330
1F
100
AcDbEntity
  8
_U+30EC_U+30A4_U+30E4_U+30FC 1
 62
   179
420
  2234388
370
     9
100
AcDb2dPolyline
 66
     1
 10
0.0
 20
0.0
 30
0.0
  0
VERTEX
  5
9E
330
9D
100
AcDbEntity
  8
_U+30EC_U+30A4_U+30E4_U+30FC 1
 62
   179
420
  2234388
370
     9
100
AcDbVertex
100
AcDb2dVertex
 10
74.45265448944343
 20
-115.7383102488434
 30
0.0
  0
VERTEX
  5
9F
330
9D
100
AcDbEntity
  8
_U+30EC_U+30A4_U+30E4_U+30FC 1
 62
   179
420
  2234388
370
     9
100
AcDbVertex
100
AcDb2dVertex
 10
109.4520544298677
 20
-115.7383102488434
 30
0.0
  0
SEQEND
  5
A0
330
9D
100
AcDbEntity
  8
_U+30EC_U+30A4_U+30E4_U+30FC 1
 62
   179
420
  2234388
370
     9
  0
POLYLINE
  5
A1
330
1F
100
AcDbEntity
  8
_U+30EC_U+30A4_U+30E4_U+30FC 1
 62
   179
420
  2234388
370
     9
100
AcDb2dPolyline
 66
     1
 10
0.0
 20
0.0
 30
0.0
  0
VERTEX
  5
A2
330
A1
100
AcDbEntity
  8
_U+30EC_U+30A4_U+30E4_U+30FC 1
 62
   179
420
  2234388
370
     9
100
AcDbVertex
100
AcDb2dVertex
 10
74.45265448944343
 20
-125.9640680240646
 30
0.0
  0
VERTEX
  5
A3
330
A1
100
AcDbEntity
  8
_U+30EC_U+30A4_U+30E4_U+30FC 1
 62
   179
420
  2234388
370
     9
100
AcDbVertex
100
AcDb2dVertex
 10
74.45265448944343
 20
-114.7382205268709
 30
0.0
  0
SEQEND
  5
A4
330
A1
100
AcDbEntity
  8
_U+30EC_U+30A4_U+30E4_U+30FC 1
 62
   179
420
  2234388
370
     9
  0
POLYLINE
  5
A5
330
1F
100
AcDbEntity
  8
_U+30EC_U+30A4_U+30E4_U+30FC 1
 62
   179
420
  2234388
370
     9
100
AcDb2dPolyline
 66
     1
 10
0.0
 20
0.0
 30
0.0
  0
VERTEX
  5
A6
330
A5
100
AcDbEntity
  8
_U+30EC_U+30A4_U+30E4_U+30FC 1
 62
   179
420
  2234388
370
     9
100
AcDbVertex
100
AcDb2dVertex
 10
109.4520544298677
 20
-122.5413474693648
 30
0.0
  0
VERTEX
  5
A7
330
A5
100
AcDbEntity
  8
_U+30EC_U+30A4_U+30E4_U+30FC 1
 62
   179
420
  2234388
370
     9
100
AcDbVertex
100
AcDb2dVertex
 10
109.4520544298677
 20
-114.7382205268709
 30
0.0
  0
SEQEND
  5
A8
330
A5
100
AcDbEntity
  8
_U+30EC_U+30A4_U+30E4_U+30FC 1
 62
   179
420
  2234388
370
     9
  0
INSERT
  5
AA
330
1F
100
AcDbEntity
  8
_U+30EC_U+30A4_U+30E4_U+30FC 1
100
AcDbBlockReference
  2
block 3
 10
0.0
 20
0.0
 30
0.0
  0
POLYLINE
  5
B1
330
1F
100
AcDbEntity
  8
_U+30EC_U+30A4_U+30E4_U+30FC 1
 62
   179
420
  2234388
370
     9
100
AcDb2dPolyline
 66
     1
 10
0.0
 20
0.0
 30
0.0
  0
VERTEX
  5
B2
330
B1
100
AcDbEntity
  8
_U+30EC_U+30A4_U+30E4_U+30FC 1
 62
   179
420
  2234388
370
     9
100
AcDbVertex
100
AcDb2dVertex
 10
70.45254442683118
 20
-139.0381888541293
 30
0.0
  0
VERTEX
  5
B3
330
B1
100
AcDbEntity
  8
_U+30EC_U+30A4_U+30E4_U+30FC 1
 62
   179
420
  2234388
370
     9
100
AcDbVertex
100
AcDb2dVertex
 10
70.45254442683118
 20
-121.0382671919626
 30
0.0
  0
SEQEND
  5
B4
330
B1
100
AcDbEntity
  8
_U+30EC_U+30A4_U+30E4_U+30FC 1
 62
   179
420
  2234388
370
     9
  0
POLYLINE
  5
B5
330
1F
100
AcDbEntity
  8
_U+30EC_U+30A4_U+30E4_U+30FC 1
 62
   179
420
  2234388
370
     9
100
AcDb2dPolyline
 66
     1
 10
0.0
 20
0.0
 30
0.0
  0
VERTEX
  5
B6
330
B5
100
AcDbEntity
  8
_U+30EC_U+30A4_U+30E4_U+30FC 1
 62
   179
420
  2234388
370
     9
100
AcDbVertex
100
AcDb2dVertex
 10
72.91267369539828
 20
-139.0381888541293
 30
0.0
  0
VERTEX
  5
B7
330
B5
100
AcDbEntity
  8
_U+30EC_U+30A4_U+30E4_U+30FC 1
 62
   179
420
  2234388
370
     9
100
AcDbVertex
100
AcDb2dVertex
 10
69.4524194270812
 20
-139.0381888541293
 30
0.0
  0
SEQEND
  5
B8
330
B5
100
AcDbEntity
  8
_U+30EC_U+30A4_U+30E4_U+30FC 1
 62
   179
420
  2234388
370
     9
  0
POLYLINE
  5
B9
330
1F
100
AcDbEntity
  8
_U+30EC_U+30A4_U+30E4_U+30FC 1
 62
   179
420
  2234388
370
     9
100
AcDb2dPolyline
 66
     1
 10
0.0
 20
0.0
 30
0.0
  0
VERTEX
  5
BA
330
B9
100
AcDbEntity
  8
_U+30EC_U+30A4_U+30E4_U+30FC 1
 62
   179
420
  2234388
370
     9
100
AcDbVertex
100
AcDb2dVertex
 10
73.6506142321274
 20
-121.0382671919626
 30
0.0
  0
VERTEX
  5
BB
330
B9
100
AcDbEntity
  8
_U+30EC_U+30A4_U+30E4_U+30FC 1
 62
   179
420
  2234388
370
     9
100
AcDbVertex
100
AcDb2dVertex
 10
69.4524194270812
 20
-121.0382671919626
 30
0.0
  0
SEQEND
  5
BC
330
B9
100
AcDbEntity
  8
_U+30EC_U+30A4_U+30E4_U+30FC 1
 62
   179
420
  2234388
370
     9
  0
INSERT
  5
BE
330
1F
100
AcDbEntity
  8
_U+30EC_U+30A4_U+30E4_U+30FC 1
100
AcDbBlockReference
  2
block 4
 10
0.0
 20
0.0
 30
0.0
  0
POLYLINE
  5
C7
330
1F
100
AcDbEntity
  8
_U+30EC_U+30A4_U+30E4_U+30FC 1
 62
   179
420
  2234388
370
     9
100
AcDb2dPolyline
 66
     1
 10
0.0
 20
0.0
 30
0.0
  0
VERTEX
  5
C8
330
C7
100
AcDbEntity
  8
_U+30EC_U+30A4_U+30E4_U+30FC 1
 62
   179
420
  2234388
370
     9
100
AcDbVertex
100
AcDb2dVertex
 10
77.03096609033189
 20
-142.9645702420365
 30
0.0
  0
VERTEX
  5
C9
330
C7
100
AcDbEntity
  8
_U+30EC_U+30A4_U+30E4_U+30FC 1
 62
   179
420
  2234388
370
     9
100
AcDbVertex
100
AcDb2dVertex
 10
82.19206956977227
 20
-141.9610232978431
 30
0.0
  0
SEQEND
  5
CA
330
C7
100
AcDbEntity
  8
_U+30EC_U+30A4_U+30E4_U+30FC 1
 62
   179
420
  2234388
370
     9
  0
POLYLINE
  5
CB
330
1F
100
AcDbEntity
  8
_U+30EC_U+30A4_U+30E4_U+30FC 1
 62
   179
420
  2234388
370
     9
100
AcDb2dPolyline
 66
     1
 10
0.0
 20
0.0
 30
0.0
  0
VERTEX
  5
CC
330
CB
100
AcDbEntity
  8
_U+30EC_U+30A4_U+30E4_U+30FC 1
 62
   179
420
  2234388
370
     9
100
AcDbVertex
100
AcDb2dVertex
 10
75.26432557984708
 20
-143.3083874641727
 30
0.0
  0
VERTEX
  5
CD
330
CB
100
AcDbEntity
  8
_U+30EC_U+30A4_U+30E4_U+30FC 1
 62
   179
420
  2234388
370
     9
100
AcDbVertex
100
AcDb2dVertex
 10
77.03096609033189
 20
-142.9645702420365
 30
0.0
  0
SEQEND
  5
CE
330
CB
100
AcDbEntity
  8
_U+30EC_U+30A4_U+30E4_U+30FC 1
 62
   179
420
  2234388
370
     9
  0
POLYLINE
  5
CF
330
1F
100
AcDbEntity
  8
_U+30EC_U+30A4_U+30E4_U+30FC 1
 62
   179
420
  2234388
370
     9
100
AcDb2dPolyline
 66
     1
 10
0.0
 20
0.0
 30
0.0
  0
VERTEX
  5
D0
330
CF
100
AcDbEntity
  8
_U+30EC_U+30A4_U+30E4_U+30FC 1
 62
   179
420
  2234388
370
     9
100
AcDbVertex
100
AcDb2dVertex
 10
75.93749611822862
 20
-141.5314105201726
 30
0.0
  0
VERTEX
  5
D1
330
CF
100
AcDbEntity
  8
_U+30EC_U+30A4_U+30E4_U+30FC 1
 62
   179
420
  2234388
370
     9
100
AcDbVertex
100
AcDb2dVertex
 10
76.43667666104903
 20
-144.0990330195307
 30
0.0
  0
SEQEND
  5
D2
330
CF
100
AcDbEntity
  8
_U+30EC_U+30A4_U+30E4_U+30FC 1
 62
   179
420
  2234388
370
     9
  0
POLYLINE
  5
D3
330
1F
100
AcDbEntity
  8
_U+30EC_U+30A4_U+30E4_U+30FC 1
 62
   179
420
  2234388
370
     9
100
AcDb2dPolyline
 66
     1
 10
0.0
 20
0.0
 30
0.0
  0
VERTEX
  5
D4
330
D3
100
AcDbEntity
  8
_U+30EC_U+30A4_U+30E4_U+30FC 1
 62
   179
420
  2234388
370
     9
100
AcDbVertex
100
AcDb2dVertex
 10
76.75223637522065
 20
-141.5314105201726
 30
0.0
  0
VERTEX
  5
D5
330
D3
100
AcDbEntity
  8
_U+30EC_U+30A4_U+30E4_U+30FC 1
 62
   179
420
  2234388
370
     9
100
AcDbVertex
100
AcDb2dVertex
 10
77.2218188632406
 20
-143.9464213529021
 30
0.0
  0
SEQEND
  5
D6
330
D3
100
AcDbEntity
  8
_U+30EC_U+30A4_U+30E4_U+30FC 1
 62
   179
420
  2234388
370
     9
  0
INSERT
  5
D8
330
1F
100
AcDbEntity
  8
_U+30EC_U+30A4_U+30E4_U+30FC 1
100
AcDbBlockReference
  2
block 5
 10
0.0
 20
0.0
 30
0.0
  0
SPLINE
  5
EA
330
1F
100
AcDbEntity
  8
_U+30EC_U+30A4_U+30E4_U+30FC 1
 62
   179
420
  2234388
370
    25
100
AcDbSpline
210
0.0
220
0.0
230
1.0
 70
     8
 71
     3
 72
   110
 73
   106
 74
     0
 42
0.0000000001
 43
0.0000000001
 12
1.0
 22
0.0
 32
0.0
 13
1.0
 23
0.0
 33
0.0
 40
0.0
 40
0.0
 40
0.0
 40
0.0
 40
1.0
 40
1.0
 40
1.0
 40
2.0
 40
2.0
 40
2.0
 40
3.0
 40
3.0
 40
3.0
 40
4.0
 40
4.0
 40
4.0
 40
5.0
 40
5.0
 40
5.0
 40
6.0
 40
6.0
 40
6.0
 40
7.0
 40
7.0
 40
7.0
 40
8.0
 40
8.0
 40
8.0
 40
9.0
 40
9.0
 40
9.0
 40
10.0
 40
10.0
 40
10.0
 40
11.0
 40
11.0
 40
11.0
 40
12.0
 40
12.0
 40
12.0
 40
13.0
 40
13.0
 40
13.0
 40
14.0
 40
14.0
 40
14.0
 40
15.0
 40
15.0
 40
15.0
 40
16.0
 40
16.0
 40
16.0
 40
17.0
 40
17.0
 40
17.0
 40
18.0
 40
18.0
 40
18.0
 40
19.0
 40
19.0
 40
19.0
 40
20.0
 40
20.0
 40
20.0
 40
21.0
 40
21.0
 40
21.0
 40
22.0
 40
22.0
 40
22.0
 40
23.0
 40
23.0
 40
23.0
 40
24.0
 40
24.0
 40
24.0
 40
25.0
 40
25.0
 40
25.0
 40
26.0
 40
26.0
 40
26.0
 40
27.0
 40
27.0
 40
27.0
 40
28.0
 40
28.0
 40
28.0
 40
29.0
 40
29.0
 40
29.0
 40
30.0
 40
30.0
 40
30.0
 40
31.0
 40
31.0
 40
31.0
 40
32.0
 40
32.0
 40
32.0
 40
33.0
 40
33.0
 40
33.0
 40
34.0
 40
34.0
 40
34.0
 40
35.0
 40
35.0
 40
35.0
 40
35.0
 10
104.6819698293405
 20
-122.5472035804745
 30
0.0
 10
104.6819698293405
 20
-122.5472035804745
 30
0.0
 10
105.052668708772
 20
-121.8382260806515
 30
0.0
 10
105.052668708772
 20
-121.8382260806515
 30
0.0
 10
105.052668708772
 20
-121.8382260806515
 30
0.0
 10
106.1571833067939
 20
-121.839249136207
 30
0.0
 10
106.1571833067939
 20
-121.839249136207
 30
0.0
 10
107.4215388620337
 20
-121.8981630250809
 30
0.0
 10
107.368478371913
 20
-119.7558141367277
 30
0.0
 10
105.8522747994835
 20
-119.7380694145099
 30
0.0
 10
105.8522747994835
 20
-119.7380694145099
 30
0.0
 10
101.1045915872736
 20
-119.7380694145099
 30
0.0
 10
101.1045915872736
 20
-119.7380694145099
 30
0.0
 10
101.1045915872736
 20
-119.7380694145099
 30
0.0
 10
101.1190554757935
 20
-119.7380694145099
 30
0.0
 10
101.1190554757935
 20
-119.7380694145099
 30
0.0
 10
101.1190554757935
 20
-119.7380694145099
 30
0.0
 10
101.1094246427059
 20
-121.1381738586042
 30
0.0
 10
101.1094246427059
 20
-121.1381738586042
 30
0.0
 10
101.1094246427059
 20
-121.1381738586042
 30
0.0
 10
101.094960754186
 20
-121.1381738586042
 30
0.0
 10
101.094960754186
 20
-121.1381738586042
 30
0.0
 10
101.094960754186
 20
-121.1381738586042
 30
0.0
 10
95.83222199956077
 20
-121.1381738586042
 30
0.0
 10
95.83222199956077
 20
-121.1381738586042
 30
0.0
 10
95.83222199956077
 20
-121.1381738586042
 30
0.0
 10
95.84393422148419
 20
-121.1381738586042
 30
0.0
 10
95.84393422148419
 20
-121.1381738586042
 30
0.0
 10
95.84393422148419
 20
-121.1381738586042
 30
0.0
 10
95.85116616574413
 20
-119.7380694145099
 30
0.0
 10
95.85116616574413
 20
-119.7380694145099
 30
0.0
 10
95.85116616574413
 20
-119.7380694145099
 30
0.0
 10
95.83910116605195
 20
-119.7380694145099
 30
0.0
 10
95.83910116605195
 20
-119.7380694145099
 30
0.0
 10
95.83910116605195
 20
-119.7380694145099
 30
0.0
 10
89.01987161780276
 20
-119.7380694145099
 30
0.0
 10
89.01987161780276
 20
-119.7380694145099
 30
0.0
 10
89.01987161780276
 20
-119.7380694145099
 30
0.0
 10
89.01609689567684
 20
-121.1381738586042
 30
0.0
 10
89.01609689567684
 20
-121.1381738586042
 30
0.0
 10
89.01609689567684
 20
-121.1381738586042
 30
0.0
 10
84.11096896526152
 20
-121.1381738586042
 30
0.0
 10
84.11096896526152
 20
-121.1381738586042
 30
0.0
 10
84.11096896526152
 20
-121.1381738586042
 30
0.0
 10
84.11216840967536
 20
-119.7380694145099
 30
0.0
 10
84.11216840967536
 20
-119.7380694145099
 30
0.0
 10
84.11216840967536
 20
-119.7380694145099
 30
0.0
 10
78.39159466673047
 20
-119.7380694145099
 30
0.0
 10
78.39159466673047
 20
-119.7380694145099
 30
0.0
 10
78.00128331383293
 20
-119.7380694145099
 30
0.0
 10
77.38441413687023
 20
-119.9969730255564
 30
0.0
 10
77.483474134343
 20
-120.3192708032535
 30
0.0
 10
77.56373107673991
 20
-120.5803969142994
 30
0.0
 10
78.25260022583207
 20
-121.0382671919626
 30
0.0
 10
78.25260022583207
 20
-121.0382671919626
 30
0.0
 10
78.25260022583207
 20
-121.0382671919626
 30
0.0
 10
79.17123353572912
 20
-121.0382671919626
 30
0.0
 10
79.17123353572912
 20
-121.0382671919626
 30
0.0
 10
79.17123353572912
 20
-121.0382671919626
 30
0.0
 10
79.25184325589481
 20
-121.0382671919626
 30
0.0
 10
79.25184325589481
 20
-121.0382671919626
 30
0.0
 10
79.39651942459521
 20
-121.0382671919626
 30
0.0
 10
79.53434769313196
 20
-121.1009558030581
 30
0.0
 10
79.62906852404878
 20
-121.2098230252532
 30
0.0
 10
79.81064324163863
 20
-121.4185969140899
 30
0.0
 10
79.8889972022501
 20
-121.7348621917886
 30
0.0
 10
79.6805740782903
 20
-121.9164016361875
 30
0.0
 10
79.6805740782903
 20
-121.9164016361875
 30
0.0
 10
77.59491663149987
 20
-124.8869669132227
 30
0.0
 10
77.59491663149987
 20
-124.8869669132227
 30
0.0
 10
77.59491663149987
 20
-124.8869669132227
 30
0.0
 10
76.96654886975308
 20
-125.8383027463183
 30
0.0
 10
76.96654886975308
 20
-125.8383027463183
 30
0.0
 10
76.9666899808606
 20
-125.8383027463183
 30
0.0
 10
95.09015396293695
 20
-125.8383027463183
 30
0.0
 10
95.09015396293695
 20
-125.8383027463183
 30
0.0
 10
95.09015396293695
 20
-125.8383027463183
 30
0.0
 10
95.15217229468807
 20
-125.8383027463183
 30
0.0
 10
95.15217229468807
 20
-125.8383027463183
 30
0.0
 10
95.15217229468807
 20
-125.8383027463183
 30
0.0
 10
95.15217229468807
 20
-124.8382130243459
 30
0.0
 10
95.15217229468807
 20
-124.8382130243459
 30
0.0
 10
95.15217229468807
 20
-124.8382130243459
 30
0.0
 10
101.8521629570904
 20
-124.8382130243459
 30
0.0
 10
101.8521629570904
 20
-124.8382130243459
 30
0.0
 10
101.8521629570904
 20
-124.8382130243459
 30
0.0
 10
101.8521629570904
 20
-125.8383027463183
 30
0.0
 10
101.8521629570904
 20
-125.8383027463183
 30
0.0
 10
101.8521629570904
 20
-125.8383027463183
 30
0.0
 10
101.8366760130411
 20
-125.8383027463183
 30
0.0
 10
101.8366760130411
 20
-125.8383027463183
 30
0.0
 10
101.8366760130411
 20
-125.8383027463183
 30
0.0
 10
107.1948411541207
 20
-125.8383027463183
 30
0.0
 10
107.1951939318894
 20
-125.8383027463183
 30
0.0
 10
107.6134119767754
 20
-125.8383027463183
 30
0.0
 10
107.9517258570331
 20
-125.4993185797364
 30
0.0
 10
107.9517258570331
 20
-125.0814180242851
 30
0.0
 10
107.9517258570331
 20
-124.7996191354668
 30
0.0
 10
107.7953041943571
 20
-124.5408919133093
 30
0.0
 10
107.5458903118313
 20
-124.4103288577863
 30
0.0
 10
107.5458903118313
 20
-124.4103288577863
 30
0.0
 10
104.6819698293405
 20
-122.5472035804745
 30
0.0
 10
104.6819698293405
 20
-122.5472035804745
 30
0.0
 10
104.6819698293405
 20
-122.5472035804745
 30
0.0
 10
105.052668708772
 20
-121.8382260806515
 30
0.0
 10
105.052668708772
 20
-121.8382260806515
 30
0.0
  0
ENDSEC
  0
SECTION
  2
OBJECTS
  0
DICTIONARY
  5
C
330
0
100
AcDbDictionary
281
     1
  3
ACAD_GROUP
350
D
  3
ACAD_LAYOUT
350
1A
  3
ACAD_MATERIAL
350
3B
  3
ACAD_MLEADERSTYLE
350
EE
  3
ACAD_MLINESTYLE
350
17
  3
ACAD_PLOTSETTINGS
350
19
  3
ACAD_PLOTSTYLENAME
350
E
  3
ACAD_TABLESTYLE
350
ED
  3
ACAD_VISUALSTYLE
350
2A
  0
SUN
  5
3F
330
29
100
AcDbSun
 90
        1
290
     0
 63
     7
421
 16777215
 40
1.0
291
     1
 91
  2455826
 92
 54000000
292
     0
 70
     2
 71
   256
280
     1
  0
DICTIONARY
  5
D
102
{ACAD_REACTORS
330
C
102
}
330
C
100
AcDbDictionary
281
     1
  0
DICTIONARY
  5
1A
102
{ACAD_REACTORS
330
C
102
}
330
C
100
AcDbDictionary
281
     1
  3
Layout1
350
1E
  3
Layout2
350
26
  3
Model
350
22
  0
DICTIONARY
  5
3B
102
{ACAD_REACTORS
330
C
102
}
330
C
100
AcDbDictionary
281
     1
  3
ByBlock
350
3D
  3
ByLayer
350
3C
  3
Global
350
3E
  0
DICTIONARY
  5
EE
102
{ACAD_REACTORS
330
C
102
}
330
C
100
AcDbDictionary
281
     1
  0
DICTIONARY
  5
17
102
{ACAD_REACTORS
330
C
102
}
330
C
100
AcDbDictionary
281
     1
  3
Standard
350
18
  0
DICTIONARY
  5
19
102
{ACAD_REACTORS
330
C
102
}
330
C
100
AcDbDictionary
281
     1
  0
ACDBDICTIONARYWDFLT
  5
E
102
{ACAD_REACTORS
330
C
102
}
330
C
100
AcDbDictionary
281
     1
  3
Normal
350
F
100
AcDbDictionaryWithDefault
340
F
  0
DICTIONARY
  5
ED
102
{ACAD_REACTORS
330
C
102
}
330
C
100
AcDbDictionary
281
     1
  0
DICTIONARY
  5
2A
102
{ACAD_REACTORS
330
C
102
}
330
C
100
AcDbDictionary
281
     1
  3
2dWireframe
350
2F
  3
3D Hidden
350
31
  3
3dWireframe
350
30
  3
Basic
350
32
  3
Brighten
350
36
  3
ColorChange
350
3A
  3
Conceptual
350
34
  3
Dim
350
35
  3
Facepattern
350
39
  3
Flat
350
2B
  3
FlatWithEdges
350
2C
  3
Gouraud
350
2D
  3
GouraudWithEdges
350
2E
  3
Linepattern
350
38
  3
Realistic
350
33
  3
Thicken
350
37
  0
LAYOUT
  5
1E
102
{ACAD_REACTORS
330
1A
102
}
330
1A
100
AcDbPlotSettings
  1

  2
none_device
  4

  6

 40
0.0
 41
0.0
 42
0.0
 43
0.0
 44
0.0
 45
0.0
 46
0.0
 47
0.0
 48
0.0
 49
0.0
140
0.0
141
0.0
142
1.0
143
1.0
 70
   688
 72
     0
 73
     0
 74
     5
  7

 75
    16
 76
     0
 77
     2
 78
   300
147
1.0
148
0.0
149
0.0
100
AcDbLayout
  1
Layout1
 70
     1
 71
     1
 10
0.0
 20
0.0
 11
12.0
 21
9.0
 12
0.0
 22
0.0
 32
0.0
 14
1.000000000000000E+20
 24
1.000000000000000E+20
 34
1.000000000000000E+20
 15
-1.000000000000000E+20
 25
-1.000000000000000E+20
 35
-1.000000000000000E+20
146
0.0
 13
0.0
 23
0.0
 33
0.0
 16
1.0
 26
0.0
 36
0.0
 17
0.0
 27
1.0
 37
0.0
 76
     0
330
1B
  0
LAYOUT
  5
26
102
{ACAD_REACTORS
330
1A
102
}
330
1A
100
AcDbPlotSettings
  1

  2
none_device
  4

  6

 40
0.0
 41
0.0
 42
0.0
 43
0.0
 44
0.0
 45
0.0
 46
0.0
 47
0.0
 48
0.0
 49
0.0
140
0.0
141
0.0
142
1.0
143
1.0
 70
   688
 72
     0
 73
     0
 74
     5
  7

 75
    16
 76
     0
 77
     2
 78
   300
147
1.0
148
0.0
149
0.0
100
AcDbLayout
  1
Layout2
 70
     1
 71
     2
 10
0.0
 20
0.0
 11
0.0
 21
0.0
 12
0.0
 22
0.0
 32
0.0
 14
0.0
 24
0.0
 34
0.0
 15
0.0
 25
0.0
 35
0.0
146
0.0
 13
0.0
 23
0.0
 33
0.0
 16
1.0
 26
0.0
 36
0.0
 17
0.0
 27
1.0
 37
0.0
 76
     0
330
23
  0
LAYOUT
  5
22
102
{ACAD_REACTORS
330
1A
102
}
330
1A
100
AcDbPlotSettings
  1

  2
none_device
  4

  6

 40
0.0
 41
0.0
 42
0.0
 43
0.0
 44
0.0
 45
0.0
 46
0.0
 47
0.0
 48
0.0
 49
0.0
140
0.0
141
0.0
142
1.0
143
1.0
 70
  1712
 72
     0
 73
     0
 74
     0
  7

 75
     0
 76
     0
 77
     2
 78
   300
147
1.0
148
0.0
149
0.0
100
AcDbLayout
  1
Model
 70
     1
 71
     0
 10
0.0
 20
0.0
 11
12.0
 21
9.0
 12
0.0
 22
0.0
 32
0.0
 14
1.000000000000000E+20
 24
1.000000000000000E+20
 34
1.000000000000000E+20
 15
-1.000000000000000E+20
 25
-1.000000000000000E+20
 35
-1.000000000000000E+20
146
0.0
 13
0.0
 23
0.0
 33
0.0
 16
1.0
 26
0.0
 36
0.0
 17
0.0
 27
1.0
 37
0.0
 76
     0
330
1F
331
29
  0
MATERIAL
  5
3D
102
{ACAD_REACTORS
330
3B
102
}
330
3B
100
AcDbMaterial
  1
ByBlock
 72
     1
 94
      127
  0
MATERIAL
  5
3C
102
{ACAD_REACTORS
330
3B
102
}
330
3B
100
AcDbMaterial
  1
ByLayer
 72
     1
 94
      127
  0
MATERIAL
  5
3E
102
{ACAD_REACTORS
330
3B
102
}
330
3B
100
AcDbMaterial
  1
Global
 72
     1
 94
      127
  0
MLINESTYLE
  5
18
102
{ACAD_REACTORS
330
17
102
}
330
17
100
AcDbMlineStyle
  2
Standard
 70
     0
  3

 62
   256
 51
90.0
 52
90.0
 71
     2
 49
0.5
 62
   256
  6
BYLAYER
 49
-0.5
 62
   256
  6
BYLAYER
  0
ACDBPLACEHOLDER
  5
F
102
{ACAD_REACTORS
330
E
102
}
330
E
  0
VISUALSTYLE
  5
2F
102
{ACAD_REACTORS
330
2A
102
}
330
2A
100
AcDbVisualStyle
  2
2dWireframe
 70
     4
177
     2
291
     0
 71
     0
176
     1
 72
     2
176
     1
 73
     0
176
     1
 90
        0
176
     1
 40
-0.6
176
     1
 41
-30.0
176
     1
 62
     5
 63
     7
421
 16777215
176
     1
 74
     1
176
     1
 91
        4
176
     1
 64
     7
176
     1
 65
   257
176
     1
 75
     1
176
     1
175
     1
176
     1
 42
1.0
176
     1
 92
        0
176
     1
 66
   257
176
     1
 43
1.0
176
     1
 76
     1
176
     1
 77
     6
176
     1
 78
     2
176
     1
 67
     7
176
     1
 79
     5
176
     1
170
     0
176
     1
171
     0
176
     1
290
     0
176
     1
 93
        1
176
     1
 44
0.0
176
     1
173
     0
176
     1
  0
VISUALSTYLE
  5
31
102
{ACAD_REACTORS
330
2A
102
}
330
2A
100
AcDbVisualStyle
  2
3D Hidden
 70
     6
177
     2
291
     0
 71
     1
176
     1
 72
     2
176
     1
 73
     2
176
     1
 90
        0
176
     1
 40
-0.6
176
     1
 41
-30.0
176
     1
 62
     5
 63
     7
421
 16777215
176
     1
 74
     2
176
     1
 91
        2
176
     1
 64
     7
176
     1
 65
   257
176
     1
 75
     2
176
     1
175
     1
176
     1
 42
40.0
176
     1
 92
        0
176
     1
 66
   257
176
     1
 43
1.0
176
     1
 76
     1
176
     1
 77
     6
176
     1
 78
     2
176
     1
 67
     7
176
     1
 79
     3
176
     1
170
     0
176
     1
171
     0
176
     1
290
     0
176
     1
 93
        1
176
     1
 44
0.0
176
     1
173
     0
176
     1
  0
VISUALSTYLE
  5
30
102
{ACAD_REACTORS
330
2A
102
}
330
2A
100
AcDbVisualStyle
  2
3dWireframe
 70
     5
177
     2
291
     0
 71
     0
176
     1
 72
     2
176
     1
 73
     0
176
     1
 90
        0
176
     1
 40
-0.6
176
     1
 41
-30.0
176
     1
 62
     5
 63
     7
421
 16777215
176
     1
 74
     1
176
     1
 91
        4
176
     1
 64
     7
176
     1
 65
   257
176
     1
 75
     1
176
     1
175
     1
176
     1
 42
1.0
176
     1
 92
        0
176
     1
 66
   257
176
     1
 43
1.0
176
     1
 76
     1
176
     1
 77
     6
176
     1
 78
     2
176
     1
 67
     7
176
     1
 79
     5
176
     1
170
     0
176
     1
171
     0
176
     1
290
     0
176
     1
 93
        1
176
     1
 44
0.0
176
     1
173
     0
176
     1
  0
VISUALSTYLE
  5
32
102
{ACAD_REACTORS
330
2A
102
}
330
2A
100
AcDbVisualStyle
  2
Basic
 70
     7
177
     2
291
     1
 71
     1
176
     1
 72
     0
176
     1
 73
     1
176
     1
 90
        0
176
     1
 40
-0.6
176
     1
 41
-30.0
176
     1
 62
     5
 63
     7
421
 16777215
176
     1
 74
     0
176
     1
 91
        4
176
     1
 64
     7
176
     1
 65
   257
176
     1
 75
     1
176
     1
175
     1
176
     1
 42
1.0
176
     1
 92
        8
176
     1
 66
     7
176
     1
 43
1.0
176
     1
 76
     1
176
     1
 77
     6
176
     1
 78
     2
176
     1
 67
     7
176
     1
 79
     5
176
     1
170
     0
176
     1
171
     0
176
     1
290
     0
176
     1
 93
        1
176
     1
 44
0.0
176
     1
173
     0
176
     1
  0
VISUALSTYLE
  5
36
102
{ACAD_REACTORS
330
2A
102
}
330
2A
100
AcDbVisualStyle
  2
Brighten
 70
    12
177
     2
291
     1
 71
     2
176
     1
 72
     2
176
     1
 73
     0
176
     1
 90
        0
176
     1
 40
-0.6
176
     1
 41
-30.0
176
     1
 62
     5
 63
     7
421
 16777215
176
     1
 74
     1
176
     1
 91
        4
176
     1
 64
     7
176
     1
 65
   257
176
     1
 75
     1
176
     1
175
     1
176
     1
 42
1.0
176
     1
 92
        8
176
     1
 66
     7
176
     1
 43
1.0
176
     1
 76
     1
176
     1
 77
     6
176
     1
 78
     2
176
     1
 67
     7
176
     1
 79
     5
176
     1
170
     0
176
     1
171
     0
176
     1
290
     0
176
     1
 93
        1
176
     1
 44
50.0
176
     1
173
     0
176
     1
  0
VISUALSTYLE
  5
3A
102
{ACAD_REACTORS
330
2A
102
}
330
2A
100
AcDbVisualStyle
  2
ColorChange
 70
    16
177
     2
291
     1
 71
     2
176
     1
 72
     2
176
     1
 73
     3
176
     1
 90
        0
176
     1
 40
-0.6
176
     1
 41
-30.0
176
     1
 62
     5
 63
     8
421
  8421504
176
     1
 74
     1
176
     1
 91
        4
176
     1
 64
     7
176
     1
 65
   257
176
     1
 75
     1
176
     1
175
     1
176
     1
 42
1.0
176
     1
 92
        8
176
     1
 66
     8
424
  8421504
176
     1
 43
1.0
176
     1
 76
     1
176
     1
 77
     6
176
     1
 78
     2
176
     1
 67
     7
176
     1
 79
     5
176
     1
170
     0
176
     1
171
     0
176
     1
290
     0
176
     1
 93
        1
176
     1
 44
0.0
176
     1
173
     0
176
     1
  0
VISUALSTYLE
  5
34
102
{ACAD_REACTORS
330
2A
102
}
330
2A
100
AcDbVisualStyle
  2
Conceptual
 70
     9
177
     2
291
     0
 71
     3
176
     1
 72
     2
176
     1
 73
     0
176
     1
 90
        0
176
     1
 40
-0.6
176
     1
 41
-30.0
176
     1
 62
     5
 63
     7
421
 16777215
176
     1
 74
     2
176
     1
 91
        2
176
     1
 64
     7
176
     1
 65
   257
176
     1
 75
     1
176
     1
175
     1
176
     1
 42
40.0
176
     1
 92
        8
176
     1
 66
     7
176
     1
 43
1.0
176
     1
 76
     1
176
     1
 77
     6
176
     1
 78
     2
176
     1
 67
     7
176
     1
 79
     3
176
     1
170
     0
176
     1
171
     0
176
     1
290
     0
176
     1
 93
        1
176
     1
 44
0.0
176
     1
173
     0
176
     1
  0
VISUALSTYLE
  5
35
102
{ACAD_REACTORS
330
2A
102
}
330
2A
100
AcDbVisualStyle
  2
Dim
 70
    11
177
     2
291
     1
 71
     2
176
     1
 72
     2
176
     1
 73
     0
176
     1
 90
        0
176
     1
 40
-0.6
176
     1
 41
-30.0
176
     1
 62
     5
 63
     7
421
 16777215
176
     1
 74
     1
176
     1
 91
        4
176
     1
 64
     7
176
     1
 65
   257
176
     1
 75
     1
176
     1
175
     1
176
     1
 42
1.0
176
     1
 92
        8
176
     1
 66
     7
176
     1
 43
1.0
176
     1
 76
     1
176
     1
 77
     6
176
     1
 78
     2
176
     1
 67
     7
176
     1
 79
     5
176
     1
170
     0
176
     1
171
     0
176
     1
290
     0
176
     1
 93
        1
176
     1
 44
-50.0
176
     1
173
     0
176
     1
  0
VISUALSTYLE
  5
39
102
{ACAD_REACTORS
330
2A
102
}
330
2A
100
AcDbVisualStyle
  2
Facepattern
 70
    15
177
     2
291
     1
 71
     2
176
     1
 72
     2
176
     1
 73
     0
176
     1
 90
        0
176
     1
 40
-0.6
176
     1
 41
-30.0
176
     1
 62
     5
 63
     7
421
 16777215
176
     1
 74
     1
176
     1
 91
        4
176
     1
 64
     7
176
     1
 65
   257
176
     1
 75
     1
176
     1
175
     1
176
     1
 42
1.0
176
     1
 92
        8
176
     1
 66
     7
176
     1
 43
1.0
176
     1
 76
     1
176
     1
 77
     6
176
     1
 78
     2
176
     1
 67
     7
176
     1
 79
     5
176
     1
170
     0
176
     1
171
     0
176
     1
290
     0
176
     1
 93
        1
176
     1
 44
0.0
176
     1
173
     0
176
     1
  0
VISUALSTYLE
  5
2B
102
{ACAD_REACTORS
330
2A
102
}
330
2A
100
AcDbVisualStyle
  2
Flat
 70
     0
177
     2
291
     1
 71
     2
176
     1
 72
     1
176
     1
 73
     1
176
     1
 90
        2
176
     1
 40
-0.6
176
     1
 41
30.0
176
     1
 62
     5
 63
     7
421
 16777215
176
     1
 74
     0
176
     1
 91
        4
176
     1
 64
     7
176
     1
 65
   257
176
     1
 75
     1
176
     1
175
     1
176
     1
 42
1.0
176
     1
 92
        8
176
     1
 66
     7
176
     1
 43
1.0
176
     1
 76
     1
176
     1
 77
     6
176
     1
 78
     2
176
     1
 67
     7
176
     1
 79
     5
176
     1
170
     0
176
     1
171
     0
176
     1
290
     0
176
     1
 93
       13
176
     1
 44
0.0
176
     1
173
     0
176
     1
  0
VISUALSTYLE
  5
2C
102
{ACAD_REACTORS
330
2A
102
}
330
2A
100
AcDbVisualStyle
  2
FlatWithEdges
 70
     1
177
     2
291
     1
 71
     2
176
     1
 72
     1
176
     1
 73
     1
176
     1
 90
        2
176
     1
 40
-0.6
176
     1
 41
30.0
176
     1
 62
     5
 63
     7
421
 16777215
176
     1
 74
     1
176
     1
 91
        4
176
     1
 64
     7
176
     1
 65
   257
176
     1
 75
     1
176
     1
175
     1
176
     1
 42
1.0
176
     1
 92
        0
176
     1
 66
   257
176
     1
 43
1.0
176
     1
 76
     1
176
     1
 77
     6
176
     1
 78
     2
176
     1
 67
     7
176
     1
 79
     5
176
     1
170
     0
176
     1
171
     0
176
     1
290
     0
176
     1
 93
       13
176
     1
 44
0.0
176
     1
173
     0
176
     1
  0
VISUALSTYLE
  5
2D
102
{ACAD_REACTORS
330
2A
102
}
330
2A
100
AcDbVisualStyle
  2
Gouraud
 70
     2
177
     2
291
     1
 71
     2
176
     1
 72
     2
176
     1
 73
     1
176
     1
 90
        2
176
     1
 40
-0.6
176
     1
 41
30.0
176
     1
 62
     5
 63
     7
421
 16777215
176
     1
 74
     0
176
     1
 91
        4
176
     1
 64
     7
176
     1
 65
   257
176
     1
 75
     1
176
     1
175
     1
176
     1
 42
1.0
176
     1
 92
        0
176
     1
 66
     7
176
     1
 43
1.0
176
     1
 76
     1
176
     1
 77
     6
176
     1
 78
     2
176
     1
 67
     7
176
     1
 79
     5
176
     1
170
     0
176
     1
171
     0
176
     1
290
     0
176
     1
 93
       13
176
     1
 44
0.0
176
     1
173
     0
176
     1
  0
VISUALSTYLE
  5
2E
102
{ACAD_REACTORS
330
2A
102
}
330
2A
100
AcDbVisualStyle
  2
GouraudWithEdges
 70
     3
177
     2
291
     1
 71
     2
176
     1
 72
     2
176
     1
 73
     1
176
     1
 90
        2
176
     1
 40
-0.6
176
     1
 41
30.0
176
     1
 62
     5
 63
     7
421
 16777215
176
     1
 74
     1
176
     1
 91
        4
176
     1
 64
     7
176
     1
 65
   257
176
     1
 75
     1
176
     1
175
     1
176
     1
 42
1.0
176
     1
 92
        0
176
     1
 66
   257
176
     1
 43
1.0
176
     1
 76
     1
176
     1
 77
     6
176
     1
 78
     2
176
     1
 67
     7
176
     1
 79
     5
176
     1
170
     0
176
     1
171
     0
176
     1
290
     0
176
     1
 93
       13
176
     1
 44
0.0
176
     1
173
     0
176
     1
  0
VISUALSTYLE
  5
38
102
{ACAD_REACTORS
330
2A
102
}
330
2A
100
AcDbVisualStyle
  2
Linepattern
 70
    14
177
     2
291
     1
 71
     2
176
     1
 72
     2
176
     1
 73
     0
176
     1
 90
        0
176
     1
 40
-0.6
176
     1
 41
-30.0
176
     1
 62
     5
 63
     7
421
 16777215
176
     1
 74
     1
176
     1
 91
        4
176
     1
 64
     7
176
     1
 65
   257
176
     1
 75
     7
176
     1
175
     7
176
     1
 42
1.0
176
     1
 92
        8
176
     1
 66
     7
176
     1
 43
1.0
176
     1
 76
     1
176
     1
 77
     6
176
     1
 78
     2
176
     1
 67
     7
176
     1
 79
     5
176
     1
170
     0
176
     1
171
     0
176
     1
290
     0
176
     1
 93
        1
176
     1
 44
0.0
176
     1
173
     0
176
     1
  0
VISUALSTYLE
  5
33
102
{ACAD_REACTORS
330
2A
102
}
330
2A
100
AcDbVisualStyle
  2
Realistic
 70
     8
177
     2
291
     0
 71
     2
176
     1
 72
     2
176
     1
 73
     0
176
     1
 90
        0
176
     1
 40
-0.6
176
     1
 41
-30.0
176
     1
 62
     5
 63
     7
421
 16777215
176
     1
 74
     1
176
     1
 91
        0
176
     1
 64
     7
176
     1
 65
   257
176
     1
 75
     1
176
     1
175
     1
176
     1
 42
1.0
176
     1
 92
        8
176
     1
 66
     8
424
  7895160
176
     1
 43
1.0
176
     1
 76
     1
176
     1
 77
     6
176
     1
 78
     2
176
     1
 67
     7
176
     1
 79
     5
176
     1
170
     0
176
     1
171
     0
176
     1
290
     0
176
     1
 93
       13
176
     1
 44
0.0
176
     1
173
     0
176
     1
  0
VISUALSTYLE
  5
37
102
{ACAD_REACTORS
330
2A
102
}
330
2A
100
AcDbVisualStyle
  2
Thicken
 70
    13
177
     2
291
     1
 71
     2
176
     1
 72
     2
176
     1
 73
     0
176
     1
 90
        0
176
     1
 40
-0.6
176
     1
 41
-30.0
176
     1
 62
     5
 63
     7
421
 16777215
176
     1
 74
     1
176
     1
 91
        4
176
     1
 64
     7
176
     1
 65
   257
176
     1
 75
     1
176
     1
175
     1
176
     1
 42
1.0
176
     1
 92
       12
176
     1
 66
     7
176
     1
 43
1.0
176
     1
 76
     1
176
     1
 77
     6
176
     1
 78
     2
176
     1
 67
     7
176
     1
 79
     5
176
     1
170
     0
176
     1
171
     0
176
     1
290
     0
176
     1
 93
        1
176
     1
 44
0.0
176
     1
173
     0
176
     1
  0
ENDSEC
  0
EOF
