  0
SECTION
  2
HEADER
  9
$ACADVER
  1
AC1024
  9
$ACADMAINTVER
 70
     6
  9
$DWGCODEPAGE
  3
UNDEFINED
  9
$INSBASE
 10
0.0
 20
0.0
 30
0.0
  9
$EXTMIN
 10
1.000000000000000E+20
 20
1.000000000000000E+20
 30
1.000000000000000E+20
  9
$EXTMAX
 10
-1.000000000000000E+20
 20
-1.000000000000000E+20
 30
-1.000000000000000E+20
  9
$LIMMIN
 10
0.0
 20
0.0
  9
$LIMMAX
 10
12.0
 20
9.0
  9
$ORTHOMODE
 70
     0
  9
$REGENMODE
 70
     1
  9
$FILLMODE
 70
     1
  9
$QTEXTMODE
 70
     0
  9
$MIRRTEXT
 70
     1
  9
$LTSCALE
 40
1.0
  9
$ATTMODE
 70
     1
  9
$TEXTSIZE
 40
0.2
  9
$TRACEWID
 40
0.05
  9
$TEXTSTYLE
  7
Standard
  9
$CLAYER
  8
0
  9
$CELTYPE
  6
ByLayer
  9
$CECOLOR
 62
   256
  9
$CELTSCALE
 40
1.0
  9
$DISPSILH
 70
     0
  9
$DIMSCALE
 40
1.0
  9
$DIMASZ
 40
0.18
  9
$DIMEXO
 40
0.0625
  9
$DIMDLI
 40
0.38
  9
$DIMRND
 40
0.0
  9
$DIMDLE
 40
0.0
  9
$DIMEXE
 40
0.18
  9
$DIMTP
 40
0.0
  9
$DIMTM
 40
0.0
  9
$DIMTXT
 40
0.18
  9
$DIMCEN
 40
0.09
  9
$DIMTSZ
 40
0.0
  9
$DIMTOL
 70
     0
  9
$DIMLIM
 70
     0
  9
$DIMTIH
 70
     1
  9
$DIMTOH
 70
     1
  9
$DIMSE1
 70
     0
  9
$DIMSE2
 70
     0
  9
$DIMTAD
 70
     0
  9
$DIMZIN
 70
     0
  9
$DIMBLK
  1

  9
$DIMASO
 70
     1
  9
$DIMSHO
 70
     1
  9
$DIMPOST
  1

  9
$DIMAPOST
  1

  9
$DIMALT
 70
     0
  9
$DIMALTD
 70
     2
  9
$DIMALTF
 40
25.4
  9
$DIMLFAC
 40
1.0
  9
$DIMTOFL
 70
     0
  9
$DIMTVP
 40
0.0
  9
$DIMTIX
 70
     0
  9
$DIMSOXD
 70
     0
  9
$DIMSAH
 70
     0
  9
$DIMBLK1
  1

  9
$DIMBLK2
  1

  9
$DIMSTYLE
  2
Standard
  9
$DIMCLRD
 70
     0
  9
$DIMCLRE
 70
     0
  9
$DIMCLRT
 70
     0
  9
$DIMTFAC
 40
1.0
  9
$DIMGAP
 40
0.09
  9
$DIMJUST
 70
     0
  9
$DIMSD1
 70
     0
  9
$DIMSD2
 70
     0
  9
$DIMTOLJ
 70
     1
  9
$DIMTZIN
 70
     0
  9
$DIMALTZ
 70
     0
  9
$DIMALTTZ
 70
     0
  9
$DIMUPT
 70
     0
  9
$DIMDEC
 70
     4
  9
$DIMTDEC
 70
     4
  9
$DIMALTU
 70
     2
  9
$DIMALTTD
 70
     2
  9
$DIMTXSTY
  7
Standard
  9
$DIMAUNIT
 70
     0
  9
$DIMADEC
 70
     0
  9
$DIMALTRND
 40
0.0
  9
$DIMAZIN
 70
     0
  9
$DIMDSEP
 70
    46
  9
$DIMATFIT
 70
     3
  9
$DIMFRAC
 70
     0
  9
$DIMLDRBLK
  1

  9
$DIMLUNIT
 70
     2
  9
$DIMLWD
 70
    -2
  9
$DIMLWE
 70
    -2
  9
$DIMTMOVE
 70
     0
  9
$DIMFXL
 40
1.0
  9
$DIMFXLON
 70
     0
  9
$DIMJOGANG
 40
0.7853981633974483
  9
$DIMTFILL
 70
     0
  9
$DIMTFILLCLR
 70
     0
  9
$DIMARCSYM
 70
     0
  9
$DIMLTYPE
  6

  9
$DIMLTEX1
  6

  9
$DIMLTEX2
  6

  9
$DIMTXTDIRECTION
 70
     0
  9
$LUNITS
 70
     2
  9
$LUPREC
 70
     4
  9
$SKETCHINC
 40
0.1
  9
$FILLETRAD
 40
0.5
  9
$AUNITS
 70
     0
  9
$AUPREC
 70
     0
  9
$MENU
  1
.
  9
$ELEVATION
 40
0.0
  9
$PELEVATION
 40
0.0
  9
$THICKNESS
 40
0.0
  9
$LIMCHECK
 70
     0
  9
$CHAMFERA
 40
0.5
  9
$CHAMFERB
 40
0.5
  9
$CHAMFERC
 40
1.0
  9
$CHAMFERD
 40
0.0
  9
$SKPOLY
 70
     0
  9
$TDCREATE
 40
2457917.631678241
  9
$TDUCREATE
 40
2457917.256678241
  9
$TDUPDATE
 40
2457917.631678241
  9
$TDUUPDATE
 40
2457917.256678241
  9
$TDINDWG
 40
0.0000000116
  9
$TDUSRTIMER
 40
0.0000000116
  9
$USRTIMER
 70
     1
  9
$ANGBASE
 50
0.0
  9
$ANGDIR
 70
     0
  9
$PDMODE
 70
     0
  9
$PDSIZE
 40
0.0
  9
$PLINEWID
 40
0.0
  9
$SPLFRAME
 70
     0
  9
$SPLINETYPE
 70
     6
  9
$SPLINESEGS
 70
     8
  9
$HANDSEED
  5
C6
  9
$SURFTAB1
 70
     6
  9
$SURFTAB2
 70
     6
  9
$SURFTYPE
 70
     6
  9
$SURFU
 70
     6
  9
$SURFV
 70
     6
  9
$UCSBASE
  2

  9
$UCSNAME
  2

  9
$UCSORG
 10
0.0
 20
0.0
 30
0.0
  9
$UCSXDIR
 10
1.0
 20
0.0
 30
0.0
  9
$UCSYDIR
 10
0.0
 20
1.0
 30
0.0
  9
$UCSORTHOREF
  2

  9
$UCSORTHOVIEW
 70
     0
  9
$UCSORGTOP
 10
0.0
 20
0.0
 30
0.0
  9
$UCSORGBOTTOM
 10
0.0
 20
0.0
 30
0.0
  9
$UCSORGLEFT
 10
0.0
 20
0.0
 30
0.0
  9
$UCSORGRIGHT
 10
0.0
 20
0.0
 30
0.0
  9
$UCSORGFRONT
 10
0.0
 20
0.0
 30
0.0
  9
$UCSORGBACK
 10
0.0
 20
0.0
 30
0.0
  9
$PUCSBASE
  2

  9
$PUCSNAME
  2

  9
$PUCSORG
 10
0.0
 20
0.0
 30
0.0
  9
$PUCSXDIR
 10
1.0
 20
0.0
 30
0.0
  9
$PUCSYDIR
 10
0.0
 20
1.0
 30
0.0
  9
$PUCSORTHOREF
  2

  9
$PUCSORTHOVIEW
 70
     0
  9
$PUCSORGTOP
 10
0.0
 20
0.0
 30
0.0
  9
$PUCSORGBOTTOM
 10
0.0
 20
0.0
 30
0.0
  9
$PUCSORGLEFT
 10
0.0
 20
0.0
 30
0.0
  9
$PUCSORGRIGHT
 10
0.0
 20
0.0
 30
0.0
  9
$PUCSORGFRONT
 10
0.0
 20
0.0
 30
0.0
  9
$PUCSORGBACK
 10
0.0
 20
0.0
 30
0.0
  9
$USERI1
 70
     0
  9
$USERI2
 70
     0
  9
$USERI3
 70
     0
  9
$USERI4
 70
     0
  9
$USERI5
 70
     0
  9
$USERR1
 40
0.0
  9
$USERR2
 40
0.0
  9
$USERR3
 40
0.0
  9
$USERR4
 40
0.0
  9
$USERR5
 40
0.0
  9
$WORLDVIEW
 70
     1
  9
$SHADEDGE
 70
     3
  9
$SHADEDIF
 70
    70
  9
$TILEMODE
 70
     1
  9
$MAXACTVP
 70
    64
  9
$PINSBASE
 10
0.0
 20
0.0
 30
0.0
  9
$PLIMCHECK
 70
     0
  9
$PEXTMIN
 10
1.000000000000000E+20
 20
1.000000000000000E+20
 30
1.000000000000000E+20
  9
$PEXTMAX
 10
-1.000000000000000E+20
 20
-1.000000000000000E+20
 30
-1.000000000000000E+20
  9
$PLIMMIN
 10
0.0
 20
0.0
  9
$PLIMMAX
 10
12.0
 20
9.0
  9
$UNITMODE
 70
     0
  9
$VISRETAIN
 70
     1
  9
$PLINEGEN
 70
     0
  9
$PSLTSCALE
 70
     1
  9
$TREEDEPTH
 70
  3020
  9
$CMLSTYLE
  2
Standard
  9
$CMLJUST
 70
     0
  9
$CMLSCALE
 40
1.0
  9
$PROXYGRAPHICS
 70
     1
  9
$MEASUREMENT
 70
     0
  9
$CELWEIGHT
370
    -1
  9
$ENDCAPS
280
     0
  9
$JOINSTYLE
280
     0
  9
$LWDISPLAY
290
     1
  9
$INSUNITS
 70
     1
  9
$HYPERLINKBASE
  1

  9
$STYLESHEET
  1

  9
$XEDIT
290
     1
  9
$CEPSNTYPE
380
     0
  9
$PSTYLEMODE
290
     1
  9
$FINGERPRINTGUID
  2
{2F33C84C-8B97-80CE-EC3F-D87F166F44DC}
  9
$VERSIONGUID
  2
{FAEB1C32-E019-11D5-929B-00C0DF256EC4}
  9
$EXTNAMES
290
     1
  9
$PSVPSCALE
 40
0.0
  9
$OLESTARTUP
290
     0
  9
$SORTENTS
280
   127
  9
$INDEXCTL
280
     0
  9
$HIDETEXT
280
     1
  9
$XCLIPFRAME
280
     2
  9
$HALOGAP
280
     0
  9
$OBSCOLOR
 70
   257
  9
$OBSLTYPE
280
     0
  9
$INTERSECTIONDISPLAY
280
     0
  9
$INTERSECTIONCOLOR
 70
   257
  9
$DIMASSOC
280
     2
  9
$PROJECTNAME
  1

  9
$CAMERADISPLAY
290
     0
  9
$LENSLENGTH
 40
50.0
  9
$CAMERAHEIGHT
 40
0.0
  9
$STEPSPERSEC
 40
2.0
  9
$STEPSIZE
 40
6.0
  9
$3DDWFPREC
 40
2.0
  9
$PSOLWIDTH
 40
0.25
  9
$PSOLHEIGHT
 40
4.0
  9
$LOFTANG1
 40
1.570796326794897
  9
$LOFTANG2
 40
1.570796326794897
  9
$LOFTMAG1
 40
0.0
  9
$LOFTMAG2
 40
0.0
  9
$LOFTPARAM
 70
     7
  9
$LOFTNORMALS
280
     1
  9
$LATITUDE
 40
37.795
  9
$LONGITUDE
 40
-122.394
  9
$NORTHDIRECTION
 40
0.0
  9
$TIMEZONE
 70
 -8000
  9
$LIGHTGLYPHDISPLAY
280
     1
  9
$TILEMODELIGHTSYNCH
280
     1
  9
$CMATERIAL
347
3C
  9
$SOLIDHIST
280
     1
  9
$SHOWHIST
280
     1
  9
$DWFFRAME
280
     2
  9
$DGNFRAME
280
     2
  9
$REALWORLDSCALE
290
     1
  9
$INTERFERECOLOR
 62
   256
  9
$CSHADOW
280
     0
  9
$SHADOWPLANELOCATION
 40
0.0
  0
ENDSEC
  0
SECTION
  2
CLASSES
  0
CLASS
  1
ACDBDICTIONARYWDFLT
  2
AcDbDictionaryWithDefault
  3
ObjectDBX Classes
 90
        0
 91
        4
280
     0
281
     0
  0
CLASS
  1
VISUALSTYLE
  2
AcDbVisualStyle
  3
ObjectDBX Classes
 90
     4095
 91
        4
280
     0
281
     0
  0
CLASS
  1
MATERIAL
  2
AcDbMaterial
  3
ObjectDBX Classes
 90
     1153
 91
        4
280
     0
281
     0
  0
CLASS
  1
SUN
  2
AcDbSun
  3
SCENEOE
 90
     1024
 91
        4
280
     0
281
     0
  0
ENDSEC
  0
SECTION
  2
TABLES
  0
TABLE
  2
VPORT
  5
8
330
0
100
AcDbSymbolTable
 70
     1
  0
VPORT
  5
29
330
8
100
AcDbSymbolTableRecord
100
AcDbViewportTableRecord
  2
*Active
 70
     0
 10
0.0
 20
0.0
 11
1.0
 21
1.0
 12
0.0
 22
0.0
 13
0.0
 23
0.0
 14
0.5
 24
0.5
 15
0.5
 25
0.5
 16
0.0
 26
0.0
 36
1.0
 17
91.00082462281999
 27
-128.4993055234307
 37
0.0
 40
256.9986110468615
 41
0.7081814508812795
 42
50.0
 43
0.0
 44
0.0
 50
0.0
 51
0.0
 71
     0
 72
   100
 73
     1
 74
     3
 75
     0
 76
     0
 77
     0
 78
     0
281
     0
 65
     1
110
0.0
120
0.0
130
0.0
111
1.0
121
0.0
131
0.0
112
0.0
122
1.0
132
0.0
 79
     0
146
0.0
 60
     3
 61
     5
292
     1
282
     1
141
0.0
142
0.0
 63
   250
361
3F
  0
ENDTAB
  0
TABLE
  2
LTYPE
  5
5
330
0
100
AcDbSymbolTable
 70
     2
  0
LTYPE
  5
14
330
5
100
AcDbSymbolTableRecord
100
AcDbLinetypeTableRecord
  2
ByBlock
 70
     0
  3

 72
    65
 73
     0
 40
0.0
  0
LTYPE
  5
15
330
5
100
AcDbSymbolTableRecord
100
AcDbLinetypeTableRecord
  2
ByLayer
 70
     0
  3

 72
    65
 73
     0
 40
0.0
  0
LTYPE
  5
16
330
5
100
AcDbSymbolTableRecord
100
AcDbLinetypeTableRecord
  2
Continuous
 70
     0
  3
Solid line
 72
    65
 73
     0
 40
0.0
  0
LTYPE
  5
C1
330
5
100
AcDbSymbolTableRecord
100
AcDbLinetypeTableRecord
  2
AI-Linetype-1
 70
     0
  3
Adobe Illustrator Linetype No. 1
 72
    65
 73
     2
 40
0.999998008954865
 49
0.4999990044774325
 74
     0
 49
-0.4999990044774325
 74
     0
  0
ENDTAB
  0
TABLE
  2
LAYER
  5
2
330
0
100
AcDbSymbolTable
 70
     2
  0
LAYER
  5
10
330
2
100
AcDbSymbolTableRecord
100
AcDbLayerTableRecord
  2
0
 70
     0
 62
     7
  6
Continuous
370
    -3
390
F
347
3E
  0
LAYER
  5
40
330
2
100
AcDbSymbolTableRecord
100
AcDbLayerTableRecord
  2
_U+30EC_U+30A4_U+30E4_U+30FC 1
 70
     0
 62
     7
  6
Continuous
370
    -3
390
F
347
3E
  0
ENDTAB
  0
TABLE
  2
STYLE
  5
3
330
0
100
AcDbSymbolTable
 70
     1
  0
STYLE
  5
11
330
3
100
AcDbSymbolTableRecord
100
AcDbTextStyleTableRecord
  2
Standard
 70
     0
 40
0.0
 41
1.0
 50
0.0
 71
     0
 42
0.2
  3
txt
  4

  0
ENDTAB
  0
TABLE
  2
VIEW
  5
6
330
0
100
AcDbSymbolTable
 70
     0
  0
ENDTAB
  0
TABLE
  2
UCS
  5
7
330
0
100
AcDbSymbolTable
 70
     0
  0
ENDTAB
  0
TABLE
  2
APPID
  5
9
330
0
100
AcDbSymbolTable
 70
     1
  0
APPID
  5
12
330
9
100
AcDbSymbolTableRecord
100
AcDbRegAppTableRecord
  2
ACAD
 70
     0
  0
ENDTAB
  0
TABLE
  2
DIMSTYLE
  5
A
330
0
100
AcDbSymbolTable
 70
     1
100
AcDbDimStyleTable
  0
DIMSTYLE
105
27
330
A
100
AcDbSymbolTableRecord
100
AcDbDimStyleTableRecord
  2
Standard
 70
     0
178
     0
340
11
  0
ENDTAB
  0
TABLE
  2
BLOCK_RECORD
  5
1
330
0
100
AcDbSymbolTable
 70
     6
  0
BLOCK_RECORD
  5
1F
330
1
100
AcDbSymbolTableRecord
100
AcDbBlockTableRecord
  2
*Model_Space
340
22
 70
     0
280
     1
281
     0
  0
BLOCK_RECORD
  5
1B
330
1
100
AcDbSymbolTableRecord
100
AcDbBlockTableRecord
  2
*Paper_Space
340
1E
 70
     0
280
     1
281
     0
  0
BLOCK_RECORD
  5
23
330
1
100
AcDbSymbolTableRecord
100
AcDbBlockTableRecord
  2
*Paper_Space0
340
26
 70
     0
280
     1
281
     0
  0
BLOCK_RECORD
  5
52
330
1
100
AcDbSymbolTableRecord
100
AcDbBlockTableRecord
  2
block 2
340
0
102
{BLKREFS
331
53
102
}
 70
     0
280
     1
281
     0
  0
BLOCK_RECORD
  5
64
330
1
100
AcDbSymbolTableRecord
100
AcDbBlockTableRecord
  2
block 3
340
0
102
{BLKREFS
331
65
102
}
 70
     0
280
     1
281
     0
  0
BLOCK_RECORD
  5
82
330
1
100
AcDbSymbolTableRecord
100
AcDbBlockTableRecord
  2
block 4
340
0
102
{BLKREFS
331
83
102
}
 70
     0
280
     1
281
     0
  0
BLOCK_RECORD
  5
9C
330
1
100
AcDbSymbolTableRecord
100
AcDbBlockTableRecord
  2
block 5
340
0
102
{BLKREFS
331
9D
102
}
 70
     0
280
     1
281
     0
  0
BLOCK_RECORD
  5
B2
330
1
100
AcDbSymbolTableRecord
100
AcDbBlockTableRecord
  2
block 6
340
0
102
{BLKREFS
331
B3
102
}
 70
     0
280
     1
281
     0
  0
ENDTAB
  0
ENDSEC
  0
SECTION
  2
BLOCKS
  0
BLOCK
  5
20
330
1F
100
AcDbEntity
  8
0
100
AcDbBlockBegin
  2
*Model_Space
 70
     0
 10
0.0
 20
0.0
 30
0.0
  3
*Model_Space
  1

  0
ENDBLK
  5
21
330
1F
100
AcDbEntity
  8
0
100
AcDbBlockEnd
  0
BLOCK
  5
1C
330
1B
100
AcDbEntity
 67
     1
  8
0
100
AcDbBlockBegin
  2
*Paper_Space
 70
     0
 10
0.0
 20
0.0
 30
0.0
  3
*Paper_Space
  1

  0
ENDBLK
  5
1D
330
1B
100
AcDbEntity
 67
     1
  8
0
100
AcDbBlockEnd
  0
BLOCK
  5
24
330
23
100
AcDbEntity
  8
0
100
AcDbBlockBegin
  2
*Paper_Space0
 70
     0
 10
0.0
 20
0.0
 30
0.0
  3
*Paper_Space0
  1

  0
ENDBLK
  5
25
330
23
100
AcDbEntity
  8
0
100
AcDbBlockEnd
  0
BLOCK
  5
54
330
52
100
AcDbEntity
  8
0
100
AcDbBlockBegin
  2
block 2
 70
     0
 10
0.0
 20
0.0
 30
0.0
  3
block 2
  1

  0
SPLINE
  5
56
330
52
100
AcDbEntity
  8
_U+30EC_U+30A4_U+30E4_U+30FC 1
370
     0
100
AcDbSpline
210
0.0
220
0.0
230
1.0
 70
    11
 71
     3
 72
    62
 73
    58
 74
     0
 42
0.0000000001
 43
0.0000000001
 12
1.0
 22
0.0
 32
0.0
 13
1.0
 23
0.0
 33
0.0
 40
0.0
 40
0.0
 40
0.0
 40
0.0
 40
1.0
 40
1.0
 40
1.0
 40
2.0
 40
2.0
 40
2.0
 40
3.0
 40
3.0
 40
3.0
 40
4.0
 40
4.0
 40
4.0
 40
5.0
 40
5.0
 40
5.0
 40
6.0
 40
6.0
 40
6.0
 40
7.0
 40
7.0
 40
7.0
 40
8.0
 40
8.0
 40
8.0
 40
9.0
 40
9.0
 40
9.0
 40
10.0
 40
10.0
 40
10.0
 40
11.0
 40
11.0
 40
11.0
 40
12.0
 40
12.0
 40
12.0
 40
13.0
 40
13.0
 40
13.0
 40
14.0
 40
14.0
 40
14.0
 40
15.0
 40
15.0
 40
15.0
 40
16.0
 40
16.0
 40
16.0
 40
17.0
 40
17.0
 40
17.0
 40
18.0
 40
18.0
 40
18.0
 40
19.0
 40
19.0
 40
19.0
 40
19.0
 10
92.35336369218945
 20
-115.3423136104873
 30
0.0
 10
92.25793454724803
 20
-115.3423136104873
 30
0.0
 10
92.04020451258023
 20
-115.3211262732531
 30
0.0
 10
91.91549205601419
 20
-115.1349188622753
 30
0.0
 10
91.84142250308132
 20
-115.0227810042304
 30
0.0
 10
91.83694387895049
 20
-114.923389999481
 30
0.0
 10
91.83280976436819
 20
-114.8388129053181
 30
0.0
 10
91.83280976436819
 20
-114.8388129053181
 30
0.0
 10
92.05295136587566
 20
-114.8388129053181
 30
0.0
 10
92.05295136587566
 20
-114.8388129053181
 30
0.0
 10
92.0550184231668
 20
-114.9128824582509
 30
0.0
 10
92.06569821917108
 20
-115.1476657155707
 30
0.0
 10
92.34922957760715
 20
-115.1476657155707
 30
0.0
 10
92.48668888746862
 20
-115.1476657155707
 30
0.0
 10
92.63896210791665
 20
-115.0779025319944
 30
0.0
 10
92.63896210791665
 20
-114.8493204465481
 30
0.0
 10
92.63896210791665
 20
-114.7330484739209
 30
0.0
 10
92.60072154803038
 20
-114.6843003728046
 30
0.0
 10
92.56902666956609
 20
-114.6526054943403
 30
0.0
 10
92.49495711663322
 20
-114.5785359414075
 30
0.0
 10
92.37851288923177
 20
-114.5659613428863
 30
0.0
 10
92.3237358710163
 20
-114.5659613428863
 30
0.0
 10
92.30478784584741
 20
-114.5659613428863
 30
0.0
 10
92.2686143432523
 20
-114.5680284001774
 30
0.0
 10
92.2410535793703
 20
-114.5721625147597
 30
0.0
 10
92.2410535793703
 20
-114.5721625147597
 30
0.0
 10
92.2410535793703
 20
-114.3775146198431
 30
0.0
 10
92.2410535793703
 20
-114.3775146198431
 30
0.0
 10
92.27929413925656
 20
-114.3838880464908
 30
0.0
 10
92.32166881372514
 20
-114.3861273585563
 30
0.0
 10
92.3278699855986
 20
-114.3861273585563
 30
0.0
 10
92.39332679981834
 20
-114.3861273585563
 30
0.0
 10
92.59245331886578
 20
-114.364940021322
 30
0.0
 10
92.59245331886578
 20
-114.1279174519368
 30
0.0
 10
92.59245331886578
 20
-113.9503227796721
 30
0.0
 10
92.46119518087777
 20
-113.8952012519081
 30
0.0
 10
92.35129663489829
 20
-113.8952012519081
 30
0.0
 10
92.08671330163111
 20
-113.8952012519081
 30
0.0
 10
92.07844507246651
 20
-114.1279174519368
 30
0.0
 10
92.07396644833568
 20
-114.1999199475785
 30
0.0
 10
92.07396644833568
 20
-114.1999199475785
 30
0.0
 10
91.87105032425447
 20
-114.1999199475785
 30
0.0
 10
91.87105032425447
 20
-114.1999199475785
 30
0.0
 10
91.87931855341907
 20
-114.0750352362382
 30
0.0
 10
91.90687931730106
 20
-113.6984862997004
 30
0.0
 10
92.36369897864519
 20
-113.6984862997004
 30
0.0
 10
92.58797469473495
 20
-113.6984862997004
 30
0.0
 10
92.82913137870244
 20
-113.8254380683318
 30
0.0
 10
92.82913137870244
 20
-114.1215440252891
 30
0.0
 10
92.82913137870244
 20
-114.3077514362668
 30
0.0
 10
92.73404674330955
 20
-114.3902614731386
 30
0.0
 10
92.63448348378583
 20
-114.451584172776
 30
0.0
 10
92.6961506929718
 20
-114.479144936658
 30
0.0
 10
92.87805173459299
 20
-114.5595879162386
 30
0.0
 10
92.87805173459299
 20
-114.8367458480269
 30
0.0
 10
92.87805173459299
 20
-115.1752264794527
 30
0.0
 10
92.63034936920353
 20
-115.3423136104873
 30
0.0
 10
92.35336369218945
 20
-115.3423136104873
 30
0.0
  0
HATCH
  5
57
330
52
100
AcDbEntity
  8
_U+30EC_U+30A4_U+30E4_U+30FC 1
 62
   179
420
  2234388
100
AcDbHatch
 10
0.0
 20
0.0
 30
0.0
210
0.0
220
0.0
230
1.0
  2
SOLID
 70
     1
 71
     0
 91
        1
 92
        1
 93
        1
 72
     4
 94
        3
 73
     0
 74
     1
 95
       62
 96
       58
 40
0.0
 40
0.0
 40
0.0
 40
0.0
 40
1.0
 40
1.0
 40
1.0
 40
2.0
 40
2.0
 40
2.0
 40
3.0
 40
3.0
 40
3.0
 40
4.0
 40
4.0
 40
4.0
 40
5.0
 40
5.0
 40
5.0
 40
6.0
 40
6.0
 40
6.0
 40
7.0
 40
7.0
 40
7.0
 40
8.0
 40
8.0
 40
8.0
 40
9.0
 40
9.0
 40
9.0
 40
10.0
 40
10.0
 40
10.0
 40
11.0
 40
11.0
 40
11.0
 40
12.0
 40
12.0
 40
12.0
 40
13.0
 40
13.0
 40
13.0
 40
14.0
 40
14.0
 40
14.0
 40
15.0
 40
15.0
 40
15.0
 40
16.0
 40
16.0
 40
16.0
 40
17.0
 40
17.0
 40
17.0
 40
18.0
 40
18.0
 40
18.0
 40
19.0
 40
19.0
 40
19.0
 40
19.0
 10
92.35336369218945
 20
-115.3423136104873
 10
92.25793454724803
 20
-115.3423136104873
 10
92.04020451258023
 20
-115.3211262732531
 10
91.91549205601419
 20
-115.1349188622753
 10
91.84142250308132
 20
-115.0227810042304
 10
91.83694387895049
 20
-114.923389999481
 10
91.83280976436819
 20
-114.8388129053181
 10
91.83280976436819
 20
-114.8388129053181
 10
92.05295136587566
 20
-114.8388129053181
 10
92.05295136587566
 20
-114.8388129053181
 10
92.0550184231668
 20
-114.9128824582509
 10
92.06569821917108
 20
-115.1476657155707
 10
92.34922957760715
 20
-115.1476657155707
 10
92.48668888746862
 20
-115.1476657155707
 10
92.63896210791665
 20
-115.0779025319944
 10
92.63896210791665
 20
-114.8493204465481
 10
92.63896210791665
 20
-114.7330484739209
 10
92.60072154803038
 20
-114.6843003728046
 10
92.56902666956609
 20
-114.6526054943403
 10
92.49495711663322
 20
-114.5785359414075
 10
92.37851288923177
 20
-114.5659613428863
 10
92.3237358710163
 20
-114.5659613428863
 10
92.30478784584741
 20
-114.5659613428863
 10
92.2686143432523
 20
-114.5680284001774
 10
92.2410535793703
 20
-114.5721625147597
 10
92.2410535793703
 20
-114.5721625147597
 10
92.2410535793703
 20
-114.3775146198431
 10
92.2410535793703
 20
-114.3775146198431
 10
92.27929413925656
 20
-114.3838880464908
 10
92.32166881372514
 20
-114.3861273585563
 10
92.3278699855986
 20
-114.3861273585563
 10
92.39332679981834
 20
-114.3861273585563
 10
92.59245331886578
 20
-114.364940021322
 10
92.59245331886578
 20
-114.1279174519368
 10
92.59245331886578
 20
-113.9503227796721
 10
92.46119518087777
 20
-113.8952012519081
 10
92.35129663489829
 20
-113.8952012519081
 10
92.08671330163111
 20
-113.8952012519081
 10
92.07844507246651
 20
-114.1279174519368
 10
92.07396644833568
 20
-114.1999199475785
 10
92.07396644833568
 20
-114.1999199475785
 10
91.87105032425447
 20
-114.1999199475785
 10
91.87105032425447
 20
-114.1999199475785
 10
91.87931855341907
 20
-114.0750352362382
 10
91.90687931730106
 20
-113.6984862997004
 10
92.36369897864519
 20
-113.6984862997004
 10
92.58797469473495
 20
-113.6984862997004
 10
92.82913137870244
 20
-113.8254380683318
 10
92.82913137870244
 20
-114.1215440252891
 10
92.82913137870244
 20
-114.3077514362668
 10
92.73404674330955
 20
-114.3902614731386
 10
92.63448348378583
 20
-114.451584172776
 10
92.6961506929718
 20
-114.479144936658
 10
92.87805173459299
 20
-114.5595879162386
 10
92.87805173459299
 20
-114.8367458480269
 10
92.87805173459299
 20
-115.1752264794527
 10
92.63034936920353
 20
-115.3423136104873
 10
92.35336369218945
 20
-115.3423136104873
 97
        0
 97
        0
 75
     2
 76
     1
 98
        0
  0
SPLINE
  5
58
330
52
100
AcDbEntity
  8
_U+30EC_U+30A4_U+30E4_U+30FC 1
370
     0
100
AcDbSpline
210
0.0
220
0.0
230
1.0
 70
    11
 71
     3
 72
    53
 73
    49
 74
     0
 42
0.0000000001
 43
0.0000000001
 12
1.0
 22
0.0
 32
0.0
 13
1.0
 23
0.0
 33
0.0
 40
0.0
 40
0.0
 40
0.0
 40
0.0
 40
1.0
 40
1.0
 40
1.0
 40
2.0
 40
2.0
 40
2.0
 40
3.0
 40
3.0
 40
3.0
 40
4.0
 40
4.0
 40
4.0
 40
5.0
 40
5.0
 40
5.0
 40
6.0
 40
6.0
 40
6.0
 40
7.0
 40
7.0
 40
7.0
 40
8.0
 40
8.0
 40
8.0
 40
9.0
 40
9.0
 40
9.0
 40
10.0
 40
10.0
 40
10.0
 40
11.0
 40
11.0
 40
11.0
 40
12.0
 40
12.0
 40
12.0
 40
13.0
 40
13.0
 40
13.0
 40
14.0
 40
14.0
 40
14.0
 40
15.0
 40
15.0
 40
15.0
 40
16.0
 40
16.0
 40
16.0
 40
16.0
 10
93.51952851394651
 20
-115.3423136104873
 30
0.0
 10
93.44132484643134
 20
-115.3423136104873
 30
0.0
 10
93.33969452961647
 20
-115.3252603878354
 30
0.0
 10
93.2380642128016
 20
-115.2618706309068
 30
0.0
 10
93.06477590989353
 20
-115.151799830153
 30
0.0
 10
93.04341631788499
 20
-115.0207139469393
 30
0.0
 10
93.02446829271611
 20
-114.9128824582509
 30
0.0
 10
93.02446829271611
 20
-114.9128824582509
 30
0.0
 10
93.24667695151473
 20
-114.9128824582509
 30
0.0
 10
93.24667695151473
 20
-114.9128824582509
 30
0.0
 10
93.30179847927872
 20
-115.1116644677499
 30
0.0
 10
93.42857799313592
 20
-115.141292288923
 30
0.0
 10
93.52159557123765
 20
-115.141292288923
 30
0.0
 10
93.6614664479388
 20
-115.141292288923
 30
0.0
 10
93.81373966838684
 20
-115.0419012841736
 30
0.0
 10
93.81373966838684
 20
-114.8091850841449
 30
0.0
 10
93.81373966838684
 20
-114.5532144895909
 30
0.0
 10
93.6339056840568
 20
-114.4834513060146
 30
0.0
 10
93.51332734207305
 20
-114.4834513060146
 30
0.0
 10
93.48163246360876
 20
-114.4834513060146
 30
0.0
 10
93.33969452961647
 20
-114.4834513060146
 30
0.0
 10
93.25081106609703
 20
-114.6124701319372
 30
0.0
 10
93.25081106609703
 20
-114.6124701319372
 30
0.0
 10
93.07545570589781
 20
-114.593349851994
 30
0.0
 10
93.07545570589781
 20
-114.593349851994
 30
0.0
 10
93.07545570589781
 20
-114.593349851994
 30
0.0
 10
93.19603404788155
 20
-113.7472344008167
 30
0.0
 10
93.19603404788155
 20
-113.7472344008167
 30
0.0
 10
93.19603404788155
 20
-113.7472344008167
 30
0.0
 10
93.9742811179995
 20
-113.7472344008167
 30
0.0
 10
93.9742811179995
 20
-113.7472344008167
 30
0.0
 10
93.9742811179995
 20
-113.7472344008167
 30
0.0
 10
93.9742811179995
 20
-113.9418822957333
 30
0.0
 10
93.9742811179995
 20
-113.9418822957333
 30
0.0
 10
93.9742811179995
 20
-113.9418822957333
 30
0.0
 10
93.35864255478535
 20
-113.9418822957333
 30
0.0
 10
93.35864255478535
 20
-113.9418822957333
 30
0.0
 10
93.35864255478535
 20
-113.9418822957333
 30
0.0
 10
93.29318574056559
 20
-114.364940021322
 30
0.0
 10
93.29318574056559
 20
-114.364940021322
 30
0.0
 10
93.35450844020305
 20
-114.3310058307923
 30
0.0
 10
93.43719073184904
 20
-114.2908704683891
 30
0.0
 10
93.5553575069931
 20
-114.2908704683891
 30
0.0
 10
93.80926104425602
 20
-114.2908704683891
 30
0.0
 10
94.04628361364121
 20
-114.4770778793668
 30
0.0
 10
94.04628361364121
 20
-114.7900648042018
 30
0.0
 10
94.04628361364121
 20
-115.1075303531676
 30
0.0
 10
93.82200789755144
 20
-115.3423136104873
 30
0.0
 10
93.51952851394651
 20
-115.3423136104873
 30
0.0
  0
HATCH
  5
59
330
52
100
AcDbEntity
  8
_U+30EC_U+30A4_U+30E4_U+30FC 1
 62
   179
420
  2234388
100
AcDbHatch
 10
0.0
 20
0.0
 30
0.0
210
0.0
220
0.0
230
1.0
  2
SOLID
 70
     1
 71
     0
 91
        1
 92
        1
 93
        1
 72
     4
 94
        3
 73
     0
 74
     1
 95
       53
 96
       49
 40
0.0
 40
0.0
 40
0.0
 40
0.0
 40
1.0
 40
1.0
 40
1.0
 40
2.0
 40
2.0
 40
2.0
 40
3.0
 40
3.0
 40
3.0
 40
4.0
 40
4.0
 40
4.0
 40
5.0
 40
5.0
 40
5.0
 40
6.0
 40
6.0
 40
6.0
 40
7.0
 40
7.0
 40
7.0
 40
8.0
 40
8.0
 40
8.0
 40
9.0
 40
9.0
 40
9.0
 40
10.0
 40
10.0
 40
10.0
 40
11.0
 40
11.0
 40
11.0
 40
12.0
 40
12.0
 40
12.0
 40
13.0
 40
13.0
 40
13.0
 40
14.0
 40
14.0
 40
14.0
 40
15.0
 40
15.0
 40
15.0
 40
16.0
 40
16.0
 40
16.0
 40
16.0
 10
93.51952851394651
 20
-115.3423136104873
 10
93.44132484643134
 20
-115.3423136104873
 10
93.33969452961647
 20
-115.3252603878354
 10
93.2380642128016
 20
-115.2618706309068
 10
93.06477590989353
 20
-115.151799830153
 10
93.04341631788499
 20
-115.0207139469393
 10
93.02446829271611
 20
-114.9128824582509
 10
93.02446829271611
 20
-114.9128824582509
 10
93.24667695151473
 20
-114.9128824582509
 10
93.24667695151473
 20
-114.9128824582509
 10
93.30179847927872
 20
-115.1116644677499
 10
93.42857799313592
 20
-115.141292288923
 10
93.52159557123765
 20
-115.141292288923
 10
93.6614664479388
 20
-115.141292288923
 10
93.81373966838684
 20
-115.0419012841736
 10
93.81373966838684
 20
-114.8091850841449
 10
93.81373966838684
 20
-114.5532144895909
 10
93.6339056840568
 20
-114.4834513060146
 10
93.51332734207305
 20
-114.4834513060146
 10
93.48163246360876
 20
-114.4834513060146
 10
93.33969452961647
 20
-114.4834513060146
 10
93.25081106609703
 20
-114.6124701319372
 10
93.25081106609703
 20
-114.6124701319372
 10
93.07545570589781
 20
-114.593349851994
 10
93.07545570589781
 20
-114.593349851994
 10
93.07545570589781
 20
-114.593349851994
 10
93.19603404788155
 20
-113.7472344008167
 10
93.19603404788155
 20
-113.7472344008167
 10
93.19603404788155
 20
-113.7472344008167
 10
93.9742811179995
 20
-113.7472344008167
 10
93.9742811179995
 20
-113.7472344008167
 10
93.9742811179995
 20
-113.7472344008167
 10
93.9742811179995
 20
-113.9418822957333
 10
93.9742811179995
 20
-113.9418822957333
 10
93.9742811179995
 20
-113.9418822957333
 10
93.35864255478535
 20
-113.9418822957333
 10
93.35864255478535
 20
-113.9418822957333
 10
93.35864255478535
 20
-113.9418822957333
 10
93.29318574056559
 20
-114.364940021322
 10
93.29318574056559
 20
-114.364940021322
 10
93.35450844020305
 20
-114.3310058307923
 10
93.43719073184904
 20
-114.2908704683891
 10
93.5553575069931
 20
-114.2908704683891
 10
93.80926104425602
 20
-114.2908704683891
 10
94.04628361364121
 20
-114.4770778793668
 10
94.04628361364121
 20
-114.7900648042018
 10
94.04628361364121
 20
-115.1075303531676
 10
93.82200789755144
 20
-115.3423136104873
 10
93.51952851394651
 20
-115.3423136104873
 97
        0
 97
        0
 75
     2
 76
     1
 98
        0
  0
ENDBLK
  5
55
330
52
100
AcDbEntity
  8
0
100
AcDbBlockEnd
  0
BLOCK
  5
66
330
64
100
AcDbEntity
  8
0
100
AcDbBlockBegin
  2
block 3
 70
     0
 10
0.0
 20
0.0
 30
0.0
  3
block 3
  1

  0
SPLINE
  5
68
330
64
100
AcDbEntity
  8
_U+30EC_U+30A4_U+30E4_U+30FC 1
370
     0
100
AcDbSpline
210
0.0
220
0.0
230
1.0
 70
    11
 71
     3
 72
    44
 73
    40
 74
     0
 42
0.0000000001
 43
0.0000000001
 12
1.0
 22
0.0
 32
0.0
 13
1.0
 23
0.0
 33
0.0
 40
0.0
 40
0.0
 40
0.0
 40
0.0
 40
1.0
 40
1.0
 40
1.0
 40
2.0
 40
2.0
 40
2.0
 40
3.0
 40
3.0
 40
3.0
 40
4.0
 40
4.0
 40
4.0
 40
5.0
 40
5.0
 40
5.0
 40
6.0
 40
6.0
 40
6.0
 40
7.0
 40
7.0
 40
7.0
 40
8.0
 40
8.0
 40
8.0
 40
9.0
 40
9.0
 40
9.0
 40
10.0
 40
10.0
 40
10.0
 40
11.0
 40
11.0
 40
11.0
 40
12.0
 40
12.0
 40
12.0
 40
13.0
 40
13.0
 40
13.0
 40
13.0
 10
113.9224175062416
 20
-130.0165255751348
 30
0.0
 10
114.0812364081116
 20
-130.2342556098025
 30
0.0
 10
114.1553059610445
 20
-130.3272731879043
 30
0.0
 10
114.2989664427794
 20
-130.3761935437948
 30
0.0
 10
114.2989664427794
 20
-130.3761935437948
 30
0.0
 10
114.2989664427794
 20
-129.5976019641284
 30
0.0
 10
114.2989664427794
 20
-129.5976019641284
 30
0.0
 10
114.2989664427794
 20
-129.5976019641284
 30
0.0
 10
114.5042941337003
 20
-129.5976019641284
 30
0.0
 10
114.5042941337003
 20
-129.5976019641284
 30
0.0
 10
114.5042941337003
 20
-129.5976019641284
 30
0.0
 10
114.5042941337003
 20
-130.6256184569269
 30
0.0
 10
114.5042941337003
 20
-130.6256184569269
 30
0.0
 10
114.1466932223314
 20
-130.5939235784626
 30
0.0
 10
114.0684895548162
 20
-130.5284667642429
 30
0.0
 10
113.7701442857936
 20
-130.143305088992
 30
0.0
 10
113.5713622762947
 20
-129.8873344944379
 30
0.0
 10
113.5034938952352
 20
-129.8218776802181
 30
0.0
 10
113.3660345853738
 20
-129.8218776802181
 30
0.0
 10
113.2475233006812
 20
-129.8218776802181
 30
0.0
 10
113.1166096722417
 20
-129.8938801758599
 30
0.0
 10
113.1166096722417
 20
-130.0905951280676
 30
0.0
 10
113.1166096722417
 20
-130.350699837204
 30
0.0
 10
113.3470865602049
 20
-130.3589680663686
 30
0.0
 10
113.4635307876063
 20
-130.3634466904994
 30
0.0
 10
113.4635307876063
 20
-130.3634466904994
 30
0.0
 10
113.4635307876063
 20
-130.5877224065892
 30
0.0
 10
113.4635307876063
 20
-130.5877224065892
 30
0.0
 10
113.3364067642006
 20
-130.5791096678761
 30
0.0
 10
113.22444116093
 20
-130.5684298718718
 30
0.0
 10
113.1059298762374
 20
-130.4881591470655
 30
0.0
 10
112.9450439170762
 20
-130.378260601086
 30
0.0
 10
112.9112819813208
 20
-130.191880935334
 30
0.0
 10
112.9112819813208
 20
-130.0757812174811
 30
0.0
 10
112.9112819813208
 20
-129.7984510309184
 30
0.0
 10
113.0952500802331
 20
-129.5910562827064
 30
0.0
 10
113.3681016426649
 20
-129.5910562827064
 30
0.0
 10
113.5968559828855
 20
-129.5910562827064
 30
0.0
 10
113.6960747328607
 20
-129.7075005101078
 30
0.0
 10
113.9224175062416
 20
-130.0165255751348
 30
0.0
  0
HATCH
  5
69
330
64
100
AcDbEntity
  8
_U+30EC_U+30A4_U+30E4_U+30FC 1
 62
   179
420
  2234388
100
AcDbHatch
 10
0.0
 20
0.0
 30
0.0
210
0.0
220
0.0
230
1.0
  2
SOLID
 70
     1
 71
     0
 91
        1
 92
        1
 93
        1
 72
     4
 94
        3
 73
     0
 74
     1
 95
       44
 96
       40
 40
0.0
 40
0.0
 40
0.0
 40
0.0
 40
1.0
 40
1.0
 40
1.0
 40
2.0
 40
2.0
 40
2.0
 40
3.0
 40
3.0
 40
3.0
 40
4.0
 40
4.0
 40
4.0
 40
5.0
 40
5.0
 40
5.0
 40
6.0
 40
6.0
 40
6.0
 40
7.0
 40
7.0
 40
7.0
 40
8.0
 40
8.0
 40
8.0
 40
9.0
 40
9.0
 40
9.0
 40
10.0
 40
10.0
 40
10.0
 40
11.0
 40
11.0
 40
11.0
 40
12.0
 40
12.0
 40
12.0
 40
13.0
 40
13.0
 40
13.0
 40
13.0
 10
113.9224175062416
 20
-130.0165255751348
 10
114.0812364081116
 20
-130.2342556098025
 10
114.1553059610445
 20
-130.3272731879043
 10
114.2989664427794
 20
-130.3761935437948
 10
114.2989664427794
 20
-130.3761935437948
 10
114.2989664427794
 20
-129.5976019641284
 10
114.2989664427794
 20
-129.5976019641284
 10
114.2989664427794
 20
-129.5976019641284
 10
114.5042941337003
 20
-129.5976019641284
 10
114.5042941337003
 20
-129.5976019641284
 10
114.5042941337003
 20
-129.5976019641284
 10
114.5042941337003
 20
-130.6256184569269
 10
114.5042941337003
 20
-130.6256184569269
 10
114.1466932223314
 20
-130.5939235784626
 10
114.0684895548162
 20
-130.5284667642429
 10
113.7701442857936
 20
-130.143305088992
 10
113.5713622762947
 20
-129.8873344944379
 10
113.5034938952352
 20
-129.8218776802181
 10
113.3660345853738
 20
-129.8218776802181
 10
113.2475233006812
 20
-129.8218776802181
 10
113.1166096722417
 20
-129.8938801758599
 10
113.1166096722417
 20
-130.0905951280676
 10
113.1166096722417
 20
-130.350699837204
 10
113.3470865602049
 20
-130.3589680663686
 10
113.4635307876063
 20
-130.3634466904994
 10
113.4635307876063
 20
-130.3634466904994
 10
113.4635307876063
 20
-130.5877224065892
 10
113.4635307876063
 20
-130.5877224065892
 10
113.3364067642006
 20
-130.5791096678761
 10
113.22444116093
 20
-130.5684298718718
 10
113.1059298762374
 20
-130.4881591470655
 10
112.9450439170762
 20
-130.378260601086
 10
112.9112819813208
 20
-130.191880935334
 10
112.9112819813208
 20
-130.0757812174811
 10
112.9112819813208
 20
-129.7984510309184
 10
113.0952500802331
 20
-129.5910562827064
 10
113.3681016426649
 20
-129.5910562827064
 10
113.5968559828855
 20
-129.5910562827064
 10
113.6960747328607
 20
-129.7075005101078
 10
113.9224175062416
 20
-130.0165255751348
 97
        0
 97
        0
 75
     2
 76
     1
 98
        0
  0
POLYLINE
  5
6A
330
64
100
AcDbEntity
  8
_U+30EC_U+30A4_U+30E4_U+30FC 1
370
     0
100
AcDb2dPolyline
 66
     1
 10
0.0
 20
0.0
 30
0.0
  0
VERTEX
  5
6B
330
6A
100
AcDbEntity
  8
_U+30EC_U+30A4_U+30E4_U+30FC 1
370
     0
100
AcDbVertex
100
AcDb2dVertex
 10
114.5042941337003
 20
-129.3726372289416
 30
0.0
  0
VERTEX
  5
6C
330
6A
100
AcDbEntity
  8
_U+30EC_U+30A4_U+30E4_U+30FC 1
370
     0
100
AcDbVertex
100
AcDb2dVertex
 10
114.2524576537286
 20
-129.3726372289416
 30
0.0
  0
VERTEX
  5
6D
330
6A
100
AcDbEntity
  8
_U+30EC_U+30A4_U+30E4_U+30FC 1
370
     0
100
AcDbVertex
100
AcDb2dVertex
 10
114.2524576537286
 20
-129.1208007489698
 30
0.0
  0
VERTEX
  5
6E
330
6A
100
AcDbEntity
  8
_U+30EC_U+30A4_U+30E4_U+30FC 1
370
     0
100
AcDbVertex
100
AcDb2dVertex
 10
114.5042941337003
 20
-129.1208007489698
 30
0.0
  0
VERTEX
  5
6F
330
6A
100
AcDbEntity
  8
_U+30EC_U+30A4_U+30E4_U+30FC 1
370
     0
100
AcDbVertex
100
AcDb2dVertex
 10
114.5042941337003
 20
-129.3726372289416
 30
0.0
  0
SEQEND
  5
70
330
6A
100
AcDbEntity
  8
_U+30EC_U+30A4_U+30E4_U+30FC 1
370
     0
  0
HATCH
  5
71
330
64
100
AcDbEntity
  8
_U+30EC_U+30A4_U+30E4_U+30FC 1
 62
   179
420
  2234388
100
AcDbHatch
 10
0.0
 20
0.0
 30
0.0
210
0.0
220
0.0
230
1.0
  2
SOLID
 70
     1
 71
     0
 91
        1
 92
        1
 93
        4
 72
     1
 10
114.5042941337003
 20
-129.3726372289416
 11
114.2524576537286
 21
-129.3726372289416
 72
     1
 10
114.2524576537286
 20
-129.3726372289416
 11
114.2524576537286
 21
-129.1208007489698
 72
     1
 10
114.2524576537286
 20
-129.1208007489698
 11
114.5042941337003
 21
-129.1208007489698
 72
     1
 10
114.5042941337003
 20
-129.1208007489698
 11
114.5042941337003
 21
-129.3726372289416
 97
        0
 75
     2
 76
     1
 98
        0
  0
SPLINE
  5
72
330
64
100
AcDbEntity
  8
_U+30EC_U+30A4_U+30E4_U+30FC 1
370
     0
100
AcDbSpline
210
0.0
220
0.0
230
1.0
 70
    11
 71
     3
 72
    53
 73
    49
 74
     0
 42
0.0000000001
 43
0.0000000001
 12
1.0
 22
0.0
 32
0.0
 13
1.0
 23
0.0
 33
0.0
 40
0.0
 40
0.0
 40
0.0
 40
0.0
 40
1.0
 40
1.0
 40
1.0
 40
2.0
 40
2.0
 40
2.0
 40
3.0
 40
3.0
 40
3.0
 40
4.0
 40
4.0
 40
4.0
 40
5.0
 40
5.0
 40
5.0
 40
6.0
 40
6.0
 40
6.0
 40
7.0
 40
7.0
 40
7.0
 40
8.0
 40
8.0
 40
8.0
 40
9.0
 40
9.0
 40
9.0
 40
10.0
 40
10.0
 40
10.0
 40
11.0
 40
11.0
 40
11.0
 40
12.0
 40
12.0
 40
12.0
 40
13.0
 40
13.0
 40
13.0
 40
14.0
 40
14.0
 40
14.0
 40
15.0
 40
15.0
 40
15.0
 40
16.0
 40
16.0
 40
16.0
 40
16.0
 10
114.5549370373335
 20
-128.4035318689408
 30
0.0
 10
114.5549370373335
 20
-128.481735536456
 30
0.0
 10
114.5380560694558
 20
-128.5833658532708
 30
0.0
 10
114.4746663125272
 20
-128.6849961700857
 30
0.0
 10
114.3647677665477
 20
-128.8582844729938
 30
0.0
 10
114.2335096285597
 20
-128.8796440650023
 30
0.0
 10
114.1256781398714
 20
-128.8985920901712
 30
0.0
 10
114.1256781398714
 20
-128.8985920901712
 30
0.0
 10
114.1256781398714
 20
-128.6763834313726
 30
0.0
 10
114.1256781398714
 20
-128.6763834313726
 30
0.0
 10
114.3244601493703
 20
-128.6216064131571
 30
0.0
 10
114.3540879705434
 20
-128.4944823897514
 30
0.0
 10
114.3540879705434
 20
-128.4014648116496
 30
0.0
 10
114.3540879705434
 20
-128.261938444497
 30
0.0
 10
114.2545247110197
 20
-128.109665224049
 30
0.0
 10
114.0219807657653
 20
-128.109665224049
 30
0.0
 10
113.7660101712113
 20
-128.109665224049
 30
0.0
 10
113.6960747328607
 20
-128.289499208379
 30
0.0
 10
113.6960747328607
 20
-128.4100775503628
 30
0.0
 10
113.6960747328607
 20
-128.4417724288271
 30
0.0
 10
113.6960747328607
 20
-128.5833658532708
 30
0.0
 10
113.8252658135576
 20
-128.6722493167903
 30
0.0
 10
113.8252658135576
 20
-128.6722493167903
 30
0.0
 10
113.8063177883887
 20
-128.847949186538
 30
0.0
 10
113.8063177883887
 20
-128.847949186538
 30
0.0
 10
113.8063177883887
 20
-128.847949186538
 30
0.0
 10
112.9598578276628
 20
-128.7273708445543
 30
0.0
 10
112.9598578276628
 20
-128.7273708445543
 30
0.0
 10
112.9598578276628
 20
-128.7273708445543
 30
0.0
 10
112.9598578276628
 20
-127.9487792648878
 30
0.0
 10
112.9598578276628
 20
-127.9487792648878
 30
0.0
 10
112.9598578276628
 20
-127.9487792648878
 30
0.0
 10
113.1545057225794
 20
-127.9487792648878
 30
0.0
 10
113.1545057225794
 20
-127.9487792648878
 30
0.0
 10
113.1545057225794
 20
-127.9487792648878
 30
0.0
 10
113.1545057225794
 20
-128.564417828102
 30
0.0
 10
113.1545057225794
 20
-128.564417828102
 30
0.0
 10
113.1545057225794
 20
-128.564417828102
 30
0.0
 10
113.5775634481681
 20
-128.6298746423217
 30
0.0
 10
113.5775634481681
 20
-128.6298746423217
 30
0.0
 10
113.5438015124127
 20
-128.5685519426843
 30
0.0
 10
113.5034938952352
 20
-128.4862141605868
 30
0.0
 10
113.5034938952352
 20
-128.3677028758942
 30
0.0
 10
113.5034938952352
 20
-128.1137993386313
 30
0.0
 10
113.6898735609873
 20
-127.8767767692461
 30
0.0
 10
114.0030327405965
 20
-127.8767767692461
 30
0.0
 10
114.320326034788
 20
-127.8767767692461
 30
0.0
 10
114.5549370373335
 20
-128.1010524853359
 30
0.0
 10
114.5549370373335
 20
-128.4035318689408
 30
0.0
  0
HATCH
  5
73
330
64
100
AcDbEntity
  8
_U+30EC_U+30A4_U+30E4_U+30FC 1
 62
   179
420
  2234388
100
AcDbHatch
 10
0.0
 20
0.0
 30
0.0
210
0.0
220
0.0
230
1.0
  2
SOLID
 70
     1
 71
     0
 91
        1
 92
        1
 93
        1
 72
     4
 94
        3
 73
     0
 74
     1
 95
       53
 96
       49
 40
0.0
 40
0.0
 40
0.0
 40
0.0
 40
1.0
 40
1.0
 40
1.0
 40
2.0
 40
2.0
 40
2.0
 40
3.0
 40
3.0
 40
3.0
 40
4.0
 40
4.0
 40
4.0
 40
5.0
 40
5.0
 40
5.0
 40
6.0
 40
6.0
 40
6.0
 40
7.0
 40
7.0
 40
7.0
 40
8.0
 40
8.0
 40
8.0
 40
9.0
 40
9.0
 40
9.0
 40
10.0
 40
10.0
 40
10.0
 40
11.0
 40
11.0
 40
11.0
 40
12.0
 40
12.0
 40
12.0
 40
13.0
 40
13.0
 40
13.0
 40
14.0
 40
14.0
 40
14.0
 40
15.0
 40
15.0
 40
15.0
 40
16.0
 40
16.0
 40
16.0
 40
16.0
 10
114.5549370373335
 20
-128.4035318689408
 10
114.5549370373335
 20
-128.481735536456
 10
114.5380560694558
 20
-128.5833658532708
 10
114.4746663125272
 20
-128.6849961700857
 10
114.3647677665477
 20
-128.8582844729938
 10
114.2335096285597
 20
-128.8796440650023
 10
114.1256781398714
 20
-128.8985920901712
 10
114.1256781398714
 20
-128.8985920901712
 10
114.1256781398714
 20
-128.6763834313726
 10
114.1256781398714
 20
-128.6763834313726
 10
114.3244601493703
 20
-128.6216064131571
 10
114.3540879705434
 20
-128.4944823897514
 10
114.3540879705434
 20
-128.4014648116496
 10
114.3540879705434
 20
-128.261938444497
 10
114.2545247110197
 20
-128.109665224049
 10
114.0219807657653
 20
-128.109665224049
 10
113.7660101712113
 20
-128.109665224049
 10
113.6960747328607
 20
-128.289499208379
 10
113.6960747328607
 20
-128.4100775503628
 10
113.6960747328607
 20
-128.4417724288271
 10
113.6960747328607
 20
-128.5833658532708
 10
113.8252658135576
 20
-128.6722493167903
 10
113.8252658135576
 20
-128.6722493167903
 10
113.8063177883887
 20
-128.847949186538
 10
113.8063177883887
 20
-128.847949186538
 10
113.8063177883887
 20
-128.847949186538
 10
112.9598578276628
 20
-128.7273708445543
 10
112.9598578276628
 20
-128.7273708445543
 10
112.9598578276628
 20
-128.7273708445543
 10
112.9598578276628
 20
-127.9487792648878
 10
112.9598578276628
 20
-127.9487792648878
 10
112.9598578276628
 20
-127.9487792648878
 10
113.1545057225794
 20
-127.9487792648878
 10
113.1545057225794
 20
-127.9487792648878
 10
113.1545057225794
 20
-127.9487792648878
 10
113.1545057225794
 20
-128.564417828102
 10
113.1545057225794
 20
-128.564417828102
 10
113.1545057225794
 20
-128.564417828102
 10
113.5775634481681
 20
-128.6298746423217
 10
113.5775634481681
 20
-128.6298746423217
 10
113.5438015124127
 20
-128.5685519426843
 10
113.5034938952352
 20
-128.4862141605868
 10
113.5034938952352
 20
-128.3677028758942
 10
113.5034938952352
 20
-128.1137993386313
 10
113.6898735609873
 20
-127.8767767692461
 10
114.0030327405965
 20
-127.8767767692461
 10
114.320326034788
 20
-127.8767767692461
 10
114.5549370373335
 20
-128.1010524853359
 10
114.5549370373335
 20
-128.4035318689408
 97
        0
 97
        0
 75
     2
 76
     1
 98
        0
  0
ENDBLK
  5
67
330
64
100
AcDbEntity
  8
0
100
AcDbBlockEnd
  0
BLOCK
  5
84
330
82
100
AcDbEntity
  8
0
100
AcDbBlockBegin
  2
block 4
 70
     0
 10
0.0
 20
0.0
 30
0.0
  3
block 4
  1

  0
SPLINE
  5
86
330
82
100
AcDbEntity
  8
_U+30EC_U+30A4_U+30E4_U+30FC 1
370
     0
100
AcDbSpline
210
0.0
220
0.0
230
1.0
 70
    11
 71
     3
 72
    26
 73
    22
 74
     0
 42
0.0000000001
 43
0.0000000001
 12
1.0
 22
0.0
 32
0.0
 13
1.0
 23
0.0
 33
0.0
 40
0.0
 40
0.0
 40
0.0
 40
0.0
 40
1.0
 40
1.0
 40
1.0
 40
2.0
 40
2.0
 40
2.0
 40
3.0
 40
3.0
 40
3.0
 40
4.0
 40
4.0
 40
4.0
 40
5.0
 40
5.0
 40
5.0
 40
6.0
 40
6.0
 40
6.0
 40
7.0
 40
7.0
 40
7.0
 40
7.0
 10
103.4913573960022
 20
-131.8999592769208
 30
0.0
 10
103.4913573960022
 20
-131.8999592769208
 30
0.0
 10
103.4913573960022
 20
-130.7958061738983
 30
0.0
 10
103.4913573960022
 20
-130.7958061738983
 30
0.0
 10
103.4913573960022
 20
-130.7958061738983
 30
0.0
 10
103.1613172485152
 20
-130.7958061738983
 30
0.0
 10
103.1613172485152
 20
-130.7958061738983
 30
0.0
 10
103.1613172485152
 20
-130.7958061738983
 30
0.0
 10
103.1613172485152
 20
-130.6476670680325
 30
0.0
 10
103.1613172485152
 20
-130.6476670680325
 30
0.0
 10
103.4934244532933
 20
-130.632853157446
 30
0.0
 10
103.5399332423442
 20
-130.4699001409936
 30
0.0
 10
103.5695610635173
 20
-130.3555229708834
 30
0.0
 10
103.5695610635173
 20
-130.3555229708834
 30
0.0
 10
103.7156331120919
 20
-130.3555229708834
 30
0.0
 10
103.7156331120919
 20
-130.3555229708834
 30
0.0
 10
103.7156331120919
 20
-130.3555229708834
 30
0.0
 10
103.7156331120919
 20
-131.8999592769208
 30
0.0
 10
103.7156331120919
 20
-131.8999592769208
 30
0.0
 10
103.7156331120919
 20
-131.8999592769208
 30
0.0
 10
103.4913573960022
 20
-131.8999592769208
 30
0.0
 10
103.4913573960022
 20
-131.8999592769208
 30
0.0
  0
HATCH
  5
87
330
82
100
AcDbEntity
  8
_U+30EC_U+30A4_U+30E4_U+30FC 1
 62
   179
420
  2234388
100
AcDbHatch
 10
0.0
 20
0.0
 30
0.0
210
0.0
220
0.0
230
1.0
  2
SOLID
 70
     1
 71
     0
 91
        1
 92
        1
 93
        1
 72
     4
 94
        3
 73
     0
 74
     1
 95
       26
 96
       22
 40
0.0
 40
0.0
 40
0.0
 40
0.0
 40
1.0
 40
1.0
 40
1.0
 40
2.0
 40
2.0
 40
2.0
 40
3.0
 40
3.0
 40
3.0
 40
4.0
 40
4.0
 40
4.0
 40
5.0
 40
5.0
 40
5.0
 40
6.0
 40
6.0
 40
6.0
 40
7.0
 40
7.0
 40
7.0
 40
7.0
 10
103.4913573960022
 20
-131.8999592769208
 10
103.4913573960022
 20
-131.8999592769208
 10
103.4913573960022
 20
-130.7958061738983
 10
103.4913573960022
 20
-130.7958061738983
 10
103.4913573960022
 20
-130.7958061738983
 10
103.1613172485152
 20
-130.7958061738983
 10
103.1613172485152
 20
-130.7958061738983
 10
103.1613172485152
 20
-130.7958061738983
 10
103.1613172485152
 20
-130.6476670680325
 10
103.1613172485152
 20
-130.6476670680325
 10
103.4934244532933
 20
-130.632853157446
 10
103.5399332423442
 20
-130.4699001409936
 10
103.5695610635173
 20
-130.3555229708834
 10
103.5695610635173
 20
-130.3555229708834
 10
103.7156331120919
 20
-130.3555229708834
 10
103.7156331120919
 20
-130.3555229708834
 10
103.7156331120919
 20
-130.3555229708834
 10
103.7156331120919
 20
-131.8999592769208
 10
103.7156331120919
 20
-131.8999592769208
 10
103.7156331120919
 20
-131.8999592769208
 10
103.4913573960022
 20
-131.8999592769208
 10
103.4913573960022
 20
-131.8999592769208
 97
        0
 97
        0
 75
     2
 76
     1
 98
        0
  0
SPLINE
  5
88
330
82
100
AcDbEntity
  8
_U+30EC_U+30A4_U+30E4_U+30FC 1
370
     0
100
AcDbSpline
210
0.0
220
0.0
230
1.0
 70
    11
 71
     3
 72
    44
 73
    40
 74
     0
 42
0.0000000001
 43
0.0000000001
 12
1.0
 22
0.0
 32
0.0
 13
1.0
 23
0.0
 33
0.0
 40
0.0
 40
0.0
 40
0.0
 40
0.0
 40
1.0
 40
1.0
 40
1.0
 40
2.0
 40
2.0
 40
2.0
 40
3.0
 40
3.0
 40
3.0
 40
4.0
 40
4.0
 40
4.0
 40
5.0
 40
5.0
 40
5.0
 40
6.0
 40
6.0
 40
6.0
 40
7.0
 40
7.0
 40
7.0
 40
8.0
 40
8.0
 40
8.0
 40
9.0
 40
9.0
 40
9.0
 40
10.0
 40
10.0
 40
10.0
 40
11.0
 40
11.0
 40
11.0
 40
12.0
 40
12.0
 40
12.0
 40
13.0
 40
13.0
 40
13.0
 40
13.0
 10
104.8097954382073
 20
-131.3180826494622
 30
0.0
 10
104.5920654035395
 20
-131.4769015513322
 30
0.0
 10
104.4990478254377
 20
-131.550971104265
 30
0.0
 10
104.4501274695472
 20
-131.694631586
 30
0.0
 10
104.4501274695472
 20
-131.694631586
 30
0.0
 10
105.2287190492137
 20
-131.694631586
 30
0.0
 10
105.2287190492137
 20
-131.694631586
 30
0.0
 10
105.2287190492137
 20
-131.694631586
 30
0.0
 10
105.2287190492137
 20
-131.8999592769208
 30
0.0
 10
105.2287190492137
 20
-131.8999592769208
 30
0.0
 10
105.2287190492137
 20
-131.8999592769208
 30
0.0
 10
104.2007025564151
 20
-131.8999592769208
 30
0.0
 10
104.2007025564151
 20
-131.8999592769208
 30
0.0
 10
104.2323974348794
 20
-131.5423583655519
 30
0.0
 10
104.2978542490991
 20
-131.4641546980367
 30
0.0
 10
104.6830159243501
 20
-131.1658094290141
 30
0.0
 10
104.9389865189041
 20
-130.9670274195152
 30
0.0
 10
105.0044433331239
 20
-130.8991590384558
 30
0.0
 10
105.0044433331239
 20
-130.7616997285943
 30
0.0
 10
105.0044433331239
 20
-130.6431884439017
 30
0.0
 10
104.9324408374822
 20
-130.5122748154622
 30
0.0
 10
104.7357258852744
 20
-130.5122748154622
 30
0.0
 10
104.475621176138
 20
-130.5122748154622
 30
0.0
 10
104.4670084374249
 20
-130.7427517034254
 30
0.0
 10
104.4628743228426
 20
-130.8591959308269
 30
0.0
 10
104.4628743228426
 20
-130.8591959308269
 30
0.0
 10
104.2385986067529
 20
-130.8591959308269
 30
0.0
 10
104.2385986067529
 20
-130.8591959308269
 30
0.0
 10
104.247211345466
 20
-130.7320719074212
 30
0.0
 10
104.2578911414703
 20
-130.6201063041505
 30
0.0
 10
104.3381618662766
 20
-130.5015950194579
 30
0.0
 10
104.448060412256
 20
-130.3407090602968
 30
0.0
 10
104.6344400780081
 20
-130.3069471245413
 30
0.0
 10
104.750539795861
 20
-130.3069471245413
 30
0.0
 10
105.0278699824236
 20
-130.3069471245413
 30
0.0
 10
105.2352647306356
 20
-130.4909152234537
 30
0.0
 10
105.2352647306356
 20
-130.7637667858855
 30
0.0
 10
105.2352647306356
 20
-130.9925211261061
 30
0.0
 10
105.1188205032342
 20
-131.0917398760812
 30
0.0
 10
104.8097954382073
 20
-131.3180826494622
 30
0.0
  0
HATCH
  5
89
330
82
100
AcDbEntity
  8
_U+30EC_U+30A4_U+30E4_U+30FC 1
 62
   179
420
  2234388
100
AcDbHatch
 10
0.0
 20
0.0
 30
0.0
210
0.0
220
0.0
230
1.0
  2
SOLID
 70
     1
 71
     0
 91
        1
 92
        1
 93
        1
 72
     4
 94
        3
 73
     0
 74
     1
 95
       44
 96
       40
 40
0.0
 40
0.0
 40
0.0
 40
0.0
 40
1.0
 40
1.0
 40
1.0
 40
2.0
 40
2.0
 40
2.0
 40
3.0
 40
3.0
 40
3.0
 40
4.0
 40
4.0
 40
4.0
 40
5.0
 40
5.0
 40
5.0
 40
6.0
 40
6.0
 40
6.0
 40
7.0
 40
7.0
 40
7.0
 40
8.0
 40
8.0
 40
8.0
 40
9.0
 40
9.0
 40
9.0
 40
10.0
 40
10.0
 40
10.0
 40
11.0
 40
11.0
 40
11.0
 40
12.0
 40
12.0
 40
12.0
 40
13.0
 40
13.0
 40
13.0
 40
13.0
 10
104.8097954382073
 20
-131.3180826494622
 10
104.5920654035395
 20
-131.4769015513322
 10
104.4990478254377
 20
-131.550971104265
 10
104.4501274695472
 20
-131.694631586
 10
104.4501274695472
 20
-131.694631586
 10
105.2287190492137
 20
-131.694631586
 10
105.2287190492137
 20
-131.694631586
 10
105.2287190492137
 20
-131.694631586
 10
105.2287190492137
 20
-131.8999592769208
 10
105.2287190492137
 20
-131.8999592769208
 10
105.2287190492137
 20
-131.8999592769208
 10
104.2007025564151
 20
-131.8999592769208
 10
104.2007025564151
 20
-131.8999592769208
 10
104.2323974348794
 20
-131.5423583655519
 10
104.2978542490991
 20
-131.4641546980367
 10
104.6830159243501
 20
-131.1658094290141
 10
104.9389865189041
 20
-130.9670274195152
 10
105.0044433331239
 20
-130.8991590384558
 10
105.0044433331239
 20
-130.7616997285943
 10
105.0044433331239
 20
-130.6431884439017
 10
104.9324408374822
 20
-130.5122748154622
 10
104.7357258852744
 20
-130.5122748154622
 10
104.475621176138
 20
-130.5122748154622
 10
104.4670084374249
 20
-130.7427517034254
 10
104.4628743228426
 20
-130.8591959308269
 10
104.4628743228426
 20
-130.8591959308269
 10
104.2385986067529
 20
-130.8591959308269
 10
104.2385986067529
 20
-130.8591959308269
 10
104.247211345466
 20
-130.7320719074212
 10
104.2578911414703
 20
-130.6201063041505
 10
104.3381618662766
 20
-130.5015950194579
 10
104.448060412256
 20
-130.3407090602968
 10
104.6344400780081
 20
-130.3069471245413
 10
104.750539795861
 20
-130.3069471245413
 10
105.0278699824236
 20
-130.3069471245413
 10
105.2352647306356
 20
-130.4909152234537
 10
105.2352647306356
 20
-130.7637667858855
 10
105.2352647306356
 20
-130.9925211261061
 10
105.1188205032342
 20
-131.0917398760812
 10
104.8097954382073
 20
-131.3180826494622
 97
        0
 97
        0
 75
     2
 76
     1
 98
        0
  0
ENDBLK
  5
85
330
82
100
AcDbEntity
  8
0
100
AcDbBlockEnd
  0
BLOCK
  5
9E
330
9C
100
AcDbEntity
  8
0
100
AcDbBlockBegin
  2
block 5
 70
     0
 10
0.0
 20
0.0
 30
0.0
  3
block 5
  1

  0
SPLINE
  5
A0
330
9C
100
AcDbEntity
  8
_U+30EC_U+30A4_U+30E4_U+30FC 1
370
     0
100
AcDbSpline
210
0.0
220
0.0
230
1.0
 70
    11
 71
     3
 72
    26
 73
    22
 74
     0
 42
0.0000000001
 43
0.0000000001
 12
1.0
 22
0.0
 32
0.0
 13
1.0
 23
0.0
 33
0.0
 40
0.0
 40
0.0
 40
0.0
 40
0.0
 40
1.0
 40
1.0
 40
1.0
 40
2.0
 40
2.0
 40
2.0
 40
3.0
 40
3.0
 40
3.0
 40
4.0
 40
4.0
 40
4.0
 40
5.0
 40
5.0
 40
5.0
 40
6.0
 40
6.0
 40
6.0
 40
7.0
 40
7.0
 40
7.0
 40
7.0
 10
72.91475692621576
 20
-133.6586805221409
 30
0.0
 10
72.91475692621576
 20
-133.6586805221409
 30
0.0
 10
71.81060382319319
 20
-133.6586805221409
 30
0.0
 10
71.81060382319319
 20
-133.6586805221409
 30
0.0
 10
71.81060382319319
 20
-133.6586805221409
 30
0.0
 10
71.81060382319319
 20
-133.9887206696278
 30
0.0
 10
71.81060382319319
 20
-133.9887206696278
 30
0.0
 10
71.81060382319319
 20
-133.9887206696278
 30
0.0
 10
71.66246471732744
 20
-133.9887206696278
 30
0.0
 10
71.66246471732744
 20
-133.9887206696278
 30
0.0
 10
71.64765080674087
 20
-133.6566134648498
 30
0.0
 10
71.48469779028855
 20
-133.6101046757989
 30
0.0
 10
71.37032062017826
 20
-133.5804768546257
 30
0.0
 10
71.37032062017826
 20
-133.5804768546257
 30
0.0
 10
71.37032062017826
 20
-133.4344048060511
 30
0.0
 10
71.37032062017826
 20
-133.4344048060511
 30
0.0
 10
71.37032062017826
 20
-133.4344048060511
 30
0.0
 10
72.91475692621576
 20
-133.4344048060511
 30
0.0
 10
72.91475692621576
 20
-133.4344048060511
 30
0.0
 10
72.91475692621576
 20
-133.4344048060511
 30
0.0
 10
72.91475692621576
 20
-133.6586805221409
 30
0.0
 10
72.91475692621576
 20
-133.6586805221409
 30
0.0
  0
HATCH
  5
A1
330
9C
100
AcDbEntity
  8
_U+30EC_U+30A4_U+30E4_U+30FC 1
 62
   179
420
  2234388
100
AcDbHatch
 10
0.0
 20
0.0
 30
0.0
210
0.0
220
0.0
230
1.0
  2
SOLID
 70
     1
 71
     0
 91
        1
 92
        1
 93
        1
 72
     4
 94
        3
 73
     0
 74
     1
 95
       26
 96
       22
 40
0.0
 40
0.0
 40
0.0
 40
0.0
 40
1.0
 40
1.0
 40
1.0
 40
2.0
 40
2.0
 40
2.0
 40
3.0
 40
3.0
 40
3.0
 40
4.0
 40
4.0
 40
4.0
 40
5.0
 40
5.0
 40
5.0
 40
6.0
 40
6.0
 40
6.0
 40
7.0
 40
7.0
 40
7.0
 40
7.0
 10
72.91475692621576
 20
-133.6586805221409
 10
72.91475692621576
 20
-133.6586805221409
 10
71.81060382319319
 20
-133.6586805221409
 10
71.81060382319319
 20
-133.6586805221409
 10
71.81060382319319
 20
-133.6586805221409
 10
71.81060382319319
 20
-133.9887206696278
 10
71.81060382319319
 20
-133.9887206696278
 10
71.81060382319319
 20
-133.9887206696278
 10
71.66246471732744
 20
-133.9887206696278
 10
71.66246471732744
 20
-133.9887206696278
 10
71.64765080674087
 20
-133.6566134648498
 10
71.48469779028855
 20
-133.6101046757989
 10
71.37032062017826
 20
-133.5804768546257
 10
71.37032062017826
 20
-133.5804768546257
 10
71.37032062017826
 20
-133.4344048060511
 10
71.37032062017826
 20
-133.4344048060511
 10
71.37032062017826
 20
-133.4344048060511
 10
72.91475692621576
 20
-133.4344048060511
 10
72.91475692621576
 20
-133.4344048060511
 10
72.91475692621576
 20
-133.4344048060511
 10
72.91475692621576
 20
-133.6586805221409
 10
72.91475692621576
 20
-133.6586805221409
 97
        0
 97
        0
 75
     2
 76
     1
 98
        0
  0
SPLINE
  5
A2
330
9C
100
AcDbEntity
  8
_U+30EC_U+30A4_U+30E4_U+30FC 1
370
     0
100
AcDbSpline
210
0.0
220
0.0
230
1.0
 70
    11
 71
     3
 72
    62
 73
    58
 74
     0
 42
0.0000000001
 43
0.0000000001
 12
1.0
 22
0.0
 32
0.0
 13
1.0
 23
0.0
 33
0.0
 40
0.0
 40
0.0
 40
0.0
 40
0.0
 40
1.0
 40
1.0
 40
1.0
 40
2.0
 40
2.0
 40
2.0
 40
3.0
 40
3.0
 40
3.0
 40
4.0
 40
4.0
 40
4.0
 40
5.0
 40
5.0
 40
5.0
 40
6.0
 40
6.0
 40
6.0
 40
7.0
 40
7.0
 40
7.0
 40
8.0
 40
8.0
 40
8.0
 40
9.0
 40
9.0
 40
9.0
 40
10.0
 40
10.0
 40
10.0
 40
11.0
 40
11.0
 40
11.0
 40
12.0
 40
12.0
 40
12.0
 40
13.0
 40
13.0
 40
13.0
 40
14.0
 40
14.0
 40
14.0
 40
15.0
 40
15.0
 40
15.0
 40
16.0
 40
16.0
 40
16.0
 40
17.0
 40
17.0
 40
17.0
 40
18.0
 40
18.0
 40
18.0
 40
19.0
 40
19.0
 40
19.0
 40
19.0
 10
72.96539982984893
 20
-132.4415282872021
 30
0.0
 10
72.96539982984893
 20
-132.5369574321435
 30
0.0
 10
72.94438474738891
 20
-132.7546874668113
 30
0.0
 10
72.75834959118542
 20
-132.8797444329259
 30
0.0
 10
72.64603947836628
 20
-132.9538139858588
 30
0.0
 10
72.54682072839108
 20
-132.9579481004411
 30
0.0
 10
72.46207137945393
 20
-132.9620822150234
 30
0.0
 10
72.46207137945393
 20
-132.9620822150234
 30
0.0
 10
72.46207137945393
 20
-132.7419406135159
 30
0.0
 10
72.46207137945393
 20
-132.7419406135159
 30
0.0
 10
72.5361409323868
 20
-132.7398735562248
 30
0.0
 10
72.77075193493232
 20
-132.729538269769
 30
0.0
 10
72.77075193493232
 20
-132.4460069113329
 30
0.0
 10
72.77075193493232
 20
-132.3085476014715
 30
0.0
 10
72.70116100613026
 20
-132.1559298714749
 30
0.0
 10
72.4727511754582
 20
-132.1559298714749
 30
0.0
 10
72.35630694805675
 20
-132.1559298714749
 30
0.0
 10
72.30773110171474
 20
-132.1941704313612
 30
0.0
 10
72.27603622325044
 20
-132.2258653098255
 30
0.0
 10
72.20196667031756
 20
-132.2999348627584
 30
0.0
 10
72.18921981702215
 20
-132.4163790901598
 30
0.0
 10
72.18921981702215
 20
-132.4711561083753
 30
0.0
 10
72.18921981702215
 20
-132.4904486430927
 30
0.0
 10
72.19128687431329
 20
-132.5262776361393
 30
0.0
 10
72.19542098889559
 20
-132.5538384000213
 30
0.0
 10
72.19542098889559
 20
-132.5538384000213
 30
0.0
 10
72.00077309397898
 20
-132.5538384000213
 30
0.0
 10
72.00077309397898
 20
-132.5538384000213
 30
0.0
 10
72.00731877540095
 20
-132.515597840135
 30
0.0
 10
72.0093858326921
 20
-132.473567675215
 30
0.0
 10
72.0093858326921
 20
-132.467021993793
 30
0.0
 10
72.0093858326921
 20
-132.4015651795732
 30
0.0
 10
71.98802624068355
 20
-132.2027831700743
 30
0.0
 10
71.75134818084689
 20
-132.2027831700743
 30
0.0
 10
71.573581253808
 20
-132.2027831700743
 30
0.0
 10
71.518459726044
 20
-132.3336967985138
 30
0.0
 10
71.518459726044
 20
-132.4439398540418
 30
0.0
 10
71.518459726044
 20
-132.7081786777605
 30
0.0
 10
71.75134818084689
 20
-132.7167914164736
 30
0.0
 10
71.82300616694009
 20
-132.7209255310559
 30
0.0
 10
71.82300616694009
 20
-132.7209255310559
 30
0.0
 10
71.82300616694009
 20
-132.9241861646856
 30
0.0
 10
71.82300616694009
 20
-132.9241861646856
 30
0.0
 10
71.69829371037405
 20
-132.9155734259725
 30
0.0
 10
71.32174477383623
 20
-132.8880126620905
 30
0.0
 10
71.32174477383623
 20
-132.4311930007464
 30
0.0
 10
71.32174477383623
 20
-132.2069172846566
 30
0.0
 10
71.44886879724196
 20
-131.9657606006891
 30
0.0
 10
71.7448024994249
 20
-131.9657606006891
 30
0.0
 10
71.93118216517693
 20
-131.9657606006891
 30
0.0
 10
72.0135199472744
 20
-132.060845236082
 30
0.0
 10
72.07484264691185
 20
-132.1604084956057
 30
0.0
 10
72.10240341079384
 20
-132.0990857959683
 30
0.0
 10
72.18267413560017
 20
-131.9171847543471
 30
0.0
 10
72.46000432216277
 20
-131.9171847543471
 30
0.0
 10
72.79831269881431
 20
-131.9171847543471
 30
0.0
 10
72.96539982984893
 20
-132.1645426101881
 30
0.0
 10
72.96539982984893
 20
-132.4415282872021
 30
0.0
  0
HATCH
  5
A3
330
9C
100
AcDbEntity
  8
_U+30EC_U+30A4_U+30E4_U+30FC 1
 62
   179
420
  2234388
100
AcDbHatch
 10
0.0
 20
0.0
 30
0.0
210
0.0
220
0.0
230
1.0
  2
SOLID
 70
     1
 71
     0
 91
        1
 92
        1
 93
        1
 72
     4
 94
        3
 73
     0
 74
     1
 95
       62
 96
       58
 40
0.0
 40
0.0
 40
0.0
 40
0.0
 40
1.0
 40
1.0
 40
1.0
 40
2.0
 40
2.0
 40
2.0
 40
3.0
 40
3.0
 40
3.0
 40
4.0
 40
4.0
 40
4.0
 40
5.0
 40
5.0
 40
5.0
 40
6.0
 40
6.0
 40
6.0
 40
7.0
 40
7.0
 40
7.0
 40
8.0
 40
8.0
 40
8.0
 40
9.0
 40
9.0
 40
9.0
 40
10.0
 40
10.0
 40
10.0
 40
11.0
 40
11.0
 40
11.0
 40
12.0
 40
12.0
 40
12.0
 40
13.0
 40
13.0
 40
13.0
 40
14.0
 40
14.0
 40
14.0
 40
15.0
 40
15.0
 40
15.0
 40
16.0
 40
16.0
 40
16.0
 40
17.0
 40
17.0
 40
17.0
 40
18.0
 40
18.0
 40
18.0
 40
19.0
 40
19.0
 40
19.0
 40
19.0
 10
72.96539982984893
 20
-132.4415282872021
 10
72.96539982984893
 20
-132.5369574321435
 10
72.94438474738891
 20
-132.7546874668113
 10
72.75834959118542
 20
-132.8797444329259
 10
72.64603947836628
 20
-132.9538139858588
 10
72.54682072839108
 20
-132.9579481004411
 10
72.46207137945393
 20
-132.9620822150234
 10
72.46207137945393
 20
-132.9620822150234
 10
72.46207137945393
 20
-132.7419406135159
 10
72.46207137945393
 20
-132.7419406135159
 10
72.5361409323868
 20
-132.7398735562248
 10
72.77075193493232
 20
-132.729538269769
 10
72.77075193493232
 20
-132.4460069113329
 10
72.77075193493232
 20
-132.3085476014715
 10
72.70116100613026
 20
-132.1559298714749
 10
72.4727511754582
 20
-132.1559298714749
 10
72.35630694805675
 20
-132.1559298714749
 10
72.30773110171474
 20
-132.1941704313612
 10
72.27603622325044
 20
-132.2258653098255
 10
72.20196667031756
 20
-132.2999348627584
 10
72.18921981702215
 20
-132.4163790901598
 10
72.18921981702215
 20
-132.4711561083753
 10
72.18921981702215
 20
-132.4904486430927
 10
72.19128687431329
 20
-132.5262776361393
 10
72.19542098889559
 20
-132.5538384000213
 10
72.19542098889559
 20
-132.5538384000213
 10
72.00077309397898
 20
-132.5538384000213
 10
72.00077309397898
 20
-132.5538384000213
 10
72.00731877540095
 20
-132.515597840135
 10
72.0093858326921
 20
-132.473567675215
 10
72.0093858326921
 20
-132.467021993793
 10
72.0093858326921
 20
-132.4015651795732
 10
71.98802624068355
 20
-132.2027831700743
 10
71.75134818084689
 20
-132.2027831700743
 10
71.573581253808
 20
-132.2027831700743
 10
71.518459726044
 20
-132.3336967985138
 10
71.518459726044
 20
-132.4439398540418
 10
71.518459726044
 20
-132.7081786777605
 10
71.75134818084689
 20
-132.7167914164736
 10
71.82300616694009
 20
-132.7209255310559
 10
71.82300616694009
 20
-132.7209255310559
 10
71.82300616694009
 20
-132.9241861646856
 10
71.82300616694009
 20
-132.9241861646856
 10
71.69829371037405
 20
-132.9155734259725
 10
71.32174477383623
 20
-132.8880126620905
 10
71.32174477383623
 20
-132.4311930007464
 10
71.32174477383623
 20
-132.2069172846566
 10
71.44886879724196
 20
-131.9657606006891
 10
71.7448024994249
 20
-131.9657606006891
 10
71.93118216517693
 20
-131.9657606006891
 10
72.0135199472744
 20
-132.060845236082
 10
72.07484264691185
 20
-132.1604084956057
 10
72.10240341079384
 20
-132.0990857959683
 10
72.18267413560017
 20
-131.9171847543471
 10
72.46000432216277
 20
-131.9171847543471
 10
72.79831269881431
 20
-131.9171847543471
 10
72.96539982984893
 20
-132.1645426101881
 10
72.96539982984893
 20
-132.4415282872021
 97
        0
 97
        0
 75
     2
 76
     1
 98
        0
  0
ENDBLK
  5
9F
330
9C
100
AcDbEntity
  8
0
100
AcDbBlockEnd
  0
BLOCK
  5
B4
330
B2
100
AcDbEntity
  8
0
100
AcDbBlockBegin
  2
block 6
 70
     0
 10
0.0
 20
0.0
 30
0.0
  3
block 6
  1

  0
SPLINE
  5
B6
330
B2
100
AcDbEntity
  8
_U+30EC_U+30A4_U+30E4_U+30FC 1
370
     0
100
AcDbSpline
210
0.0
220
0.0
230
1.0
 70
    11
 71
     3
 72
    26
 73
    22
 74
     0
 42
0.0000000001
 43
0.0000000001
 12
1.0
 22
0.0
 32
0.0
 13
1.0
 23
0.0
 33
0.0
 40
0.0
 40
0.0
 40
0.0
 40
0.0
 40
1.0
 40
1.0
 40
1.0
 40
2.0
 40
2.0
 40
2.0
 40
3.0
 40
3.0
 40
3.0
 40
4.0
 40
4.0
 40
4.0
 40
5.0
 40
5.0
 40
5.0
 40
6.0
 40
6.0
 40
6.0
 40
7.0
 40
7.0
 40
7.0
 40
7.0
 10
69.0762315365504
 20
-131.1582302189466
 30
0.0
 10
69.0762315365504
 20
-131.1582302189466
 30
0.0
 10
67.97207843352781
 20
-131.1582302189466
 30
0.0
 10
67.97207843352781
 20
-131.1582302189466
 30
0.0
 10
67.97207843352781
 20
-131.1582302189466
 30
0.0
 10
67.97207843352781
 20
-131.4882703664335
 30
0.0
 10
67.97207843352781
 20
-131.4882703664335
 30
0.0
 10
67.97207843352781
 20
-131.4882703664335
 30
0.0
 10
67.82393932766207
 20
-131.4882703664335
 30
0.0
 10
67.82393932766207
 20
-131.4882703664335
 30
0.0
 10
67.8091254170755
 20
-131.1561631616554
 30
0.0
 10
67.64617240062319
 20
-131.1096543726045
 30
0.0
 10
67.53179523051288
 20
-131.0800265514314
 30
0.0
 10
67.53179523051288
 20
-131.0800265514314
 30
0.0
 10
67.53179523051288
 20
-130.9339545028568
 30
0.0
 10
67.53179523051288
 20
-130.9339545028568
 30
0.0
 10
67.53179523051288
 20
-130.9339545028568
 30
0.0
 10
69.0762315365504
 20
-130.9339545028568
 30
0.0
 10
69.0762315365504
 20
-130.9339545028568
 30
0.0
 10
69.0762315365504
 20
-130.9339545028568
 30
0.0
 10
69.0762315365504
 20
-131.1582302189466
 30
0.0
 10
69.0762315365504
 20
-131.1582302189466
 30
0.0
  0
HATCH
  5
B7
330
B2
100
AcDbEntity
  8
_U+30EC_U+30A4_U+30E4_U+30FC 1
 62
   179
420
  2234388
100
AcDbHatch
 10
0.0
 20
0.0
 30
0.0
210
0.0
220
0.0
230
1.0
  2
SOLID
 70
     1
 71
     0
 91
        1
 92
        1
 93
        1
 72
     4
 94
        3
 73
     0
 74
     1
 95
       26
 96
       22
 40
0.0
 40
0.0
 40
0.0
 40
0.0
 40
1.0
 40
1.0
 40
1.0
 40
2.0
 40
2.0
 40
2.0
 40
3.0
 40
3.0
 40
3.0
 40
4.0
 40
4.0
 40
4.0
 40
5.0
 40
5.0
 40
5.0
 40
6.0
 40
6.0
 40
6.0
 40
7.0
 40
7.0
 40
7.0
 40
7.0
 10
69.0762315365504
 20
-131.1582302189466
 10
69.0762315365504
 20
-131.1582302189466
 10
67.97207843352781
 20
-131.1582302189466
 10
67.97207843352781
 20
-131.1582302189466
 10
67.97207843352781
 20
-131.1582302189466
 10
67.97207843352781
 20
-131.4882703664335
 10
67.97207843352781
 20
-131.4882703664335
 10
67.97207843352781
 20
-131.4882703664335
 10
67.82393932766207
 20
-131.4882703664335
 10
67.82393932766207
 20
-131.4882703664335
 10
67.8091254170755
 20
-131.1561631616554
 10
67.64617240062319
 20
-131.1096543726045
 10
67.53179523051288
 20
-131.0800265514314
 10
67.53179523051288
 20
-131.0800265514314
 10
67.53179523051288
 20
-130.9339545028568
 10
67.53179523051288
 20
-130.9339545028568
 10
67.53179523051288
 20
-130.9339545028568
 10
69.0762315365504
 20
-130.9339545028568
 10
69.0762315365504
 20
-130.9339545028568
 10
69.0762315365504
 20
-130.9339545028568
 10
69.0762315365504
 20
-131.1582302189466
 10
69.0762315365504
 20
-131.1582302189466
 97
        0
 97
        0
 75
     2
 76
     1
 98
        0
  0
SPLINE
  5
B8
330
B2
100
AcDbEntity
  8
_U+30EC_U+30A4_U+30E4_U+30FC 1
370
     0
100
AcDbSpline
210
0.0
220
0.0
230
1.0
 70
    11
 71
     3
 72
    29
 73
    25
 74
     0
 42
0.0000000001
 43
0.0000000001
 12
1.0
 22
0.0
 32
0.0
 13
1.0
 23
0.0
 33
0.0
 40
0.0
 40
0.0
 40
0.0
 40
0.0
 40
1.0
 40
1.0
 40
1.0
 40
2.0
 40
2.0
 40
2.0
 40
3.0
 40
3.0
 40
3.0
 40
4.0
 40
4.0
 40
4.0
 40
5.0
 40
5.0
 40
5.0
 40
6.0
 40
6.0
 40
6.0
 40
7.0
 40
7.0
 40
7.0
 40
8.0
 40
8.0
 40
8.0
 40
8.0
 10
69.12687444018356
 20
-129.9328097548432
 30
0.0
 10
69.12687444018356
 20
-130.1994601454015
 30
0.0
 10
68.9894151303221
 20
-130.4533636826644
 30
0.0
 10
68.64042695766628
 20
-130.4533636826644
 30
0.0
 10
68.38445636311222
 20
-130.4533636826644
 30
0.0
 10
68.28937172771933
 20
-130.3114257486721
 30
0.0
 10
68.22804902808188
 20
-130.205661317275
 30
0.0
 10
68.16879338573558
 20
-130.330373773841
 30
0.0
 10
68.05441621562528
 20
-130.4065103840651
 30
0.0
 10
67.89353025646412
 20
-130.4065103840651
 30
0.0
 10
67.61861163674118
 20
-130.4065103840651
 30
0.0
 10
67.48321938417087
 20
-130.2077283745661
 30
0.0
 10
67.48321938417087
 20
-129.9328097548432
 30
0.0
 10
67.48321938417087
 20
-129.6492783964071
 30
0.0
 10
67.6272243754543
 20
-129.4587646160728
 30
0.0
 10
67.89353025646412
 20
-129.4587646160728
 30
0.0
 10
68.05441621562528
 20
-129.4587646160728
 30
0.0
 10
68.16879338573558
 20
-129.5373127931365
 30
0.0
 10
68.22804902808188
 20
-129.6620252497026
 30
0.0
 10
68.27869193171506
 20
-129.5731417861831
 30
0.0
 10
68.37377656710795
 20
-129.4143228843131
 30
0.0
 10
68.63629284308398
 20
-129.4143228843131
 30
0.0
 10
69.01077472233064
 20
-129.4143228843131
 30
0.0
 10
69.12687444018356
 20
-129.6937201281669
 30
0.0
 10
69.12687444018356
 20
-129.9328097548432
 30
0.0
  0
SPLINE
  5
B9
330
B2
100
AcDbEntity
  8
_U+30EC_U+30A4_U+30E4_U+30FC 1
370
     0
100
AcDbSpline
210
0.0
220
0.0
230
1.0
 70
    11
 71
     3
 72
    17
 73
    13
 74
     0
 42
0.0000000001
 43
0.0000000001
 12
1.0
 22
0.0
 32
0.0
 13
1.0
 23
0.0
 33
0.0
 40
0.0
 40
0.0
 40
0.0
 40
0.0
 40
1.0
 40
1.0
 40
1.0
 40
2.0
 40
2.0
 40
2.0
 40
3.0
 40
3.0
 40
3.0
 40
4.0
 40
4.0
 40
4.0
 40
4.0
 10
67.67580022179634
 20
-129.9328097548432
 30
0.0
 10
67.67580022179634
 20
-130.0978298285867
 30
0.0
 10
67.77088485718923
 20
-130.1825791775238
 30
0.0
 10
67.90627710975954
 20
-130.1825791775238
 30
0.0
 10
68.02892250903444
 20
-130.1825791775238
 30
0.0
 10
68.14743379372703
 20
-130.1105766818821
 30
0.0
 10
68.14743379372703
 20
-129.9328097548432
 30
0.0
 10
68.14743379372703
 20
-129.7550428278043
 30
0.0
 10
68.02892250903444
 20
-129.6830403321626
 30
0.0
 10
67.90627710975954
 20
-129.6830403321626
 30
0.0
 10
67.77088485718923
 20
-129.6830403321626
 30
0.0
 10
67.67580022179634
 20
-129.7698567383909
 30
0.0
 10
67.67580022179634
 20
-129.9328097548432
 30
0.0
  0
SPLINE
  5
BA
330
B2
100
AcDbEntity
  8
_U+30EC_U+30A4_U+30E4_U+30FC 1
370
     0
100
AcDbSpline
210
0.0
220
0.0
230
1.0
 70
    11
 71
     3
 72
    17
 73
    13
 74
     0
 42
0.0000000001
 43
0.0000000001
 12
1.0
 22
0.0
 32
0.0
 13
1.0
 23
0.0
 33
0.0
 40
0.0
 40
0.0
 40
0.0
 40
0.0
 40
1.0
 40
1.0
 40
1.0
 40
2.0
 40
2.0
 40
2.0
 40
3.0
 40
3.0
 40
3.0
 40
4.0
 40
4.0
 40
4.0
 40
4.0
 10
68.3358805167702
 20
-129.9328097548432
 30
0.0
 10
68.3358805167702
 20
-130.0764702365781
 30
0.0
 10
68.4226969229985
 20
-130.2290879665747
 30
0.0
 10
68.62561304707971
 20
-130.2290879665747
 30
0.0
 10
68.8309407380006
 20
-130.2290879665747
 30
0.0
 10
68.93222654526694
 20
-130.101963943169
 30
0.0
 10
68.93222654526694
 20
-129.9328097548432
 30
0.0
 10
68.93222654526694
 20
-129.7467745986397
 30
0.0
 10
68.80958114599206
 20
-129.6365315431117
 30
0.0
 10
68.63181421895317
 20
-129.6365315431117
 30
0.0
 10
68.40995006970307
 20
-129.6365315431117
 30
0.0
 10
68.3358805167702
 20
-129.799484559564
 30
0.0
 10
68.3358805167702
 20
-129.9328097548432
 30
0.0
  0
HATCH
  5
BB
330
B2
100
AcDbEntity
  8
_U+30EC_U+30A4_U+30E4_U+30FC 1
 62
   179
420
  2234388
100
AcDbHatch
 10
0.0
 20
0.0
 30
0.0
210
0.0
220
0.0
230
1.0
  2
SOLID
 70
     1
 71
     0
 91
        3
 92
        1
 93
        1
 72
     4
 94
        3
 73
     0
 74
     1
 95
       29
 96
       25
 40
0.0
 40
0.0
 40
0.0
 40
0.0
 40
1.0
 40
1.0
 40
1.0
 40
2.0
 40
2.0
 40
2.0
 40
3.0
 40
3.0
 40
3.0
 40
4.0
 40
4.0
 40
4.0
 40
5.0
 40
5.0
 40
5.0
 40
6.0
 40
6.0
 40
6.0
 40
7.0
 40
7.0
 40
7.0
 40
8.0
 40
8.0
 40
8.0
 40
8.0
 10
69.12687444018356
 20
-129.9328097548432
 10
69.12687444018356
 20
-130.1994601454015
 10
68.9894151303221
 20
-130.4533636826644
 10
68.64042695766628
 20
-130.4533636826644
 10
68.38445636311222
 20
-130.4533636826644
 10
68.28937172771933
 20
-130.3114257486721
 10
68.22804902808188
 20
-130.205661317275
 10
68.16879338573558
 20
-130.330373773841
 10
68.05441621562528
 20
-130.4065103840651
 10
67.89353025646412
 20
-130.4065103840651
 10
67.61861163674118
 20
-130.4065103840651
 10
67.48321938417087
 20
-130.2077283745661
 10
67.48321938417087
 20
-129.9328097548432
 10
67.48321938417087
 20
-129.6492783964071
 10
67.6272243754543
 20
-129.4587646160728
 10
67.89353025646412
 20
-129.4587646160728
 10
68.05441621562528
 20
-129.4587646160728
 10
68.16879338573558
 20
-129.5373127931365
 10
68.22804902808188
 20
-129.6620252497026
 10
68.27869193171506
 20
-129.5731417861831
 10
68.37377656710795
 20
-129.4143228843131
 10
68.63629284308398
 20
-129.4143228843131
 10
69.01077472233064
 20
-129.4143228843131
 10
69.12687444018356
 20
-129.6937201281669
 10
69.12687444018356
 20
-129.9328097548432
 97
        0
 97
        0
 92
        1
 93
        1
 72
     4
 94
        3
 73
     0
 74
     1
 95
       17
 96
       13
 40
0.0
 40
0.0
 40
0.0
 40
0.0
 40
1.0
 40
1.0
 40
1.0
 40
2.0
 40
2.0
 40
2.0
 40
3.0
 40
3.0
 40
3.0
 40
4.0
 40
4.0
 40
4.0
 40
4.0
 10
67.67580022179634
 20
-129.9328097548432
 10
67.67580022179634
 20
-130.0978298285867
 10
67.77088485718923
 20
-130.1825791775238
 10
67.90627710975954
 20
-130.1825791775238
 10
68.02892250903444
 20
-130.1825791775238
 10
68.14743379372703
 20
-130.1105766818821
 10
68.14743379372703
 20
-129.9328097548432
 10
68.14743379372703
 20
-129.7550428278043
 10
68.02892250903444
 20
-129.6830403321626
 10
67.90627710975954
 20
-129.6830403321626
 10
67.77088485718923
 20
-129.6830403321626
 10
67.67580022179634
 20
-129.7698567383909
 10
67.67580022179634
 20
-129.9328097548432
 97
        0
 97
        0
 92
        1
 93
        1
 72
     4
 94
        3
 73
     0
 74
     1
 95
       17
 96
       13
 40
0.0
 40
0.0
 40
0.0
 40
0.0
 40
1.0
 40
1.0
 40
1.0
 40
2.0
 40
2.0
 40
2.0
 40
3.0
 40
3.0
 40
3.0
 40
4.0
 40
4.0
 40
4.0
 40
4.0
 10
68.3358805167702
 20
-129.9328097548432
 10
68.3358805167702
 20
-130.0764702365781
 10
68.4226969229985
 20
-130.2290879665747
 10
68.62561304707971
 20
-130.2290879665747
 10
68.8309407380006
 20
-130.2290879665747
 10
68.93222654526694
 20
-130.101963943169
 10
68.93222654526694
 20
-129.9328097548432
 10
68.93222654526694
 20
-129.7467745986397
 10
68.80958114599206
 20
-129.6365315431117
 10
68.63181421895317
 20
-129.6365315431117
 10
68.40995006970307
 20
-129.6365315431117
 10
68.3358805167702
 20
-129.799484559564
 10
68.3358805167702
 20
-129.9328097548432
 97
        0
 97
        0
 75
     2
 76
     1
 98
        0
  0
ENDBLK
  5
B5
330
B2
100
AcDbEntity
  8
0
100
AcDbBlockEnd
  0
ENDSEC
  0
SECTION
  2
ENTITIES
  0
SPLINE
  5
41
330
1F
100
AcDbEntity
  8
_U+30EC_U+30A4_U+30E4_U+30FC 1
 62
     7
420
 16777215
370
    25
100
AcDbSpline
210
0.0
220
0.0
230
1.0
 70
    11
 71
     3
 72
    89
 73
    85
 74
     0
 42
0.0000000001
 43
0.0000000001
 12
1.0
 22
0.0
 32
0.0
 13
1.0
 23
0.0
 33
0.0
 40
0.0
 40
0.0
 40
0.0
 40
0.0
 40
1.0
 40
1.0
 40
1.0
 40
2.0
 40
2.0
 40
2.0
 40
3.0
 40
3.0
 40
3.0
 40
4.0
 40
4.0
 40
4.0
 40
5.0
 40
5.0
 40
5.0
 40
6.0
 40
6.0
 40
6.0
 40
7.0
 40
7.0
 40
7.0
 40
8.0
 40
8.0
 40
8.0
 40
9.0
 40
9.0
 40
9.0
 40
10.0
 40
10.0
 40
10.0
 40
11.0
 40
11.0
 40
11.0
 40
12.0
 40
12.0
 40
12.0
 40
13.0
 40
13.0
 40
13.0
 40
14.0
 40
14.0
 40
14.0
 40
15.0
 40
15.0
 40
15.0
 40
16.0
 40
16.0
 40
16.0
 40
17.0
 40
17.0
 40
17.0
 40
18.0
 40
18.0
 40
18.0
 40
19.0
 40
19.0
 40
19.0
 40
20.0
 40
20.0
 40
20.0
 40
21.0
 40
21.0
 40
21.0
 40
22.0
 40
22.0
 40
22.0
 40
23.0
 40
23.0
 40
23.0
 40
24.0
 40
24.0
 40
24.0
 40
25.0
 40
25.0
 40
25.0
 40
26.0
 40
26.0
 40
26.0
 40
27.0
 40
27.0
 40
27.0
 40
28.0
 40
28.0
 40
28.0
 40
28.0
 10
106.3184027511982
 20
-121.5712085807185
 30
0.0
 10
106.3184027511982
 20
-121.5712085807185
 30
0.0
 10
106.0021347956602
 20
-121.9491394139572
 30
0.0
 10
106.3328666400832
 20
-122.5224033027028
 30
0.0
 10
106.7076903332156
 20
-122.9633755248148
 30
0.0
 10
106.9798610843661
 20
-122.9382224692656
 30
0.0
 10
108.5563516749412
 20
-123.798118302384
 30
0.0
 10
108.5563516749412
 20
-123.798118302384
 30
0.0
 10
109.6587822023714
 20
-124.4926671910991
 30
0.0
 10
109.2811688786718
 20
-125.0352746909634
 30
0.0
 10
109.2811688786718
 20
-125.0352746909634
 30
0.0
 10
109.1020283276865
 20
-125.3143219131159
 30
0.0
 10
108.3909721951245
 20
-125.3101944131169
 30
0.0
 10
108.3909721951245
 20
-125.3101944131169
 30
0.0
 10
102.3716987771693
 20
-125.3101944131169
 30
0.0
 10
102.3716987771693
 20
-125.3101944131169
 30
0.0
 10
102.3716987771693
 20
-125.3101944131169
 30
0.0
 10
102.3716987771693
 20
-124.4337533022248
 30
0.0
 10
102.3716987771693
 20
-124.4337533022248
 30
0.0
 10
102.3716987771693
 20
-124.4337533022248
 30
0.0
 10
95.25722951423006
 20
-124.4337533022248
 30
0.0
 10
95.25722951423006
 20
-124.4337533022248
 30
0.0
 10
95.25722951423006
 20
-124.4337533022248
 30
0.0
 10
95.25722951423006
 20
-125.3101944131169
 30
0.0
 10
95.25722951423006
 20
-125.3101944131169
 30
0.0
 10
95.25722951423006
 20
-125.3101944131169
 30
0.0
 10
90.694895741736
 20
-125.3112174686724
 30
0.0
 10
90.694895741736
 20
-125.3112174686724
 30
0.0
 10
90.694895741736
 20
-124.7796519132497
 30
0.0
 10
89.26346466714374
 20
-124.3490160800237
 30
0.0
 10
87.49784721218839
 20
-124.3490160800237
 30
0.0
 10
85.73222975723304
 20
-124.3490160800237
 30
0.0
 10
84.29977775670285
 20
-124.7796519132497
 30
0.0
 10
84.29977775670285
 20
-125.3112174686724
 30
0.0
 10
84.29977775670285
 20
-125.3112174686724
 30
0.0
 10
77.51963385564271
 20
-125.3112174686724
 30
0.0
 10
77.51963385564271
 20
-125.3112174686724
 30
0.0
 10
77.51963385564271
 20
-125.3112174686724
 30
0.0
 10
78.66616160417013
 20
-123.5011499691248
 30
0.0
 10
79.391190474562
 20
-122.3801280249606
 30
0.0
 10
79.391190474562
 20
-122.3801280249606
 30
0.0
 10
79.27646714415549
 20
-121.3452191363303
 30
0.0
 10
78.72973215810386
 20
-121.3069780252287
 30
0.0
 10
78.72973215810386
 20
-121.3069780252287
 30
0.0
 10
78.00110495447048
 20
-121.3093769141171
 30
0.0
 10
78.00110495447048
 20
-121.3093769141171
 30
0.0
 10
78.00110495447048
 20
-121.3093769141171
 30
0.0
 10
76.76775859704686
 20
-120.673424414276
 30
0.0
 10
78.03934606460597
 20
-120.177665803289
 30
0.0
 10
78.03934606460597
 20
-120.177665803289
 30
0.0
 10
79.26337908893385
 20
-120.177665803289
 30
0.0
 10
79.26337908893385
 20
-120.177665803289
 30
0.0
 10
79.26337908893385
 20
-120.177665803289
 30
0.0
 10
83.31806565215683
 20
-120.177665803289
 30
0.0
 10
83.80313508422613
 20
-120.177665803289
 30
0.0
 10
84.28820451629542
 20
-120.177665803289
 30
0.0
 10
84.4575378453087
 20
-120.8994138586642
 30
0.0
 10
84.4575378453087
 20
-120.8994138586642
 30
0.0
 10
84.4575378453087
 20
-120.8994138586642
 30
0.0
 10
89.74920437697371
 20
-120.8994138586642
 30
0.0
 10
89.74920437697371
 20
-120.8994138586642
 30
0.0
 10
89.74920437697371
 20
-120.8994138586642
 30
0.0
 10
90.20051297657098
 20
-120.2538305254922
 30
0.0
 10
90.20051297657098
 20
-120.2538305254922
 30
0.0
 10
90.20051297657098
 20
-120.2538305254922
 30
0.0
 10
96.04374997598907
 20
-120.2538305254922
 30
0.0
 10
96.04374997598907
 20
-120.2538305254922
 30
0.0
 10
96.04374997598907
 20
-120.2538305254922
 30
0.0
 10
96.04374997598907
 20
-120.8994138586642
 30
0.0
 10
96.04374997598907
 20
-120.8994138586642
 30
0.0
 10
96.04374997598907
 20
-120.8994138586642
 30
0.0
 10
101.6661432396139
 20
-120.8994138586642
 30
0.0
 10
101.6661432396139
 20
-120.8994138586642
 30
0.0
 10
101.6661432396139
 20
-120.8994138586642
 30
0.0
 10
101.6661432396139
 20
-120.177665803289
 30
0.0
 10
101.6661432396139
 20
-120.177665803289
 30
0.0
 10
101.6661432396139
 20
-120.177665803289
 30
0.0
 10
106.226748401041
 20
-120.177665803289
 30
0.0
 10
106.226748401041
 20
-120.177665803289
 30
0.0
 10
106.8616805288405
 20
-120.177665803289
 30
0.0
 10
107.1527900440824
 20
-120.5466360809746
 30
0.0
 10
107.1527900440824
 20
-120.8994138586642
 30
0.0
 10
107.1527900440824
 20
-121.9136499695217
 30
0.0
 10
106.4982461718923
 20
-121.4492533029709
 30
0.0
 10
106.3184027511982
 20
-121.5712085807185
 30
0.0
  0
HATCH
  5
42
330
1F
100
AcDbEntity
  8
_U+30EC_U+30A4_U+30E4_U+30FC 1
 62
    35
420
 11432255
100
AcDbHatch
 10
0.0
 20
0.0
 30
0.0
210
0.0
220
0.0
230
1.0
  2
SOLID
 70
     1
 71
     0
 91
        1
 92
        1
 93
        1
 72
     4
 94
        3
 73
     0
 74
     1
 95
       89
 96
       85
 40
0.0
 40
0.0
 40
0.0
 40
0.0
 40
1.0
 40
1.0
 40
1.0
 40
2.0
 40
2.0
 40
2.0
 40
3.0
 40
3.0
 40
3.0
 40
4.0
 40
4.0
 40
4.0
 40
5.0
 40
5.0
 40
5.0
 40
6.0
 40
6.0
 40
6.0
 40
7.0
 40
7.0
 40
7.0
 40
8.0
 40
8.0
 40
8.0
 40
9.0
 40
9.0
 40
9.0
 40
10.0
 40
10.0
 40
10.0
 40
11.0
 40
11.0
 40
11.0
 40
12.0
 40
12.0
 40
12.0
 40
13.0
 40
13.0
 40
13.0
 40
14.0
 40
14.0
 40
14.0
 40
15.0
 40
15.0
 40
15.0
 40
16.0
 40
16.0
 40
16.0
 40
17.0
 40
17.0
 40
17.0
 40
18.0
 40
18.0
 40
18.0
 40
19.0
 40
19.0
 40
19.0
 40
20.0
 40
20.0
 40
20.0
 40
21.0
 40
21.0
 40
21.0
 40
22.0
 40
22.0
 40
22.0
 40
23.0
 40
23.0
 40
23.0
 40
24.0
 40
24.0
 40
24.0
 40
25.0
 40
25.0
 40
25.0
 40
26.0
 40
26.0
 40
26.0
 40
27.0
 40
27.0
 40
27.0
 40
28.0
 40
28.0
 40
28.0
 40
28.0
 10
106.3184027511982
 20
-121.5712085807185
 10
106.3184027511982
 20
-121.5712085807185
 10
106.0021347956602
 20
-121.9491394139572
 10
106.3328666400832
 20
-122.5224033027028
 10
106.7076903332156
 20
-122.9633755248148
 10
106.9798610843661
 20
-122.9382224692656
 10
108.5563516749412
 20
-123.798118302384
 10
108.5563516749412
 20
-123.798118302384
 10
109.6587822023714
 20
-124.4926671910991
 10
109.2811688786718
 20
-125.0352746909634
 10
109.2811688786718
 20
-125.0352746909634
 10
109.1020283276865
 20
-125.3143219131159
 10
108.3909721951245
 20
-125.3101944131169
 10
108.3909721951245
 20
-125.3101944131169
 10
102.3716987771693
 20
-125.3101944131169
 10
102.3716987771693
 20
-125.3101944131169
 10
102.3716987771693
 20
-125.3101944131169
 10
102.3716987771693
 20
-124.4337533022248
 10
102.3716987771693
 20
-124.4337533022248
 10
102.3716987771693
 20
-124.4337533022248
 10
95.25722951423006
 20
-124.4337533022248
 10
95.25722951423006
 20
-124.4337533022248
 10
95.25722951423006
 20
-124.4337533022248
 10
95.25722951423006
 20
-125.3101944131169
 10
95.25722951423006
 20
-125.3101944131169
 10
95.25722951423006
 20
-125.3101944131169
 10
90.694895741736
 20
-125.3112174686724
 10
90.694895741736
 20
-125.3112174686724
 10
90.694895741736
 20
-124.7796519132497
 10
89.26346466714374
 20
-124.3490160800237
 10
87.49784721218839
 20
-124.3490160800237
 10
85.73222975723304
 20
-124.3490160800237
 10
84.29977775670285
 20
-124.7796519132497
 10
84.29977775670285
 20
-125.3112174686724
 10
84.29977775670285
 20
-125.3112174686724
 10
77.51963385564271
 20
-125.3112174686724
 10
77.51963385564271
 20
-125.3112174686724
 10
77.51963385564271
 20
-125.3112174686724
 10
78.66616160417013
 20
-123.5011499691248
 10
79.391190474562
 20
-122.3801280249606
 10
79.391190474562
 20
-122.3801280249606
 10
79.27646714415549
 20
-121.3452191363303
 10
78.72973215810386
 20
-121.3069780252287
 10
78.72973215810386
 20
-121.3069780252287
 10
78.00110495447048
 20
-121.3093769141171
 10
78.00110495447048
 20
-121.3093769141171
 10
78.00110495447048
 20
-121.3093769141171
 10
76.76775859704686
 20
-120.673424414276
 10
78.03934606460597
 20
-120.177665803289
 10
78.03934606460597
 20
-120.177665803289
 10
79.26337908893385
 20
-120.177665803289
 10
79.26337908893385
 20
-120.177665803289
 10
79.26337908893385
 20
-120.177665803289
 10
83.31806565215683
 20
-120.177665803289
 10
83.80313508422613
 20
-120.177665803289
 10
84.28820451629542
 20
-120.177665803289
 10
84.4575378453087
 20
-120.8994138586642
 10
84.4575378453087
 20
-120.8994138586642
 10
84.4575378453087
 20
-120.8994138586642
 10
89.74920437697371
 20
-120.8994138586642
 10
89.74920437697371
 20
-120.8994138586642
 10
89.74920437697371
 20
-120.8994138586642
 10
90.20051297657098
 20
-120.2538305254922
 10
90.20051297657098
 20
-120.2538305254922
 10
90.20051297657098
 20
-120.2538305254922
 10
96.04374997598907
 20
-120.2538305254922
 10
96.04374997598907
 20
-120.2538305254922
 10
96.04374997598907
 20
-120.2538305254922
 10
96.04374997598907
 20
-120.8994138586642
 10
96.04374997598907
 20
-120.8994138586642
 10
96.04374997598907
 20
-120.8994138586642
 10
101.6661432396139
 20
-120.8994138586642
 10
101.6661432396139
 20
-120.8994138586642
 10
101.6661432396139
 20
-120.8994138586642
 10
101.6661432396139
 20
-120.177665803289
 10
101.6661432396139
 20
-120.177665803289
 10
101.6661432396139
 20
-120.177665803289
 10
106.226748401041
 20
-120.177665803289
 10
106.226748401041
 20
-120.177665803289
 10
106.8616805288405
 20
-120.177665803289
 10
107.1527900440824
 20
-120.5466360809746
 10
107.1527900440824
 20
-120.8994138586642
 10
107.1527900440824
 20
-121.9136499695217
 10
106.4982461718923
 20
-121.4492533029709
 10
106.3184027511982
 20
-121.5712085807185
 97
        0
 97
        0
 75
     2
 76
     1
 98
        0
  0
SPLINE
  5
43
330
1F
100
AcDbEntity
  8
_U+30EC_U+30A4_U+30E4_U+30FC 1
 62
   154
420
    23468
370
    25
100
AcDbSpline
210
0.0
220
0.0
230
1.0
 70
    11
 71
     3
 72
    29
 73
    25
 74
     0
 42
0.0000000001
 43
0.0000000001
 12
1.0
 22
0.0
 32
0.0
 13
1.0
 23
0.0
 33
0.0
 40
0.0
 40
0.0
 40
0.0
 40
0.0
 40
1.0
 40
1.0
 40
1.0
 40
2.0
 40
2.0
 40
2.0
 40
3.0
 40
3.0
 40
3.0
 40
4.0
 40
4.0
 40
4.0
 40
5.0
 40
5.0
 40
5.0
 40
6.0
 40
6.0
 40
6.0
 40
7.0
 40
7.0
 40
7.0
 40
8.0
 40
8.0
 40
8.0
 40
8.0
 10
84.92503894449287
 20
-143.3814124641545
 30
0.0
 10
84.92503894449287
 20
-144.4859244083229
 30
0.0
 10
84.03000646732704
 20
-145.3809569080989
 30
0.0
 10
82.92552982883792
 20
-145.3809569080989
 30
0.0
 10
82.92552982883792
 20
-145.3809569080989
 30
0.0
 10
75.92507834076766
 20
-145.3809569080989
 30
0.0
 10
75.92507834076766
 20
-145.3809569080989
 30
0.0
 10
74.82056642450166
 20
-145.3809569080989
 30
0.0
 10
73.92553394733584
 20
-144.4859244083229
 30
0.0
 10
73.92553394733584
 20
-143.3814124641545
 30
0.0
 10
73.92553394733584
 20
-143.3814124641545
 30
0.0
 10
73.92553394733584
 20
-143.3814124641545
 30
0.0
 10
73.92553394733584
 20
-143.3814124641545
 30
0.0
 10
73.92553394733584
 20
-142.2762302422088
 30
0.0
 10
74.82056642450166
 20
-141.3811977424327
 30
0.0
 10
75.92507834076766
 20
-141.3811977424327
 30
0.0
 10
75.92507834076766
 20
-141.3811977424327
 30
0.0
 10
82.92552982883792
 20
-141.3811977424327
 30
0.0
 10
82.92552982883792
 20
-141.3811977424327
 30
0.0
 10
84.03000646732704
 20
-141.3811977424327
 30
0.0
 10
84.92503894449287
 20
-142.2762302422088
 30
0.0
 10
84.92503894449287
 20
-143.3814124641545
 30
0.0
 10
84.92503894449287
 20
-143.3814124641545
 30
0.0
 10
84.92503894449287
 20
-143.3814124641545
 30
0.0
 10
84.92503894449287
 20
-143.3814124641545
 30
0.0
  0
SPLINE
  5
44
330
1F
100
AcDbEntity
  8
_U+30EC_U+30A4_U+30E4_U+30FC 1
 62
   179
420
  2234388
370
     9
100
AcDbSpline
210
0.0
220
0.0
230
1.0
 70
    11
 71
     3
 72
    17
 73
    13
 74
     0
 42
0.0000000001
 43
0.0000000001
 12
1.0
 22
0.0
 32
0.0
 13
1.0
 23
0.0
 33
0.0
 40
0.0
 40
0.0
 40
0.0
 40
0.0
 40
1.0
 40
1.0
 40
1.0
 40
2.0
 40
2.0
 40
2.0
 40
3.0
 40
3.0
 40
3.0
 40
4.0
 40
4.0
 40
4.0
 40
4.0
 10
110.6488882882228
 20
-115.9367477487937
 30
0.0
 10
110.6488882882228
 20
-115.8816438599185
 30
0.0
 10
110.604085511588
 20
-115.8368410821518
 30
0.0
 10
110.548981624105
 20
-115.8368410821518
 30
0.0
 10
110.493842458845
 20
-115.8368410821518
 30
0.0
 10
110.4490777501658
 20
-115.8816438599185
 30
0.0
 10
110.4490777501658
 20
-115.9367477487937
 30
0.0
 10
110.4490777501658
 20
-115.9922396932243
 30
0.0
 10
110.493842458845
 20
-116.0370071932131
 30
0.0
 10
110.548981624105
 20
-116.0370071932131
 30
0.0
 10
110.604085511588
 20
-116.0370071932131
 30
0.0
 10
110.6488882882228
 20
-115.9922396932243
 30
0.0
 10
110.6488882882228
 20
-115.9367477487937
 30
0.0
  0
SPLINE
  5
45
330
1F
100
AcDbEntity
  8
_U+30EC_U+30A4_U+30E4_U+30FC 1
 62
   179
420
  2234388
370
     9
100
AcDbSpline
210
0.0
220
0.0
230
1.0
 70
    11
 71
     3
 72
    17
 73
    13
 74
     0
 42
0.0000000001
 43
0.0000000001
 12
1.0
 22
0.0
 32
0.0
 13
1.0
 23
0.0
 33
0.0
 40
0.0
 40
0.0
 40
0.0
 40
0.0
 40
1.0
 40
1.0
 40
1.0
 40
2.0
 40
2.0
 40
2.0
 40
3.0
 40
3.0
 40
3.0
 40
4.0
 40
4.0
 40
4.0
 40
4.0
 10
75.65086418109678
 20
-115.9367477487937
 30
0.0
 10
75.65086418109678
 20
-115.8816438599185
 30
0.0
 10
75.60606140446201
 20
-115.8368410821518
 30
0.0
 10
75.55025196144139
 20
-115.8368410821518
 30
0.0
 10
75.49514998112636
 20
-115.8368410821518
 30
0.0
 10
75.45034720335964
 20
-115.8816438599185
 30
0.0
 10
75.45034720335964
 20
-115.9367477487937
 30
0.0
 10
75.45034720335964
 20
-115.9922396932243
 30
0.0
 10
75.49514998112636
 20
-116.0370071932131
 30
0.0
 10
75.55025196144139
 20
-116.0370071932131
 30
0.0
 10
75.60606140446201
 20
-116.0370071932131
 30
0.0
 10
75.65086418109678
 20
-115.9922396932243
 30
0.0
 10
75.65086418109678
 20
-115.9367477487937
 30
0.0
  0
POLYLINE
  5
46
330
1F
100
AcDbEntity
  8
_U+30EC_U+30A4_U+30E4_U+30FC 1
 62
   179
420
  2234388
370
     9
100
AcDb2dPolyline
 66
     1
 10
0.0
 20
0.0
 30
0.0
  0
VERTEX
  5
47
330
46
100
AcDbEntity
  8
_U+30EC_U+30A4_U+30E4_U+30FC 1
 62
   179
420
  2234388
370
     9
100
AcDbVertex
100
AcDb2dVertex
 10
75.55025196144139
 20
-115.9367477487937
 30
0.0
  0
VERTEX
  5
48
330
46
100
AcDbEntity
  8
_U+30EC_U+30A4_U+30E4_U+30FC 1
 62
   179
420
  2234388
370
     9
100
AcDbVertex
100
AcDb2dVertex
 10
110.34983857363
 20
-115.9367477487937
 30
0.0
  0
SEQEND
  5
49
330
46
100
AcDbEntity
  8
_U+30EC_U+30A4_U+30E4_U+30FC 1
 62
   179
420
  2234388
370
     9
  0
POLYLINE
  5
4A
330
1F
100
AcDbEntity
  8
_U+30EC_U+30A4_U+30E4_U+30FC 1
 62
   179
420
  2234388
370
     9
100
AcDb2dPolyline
 66
     1
 10
0.0
 20
0.0
 30
0.0
  0
VERTEX
  5
4B
330
4A
100
AcDbEntity
  8
_U+30EC_U+30A4_U+30E4_U+30FC 1
 62
   179
420
  2234388
370
     9
100
AcDbVertex
100
AcDb2dVertex
 10
75.55025196144139
 20
-120.6586077476132
 30
0.0
  0
VERTEX
  5
4C
330
4A
100
AcDbEntity
  8
_U+30EC_U+30A4_U+30E4_U+30FC 1
 62
   179
420
  2234388
370
     9
100
AcDbVertex
100
AcDb2dVertex
 10
75.55025196144139
 20
-114.9366580268213
 30
0.0
  0
SEQEND
  5
4D
330
4A
100
AcDbEntity
  8
_U+30EC_U+30A4_U+30E4_U+30FC 1
 62
   179
420
  2234388
370
     9
  0
POLYLINE
  5
4E
330
1F
100
AcDbEntity
  8
_U+30EC_U+30A4_U+30E4_U+30FC 1
 62
   179
420
  2234388
370
     9
100
AcDb2dPolyline
 66
     1
 10
0.0
 20
0.0
 30
0.0
  0
VERTEX
  5
4F
330
4E
100
AcDbEntity
  8
_U+30EC_U+30A4_U+30E4_U+30FC 1
 62
   179
420
  2234388
370
     9
100
AcDbVertex
100
AcDb2dVertex
 10
110.548981624105
 20
-119.2970971923979
 30
0.0
  0
VERTEX
  5
50
330
4E
100
AcDbEntity
  8
_U+30EC_U+30A4_U+30E4_U+30FC 1
 62
   179
420
  2234388
370
     9
100
AcDbVertex
100
AcDb2dVertex
 10
110.548981624105
 20
-114.9366580268213
 30
0.0
  0
SEQEND
  5
51
330
4E
100
AcDbEntity
  8
_U+30EC_U+30A4_U+30E4_U+30FC 1
 62
   179
420
  2234388
370
     9
  0
INSERT
  5
53
330
1F
100
AcDbEntity
  8
_U+30EC_U+30A4_U+30E4_U+30FC 1
100
AcDbBlockReference
  2
block 2
 10
0.0
 20
0.0
 30
0.0
  0
SPLINE
  5
5A
330
1F
100
AcDbEntity
  8
_U+30EC_U+30A4_U+30E4_U+30FC 1
 62
   179
420
  2234388
370
     9
100
AcDbSpline
210
0.0
220
0.0
230
1.0
 70
    11
 71
     3
 72
    17
 73
    13
 74
     0
 42
0.0000000001
 43
0.0000000001
 12
1.0
 22
0.0
 32
0.0
 13
1.0
 23
0.0
 33
0.0
 40
0.0
 40
0.0
 40
0.0
 40
0.0
 40
1.0
 40
1.0
 40
1.0
 40
2.0
 40
2.0
 40
2.0
 40
3.0
 40
3.0
 40
3.0
 40
4.0
 40
4.0
 40
4.0
 40
4.0
 10
115.3386806685762
 20
-126.5332044128112
 30
0.0
 10
115.3386806685762
 20
-126.4777124683807
 30
0.0
 10
115.2939131697183
 20
-126.4332977461696
 30
0.0
 10
115.2387740044584
 20
-126.4332977461696
 30
0.0
 10
115.1829645614378
 20
-126.4332977461696
 30
0.0
 10
115.1381999712155
 20
-126.4777124683807
 30
0.0
 10
115.1381999712155
 20
-126.5332044128112
 30
0.0
 10
115.1381999712155
 20
-126.5886610794639
 30
0.0
 10
115.1829645614378
 20
-126.6334285794528
 30
0.0
 10
115.2387740044584
 20
-126.6334285794528
 30
0.0
 10
115.2939131697183
 20
-126.6334285794528
 30
0.0
 10
115.3386806685762
 20
-126.5886610794639
 30
0.0
 10
115.3386806685762
 20
-126.5332044128112
 30
0.0
  0
SPLINE
  5
5B
330
1F
100
AcDbEntity
  8
_U+30EC_U+30A4_U+30E4_U+30FC 1
 62
   179
420
  2234388
370
     9
100
AcDbSpline
210
0.0
220
0.0
230
1.0
 70
    11
 71
     3
 72
    17
 73
    13
 74
     0
 42
0.0000000001
 43
0.0000000001
 12
1.0
 22
0.0
 32
0.0
 13
1.0
 23
0.0
 33
0.0
 40
0.0
 40
0.0
 40
0.0
 40
0.0
 40
1.0
 40
1.0
 40
1.0
 40
2.0
 40
2.0
 40
2.0
 40
3.0
 40
3.0
 40
3.0
 40
4.0
 40
4.0
 40
4.0
 40
4.0
 10
115.3386806685762
 20
-124.1081746911952
 30
0.0
 10
115.3386806685762
 20
-124.0527180245422
 30
0.0
 10
115.2939131697183
 20
-124.0082680245536
 30
0.0
 10
115.2387740044584
 20
-124.0082680245536
 30
0.0
 10
115.1829645614378
 20
-124.0082680245536
 30
0.0
 10
115.1381999712155
 20
-124.0527180245422
 30
0.0
 10
115.1381999712155
 20
-124.1081746911952
 30
0.0
 10
115.1381999712155
 20
-124.1636666356258
 30
0.0
 10
115.1829645614378
 20
-124.2084341356147
 30
0.0
 10
115.2387740044584
 20
-124.2084341356147
 30
0.0
 10
115.2939131697183
 20
-124.2084341356147
 30
0.0
 10
115.3386806685762
 20
-124.1636666356258
 30
0.0
 10
115.3386806685762
 20
-124.1081746911952
 30
0.0
  0
POLYLINE
  5
5C
330
1F
100
AcDbEntity
  8
_U+30EC_U+30A4_U+30E4_U+30FC 1
 62
   179
420
  2234388
370
     9
100
AcDb2dPolyline
 66
     1
 10
0.0
 20
0.0
 30
0.0
  0
VERTEX
  5
5D
330
5C
100
AcDbEntity
  8
_U+30EC_U+30A4_U+30E4_U+30FC 1
 62
   179
420
  2234388
370
     9
100
AcDbVertex
100
AcDb2dVertex
 10
115.2387740044584
 20
-130.7082941339893
 30
0.0
  0
VERTEX
  5
5E
330
5C
100
AcDbEntity
  8
_U+30EC_U+30A4_U+30E4_U+30FC 1
 62
   179
420
  2234388
370
     9
100
AcDbVertex
100
AcDb2dVertex
 10
115.2387740044584
 20
-123.4277721913652
 30
0.0
  0
SEQEND
  5
5F
330
5C
100
AcDbEntity
  8
_U+30EC_U+30A4_U+30E4_U+30FC 1
 62
   179
420
  2234388
370
     9
  0
POLYLINE
  5
60
330
1F
100
AcDbEntity
  8
_U+30EC_U+30A4_U+30E4_U+30FC 1
 62
   179
420
  2234388
370
     9
100
AcDb2dPolyline
 66
     1
 10
0.0
 20
0.0
 30
0.0
  0
VERTEX
  5
61
330
60
100
AcDbEntity
  8
_U+30EC_U+30A4_U+30E4_U+30FC 1
 62
   179
420
  2234388
370
     9
100
AcDbVertex
100
AcDb2dVertex
 10
113.562056547235
 20
-126.5332044128112
 30
0.0
  0
VERTEX
  5
62
330
60
100
AcDbEntity
  8
_U+30EC_U+30A4_U+30E4_U+30FC 1
 62
   179
420
  2234388
370
     9
100
AcDbVertex
100
AcDb2dVertex
 10
116.2385462011743
 20
-126.5332044128112
 30
0.0
  0
SEQEND
  5
63
330
60
100
AcDbEntity
  8
_U+30EC_U+30A4_U+30E4_U+30FC 1
 62
   179
420
  2234388
370
     9
  0
INSERT
  5
65
330
1F
100
AcDbEntity
  8
_U+30EC_U+30A4_U+30E4_U+30FC 1
100
AcDbBlockReference
  2
block 3
 10
0.0
 20
0.0
 30
0.0
  0
POLYLINE
  5
74
330
1F
100
AcDbEntity
  8
_U+30EC_U+30A4_U+30E4_U+30FC 1
 62
   179
420
  2234388
370
     9
100
AcDb2dPolyline
 66
     1
 10
0.0
 20
0.0
 30
0.0
  0
VERTEX
  5
75
330
74
100
AcDbEntity
  8
_U+30EC_U+30A4_U+30E4_U+30FC 1
 62
   179
420
  2234388
370
     9
100
AcDbVertex
100
AcDb2dVertex
 10
113.6502509894294
 20
-124.045133302322
 30
0.0
  0
VERTEX
  5
76
330
74
100
AcDbEntity
  8
_U+30EC_U+30A4_U+30E4_U+30FC 1
 62
   179
420
  2234388
370
     9
100
AcDbVertex
100
AcDb2dVertex
 10
116.2385462011743
 20
-124.045133302322
 30
0.0
  0
SEQEND
  5
77
330
74
100
AcDbEntity
  8
_U+30EC_U+30A4_U+30E4_U+30FC 1
 62
   179
420
  2234388
370
     9
  0
SPLINE
  5
78
330
1F
100
AcDbEntity
  8
_U+30EC_U+30A4_U+30E4_U+30FC 1
 62
   179
420
  2234388
370
     9
100
AcDbSpline
210
0.0
220
0.0
230
1.0
 70
    11
 71
     3
 72
    17
 73
    13
 74
     0
 42
0.0000000001
 43
0.0000000001
 12
1.0
 22
0.0
 32
0.0
 13
1.0
 23
0.0
 33
0.0
 40
0.0
 40
0.0
 40
0.0
 40
0.0
 40
1.0
 40
1.0
 40
1.0
 40
2.0
 40
2.0
 40
2.0
 40
3.0
 40
3.0
 40
3.0
 40
4.0
 40
4.0
 40
4.0
 40
4.0
 10
98.11254221916273
 20
-132.7343674668164
 30
0.0
 10
98.16799888441459
 20
-132.7343674668164
 30
0.0
 10
98.21244888328057
 20
-132.6895646890497
 30
0.0
 10
98.21244888328057
 20
-132.6344608001747
 30
0.0
 10
98.21244888328057
 20
-132.5786513557443
 30
0.0
 10
98.16799888441459
 20
-132.5338485779776
 30
0.0
 10
98.11254221916273
 20
-132.5338485779776
 30
0.0
 10
98.05705275326363
 20
-132.5338485779776
 30
0.0
 10
98.01228277727613
 20
-132.5786513557443
 30
0.0
 10
98.01228277727613
 20
-132.6344608001747
 30
0.0
 10
98.01228277727613
 20
-132.6895646890497
 30
0.0
 10
98.05705275326363
 20
-132.7343674668164
 30
0.0
 10
98.11254221916273
 20
-132.7343674668164
 30
0.0
  0
SPLINE
  5
79
330
1F
100
AcDbEntity
  8
_U+30EC_U+30A4_U+30E4_U+30FC 1
 62
   179
420
  2234388
370
     9
100
AcDbSpline
210
0.0
220
0.0
230
1.0
 70
    11
 71
     3
 72
    17
 73
    13
 74
     0
 42
0.0000000001
 43
0.0000000001
 12
1.0
 22
0.0
 32
0.0
 13
1.0
 23
0.0
 33
0.0
 40
0.0
 40
0.0
 40
0.0
 40
0.0
 40
1.0
 40
1.0
 40
1.0
 40
2.0
 40
2.0
 40
2.0
 40
3.0
 40
3.0
 40
3.0
 40
4.0
 40
4.0
 40
4.0
 40
4.0
 10
110.127306357085
 20
-132.7343674668164
 30
0.0
 10
110.1831158001056
 20
-132.7343674668164
 30
0.0
 10
110.2272130212028
 20
-132.6895646890497
 30
0.0
 10
110.2272130212028
 20
-132.6344608001747
 30
0.0
 10
110.2272130212028
 20
-132.5786513557443
 30
0.0
 10
110.1831158001056
 20
-132.5338485779776
 30
0.0
 10
110.127306357085
 20
-132.5338485779776
 30
0.0
 10
110.0721671918251
 20
-132.5338485779776
 30
0.0
 10
110.0273996929672
 20
-132.5786513557443
 30
0.0
 10
110.0273996929672
 20
-132.6344608001747
 30
0.0
 10
110.0273996929672
 20
-132.6895646890497
 30
0.0
 10
110.0721671918251
 20
-132.7343674668164
 30
0.0
 10
110.127306357085
 20
-132.7343674668164
 30
0.0
  0
POLYLINE
  5
7A
330
1F
100
AcDbEntity
  8
_U+30EC_U+30A4_U+30E4_U+30FC 1
 62
   179
420
  2234388
370
     9
100
AcDb2dPolyline
 66
     1
 10
0.0
 20
0.0
 30
0.0
  0
VERTEX
  5
7B
330
7A
100
AcDbEntity
  8
_U+30EC_U+30A4_U+30E4_U+30FC 1
 62
   179
420
  2234388
370
     9
100
AcDbVertex
100
AcDb2dVertex
 10
97.12896252203373
 20
-132.6344608001747
 30
0.0
  0
VERTEX
  5
7C
330
7A
100
AcDbEntity
  8
_U+30EC_U+30A4_U+30E4_U+30FC 1
 62
   179
420
  2234388
370
     9
100
AcDbVertex
100
AcDb2dVertex
 10
111.1277488315616
 20
-132.6344608001747
 30
0.0
  0
SEQEND
  5
7D
330
7A
100
AcDbEntity
  8
_U+30EC_U+30A4_U+30E4_U+30FC 1
 62
   179
420
  2234388
370
     9
  0
POLYLINE
  5
7E
330
1F
100
AcDbEntity
  8
_U+30EC_U+30A4_U+30E4_U+30FC 1
 62
   179
420
  2234388
370
     9
100
AcDb2dPolyline
 66
     1
 10
0.0
 20
0.0
 30
0.0
  0
VERTEX
  5
7F
330
7E
100
AcDbEntity
  8
_U+30EC_U+30A4_U+30E4_U+30FC 1
 62
   179
420
  2234388
370
     9
100
AcDbVertex
100
AcDb2dVertex
 10
98.11218944139397
 20
-130.9577433005941
 30
0.0
  0
VERTEX
  5
80
330
7E
100
AcDbEntity
  8
_U+30EC_U+30A4_U+30E4_U+30FC 1
 62
   179
420
  2234388
370
     9
100
AcDbVertex
100
AcDb2dVertex
 10
98.11218944139397
 20
-133.6342330221473
 30
0.0
  0
SEQEND
  5
81
330
7E
100
AcDbEntity
  8
_U+30EC_U+30A4_U+30E4_U+30FC 1
 62
   179
420
  2234388
370
     9
  0
INSERT
  5
83
330
1F
100
AcDbEntity
  8
_U+30EC_U+30A4_U+30E4_U+30FC 1
100
AcDbBlockReference
  2
block 4
 10
0.0
 20
0.0
 30
0.0
  0
POLYLINE
  5
8A
330
1F
100
AcDbEntity
  8
_U+30EC_U+30A4_U+30E4_U+30FC 1
 62
   179
420
  2234388
370
     9
100
AcDb2dPolyline
 66
     1
 10
0.0
 20
0.0
 30
0.0
  0
VERTEX
  5
8B
330
8A
100
AcDbEntity
  8
_U+30EC_U+30A4_U+30E4_U+30FC 1
 62
   179
420
  2234388
370
     9
100
AcDbVertex
100
AcDb2dVertex
 10
110.1266008015475
 20
-131.0459377450165
 30
0.0
  0
VERTEX
  5
8C
330
8A
100
AcDbEntity
  8
_U+30EC_U+30A4_U+30E4_U+30FC 1
 62
   179
420
  2234388
370
     9
100
AcDbVertex
100
AcDb2dVertex
 10
110.1266008015475
 20
-133.6342330221473
 30
0.0
  0
SEQEND
  5
8D
330
8A
100
AcDbEntity
  8
_U+30EC_U+30A4_U+30E4_U+30FC 1
 62
   179
420
  2234388
370
     9
  0
SPLINE
  5
8E
330
1F
100
AcDbEntity
  8
_U+30EC_U+30A4_U+30E4_U+30FC 1
 62
   179
420
  2234388
370
     9
100
AcDbSpline
210
0.0
220
0.0
230
1.0
 70
    11
 71
     3
 72
    17
 73
    13
 74
     0
 42
0.0000000001
 43
0.0000000001
 12
1.0
 22
0.0
 32
0.0
 13
1.0
 23
0.0
 33
0.0
 40
0.0
 40
0.0
 40
0.0
 40
0.0
 40
1.0
 40
1.0
 40
1.0
 40
2.0
 40
2.0
 40
2.0
 40
3.0
 40
3.0
 40
3.0
 40
4.0
 40
4.0
 40
4.0
 40
4.0
 10
73.66028034299191
 20
-126.5293944128122
 30
0.0
 10
73.66028034299191
 20
-126.4742905239369
 30
0.0
 10
73.61547756635714
 20
-126.4294877461705
 30
0.0
 10
73.56037367887407
 20
-126.4294877461705
 30
0.0
 10
73.50523451361413
 20
-126.4294877461705
 30
0.0
 10
73.46046701475623
 20
-126.4742905239369
 30
0.0
 10
73.46046701475623
 20
-126.5293944128122
 30
0.0
 10
73.46046701475623
 20
-126.5845335794649
 30
0.0
 10
73.50523451361413
 20
-126.6293010794538
 30
0.0
 10
73.56037367887407
 20
-126.6293010794538
 30
0.0
 10
73.61547756635714
 20
-126.6293010794538
 30
0.0
 10
73.66028034299191
 20
-126.5845335794649
 30
0.0
 10
73.66028034299191
 20
-126.5293944128122
 30
0.0
  0
SPLINE
  5
8F
330
1F
100
AcDbEntity
  8
_U+30EC_U+30A4_U+30E4_U+30FC 1
 62
   179
420
  2234388
370
     9
100
AcDbSpline
210
0.0
220
0.0
230
1.0
 70
    11
 71
     3
 72
    17
 73
    13
 74
     0
 42
0.0000000001
 43
0.0000000001
 12
1.0
 22
0.0
 32
0.0
 13
1.0
 23
0.0
 33
0.0
 40
0.0
 40
0.0
 40
0.0
 40
0.0
 40
1.0
 40
1.0
 40
1.0
 40
2.0
 40
2.0
 40
2.0
 40
3.0
 40
3.0
 40
3.0
 40
4.0
 40
4.0
 40
4.0
 40
4.0
 10
73.66028034299191
 20
-139.5212121873422
 30
0.0
 10
73.66028034299191
 20
-139.4660730206891
 30
0.0
 10
73.61547756635714
 20
-139.4213055206999
 30
0.0
 10
73.56037367887407
 20
-139.4213055206999
 30
0.0
 10
73.50523451361413
 20
-139.4213055206999
 30
0.0
 10
73.46046701475623
 20
-139.4660730206891
 30
0.0
 10
73.46046701475623
 20
-139.5212121873422
 30
0.0
 10
73.46046701475623
 20
-139.5763160762171
 30
0.0
 10
73.50523451361413
 20
-139.6211188539838
 30
0.0
 10
73.56037367887407
 20
-139.6211188539838
 30
0.0
 10
73.61547756635714
 20
-139.6211188539838
 30
0.0
 10
73.66028034299191
 20
-139.5763160762171
 30
0.0
 10
73.66028034299191
 20
-139.5212121873422
 30
0.0
  0
POLYLINE
  5
90
330
1F
100
AcDbEntity
  8
_U+30EC_U+30A4_U+30E4_U+30FC 1
 62
   179
420
  2234388
370
     9
100
AcDb2dPolyline
 66
     1
 10
0.0
 20
0.0
 30
0.0
  0
VERTEX
  5
91
330
90
100
AcDbEntity
  8
_U+30EC_U+30A4_U+30E4_U+30FC 1
 62
   179
420
  2234388
370
     9
100
AcDbVertex
100
AcDb2dVertex
 10
73.56037367887407
 20
-126.521492190592
 30
0.0
  0
VERTEX
  5
92
330
90
100
AcDbEntity
  8
_U+30EC_U+30A4_U+30E4_U+30FC 1
 62
   179
420
  2234388
370
     9
100
AcDbVertex
100
AcDb2dVertex
 10
73.56037367887407
 20
-139.5212121873422
 30
0.0
  0
SEQEND
  5
93
330
90
100
AcDbEntity
  8
_U+30EC_U+30A4_U+30E4_U+30FC 1
 62
   179
420
  2234388
370
     9
  0
POLYLINE
  5
94
330
1F
100
AcDbEntity
  8
_U+30EC_U+30A4_U+30E4_U+30FC 1
 62
   179
420
  2234388
370
     9
100
AcDb2dPolyline
 66
     1
 10
0.0
 20
0.0
 30
0.0
  0
VERTEX
  5
95
330
94
100
AcDbEntity
  8
_U+30EC_U+30A4_U+30E4_U+30FC 1
 62
   179
420
  2234388
370
     9
100
AcDbVertex
100
AcDb2dVertex
 10
75.01970947497665
 20
-126.5293944128122
 30
0.0
  0
VERTEX
  5
96
330
94
100
AcDbEntity
  8
_U+30EC_U+30A4_U+30E4_U+30FC 1
 62
   179
420
  2234388
370
     9
100
AcDbVertex
100
AcDb2dVertex
 10
72.56060148215816
 20
-126.5293944128122
 30
0.0
  0
SEQEND
  5
97
330
94
100
AcDbEntity
  8
_U+30EC_U+30A4_U+30E4_U+30FC 1
 62
   179
420
  2234388
370
     9
  0
POLYLINE
  5
98
330
1F
100
AcDbEntity
  8
_U+30EC_U+30A4_U+30E4_U+30FC 1
 62
   179
420
  2234388
370
     9
100
AcDb2dPolyline
 66
     1
 10
0.0
 20
0.0
 30
0.0
  0
VERTEX
  5
99
330
98
100
AcDbEntity
  8
_U+30EC_U+30A4_U+30E4_U+30FC 1
 62
   179
420
  2234388
370
     9
100
AcDbVertex
100
AcDb2dVertex
 10
74.84332059058782
 20
-139.5212121873422
 30
0.0
  0
VERTEX
  5
9A
330
98
100
AcDbEntity
  8
_U+30EC_U+30A4_U+30E4_U+30FC 1
 62
   179
420
  2234388
370
     9
100
AcDbVertex
100
AcDb2dVertex
 10
72.56060148215816
 20
-139.5212121873422
 30
0.0
  0
SEQEND
  5
9B
330
98
100
AcDbEntity
  8
_U+30EC_U+30A4_U+30E4_U+30FC 1
 62
   179
420
  2234388
370
     9
  0
INSERT
  5
9D
330
1F
100
AcDbEntity
  8
_U+30EC_U+30A4_U+30E4_U+30FC 1
100
AcDbBlockReference
  2
block 5
 10
0.0
 20
0.0
 30
0.0
  0
SPLINE
  5
A4
330
1F
100
AcDbEntity
  8
_U+30EC_U+30A4_U+30E4_U+30FC 1
 62
   179
420
  2234388
370
     9
100
AcDbSpline
210
0.0
220
0.0
230
1.0
 70
    11
 71
     3
 72
    17
 73
    13
 74
     0
 42
0.0000000001
 43
0.0000000001
 12
1.0
 22
0.0
 32
0.0
 13
1.0
 23
0.0
 33
0.0
 40
0.0
 40
0.0
 40
0.0
 40
0.0
 40
1.0
 40
1.0
 40
1.0
 40
2.0
 40
2.0
 40
2.0
 40
3.0
 40
3.0
 40
3.0
 40
4.0
 40
4.0
 40
4.0
 40
4.0
 10
69.82174071869899
 20
-121.5212552473973
 30
0.0
 10
69.82174071869899
 20
-121.4661513585224
 30
0.0
 10
69.77697498255564
 20
-121.4213485807557
 30
0.0
 10
69.72183405458115
 20
-121.4213485807557
 30
0.0
 10
69.66673016709808
 20
-121.4213485807557
 30
0.0
 10
69.62192739046333
 20
-121.4661513585224
 30
0.0
 10
69.62192739046333
 20
-121.5212552473973
 30
0.0
 10
69.62192739046333
 20
-121.5763944140504
 30
0.0
 10
69.66673016709808
 20
-121.6211619140393
 30
0.0
 10
69.72183405458115
 20
-121.6211619140393
 30
0.0
 10
69.77697498255564
 20
-121.6211619140393
 30
0.0
 10
69.82174071869899
 20
-121.5763944140504
 30
0.0
 10
69.82174071869899
 20
-121.5212552473973
 30
0.0
  0
SPLINE
  5
A5
330
1F
100
AcDbEntity
  8
_U+30EC_U+30A4_U+30E4_U+30FC 1
 62
   179
420
  2234388
370
     9
100
AcDbSpline
210
0.0
220
0.0
230
1.0
 70
    11
 71
     3
 72
    17
 73
    13
 74
     0
 42
0.0000000001
 43
0.0000000001
 12
1.0
 22
0.0
 32
0.0
 13
1.0
 23
0.0
 33
0.0
 40
0.0
 40
0.0
 40
0.0
 40
0.0
 40
1.0
 40
1.0
 40
1.0
 40
2.0
 40
2.0
 40
2.0
 40
3.0
 40
3.0
 40
3.0
 40
4.0
 40
4.0
 40
4.0
 40
4.0
 10
69.82174071869899
 20
-139.5212121873422
 30
0.0
 10
69.82174071869899
 20
-139.4660730206891
 30
0.0
 10
69.77697498255564
 20
-139.4213055206999
 30
0.0
 10
69.72183405458115
 20
-139.4213055206999
 30
0.0
 10
69.66673016709808
 20
-139.4213055206999
 30
0.0
 10
69.62192739046333
 20
-139.4660730206891
 30
0.0
 10
69.62192739046333
 20
-139.5212121873422
 30
0.0
 10
69.62192739046333
 20
-139.5763160762171
 30
0.0
 10
69.66673016709808
 20
-139.6211188539838
 30
0.0
 10
69.72183405458115
 20
-139.6211188539838
 30
0.0
 10
69.77697498255564
 20
-139.6211188539838
 30
0.0
 10
69.82174071869899
 20
-139.5763160762171
 30
0.0
 10
69.82174071869899
 20
-139.5212121873422
 30
0.0
  0
POLYLINE
  5
A6
330
1F
100
AcDbEntity
  8
_U+30EC_U+30A4_U+30E4_U+30FC 1
 62
   179
420
  2234388
370
     9
100
AcDb2dPolyline
 66
     1
 10
0.0
 20
0.0
 30
0.0
  0
VERTEX
  5
A7
330
A6
100
AcDbEntity
  8
_U+30EC_U+30A4_U+30E4_U+30FC 1
 62
   179
420
  2234388
370
     9
100
AcDbVertex
100
AcDb2dVertex
 10
69.72183405458115
 20
-121.5212552473973
 30
0.0
  0
VERTEX
  5
A8
330
A6
100
AcDbEntity
  8
_U+30EC_U+30A4_U+30E4_U+30FC 1
 62
   179
420
  2234388
370
     9
100
AcDbVertex
100
AcDb2dVertex
 10
69.72183405458115
 20
-139.5212121873422
 30
0.0
  0
SEQEND
  5
A9
330
A6
100
AcDbEntity
  8
_U+30EC_U+30A4_U+30E4_U+30FC 1
 62
   179
420
  2234388
370
     9
  0
POLYLINE
  5
AA
330
1F
100
AcDbEntity
  8
_U+30EC_U+30A4_U+30E4_U+30FC 1
 62
   179
420
  2234388
370
     9
100
AcDb2dPolyline
 66
     1
 10
0.0
 20
0.0
 30
0.0
  0
VERTEX
  5
AB
330
AA
100
AcDbEntity
  8
_U+30EC_U+30A4_U+30E4_U+30FC 1
 62
   179
420
  2234388
370
     9
100
AcDbVertex
100
AcDb2dVertex
 10
74.98182114260993
 20
-121.5212552473973
 30
0.0
  0
VERTEX
  5
AC
330
AA
100
AcDbEntity
  8
_U+30EC_U+30A4_U+30E4_U+30FC 1
 62
   179
420
  2234388
370
     9
100
AcDbVertex
100
AcDb2dVertex
 10
68.72206185786524
 20
-121.5212552473973
 30
0.0
  0
SEQEND
  5
AD
330
AA
100
AcDbEntity
  8
_U+30EC_U+30A4_U+30E4_U+30FC 1
 62
   179
420
  2234388
370
     9
  0
POLYLINE
  5
AE
330
1F
100
AcDbEntity
  8
_U+30EC_U+30A4_U+30E4_U+30FC 1
 62
   179
420
  2234388
370
     9
100
AcDb2dPolyline
 66
     1
 10
0.0
 20
0.0
 30
0.0
  0
VERTEX
  5
AF
330
AE
100
AcDbEntity
  8
_U+30EC_U+30A4_U+30E4_U+30FC 1
 62
   179
420
  2234388
370
     9
100
AcDbVertex
100
AcDb2dVertex
 10
74.80543225822109
 20
-139.5212121873422
 30
0.0
  0
VERTEX
  5
B0
330
AE
100
AcDbEntity
  8
_U+30EC_U+30A4_U+30E4_U+30FC 1
 62
   179
420
  2234388
370
     9
100
AcDbVertex
100
AcDb2dVertex
 10
68.72206185786524
 20
-139.5212121873422
 30
0.0
  0
SEQEND
  5
B1
330
AE
100
AcDbEntity
  8
_U+30EC_U+30A4_U+30E4_U+30FC 1
 62
   179
420
  2234388
370
     9
  0
INSERT
  5
B3
330
1F
100
AcDbEntity
  8
_U+30EC_U+30A4_U+30E4_U+30FC 1
100
AcDbBlockReference
  2
block 6
 10
0.0
 20
0.0
 30
0.0
  0
SPLINE
  5
BC
330
1F
100
AcDbEntity
  8
_U+30EC_U+30A4_U+30E4_U+30FC 1
370
     0
100
AcDbSpline
210
0.0
220
0.0
230
1.0
 70
    11
 71
     3
 72
   191
 73
   187
 74
     0
 42
0.0000000001
 43
0.0000000001
 12
1.0
 22
0.0
 32
0.0
 13
1.0
 23
0.0
 33
0.0
 40
0.0
 40
0.0
 40
0.0
 40
0.0
 40
1.0
 40
1.0
 40
1.0
 40
2.0
 40
2.0
 40
2.0
 40
3.0
 40
3.0
 40
3.0
 40
4.0
 40
4.0
 40
4.0
 40
5.0
 40
5.0
 40
5.0
 40
6.0
 40
6.0
 40
6.0
 40
7.0
 40
7.0
 40
7.0
 40
8.0
 40
8.0
 40
8.0
 40
9.0
 40
9.0
 40
9.0
 40
10.0
 40
10.0
 40
10.0
 40
11.0
 40
11.0
 40
11.0
 40
12.0
 40
12.0
 40
12.0
 40
13.0
 40
13.0
 40
13.0
 40
14.0
 40
14.0
 40
14.0
 40
15.0
 40
15.0
 40
15.0
 40
16.0
 40
16.0
 40
16.0
 40
17.0
 40
17.0
 40
17.0
 40
18.0
 40
18.0
 40
18.0
 40
19.0
 40
19.0
 40
19.0
 40
20.0
 40
20.0
 40
20.0
 40
21.0
 40
21.0
 40
21.0
 40
22.0
 40
22.0
 40
22.0
 40
23.0
 40
23.0
 40
23.0
 40
24.0
 40
24.0
 40
24.0
 40
25.0
 40
25.0
 40
25.0
 40
26.0
 40
26.0
 40
26.0
 40
27.0
 40
27.0
 40
27.0
 40
28.0
 40
28.0
 40
28.0
 40
29.0
 40
29.0
 40
29.0
 40
30.0
 40
30.0
 40
30.0
 40
31.0
 40
31.0
 40
31.0
 40
32.0
 40
32.0
 40
32.0
 40
33.0
 40
33.0
 40
33.0
 40
34.0
 40
34.0
 40
34.0
 40
35.0
 40
35.0
 40
35.0
 40
36.0
 40
36.0
 40
36.0
 40
37.0
 40
37.0
 40
37.0
 40
38.0
 40
38.0
 40
38.0
 40
39.0
 40
39.0
 40
39.0
 40
40.0
 40
40.0
 40
40.0
 40
41.0
 40
41.0
 40
41.0
 40
42.0
 40
42.0
 40
42.0
 40
43.0
 40
43.0
 40
43.0
 40
44.0
 40
44.0
 40
44.0
 40
45.0
 40
45.0
 40
45.0
 40
46.0
 40
46.0
 40
46.0
 40
47.0
 40
47.0
 40
47.0
 40
48.0
 40
48.0
 40
48.0
 40
49.0
 40
49.0
 40
49.0
 40
50.0
 40
50.0
 40
50.0
 40
51.0
 40
51.0
 40
51.0
 40
52.0
 40
52.0
 40
52.0
 40
53.0
 40
53.0
 40
53.0
 40
54.0
 40
54.0
 40
54.0
 40
55.0
 40
55.0
 40
55.0
 40
56.0
 40
56.0
 40
56.0
 40
57.0
 40
57.0
 40
57.0
 40
58.0
 40
58.0
 40
58.0
 40
59.0
 40
59.0
 40
59.0
 40
60.0
 40
60.0
 40
60.0
 40
61.0
 40
61.0
 40
61.0
 40
62.0
 40
62.0
 40
62.0
 40
62.0
 10
92.74471096721864
 20
-126.5531716350284
 30
0.0
 10
92.74471096721864
 20
-126.5531716350284
 30
0.0
 10
92.54697902781875
 20
-126.5531716350284
 30
0.0
 10
92.54697902781875
 20
-126.5531716350284
 30
0.0
 10
92.54697902781875
 20
-126.5531716350284
 30
0.0
 10
92.04536664365507
 20
-126.0570602462637
 30
0.0
 10
92.04536664365507
 20
-126.0570602462637
 30
0.0
 10
92.04536664365507
 20
-126.0570602462637
 30
0.0
 10
91.55479155313157
 20
-126.5531716350284
 30
0.0
 10
91.55479155313157
 20
-126.5531716350284
 30
0.0
 10
91.55479155313157
 20
-126.5531716350284
 30
0.0
 10
89.8680552072749
 20
-126.5531716350284
 30
0.0
 10
89.8680552072749
 20
-126.5531716350284
 30
0.0
 10
89.8680552072749
 20
-126.5531716350284
 30
0.0
 10
89.36647577562681
 20
-126.0625988573734
 30
0.0
 10
89.36647577562681
 20
-126.0625988573734
 30
0.0
 10
89.36647577562681
 20
-126.0625988573734
 30
0.0
 10
88.88140634355753
 20
-126.5538771905836
 30
0.0
 10
88.88140634355753
 20
-126.5538771905836
 30
0.0
 10
88.88140634355753
 20
-126.5538771905836
 30
0.0
 10
87.20017333089379
 20
-126.5538771905836
 30
0.0
 10
87.20017333089379
 20
-126.5538771905836
 30
0.0
 10
87.20017333089379
 20
-126.5538771905836
 30
0.0
 10
86.69100917721698
 20
-126.0570602462637
 30
0.0
 10
86.69100917721698
 20
-126.0570602462637
 30
0.0
 10
86.69100917721698
 20
-126.0570602462637
 30
0.0
 10
86.19147585662782
 20
-126.5531716350284
 30
0.0
 10
86.19147585662782
 20
-126.5531716350284
 30
0.0
 10
86.19147585662782
 20
-126.5531716350284
 30
0.0
 10
84.52128478812682
 20
-126.5531716350284
 30
0.0
 10
84.52128478812682
 20
-126.5531716350284
 30
0.0
 10
84.52128478812682
 20
-126.5531716350284
 30
0.0
 10
84.00312480134619
 20
-126.0570602462637
 30
0.0
 10
84.00312480134619
 20
-126.0570602462637
 30
0.0
 10
84.00312480134619
 20
-126.0570602462637
 30
0.0
 10
83.5235939802467
 20
-126.5528188572506
 30
0.0
 10
83.5235939802467
 20
-126.5528188572506
 30
0.0
 10
83.5235939802467
 20
-126.5528188572506
 30
0.0
 10
81.82585096800418
 20
-126.5528188572506
 30
0.0
 10
81.82585096800418
 20
-126.5528188572506
 30
0.0
 10
81.82585096800418
 20
-126.5528188572506
 30
0.0
 10
81.3297416463343
 20
-126.0570602462637
 30
0.0
 10
81.3297416463343
 20
-126.0570602462637
 30
0.0
 10
81.3297416463343
 20
-126.0570602462637
 30
0.0
 10
80.83366349331699
 20
-126.5531716350284
 30
0.0
 10
80.83366349331699
 20
-126.5531716350284
 30
0.0
 10
80.83366349331699
 20
-126.5531716350284
 30
0.0
 10
79.14692714746033
 20
-126.5531716350284
 30
0.0
 10
79.14692714746033
 20
-126.5531716350284
 30
0.0
 10
79.14692714746033
 20
-126.5531716350284
 30
0.0
 10
78.63981109145122
 20
-126.0560371907082
 30
0.0
 10
78.63981109145122
 20
-126.0560371907082
 30
0.0
 10
78.63981109145122
 20
-126.0560371907082
 30
0.0
 10
78.15474164712805
 20
-126.5531716350284
 30
0.0
 10
78.15474164712805
 20
-126.5531716350284
 30
0.0
 10
78.15474164712805
 20
-126.5531716350284
 30
0.0
 10
76.6285524894872
 20
-126.5531716350284
 30
0.0
 10
76.6285524894872
 20
-126.5531716350284
 30
0.0
 10
76.6285524894872
 20
-126.5531716350284
 30
0.0
 10
76.3929322177206
 20
-130.3145235785327
 30
0.0
 10
77.1577191426537
 20
-134.3552755219666
 30
0.0
 10
77.1577191426537
 20
-134.3552755219666
 30
0.0
 10
77.86327468020903
 20
-138.0756346877035
 30
0.0
 10
77.86327468020903
 20
-138.0756346877035
 30
0.0
 10
77.86327468020903
 20
-138.0756346877035
 30
0.0
 10
78.27531911414135
 20
-139.4226813540334
 30
0.0
 10
77.71651912839752
 20
-139.6149099650961
 30
0.0
 10
77.71651912839752
 20
-139.6149099650961
 30
0.0
 10
76.80494137387603
 20
-139.7437444095085
 30
0.0
 10
76.65818582206452
 20
-138.268216076544
 30
0.0
 10
76.65818582206452
 20
-138.268216076544
 30
0.0
 10
75.42346363134268
 20
-131.0517938561258
 30
0.0
 10
75.54062112835375
 20
-128.806963023354
 30
0.0
 10
75.54062112835375
 20
-128.806963023354
 30
0.0
 10
75.5116580735371
 20
-123.1945508025349
 30
0.0
 10
75.5116580735371
 20
-123.1945508025349
 30
0.0
 10
75.5116580735371
 20
-123.1945508025349
 30
0.0
 10
75.45242668615934
 20
-121.5912110807132
 30
0.0
 10
76.86353776127001
 20
-121.4306619140869
 30
0.0
 10
76.86353776127001
 20
-121.4306619140869
 30
0.0
 10
78.19195772737919
 20
-121.4306619140869
 30
0.0
 10
78.19195772737919
 20
-121.4306619140869
 30
0.0
 10
78.19195772737919
 20
-121.4306619140869
 30
0.0
 10
79.25029103371219
 20
-121.3021449696746
 30
0.0
 10
79.25029103371219
 20
-121.9756683028395
 30
0.0
 10
79.25029103371219
 20
-121.9756683028395
 30
0.0
 10
79.25029103371219
 20
-122.8417730248453
 30
0.0
 10
79.25029103371219
 20
-122.8417730248453
 30
0.0
 10
79.25029103371219
 20
-122.8417730248453
 30
0.0
 10
77.42230246923695
 20
-122.8417730248453
 30
0.0
 10
77.42230246923695
 20
-122.8417730248453
 30
0.0
 10
77.42230246923695
 20
-122.8417730248453
 30
0.0
 10
76.83457470645335
 20
-123.0987716358919
 30
0.0
 10
76.86353776127001
 20
-123.7399099690649
 30
0.0
 10
76.86353776127001
 20
-123.7399099690649
 30
0.0
 10
76.86353776127001
 20
-125.3432496908866
 30
0.0
 10
76.86353776127001
 20
-125.3432496908866
 30
0.0
 10
76.86353776127001
 20
-125.3432496908866
 30
0.0
 10
97.77041833900216
 20
-125.2791852464578
 30
0.0
 10
97.77041833900216
 20
-125.2791852464578
 30
0.0
 10
97.77041833900216
 20
-125.2791852464578
 30
0.0
 10
98.12665332991385
 20
-125.6643480241394
 30
0.0
 10
98.12665332991385
 20
-125.6643480241394
 30
0.0
 10
98.12665332991385
 20
-125.6643480241394
 30
0.0
 10
98.49597637604718
 20
-125.3112174686724
 30
0.0
 10
98.49597637604718
 20
-125.3112174686724
 30
0.0
 10
98.49597637604718
 20
-125.3112174686724
 30
0.0
 10
108.79680500214
 20
-125.3112174686724
 30
0.0
 10
108.79680500214
 20
-125.3112174686724
 30
0.0
 10
108.79680500214
 20
-125.3112174686724
 30
0.0
 10
109.4730799848868
 20
-125.3756346908782
 30
0.0
 10
109.414166097501
 20
-124.4454655244441
 30
0.0
 10
109.414166097501
 20
-124.4454655244441
 30
0.0
 10
106.9447217160573
 20
-122.7136088582103
 30
0.0
 10
106.9447217160573
 20
-122.7136088582103
 30
0.0
 10
106.9447217160573
 20
-122.7136088582103
 30
0.0
 10
106.1806050688849
 20
-122.3280933027514
 30
0.0
 10
106.5037495050852
 20
-121.6869902473562
 30
0.0
 10
106.5037495050852
 20
-121.6869902473562
 30
0.0
 10
108.6138544512519
 20
-122.3918402471798
 30
0.0
 10
109.2312155466129
 20
-122.8731349692818
 30
0.0
 10
109.2312155466129
 20
-122.8731349692818
 30
0.0
 10
110.6061669004238
 20
-124.045133302322
 30
0.0
 10
110.6061669004238
 20
-124.045133302322
 30
0.0
 10
110.6061669004238
 20
-124.045133302322
 30
0.0
 10
110.1107638613612
 20
-126.5652366350254
 30
0.0
 10
110.1107638613612
 20
-126.5652366350254
 30
0.0
 10
110.1107638613612
 20
-126.5652366350254
 30
0.0
 10
108.6479680614927
 20
-126.5652366350254
 30
0.0
 10
108.6479680614927
 20
-126.5652366350254
 30
0.0
 10
108.6479680614927
 20
-126.5652366350254
 30
0.0
 10
108.1215530749227
 20
-126.0570602462637
 30
0.0
 10
108.1215530749227
 20
-126.0570602462637
 30
0.0
 10
108.1215530749227
 20
-126.0570602462637
 30
0.0
 10
107.6392353094499
 20
-126.5528188572506
 30
0.0
 10
107.6392353094499
 20
-126.5528188572506
 30
0.0
 10
107.6392353094499
 20
-126.5528188572506
 30
0.0
 10
105.9414922972074
 20
-126.5528188572506
 30
0.0
 10
105.9414922972074
 20
-126.5528188572506
 30
0.0
 10
105.9414922972074
 20
-126.5528188572506
 30
0.0
 10
105.4454161987522
 20
-126.0625988573734
 30
0.0
 10
105.4454161987522
 20
-126.0625988573734
 30
0.0
 10
105.4454161987522
 20
-126.0625988573734
 30
0.0
 10
104.95484343349
 20
-126.5514430239178
 30
0.0
 10
104.95484343349
 20
-126.5514430239178
 30
0.0
 10
104.7580992718427
 20
-126.5514430239178
 30
0.0
 10
103.2791490317961
 20
-126.5514430239178
 30
0.0
 10
103.2791490317961
 20
-126.5514430239178
 30
0.0
 10
103.2791490317961
 20
-126.5514430239178
 30
0.0
 10
102.7664923782084
 20
-126.0460535795996
 30
0.0
 10
102.7664923782084
 20
-126.0460535795996
 30
0.0
 10
102.7664923782084
 20
-126.0460535795996
 30
0.0
 10
102.275922196653
 20
-126.5514430239178
 30
0.0
 10
102.275922196653
 20
-126.5514430239178
 30
0.0
 10
102.275922196653
 20
-126.5514430239178
 30
0.0
 10
100.5836799338965
 20
-126.5514430239178
 30
0.0
 10
100.5836799338965
 20
-126.5514430239178
 30
0.0
 10
100.5836799338965
 20
-126.5514430239178
 30
0.0
 10
100.0765618912786
 20
-126.0570602462637
 30
0.0
 10
100.0765618912786
 20
-126.0570602462637
 30
0.0
 10
100.0765618912786
 20
-126.0570602462637
 30
0.0
 10
99.5804857928235
 20
-126.5586749683603
 30
0.0
 10
99.5804857928235
 20
-126.5586749683603
 30
0.0
 10
99.5804857928235
 20
-126.5586749683603
 30
0.0
 10
97.91579805751543
 20
-126.5586749683603
 30
0.0
 10
97.91579805751543
 20
-126.5586749683603
 30
0.0
 10
97.91579805751543
 20
-126.5586749683603
 30
0.0
 10
97.40317668170461
 20
-126.0515569129315
 30
0.0
 10
97.40317668170461
 20
-126.0515569129315
 30
0.0
 10
97.40317668170461
 20
-126.0515569129315
 30
0.0
 10
96.90710058324944
 20
-126.5531716350284
 30
0.0
 10
96.90710058324944
 20
-126.5531716350284
 30
0.0
 10
96.90710058324944
 20
-126.5531716350284
 30
0.0
 10
95.22586757058572
 20
-126.5531716350284
 30
0.0
 10
95.22586757058572
 20
-126.5531716350284
 30
0.0
 10
95.22586757058572
 20
-126.5531716350284
 30
0.0
 10
94.71874952796783
 20
-126.0625988573734
 30
0.0
 10
94.71874952796783
 20
-126.0625988573734
 30
0.0
 10
94.71874952796783
 20
-126.0625988573734
 30
0.0
 10
94.2281767627056
 20
-126.5586749683603
 30
0.0
 10
94.2281767627056
 20
-126.5586749683603
 30
0.0
 10
94.2281767627056
 20
-126.5586749683603
 30
0.0
 10
93.3324740077791
 20
-126.5586749683603
 30
0.0
 10
93.3324740077791
 20
-126.5586749683603
 30
0.0
 10
93.3324740077791
 20
-126.5586749683603
 30
0.0
 10
92.74471096721864
 20
-126.5531716350284
 30
0.0
 10
92.74471096721864
 20
-126.5531716350284
 30
0.0
  0
HATCH
  5
BD
330
1F
100
AcDbEntity
  8
_U+30EC_U+30A4_U+30E4_U+30FC 1
 62
   253
420
 11711154
100
AcDbHatch
 10
0.0
 20
0.0
 30
0.0
210
0.0
220
0.0
230
1.0
  2
SOLID
 70
     1
 71
     0
 91
        1
 92
        1
 93
        1
 72
     4
 94
        3
 73
     0
 74
     1
 95
      191
 96
      187
 40
0.0
 40
0.0
 40
0.0
 40
0.0
 40
1.0
 40
1.0
 40
1.0
 40
2.0
 40
2.0
 40
2.0
 40
3.0
 40
3.0
 40
3.0
 40
4.0
 40
4.0
 40
4.0
 40
5.0
 40
5.0
 40
5.0
 40
6.0
 40
6.0
 40
6.0
 40
7.0
 40
7.0
 40
7.0
 40
8.0
 40
8.0
 40
8.0
 40
9.0
 40
9.0
 40
9.0
 40
10.0
 40
10.0
 40
10.0
 40
11.0
 40
11.0
 40
11.0
 40
12.0
 40
12.0
 40
12.0
 40
13.0
 40
13.0
 40
13.0
 40
14.0
 40
14.0
 40
14.0
 40
15.0
 40
15.0
 40
15.0
 40
16.0
 40
16.0
 40
16.0
 40
17.0
 40
17.0
 40
17.0
 40
18.0
 40
18.0
 40
18.0
 40
19.0
 40
19.0
 40
19.0
 40
20.0
 40
20.0
 40
20.0
 40
21.0
 40
21.0
 40
21.0
 40
22.0
 40
22.0
 40
22.0
 40
23.0
 40
23.0
 40
23.0
 40
24.0
 40
24.0
 40
24.0
 40
25.0
 40
25.0
 40
25.0
 40
26.0
 40
26.0
 40
26.0
 40
27.0
 40
27.0
 40
27.0
 40
28.0
 40
28.0
 40
28.0
 40
29.0
 40
29.0
 40
29.0
 40
30.0
 40
30.0
 40
30.0
 40
31.0
 40
31.0
 40
31.0
 40
32.0
 40
32.0
 40
32.0
 40
33.0
 40
33.0
 40
33.0
 40
34.0
 40
34.0
 40
34.0
 40
35.0
 40
35.0
 40
35.0
 40
36.0
 40
36.0
 40
36.0
 40
37.0
 40
37.0
 40
37.0
 40
38.0
 40
38.0
 40
38.0
 40
39.0
 40
39.0
 40
39.0
 40
40.0
 40
40.0
 40
40.0
 40
41.0
 40
41.0
 40
41.0
 40
42.0
 40
42.0
 40
42.0
 40
43.0
 40
43.0
 40
43.0
 40
44.0
 40
44.0
 40
44.0
 40
45.0
 40
45.0
 40
45.0
 40
46.0
 40
46.0
 40
46.0
 40
47.0
 40
47.0
 40
47.0
 40
48.0
 40
48.0
 40
48.0
 40
49.0
 40
49.0
 40
49.0
 40
50.0
 40
50.0
 40
50.0
 40
51.0
 40
51.0
 40
51.0
 40
52.0
 40
52.0
 40
52.0
 40
53.0
 40
53.0
 40
53.0
 40
54.0
 40
54.0
 40
54.0
 40
55.0
 40
55.0
 40
55.0
 40
56.0
 40
56.0
 40
56.0
 40
57.0
 40
57.0
 40
57.0
 40
58.0
 40
58.0
 40
58.0
 40
59.0
 40
59.0
 40
59.0
 40
60.0
 40
60.0
 40
60.0
 40
61.0
 40
61.0
 40
61.0
 40
62.0
 40
62.0
 40
62.0
 40
62.0
 10
92.74471096721864
 20
-126.5531716350284
 10
92.74471096721864
 20
-126.5531716350284
 10
92.54697902781875
 20
-126.5531716350284
 10
92.54697902781875
 20
-126.5531716350284
 10
92.54697902781875
 20
-126.5531716350284
 10
92.04536664365507
 20
-126.0570602462637
 10
92.04536664365507
 20
-126.0570602462637
 10
92.04536664365507
 20
-126.0570602462637
 10
91.55479155313157
 20
-126.5531716350284
 10
91.55479155313157
 20
-126.5531716350284
 10
91.55479155313157
 20
-126.5531716350284
 10
89.8680552072749
 20
-126.5531716350284
 10
89.8680552072749
 20
-126.5531716350284
 10
89.8680552072749
 20
-126.5531716350284
 10
89.36647577562681
 20
-126.0625988573734
 10
89.36647577562681
 20
-126.0625988573734
 10
89.36647577562681
 20
-126.0625988573734
 10
88.88140634355753
 20
-126.5538771905836
 10
88.88140634355753
 20
-126.5538771905836
 10
88.88140634355753
 20
-126.5538771905836
 10
87.20017333089379
 20
-126.5538771905836
 10
87.20017333089379
 20
-126.5538771905836
 10
87.20017333089379
 20
-126.5538771905836
 10
86.69100917721698
 20
-126.0570602462637
 10
86.69100917721698
 20
-126.0570602462637
 10
86.69100917721698
 20
-126.0570602462637
 10
86.19147585662782
 20
-126.5531716350284
 10
86.19147585662782
 20
-126.5531716350284
 10
86.19147585662782
 20
-126.5531716350284
 10
84.52128478812682
 20
-126.5531716350284
 10
84.52128478812682
 20
-126.5531716350284
 10
84.52128478812682
 20
-126.5531716350284
 10
84.00312480134619
 20
-126.0570602462637
 10
84.00312480134619
 20
-126.0570602462637
 10
84.00312480134619
 20
-126.0570602462637
 10
83.5235939802467
 20
-126.5528188572506
 10
83.5235939802467
 20
-126.5528188572506
 10
83.5235939802467
 20
-126.5528188572506
 10
81.82585096800418
 20
-126.5528188572506
 10
81.82585096800418
 20
-126.5528188572506
 10
81.82585096800418
 20
-126.5528188572506
 10
81.3297416463343
 20
-126.0570602462637
 10
81.3297416463343
 20
-126.0570602462637
 10
81.3297416463343
 20
-126.0570602462637
 10
80.83366349331699
 20
-126.5531716350284
 10
80.83366349331699
 20
-126.5531716350284
 10
80.83366349331699
 20
-126.5531716350284
 10
79.14692714746033
 20
-126.5531716350284
 10
79.14692714746033
 20
-126.5531716350284
 10
79.14692714746033
 20
-126.5531716350284
 10
78.63981109145122
 20
-126.0560371907082
 10
78.63981109145122
 20
-126.0560371907082
 10
78.63981109145122
 20
-126.0560371907082
 10
78.15474164712805
 20
-126.5531716350284
 10
78.15474164712805
 20
-126.5531716350284
 10
78.15474164712805
 20
-126.5531716350284
 10
76.6285524894872
 20
-126.5531716350284
 10
76.6285524894872
 20
-126.5531716350284
 10
76.6285524894872
 20
-126.5531716350284
 10
76.3929322177206
 20
-130.3145235785327
 10
77.1577191426537
 20
-134.3552755219666
 10
77.1577191426537
 20
-134.3552755219666
 10
77.86327468020903
 20
-138.0756346877035
 10
77.86327468020903
 20
-138.0756346877035
 10
77.86327468020903
 20
-138.0756346877035
 10
78.27531911414135
 20
-139.4226813540334
 10
77.71651912839752
 20
-139.6149099650961
 10
77.71651912839752
 20
-139.6149099650961
 10
76.80494137387603
 20
-139.7437444095085
 10
76.65818582206452
 20
-138.268216076544
 10
76.65818582206452
 20
-138.268216076544
 10
75.42346363134268
 20
-131.0517938561258
 10
75.54062112835375
 20
-128.806963023354
 10
75.54062112835375
 20
-128.806963023354
 10
75.5116580735371
 20
-123.1945508025349
 10
75.5116580735371
 20
-123.1945508025349
 10
75.5116580735371
 20
-123.1945508025349
 10
75.45242668615934
 20
-121.5912110807132
 10
76.86353776127001
 20
-121.4306619140869
 10
76.86353776127001
 20
-121.4306619140869
 10
78.19195772737919
 20
-121.4306619140869
 10
78.19195772737919
 20
-121.4306619140869
 10
78.19195772737919
 20
-121.4306619140869
 10
79.25029103371219
 20
-121.3021449696746
 10
79.25029103371219
 20
-121.9756683028395
 10
79.25029103371219
 20
-121.9756683028395
 10
79.25029103371219
 20
-122.8417730248453
 10
79.25029103371219
 20
-122.8417730248453
 10
79.25029103371219
 20
-122.8417730248453
 10
77.42230246923695
 20
-122.8417730248453
 10
77.42230246923695
 20
-122.8417730248453
 10
77.42230246923695
 20
-122.8417730248453
 10
76.83457470645335
 20
-123.0987716358919
 10
76.86353776127001
 20
-123.7399099690649
 10
76.86353776127001
 20
-123.7399099690649
 10
76.86353776127001
 20
-125.3432496908866
 10
76.86353776127001
 20
-125.3432496908866
 10
76.86353776127001
 20
-125.3432496908866
 10
97.77041833900216
 20
-125.2791852464578
 10
97.77041833900216
 20
-125.2791852464578
 10
97.77041833900216
 20
-125.2791852464578
 10
98.12665332991385
 20
-125.6643480241394
 10
98.12665332991385
 20
-125.6643480241394
 10
98.12665332991385
 20
-125.6643480241394
 10
98.49597637604718
 20
-125.3112174686724
 10
98.49597637604718
 20
-125.3112174686724
 10
98.49597637604718
 20
-125.3112174686724
 10
108.79680500214
 20
-125.3112174686724
 10
108.79680500214
 20
-125.3112174686724
 10
108.79680500214
 20
-125.3112174686724
 10
109.4730799848868
 20
-125.3756346908782
 10
109.414166097501
 20
-124.4454655244441
 10
109.414166097501
 20
-124.4454655244441
 10
106.9447217160573
 20
-122.7136088582103
 10
106.9447217160573
 20
-122.7136088582103
 10
106.9447217160573
 20
-122.7136088582103
 10
106.1806050688849
 20
-122.3280933027514
 10
106.5037495050852
 20
-121.6869902473562
 10
106.5037495050852
 20
-121.6869902473562
 10
108.6138544512519
 20
-122.3918402471798
 10
109.2312155466129
 20
-122.8731349692818
 10
109.2312155466129
 20
-122.8731349692818
 10
110.6061669004238
 20
-124.045133302322
 10
110.6061669004238
 20
-124.045133302322
 10
110.6061669004238
 20
-124.045133302322
 10
110.1107638613612
 20
-126.5652366350254
 10
110.1107638613612
 20
-126.5652366350254
 10
110.1107638613612
 20
-126.5652366350254
 10
108.6479680614927
 20
-126.5652366350254
 10
108.6479680614927
 20
-126.5652366350254
 10
108.6479680614927
 20
-126.5652366350254
 10
108.1215530749227
 20
-126.0570602462637
 10
108.1215530749227
 20
-126.0570602462637
 10
108.1215530749227
 20
-126.0570602462637
 10
107.6392353094499
 20
-126.5528188572506
 10
107.6392353094499
 20
-126.5528188572506
 10
107.6392353094499
 20
-126.5528188572506
 10
105.9414922972074
 20
-126.5528188572506
 10
105.9414922972074
 20
-126.5528188572506
 10
105.9414922972074
 20
-126.5528188572506
 10
105.4454161987522
 20
-126.0625988573734
 10
105.4454161987522
 20
-126.0625988573734
 10
105.4454161987522
 20
-126.0625988573734
 10
104.95484343349
 20
-126.5514430239178
 10
104.95484343349
 20
-126.5514430239178
 10
104.7580992718427
 20
-126.5514430239178
 10
103.2791490317961
 20
-126.5514430239178
 10
103.2791490317961
 20
-126.5514430239178
 10
103.2791490317961
 20
-126.5514430239178
 10
102.7664923782084
 20
-126.0460535795996
 10
102.7664923782084
 20
-126.0460535795996
 10
102.7664923782084
 20
-126.0460535795996
 10
102.275922196653
 20
-126.5514430239178
 10
102.275922196653
 20
-126.5514430239178
 10
102.275922196653
 20
-126.5514430239178
 10
100.5836799338965
 20
-126.5514430239178
 10
100.5836799338965
 20
-126.5514430239178
 10
100.5836799338965
 20
-126.5514430239178
 10
100.0765618912786
 20
-126.0570602462637
 10
100.0765618912786
 20
-126.0570602462637
 10
100.0765618912786
 20
-126.0570602462637
 10
99.5804857928235
 20
-126.5586749683603
 10
99.5804857928235
 20
-126.5586749683603
 10
99.5804857928235
 20
-126.5586749683603
 10
97.91579805751543
 20
-126.5586749683603
 10
97.91579805751543
 20
-126.5586749683603
 10
97.91579805751543
 20
-126.5586749683603
 10
97.40317668170461
 20
-126.0515569129315
 10
97.40317668170461
 20
-126.0515569129315
 10
97.40317668170461
 20
-126.0515569129315
 10
96.90710058324944
 20
-126.5531716350284
 10
96.90710058324944
 20
-126.5531716350284
 10
96.90710058324944
 20
-126.5531716350284
 10
95.22586757058572
 20
-126.5531716350284
 10
95.22586757058572
 20
-126.5531716350284
 10
95.22586757058572
 20
-126.5531716350284
 10
94.71874952796783
 20
-126.0625988573734
 10
94.71874952796783
 20
-126.0625988573734
 10
94.71874952796783
 20
-126.0625988573734
 10
94.2281767627056
 20
-126.5586749683603
 10
94.2281767627056
 20
-126.5586749683603
 10
94.2281767627056
 20
-126.5586749683603
 10
93.3324740077791
 20
-126.5586749683603
 10
93.3324740077791
 20
-126.5586749683603
 10
93.3324740077791
 20
-126.5586749683603
 10
92.74471096721864
 20
-126.5531716350284
 10
92.74471096721864
 20
-126.5531716350284
 97
        0
 97
        0
 75
     2
 76
     1
 98
        0
  0
POLYLINE
  5
BE
330
1F
100
AcDbEntity
  8
_U+30EC_U+30A4_U+30E4_U+30FC 1
  6
AI-Linetype-1
 62
   179
420
  2234388
370
     9
100
AcDb2dPolyline
 66
     1
 10
0.0
 20
0.0
 30
0.0
  0
VERTEX
  5
BF
330
BE
100
AcDbEntity
  8
_U+30EC_U+30A4_U+30E4_U+30FC 1
  6
AI-Linetype-1
 62
   179
420
  2234388
370
     9
100
AcDbVertex
100
AcDb2dVertex
 10
98.11218944139397
 20
-127.0437444126834
 30
0.0
  0
VERTEX
  5
C0
330
BE
100
AcDbEntity
  8
_U+30EC_U+30A4_U+30E4_U+30FC 1
  6
AI-Linetype-1
 62
   179
420
  2234388
370
     9
100
AcDbVertex
100
AcDb2dVertex
 10
98.11218944139397
 20
-130.6597166340017
 30
0.0
  0
SEQEND
  5
C2
330
BE
100
AcDbEntity
  8
_U+30EC_U+30A4_U+30E4_U+30FC 1
  6
AI-Linetype-1
 62
   179
420
  2234388
370
     9
  0
SPLINE
  5
C3
330
1F
100
AcDbEntity
  8
_U+30EC_U+30A4_U+30E4_U+30FC 1
 62
     7
420
 16777215
370
    25
100
AcDbSpline
210
0.0
220
0.0
230
1.0
 70
    11
 71
     3
 72
   191
 73
   187
 74
     0
 42
0.0000000001
 43
0.0000000001
 12
1.0
 22
0.0
 32
0.0
 13
1.0
 23
0.0
 33
0.0
 40
0.0
 40
0.0
 40
0.0
 40
0.0
 40
1.0
 40
1.0
 40
1.0
 40
2.0
 40
2.0
 40
2.0
 40
3.0
 40
3.0
 40
3.0
 40
4.0
 40
4.0
 40
4.0
 40
5.0
 40
5.0
 40
5.0
 40
6.0
 40
6.0
 40
6.0
 40
7.0
 40
7.0
 40
7.0
 40
8.0
 40
8.0
 40
8.0
 40
9.0
 40
9.0
 40
9.0
 40
10.0
 40
10.0
 40
10.0
 40
11.0
 40
11.0
 40
11.0
 40
12.0
 40
12.0
 40
12.0
 40
13.0
 40
13.0
 40
13.0
 40
14.0
 40
14.0
 40
14.0
 40
15.0
 40
15.0
 40
15.0
 40
16.0
 40
16.0
 40
16.0
 40
17.0
 40
17.0
 40
17.0
 40
18.0
 40
18.0
 40
18.0
 40
19.0
 40
19.0
 40
19.0
 40
20.0
 40
20.0
 40
20.0
 40
21.0
 40
21.0
 40
21.0
 40
22.0
 40
22.0
 40
22.0
 40
23.0
 40
23.0
 40
23.0
 40
24.0
 40
24.0
 40
24.0
 40
25.0
 40
25.0
 40
25.0
 40
26.0
 40
26.0
 40
26.0
 40
27.0
 40
27.0
 40
27.0
 40
28.0
 40
28.0
 40
28.0
 40
29.0
 40
29.0
 40
29.0
 40
30.0
 40
30.0
 40
30.0
 40
31.0
 40
31.0
 40
31.0
 40
32.0
 40
32.0
 40
32.0
 40
33.0
 40
33.0
 40
33.0
 40
34.0
 40
34.0
 40
34.0
 40
35.0
 40
35.0
 40
35.0
 40
36.0
 40
36.0
 40
36.0
 40
37.0
 40
37.0
 40
37.0
 40
38.0
 40
38.0
 40
38.0
 40
39.0
 40
39.0
 40
39.0
 40
40.0
 40
40.0
 40
40.0
 40
41.0
 40
41.0
 40
41.0
 40
42.0
 40
42.0
 40
42.0
 40
43.0
 40
43.0
 40
43.0
 40
44.0
 40
44.0
 40
44.0
 40
45.0
 40
45.0
 40
45.0
 40
46.0
 40
46.0
 40
46.0
 40
47.0
 40
47.0
 40
47.0
 40
48.0
 40
48.0
 40
48.0
 40
49.0
 40
49.0
 40
49.0
 40
50.0
 40
50.0
 40
50.0
 40
51.0
 40
51.0
 40
51.0
 40
52.0
 40
52.0
 40
52.0
 40
53.0
 40
53.0
 40
53.0
 40
54.0
 40
54.0
 40
54.0
 40
55.0
 40
55.0
 40
55.0
 40
56.0
 40
56.0
 40
56.0
 40
57.0
 40
57.0
 40
57.0
 40
58.0
 40
58.0
 40
58.0
 40
59.0
 40
59.0
 40
59.0
 40
60.0
 40
60.0
 40
60.0
 40
61.0
 40
61.0
 40
61.0
 40
62.0
 40
62.0
 40
62.0
 40
62.0
 10
92.74471096721864
 20
-126.5531716350284
 30
0.0
 10
92.74471096721864
 20
-126.5531716350284
 30
0.0
 10
92.54697902781875
 20
-126.5531716350284
 30
0.0
 10
92.54697902781875
 20
-126.5531716350284
 30
0.0
 10
92.54697902781875
 20
-126.5531716350284
 30
0.0
 10
92.04536664365507
 20
-126.0570602462637
 30
0.0
 10
92.04536664365507
 20
-126.0570602462637
 30
0.0
 10
92.04536664365507
 20
-126.0570602462637
 30
0.0
 10
91.55479155313157
 20
-126.5531716350284
 30
0.0
 10
91.55479155313157
 20
-126.5531716350284
 30
0.0
 10
91.55479155313157
 20
-126.5531716350284
 30
0.0
 10
89.8680552072749
 20
-126.5531716350284
 30
0.0
 10
89.8680552072749
 20
-126.5531716350284
 30
0.0
 10
89.8680552072749
 20
-126.5531716350284
 30
0.0
 10
89.36647577562681
 20
-126.0625988573734
 30
0.0
 10
89.36647577562681
 20
-126.0625988573734
 30
0.0
 10
89.36647577562681
 20
-126.0625988573734
 30
0.0
 10
88.88140634355753
 20
-126.5538771905836
 30
0.0
 10
88.88140634355753
 20
-126.5538771905836
 30
0.0
 10
88.88140634355753
 20
-126.5538771905836
 30
0.0
 10
87.20017333089379
 20
-126.5538771905836
 30
0.0
 10
87.20017333089379
 20
-126.5538771905836
 30
0.0
 10
87.20017333089379
 20
-126.5538771905836
 30
0.0
 10
86.69100917721698
 20
-126.0570602462637
 30
0.0
 10
86.69100917721698
 20
-126.0570602462637
 30
0.0
 10
86.69100917721698
 20
-126.0570602462637
 30
0.0
 10
86.19147585662782
 20
-126.5531716350284
 30
0.0
 10
86.19147585662782
 20
-126.5531716350284
 30
0.0
 10
86.19147585662782
 20
-126.5531716350284
 30
0.0
 10
84.52128478812682
 20
-126.5531716350284
 30
0.0
 10
84.52128478812682
 20
-126.5531716350284
 30
0.0
 10
84.52128478812682
 20
-126.5531716350284
 30
0.0
 10
84.00312480134619
 20
-126.0570602462637
 30
0.0
 10
84.00312480134619
 20
-126.0570602462637
 30
0.0
 10
84.00312480134619
 20
-126.0570602462637
 30
0.0
 10
83.5235939802467
 20
-126.5528188572506
 30
0.0
 10
83.5235939802467
 20
-126.5528188572506
 30
0.0
 10
83.5235939802467
 20
-126.5528188572506
 30
0.0
 10
81.82585096800418
 20
-126.5528188572506
 30
0.0
 10
81.82585096800418
 20
-126.5528188572506
 30
0.0
 10
81.82585096800418
 20
-126.5528188572506
 30
0.0
 10
81.3297416463343
 20
-126.0570602462637
 30
0.0
 10
81.3297416463343
 20
-126.0570602462637
 30
0.0
 10
81.3297416463343
 20
-126.0570602462637
 30
0.0
 10
80.83366349331699
 20
-126.5531716350284
 30
0.0
 10
80.83366349331699
 20
-126.5531716350284
 30
0.0
 10
80.83366349331699
 20
-126.5531716350284
 30
0.0
 10
79.14692714746033
 20
-126.5531716350284
 30
0.0
 10
79.14692714746033
 20
-126.5531716350284
 30
0.0
 10
79.14692714746033
 20
-126.5531716350284
 30
0.0
 10
78.63981109145122
 20
-126.0560371907082
 30
0.0
 10
78.63981109145122
 20
-126.0560371907082
 30
0.0
 10
78.63981109145122
 20
-126.0560371907082
 30
0.0
 10
78.15474164712805
 20
-126.5531716350284
 30
0.0
 10
78.15474164712805
 20
-126.5531716350284
 30
0.0
 10
78.15474164712805
 20
-126.5531716350284
 30
0.0
 10
76.6285524894872
 20
-126.5531716350284
 30
0.0
 10
76.6285524894872
 20
-126.5531716350284
 30
0.0
 10
76.6285524894872
 20
-126.5531716350284
 30
0.0
 10
76.3929322177206
 20
-130.3145235785327
 30
0.0
 10
77.1577191426537
 20
-134.3552755219666
 30
0.0
 10
77.1577191426537
 20
-134.3552755219666
 30
0.0
 10
77.86327468020903
 20
-138.0756346877035
 30
0.0
 10
77.86327468020903
 20
-138.0756346877035
 30
0.0
 10
77.86327468020903
 20
-138.0756346877035
 30
0.0
 10
78.27531911414135
 20
-139.4226813540334
 30
0.0
 10
77.71651912839752
 20
-139.6149099650961
 30
0.0
 10
77.71651912839752
 20
-139.6149099650961
 30
0.0
 10
76.80494137387603
 20
-139.7437444095085
 30
0.0
 10
76.65818582206452
 20
-138.268216076544
 30
0.0
 10
76.65818582206452
 20
-138.268216076544
 30
0.0
 10
75.42346363134268
 20
-131.0517938561258
 30
0.0
 10
75.54062112835375
 20
-128.806963023354
 30
0.0
 10
75.54062112835375
 20
-128.806963023354
 30
0.0
 10
75.5116580735371
 20
-123.1945508025349
 30
0.0
 10
75.5116580735371
 20
-123.1945508025349
 30
0.0
 10
75.5116580735371
 20
-123.1945508025349
 30
0.0
 10
75.45242668615934
 20
-121.5912110807132
 30
0.0
 10
76.86353776127001
 20
-121.4306619140869
 30
0.0
 10
76.86353776127001
 20
-121.4306619140869
 30
0.0
 10
78.19195772737919
 20
-121.4306619140869
 30
0.0
 10
78.19195772737919
 20
-121.4306619140869
 30
0.0
 10
78.19195772737919
 20
-121.4306619140869
 30
0.0
 10
79.25029103371219
 20
-121.3021449696746
 30
0.0
 10
79.25029103371219
 20
-121.9756683028395
 30
0.0
 10
79.25029103371219
 20
-121.9756683028395
 30
0.0
 10
79.25029103371219
 20
-122.8417730248453
 30
0.0
 10
79.25029103371219
 20
-122.8417730248453
 30
0.0
 10
79.25029103371219
 20
-122.8417730248453
 30
0.0
 10
77.42230246923695
 20
-122.8417730248453
 30
0.0
 10
77.42230246923695
 20
-122.8417730248453
 30
0.0
 10
77.42230246923695
 20
-122.8417730248453
 30
0.0
 10
76.83457470645335
 20
-123.0987716358919
 30
0.0
 10
76.86353776127001
 20
-123.7399099690649
 30
0.0
 10
76.86353776127001
 20
-123.7399099690649
 30
0.0
 10
76.86353776127001
 20
-125.3432496908866
 30
0.0
 10
76.86353776127001
 20
-125.3432496908866
 30
0.0
 10
76.86353776127001
 20
-125.3432496908866
 30
0.0
 10
97.77041833900216
 20
-125.2791852464578
 30
0.0
 10
97.77041833900216
 20
-125.2791852464578
 30
0.0
 10
97.77041833900216
 20
-125.2791852464578
 30
0.0
 10
98.12665332991385
 20
-125.6643480241394
 30
0.0
 10
98.12665332991385
 20
-125.6643480241394
 30
0.0
 10
98.12665332991385
 20
-125.6643480241394
 30
0.0
 10
98.49597637604718
 20
-125.3112174686724
 30
0.0
 10
98.49597637604718
 20
-125.3112174686724
 30
0.0
 10
98.49597637604718
 20
-125.3112174686724
 30
0.0
 10
108.79680500214
 20
-125.3112174686724
 30
0.0
 10
108.79680500214
 20
-125.3112174686724
 30
0.0
 10
108.79680500214
 20
-125.3112174686724
 30
0.0
 10
109.4730799848868
 20
-125.3756346908782
 30
0.0
 10
109.414166097501
 20
-124.4454655244441
 30
0.0
 10
109.414166097501
 20
-124.4454655244441
 30
0.0
 10
106.9447217160573
 20
-122.7136088582103
 30
0.0
 10
106.9447217160573
 20
-122.7136088582103
 30
0.0
 10
106.9447217160573
 20
-122.7136088582103
 30
0.0
 10
106.1806050688849
 20
-122.3280933027514
 30
0.0
 10
106.5037495050852
 20
-121.6869902473562
 30
0.0
 10
106.5037495050852
 20
-121.6869902473562
 30
0.0
 10
108.6138544512519
 20
-122.3918402471798
 30
0.0
 10
109.2312155466129
 20
-122.8731349692818
 30
0.0
 10
109.2312155466129
 20
-122.8731349692818
 30
0.0
 10
110.6061669004238
 20
-124.045133302322
 30
0.0
 10
110.6061669004238
 20
-124.045133302322
 30
0.0
 10
110.6061669004238
 20
-124.045133302322
 30
0.0
 10
110.1107638613612
 20
-126.5652366350254
 30
0.0
 10
110.1107638613612
 20
-126.5652366350254
 30
0.0
 10
110.1107638613612
 20
-126.5652366350254
 30
0.0
 10
108.6479680614927
 20
-126.5652366350254
 30
0.0
 10
108.6479680614927
 20
-126.5652366350254
 30
0.0
 10
108.6479680614927
 20
-126.5652366350254
 30
0.0
 10
108.1215530749227
 20
-126.0570602462637
 30
0.0
 10
108.1215530749227
 20
-126.0570602462637
 30
0.0
 10
108.1215530749227
 20
-126.0570602462637
 30
0.0
 10
107.6392353094499
 20
-126.5528188572506
 30
0.0
 10
107.6392353094499
 20
-126.5528188572506
 30
0.0
 10
107.6392353094499
 20
-126.5528188572506
 30
0.0
 10
105.9414922972074
 20
-126.5528188572506
 30
0.0
 10
105.9414922972074
 20
-126.5528188572506
 30
0.0
 10
105.9414922972074
 20
-126.5528188572506
 30
0.0
 10
105.4454161987522
 20
-126.0625988573734
 30
0.0
 10
105.4454161987522
 20
-126.0625988573734
 30
0.0
 10
105.4454161987522
 20
-126.0625988573734
 30
0.0
 10
104.95484343349
 20
-126.5514430239178
 30
0.0
 10
104.95484343349
 20
-126.5514430239178
 30
0.0
 10
104.7580992718427
 20
-126.5514430239178
 30
0.0
 10
103.2791490317961
 20
-126.5514430239178
 30
0.0
 10
103.2791490317961
 20
-126.5514430239178
 30
0.0
 10
103.2791490317961
 20
-126.5514430239178
 30
0.0
 10
102.7664923782084
 20
-126.0460535795996
 30
0.0
 10
102.7664923782084
 20
-126.0460535795996
 30
0.0
 10
102.7664923782084
 20
-126.0460535795996
 30
0.0
 10
102.275922196653
 20
-126.5514430239178
 30
0.0
 10
102.275922196653
 20
-126.5514430239178
 30
0.0
 10
102.275922196653
 20
-126.5514430239178
 30
0.0
 10
100.5836799338965
 20
-126.5514430239178
 30
0.0
 10
100.5836799338965
 20
-126.5514430239178
 30
0.0
 10
100.5836799338965
 20
-126.5514430239178
 30
0.0
 10
100.0765618912786
 20
-126.0570602462637
 30
0.0
 10
100.0765618912786
 20
-126.0570602462637
 30
0.0
 10
100.0765618912786
 20
-126.0570602462637
 30
0.0
 10
99.5804857928235
 20
-126.5586749683603
 30
0.0
 10
99.5804857928235
 20
-126.5586749683603
 30
0.0
 10
99.5804857928235
 20
-126.5586749683603
 30
0.0
 10
97.91579805751543
 20
-126.5586749683603
 30
0.0
 10
97.91579805751543
 20
-126.5586749683603
 30
0.0
 10
97.91579805751543
 20
-126.5586749683603
 30
0.0
 10
97.40317668170461
 20
-126.0515569129315
 30
0.0
 10
97.40317668170461
 20
-126.0515569129315
 30
0.0
 10
97.40317668170461
 20
-126.0515569129315
 30
0.0
 10
96.90710058324944
 20
-126.5531716350284
 30
0.0
 10
96.90710058324944
 20
-126.5531716350284
 30
0.0
 10
96.90710058324944
 20
-126.5531716350284
 30
0.0
 10
95.22586757058572
 20
-126.5531716350284
 30
0.0
 10
95.22586757058572
 20
-126.5531716350284
 30
0.0
 10
95.22586757058572
 20
-126.5531716350284
 30
0.0
 10
94.71874952796783
 20
-126.0625988573734
 30
0.0
 10
94.71874952796783
 20
-126.0625988573734
 30
0.0
 10
94.71874952796783
 20
-126.0625988573734
 30
0.0
 10
94.2281767627056
 20
-126.5586749683603
 30
0.0
 10
94.2281767627056
 20
-126.5586749683603
 30
0.0
 10
94.2281767627056
 20
-126.5586749683603
 30
0.0
 10
93.3324740077791
 20
-126.5586749683603
 30
0.0
 10
93.3324740077791
 20
-126.5586749683603
 30
0.0
 10
93.3324740077791
 20
-126.5586749683603
 30
0.0
 10
92.74471096721864
 20
-126.5531716350284
 30
0.0
 10
92.74471096721864
 20
-126.5531716350284
 30
0.0
  0
ENDSEC
  0
SECTION
  2
OBJECTS
  0
DICTIONARY
  5
C
330
0
100
AcDbDictionary
281
     1
  3
ACAD_GROUP
350
D
  3
ACAD_LAYOUT
350
1A
  3
ACAD_MATERIAL
350
3B
  3
ACAD_MLEADERSTYLE
350
C5
  3
ACAD_MLINESTYLE
350
17
  3
ACAD_PLOTSETTINGS
350
19
  3
ACAD_PLOTSTYLENAME
350
E
  3
ACAD_TABLESTYLE
350
C4
  3
ACAD_VISUALSTYLE
350
2A
  0
SUN
  5
3F
330
29
100
AcDbSun
 90
        1
290
     0
 63
     7
421
 16777215
 40
1.0
291
     1
 91
  2455826
 92
 54000000
292
     0
 70
     2
 71
   256
280
     1
  0
DICTIONARY
  5
D
102
{ACAD_REACTORS
330
C
102
}
330
C
100
AcDbDictionary
281
     1
  0
DICTIONARY
  5
1A
102
{ACAD_REACTORS
330
C
102
}
330
C
100
AcDbDictionary
281
     1
  3
Layout1
350
1E
  3
Layout2
350
26
  3
Model
350
22
  0
DICTIONARY
  5
3B
102
{ACAD_REACTORS
330
C
102
}
330
C
100
AcDbDictionary
281
     1
  3
ByBlock
350
3D
  3
ByLayer
350
3C
  3
Global
350
3E
  0
DICTIONARY
  5
C5
102
{ACAD_REACTORS
330
C
102
}
330
C
100
AcDbDictionary
281
     1
  0
DICTIONARY
  5
17
102
{ACAD_REACTORS
330
C
102
}
330
C
100
AcDbDictionary
281
     1
  3
Standard
350
18
  0
DICTIONARY
  5
19
102
{ACAD_REACTORS
330
C
102
}
330
C
100
AcDbDictionary
281
     1
  0
ACDBDICTIONARYWDFLT
  5
E
102
{ACAD_REACTORS
330
C
102
}
330
C
100
AcDbDictionary
281
     1
  3
Normal
350
F
100
AcDbDictionaryWithDefault
340
F
  0
DICTIONARY
  5
C4
102
{ACAD_REACTORS
330
C
102
}
330
C
100
AcDbDictionary
281
     1
  0
DICTIONARY
  5
2A
102
{ACAD_REACTORS
330
C
102
}
330
C
100
AcDbDictionary
281
     1
  3
2dWireframe
350
2F
  3
3D Hidden
350
31
  3
3dWireframe
350
30
  3
Basic
350
32
  3
Brighten
350
36
  3
ColorChange
350
3A
  3
Conceptual
350
34
  3
Dim
350
35
  3
Facepattern
350
39
  3
Flat
350
2B
  3
FlatWithEdges
350
2C
  3
Gouraud
350
2D
  3
GouraudWithEdges
350
2E
  3
Linepattern
350
38
  3
Realistic
350
33
  3
Thicken
350
37
  0
LAYOUT
  5
1E
102
{ACAD_REACTORS
330
1A
102
}
330
1A
100
AcDbPlotSettings
  1

  2
none_device
  4

  6

 40
0.0
 41
0.0
 42
0.0
 43
0.0
 44
0.0
 45
0.0
 46
0.0
 47
0.0
 48
0.0
 49
0.0
140
0.0
141
0.0
142
1.0
143
1.0
 70
   688
 72
     0
 73
     0
 74
     5
  7

 75
    16
 76
     0
 77
     2
 78
   300
147
1.0
148
0.0
149
0.0
100
AcDbLayout
  1
Layout1
 70
     1
 71
     1
 10
0.0
 20
0.0
 11
12.0
 21
9.0
 12
0.0
 22
0.0
 32
0.0
 14
1.000000000000000E+20
 24
1.000000000000000E+20
 34
1.000000000000000E+20
 15
-1.000000000000000E+20
 25
-1.000000000000000E+20
 35
-1.000000000000000E+20
146
0.0
 13
0.0
 23
0.0
 33
0.0
 16
1.0
 26
0.0
 36
0.0
 17
0.0
 27
1.0
 37
0.0
 76
     0
330
1B
  0
LAYOUT
  5
26
102
{ACAD_REACTORS
330
1A
102
}
330
1A
100
AcDbPlotSettings
  1

  2
none_device
  4

  6

 40
0.0
 41
0.0
 42
0.0
 43
0.0
 44
0.0
 45
0.0
 46
0.0
 47
0.0
 48
0.0
 49
0.0
140
0.0
141
0.0
142
1.0
143
1.0
 70
   688
 72
     0
 73
     0
 74
     5
  7

 75
    16
 76
     0
 77
     2
 78
   300
147
1.0
148
0.0
149
0.0
100
AcDbLayout
  1
Layout2
 70
     1
 71
     2
 10
0.0
 20
0.0
 11
0.0
 21
0.0
 12
0.0
 22
0.0
 32
0.0
 14
0.0
 24
0.0
 34
0.0
 15
0.0
 25
0.0
 35
0.0
146
0.0
 13
0.0
 23
0.0
 33
0.0
 16
1.0
 26
0.0
 36
0.0
 17
0.0
 27
1.0
 37
0.0
 76
     0
330
23
  0
LAYOUT
  5
22
102
{ACAD_REACTORS
330
1A
102
}
330
1A
100
AcDbPlotSettings
  1

  2
none_device
  4

  6

 40
0.0
 41
0.0
 42
0.0
 43
0.0
 44
0.0
 45
0.0
 46
0.0
 47
0.0
 48
0.0
 49
0.0
140
0.0
141
0.0
142
1.0
143
1.0
 70
  1712
 72
     0
 73
     0
 74
     0
  7

 75
     0
 76
     0
 77
     2
 78
   300
147
1.0
148
0.0
149
0.0
100
AcDbLayout
  1
Model
 70
     1
 71
     0
 10
0.0
 20
0.0
 11
12.0
 21
9.0
 12
0.0
 22
0.0
 32
0.0
 14
1.000000000000000E+20
 24
1.000000000000000E+20
 34
1.000000000000000E+20
 15
-1.000000000000000E+20
 25
-1.000000000000000E+20
 35
-1.000000000000000E+20
146
0.0
 13
0.0
 23
0.0
 33
0.0
 16
1.0
 26
0.0
 36
0.0
 17
0.0
 27
1.0
 37
0.0
 76
     0
330
1F
331
29
  0
MATERIAL
  5
3D
102
{ACAD_REACTORS
330
3B
102
}
330
3B
100
AcDbMaterial
  1
ByBlock
 72
     1
 94
      127
  0
MATERIAL
  5
3C
102
{ACAD_REACTORS
330
3B
102
}
330
3B
100
AcDbMaterial
  1
ByLayer
 72
     1
 94
      127
  0
MATERIAL
  5
3E
102
{ACAD_REACTORS
330
3B
102
}
330
3B
100
AcDbMaterial
  1
Global
 72
     1
 94
      127
  0
MLINESTYLE
  5
18
102
{ACAD_REACTORS
330
17
102
}
330
17
100
AcDbMlineStyle
  2
Standard
 70
     0
  3

 62
   256
 51
90.0
 52
90.0
 71
     2
 49
0.5
 62
   256
  6
BYLAYER
 49
-0.5
 62
   256
  6
BYLAYER
  0
ACDBPLACEHOLDER
  5
F
102
{ACAD_REACTORS
330
E
102
}
330
E
  0
VISUALSTYLE
  5
2F
102
{ACAD_REACTORS
330
2A
102
}
330
2A
100
AcDbVisualStyle
  2
2dWireframe
 70
     4
177
     2
291
     0
 71
     0
176
     1
 72
     2
176
     1
 73
     0
176
     1
 90
        0
176
     1
 40
-0.6
176
     1
 41
-30.0
176
     1
 62
     5
 63
     7
421
 16777215
176
     1
 74
     1
176
     1
 91
        4
176
     1
 64
     7
176
     1
 65
   257
176
     1
 75
     1
176
     1
175
     1
176
     1
 42
1.0
176
     1
 92
        0
176
     1
 66
   257
176
     1
 43
1.0
176
     1
 76
     1
176
     1
 77
     6
176
     1
 78
     2
176
     1
 67
     7
176
     1
 79
     5
176
     1
170
     0
176
     1
171
     0
176
     1
290
     0
176
     1
 93
        1
176
     1
 44
0.0
176
     1
173
     0
176
     1
  0
VISUALSTYLE
  5
31
102
{ACAD_REACTORS
330
2A
102
}
330
2A
100
AcDbVisualStyle
  2
3D Hidden
 70
     6
177
     2
291
     0
 71
     1
176
     1
 72
     2
176
     1
 73
     2
176
     1
 90
        0
176
     1
 40
-0.6
176
     1
 41
-30.0
176
     1
 62
     5
 63
     7
421
 16777215
176
     1
 74
     2
176
     1
 91
        2
176
     1
 64
     7
176
     1
 65
   257
176
     1
 75
     2
176
     1
175
     1
176
     1
 42
40.0
176
     1
 92
        0
176
     1
 66
   257
176
     1
 43
1.0
176
     1
 76
     1
176
     1
 77
     6
176
     1
 78
     2
176
     1
 67
     7
176
     1
 79
     3
176
     1
170
     0
176
     1
171
     0
176
     1
290
     0
176
     1
 93
        1
176
     1
 44
0.0
176
     1
173
     0
176
     1
  0
VISUALSTYLE
  5
30
102
{ACAD_REACTORS
330
2A
102
}
330
2A
100
AcDbVisualStyle
  2
3dWireframe
 70
     5
177
     2
291
     0
 71
     0
176
     1
 72
     2
176
     1
 73
     0
176
     1
 90
        0
176
     1
 40
-0.6
176
     1
 41
-30.0
176
     1
 62
     5
 63
     7
421
 16777215
176
     1
 74
     1
176
     1
 91
        4
176
     1
 64
     7
176
     1
 65
   257
176
     1
 75
     1
176
     1
175
     1
176
     1
 42
1.0
176
     1
 92
        0
176
     1
 66
   257
176
     1
 43
1.0
176
     1
 76
     1
176
     1
 77
     6
176
     1
 78
     2
176
     1
 67
     7
176
     1
 79
     5
176
     1
170
     0
176
     1
171
     0
176
     1
290
     0
176
     1
 93
        1
176
     1
 44
0.0
176
     1
173
     0
176
     1
  0
VISUALSTYLE
  5
32
102
{ACAD_REACTORS
330
2A
102
}
330
2A
100
AcDbVisualStyle
  2
Basic
 70
     7
177
     2
291
     1
 71
     1
176
     1
 72
     0
176
     1
 73
     1
176
     1
 90
        0
176
     1
 40
-0.6
176
     1
 41
-30.0
176
     1
 62
     5
 63
     7
421
 16777215
176
     1
 74
     0
176
     1
 91
        4
176
     1
 64
     7
176
     1
 65
   257
176
     1
 75
     1
176
     1
175
     1
176
     1
 42
1.0
176
     1
 92
        8
176
     1
 66
     7
176
     1
 43
1.0
176
     1
 76
     1
176
     1
 77
     6
176
     1
 78
     2
176
     1
 67
     7
176
     1
 79
     5
176
     1
170
     0
176
     1
171
     0
176
     1
290
     0
176
     1
 93
        1
176
     1
 44
0.0
176
     1
173
     0
176
     1
  0
VISUALSTYLE
  5
36
102
{ACAD_REACTORS
330
2A
102
}
330
2A
100
AcDbVisualStyle
  2
Brighten
 70
    12
177
     2
291
     1
 71
     2
176
     1
 72
     2
176
     1
 73
     0
176
     1
 90
        0
176
     1
 40
-0.6
176
     1
 41
-30.0
176
     1
 62
     5
 63
     7
421
 16777215
176
     1
 74
     1
176
     1
 91
        4
176
     1
 64
     7
176
     1
 65
   257
176
     1
 75
     1
176
     1
175
     1
176
     1
 42
1.0
176
     1
 92
        8
176
     1
 66
     7
176
     1
 43
1.0
176
     1
 76
     1
176
     1
 77
     6
176
     1
 78
     2
176
     1
 67
     7
176
     1
 79
     5
176
     1
170
     0
176
     1
171
     0
176
     1
290
     0
176
     1
 93
        1
176
     1
 44
50.0
176
     1
173
     0
176
     1
  0
VISUALSTYLE
  5
3A
102
{ACAD_REACTORS
330
2A
102
}
330
2A
100
AcDbVisualStyle
  2
ColorChange
 70
    16
177
     2
291
     1
 71
     2
176
     1
 72
     2
176
     1
 73
     3
176
     1
 90
        0
176
     1
 40
-0.6
176
     1
 41
-30.0
176
     1
 62
     5
 63
     8
421
  8421504
176
     1
 74
     1
176
     1
 91
        4
176
     1
 64
     7
176
     1
 65
   257
176
     1
 75
     1
176
     1
175
     1
176
     1
 42
1.0
176
     1
 92
        8
176
     1
 66
     8
424
  8421504
176
     1
 43
1.0
176
     1
 76
     1
176
     1
 77
     6
176
     1
 78
     2
176
     1
 67
     7
176
     1
 79
     5
176
     1
170
     0
176
     1
171
     0
176
     1
290
     0
176
     1
 93
        1
176
     1
 44
0.0
176
     1
173
     0
176
     1
  0
VISUALSTYLE
  5
34
102
{ACAD_REACTORS
330
2A
102
}
330
2A
100
AcDbVisualStyle
  2
Conceptual
 70
     9
177
     2
291
     0
 71
     3
176
     1
 72
     2
176
     1
 73
     0
176
     1
 90
        0
176
     1
 40
-0.6
176
     1
 41
-30.0
176
     1
 62
     5
 63
     7
421
 16777215
176
     1
 74
     2
176
     1
 91
        2
176
     1
 64
     7
176
     1
 65
   257
176
     1
 75
     1
176
     1
175
     1
176
     1
 42
40.0
176
     1
 92
        8
176
     1
 66
     7
176
     1
 43
1.0
176
     1
 76
     1
176
     1
 77
     6
176
     1
 78
     2
176
     1
 67
     7
176
     1
 79
     3
176
     1
170
     0
176
     1
171
     0
176
     1
290
     0
176
     1
 93
        1
176
     1
 44
0.0
176
     1
173
     0
176
     1
  0
VISUALSTYLE
  5
35
102
{ACAD_REACTORS
330
2A
102
}
330
2A
100
AcDbVisualStyle
  2
Dim
 70
    11
177
     2
291
     1
 71
     2
176
     1
 72
     2
176
     1
 73
     0
176
     1
 90
        0
176
     1
 40
-0.6
176
     1
 41
-30.0
176
     1
 62
     5
 63
     7
421
 16777215
176
     1
 74
     1
176
     1
 91
        4
176
     1
 64
     7
176
     1
 65
   257
176
     1
 75
     1
176
     1
175
     1
176
     1
 42
1.0
176
     1
 92
        8
176
     1
 66
     7
176
     1
 43
1.0
176
     1
 76
     1
176
     1
 77
     6
176
     1
 78
     2
176
     1
 67
     7
176
     1
 79
     5
176
     1
170
     0
176
     1
171
     0
176
     1
290
     0
176
     1
 93
        1
176
     1
 44
-50.0
176
     1
173
     0
176
     1
  0
VISUALSTYLE
  5
39
102
{ACAD_REACTORS
330
2A
102
}
330
2A
100
AcDbVisualStyle
  2
Facepattern
 70
    15
177
     2
291
     1
 71
     2
176
     1
 72
     2
176
     1
 73
     0
176
     1
 90
        0
176
     1
 40
-0.6
176
     1
 41
-30.0
176
     1
 62
     5
 63
     7
421
 16777215
176
     1
 74
     1
176
     1
 91
        4
176
     1
 64
     7
176
     1
 65
   257
176
     1
 75
     1
176
     1
175
     1
176
     1
 42
1.0
176
     1
 92
        8
176
     1
 66
     7
176
     1
 43
1.0
176
     1
 76
     1
176
     1
 77
     6
176
     1
 78
     2
176
     1
 67
     7
176
     1
 79
     5
176
     1
170
     0
176
     1
171
     0
176
     1
290
     0
176
     1
 93
        1
176
     1
 44
0.0
176
     1
173
     0
176
     1
  0
VISUALSTYLE
  5
2B
102
{ACAD_REACTORS
330
2A
102
}
330
2A
100
AcDbVisualStyle
  2
Flat
 70
     0
177
     2
291
     1
 71
     2
176
     1
 72
     1
176
     1
 73
     1
176
     1
 90
        2
176
     1
 40
-0.6
176
     1
 41
30.0
176
     1
 62
     5
 63
     7
421
 16777215
176
     1
 74
     0
176
     1
 91
        4
176
     1
 64
     7
176
     1
 65
   257
176
     1
 75
     1
176
     1
175
     1
176
     1
 42
1.0
176
     1
 92
        8
176
     1
 66
     7
176
     1
 43
1.0
176
     1
 76
     1
176
     1
 77
     6
176
     1
 78
     2
176
     1
 67
     7
176
     1
 79
     5
176
     1
170
     0
176
     1
171
     0
176
     1
290
     0
176
     1
 93
       13
176
     1
 44
0.0
176
     1
173
     0
176
     1
  0
VISUALSTYLE
  5
2C
102
{ACAD_REACTORS
330
2A
102
}
330
2A
100
AcDbVisualStyle
  2
FlatWithEdges
 70
     1
177
     2
291
     1
 71
     2
176
     1
 72
     1
176
     1
 73
     1
176
     1
 90
        2
176
     1
 40
-0.6
176
     1
 41
30.0
176
     1
 62
     5
 63
     7
421
 16777215
176
     1
 74
     1
176
     1
 91
        4
176
     1
 64
     7
176
     1
 65
   257
176
     1
 75
     1
176
     1
175
     1
176
     1
 42
1.0
176
     1
 92
        0
176
     1
 66
   257
176
     1
 43
1.0
176
     1
 76
     1
176
     1
 77
     6
176
     1
 78
     2
176
     1
 67
     7
176
     1
 79
     5
176
     1
170
     0
176
     1
171
     0
176
     1
290
     0
176
     1
 93
       13
176
     1
 44
0.0
176
     1
173
     0
176
     1
  0
VISUALSTYLE
  5
2D
102
{ACAD_REACTORS
330
2A
102
}
330
2A
100
AcDbVisualStyle
  2
Gouraud
 70
     2
177
     2
291
     1
 71
     2
176
     1
 72
     2
176
     1
 73
     1
176
     1
 90
        2
176
     1
 40
-0.6
176
     1
 41
30.0
176
     1
 62
     5
 63
     7
421
 16777215
176
     1
 74
     0
176
     1
 91
        4
176
     1
 64
     7
176
     1
 65
   257
176
     1
 75
     1
176
     1
175
     1
176
     1
 42
1.0
176
     1
 92
        0
176
     1
 66
     7
176
     1
 43
1.0
176
     1
 76
     1
176
     1
 77
     6
176
     1
 78
     2
176
     1
 67
     7
176
     1
 79
     5
176
     1
170
     0
176
     1
171
     0
176
     1
290
     0
176
     1
 93
       13
176
     1
 44
0.0
176
     1
173
     0
176
     1
  0
VISUALSTYLE
  5
2E
102
{ACAD_REACTORS
330
2A
102
}
330
2A
100
AcDbVisualStyle
  2
GouraudWithEdges
 70
     3
177
     2
291
     1
 71
     2
176
     1
 72
     2
176
     1
 73
     1
176
     1
 90
        2
176
     1
 40
-0.6
176
     1
 41
30.0
176
     1
 62
     5
 63
     7
421
 16777215
176
     1
 74
     1
176
     1
 91
        4
176
     1
 64
     7
176
     1
 65
   257
176
     1
 75
     1
176
     1
175
     1
176
     1
 42
1.0
176
     1
 92
        0
176
     1
 66
   257
176
     1
 43
1.0
176
     1
 76
     1
176
     1
 77
     6
176
     1
 78
     2
176
     1
 67
     7
176
     1
 79
     5
176
     1
170
     0
176
     1
171
     0
176
     1
290
     0
176
     1
 93
       13
176
     1
 44
0.0
176
     1
173
     0
176
     1
  0
VISUALSTYLE
  5
38
102
{ACAD_REACTORS
330
2A
102
}
330
2A
100
AcDbVisualStyle
  2
Linepattern
 70
    14
177
     2
291
     1
 71
     2
176
     1
 72
     2
176
     1
 73
     0
176
     1
 90
        0
176
     1
 40
-0.6
176
     1
 41
-30.0
176
     1
 62
     5
 63
     7
421
 16777215
176
     1
 74
     1
176
     1
 91
        4
176
     1
 64
     7
176
     1
 65
   257
176
     1
 75
     7
176
     1
175
     7
176
     1
 42
1.0
176
     1
 92
        8
176
     1
 66
     7
176
     1
 43
1.0
176
     1
 76
     1
176
     1
 77
     6
176
     1
 78
     2
176
     1
 67
     7
176
     1
 79
     5
176
     1
170
     0
176
     1
171
     0
176
     1
290
     0
176
     1
 93
        1
176
     1
 44
0.0
176
     1
173
     0
176
     1
  0
VISUALSTYLE
  5
33
102
{ACAD_REACTORS
330
2A
102
}
330
2A
100
AcDbVisualStyle
  2
Realistic
 70
     8
177
     2
291
     0
 71
     2
176
     1
 72
     2
176
     1
 73
     0
176
     1
 90
        0
176
     1
 40
-0.6
176
     1
 41
-30.0
176
     1
 62
     5
 63
     7
421
 16777215
176
     1
 74
     1
176
     1
 91
        0
176
     1
 64
     7
176
     1
 65
   257
176
     1
 75
     1
176
     1
175
     1
176
     1
 42
1.0
176
     1
 92
        8
176
     1
 66
     8
424
  7895160
176
     1
 43
1.0
176
     1
 76
     1
176
     1
 77
     6
176
     1
 78
     2
176
     1
 67
     7
176
     1
 79
     5
176
     1
170
     0
176
     1
171
     0
176
     1
290
     0
176
     1
 93
       13
176
     1
 44
0.0
176
     1
173
     0
176
     1
  0
VISUALSTYLE
  5
37
102
{ACAD_REACTORS
330
2A
102
}
330
2A
100
AcDbVisualStyle
  2
Thicken
 70
    13
177
     2
291
     1
 71
     2
176
     1
 72
     2
176
     1
 73
     0
176
     1
 90
        0
176
     1
 40
-0.6
176
     1
 41
-30.0
176
     1
 62
     5
 63
     7
421
 16777215
176
     1
 74
     1
176
     1
 91
        4
176
     1
 64
     7
176
     1
 65
   257
176
     1
 75
     1
176
     1
175
     1
176
     1
 42
1.0
176
     1
 92
       12
176
     1
 66
     7
176
     1
 43
1.0
176
     1
 76
     1
176
     1
 77
     6
176
     1
 78
     2
176
     1
 67
     7
176
     1
 79
     5
176
     1
170
     0
176
     1
171
     0
176
     1
290
     0
176
     1
 93
        1
176
     1
 44
0.0
176
     1
173
     0
176
     1
  0
ENDSEC
  0
EOF
