  0
SECTION
  2
HEADER
  9
$ACADVER
  1
AC1024
  9
$ACADMAINTVER
 70
     6
  9
$DWGCODEPAGE
  3
UNDEFINED
  9
$INSBASE
 10
0.0
 20
0.0
 30
0.0
  9
$EXTMIN
 10
1.000000000000000E+20
 20
1.000000000000000E+20
 30
1.000000000000000E+20
  9
$EXTMAX
 10
-1.000000000000000E+20
 20
-1.000000000000000E+20
 30
-1.000000000000000E+20
  9
$LIMMIN
 10
0.0
 20
0.0
  9
$LIMMAX
 10
12.0
 20
9.0
  9
$ORTHOMODE
 70
     0
  9
$REGENMODE
 70
     1
  9
$FILLMODE
 70
     1
  9
$QTEXTMODE
 70
     0
  9
$MIRRTEXT
 70
     1
  9
$LTSCALE
 40
1.0
  9
$ATTMODE
 70
     1
  9
$TEXTSIZE
 40
0.2
  9
$TRACEWID
 40
0.05
  9
$TEXTSTYLE
  7
Standard
  9
$CLAYER
  8
0
  9
$CELTYPE
  6
ByLayer
  9
$CECOLOR
 62
   256
  9
$CELTSCALE
 40
1.0
  9
$DISPSILH
 70
     0
  9
$DIMSCALE
 40
1.0
  9
$DIMASZ
 40
0.18
  9
$DIMEXO
 40
0.0625
  9
$DIMDLI
 40
0.38
  9
$DIMRND
 40
0.0
  9
$DIMDLE
 40
0.0
  9
$DIMEXE
 40
0.18
  9
$DIMTP
 40
0.0
  9
$DIMTM
 40
0.0
  9
$DIMTXT
 40
0.18
  9
$DIMCEN
 40
0.09
  9
$DIMTSZ
 40
0.0
  9
$DIMTOL
 70
     0
  9
$DIMLIM
 70
     0
  9
$DIMTIH
 70
     1
  9
$DIMTOH
 70
     1
  9
$DIMSE1
 70
     0
  9
$DIMSE2
 70
     0
  9
$DIMTAD
 70
     0
  9
$DIMZIN
 70
     0
  9
$DIMBLK
  1

  9
$DIMASO
 70
     1
  9
$DIMSHO
 70
     1
  9
$DIMPOST
  1

  9
$DIMAPOST
  1

  9
$DIMALT
 70
     0
  9
$DIMALTD
 70
     2
  9
$DIMALTF
 40
25.4
  9
$DIMLFAC
 40
1.0
  9
$DIMTOFL
 70
     0
  9
$DIMTVP
 40
0.0
  9
$DIMTIX
 70
     0
  9
$DIMSOXD
 70
     0
  9
$DIMSAH
 70
     0
  9
$DIMBLK1
  1

  9
$DIMBLK2
  1

  9
$DIMSTYLE
  2
Standard
  9
$DIMCLRD
 70
     0
  9
$DIMCLRE
 70
     0
  9
$DIMCLRT
 70
     0
  9
$DIMTFAC
 40
1.0
  9
$DIMGAP
 40
0.09
  9
$DIMJUST
 70
     0
  9
$DIMSD1
 70
     0
  9
$DIMSD2
 70
     0
  9
$DIMTOLJ
 70
     1
  9
$DIMTZIN
 70
     0
  9
$DIMALTZ
 70
     0
  9
$DIMALTTZ
 70
     0
  9
$DIMUPT
 70
     0
  9
$DIMDEC
 70
     4
  9
$DIMTDEC
 70
     4
  9
$DIMALTU
 70
     2
  9
$DIMALTTD
 70
     2
  9
$DIMTXSTY
  7
Standard
  9
$DIMAUNIT
 70
     0
  9
$DIMADEC
 70
     0
  9
$DIMALTRND
 40
0.0
  9
$DIMAZIN
 70
     0
  9
$DIMDSEP
 70
    46
  9
$DIMATFIT
 70
     3
  9
$DIMFRAC
 70
     0
  9
$DIMLDRBLK
  1

  9
$DIMLUNIT
 70
     2
  9
$DIMLWD
 70
    -2
  9
$DIMLWE
 70
    -2
  9
$DIMTMOVE
 70
     0
  9
$DIMFXL
 40
1.0
  9
$DIMFXLON
 70
     0
  9
$DIMJOGANG
 40
0.7853981633974483
  9
$DIMTFILL
 70
     0
  9
$DIMTFILLCLR
 70
     0
  9
$DIMARCSYM
 70
     0
  9
$DIMLTYPE
  6

  9
$DIMLTEX1
  6

  9
$DIMLTEX2
  6

  9
$DIMTXTDIRECTION
 70
     0
  9
$LUNITS
 70
     2
  9
$LUPREC
 70
     4
  9
$SKETCHINC
 40
0.1
  9
$FILLETRAD
 40
0.5
  9
$AUNITS
 70
     0
  9
$AUPREC
 70
     0
  9
$MENU
  1
.
  9
$ELEVATION
 40
0.0
  9
$PELEVATION
 40
0.0
  9
$THICKNESS
 40
0.0
  9
$LIMCHECK
 70
     0
  9
$CHAMFERA
 40
0.5
  9
$CHAMFERB
 40
0.5
  9
$CHAMFERC
 40
1.0
  9
$CHAMFERD
 40
0.0
  9
$SKPOLY
 70
     0
  9
$TDCREATE
 40
2457917.631597222
  9
$TDUCREATE
 40
2457917.256597222
  9
$TDUPDATE
 40
2457917.631597222
  9
$TDUUPDATE
 40
2457917.256597222
  9
$TDINDWG
 40
0.0000000116
  9
$TDUSRTIMER
 40
0.0000000116
  9
$USRTIMER
 70
     1
  9
$ANGBASE
 50
0.0
  9
$ANGDIR
 70
     0
  9
$PDMODE
 70
     0
  9
$PDSIZE
 40
0.0
  9
$PLINEWID
 40
0.0
  9
$SPLFRAME
 70
     0
  9
$SPLINETYPE
 70
     6
  9
$SPLINESEGS
 70
     8
  9
$HANDSEED
  5
FE
  9
$SURFTAB1
 70
     6
  9
$SURFTAB2
 70
     6
  9
$SURFTYPE
 70
     6
  9
$SURFU
 70
     6
  9
$SURFV
 70
     6
  9
$UCSBASE
  2

  9
$UCSNAME
  2

  9
$UCSORG
 10
0.0
 20
0.0
 30
0.0
  9
$UCSXDIR
 10
1.0
 20
0.0
 30
0.0
  9
$UCSYDIR
 10
0.0
 20
1.0
 30
0.0
  9
$UCSORTHOREF
  2

  9
$UCSORTHOVIEW
 70
     0
  9
$UCSORGTOP
 10
0.0
 20
0.0
 30
0.0
  9
$UCSORGBOTTOM
 10
0.0
 20
0.0
 30
0.0
  9
$UCSORGLEFT
 10
0.0
 20
0.0
 30
0.0
  9
$UCSORGRIGHT
 10
0.0
 20
0.0
 30
0.0
  9
$UCSORGFRONT
 10
0.0
 20
0.0
 30
0.0
  9
$UCSORGBACK
 10
0.0
 20
0.0
 30
0.0
  9
$PUCSBASE
  2

  9
$PUCSNAME
  2

  9
$PUCSORG
 10
0.0
 20
0.0
 30
0.0
  9
$PUCSXDIR
 10
1.0
 20
0.0
 30
0.0
  9
$PUCSYDIR
 10
0.0
 20
1.0
 30
0.0
  9
$PUCSORTHOREF
  2

  9
$PUCSORTHOVIEW
 70
     0
  9
$PUCSORGTOP
 10
0.0
 20
0.0
 30
0.0
  9
$PUCSORGBOTTOM
 10
0.0
 20
0.0
 30
0.0
  9
$PUCSORGLEFT
 10
0.0
 20
0.0
 30
0.0
  9
$PUCSORGRIGHT
 10
0.0
 20
0.0
 30
0.0
  9
$PUCSORGFRONT
 10
0.0
 20
0.0
 30
0.0
  9
$PUCSORGBACK
 10
0.0
 20
0.0
 30
0.0
  9
$USERI1
 70
     0
  9
$USERI2
 70
     0
  9
$USERI3
 70
     0
  9
$USERI4
 70
     0
  9
$USERI5
 70
     0
  9
$USERR1
 40
0.0
  9
$USERR2
 40
0.0
  9
$USERR3
 40
0.0
  9
$USERR4
 40
0.0
  9
$USERR5
 40
0.0
  9
$WORLDVIEW
 70
     1
  9
$SHADEDGE
 70
     3
  9
$SHADEDIF
 70
    70
  9
$TILEMODE
 70
     1
  9
$MAXACTVP
 70
    64
  9
$PINSBASE
 10
0.0
 20
0.0
 30
0.0
  9
$PLIMCHECK
 70
     0
  9
$PEXTMIN
 10
1.000000000000000E+20
 20
1.000000000000000E+20
 30
1.000000000000000E+20
  9
$PEXTMAX
 10
-1.000000000000000E+20
 20
-1.000000000000000E+20
 30
-1.000000000000000E+20
  9
$PLIMMIN
 10
0.0
 20
0.0
  9
$PLIMMAX
 10
12.0
 20
9.0
  9
$UNITMODE
 70
     0
  9
$VISRETAIN
 70
     1
  9
$PLINEGEN
 70
     0
  9
$PSLTSCALE
 70
     1
  9
$TREEDEPTH
 70
  3020
  9
$CMLSTYLE
  2
Standard
  9
$CMLJUST
 70
     0
  9
$CMLSCALE
 40
1.0
  9
$PROXYGRAPHICS
 70
     1
  9
$MEASUREMENT
 70
     0
  9
$CELWEIGHT
370
    -1
  9
$ENDCAPS
280
     0
  9
$JOINSTYLE
280
     0
  9
$LWDISPLAY
290
     1
  9
$INSUNITS
 70
     1
  9
$HYPERLINKBASE
  1

  9
$STYLESHEET
  1

  9
$XEDIT
290
     1
  9
$CEPSNTYPE
380
     0
  9
$PSTYLEMODE
290
     1
  9
$FINGERPRINTGUID
  2
{3C20BE2F-EA9B-1B24-0C79-2884AB435F7B}
  9
$VERSIONGUID
  2
{FAEB1C32-E019-11D5-929B-00C0DF256EC4}
  9
$EXTNAMES
290
     1
  9
$PSVPSCALE
 40
0.0
  9
$OLESTARTUP
290
     0
  9
$SORTENTS
280
   127
  9
$INDEXCTL
280
     0
  9
$HIDETEXT
280
     1
  9
$XCLIPFRAME
280
     2
  9
$HALOGAP
280
     0
  9
$OBSCOLOR
 70
   257
  9
$OBSLTYPE
280
     0
  9
$INTERSECTIONDISPLAY
280
     0
  9
$INTERSECTIONCOLOR
 70
   257
  9
$DIMASSOC
280
     2
  9
$PROJECTNAME
  1

  9
$CAMERADISPLAY
290
     0
  9
$LENSLENGTH
 40
50.0
  9
$CAMERAHEIGHT
 40
0.0
  9
$STEPSPERSEC
 40
2.0
  9
$STEPSIZE
 40
6.0
  9
$3DDWFPREC
 40
2.0
  9
$PSOLWIDTH
 40
0.25
  9
$PSOLHEIGHT
 40
4.0
  9
$LOFTANG1
 40
1.570796326794897
  9
$LOFTANG2
 40
1.570796326794897
  9
$LOFTMAG1
 40
0.0
  9
$LOFTMAG2
 40
0.0
  9
$LOFTPARAM
 70
     7
  9
$LOFTNORMALS
280
     1
  9
$LATITUDE
 40
37.795
  9
$LONGITUDE
 40
-122.394
  9
$NORTHDIRECTION
 40
0.0
  9
$TIMEZONE
 70
 -8000
  9
$LIGHTGLYPHDISPLAY
280
     1
  9
$TILEMODELIGHTSYNCH
280
     1
  9
$CMATERIAL
347
3C
  9
$SOLIDHIST
280
     1
  9
$SHOWHIST
280
     1
  9
$DWFFRAME
280
     2
  9
$DGNFRAME
280
     2
  9
$REALWORLDSCALE
290
     1
  9
$INTERFERECOLOR
 62
   256
  9
$CSHADOW
280
     0
  9
$SHADOWPLANELOCATION
 40
0.0
  0
ENDSEC
  0
SECTION
  2
CLASSES
  0
CLASS
  1
ACDBDICTIONARYWDFLT
  2
AcDbDictionaryWithDefault
  3
ObjectDBX Classes
 90
        0
 91
        4
280
     0
281
     0
  0
CLASS
  1
VISUALSTYLE
  2
AcDbVisualStyle
  3
ObjectDBX Classes
 90
     4095
 91
        4
280
     0
281
     0
  0
CLASS
  1
MATERIAL
  2
AcDbMaterial
  3
ObjectDBX Classes
 90
     1153
 91
        4
280
     0
281
     0
  0
CLASS
  1
SUN
  2
AcDbSun
  3
SCENEOE
 90
     1024
 91
        4
280
     0
281
     0
  0
ENDSEC
  0
SECTION
  2
TABLES
  0
TABLE
  2
VPORT
  5
8
330
0
100
AcDbSymbolTable
 70
     1
  0
VPORT
  5
29
330
8
100
AcDbSymbolTableRecord
100
AcDbViewportTableRecord
  2
*Active
 70
     0
 10
0.0
 20
0.0
 11
1.0
 21
1.0
 12
0.0
 22
0.0
 13
0.0
 23
0.0
 14
0.5
 24
0.5
 15
0.5
 25
0.5
 16
0.0
 26
0.0
 36
1.0
 17
91.00082462281999
 27
-128.4993055234307
 37
0.0
 40
256.9986110468615
 41
0.7081814508812795
 42
50.0
 43
0.0
 44
0.0
 50
0.0
 51
0.0
 71
     0
 72
   100
 73
     1
 74
     3
 75
     0
 76
     0
 77
     0
 78
     0
281
     0
 65
     1
110
0.0
120
0.0
130
0.0
111
1.0
121
0.0
131
0.0
112
0.0
122
1.0
132
0.0
 79
     0
146
0.0
 60
     3
 61
     5
292
     1
282
     1
141
0.0
142
0.0
 63
   250
361
3F
  0
ENDTAB
  0
TABLE
  2
LTYPE
  5
5
330
0
100
AcDbSymbolTable
 70
     1
  0
LTYPE
  5
14
330
5
100
AcDbSymbolTableRecord
100
AcDbLinetypeTableRecord
  2
ByBlock
 70
     0
  3

 72
    65
 73
     0
 40
0.0
  0
LTYPE
  5
15
330
5
100
AcDbSymbolTableRecord
100
AcDbLinetypeTableRecord
  2
ByLayer
 70
     0
  3

 72
    65
 73
     0
 40
0.0
  0
LTYPE
  5
16
330
5
100
AcDbSymbolTableRecord
100
AcDbLinetypeTableRecord
  2
Continuous
 70
     0
  3
Solid line
 72
    65
 73
     0
 40
0.0
  0
ENDTAB
  0
TABLE
  2
LAYER
  5
2
330
0
100
AcDbSymbolTable
 70
     2
  0
LAYER
  5
10
330
2
100
AcDbSymbolTableRecord
100
AcDbLayerTableRecord
  2
0
 70
     0
 62
     7
  6
Continuous
370
    -3
390
F
347
3E
  0
LAYER
  5
40
330
2
100
AcDbSymbolTableRecord
100
AcDbLayerTableRecord
  2
_U+30EC_U+30A4_U+30E4_U+30FC 1
 70
     0
 62
     7
  6
Continuous
370
    -3
390
F
347
3E
  0
ENDTAB
  0
TABLE
  2
STYLE
  5
3
330
0
100
AcDbSymbolTable
 70
     1
  0
STYLE
  5
11
330
3
100
AcDbSymbolTableRecord
100
AcDbTextStyleTableRecord
  2
Standard
 70
     0
 40
0.0
 41
1.0
 50
0.0
 71
     0
 42
0.2
  3
txt
  4

  0
ENDTAB
  0
TABLE
  2
VIEW
  5
6
330
0
100
AcDbSymbolTable
 70
     0
  0
ENDTAB
  0
TABLE
  2
UCS
  5
7
330
0
100
AcDbSymbolTable
 70
     0
  0
ENDTAB
  0
TABLE
  2
APPID
  5
9
330
0
100
AcDbSymbolTable
 70
     1
  0
APPID
  5
12
330
9
100
AcDbSymbolTableRecord
100
AcDbRegAppTableRecord
  2
ACAD
 70
     0
  0
ENDTAB
  0
TABLE
  2
DIMSTYLE
  5
A
330
0
100
AcDbSymbolTable
 70
     1
100
AcDbDimStyleTable
  0
DIMSTYLE
105
27
330
A
100
AcDbSymbolTableRecord
100
AcDbDimStyleTableRecord
  2
Standard
 70
     0
178
     0
340
11
  0
ENDTAB
  0
TABLE
  2
BLOCK_RECORD
  5
1
330
0
100
AcDbSymbolTable
 70
    11
  0
BLOCK_RECORD
  5
1F
330
1
100
AcDbSymbolTableRecord
100
AcDbBlockTableRecord
  2
*Model_Space
340
22
 70
     0
280
     1
281
     0
  0
BLOCK_RECORD
  5
1B
330
1
100
AcDbSymbolTableRecord
100
AcDbBlockTableRecord
  2
*Paper_Space
340
1E
 70
     0
280
     1
281
     0
  0
BLOCK_RECORD
  5
23
330
1
100
AcDbSymbolTableRecord
100
AcDbBlockTableRecord
  2
*Paper_Space0
340
26
 70
     0
280
     1
281
     0
  0
BLOCK_RECORD
  5
41
330
1
100
AcDbSymbolTableRecord
100
AcDbBlockTableRecord
  2
block 2
340
0
102
{BLKREFS
331
42
102
}
 70
     0
280
     1
281
     0
  0
BLOCK_RECORD
  5
57
330
1
100
AcDbSymbolTableRecord
100
AcDbBlockTableRecord
  2
block 3
340
0
102
{BLKREFS
331
58
102
}
 70
     0
280
     1
281
     0
  0
BLOCK_RECORD
  5
A1
330
1
100
AcDbSymbolTableRecord
100
AcDbBlockTableRecord
  2
block 4
340
0
102
{BLKREFS
331
A2
102
}
 70
     0
280
     1
281
     0
  0
BLOCK_RECORD
  5
B1
330
1
100
AcDbSymbolTableRecord
100
AcDbBlockTableRecord
  2
block 5
340
0
102
{BLKREFS
331
B2
102
}
 70
     0
280
     1
281
     0
  0
BLOCK_RECORD
  5
BA
330
1
100
AcDbSymbolTableRecord
100
AcDbBlockTableRecord
  2
block 6
340
0
102
{BLKREFS
331
BB
102
}
 70
     0
280
     1
281
     0
  0
BLOCK_RECORD
  5
C0
330
1
100
AcDbSymbolTableRecord
100
AcDbBlockTableRecord
  2
block 7
340
0
102
{BLKREFS
331
C1
102
}
 70
     0
280
     1
281
     0
  0
BLOCK_RECORD
  5
D3
330
1
100
AcDbSymbolTableRecord
100
AcDbBlockTableRecord
  2
block 8
340
0
102
{BLKREFS
331
D4
102
}
 70
     0
280
     1
281
     0
  0
BLOCK_RECORD
  5
DC
330
1
100
AcDbSymbolTableRecord
100
AcDbBlockTableRecord
  2
block 9
340
0
102
{BLKREFS
331
DD
102
}
 70
     0
280
     1
281
     0
  0
BLOCK_RECORD
  5
E2
330
1
100
AcDbSymbolTableRecord
100
AcDbBlockTableRecord
  2
block 10
340
0
102
{BLKREFS
331
E3
102
}
 70
     0
280
     1
281
     0
  0
BLOCK_RECORD
  5
EA
330
1
100
AcDbSymbolTableRecord
100
AcDbBlockTableRecord
  2
block 11
340
0
102
{BLKREFS
331
EB
102
}
 70
     0
280
     1
281
     0
  0
ENDTAB
  0
ENDSEC
  0
SECTION
  2
BLOCKS
  0
BLOCK
  5
20
330
1F
100
AcDbEntity
  8
0
100
AcDbBlockBegin
  2
*Model_Space
 70
     0
 10
0.0
 20
0.0
 30
0.0
  3
*Model_Space
  1

  0
ENDBLK
  5
21
330
1F
100
AcDbEntity
  8
0
100
AcDbBlockEnd
  0
BLOCK
  5
1C
330
1B
100
AcDbEntity
 67
     1
  8
0
100
AcDbBlockBegin
  2
*Paper_Space
 70
     0
 10
0.0
 20
0.0
 30
0.0
  3
*Paper_Space
  1

  0
ENDBLK
  5
1D
330
1B
100
AcDbEntity
 67
     1
  8
0
100
AcDbBlockEnd
  0
BLOCK
  5
24
330
23
100
AcDbEntity
  8
0
100
AcDbBlockBegin
  2
*Paper_Space0
 70
     0
 10
0.0
 20
0.0
 30
0.0
  3
*Paper_Space0
  1

  0
ENDBLK
  5
25
330
23
100
AcDbEntity
  8
0
100
AcDbBlockEnd
  0
BLOCK
  5
43
330
41
100
AcDbEntity
  8
0
100
AcDbBlockBegin
  2
block 2
 70
     0
 10
0.0
 20
0.0
 30
0.0
  3
block 2
  1

  0
POLYLINE
  5
45
330
41
100
AcDbEntity
  8
_U+30EC_U+30A4_U+30E4_U+30FC 1
370
     0
100
AcDb2dPolyline
 66
     1
 10
0.0
 20
0.0
 30
0.0
  0
VERTEX
  5
46
330
45
100
AcDbEntity
  8
_U+30EC_U+30A4_U+30E4_U+30FC 1
370
     0
100
AcDbVertex
100
AcDb2dVertex
 10
94.19854343012828
 20
-158.6948960714376
 30
0.0
  0
VERTEX
  5
47
330
45
100
AcDbEntity
  8
_U+30EC_U+30A4_U+30E4_U+30FC 1
370
     0
100
AcDbVertex
100
AcDb2dVertex
 10
94.20372926332931
 20
-138.7322599653167
 30
0.0
  0
VERTEX
  5
48
330
45
100
AcDbEntity
  8
_U+30EC_U+30A4_U+30E4_U+30FC 1
370
     0
100
AcDbVertex
100
AcDb2dVertex
 10
94.053163711615
 20
-138.7298610764286
 30
0.0
  0
VERTEX
  5
49
330
45
100
AcDbEntity
  8
_U+30EC_U+30A4_U+30E4_U+30FC 1
370
     0
100
AcDbVertex
100
AcDb2dVertex
 10
82.11816262721335
 20
-135.7298741327343
 30
0.0
  0
VERTEX
  5
4A
330
45
100
AcDbEntity
  8
_U+30EC_U+30A4_U+30E4_U+30FC 1
370
     0
100
AcDbVertex
100
AcDb2dVertex
 10
82.12176096045489
 20
-135.726416910513
 30
0.0
  0
VERTEX
  5
4B
330
45
100
AcDbEntity
  8
_U+30EC_U+30A4_U+30E4_U+30FC 1
370
     0
100
AcDbVertex
100
AcDb2dVertex
 10
82.12176096045489
 20
-100.7295913637064
 30
0.0
  0
VERTEX
  5
4C
330
45
100
AcDbEntity
  8
_U+30EC_U+30A4_U+30E4_U+30FC 1
370
     0
100
AcDbVertex
100
AcDb2dVertex
 10
81.04998886862626
 20
-100.7295913637064
 30
0.0
  0
VERTEX
  5
4D
330
45
100
AcDbEntity
  8
_U+30EC_U+30A4_U+30E4_U+30FC 1
370
     0
100
AcDbVertex
100
AcDb2dVertex
 10
81.04998886862626
 20
-136.7255188547076
 30
0.0
  0
VERTEX
  5
4E
330
45
100
AcDbEntity
  8
_U+30EC_U+30A4_U+30E4_U+30FC 1
370
     0
100
AcDbVertex
100
AcDb2dVertex
 10
81.3297416463343
 20
-136.7255188547076
 30
0.0
  0
VERTEX
  5
4F
330
45
100
AcDbEntity
  8
_U+30EC_U+30A4_U+30E4_U+30FC 1
370
     0
100
AcDbVertex
100
AcDb2dVertex
 10
93.15054651242046
 20
-139.7268816317348
 30
0.0
  0
VERTEX
  5
50
330
45
100
AcDbEntity
  8
_U+30EC_U+30A4_U+30E4_U+30FC 1
370
     0
100
AcDbVertex
100
AcDb2dVertex
 10
93.15054651242046
 20
-157.6089755161535
 30
0.0
  0
VERTEX
  5
51
330
45
100
AcDbEntity
  8
_U+30EC_U+30A4_U+30E4_U+30FC 1
370
     0
100
AcDbVertex
100
AcDb2dVertex
 10
93.14814997671277
 20
-157.6089755161535
 30
0.0
  0
VERTEX
  5
52
330
45
100
AcDbEntity
  8
_U+30EC_U+30A4_U+30E4_U+30FC 1
370
     0
100
AcDbVertex
100
AcDb2dVertex
 10
91.22060517276847
 20
-157.6089755161535
 30
0.0
  0
VERTEX
  5
53
330
45
100
AcDbEntity
  8
_U+30EC_U+30A4_U+30E4_U+30FC 1
370
     0
100
AcDbVertex
100
AcDb2dVertex
 10
91.22060517276847
 20
-158.6948960714376
 30
0.0
  0
VERTEX
  5
54
330
45
100
AcDbEntity
  8
_U+30EC_U+30A4_U+30E4_U+30FC 1
370
     0
100
AcDbVertex
100
AcDb2dVertex
 10
94.19854343012828
 20
-158.6948960714376
 30
0.0
  0
SEQEND
  5
56
330
45
100
AcDbEntity
  8
_U+30EC_U+30A4_U+30E4_U+30FC 1
370
     0
  0
HATCH
  5
55
330
41
100
AcDbEntity
  8
_U+30EC_U+30A4_U+30E4_U+30FC 1
 62
     9
420
 13224394
100
AcDbHatch
 10
0.0
 20
0.0
 30
0.0
210
0.0
220
0.0
230
1.0
  2
SOLID
 70
     1
 71
     0
 91
        1
 92
        1
 93
       14
 72
     1
 10
94.19854343012828
 20
-158.6948960714376
 11
94.20372926332931
 21
-138.7322599653167
 72
     1
 10
94.20372926332931
 20
-138.7322599653167
 11
94.053163711615
 21
-138.7298610764286
 72
     1
 10
94.053163711615
 20
-138.7298610764286
 11
82.11816262721335
 21
-135.7298741327343
 72
     1
 10
82.11816262721335
 20
-135.7298741327343
 11
82.12176096045489
 21
-135.726416910513
 72
     1
 10
82.12176096045489
 20
-135.726416910513
 11
82.12176096045489
 21
-100.7295913637064
 72
     1
 10
82.12176096045489
 20
-100.7295913637064
 11
81.04998886862626
 21
-100.7295913637064
 72
     1
 10
81.04998886862626
 20
-100.7295913637064
 11
81.04998886862626
 21
-136.7255188547076
 72
     1
 10
81.04998886862626
 20
-136.7255188547076
 11
81.3297416463343
 21
-136.7255188547076
 72
     1
 10
81.3297416463343
 20
-136.7255188547076
 11
93.15054651242046
 21
-139.7268816317348
 72
     1
 10
93.15054651242046
 20
-139.7268816317348
 11
93.15054651242046
 21
-157.6089755161535
 72
     1
 10
93.15054651242046
 20
-157.6089755161535
 11
93.14814997671277
 21
-157.6089755161535
 72
     1
 10
93.14814997671277
 20
-157.6089755161535
 11
91.22060517276847
 21
-157.6089755161535
 72
     1
 10
91.22060517276847
 20
-157.6089755161535
 11
91.22060517276847
 21
-158.6948960714376
 72
     1
 10
91.22060517276847
 20
-158.6948960714376
 11
94.19854343012828
 21
-158.6948960714376
 97
        0
 75
     2
 76
     1
 98
        0
  0
INSERT
  5
58
330
41
100
AcDbEntity
  8
_U+30EC_U+30A4_U+30E4_U+30FC 1
100
AcDbBlockReference
  2
block 3
 10
0.0
 20
0.0
 30
0.0
  0
INSERT
  5
A2
330
41
100
AcDbEntity
  8
_U+30EC_U+30A4_U+30E4_U+30FC 1
100
AcDbBlockReference
  2
block 4
 10
0.0
 20
0.0
 30
0.0
  0
INSERT
  5
B2
330
41
100
AcDbEntity
  8
_U+30EC_U+30A4_U+30E4_U+30FC 1
100
AcDbBlockReference
  2
block 5
 10
0.0
 20
0.0
 30
0.0
  0
INSERT
  5
BB
330
41
100
AcDbEntity
  8
_U+30EC_U+30A4_U+30E4_U+30FC 1
100
AcDbBlockReference
  2
block 6
 10
0.0
 20
0.0
 30
0.0
  0
INSERT
  5
C1
330
41
100
AcDbEntity
  8
_U+30EC_U+30A4_U+30E4_U+30FC 1
100
AcDbBlockReference
  2
block 7
 10
0.0
 20
0.0
 30
0.0
  0
INSERT
  5
D4
330
41
100
AcDbEntity
  8
_U+30EC_U+30A4_U+30E4_U+30FC 1
100
AcDbBlockReference
  2
block 8
 10
0.0
 20
0.0
 30
0.0
  0
INSERT
  5
DD
330
41
100
AcDbEntity
  8
_U+30EC_U+30A4_U+30E4_U+30FC 1
100
AcDbBlockReference
  2
block 9
 10
0.0
 20
0.0
 30
0.0
  0
INSERT
  5
E3
330
41
100
AcDbEntity
  8
_U+30EC_U+30A4_U+30E4_U+30FC 1
100
AcDbBlockReference
  2
block 10
 10
0.0
 20
0.0
 30
0.0
  0
INSERT
  5
EB
330
41
100
AcDbEntity
  8
_U+30EC_U+30A4_U+30E4_U+30FC 1
100
AcDbBlockReference
  2
block 11
 10
0.0
 20
0.0
 30
0.0
  0
ENDBLK
  5
44
330
41
100
AcDbEntity
  8
0
100
AcDbBlockEnd
  0
BLOCK
  5
59
330
57
100
AcDbEntity
  8
0
100
AcDbBlockBegin
  2
block 3
 70
     0
 10
0.0
 20
0.0
 30
0.0
  3
block 3
  1

  0
SPLINE
  5
5B
330
57
100
AcDbEntity
  8
_U+30EC_U+30A4_U+30E4_U+30FC 1
 62
   179
420
  2234388
370
     9
100
AcDbSpline
210
0.0
220
0.0
230
1.0
 70
    11
 71
     3
 72
    17
 73
    13
 74
     0
 42
0.0000000001
 43
0.0000000001
 12
1.0
 22
0.0
 32
0.0
 13
1.0
 23
0.0
 33
0.0
 40
0.0
 40
0.0
 40
0.0
 40
0.0
 40
1.0
 40
1.0
 40
1.0
 40
2.0
 40
2.0
 40
2.0
 40
3.0
 40
3.0
 40
3.0
 40
4.0
 40
4.0
 40
4.0
 40
4.0
 10
82.2221967912259
 20
-96.72916192026216
 30
0.0
 10
82.2221967912259
 20
-96.67419914249797
 30
0.0
 10
82.17739401459113
 20
-96.6294316425094
 30
0.0
 10
82.12193734933928
 20
-96.6294316425094
 30
0.0
 10
82.06700985074059
 20
-96.6294316425094
 30
0.0
 10
82.02220707410584
 20
-96.67419914249797
 30
0.0
 10
82.02220707410584
 20
-96.72916192026216
 30
0.0
 10
82.02220707410584
 20
-96.78461858691485
 30
0.0
 10
82.06700985074059
 20
-96.82942136468156
 30
0.0
 10
82.12193734933928
 20
-96.82942136468156
 30
0.0
 10
82.17739401459113
 20
-96.82942136468156
 30
0.0
 10
82.2221967912259
 20
-96.78461858691485
 30
0.0
 10
82.2221967912259
 20
-96.72916192026216
 30
0.0
  0
SPLINE
  5
5C
330
57
100
AcDbEntity
  8
_U+30EC_U+30A4_U+30E4_U+30FC 1
 62
   179
420
  2234388
370
     9
100
AcDbSpline
210
0.0
220
0.0
230
1.0
 70
    11
 71
     3
 72
    17
 73
    13
 74
     0
 42
0.0000000001
 43
0.0000000001
 12
1.0
 22
0.0
 32
0.0
 13
1.0
 23
0.0
 33
0.0
 40
0.0
 40
0.0
 40
0.0
 40
0.0
 40
1.0
 40
1.0
 40
1.0
 40
2.0
 40
2.0
 40
2.0
 40
3.0
 40
3.0
 40
3.0
 40
4.0
 40
4.0
 40
4.0
 40
4.0
 10
81.10685459745842
 20
-96.72916192026216
 30
0.0
 10
81.10685459745842
 20
-96.67419914249797
 30
0.0
 10
81.06205182082365
 20
-96.6294316425094
 30
0.0
 10
81.00712432222497
 20
-96.6294316425094
 30
0.0
 10
80.95198515696502
 20
-96.6294316425094
 30
0.0
 10
80.90721765810714
 20
-96.67419914249797
 30
0.0
 10
80.90721765810714
 20
-96.72916192026216
 30
0.0
 10
80.90721765810714
 20
-96.78461858691485
 30
0.0
 10
80.95198515696502
 20
-96.82942136468156
 30
0.0
 10
81.00712432222497
 20
-96.82942136468156
 30
0.0
 10
81.06205182082365
 20
-96.82942136468156
 30
0.0
 10
81.10685459745842
 20
-96.78461858691485
 30
0.0
 10
81.10685459745842
 20
-96.72916192026216
 30
0.0
  0
SPLINE
  5
5D
330
57
100
AcDbEntity
  8
_U+30EC_U+30A4_U+30E4_U+30FC 1
 62
   179
420
  2234388
370
     9
100
AcDbSpline
210
0.0
220
0.0
230
1.0
 70
    11
 71
     3
 72
    17
 73
    13
 74
     0
 42
0.0000000001
 43
0.0000000001
 12
1.0
 22
0.0
 32
0.0
 13
1.0
 23
0.0
 33
0.0
 40
0.0
 40
0.0
 40
0.0
 40
0.0
 40
1.0
 40
1.0
 40
1.0
 40
2.0
 40
2.0
 40
2.0
 40
3.0
 40
3.0
 40
3.0
 40
4.0
 40
4.0
 40
4.0
 40
4.0
 10
98.69854137087933
 20
-100.7295913637064
 30
0.0
 10
98.69854137087933
 20
-100.6743110859426
 30
0.0
 10
98.65373859424456
 20
-100.629331919287
 30
0.0
 10
98.59898748453027
 20
-100.629331919287
 30
0.0
 10
98.54384831927031
 20
-100.629331919287
 30
0.0
 10
98.49908330870826
 20
-100.6743110859426
 30
0.0
 10
98.49908330870826
 20
-100.7295913637064
 30
0.0
 10
98.49908330870826
 20
-100.7845541414706
 30
0.0
 10
98.54384831927031
 20
-100.829498030348
 30
0.0
 10
98.59898748453027
 20
-100.829498030348
 30
0.0
 10
98.65373859424456
 20
-100.829498030348
 30
0.0
 10
98.69854137087933
 20
-100.7845541414706
 30
0.0
 10
98.69854137087933
 20
-100.7295913637064
 30
0.0
  0
SPLINE
  5
5E
330
57
100
AcDbEntity
  8
_U+30EC_U+30A4_U+30E4_U+30FC 1
 62
   179
420
  2234388
370
     9
100
AcDbSpline
210
0.0
220
0.0
230
1.0
 70
    11
 71
     3
 72
    17
 73
    13
 74
     0
 42
0.0000000001
 43
0.0000000001
 12
1.0
 22
0.0
 32
0.0
 13
1.0
 23
0.0
 33
0.0
 40
0.0
 40
0.0
 40
0.0
 40
0.0
 40
1.0
 40
1.0
 40
1.0
 40
2.0
 40
2.0
 40
2.0
 40
3.0
 40
3.0
 40
3.0
 40
4.0
 40
4.0
 40
4.0
 40
4.0
 10
98.69854137087933
 20
-138.7050607986573
 30
0.0
 10
98.69854137087933
 20
-138.650274409782
 30
0.0
 10
98.65373859424456
 20
-138.6055069097928
 30
0.0
 10
98.59898748453027
 20
-138.6055069097928
 30
0.0
 10
98.54384831927031
 20
-138.6055069097928
 30
0.0
 10
98.49908330870826
 20
-138.650274409782
 30
0.0
 10
98.49908330870826
 20
-138.7050607986573
 30
0.0
 10
98.49908330870826
 20
-138.7608702430877
 30
0.0
 10
98.54384831927031
 20
-138.8056377430763
 30
0.0
 10
98.59898748453027
 20
-138.8056377430763
 30
0.0
 10
98.65373859424456
 20
-138.8056377430763
 30
0.0
 10
98.69854137087933
 20
-138.7608702430877
 30
0.0
 10
98.69854137087933
 20
-138.7050607986573
 30
0.0
  0
SPLINE
  5
5F
330
57
100
AcDbEntity
  8
_U+30EC_U+30A4_U+30E4_U+30FC 1
 62
   179
420
  2234388
370
     9
100
AcDbSpline
210
0.0
220
0.0
230
1.0
 70
    11
 71
     3
 72
    17
 73
    13
 74
     0
 42
0.0000000001
 43
0.0000000001
 12
1.0
 22
0.0
 32
0.0
 13
1.0
 23
0.0
 33
0.0
 40
0.0
 40
0.0
 40
0.0
 40
0.0
 40
1.0
 40
1.0
 40
1.0
 40
2.0
 40
2.0
 40
2.0
 40
3.0
 40
3.0
 40
3.0
 40
4.0
 40
4.0
 40
4.0
 40
4.0
 10
94.29880287201489
 20
-96.72845636470664
 30
0.0
 10
94.29880287201489
 20
-96.67317608694285
 30
0.0
 10
94.25403537315701
 20
-96.62819692028724
 30
0.0
 10
94.19889620789705
 20
-96.62819692028724
 30
0.0
 10
94.14343954264521
 20
-96.62819692028724
 30
0.0
 10
94.09863676601044
 20
-96.67317608694285
 30
0.0
 10
94.09863676601044
 20
-96.72845636470664
 30
0.0
 10
94.09863676601044
 20
-96.78391303135963
 30
0.0
 10
94.14343954264521
 20
-96.8283630313486
 30
0.0
 10
94.19889620789705
 20
-96.8283630313486
 30
0.0
 10
94.25403537315701
 20
-96.8283630313486
 30
0.0
 10
94.29880287201489
 20
-96.78391303135963
 30
0.0
 10
94.29880287201489
 20
-96.72845636470664
 30
0.0
  0
SPLINE
  5
60
330
57
100
AcDbEntity
  8
_U+30EC_U+30A4_U+30E4_U+30FC 1
 62
   179
420
  2234388
370
     9
100
AcDbSpline
210
0.0
220
0.0
230
1.0
 70
    11
 71
     3
 72
    17
 73
    13
 74
     0
 42
0.0000000001
 43
0.0000000001
 12
1.0
 22
0.0
 32
0.0
 13
1.0
 23
0.0
 33
0.0
 40
0.0
 40
0.0
 40
0.0
 40
0.0
 40
1.0
 40
1.0
 40
1.0
 40
2.0
 40
2.0
 40
2.0
 40
3.0
 40
3.0
 40
3.0
 40
4.0
 40
4.0
 40
4.0
 40
4.0
 10
94.29880287201489
 20
-162.7290863482067
 30
0.0
 10
94.29880287201489
 20
-162.6742999593314
 30
0.0
 10
94.25403537315701
 20
-162.6295324593428
 30
0.0
 10
94.19889620789705
 20
-162.6295324593428
 30
0.0
 10
94.14343954264521
 20
-162.6295324593428
 30
0.0
 10
94.09863676601044
 20
-162.6742999593314
 30
0.0
 10
94.09863676601044
 20
-162.7290863482067
 30
0.0
 10
94.09863676601044
 20
-162.7845430148594
 30
0.0
 10
94.14343954264521
 20
-162.8293457926261
 30
0.0
 10
94.19889620789705
 20
-162.8293457926261
 30
0.0
 10
94.25403537315701
 20
-162.8293457926261
 30
0.0
 10
94.29880287201489
 20
-162.7845430148594
 30
0.0
 10
94.29880287201489
 20
-162.7290863482067
 30
0.0
  0
SPLINE
  5
61
330
57
100
AcDbEntity
  8
_U+30EC_U+30A4_U+30E4_U+30FC 1
 62
   179
420
  2234388
370
     9
100
AcDbSpline
210
0.0
220
0.0
230
1.0
 70
    11
 71
     3
 72
    17
 73
    13
 74
     0
 42
0.0000000001
 43
0.0000000001
 12
1.0
 22
0.0
 32
0.0
 13
1.0
 23
0.0
 33
0.0
 40
0.0
 40
0.0
 40
0.0
 40
0.0
 40
1.0
 40
1.0
 40
1.0
 40
2.0
 40
2.0
 40
2.0
 40
3.0
 40
3.0
 40
3.0
 40
4.0
 40
4.0
 40
4.0
 40
4.0
 10
81.26962625997244
 20
-162.7290863482067
 30
0.0
 10
81.26962625997244
 20
-162.6742999593314
 30
0.0
 10
81.22517626110645
 20
-162.6295324593428
 30
0.0
 10
81.1697195958546
 20
-162.6295324593428
 30
0.0
 10
81.11475681947904
 20
-162.6295324593428
 30
0.0
 10
81.06998932062115
 20
-162.6742999593314
 30
0.0
 10
81.06998932062115
 20
-162.7290863482067
 30
0.0
 10
81.06998932062115
 20
-162.7845430148594
 30
0.0
 10
81.11475681947904
 20
-162.8293457926261
 30
0.0
 10
81.1697195958546
 20
-162.8293457926261
 30
0.0
 10
81.22517626110645
 20
-162.8293457926261
 30
0.0
 10
81.26962625997244
 20
-162.7845430148594
 30
0.0
 10
81.26962625997244
 20
-162.7290863482067
 30
0.0
  0
SPLINE
  5
62
330
57
100
AcDbEntity
  8
_U+30EC_U+30A4_U+30E4_U+30FC 1
 62
   179
420
  2234388
370
     9
100
AcDbSpline
210
0.0
220
0.0
230
1.0
 70
    11
 71
     3
 72
    17
 73
    13
 74
     0
 42
0.0000000001
 43
0.0000000001
 12
1.0
 22
0.0
 32
0.0
 13
1.0
 23
0.0
 33
0.0
 40
0.0
 40
0.0
 40
0.0
 40
0.0
 40
1.0
 40
1.0
 40
1.0
 40
2.0
 40
2.0
 40
2.0
 40
3.0
 40
3.0
 40
3.0
 40
4.0
 40
4.0
 40
4.0
 40
4.0
 10
98.69854137087933
 20
-158.6803969047744
 30
0.0
 10
98.69854137087933
 20
-158.6249402381218
 30
0.0
 10
98.65373859424456
 20
-158.5801727381325
 30
0.0
 10
98.59898748453027
 20
-158.5801727381325
 30
0.0
 10
98.54384831927031
 20
-158.5801727381325
 30
0.0
 10
98.49908330870826
 20
-158.6249402381218
 30
0.0
 10
98.49908330870826
 20
-158.6803969047744
 30
0.0
 10
98.49908330870826
 20
-158.7355360714275
 30
0.0
 10
98.54384831927031
 20
-158.7803035714161
 30
0.0
 10
98.59898748453027
 20
-158.7803035714161
 30
0.0
 10
98.65373859424456
 20
-158.7803035714161
 30
0.0
 10
98.69854137087933
 20
-158.7355360714275
 30
0.0
 10
98.69854137087933
 20
-158.6803969047744
 30
0.0
  0
POLYLINE
  5
63
330
57
100
AcDbEntity
  8
_U+30EC_U+30A4_U+30E4_U+30FC 1
 62
   179
420
  2234388
370
     9
100
AcDb2dPolyline
 66
     1
 10
0.0
 20
0.0
 30
0.0
  0
VERTEX
  5
64
330
63
100
AcDbEntity
  8
_U+30EC_U+30A4_U+30E4_U+30FC 1
 62
   179
420
  2234388
370
     9
100
AcDbVertex
100
AcDb2dVertex
 10
80.99040265598491
 20
-96.72916192026216
 30
0.0
  0
VERTEX
  5
65
330
63
100
AcDbEntity
  8
_U+30EC_U+30A4_U+30E4_U+30FC 1
 62
   179
420
  2234388
370
     9
100
AcDbVertex
100
AcDb2dVertex
 10
82.12211373822366
 20
-96.72916192026216
 30
0.0
  0
SEQEND
  5
66
330
63
100
AcDbEntity
  8
_U+30EC_U+30A4_U+30E4_U+30FC 1
 62
   179
420
  2234388
370
     9
  0
POLYLINE
  5
67
330
57
100
AcDbEntity
  8
_U+30EC_U+30A4_U+30E4_U+30FC 1
 62
   179
420
  2234388
370
     9
100
AcDb2dPolyline
 66
     1
 10
0.0
 20
0.0
 30
0.0
  0
VERTEX
  5
68
330
67
100
AcDbEntity
  8
_U+30EC_U+30A4_U+30E4_U+30FC 1
 62
   179
420
  2234388
370
     9
100
AcDbVertex
100
AcDb2dVertex
 10
81.00694997974834
 20
-98.18916803100835
 30
0.0
  0
VERTEX
  5
69
330
67
100
AcDbEntity
  8
_U+30EC_U+30A4_U+30E4_U+30FC 1
 62
   179
420
  2234388
370
     9
100
AcDbVertex
100
AcDb2dVertex
 10
81.00694997974834
 20
-95.72921330940106
 30
0.0
  0
SEQEND
  5
6A
330
67
100
AcDbEntity
  8
_U+30EC_U+30A4_U+30E4_U+30FC 1
 62
   179
420
  2234388
370
     9
  0
POLYLINE
  5
6B
330
57
100
AcDbEntity
  8
_U+30EC_U+30A4_U+30E4_U+30FC 1
 62
   179
420
  2234388
370
     9
100
AcDb2dPolyline
 66
     1
 10
0.0
 20
0.0
 30
0.0
  0
VERTEX
  5
6C
330
6B
100
AcDbEntity
  8
_U+30EC_U+30A4_U+30E4_U+30FC 1
 62
   179
420
  2234388
370
     9
100
AcDbVertex
100
AcDb2dVertex
 10
82.12193734933928
 20
-98.18916803100835
 30
0.0
  0
VERTEX
  5
6D
330
6B
100
AcDbEntity
  8
_U+30EC_U+30A4_U+30E4_U+30FC 1
 62
   179
420
  2234388
370
     9
100
AcDbVertex
100
AcDb2dVertex
 10
82.12193734933928
 20
-95.72921330940106
 30
0.0
  0
SEQEND
  5
6E
330
6B
100
AcDbEntity
  8
_U+30EC_U+30A4_U+30E4_U+30FC 1
 62
   179
420
  2234388
370
     9
  0
POLYLINE
  5
6F
330
57
100
AcDbEntity
  8
_U+30EC_U+30A4_U+30E4_U+30FC 1
 62
   179
420
  2234388
370
     9
100
AcDb2dPolyline
 66
     1
 10
0.0
 20
0.0
 30
0.0
  0
VERTEX
  5
70
330
6F
100
AcDbEntity
  8
_U+30EC_U+30A4_U+30E4_U+30FC 1
 62
   179
420
  2234388
370
     9
100
AcDbVertex
100
AcDb2dVertex
 10
100.0586760584016
 20
-158.6803969047744
 30
0.0
  0
VERTEX
  5
71
330
6F
100
AcDbEntity
  8
_U+30EC_U+30A4_U+30E4_U+30FC 1
 62
   179
420
  2234388
370
     9
100
AcDbVertex
100
AcDb2dVertex
 10
95.19866840461296
 20
-158.6803969047744
 30
0.0
  0
SEQEND
  5
72
330
6F
100
AcDbEntity
  8
_U+30EC_U+30A4_U+30E4_U+30FC 1
 62
   179
420
  2234388
370
     9
  0
POLYLINE
  5
73
330
57
100
AcDbEntity
  8
_U+30EC_U+30A4_U+30E4_U+30FC 1
 62
   179
420
  2234388
370
     9
100
AcDb2dPolyline
 66
     1
 10
0.0
 20
0.0
 30
0.0
  0
VERTEX
  5
74
330
73
100
AcDbEntity
  8
_U+30EC_U+30A4_U+30E4_U+30FC 1
 62
   179
420
  2234388
370
     9
100
AcDbVertex
100
AcDb2dVertex
 10
81.11373376394958
 20
-162.7290863482067
 30
0.0
  0
VERTEX
  5
75
330
73
100
AcDbEntity
  8
_U+30EC_U+30A4_U+30E4_U+30FC 1
 62
   179
420
  2234388
370
     9
100
AcDbVertex
100
AcDb2dVertex
 10
94.19889620789705
 20
-162.7290863482067
 30
0.0
  0
SEQEND
  5
76
330
73
100
AcDbEntity
  8
_U+30EC_U+30A4_U+30E4_U+30FC 1
 62
   179
420
  2234388
370
     9
  0
POLYLINE
  5
77
330
57
100
AcDbEntity
  8
_U+30EC_U+30A4_U+30E4_U+30FC 1
 62
   179
420
  2234388
370
     9
100
AcDb2dPolyline
 66
     1
 10
0.0
 20
0.0
 30
0.0
  0
VERTEX
  5
78
330
77
100
AcDbEntity
  8
_U+30EC_U+30A4_U+30E4_U+30FC 1
 62
   179
420
  2234388
370
     9
100
AcDbVertex
100
AcDb2dVertex
 10
81.1697195958546
 20
-138.17451829879
 30
0.0
  0
VERTEX
  5
79
330
77
100
AcDbEntity
  8
_U+30EC_U+30A4_U+30E4_U+30FC 1
 62
   179
420
  2234388
370
     9
100
AcDbVertex
100
AcDb2dVertex
 10
81.1697195958546
 20
-163.7292113479564
 30
0.0
  0
SEQEND
  5
7A
330
77
100
AcDbEntity
  8
_U+30EC_U+30A4_U+30E4_U+30FC 1
 62
   179
420
  2234388
370
     9
  0
POLYLINE
  5
7B
330
57
100
AcDbEntity
  8
_U+30EC_U+30A4_U+30E4_U+30FC 1
 62
   179
420
  2234388
370
     9
100
AcDb2dPolyline
 66
     1
 10
0.0
 20
0.0
 30
0.0
  0
VERTEX
  5
7C
330
7B
100
AcDbEntity
  8
_U+30EC_U+30A4_U+30E4_U+30FC 1
 62
   179
420
  2234388
370
     9
100
AcDbVertex
100
AcDb2dVertex
 10
94.19889620789705
 20
-161.269044959683
 30
0.0
  0
VERTEX
  5
7D
330
7B
100
AcDbEntity
  8
_U+30EC_U+30A4_U+30E4_U+30FC 1
 62
   179
420
  2234388
370
     9
100
AcDbVertex
100
AcDb2dVertex
 10
94.19889620789705
 20
-163.7292113479564
 30
0.0
  0
SEQEND
  5
7E
330
7B
100
AcDbEntity
  8
_U+30EC_U+30A4_U+30E4_U+30FC 1
 62
   179
420
  2234388
370
     9
  0
SPLINE
  5
7F
330
57
100
AcDbEntity
  8
_U+30EC_U+30A4_U+30E4_U+30FC 1
 62
   179
420
  2234388
370
     9
100
AcDbSpline
210
0.0
220
0.0
230
1.0
 70
    11
 71
     3
 72
    17
 73
    13
 74
     0
 42
0.0000000001
 43
0.0000000001
 12
1.0
 22
0.0
 32
0.0
 13
1.0
 23
0.0
 33
0.0
 40
0.0
 40
0.0
 40
0.0
 40
0.0
 40
1.0
 40
1.0
 40
1.0
 40
2.0
 40
2.0
 40
2.0
 40
3.0
 40
3.0
 40
3.0
 40
4.0
 40
4.0
 40
4.0
 40
4.0
 10
91.29881600410648
 20
-162.7290863482067
 30
0.0
 10
91.29881600410648
 20
-162.6742999593314
 30
0.0
 10
91.2540485052486
 20
-162.6295324593428
 30
0.0
 10
91.19890933998865
 20
-162.6295324593428
 30
0.0
 10
91.14362906362119
 20
-162.6295324593428
 30
0.0
 10
91.09882628698642
 20
-162.6742999593314
 30
0.0
 10
91.09882628698642
 20
-162.7290863482067
 30
0.0
 10
91.09882628698642
 20
-162.7845430148594
 30
0.0
 10
91.14362906362119
 20
-162.8293457926261
 30
0.0
 10
91.19890933998865
 20
-162.8293457926261
 30
0.0
 10
91.2540485052486
 20
-162.8293457926261
 30
0.0
 10
91.29881600410648
 20
-162.7845430148594
 30
0.0
 10
91.29881600410648
 20
-162.7290863482067
 30
0.0
  0
POLYLINE
  5
80
330
57
100
AcDbEntity
  8
_U+30EC_U+30A4_U+30E4_U+30FC 1
 62
   179
420
  2234388
370
     9
100
AcDb2dPolyline
 66
     1
 10
0.0
 20
0.0
 30
0.0
  0
VERTEX
  5
81
330
80
100
AcDbEntity
  8
_U+30EC_U+30A4_U+30E4_U+30FC 1
 62
   179
420
  2234388
370
     9
100
AcDbVertex
100
AcDb2dVertex
 10
91.19890933998865
 20
-161.269044959683
 30
0.0
  0
VERTEX
  5
82
330
80
100
AcDbEntity
  8
_U+30EC_U+30A4_U+30E4_U+30FC 1
 62
   179
420
  2234388
370
     9
100
AcDbVertex
100
AcDb2dVertex
 10
91.19890933998865
 20
-163.7292113479564
 30
0.0
  0
SEQEND
  5
83
330
80
100
AcDbEntity
  8
_U+30EC_U+30A4_U+30E4_U+30FC 1
 62
   179
420
  2234388
370
     9
  0
POLYLINE
  5
84
330
57
100
AcDbEntity
  8
_U+30EC_U+30A4_U+30E4_U+30FC 1
 62
   179
420
  2234388
370
     9
100
AcDb2dPolyline
 66
     1
 10
0.0
 20
0.0
 30
0.0
  0
VERTEX
  5
85
330
84
100
AcDbEntity
  8
_U+30EC_U+30A4_U+30E4_U+30FC 1
 62
   179
420
  2234388
370
     9
100
AcDbVertex
100
AcDb2dVertex
 10
94.19889620789705
 20
-96.72845636470664
 30
0.0
  0
VERTEX
  5
86
330
84
100
AcDbEntity
  8
_U+30EC_U+30A4_U+30E4_U+30FC 1
 62
   179
420
  2234388
370
     9
100
AcDbVertex
100
AcDb2dVertex
 10
82.12299568264561
 20
-96.72845636470664
 30
0.0
  0
SEQEND
  5
87
330
84
100
AcDbEntity
  8
_U+30EC_U+30A4_U+30E4_U+30FC 1
 62
   179
420
  2234388
370
     9
  0
POLYLINE
  5
88
330
57
100
AcDbEntity
  8
_U+30EC_U+30A4_U+30E4_U+30FC 1
 62
   179
420
  2234388
370
     9
100
AcDb2dPolyline
 66
     1
 10
0.0
 20
0.0
 30
0.0
  0
VERTEX
  5
89
330
88
100
AcDbEntity
  8
_U+30EC_U+30A4_U+30E4_U+30FC 1
 62
   179
420
  2234388
370
     9
100
AcDbVertex
100
AcDb2dVertex
 10
94.19889620789705
 20
-137.8093227433257
 30
0.0
  0
VERTEX
  5
8A
330
88
100
AcDbEntity
  8
_U+30EC_U+30A4_U+30E4_U+30FC 1
 62
   179
420
  2234388
370
     9
100
AcDbVertex
100
AcDb2dVertex
 10
94.19889620789705
 20
-95.7283666427345
 30
0.0
  0
SEQEND
  5
8B
330
88
100
AcDbEntity
  8
_U+30EC_U+30A4_U+30E4_U+30FC 1
 62
   179
420
  2234388
370
     9
  0
POLYLINE
  5
8C
330
57
100
AcDbEntity
  8
_U+30EC_U+30A4_U+30E4_U+30FC 1
 62
   179
420
  2234388
370
     9
100
AcDb2dPolyline
 66
     1
 10
0.0
 20
0.0
 30
0.0
  0
VERTEX
  5
8D
330
8C
100
AcDbEntity
  8
_U+30EC_U+30A4_U+30E4_U+30FC 1
 62
   179
420
  2234388
370
     9
100
AcDbVertex
100
AcDb2dVertex
 10
98.59863470676149
 20
-139.5298199651173
 30
0.0
  0
VERTEX
  5
8E
330
8C
100
AcDbEntity
  8
_U+30EC_U+30A4_U+30E4_U+30FC 1
 62
   179
420
  2234388
370
     9
100
AcDbVertex
100
AcDb2dVertex
 10
98.59863470676149
 20
-158.6803969047744
 30
0.0
  0
SEQEND
  5
8F
330
8C
100
AcDbEntity
  8
_U+30EC_U+30A4_U+30E4_U+30FC 1
 62
   179
420
  2234388
370
     9
  0
POLYLINE
  5
90
330
57
100
AcDbEntity
  8
_U+30EC_U+30A4_U+30E4_U+30FC 1
 62
   179
420
  2234388
370
     9
100
AcDb2dPolyline
 66
     1
 10
0.0
 20
0.0
 30
0.0
  0
VERTEX
  5
91
330
90
100
AcDbEntity
  8
_U+30EC_U+30A4_U+30E4_U+30FC 1
 62
   179
420
  2234388
370
     9
100
AcDbVertex
100
AcDb2dVertex
 10
99.85886273016595
 20
-138.7050607986573
 30
0.0
  0
VERTEX
  5
92
330
90
100
AcDbEntity
  8
_U+30EC_U+30A4_U+30E4_U+30FC 1
 62
   179
420
  2234388
370
     9
100
AcDbVertex
100
AcDb2dVertex
 10
95.19831562684419
 20
-138.7050607986573
 30
0.0
  0
SEQEND
  5
93
330
90
100
AcDbEntity
  8
_U+30EC_U+30A4_U+30E4_U+30FC 1
 62
   179
420
  2234388
370
     9
  0
SPLINE
  5
94
330
57
100
AcDbEntity
  8
_U+30EC_U+30A4_U+30E4_U+30FC 1
 62
   179
420
  2234388
370
     9
100
AcDbSpline
210
0.0
220
0.0
230
1.0
 70
    11
 71
     3
 72
    17
 73
    13
 74
     0
 42
0.0000000001
 43
0.0000000001
 12
1.0
 22
0.0
 32
0.0
 13
1.0
 23
0.0
 33
0.0
 40
0.0
 40
0.0
 40
0.0
 40
0.0
 40
1.0
 40
1.0
 40
1.0
 40
2.0
 40
2.0
 40
2.0
 40
3.0
 40
3.0
 40
3.0
 40
4.0
 40
4.0
 40
4.0
 40
4.0
 10
98.69854137087933
 20
-135.7050738549629
 30
0.0
 10
98.69854137087933
 20
-135.6502874660876
 30
0.0
 10
98.65373859424456
 20
-135.6055199660984
 30
0.0
 10
98.59898748453027
 20
-135.6055199660984
 30
0.0
 10
98.54384831927031
 20
-135.6055199660984
 30
0.0
 10
98.49908330870826
 20
-135.6502874660876
 30
0.0
 10
98.49908330870826
 20
-135.7050738549629
 30
0.0
 10
98.49908330870826
 20
-135.7608832993934
 30
0.0
 10
98.54384831927031
 20
-135.8056507993819
 30
0.0
 10
98.59898748453027
 20
-135.8056507993819
 30
0.0
 10
98.65373859424456
 20
-135.8056507993819
 30
0.0
 10
98.69854137087933
 20
-135.7608832993934
 30
0.0
 10
98.69854137087933
 20
-135.7050738549629
 30
0.0
  0
POLYLINE
  5
95
330
57
100
AcDbEntity
  8
_U+30EC_U+30A4_U+30E4_U+30FC 1
 62
   179
420
  2234388
370
     9
100
AcDb2dPolyline
 66
     1
 10
0.0
 20
0.0
 30
0.0
  0
VERTEX
  5
96
330
95
100
AcDbEntity
  8
_U+30EC_U+30A4_U+30E4_U+30FC 1
 62
   179
420
  2234388
370
     9
100
AcDbVertex
100
AcDb2dVertex
 10
99.85886273016595
 20
-135.7050738549629
 30
0.0
  0
VERTEX
  5
97
330
95
100
AcDbEntity
  8
_U+30EC_U+30A4_U+30E4_U+30FC 1
 62
   179
420
  2234388
370
     9
100
AcDbVertex
100
AcDb2dVertex
 10
84.20089201852295
 20
-135.7050738549629
 30
0.0
  0
SEQEND
  5
98
330
95
100
AcDbEntity
  8
_U+30EC_U+30A4_U+30E4_U+30FC 1
 62
   179
420
  2234388
370
     9
  0
POLYLINE
  5
99
330
57
100
AcDbEntity
  8
_U+30EC_U+30A4_U+30E4_U+30FC 1
 62
   179
420
  2234388
370
     9
100
AcDb2dPolyline
 66
     1
 10
0.0
 20
0.0
 30
0.0
  0
VERTEX
  5
9A
330
99
100
AcDbEntity
  8
_U+30EC_U+30A4_U+30E4_U+30FC 1
 62
   179
420
  2234388
370
     9
100
AcDbVertex
100
AcDb2dVertex
 10
98.59863470676149
 20
-139.5298199651173
 30
0.0
  0
VERTEX
  5
9B
330
99
100
AcDbEntity
  8
_U+30EC_U+30A4_U+30E4_U+30FC 1
 62
   179
420
  2234388
370
     9
100
AcDbVertex
100
AcDb2dVertex
 10
98.59863470676149
 20
-100.7297677525953
 30
0.0
  0
SEQEND
  5
9C
330
99
100
AcDbEntity
  8
_U+30EC_U+30A4_U+30E4_U+30FC 1
 62
   179
420
  2234388
370
     9
  0
POLYLINE
  5
9D
330
57
100
AcDbEntity
  8
_U+30EC_U+30A4_U+30E4_U+30FC 1
 62
   179
420
  2234388
370
     9
100
AcDb2dPolyline
 66
     1
 10
0.0
 20
0.0
 30
0.0
  0
VERTEX
  5
9E
330
9D
100
AcDbEntity
  8
_U+30EC_U+30A4_U+30E4_U+30FC 1
 62
   179
420
  2234388
370
     9
100
AcDbVertex
100
AcDb2dVertex
 10
99.85886273016595
 20
-100.7295913637064
 30
0.0
  0
VERTEX
  5
9F
330
9D
100
AcDbEntity
  8
_U+30EC_U+30A4_U+30E4_U+30FC 1
 62
   179
420
  2234388
370
     9
100
AcDbVertex
100
AcDb2dVertex
 10
83.67740508743377
 20
-100.7295913637064
 30
0.0
  0
SEQEND
  5
A0
330
9D
100
AcDbEntity
  8
_U+30EC_U+30A4_U+30E4_U+30FC 1
 62
   179
420
  2234388
370
     9
  0
ENDBLK
  5
5A
330
57
100
AcDbEntity
  8
0
100
AcDbBlockEnd
  0
BLOCK
  5
A3
330
A1
100
AcDbEntity
  8
0
100
AcDbBlockBegin
  2
block 4
 70
     0
 10
0.0
 20
0.0
 30
0.0
  3
block 4
  1

  0
SPLINE
  5
A5
330
A1
100
AcDbEntity
  8
_U+30EC_U+30A4_U+30E4_U+30FC 1
370
     0
100
AcDbSpline
210
0.0
220
0.0
230
1.0
 70
    11
 71
     3
 72
    26
 73
    22
 74
     0
 42
0.0000000001
 43
0.0000000001
 12
1.0
 22
0.0
 32
0.0
 13
1.0
 23
0.0
 33
0.0
 40
0.0
 40
0.0
 40
0.0
 40
0.0
 40
1.0
 40
1.0
 40
1.0
 40
2.0
 40
2.0
 40
2.0
 40
3.0
 40
3.0
 40
3.0
 40
4.0
 40
4.0
 40
4.0
 40
5.0
 40
5.0
 40
5.0
 40
6.0
 40
6.0
 40
6.0
 40
7.0
 40
7.0
 40
7.0
 40
7.0
 10
80.68293048113135
 20
-95.0126328972538
 30
0.0
 10
80.68293048113135
 20
-95.0126328972538
 30
0.0
 10
80.68293048113135
 20
-93.90830753945696
 30
0.0
 10
80.68293048113135
 20
-93.90830753945696
 30
0.0
 10
80.68293048113135
 20
-93.90830753945696
 30
0.0
 10
80.35289033364442
 20
-93.90830753945696
 30
0.0
 10
80.35289033364442
 20
-93.90830753945696
 30
0.0
 10
80.35289033364442
 20
-93.90830753945696
 30
0.0
 10
80.35289033364442
 20
-93.76034068836547
 30
0.0
 10
80.35289033364442
 20
-93.76034068836547
 30
0.0
 10
80.68499753842251
 20
-93.7455267777789
 30
0.0
 10
80.73150632747338
 20
-93.58257376132659
 30
0.0
 10
80.76113414864652
 20
-93.46836884599055
 30
0.0
 10
80.76113414864652
 20
-93.46836884599055
 30
0.0
 10
80.90720619722111
 20
-93.46836884599055
 30
0.0
 10
80.90720619722111
 20
-93.46836884599055
 30
0.0
 10
80.90720619722111
 20
-93.46836884599055
 30
0.0
 10
80.90720619722111
 20
-95.0126328972538
 30
0.0
 10
80.90720619722111
 20
-95.0126328972538
 30
0.0
 10
80.90720619722111
 20
-95.0126328972538
 30
0.0
 10
80.68293048113135
 20
-95.0126328972538
 30
0.0
 10
80.68293048113135
 20
-95.0126328972538
 30
0.0
  0
HATCH
  5
A6
330
A1
100
AcDbEntity
  8
_U+30EC_U+30A4_U+30E4_U+30FC 1
 62
   179
420
  2234388
100
AcDbHatch
 10
0.0
 20
0.0
 30
0.0
210
0.0
220
0.0
230
1.0
  2
SOLID
 70
     1
 71
     0
 91
        1
 92
        1
 93
        1
 72
     4
 94
        3
 73
     0
 74
     1
 95
       26
 96
       22
 40
0.0
 40
0.0
 40
0.0
 40
0.0
 40
1.0
 40
1.0
 40
1.0
 40
2.0
 40
2.0
 40
2.0
 40
3.0
 40
3.0
 40
3.0
 40
4.0
 40
4.0
 40
4.0
 40
5.0
 40
5.0
 40
5.0
 40
6.0
 40
6.0
 40
6.0
 40
7.0
 40
7.0
 40
7.0
 40
7.0
 10
80.68293048113135
 20
-95.0126328972538
 10
80.68293048113135
 20
-95.0126328972538
 10
80.68293048113135
 20
-93.90830753945696
 10
80.68293048113135
 20
-93.90830753945696
 10
80.68293048113135
 20
-93.90830753945696
 10
80.35289033364442
 20
-93.90830753945696
 10
80.35289033364442
 20
-93.90830753945696
 10
80.35289033364442
 20
-93.90830753945696
 10
80.35289033364442
 20
-93.76034068836547
 10
80.35289033364442
 20
-93.76034068836547
 10
80.68499753842251
 20
-93.7455267777789
 10
80.73150632747338
 20
-93.58257376132659
 10
80.76113414864652
 20
-93.46836884599055
 10
80.76113414864652
 20
-93.46836884599055
 10
80.90720619722111
 20
-93.46836884599055
 10
80.90720619722111
 20
-93.46836884599055
 10
80.90720619722111
 20
-93.46836884599055
 10
80.90720619722111
 20
-95.0126328972538
 10
80.90720619722111
 20
-95.0126328972538
 10
80.90720619722111
 20
-95.0126328972538
 10
80.68293048113135
 20
-95.0126328972538
 10
80.68293048113135
 20
-95.0126328972538
 97
        0
 97
        0
 75
     2
 76
     1
 98
        0
  0
POLYLINE
  5
A7
330
A1
100
AcDbEntity
  8
_U+30EC_U+30A4_U+30E4_U+30FC 1
370
     0
100
AcDb2dPolyline
 66
     1
 10
0.0
 20
0.0
 30
0.0
  0
VERTEX
  5
A8
330
A7
100
AcDbEntity
  8
_U+30EC_U+30A4_U+30E4_U+30FC 1
370
     0
100
AcDbVertex
100
AcDb2dVertex
 10
81.46841225176831
 20
-95.0126328972538
 30
0.0
  0
VERTEX
  5
A9
330
A7
100
AcDbEntity
  8
_U+30EC_U+30A4_U+30E4_U+30FC 1
370
     0
100
AcDbVertex
100
AcDb2dVertex
 10
81.46841225176831
 20
-94.7609686720563
 30
0.0
  0
VERTEX
  5
AA
330
A7
100
AcDbEntity
  8
_U+30EC_U+30A4_U+30E4_U+30FC 1
370
     0
100
AcDbVertex
100
AcDb2dVertex
 10
81.72007647696582
 20
-94.7609686720563
 30
0.0
  0
VERTEX
  5
AB
330
A7
100
AcDbEntity
  8
_U+30EC_U+30A4_U+30E4_U+30FC 1
370
     0
100
AcDbVertex
100
AcDb2dVertex
 10
81.72007647696582
 20
-95.0126328972538
 30
0.0
  0
VERTEX
  5
AC
330
A7
100
AcDbEntity
  8
_U+30EC_U+30A4_U+30E4_U+30FC 1
370
     0
100
AcDbVertex
100
AcDb2dVertex
 10
81.46841225176831
 20
-95.0126328972538
 30
0.0
  0
SEQEND
  5
AD
330
A7
100
AcDbEntity
  8
_U+30EC_U+30A4_U+30E4_U+30FC 1
370
     0
  0
HATCH
  5
AE
330
A1
100
AcDbEntity
  8
_U+30EC_U+30A4_U+30E4_U+30FC 1
 62
   179
420
  2234388
100
AcDbHatch
 10
0.0
 20
0.0
 30
0.0
210
0.0
220
0.0
230
1.0
  2
SOLID
 70
     1
 71
     0
 91
        1
 92
        1
 93
        4
 72
     1
 10
81.46841225176831
 20
-95.0126328972538
 11
81.46841225176831
 21
-94.7609686720563
 72
     1
 10
81.46841225176831
 20
-94.7609686720563
 11
81.72007647696582
 21
-94.7609686720563
 72
     1
 10
81.72007647696582
 20
-94.7609686720563
 11
81.72007647696582
 21
-95.0126328972538
 72
     1
 10
81.72007647696582
 20
-95.0126328972538
 11
81.46841225176831
 21
-95.0126328972538
 97
        0
 75
     2
 76
     1
 98
        0
  0
SPLINE
  5
AF
330
A1
100
AcDbEntity
  8
_U+30EC_U+30A4_U+30E4_U+30FC 1
370
     0
100
AcDbSpline
210
0.0
220
0.0
230
1.0
 70
    11
 71
     3
 72
    26
 73
    22
 74
     0
 42
0.0000000001
 43
0.0000000001
 12
1.0
 22
0.0
 32
0.0
 13
1.0
 23
0.0
 33
0.0
 40
0.0
 40
0.0
 40
0.0
 40
0.0
 40
1.0
 40
1.0
 40
1.0
 40
2.0
 40
2.0
 40
2.0
 40
3.0
 40
3.0
 40
3.0
 40
4.0
 40
4.0
 40
4.0
 40
5.0
 40
5.0
 40
5.0
 40
6.0
 40
6.0
 40
6.0
 40
7.0
 40
7.0
 40
7.0
 40
7.0
 10
82.40806204537022
 20
-95.0126328972538
 30
0.0
 10
82.40806204537022
 20
-95.0126328972538
 30
0.0
 10
82.40806204537022
 20
-93.90830753945696
 30
0.0
 10
82.40806204537022
 20
-93.90830753945696
 30
0.0
 10
82.40806204537022
 20
-93.90830753945696
 30
0.0
 10
82.07802189788327
 20
-93.90830753945696
 30
0.0
 10
82.07802189788327
 20
-93.90830753945696
 30
0.0
 10
82.07802189788327
 20
-93.90830753945696
 30
0.0
 10
82.07802189788327
 20
-93.76034068836547
 30
0.0
 10
82.07802189788327
 20
-93.76034068836547
 30
0.0
 10
82.41012910266136
 20
-93.7455267777789
 30
0.0
 10
82.45663789171223
 20
-93.58257376132659
 30
0.0
 10
82.48626571288538
 20
-93.46836884599055
 30
0.0
 10
82.48626571288538
 20
-93.46836884599055
 30
0.0
 10
82.63233776145998
 20
-93.46836884599055
 30
0.0
 10
82.63233776145998
 20
-93.46836884599055
 30
0.0
 10
82.63233776145998
 20
-93.46836884599055
 30
0.0
 10
82.63233776145998
 20
-95.0126328972538
 30
0.0
 10
82.63233776145998
 20
-95.0126328972538
 30
0.0
 10
82.63233776145998
 20
-95.0126328972538
 30
0.0
 10
82.40806204537022
 20
-95.0126328972538
 30
0.0
 10
82.40806204537022
 20
-95.0126328972538
 30
0.0
  0
HATCH
  5
B0
330
A1
100
AcDbEntity
  8
_U+30EC_U+30A4_U+30E4_U+30FC 1
 62
   179
420
  2234388
100
AcDbHatch
 10
0.0
 20
0.0
 30
0.0
210
0.0
220
0.0
230
1.0
  2
SOLID
 70
     1
 71
     0
 91
        1
 92
        1
 93
        1
 72
     4
 94
        3
 73
     0
 74
     1
 95
       26
 96
       22
 40
0.0
 40
0.0
 40
0.0
 40
0.0
 40
1.0
 40
1.0
 40
1.0
 40
2.0
 40
2.0
 40
2.0
 40
3.0
 40
3.0
 40
3.0
 40
4.0
 40
4.0
 40
4.0
 40
5.0
 40
5.0
 40
5.0
 40
6.0
 40
6.0
 40
6.0
 40
7.0
 40
7.0
 40
7.0
 40
7.0
 10
82.40806204537022
 20
-95.0126328972538
 10
82.40806204537022
 20
-95.0126328972538
 10
82.40806204537022
 20
-93.90830753945696
 10
82.40806204537022
 20
-93.90830753945696
 10
82.40806204537022
 20
-93.90830753945696
 10
82.07802189788327
 20
-93.90830753945696
 10
82.07802189788327
 20
-93.90830753945696
 10
82.07802189788327
 20
-93.90830753945696
 10
82.07802189788327
 20
-93.76034068836547
 10
82.07802189788327
 20
-93.76034068836547
 10
82.41012910266136
 20
-93.7455267777789
 10
82.45663789171223
 20
-93.58257376132659
 10
82.48626571288538
 20
-93.46836884599055
 10
82.48626571288538
 20
-93.46836884599055
 10
82.63233776145998
 20
-93.46836884599055
 10
82.63233776145998
 20
-93.46836884599055
 10
82.63233776145998
 20
-93.46836884599055
 10
82.63233776145998
 20
-95.0126328972538
 10
82.63233776145998
 20
-95.0126328972538
 10
82.63233776145998
 20
-95.0126328972538
 10
82.40806204537022
 20
-95.0126328972538
 10
82.40806204537022
 20
-95.0126328972538
 97
        0
 97
        0
 75
     2
 76
     1
 98
        0
  0
ENDBLK
  5
A4
330
A1
100
AcDbEntity
  8
0
100
AcDbBlockEnd
  0
BLOCK
  5
B3
330
B1
100
AcDbEntity
  8
0
100
AcDbBlockBegin
  2
block 5
 70
     0
 10
0.0
 20
0.0
 30
0.0
  3
block 5
  1

  0
SPLINE
  5
B5
330
B1
100
AcDbEntity
  8
_U+30EC_U+30A4_U+30E4_U+30FC 1
370
     0
100
AcDbSpline
210
0.0
220
0.0
230
1.0
 70
    11
 71
     3
 72
    26
 73
    22
 74
     0
 42
0.0000000001
 43
0.0000000001
 12
1.0
 22
0.0
 32
0.0
 13
1.0
 23
0.0
 33
0.0
 40
0.0
 40
0.0
 40
0.0
 40
0.0
 40
1.0
 40
1.0
 40
1.0
 40
2.0
 40
2.0
 40
2.0
 40
3.0
 40
3.0
 40
3.0
 40
4.0
 40
4.0
 40
4.0
 40
5.0
 40
5.0
 40
5.0
 40
6.0
 40
6.0
 40
6.0
 40
7.0
 40
7.0
 40
7.0
 40
7.0
 10
85.43061656935416
 20
-162.0834743518402
 30
0.0
 10
85.43061656935416
 20
-162.0834743518402
 30
0.0
 10
85.43061656935416
 20
-160.9789767392691
 30
0.0
 10
85.43061656935416
 20
-160.9789767392691
 30
0.0
 10
85.43061656935416
 20
-160.9789767392691
 30
0.0
 10
85.10057642186722
 20
-160.9789767392691
 30
0.0
 10
85.10057642186722
 20
-160.9789767392691
 30
0.0
 10
85.10057642186722
 20
-160.9789767392691
 30
0.0
 10
85.10057642186722
 20
-160.8311821429519
 30
0.0
 10
85.10057642186722
 20
-160.8311821429519
 30
0.0
 10
85.4326836266453
 20
-160.8163682323654
 30
0.0
 10
85.47919241569618
 20
-160.653415215913
 30
0.0
 10
85.50882023686933
 20
-160.5393825553513
 30
0.0
 10
85.50882023686933
 20
-160.5393825553513
 30
0.0
 10
85.65489228544392
 20
-160.5393825553513
 30
0.0
 10
85.65489228544392
 20
-160.5393825553513
 30
0.0
 10
85.65489228544392
 20
-160.5393825553513
 30
0.0
 10
85.65489228544392
 20
-162.0834743518402
 30
0.0
 10
85.65489228544392
 20
-162.0834743518402
 30
0.0
 10
85.65489228544392
 20
-162.0834743518402
 30
0.0
 10
85.43061656935416
 20
-162.0834743518402
 30
0.0
 10
85.43061656935416
 20
-162.0834743518402
 30
0.0
  0
HATCH
  5
B6
330
B1
100
AcDbEntity
  8
_U+30EC_U+30A4_U+30E4_U+30FC 1
 62
   179
420
  2234388
100
AcDbHatch
 10
0.0
 20
0.0
 30
0.0
210
0.0
220
0.0
230
1.0
  2
SOLID
 70
     1
 71
     0
 91
        1
 92
        1
 93
        1
 72
     4
 94
        3
 73
     0
 74
     1
 95
       26
 96
       22
 40
0.0
 40
0.0
 40
0.0
 40
0.0
 40
1.0
 40
1.0
 40
1.0
 40
2.0
 40
2.0
 40
2.0
 40
3.0
 40
3.0
 40
3.0
 40
4.0
 40
4.0
 40
4.0
 40
5.0
 40
5.0
 40
5.0
 40
6.0
 40
6.0
 40
6.0
 40
7.0
 40
7.0
 40
7.0
 40
7.0
 10
85.43061656935416
 20
-162.0834743518402
 10
85.43061656935416
 20
-162.0834743518402
 10
85.43061656935416
 20
-160.9789767392691
 10
85.43061656935416
 20
-160.9789767392691
 10
85.43061656935416
 20
-160.9789767392691
 10
85.10057642186722
 20
-160.9789767392691
 10
85.10057642186722
 20
-160.9789767392691
 10
85.10057642186722
 20
-160.9789767392691
 10
85.10057642186722
 20
-160.8311821429519
 10
85.10057642186722
 20
-160.8311821429519
 10
85.4326836266453
 20
-160.8163682323654
 10
85.47919241569618
 20
-160.653415215913
 10
85.50882023686933
 20
-160.5393825553513
 10
85.50882023686933
 20
-160.5393825553513
 10
85.65489228544392
 20
-160.5393825553513
 10
85.65489228544392
 20
-160.5393825553513
 10
85.65489228544392
 20
-160.5393825553513
 10
85.65489228544392
 20
-162.0834743518402
 10
85.65489228544392
 20
-162.0834743518402
 10
85.65489228544392
 20
-162.0834743518402
 10
85.43061656935416
 20
-162.0834743518402
 10
85.43061656935416
 20
-162.0834743518402
 97
        0
 97
        0
 75
     2
 76
     1
 98
        0
  0
SPLINE
  5
B7
330
B1
100
AcDbEntity
  8
_U+30EC_U+30A4_U+30E4_U+30FC 1
370
     0
100
AcDbSpline
210
0.0
220
0.0
230
1.0
 70
    11
 71
     3
 72
    29
 73
    25
 74
     0
 42
0.0000000001
 43
0.0000000001
 12
1.0
 22
0.0
 32
0.0
 13
1.0
 23
0.0
 33
0.0
 40
0.0
 40
0.0
 40
0.0
 40
0.0
 40
1.0
 40
1.0
 40
1.0
 40
2.0
 40
2.0
 40
2.0
 40
3.0
 40
3.0
 40
3.0
 40
4.0
 40
4.0
 40
4.0
 40
5.0
 40
5.0
 40
5.0
 40
6.0
 40
6.0
 40
6.0
 40
7.0
 40
7.0
 40
7.0
 40
8.0
 40
8.0
 40
8.0
 40
8.0
 10
87.05377330722962
 20
-161.9057074248014
 30
0.0
 10
86.9459418185413
 20
-162.1151692303046
 30
0.0
 10
86.77248126085897
 20
-162.1344617650219
 30
0.0
 10
86.65603703345752
 20
-162.1344617650219
 30
0.0
 10
86.49532332907062
 20
-162.1344617650219
 30
0.0
 10
86.35355764985259
 20
-162.0876084664226
 30
0.0
 10
86.25830075968543
 20
-161.9057074248014
 30
0.0
 10
86.15477564035368
 20
-161.7110595298847
 30
0.0
 10
86.13565536041054
 20
-161.4743814700481
 30
0.0
 10
86.13565536041054
 20
-161.3110839440472
 30
0.0
 10
86.13565536041054
 20
-161.1674234623123
 30
0.0
 10
86.15253632828826
 20
-160.9155869823406
 30
0.0
 10
86.25830075968543
 20
-160.7168049728416
 30
0.0
 10
86.36630450314802
 20
-160.5138888487604
 30
0.0
 10
86.52701820753492
 20
-160.4904621994607
 30
0.0
 10
86.65603703345752
 20
-160.4904621994607
 30
0.0
 10
86.81468368055327
 20
-160.4904621994607
 30
0.0
 10
86.95851641706246
 20
-160.5349039312204
 30
0.0
 10
87.05377330722962
 20
-160.7168049728416
 30
0.0
 10
87.15316431197907
 20
-160.9093858104671
 30
0.0
 10
87.1764187065045
 20
-161.1377956411392
 30
0.0
 10
87.1764187065045
 20
-161.3110839440472
 30
0.0
 10
87.1764187065045
 20
-161.4826496992127
 30
0.0
 10
87.15540362404448
 20
-161.7134710967244
 30
0.0
 10
87.05377330722962
 20
-161.9057074248014
 30
0.0
  0
SPLINE
  5
B8
330
B1
100
AcDbEntity
  8
_U+30EC_U+30A4_U+30E4_U+30FC 1
370
     0
100
AcDbSpline
210
0.0
220
0.0
230
1.0
 70
    11
 71
     3
 72
    17
 73
    13
 74
     0
 42
0.0000000001
 43
0.0000000001
 12
1.0
 22
0.0
 32
0.0
 13
1.0
 23
0.0
 33
0.0
 40
0.0
 40
0.0
 40
0.0
 40
0.0
 40
1.0
 40
1.0
 40
1.0
 40
2.0
 40
2.0
 40
2.0
 40
3.0
 40
3.0
 40
3.0
 40
4.0
 40
4.0
 40
4.0
 40
4.0
 10
86.65603703345752
 20
-160.6830430370862
 30
0.0
 10
86.40643986555118
 20
-160.6830430370862
 30
0.0
 10
86.3599310765003
 20
-160.9665743955223
 30
0.0
 10
86.3599310765003
 20
-161.3110839440472
 30
0.0
 10
86.3599310765003
 20
-161.6307888050784
 30
0.0
 10
86.39593232432117
 20
-161.9394693605568
 30
0.0
 10
86.65603703345752
 20
-161.9394693605568
 30
0.0
 10
86.90356714407272
 20
-161.9394693605568
 30
0.0
 10
86.95231524518901
 20
-161.6583495689604
 30
0.0
 10
86.95231524518901
 20
-161.3110839440472
 30
0.0
 10
86.95231524518901
 20
-160.9920681021131
 30
0.0
 10
86.91424694007699
 20
-160.6830430370862
 30
0.0
 10
86.65603703345752
 20
-160.6830430370862
 30
0.0
  0
HATCH
  5
B9
330
B1
100
AcDbEntity
  8
_U+30EC_U+30A4_U+30E4_U+30FC 1
 62
   179
420
  2234388
100
AcDbHatch
 10
0.0
 20
0.0
 30
0.0
210
0.0
220
0.0
230
1.0
  2
SOLID
 70
     1
 71
     0
 91
        2
 92
        1
 93
        1
 72
     4
 94
        3
 73
     0
 74
     1
 95
       29
 96
       25
 40
0.0
 40
0.0
 40
0.0
 40
0.0
 40
1.0
 40
1.0
 40
1.0
 40
2.0
 40
2.0
 40
2.0
 40
3.0
 40
3.0
 40
3.0
 40
4.0
 40
4.0
 40
4.0
 40
5.0
 40
5.0
 40
5.0
 40
6.0
 40
6.0
 40
6.0
 40
7.0
 40
7.0
 40
7.0
 40
8.0
 40
8.0
 40
8.0
 40
8.0
 10
87.05377330722962
 20
-161.9057074248014
 10
86.9459418185413
 20
-162.1151692303046
 10
86.77248126085897
 20
-162.1344617650219
 10
86.65603703345752
 20
-162.1344617650219
 10
86.49532332907062
 20
-162.1344617650219
 10
86.35355764985259
 20
-162.0876084664226
 10
86.25830075968543
 20
-161.9057074248014
 10
86.15477564035368
 20
-161.7110595298847
 10
86.13565536041054
 20
-161.4743814700481
 10
86.13565536041054
 20
-161.3110839440472
 10
86.13565536041054
 20
-161.1674234623123
 10
86.15253632828826
 20
-160.9155869823406
 10
86.25830075968543
 20
-160.7168049728416
 10
86.36630450314802
 20
-160.5138888487604
 10
86.52701820753492
 20
-160.4904621994607
 10
86.65603703345752
 20
-160.4904621994607
 10
86.81468368055327
 20
-160.4904621994607
 10
86.95851641706246
 20
-160.5349039312204
 10
87.05377330722962
 20
-160.7168049728416
 10
87.15316431197907
 20
-160.9093858104671
 10
87.1764187065045
 20
-161.1377956411392
 10
87.1764187065045
 20
-161.3110839440472
 10
87.1764187065045
 20
-161.4826496992127
 10
87.15540362404448
 20
-161.7134710967244
 10
87.05377330722962
 20
-161.9057074248014
 97
        0
 97
        0
 92
        1
 93
        1
 72
     4
 94
        3
 73
     0
 74
     1
 95
       17
 96
       13
 40
0.0
 40
0.0
 40
0.0
 40
0.0
 40
1.0
 40
1.0
 40
1.0
 40
2.0
 40
2.0
 40
2.0
 40
3.0
 40
3.0
 40
3.0
 40
4.0
 40
4.0
 40
4.0
 40
4.0
 10
86.65603703345752
 20
-160.6830430370862
 10
86.40643986555118
 20
-160.6830430370862
 10
86.3599310765003
 20
-160.9665743955223
 10
86.3599310765003
 20
-161.3110839440472
 10
86.3599310765003
 20
-161.6307888050784
 10
86.39593232432117
 20
-161.9394693605568
 10
86.65603703345752
 20
-161.9394693605568
 10
86.90356714407272
 20
-161.9394693605568
 10
86.95231524518901
 20
-161.6583495689604
 10
86.95231524518901
 20
-161.3110839440472
 10
86.95231524518901
 20
-160.9920681021131
 10
86.91424694007699
 20
-160.6830430370862
 10
86.65603703345752
 20
-160.6830430370862
 97
        0
 97
        0
 75
     2
 76
     1
 98
        0
  0
ENDBLK
  5
B4
330
B1
100
AcDbEntity
  8
0
100
AcDbBlockEnd
  0
BLOCK
  5
BC
330
BA
100
AcDbEntity
  8
0
100
AcDbBlockBegin
  2
block 6
 70
     0
 10
0.0
 20
0.0
 30
0.0
  3
block 6
  1

  0
SPLINE
  5
BE
330
BA
100
AcDbEntity
  8
_U+30EC_U+30A4_U+30E4_U+30FC 1
370
     0
100
AcDbSpline
210
0.0
220
0.0
230
1.0
 70
    11
 71
     3
 72
    62
 73
    58
 74
     0
 42
0.0000000001
 43
0.0000000001
 12
1.0
 22
0.0
 32
0.0
 13
1.0
 23
0.0
 33
0.0
 40
0.0
 40
0.0
 40
0.0
 40
0.0
 40
1.0
 40
1.0
 40
1.0
 40
2.0
 40
2.0
 40
2.0
 40
3.0
 40
3.0
 40
3.0
 40
4.0
 40
4.0
 40
4.0
 40
5.0
 40
5.0
 40
5.0
 40
6.0
 40
6.0
 40
6.0
 40
7.0
 40
7.0
 40
7.0
 40
8.0
 40
8.0
 40
8.0
 40
9.0
 40
9.0
 40
9.0
 40
10.0
 40
10.0
 40
10.0
 40
11.0
 40
11.0
 40
11.0
 40
12.0
 40
12.0
 40
12.0
 40
13.0
 40
13.0
 40
13.0
 40
14.0
 40
14.0
 40
14.0
 40
15.0
 40
15.0
 40
15.0
 40
16.0
 40
16.0
 40
16.0
 40
17.0
 40
17.0
 40
17.0
 40
18.0
 40
18.0
 40
18.0
 40
19.0
 40
19.0
 40
19.0
 40
19.0
 10
92.77952200371485
 20
-162.1344617650219
 30
0.0
 10
92.68409285877343
 20
-162.1344617650219
 30
0.0
 10
92.46636282410563
 20
-162.1131021730134
 30
0.0
 10
92.34165036753959
 20
-161.9270670168099
 30
0.0
 10
92.26758081460672
 20
-161.8147569039908
 30
0.0
 10
92.26310219047589
 20
-161.7155381540156
 30
0.0
 10
92.25896807589359
 20
-161.6307888050784
 30
0.0
 10
92.25896807589359
 20
-161.6307888050784
 30
0.0
 10
92.47910967740106
 20
-161.6307888050784
 30
0.0
 10
92.47910967740106
 20
-161.6307888050784
 30
0.0
 10
92.48117673469221
 20
-161.7048583580113
 30
0.0
 10
92.49185653069648
 20
-161.9394693605568
 30
0.0
 10
92.77538788913255
 20
-161.9394693605568
 30
0.0
 10
92.91284719899402
 20
-161.9394693605568
 30
0.0
 10
93.06512041944205
 20
-161.8698784317548
 30
0.0
 10
93.06512041944205
 20
-161.6411240915342
 30
0.0
 10
93.06512041944205
 20
-161.5250243736812
 30
0.0
 10
93.0272243691043
 20
-161.4764485273392
 30
0.0
 10
92.99552949064001
 20
-161.4447536488749
 30
0.0
 10
92.92111542815861
 20
-161.3703395863935
 30
0.0
 10
92.80467120075717
 20
-161.3579372426466
 30
0.0
 10
92.7498941825417
 20
-161.3579372426466
 30
0.0
 10
92.73094615737283
 20
-161.3579372426466
 30
0.0
 10
92.69511716432622
 20
-161.3600042999378
 30
0.0
 10
92.66755640044423
 20
-161.3641384145201
 30
0.0
 10
92.66755640044423
 20
-161.3641384145201
 30
0.0
 10
92.66755640044423
 20
-161.1694905196035
 30
0.0
 10
92.66755640044423
 20
-161.1694905196035
 30
0.0
 10
92.70545245078198
 20
-161.1760362010255
 30
0.0
 10
92.74782712525055
 20
-161.1781032583166
 30
0.0
 10
92.75437280667252
 20
-161.1781032583166
 30
0.0
 10
92.81982962089226
 20
-161.1781032583166
 30
0.0
 10
93.01861163039119
 20
-161.156743666308
 30
0.0
 10
93.01861163039119
 20
-160.9197210969228
 30
0.0
 10
93.01861163039119
 20
-160.7422986794325
 30
0.0
 10
92.88735349240316
 20
-160.6871771516685
 30
0.0
 10
92.7774549464237
 20
-160.6871771516685
 30
0.0
 10
92.51321612270503
 20
-160.6871771516685
 30
0.0
 10
92.5046033839919
 20
-160.9197210969228
 30
0.0
 10
92.50012475986108
 20
-160.9920681021131
 30
0.0
 10
92.50012475986108
 20
-160.9920681021131
 30
0.0
 10
92.29720863577987
 20
-160.9920681021131
 30
0.0
 10
92.29720863577987
 20
-160.9920681021131
 30
0.0
 10
92.305821374493
 20
-160.8670111359985
 30
0.0
 10
92.33338213837499
 20
-160.4904621994607
 30
0.0
 10
92.79020179971911
 20
-160.4904621994607
 30
0.0
 10
93.01413300626037
 20
-160.4904621994607
 30
0.0
 10
93.25528969022785
 20
-160.6172417133179
 30
0.0
 10
93.25528969022785
 20
-160.9135199250494
 30
0.0
 10
93.25528969022785
 20
-161.0995550812529
 30
0.0
 10
93.16020505483495
 20
-161.1822373728989
 30
0.0
 10
93.06098630485975
 20
-161.2435600725363
 30
0.0
 10
93.12230900449721
 20
-161.2711208364183
 30
0.0
 10
93.3042100461184
 20
-161.3517360707732
 30
0.0
 10
93.3042100461184
 20
-161.6287217477873
 30
0.0
 10
93.3042100461184
 20
-161.9670301244388
 30
0.0
 10
93.05685219027745
 20
-162.1344617650219
 30
0.0
 10
92.77952200371485
 20
-162.1344617650219
 30
0.0
  0
HATCH
  5
BF
330
BA
100
AcDbEntity
  8
_U+30EC_U+30A4_U+30E4_U+30FC 1
 62
   179
420
  2234388
100
AcDbHatch
 10
0.0
 20
0.0
 30
0.0
210
0.0
220
0.0
230
1.0
  2
SOLID
 70
     1
 71
     0
 91
        1
 92
        1
 93
        1
 72
     4
 94
        3
 73
     0
 74
     1
 95
       62
 96
       58
 40
0.0
 40
0.0
 40
0.0
 40
0.0
 40
1.0
 40
1.0
 40
1.0
 40
2.0
 40
2.0
 40
2.0
 40
3.0
 40
3.0
 40
3.0
 40
4.0
 40
4.0
 40
4.0
 40
5.0
 40
5.0
 40
5.0
 40
6.0
 40
6.0
 40
6.0
 40
7.0
 40
7.0
 40
7.0
 40
8.0
 40
8.0
 40
8.0
 40
9.0
 40
9.0
 40
9.0
 40
10.0
 40
10.0
 40
10.0
 40
11.0
 40
11.0
 40
11.0
 40
12.0
 40
12.0
 40
12.0
 40
13.0
 40
13.0
 40
13.0
 40
14.0
 40
14.0
 40
14.0
 40
15.0
 40
15.0
 40
15.0
 40
16.0
 40
16.0
 40
16.0
 40
17.0
 40
17.0
 40
17.0
 40
18.0
 40
18.0
 40
18.0
 40
19.0
 40
19.0
 40
19.0
 40
19.0
 10
92.77952200371485
 20
-162.1344617650219
 10
92.68409285877343
 20
-162.1344617650219
 10
92.46636282410563
 20
-162.1131021730134
 10
92.34165036753959
 20
-161.9270670168099
 10
92.26758081460672
 20
-161.8147569039908
 10
92.26310219047589
 20
-161.7155381540156
 10
92.25896807589359
 20
-161.6307888050784
 10
92.25896807589359
 20
-161.6307888050784
 10
92.47910967740106
 20
-161.6307888050784
 10
92.47910967740106
 20
-161.6307888050784
 10
92.48117673469221
 20
-161.7048583580113
 10
92.49185653069648
 20
-161.9394693605568
 10
92.77538788913255
 20
-161.9394693605568
 10
92.91284719899402
 20
-161.9394693605568
 10
93.06512041944205
 20
-161.8698784317548
 10
93.06512041944205
 20
-161.6411240915342
 10
93.06512041944205
 20
-161.5250243736812
 10
93.0272243691043
 20
-161.4764485273392
 10
92.99552949064001
 20
-161.4447536488749
 10
92.92111542815861
 20
-161.3703395863935
 10
92.80467120075717
 20
-161.3579372426466
 10
92.7498941825417
 20
-161.3579372426466
 10
92.73094615737283
 20
-161.3579372426466
 10
92.69511716432622
 20
-161.3600042999378
 10
92.66755640044423
 20
-161.3641384145201
 10
92.66755640044423
 20
-161.3641384145201
 10
92.66755640044423
 20
-161.1694905196035
 10
92.66755640044423
 20
-161.1694905196035
 10
92.70545245078198
 20
-161.1760362010255
 10
92.74782712525055
 20
-161.1781032583166
 10
92.75437280667252
 20
-161.1781032583166
 10
92.81982962089226
 20
-161.1781032583166
 10
93.01861163039119
 20
-161.156743666308
 10
93.01861163039119
 20
-160.9197210969228
 10
93.01861163039119
 20
-160.7422986794325
 10
92.88735349240316
 20
-160.6871771516685
 10
92.7774549464237
 20
-160.6871771516685
 10
92.51321612270503
 20
-160.6871771516685
 10
92.5046033839919
 20
-160.9197210969228
 10
92.50012475986108
 20
-160.9920681021131
 10
92.50012475986108
 20
-160.9920681021131
 10
92.29720863577987
 20
-160.9920681021131
 10
92.29720863577987
 20
-160.9920681021131
 10
92.305821374493
 20
-160.8670111359985
 10
92.33338213837499
 20
-160.4904621994607
 10
92.79020179971911
 20
-160.4904621994607
 10
93.01413300626037
 20
-160.4904621994607
 10
93.25528969022785
 20
-160.6172417133179
 10
93.25528969022785
 20
-160.9135199250494
 10
93.25528969022785
 20
-161.0995550812529
 10
93.16020505483495
 20
-161.1822373728989
 10
93.06098630485975
 20
-161.2435600725363
 10
93.12230900449721
 20
-161.2711208364183
 10
93.3042100461184
 20
-161.3517360707732
 10
93.3042100461184
 20
-161.6287217477873
 10
93.3042100461184
 20
-161.9670301244388
 10
93.05685219027745
 20
-162.1344617650219
 10
92.77952200371485
 20
-162.1344617650219
 97
        0
 97
        0
 75
     2
 76
     1
 98
        0
  0
ENDBLK
  5
BD
330
BA
100
AcDbEntity
  8
0
100
AcDbBlockEnd
  0
BLOCK
  5
C2
330
C0
100
AcDbEntity
  8
0
100
AcDbBlockBegin
  2
block 7
 70
     0
 10
0.0
 20
0.0
 30
0.0
  3
block 7
  1

  0
SPLINE
  5
C4
330
C0
100
AcDbEntity
  8
_U+30EC_U+30A4_U+30E4_U+30FC 1
370
     0
100
AcDbSpline
210
0.0
220
0.0
230
1.0
 70
    11
 71
     3
 72
    26
 73
    22
 74
     0
 42
0.0000000001
 43
0.0000000001
 12
1.0
 22
0.0
 32
0.0
 13
1.0
 23
0.0
 33
0.0
 40
0.0
 40
0.0
 40
0.0
 40
0.0
 40
1.0
 40
1.0
 40
1.0
 40
2.0
 40
2.0
 40
2.0
 40
3.0
 40
3.0
 40
3.0
 40
4.0
 40
4.0
 40
4.0
 40
5.0
 40
5.0
 40
5.0
 40
6.0
 40
6.0
 40
6.0
 40
7.0
 40
7.0
 40
7.0
 40
7.0
 10
86.66034340281408
 20
-94.98300507608064
 30
0.0
 10
86.66034340281408
 20
-94.98300507608064
 30
0.0
 10
86.66034340281408
 20
-93.8786797182838
 30
0.0
 10
86.66034340281408
 20
-93.8786797182838
 30
0.0
 10
86.66034340281408
 20
-93.8786797182838
 30
0.0
 10
86.33030325532715
 20
-93.8786797182838
 30
0.0
 10
86.33030325532715
 20
-93.8786797182838
 30
0.0
 10
86.33030325532715
 20
-93.8786797182838
 30
0.0
 10
86.33030325532715
 20
-93.73071286719232
 30
0.0
 10
86.33030325532715
 20
-93.73071286719232
 30
0.0
 10
86.66241046010524
 20
-93.71589895660576
 30
0.0
 10
86.70891924915611
 20
-93.55294594015344
 30
0.0
 10
86.73854707032926
 20
-93.4387410248174
 30
0.0
 10
86.73854707032926
 20
-93.4387410248174
 30
0.0
 10
86.88461911890384
 20
-93.4387410248174
 30
0.0
 10
86.88461911890384
 20
-93.4387410248174
 30
0.0
 10
86.88461911890384
 20
-93.4387410248174
 30
0.0
 10
86.88461911890384
 20
-94.98300507608064
 30
0.0
 10
86.88461911890384
 20
-94.98300507608064
 30
0.0
 10
86.88461911890384
 20
-94.98300507608064
 30
0.0
 10
86.66034340281408
 20
-94.98300507608064
 30
0.0
 10
86.66034340281408
 20
-94.98300507608064
 30
0.0
  0
HATCH
  5
C5
330
C0
100
AcDbEntity
  8
_U+30EC_U+30A4_U+30E4_U+30FC 1
 62
   179
420
  2234388
100
AcDbHatch
 10
0.0
 20
0.0
 30
0.0
210
0.0
220
0.0
230
1.0
  2
SOLID
 70
     1
 71
     0
 91
        1
 92
        1
 93
        1
 72
     4
 94
        3
 73
     0
 74
     1
 95
       26
 96
       22
 40
0.0
 40
0.0
 40
0.0
 40
0.0
 40
1.0
 40
1.0
 40
1.0
 40
2.0
 40
2.0
 40
2.0
 40
3.0
 40
3.0
 40
3.0
 40
4.0
 40
4.0
 40
4.0
 40
5.0
 40
5.0
 40
5.0
 40
6.0
 40
6.0
 40
6.0
 40
7.0
 40
7.0
 40
7.0
 40
7.0
 10
86.66034340281408
 20
-94.98300507608064
 10
86.66034340281408
 20
-94.98300507608064
 10
86.66034340281408
 20
-93.8786797182838
 10
86.66034340281408
 20
-93.8786797182838
 10
86.66034340281408
 20
-93.8786797182838
 10
86.33030325532715
 20
-93.8786797182838
 10
86.33030325532715
 20
-93.8786797182838
 10
86.33030325532715
 20
-93.8786797182838
 10
86.33030325532715
 20
-93.73071286719232
 10
86.33030325532715
 20
-93.73071286719232
 10
86.66241046010524
 20
-93.71589895660576
 10
86.70891924915611
 20
-93.55294594015344
 10
86.73854707032926
 20
-93.4387410248174
 10
86.73854707032926
 20
-93.4387410248174
 10
86.88461911890384
 20
-93.4387410248174
 10
86.88461911890384
 20
-93.4387410248174
 10
86.88461911890384
 20
-93.4387410248174
 10
86.88461911890384
 20
-94.98300507608064
 10
86.88461911890384
 20
-94.98300507608064
 10
86.88461911890384
 20
-94.98300507608064
 10
86.66034340281408
 20
-94.98300507608064
 10
86.66034340281408
 20
-94.98300507608064
 97
        0
 97
        0
 75
     2
 76
     1
 98
        0
  0
SPLINE
  5
C6
330
C0
100
AcDbEntity
  8
_U+30EC_U+30A4_U+30E4_U+30FC 1
370
     0
100
AcDbSpline
210
0.0
220
0.0
230
1.0
 70
    11
 71
     3
 72
    26
 73
    22
 74
     0
 42
0.0000000001
 43
0.0000000001
 12
1.0
 22
0.0
 32
0.0
 13
1.0
 23
0.0
 33
0.0
 40
0.0
 40
0.0
 40
0.0
 40
0.0
 40
1.0
 40
1.0
 40
1.0
 40
2.0
 40
2.0
 40
2.0
 40
3.0
 40
3.0
 40
3.0
 40
4.0
 40
4.0
 40
4.0
 40
5.0
 40
5.0
 40
5.0
 40
6.0
 40
6.0
 40
6.0
 40
7.0
 40
7.0
 40
7.0
 40
7.0
 10
87.83718802057543
 20
-94.98300507608064
 30
0.0
 10
87.83718802057543
 20
-94.98300507608064
 30
0.0
 10
87.83718802057543
 20
-93.8786797182838
 30
0.0
 10
87.83718802057543
 20
-93.8786797182838
 30
0.0
 10
87.83718802057543
 20
-93.8786797182838
 30
0.0
 10
87.5071478730885
 20
-93.8786797182838
 30
0.0
 10
87.5071478730885
 20
-93.8786797182838
 30
0.0
 10
87.5071478730885
 20
-93.8786797182838
 30
0.0
 10
87.5071478730885
 20
-93.73071286719232
 30
0.0
 10
87.5071478730885
 20
-93.73071286719232
 30
0.0
 10
87.83925507786658
 20
-93.71589895660576
 30
0.0
 10
87.88576386691746
 20
-93.55294594015344
 30
0.0
 10
87.9153916880906
 20
-93.4387410248174
 30
0.0
 10
87.9153916880906
 20
-93.4387410248174
 30
0.0
 10
88.06146373666519
 20
-93.4387410248174
 30
0.0
 10
88.06146373666519
 20
-93.4387410248174
 30
0.0
 10
88.06146373666519
 20
-93.4387410248174
 30
0.0
 10
88.06146373666519
 20
-94.98300507608064
 30
0.0
 10
88.06146373666519
 20
-94.98300507608064
 30
0.0
 10
88.06146373666519
 20
-94.98300507608064
 30
0.0
 10
87.83718802057543
 20
-94.98300507608064
 30
0.0
 10
87.83718802057543
 20
-94.98300507608064
 30
0.0
  0
HATCH
  5
C7
330
C0
100
AcDbEntity
  8
_U+30EC_U+30A4_U+30E4_U+30FC 1
 62
   179
420
  2234388
100
AcDbHatch
 10
0.0
 20
0.0
 30
0.0
210
0.0
220
0.0
230
1.0
  2
SOLID
 70
     1
 71
     0
 91
        1
 92
        1
 93
        1
 72
     4
 94
        3
 73
     0
 74
     1
 95
       26
 96
       22
 40
0.0
 40
0.0
 40
0.0
 40
0.0
 40
1.0
 40
1.0
 40
1.0
 40
2.0
 40
2.0
 40
2.0
 40
3.0
 40
3.0
 40
3.0
 40
4.0
 40
4.0
 40
4.0
 40
5.0
 40
5.0
 40
5.0
 40
6.0
 40
6.0
 40
6.0
 40
7.0
 40
7.0
 40
7.0
 40
7.0
 10
87.83718802057543
 20
-94.98300507608064
 10
87.83718802057543
 20
-94.98300507608064
 10
87.83718802057543
 20
-93.8786797182838
 10
87.83718802057543
 20
-93.8786797182838
 10
87.83718802057543
 20
-93.8786797182838
 10
87.5071478730885
 20
-93.8786797182838
 10
87.5071478730885
 20
-93.8786797182838
 10
87.5071478730885
 20
-93.8786797182838
 10
87.5071478730885
 20
-93.73071286719232
 10
87.5071478730885
 20
-93.73071286719232
 10
87.83925507786658
 20
-93.71589895660576
 10
87.88576386691746
 20
-93.55294594015344
 10
87.9153916880906
 20
-93.4387410248174
 10
87.9153916880906
 20
-93.4387410248174
 10
88.06146373666519
 20
-93.4387410248174
 10
88.06146373666519
 20
-93.4387410248174
 10
88.06146373666519
 20
-93.4387410248174
 10
88.06146373666519
 20
-94.98300507608064
 10
88.06146373666519
 20
-94.98300507608064
 10
88.06146373666519
 20
-94.98300507608064
 10
87.83718802057543
 20
-94.98300507608064
 10
87.83718802057543
 20
-94.98300507608064
 97
        0
 97
        0
 75
     2
 76
     1
 98
        0
  0
POLYLINE
  5
C8
330
C0
100
AcDbEntity
  8
_U+30EC_U+30A4_U+30E4_U+30FC 1
370
     0
100
AcDb2dPolyline
 66
     1
 10
0.0
 20
0.0
 30
0.0
  0
VERTEX
  5
C9
330
C8
100
AcDbEntity
  8
_U+30EC_U+30A4_U+30E4_U+30FC 1
370
     0
100
AcDbVertex
100
AcDb2dVertex
 10
88.62266979121239
 20
-94.98300507608064
 30
0.0
  0
VERTEX
  5
CA
330
C8
100
AcDbEntity
  8
_U+30EC_U+30A4_U+30E4_U+30FC 1
370
     0
100
AcDbVertex
100
AcDb2dVertex
 10
88.62266979121239
 20
-94.73134085088314
 30
0.0
  0
VERTEX
  5
CB
330
C8
100
AcDbEntity
  8
_U+30EC_U+30A4_U+30E4_U+30FC 1
370
     0
100
AcDbVertex
100
AcDb2dVertex
 10
88.87433401640989
 20
-94.73134085088314
 30
0.0
  0
VERTEX
  5
CC
330
C8
100
AcDbEntity
  8
_U+30EC_U+30A4_U+30E4_U+30FC 1
370
     0
100
AcDbVertex
100
AcDb2dVertex
 10
88.87433401640989
 20
-94.98300507608064
 30
0.0
  0
VERTEX
  5
CD
330
C8
100
AcDbEntity
  8
_U+30EC_U+30A4_U+30E4_U+30FC 1
370
     0
100
AcDbVertex
100
AcDb2dVertex
 10
88.62266979121239
 20
-94.98300507608064
 30
0.0
  0
SEQEND
  5
CE
330
C8
100
AcDbEntity
  8
_U+30EC_U+30A4_U+30E4_U+30FC 1
370
     0
  0
HATCH
  5
CF
330
C0
100
AcDbEntity
  8
_U+30EC_U+30A4_U+30E4_U+30FC 1
 62
   179
420
  2234388
100
AcDbHatch
 10
0.0
 20
0.0
 30
0.0
210
0.0
220
0.0
230
1.0
  2
SOLID
 70
     1
 71
     0
 91
        1
 92
        1
 93
        4
 72
     1
 10
88.62266979121239
 20
-94.98300507608064
 11
88.62266979121239
 21
-94.73134085088314
 72
     1
 10
88.62266979121239
 20
-94.73134085088314
 11
88.87433401640989
 21
-94.73134085088314
 72
     1
 10
88.87433401640989
 20
-94.73134085088314
 11
88.87433401640989
 21
-94.98300507608064
 72
     1
 10
88.87433401640989
 20
-94.98300507608064
 11
88.62266979121239
 21
-94.98300507608064
 97
        0
 75
     2
 76
     1
 98
        0
  0
SPLINE
  5
D0
330
C0
100
AcDbEntity
  8
_U+30EC_U+30A4_U+30E4_U+30FC 1
370
     0
100
AcDbSpline
210
0.0
220
0.0
230
1.0
 70
    11
 71
     3
 72
    32
 73
    28
 74
     0
 42
0.0000000001
 43
0.0000000001
 12
1.0
 22
0.0
 32
0.0
 13
1.0
 23
0.0
 33
0.0
 40
0.0
 40
0.0
 40
0.0
 40
0.0
 40
1.0
 40
1.0
 40
1.0
 40
2.0
 40
2.0
 40
2.0
 40
3.0
 40
3.0
 40
3.0
 40
4.0
 40
4.0
 40
4.0
 40
5.0
 40
5.0
 40
5.0
 40
6.0
 40
6.0
 40
6.0
 40
7.0
 40
7.0
 40
7.0
 40
8.0
 40
8.0
 40
8.0
 40
9.0
 40
9.0
 40
9.0
 40
9.0
 10
89.568693011462
 20
-95.03382023448808
 30
0.0
 10
89.3950601990054
 20
-95.03382023448808
 30
0.0
 10
89.14976940045561
 20
-94.9638847961375
 30
0.0
 10
89.1117010953436
 20
-94.63177759135942
 30
0.0
 10
89.1117010953436
 20
-94.63177759135942
 30
0.0
 10
89.3252970154291
 20
-94.63177759135942
 30
0.0
 10
89.3252970154291
 20
-94.63177759135942
 30
0.0
 10
89.33597681143337
 20
-94.69103323370572
 30
0.0
 10
89.36767168989768
 20
-94.83917233957146
 30
0.0
 10
89.57076006875315
 20
-94.83917233957146
 30
0.0
 10
89.86273191112807
 20
-94.83917233957146
 30
0.0
 10
89.90080021624009
 20
-94.50913219208452
 30
0.0
 10
89.91337481476124
 20
-94.3039767559379
 30
0.0
 10
89.82242429395065
 20
-94.38424748074422
 30
0.0
 10
89.75472816766549
 20
-94.44143606579937
 30
0.0
 10
89.5728271260443
 20
-94.44143606579937
 30
0.0
 10
89.39299314171426
 20
-94.44143606579937
 30
0.0
 10
89.09051375810932
 20
-94.3356716344022
 30
0.0
 10
89.09051375810932
 20
-93.92949487669124
 30
0.0
 10
89.09051375810932
 20
-93.60996227043432
 30
0.0
 10
89.28929576760824
 20
-93.38999292370112
 30
0.0
 10
89.60676131657401
 20
-93.38999292370112
 30
0.0
 10
90.12076956297328
 20
-93.38999292370112
 30
0.0
 10
90.13127710420329
 20
-93.94430878727782
 30
0.0
 10
90.13127710420329
 20
-94.1579047073633
 30
0.0
 10
90.13127710420329
 20
-94.38855385010078
 30
0.0
 10
90.11232907903442
 20
-95.03382023448808
 30
0.0
 10
89.568693011462
 20
-95.03382023448808
 30
0.0
  0
SPLINE
  5
D1
330
C0
100
AcDbEntity
  8
_U+30EC_U+30A4_U+30E4_U+30FC 1
370
     0
100
AcDbSpline
210
0.0
220
0.0
230
1.0
 70
    11
 71
     3
 72
    17
 73
    13
 74
     0
 42
0.0000000001
 43
0.0000000001
 12
1.0
 22
0.0
 32
0.0
 13
1.0
 23
0.0
 33
0.0
 40
0.0
 40
0.0
 40
0.0
 40
0.0
 40
1.0
 40
1.0
 40
1.0
 40
2.0
 40
2.0
 40
2.0
 40
3.0
 40
3.0
 40
3.0
 40
4.0
 40
4.0
 40
4.0
 40
4.0
 10
89.60882837386515
 20
-93.58257376132659
 30
0.0
 10
89.49031708917256
 20
-93.58257376132659
 30
0.0
 10
89.31478947419909
 20
-93.63959009160747
 30
0.0
 10
89.31478947419909
 20
-93.92518850733468
 30
0.0
 10
89.31478947419909
 20
-94.15153128071559
 30
0.0
 10
89.4543158413517
 20
-94.24678817088275
 30
0.0
 10
89.58970809392203
 20
-94.24678817088275
 30
0.0
 10
89.8520521151238
 20
-94.24678817088275
 30
0.0
 10
89.8901204202358
 20
-94.03732636537956
 30
0.0
 10
89.8901204202358
 20
-93.92105439275238
 30
0.0
 10
89.8901204202358
 20
-93.74535452300464
 30
0.0
 10
89.79503578484291
 20
-93.58257376132659
 30
0.0
 10
89.60882837386515
 20
-93.58257376132659
 30
0.0
  0
HATCH
  5
D2
330
C0
100
AcDbEntity
  8
_U+30EC_U+30A4_U+30E4_U+30FC 1
 62
   179
420
  2234388
100
AcDbHatch
 10
0.0
 20
0.0
 30
0.0
210
0.0
220
0.0
230
1.0
  2
SOLID
 70
     1
 71
     0
 91
        2
 92
        1
 93
        1
 72
     4
 94
        3
 73
     0
 74
     1
 95
       32
 96
       28
 40
0.0
 40
0.0
 40
0.0
 40
0.0
 40
1.0
 40
1.0
 40
1.0
 40
2.0
 40
2.0
 40
2.0
 40
3.0
 40
3.0
 40
3.0
 40
4.0
 40
4.0
 40
4.0
 40
5.0
 40
5.0
 40
5.0
 40
6.0
 40
6.0
 40
6.0
 40
7.0
 40
7.0
 40
7.0
 40
8.0
 40
8.0
 40
8.0
 40
9.0
 40
9.0
 40
9.0
 40
9.0
 10
89.568693011462
 20
-95.03382023448808
 10
89.3950601990054
 20
-95.03382023448808
 10
89.14976940045561
 20
-94.9638847961375
 10
89.1117010953436
 20
-94.63177759135942
 10
89.1117010953436
 20
-94.63177759135942
 10
89.3252970154291
 20
-94.63177759135942
 10
89.3252970154291
 20
-94.63177759135942
 10
89.33597681143337
 20
-94.69103323370572
 10
89.36767168989768
 20
-94.83917233957146
 10
89.57076006875315
 20
-94.83917233957146
 10
89.86273191112807
 20
-94.83917233957146
 10
89.90080021624009
 20
-94.50913219208452
 10
89.91337481476124
 20
-94.3039767559379
 10
89.82242429395065
 20
-94.38424748074422
 10
89.75472816766549
 20
-94.44143606579937
 10
89.5728271260443
 20
-94.44143606579937
 10
89.39299314171426
 20
-94.44143606579937
 10
89.09051375810932
 20
-94.3356716344022
 10
89.09051375810932
 20
-93.92949487669124
 10
89.09051375810932
 20
-93.60996227043432
 10
89.28929576760824
 20
-93.38999292370112
 10
89.60676131657401
 20
-93.38999292370112
 10
90.12076956297328
 20
-93.38999292370112
 10
90.13127710420329
 20
-93.94430878727782
 10
90.13127710420329
 20
-94.1579047073633
 10
90.13127710420329
 20
-94.38855385010078
 10
90.11232907903442
 20
-95.03382023448808
 10
89.568693011462
 20
-95.03382023448808
 97
        0
 97
        0
 92
        1
 93
        1
 72
     4
 94
        3
 73
     0
 74
     1
 95
       17
 96
       13
 40
0.0
 40
0.0
 40
0.0
 40
0.0
 40
1.0
 40
1.0
 40
1.0
 40
2.0
 40
2.0
 40
2.0
 40
3.0
 40
3.0
 40
3.0
 40
4.0
 40
4.0
 40
4.0
 40
4.0
 10
89.60882837386515
 20
-93.58257376132659
 10
89.49031708917256
 20
-93.58257376132659
 10
89.31478947419909
 20
-93.63959009160747
 10
89.31478947419909
 20
-93.92518850733468
 10
89.31478947419909
 20
-94.15153128071559
 10
89.4543158413517
 20
-94.24678817088275
 10
89.58970809392203
 20
-94.24678817088275
 10
89.8520521151238
 20
-94.24678817088275
 10
89.8901204202358
 20
-94.03732636537956
 10
89.8901204202358
 20
-93.92105439275238
 10
89.8901204202358
 20
-93.74535452300464
 10
89.79503578484291
 20
-93.58257376132659
 10
89.60882837386515
 20
-93.58257376132659
 97
        0
 97
        0
 75
     2
 76
     1
 98
        0
  0
ENDBLK
  5
C3
330
C0
100
AcDbEntity
  8
0
100
AcDbBlockEnd
  0
BLOCK
  5
D5
330
D3
100
AcDbEntity
  8
0
100
AcDbBlockBegin
  2
block 8
 70
     0
 10
0.0
 20
0.0
 30
0.0
  3
block 8
  1

  0
SPLINE
  5
D7
330
D3
100
AcDbEntity
  8
_U+30EC_U+30A4_U+30E4_U+30FC 1
370
     0
100
AcDbSpline
210
0.0
220
0.0
230
1.0
 70
    11
 71
     3
 72
    44
 73
    40
 74
     0
 42
0.0000000001
 43
0.0000000001
 12
1.0
 22
0.0
 32
0.0
 13
1.0
 23
0.0
 33
0.0
 40
0.0
 40
0.0
 40
0.0
 40
0.0
 40
1.0
 40
1.0
 40
1.0
 40
2.0
 40
2.0
 40
2.0
 40
3.0
 40
3.0
 40
3.0
 40
4.0
 40
4.0
 40
4.0
 40
5.0
 40
5.0
 40
5.0
 40
6.0
 40
6.0
 40
6.0
 40
7.0
 40
7.0
 40
7.0
 40
8.0
 40
8.0
 40
8.0
 40
9.0
 40
9.0
 40
9.0
 40
10.0
 40
10.0
 40
10.0
 40
11.0
 40
11.0
 40
11.0
 40
12.0
 40
12.0
 40
12.0
 40
13.0
 40
13.0
 40
13.0
 40
13.0
 10
100.7683539244607
 20
-149.1884819505501
 30
0.0
 10
100.9268283167822
 20
-149.4065564947664
 30
0.0
 10
101.0008978697151
 20
-149.4999185824167
 30
0.0
 10
101.14455835145
 20
-149.5481499192102
 30
0.0
 10
101.14455835145
 20
-149.5481499192102
 30
0.0
 10
101.14455835145
 20
-148.7699028490923
 30
0.0
 10
101.14455835145
 20
-148.7699028490923
 30
0.0
 10
101.14455835145
 20
-148.7699028490923
 30
0.0
 10
101.3498860423709
 20
-148.7699028490923
 30
0.0
 10
101.3498860423709
 20
-148.7699028490923
 30
0.0
 10
101.3498860423709
 20
-148.7699028490923
 30
0.0
 10
101.3498860423709
 20
-149.7979193418908
 30
0.0
 10
101.3498860423709
 20
-149.7979193418908
 30
0.0
 10
100.9922851310019
 20
-149.7662244634265
 30
0.0
 10
100.9140814634868
 20
-149.7007676492068
 30
0.0
 10
100.6157361944641
 20
-149.3156059739558
 30
0.0
 10
100.4169541849652
 20
-149.0596353794018
 30
0.0
 10
100.3494303134543
 20
-148.994178565182
 30
0.0
 10
100.2116264940443
 20
-148.994178565182
 30
0.0
 10
100.0931152093517
 20
-148.994178565182
 30
0.0
 10
99.96220158091224
 20
-149.0658365512752
 30
0.0
 10
99.96220158091224
 20
-149.2628960130315
 30
0.0
 10
99.96220158091224
 20
-149.5230007221679
 30
0.0
 10
100.1926784688754
 20
-149.531613460881
 30
0.0
 10
100.3091226962769
 20
-149.5357475754633
 30
0.0
 10
100.3091226962769
 20
-149.5357475754633
 30
0.0
 10
100.3091226962769
 20
-149.7596787820045
 30
0.0
 10
100.3091226962769
 20
-149.7596787820045
 30
0.0
 10
100.1819986728712
 20
-149.7514105528399
 30
0.0
 10
100.0700330696006
 20
-149.7410752663842
 30
0.0
 10
99.95152178490795
 20
-149.6604600320293
 30
0.0
 10
99.79063582574679
 20
-149.5505614860499
 30
0.0
 10
99.75687388999134
 20
-149.3641818202979
 30
0.0
 10
99.75687388999134
 20
-149.2477375928964
 30
0.0
 10
99.75687388999134
 20
-148.9707519158823
 30
0.0
 10
99.94084198890368
 20
-148.7633571676703
 30
0.0
 10
100.2136935513355
 20
-148.7633571676703
 30
0.0
 10
100.4424478915561
 20
-148.7633571676703
 30
0.0
 10
100.5416666415313
 20
-148.8798013950717
 30
0.0
 10
100.7683539244607
 20
-149.1884819505501
 30
0.0
  0
HATCH
  5
D8
330
D3
100
AcDbEntity
  8
_U+30EC_U+30A4_U+30E4_U+30FC 1
 62
   179
420
  2234388
100
AcDbHatch
 10
0.0
 20
0.0
 30
0.0
210
0.0
220
0.0
230
1.0
  2
SOLID
 70
     1
 71
     0
 91
        1
 92
        1
 93
        1
 72
     4
 94
        3
 73
     0
 74
     1
 95
       44
 96
       40
 40
0.0
 40
0.0
 40
0.0
 40
0.0
 40
1.0
 40
1.0
 40
1.0
 40
2.0
 40
2.0
 40
2.0
 40
3.0
 40
3.0
 40
3.0
 40
4.0
 40
4.0
 40
4.0
 40
5.0
 40
5.0
 40
5.0
 40
6.0
 40
6.0
 40
6.0
 40
7.0
 40
7.0
 40
7.0
 40
8.0
 40
8.0
 40
8.0
 40
9.0
 40
9.0
 40
9.0
 40
10.0
 40
10.0
 40
10.0
 40
11.0
 40
11.0
 40
11.0
 40
12.0
 40
12.0
 40
12.0
 40
13.0
 40
13.0
 40
13.0
 40
13.0
 10
100.7683539244607
 20
-149.1884819505501
 10
100.9268283167822
 20
-149.4065564947664
 10
101.0008978697151
 20
-149.4999185824167
 10
101.14455835145
 20
-149.5481499192102
 10
101.14455835145
 20
-149.5481499192102
 10
101.14455835145
 20
-148.7699028490923
 10
101.14455835145
 20
-148.7699028490923
 10
101.14455835145
 20
-148.7699028490923
 10
101.3498860423709
 20
-148.7699028490923
 10
101.3498860423709
 20
-148.7699028490923
 10
101.3498860423709
 20
-148.7699028490923
 10
101.3498860423709
 20
-149.7979193418908
 10
101.3498860423709
 20
-149.7979193418908
 10
100.9922851310019
 20
-149.7662244634265
 10
100.9140814634868
 20
-149.7007676492068
 10
100.6157361944641
 20
-149.3156059739558
 10
100.4169541849652
 20
-149.0596353794018
 10
100.3494303134543
 20
-148.994178565182
 10
100.2116264940443
 20
-148.994178565182
 10
100.0931152093517
 20
-148.994178565182
 10
99.96220158091224
 20
-149.0658365512752
 10
99.96220158091224
 20
-149.2628960130315
 10
99.96220158091224
 20
-149.5230007221679
 10
100.1926784688754
 20
-149.531613460881
 10
100.3091226962769
 20
-149.5357475754633
 10
100.3091226962769
 20
-149.5357475754633
 10
100.3091226962769
 20
-149.7596787820045
 10
100.3091226962769
 20
-149.7596787820045
 10
100.1819986728712
 20
-149.7514105528399
 10
100.0700330696006
 20
-149.7410752663842
 10
99.95152178490795
 20
-149.6604600320293
 10
99.79063582574679
 20
-149.5505614860499
 10
99.75687388999134
 20
-149.3641818202979
 10
99.75687388999134
 20
-149.2477375928964
 10
99.75687388999134
 20
-148.9707519158823
 10
99.94084198890368
 20
-148.7633571676703
 10
100.2136935513355
 20
-148.7633571676703
 10
100.4424478915561
 20
-148.7633571676703
 10
100.5416666415313
 20
-148.8798013950717
 10
100.7683539244607
 20
-149.1884819505501
 97
        0
 97
        0
 75
     2
 76
     1
 98
        0
  0
SPLINE
  5
D9
330
D3
100
AcDbEntity
  8
_U+30EC_U+30A4_U+30E4_U+30FC 1
370
     0
100
AcDbSpline
210
0.0
220
0.0
230
1.0
 70
    11
 71
     3
 72
    29
 73
    25
 74
     0
 42
0.0000000001
 43
0.0000000001
 12
1.0
 22
0.0
 32
0.0
 13
1.0
 23
0.0
 33
0.0
 40
0.0
 40
0.0
 40
0.0
 40
0.0
 40
1.0
 40
1.0
 40
1.0
 40
2.0
 40
2.0
 40
2.0
 40
3.0
 40
3.0
 40
3.0
 40
4.0
 40
4.0
 40
4.0
 40
5.0
 40
5.0
 40
5.0
 40
6.0
 40
6.0
 40
6.0
 40
7.0
 40
7.0
 40
7.0
 40
8.0
 40
8.0
 40
8.0
 40
8.0
 10
101.172119115332
 20
-147.7070908918927
 30
0.0
 10
101.3815809208352
 20
-147.8152668901295
 30
0.0
 10
101.4008734555526
 20
-147.9885551930376
 30
0.0
 10
101.4008734555526
 20
-148.104999420439
 30
0.0
 10
101.4008734555526
 20
-148.2658853796002
 30
0.0
 10
101.3540201569532
 20
-148.407478804044
 30
0.0
 10
101.172119115332
 20
-148.5029079489854
 30
0.0
 10
100.9774712204154
 20
-148.6062608135429
 30
0.0
 10
100.7407931605787
 20
-148.6255533482603
 30
0.0
 10
100.5774956345779
 20
-148.6255533482603
 30
0.0
 10
100.4338351528429
 20
-148.6255533482603
 30
0.0
 10
100.1819986728712
 20
-148.608327870834
 30
0.0
 10
99.98321666337226
 20
-148.5029079489854
 30
0.0
 10
99.78030053929103
 20
-148.3947319507485
 30
0.0
 10
99.75687388999134
 20
-148.2341905011359
 30
0.0
 10
99.75687388999134
 20
-148.104999420439
 30
0.0
 10
99.75687388999134
 20
-147.946180518569
 30
0.0
 10
99.80131562175106
 20
-147.8025200368341
 30
0.0
 10
99.98321666337226
 20
-147.7070908918927
 30
0.0
 10
100.1757975009977
 20
-147.6078721419175
 30
0.0
 10
100.4042073316698
 20
-147.5844454926178
 30
0.0
 10
100.5774956345779
 20
-147.5844454926178
 30
0.0
 10
100.7490613897433
 20
-147.5844454926178
 30
0.0
 10
100.979882787255
 20
-147.6058050846263
 30
0.0
 10
101.172119115332
 20
-147.7070908918927
 30
0.0
  0
SPLINE
  5
DA
330
D3
100
AcDbEntity
  8
_U+30EC_U+30A4_U+30E4_U+30FC 1
370
     0
100
AcDbSpline
210
0.0
220
0.0
230
1.0
 70
    11
 71
     3
 72
    17
 73
    13
 74
     0
 42
0.0000000001
 43
0.0000000001
 12
1.0
 22
0.0
 32
0.0
 13
1.0
 23
0.0
 33
0.0
 40
0.0
 40
0.0
 40
0.0
 40
0.0
 40
1.0
 40
1.0
 40
1.0
 40
2.0
 40
2.0
 40
2.0
 40
3.0
 40
3.0
 40
3.0
 40
4.0
 40
4.0
 40
4.0
 40
4.0
 10
99.94945472761681
 20
-148.104999420439
 30
0.0
 10
99.94945472761681
 20
-148.3547688431196
 30
0.0
 10
100.2329860860529
 20
-148.400933122622
 30
0.0
 10
100.5774956345779
 20
-148.400933122622
 30
0.0
 10
100.897200495609
 20
-148.400933122622
 30
0.0
 10
101.2058810510874
 20
-148.3651041295754
 30
0.0
 10
101.2058810510874
 20
-148.104999420439
 30
0.0
 10
101.2058810510874
 20
-147.8572970550496
 30
0.0
 10
100.924761259491
 20
-147.8087212087075
 30
0.0
 10
100.5774956345779
 20
-147.8087212087075
 30
0.0
 10
100.2584797926437
 20
-147.8087212087075
 30
0.0
 10
99.94945472761681
 20
-147.8469617685938
 30
0.0
 10
99.94945472761681
 20
-148.104999420439
 30
0.0
  0
HATCH
  5
DB
330
D3
100
AcDbEntity
  8
_U+30EC_U+30A4_U+30E4_U+30FC 1
 62
   179
420
  2234388
100
AcDbHatch
 10
0.0
 20
0.0
 30
0.0
210
0.0
220
0.0
230
1.0
  2
SOLID
 70
     1
 71
     0
 91
        2
 92
        1
 93
        1
 72
     4
 94
        3
 73
     0
 74
     1
 95
       29
 96
       25
 40
0.0
 40
0.0
 40
0.0
 40
0.0
 40
1.0
 40
1.0
 40
1.0
 40
2.0
 40
2.0
 40
2.0
 40
3.0
 40
3.0
 40
3.0
 40
4.0
 40
4.0
 40
4.0
 40
5.0
 40
5.0
 40
5.0
 40
6.0
 40
6.0
 40
6.0
 40
7.0
 40
7.0
 40
7.0
 40
8.0
 40
8.0
 40
8.0
 40
8.0
 10
101.172119115332
 20
-147.7070908918927
 10
101.3815809208352
 20
-147.8152668901295
 10
101.4008734555526
 20
-147.9885551930376
 10
101.4008734555526
 20
-148.104999420439
 10
101.4008734555526
 20
-148.2658853796002
 10
101.3540201569532
 20
-148.407478804044
 10
101.172119115332
 20
-148.5029079489854
 10
100.9774712204154
 20
-148.6062608135429
 10
100.7407931605787
 20
-148.6255533482603
 10
100.5774956345779
 20
-148.6255533482603
 10
100.4338351528429
 20
-148.6255533482603
 10
100.1819986728712
 20
-148.608327870834
 10
99.98321666337226
 20
-148.5029079489854
 10
99.78030053929103
 20
-148.3947319507485
 10
99.75687388999134
 20
-148.2341905011359
 10
99.75687388999134
 20
-148.104999420439
 10
99.75687388999134
 20
-147.946180518569
 10
99.80131562175106
 20
-147.8025200368341
 10
99.98321666337226
 20
-147.7070908918927
 10
100.1757975009977
 20
-147.6078721419175
 10
100.4042073316698
 20
-147.5844454926178
 10
100.5774956345779
 20
-147.5844454926178
 10
100.7490613897433
 20
-147.5844454926178
 10
100.979882787255
 20
-147.6058050846263
 10
101.172119115332
 20
-147.7070908918927
 97
        0
 97
        0
 92
        1
 93
        1
 72
     4
 94
        3
 73
     0
 74
     1
 95
       17
 96
       13
 40
0.0
 40
0.0
 40
0.0
 40
0.0
 40
1.0
 40
1.0
 40
1.0
 40
2.0
 40
2.0
 40
2.0
 40
3.0
 40
3.0
 40
3.0
 40
4.0
 40
4.0
 40
4.0
 40
4.0
 10
99.94945472761681
 20
-148.104999420439
 10
99.94945472761681
 20
-148.3547688431196
 10
100.2329860860529
 20
-148.400933122622
 10
100.5774956345779
 20
-148.400933122622
 10
100.897200495609
 20
-148.400933122622
 10
101.2058810510874
 20
-148.3651041295754
 10
101.2058810510874
 20
-148.104999420439
 10
101.2058810510874
 20
-147.8572970550496
 10
100.924761259491
 20
-147.8087212087075
 10
100.5774956345779
 20
-147.8087212087075
 10
100.2584797926437
 20
-147.8087212087075
 10
99.94945472761681
 20
-147.8469617685938
 10
99.94945472761681
 20
-148.104999420439
 97
        0
 97
        0
 75
     2
 76
     1
 98
        0
  0
ENDBLK
  5
D6
330
D3
100
AcDbEntity
  8
0
100
AcDbBlockEnd
  0
BLOCK
  5
DE
330
DC
100
AcDbEntity
  8
0
100
AcDbBlockBegin
  2
block 9
 70
     0
 10
0.0
 20
0.0
 30
0.0
  3
block 9
  1

  0
SPLINE
  5
E0
330
DC
100
AcDbEntity
  8
_U+30EC_U+30A4_U+30E4_U+30FC 1
370
     0
100
AcDbSpline
210
0.0
220
0.0
230
1.0
 70
    11
 71
     3
 72
    62
 73
    58
 74
     0
 42
0.0000000001
 43
0.0000000001
 12
1.0
 22
0.0
 32
0.0
 13
1.0
 23
0.0
 33
0.0
 40
0.0
 40
0.0
 40
0.0
 40
0.0
 40
1.0
 40
1.0
 40
1.0
 40
2.0
 40
2.0
 40
2.0
 40
3.0
 40
3.0
 40
3.0
 40
4.0
 40
4.0
 40
4.0
 40
5.0
 40
5.0
 40
5.0
 40
6.0
 40
6.0
 40
6.0
 40
7.0
 40
7.0
 40
7.0
 40
8.0
 40
8.0
 40
8.0
 40
9.0
 40
9.0
 40
9.0
 40
10.0
 40
10.0
 40
10.0
 40
11.0
 40
11.0
 40
11.0
 40
12.0
 40
12.0
 40
12.0
 40
13.0
 40
13.0
 40
13.0
 40
14.0
 40
14.0
 40
14.0
 40
15.0
 40
15.0
 40
15.0
 40
16.0
 40
16.0
 40
16.0
 40
17.0
 40
17.0
 40
17.0
 40
18.0
 40
18.0
 40
18.0
 40
19.0
 40
19.0
 40
19.0
 40
19.0
 10
101.4008734555526
 20
-137.3780056080166
 30
0.0
 10
101.4008734555526
 20
-137.4730902434095
 30
0.0
 10
101.379513863544
 20
-137.6908202780773
 30
0.0
 10
101.1934787073405
 20
-137.8155327346433
 30
0.0
 10
101.0811685945214
 20
-137.8899467971247
 30
0.0
 10
100.9819498445462
 20
-137.8940809117071
 30
0.0
 10
100.897200495609
 20
-137.8982150262893
 30
0.0
 10
100.897200495609
 20
-137.8982150262893
 30
0.0
 10
100.897200495609
 20
-137.6784179343304
 30
0.0
 10
100.897200495609
 20
-137.6784179343304
 30
0.0
 10
100.9712700485419
 20
-137.6763508770393
 30
0.0
 10
101.2058810510874
 20
-137.6653265714864
 30
0.0
 10
101.2058810510874
 20
-137.3821397225989
 30
0.0
 10
101.2058810510874
 20
-137.2443359031889
 30
0.0
 10
101.1362901222854
 20
-137.0920626827409
 30
0.0
 10
100.9075357820648
 20
-137.0920626827409
 30
0.0
 10
100.7914360642119
 20
-137.0920626827409
 30
0.0
 10
100.7428602178698
 20
-137.1303032426271
 30
0.0
 10
100.7111653394055
 20
-137.1619981210914
 30
0.0
 10
100.6367512769241
 20
-137.2360676740243
 30
0.0
 10
100.6243489331772
 20
-137.3525119014258
 30
0.0
 10
100.6243489331772
 20
-137.4076334291898
 30
0.0
 10
100.6243489331772
 20
-137.4262369448101
 30
0.0
 10
100.6264159904684
 20
-137.4624104474052
 30
0.0
 10
100.6305501050507
 20
-137.4899712112872
 30
0.0
 10
100.6305501050507
 20
-137.4899712112872
 30
0.0
 10
100.4362467196826
 20
-137.4899712112872
 30
0.0
 10
100.4362467196826
 20
-137.4899712112872
 30
0.0
 10
100.4424478915561
 20
-137.451730651401
 30
0.0
 10
100.4445149488472
 20
-137.4097004864809
 30
0.0
 10
100.4445149488472
 20
-137.4031548050589
 30
0.0
 10
100.4445149488472
 20
-137.3376979908392
 30
0.0
 10
100.4231553568387
 20
-137.1389159813403
 30
0.0
 10
100.1861327874535
 20
-137.1389159813403
 30
0.0
 10
100.0087103699631
 20
-137.1389159813403
 30
0.0
 10
99.95358884219911
 20
-137.2698296097798
 30
0.0
 10
99.95358884219911
 20
-137.3800726653078
 30
0.0
 10
99.95358884219911
 20
-137.6443114890264
 30
0.0
 10
100.1861327874535
 20
-137.6529242277396
 30
0.0
 10
100.2584797926437
 20
-137.6570583423218
 30
0.0
 10
100.2584797926437
 20
-137.6570583423218
 30
0.0
 10
100.2584797926437
 20
-137.8603189759516
 30
0.0
 10
100.2584797926437
 20
-137.8603189759516
 30
0.0
 10
100.1334228265292
 20
-137.8517062372385
 30
0.0
 10
99.75687388999134
 20
-137.8241454733565
 30
0.0
 10
99.75687388999134
 20
-137.3673258120124
 30
0.0
 10
99.75687388999134
 20
-137.1430500959226
 30
0.0
 10
99.88365340384854
 20
-136.9018934119551
 30
0.0
 10
100.17993161558
 20
-136.9018934119551
 30
0.0
 10
100.3659667717835
 20
-136.9018934119551
 30
0.0
 10
100.4486490634295
 20
-136.996978047348
 30
0.0
 10
100.509971763067
 20
-137.0965413068717
 30
0.0
 10
100.537532526949
 20
-137.0348740976857
 30
0.0
 10
100.6181477613038
 20
-136.8529730560645
 30
0.0
 10
100.8951334383179
 20
-136.8529730560645
 30
0.0
 10
101.2334418149694
 20
-136.8529730560645
 30
0.0
 10
101.4008734555526
 20
-137.100675421454
 30
0.0
 10
101.4008734555526
 20
-137.3780056080166
 30
0.0
  0
HATCH
  5
E1
330
DC
100
AcDbEntity
  8
_U+30EC_U+30A4_U+30E4_U+30FC 1
 62
   179
420
  2234388
100
AcDbHatch
 10
0.0
 20
0.0
 30
0.0
210
0.0
220
0.0
230
1.0
  2
SOLID
 70
     1
 71
     0
 91
        1
 92
        1
 93
        1
 72
     4
 94
        3
 73
     0
 74
     1
 95
       62
 96
       58
 40
0.0
 40
0.0
 40
0.0
 40
0.0
 40
1.0
 40
1.0
 40
1.0
 40
2.0
 40
2.0
 40
2.0
 40
3.0
 40
3.0
 40
3.0
 40
4.0
 40
4.0
 40
4.0
 40
5.0
 40
5.0
 40
5.0
 40
6.0
 40
6.0
 40
6.0
 40
7.0
 40
7.0
 40
7.0
 40
8.0
 40
8.0
 40
8.0
 40
9.0
 40
9.0
 40
9.0
 40
10.0
 40
10.0
 40
10.0
 40
11.0
 40
11.0
 40
11.0
 40
12.0
 40
12.0
 40
12.0
 40
13.0
 40
13.0
 40
13.0
 40
14.0
 40
14.0
 40
14.0
 40
15.0
 40
15.0
 40
15.0
 40
16.0
 40
16.0
 40
16.0
 40
17.0
 40
17.0
 40
17.0
 40
18.0
 40
18.0
 40
18.0
 40
19.0
 40
19.0
 40
19.0
 40
19.0
 10
101.4008734555526
 20
-137.3780056080166
 10
101.4008734555526
 20
-137.4730902434095
 10
101.379513863544
 20
-137.6908202780773
 10
101.1934787073405
 20
-137.8155327346433
 10
101.0811685945214
 20
-137.8899467971247
 10
100.9819498445462
 20
-137.8940809117071
 10
100.897200495609
 20
-137.8982150262893
 10
100.897200495609
 20
-137.8982150262893
 10
100.897200495609
 20
-137.6784179343304
 10
100.897200495609
 20
-137.6784179343304
 10
100.9712700485419
 20
-137.6763508770393
 10
101.2058810510874
 20
-137.6653265714864
 10
101.2058810510874
 20
-137.3821397225989
 10
101.2058810510874
 20
-137.2443359031889
 10
101.1362901222854
 20
-137.0920626827409
 10
100.9075357820648
 20
-137.0920626827409
 10
100.7914360642119
 20
-137.0920626827409
 10
100.7428602178698
 20
-137.1303032426271
 10
100.7111653394055
 20
-137.1619981210914
 10
100.6367512769241
 20
-137.2360676740243
 10
100.6243489331772
 20
-137.3525119014258
 10
100.6243489331772
 20
-137.4076334291898
 10
100.6243489331772
 20
-137.4262369448101
 10
100.6264159904684
 20
-137.4624104474052
 10
100.6305501050507
 20
-137.4899712112872
 10
100.6305501050507
 20
-137.4899712112872
 10
100.4362467196826
 20
-137.4899712112872
 10
100.4362467196826
 20
-137.4899712112872
 10
100.4424478915561
 20
-137.451730651401
 10
100.4445149488472
 20
-137.4097004864809
 10
100.4445149488472
 20
-137.4031548050589
 10
100.4445149488472
 20
-137.3376979908392
 10
100.4231553568387
 20
-137.1389159813403
 10
100.1861327874535
 20
-137.1389159813403
 10
100.0087103699631
 20
-137.1389159813403
 10
99.95358884219911
 20
-137.2698296097798
 10
99.95358884219911
 20
-137.3800726653078
 10
99.95358884219911
 20
-137.6443114890264
 10
100.1861327874535
 20
-137.6529242277396
 10
100.2584797926437
 20
-137.6570583423218
 10
100.2584797926437
 20
-137.6570583423218
 10
100.2584797926437
 20
-137.8603189759516
 10
100.2584797926437
 20
-137.8603189759516
 10
100.1334228265292
 20
-137.8517062372385
 10
99.75687388999134
 20
-137.8241454733565
 10
99.75687388999134
 20
-137.3673258120124
 10
99.75687388999134
 20
-137.1430500959226
 10
99.88365340384854
 20
-136.9018934119551
 10
100.17993161558
 20
-136.9018934119551
 10
100.3659667717835
 20
-136.9018934119551
 10
100.4486490634295
 20
-136.996978047348
 10
100.509971763067
 20
-137.0965413068717
 10
100.537532526949
 20
-137.0348740976857
 10
100.6181477613038
 20
-136.8529730560645
 10
100.8951334383179
 20
-136.8529730560645
 10
101.2334418149694
 20
-136.8529730560645
 10
101.4008734555526
 20
-137.100675421454
 10
101.4008734555526
 20
-137.3780056080166
 97
        0
 97
        0
 75
     2
 76
     1
 98
        0
  0
ENDBLK
  5
DF
330
DC
100
AcDbEntity
  8
0
100
AcDbBlockEnd
  0
BLOCK
  5
E4
330
E2
100
AcDbEntity
  8
0
100
AcDbBlockBegin
  2
block 10
 70
     0
 10
0.0
 20
0.0
 30
0.0
  3
block 10
  1

  0
SPLINE
  5
E6
330
E2
100
AcDbEntity
  8
_U+30EC_U+30A4_U+30E4_U+30FC 1
370
     0
100
AcDbSpline
210
0.0
220
0.0
230
1.0
 70
    11
 71
     3
 72
    62
 73
    58
 74
     0
 42
0.0000000001
 43
0.0000000001
 12
1.0
 22
0.0
 32
0.0
 13
1.0
 23
0.0
 33
0.0
 40
0.0
 40
0.0
 40
0.0
 40
0.0
 40
1.0
 40
1.0
 40
1.0
 40
2.0
 40
2.0
 40
2.0
 40
3.0
 40
3.0
 40
3.0
 40
4.0
 40
4.0
 40
4.0
 40
5.0
 40
5.0
 40
5.0
 40
6.0
 40
6.0
 40
6.0
 40
7.0
 40
7.0
 40
7.0
 40
8.0
 40
8.0
 40
8.0
 40
9.0
 40
9.0
 40
9.0
 40
10.0
 40
10.0
 40
10.0
 40
11.0
 40
11.0
 40
11.0
 40
12.0
 40
12.0
 40
12.0
 40
13.0
 40
13.0
 40
13.0
 40
14.0
 40
14.0
 40
14.0
 40
15.0
 40
15.0
 40
15.0
 40
16.0
 40
16.0
 40
16.0
 40
17.0
 40
17.0
 40
17.0
 40
18.0
 40
18.0
 40
18.0
 40
19.0
 40
19.0
 40
19.0
 40
19.0
 10
101.4008734555526
 20
-118.8142808405221
 30
0.0
 10
101.4008734555526
 20
-118.9095377306893
 30
0.0
 10
101.379513863544
 20
-119.1274400201313
 30
0.0
 10
101.1934787073405
 20
-119.2521524766974
 30
0.0
 10
101.0811685945214
 20
-119.3262220296303
 30
0.0
 10
100.9819498445462
 20
-119.3305283989868
 30
0.0
 10
100.897200495609
 20
-119.3346625135691
 30
0.0
 10
100.897200495609
 20
-119.3346625135691
 30
0.0
 10
100.897200495609
 20
-119.1146931668359
 30
0.0
 10
100.897200495609
 20
-119.1146931668359
 30
0.0
 10
100.9712700485419
 20
-119.1126261095448
 30
0.0
 10
101.2058810510874
 20
-119.1019463135405
 30
0.0
 10
101.2058810510874
 20
-118.8185872098787
 30
0.0
 10
101.2058810510874
 20
-118.680955645243
 30
0.0
 10
101.1362901222854
 20
-118.5286824247949
 30
0.0
 10
100.9075357820648
 20
-118.5286824247949
 30
0.0
 10
100.7914360642119
 20
-118.5286824247949
 30
0.0
 10
100.7428602178698
 20
-118.5667507299069
 30
0.0
 10
100.7111653394055
 20
-118.5984456083712
 30
0.0
 10
100.6367512769241
 20
-118.6725151613041
 30
0.0
 10
100.6243489331772
 20
-118.7889593887055
 30
0.0
 10
100.6243489331772
 20
-118.8439086616953
 30
0.0
 10
100.6243489331772
 20
-118.8628566868641
 30
0.0
 10
100.6264159904684
 20
-118.898857934685
 30
0.0
 10
100.6305501050507
 20
-118.926418698567
 30
0.0
 10
100.6305501050507
 20
-118.926418698567
 30
0.0
 10
100.4362467196826
 20
-118.926418698567
 30
0.0
 10
100.4362467196826
 20
-118.926418698567
 30
0.0
 10
100.4424478915561
 20
-118.888350393455
 30
0.0
 10
100.4445149488472
 20
-118.8459757189864
 30
0.0
 10
100.4445149488472
 20
-118.8396022923387
 30
0.0
 10
100.4445149488472
 20
-118.774145478119
 30
0.0
 10
100.4231553568387
 20
-118.5751912138458
 30
0.0
 10
100.1861327874535
 20
-118.5751912138458
 30
0.0
 10
100.0087103699631
 20
-118.5751912138458
 30
0.0
 10
99.95358884219911
 20
-118.7064493518338
 30
0.0
 10
99.95358884219911
 20
-118.8163478978133
 30
0.0
 10
99.95358884219911
 20
-119.0807589763062
 30
0.0
 10
100.1861327874535
 20
-119.0893717150193
 30
0.0
 10
100.2584797926437
 20
-119.0935058296016
 30
0.0
 10
100.2584797926437
 20
-119.0935058296016
 30
0.0
 10
100.2584797926437
 20
-119.2965942084571
 30
0.0
 10
100.2584797926437
 20
-119.2965942084571
 30
0.0
 10
100.1334228265292
 20
-119.2881537245182
 30
0.0
 10
99.75687388999134
 20
-119.2605929606362
 30
0.0
 10
99.75687388999134
 20
-118.8037732992921
 30
0.0
 10
99.75687388999134
 20
-118.5794975832024
 30
0.0
 10
99.88365340384854
 20
-118.3383408992349
 30
0.0
 10
100.17993161558
 20
-118.3383408992349
 30
0.0
 10
100.3659667717835
 20
-118.3383408992349
 30
0.0
 10
100.4486490634295
 20
-118.4334255346278
 30
0.0
 10
100.509971763067
 20
-118.5329887941515
 30
0.0
 10
100.537532526949
 20
-118.4714938397398
 30
0.0
 10
100.6181477613038
 20
-118.2895927981186
 30
0.0
 10
100.8951334383179
 20
-118.2895927981186
 30
0.0
 10
101.2334418149694
 20
-118.2895927981186
 30
0.0
 10
101.4008734555526
 20
-118.5371229087338
 30
0.0
 10
101.4008734555526
 20
-118.8142808405221
 30
0.0
  0
HATCH
  5
E7
330
E2
100
AcDbEntity
  8
_U+30EC_U+30A4_U+30E4_U+30FC 1
 62
   179
420
  2234388
100
AcDbHatch
 10
0.0
 20
0.0
 30
0.0
210
0.0
220
0.0
230
1.0
  2
SOLID
 70
     1
 71
     0
 91
        1
 92
        1
 93
        1
 72
     4
 94
        3
 73
     0
 74
     1
 95
       62
 96
       58
 40
0.0
 40
0.0
 40
0.0
 40
0.0
 40
1.0
 40
1.0
 40
1.0
 40
2.0
 40
2.0
 40
2.0
 40
3.0
 40
3.0
 40
3.0
 40
4.0
 40
4.0
 40
4.0
 40
5.0
 40
5.0
 40
5.0
 40
6.0
 40
6.0
 40
6.0
 40
7.0
 40
7.0
 40
7.0
 40
8.0
 40
8.0
 40
8.0
 40
9.0
 40
9.0
 40
9.0
 40
10.0
 40
10.0
 40
10.0
 40
11.0
 40
11.0
 40
11.0
 40
12.0
 40
12.0
 40
12.0
 40
13.0
 40
13.0
 40
13.0
 40
14.0
 40
14.0
 40
14.0
 40
15.0
 40
15.0
 40
15.0
 40
16.0
 40
16.0
 40
16.0
 40
17.0
 40
17.0
 40
17.0
 40
18.0
 40
18.0
 40
18.0
 40
19.0
 40
19.0
 40
19.0
 40
19.0
 10
101.4008734555526
 20
-118.8142808405221
 10
101.4008734555526
 20
-118.9095377306893
 10
101.379513863544
 20
-119.1274400201313
 10
101.1934787073405
 20
-119.2521524766974
 10
101.0811685945214
 20
-119.3262220296303
 10
100.9819498445462
 20
-119.3305283989868
 10
100.897200495609
 20
-119.3346625135691
 10
100.897200495609
 20
-119.3346625135691
 10
100.897200495609
 20
-119.1146931668359
 10
100.897200495609
 20
-119.1146931668359
 10
100.9712700485419
 20
-119.1126261095448
 10
101.2058810510874
 20
-119.1019463135405
 10
101.2058810510874
 20
-118.8185872098787
 10
101.2058810510874
 20
-118.680955645243
 10
101.1362901222854
 20
-118.5286824247949
 10
100.9075357820648
 20
-118.5286824247949
 10
100.7914360642119
 20
-118.5286824247949
 10
100.7428602178698
 20
-118.5667507299069
 10
100.7111653394055
 20
-118.5984456083712
 10
100.6367512769241
 20
-118.6725151613041
 10
100.6243489331772
 20
-118.7889593887055
 10
100.6243489331772
 20
-118.8439086616953
 10
100.6243489331772
 20
-118.8628566868641
 10
100.6264159904684
 20
-118.898857934685
 10
100.6305501050507
 20
-118.926418698567
 10
100.6305501050507
 20
-118.926418698567
 10
100.4362467196826
 20
-118.926418698567
 10
100.4362467196826
 20
-118.926418698567
 10
100.4424478915561
 20
-118.888350393455
 10
100.4445149488472
 20
-118.8459757189864
 10
100.4445149488472
 20
-118.8396022923387
 10
100.4445149488472
 20
-118.774145478119
 10
100.4231553568387
 20
-118.5751912138458
 10
100.1861327874535
 20
-118.5751912138458
 10
100.0087103699631
 20
-118.5751912138458
 10
99.95358884219911
 20
-118.7064493518338
 10
99.95358884219911
 20
-118.8163478978133
 10
99.95358884219911
 20
-119.0807589763062
 10
100.1861327874535
 20
-119.0893717150193
 10
100.2584797926437
 20
-119.0935058296016
 10
100.2584797926437
 20
-119.0935058296016
 10
100.2584797926437
 20
-119.2965942084571
 10
100.2584797926437
 20
-119.2965942084571
 10
100.1334228265292
 20
-119.2881537245182
 10
99.75687388999134
 20
-119.2605929606362
 10
99.75687388999134
 20
-118.8037732992921
 10
99.75687388999134
 20
-118.5794975832024
 10
99.88365340384854
 20
-118.3383408992349
 10
100.17993161558
 20
-118.3383408992349
 10
100.3659667717835
 20
-118.3383408992349
 10
100.4486490634295
 20
-118.4334255346278
 10
100.509971763067
 20
-118.5329887941515
 10
100.537532526949
 20
-118.4714938397398
 10
100.6181477613038
 20
-118.2895927981186
 10
100.8951334383179
 20
-118.2895927981186
 10
101.2334418149694
 20
-118.2895927981186
 10
101.4008734555526
 20
-118.5371229087338
 10
101.4008734555526
 20
-118.8142808405221
 97
        0
 97
        0
 75
     2
 76
     1
 98
        0
  0
SPLINE
  5
E8
330
E2
100
AcDbEntity
  8
_U+30EC_U+30A4_U+30E4_U+30FC 1
370
     0
100
AcDbSpline
210
0.0
220
0.0
230
1.0
 70
    11
 71
     3
 72
    53
 73
    49
 74
     0
 42
0.0000000001
 43
0.0000000001
 12
1.0
 22
0.0
 32
0.0
 13
1.0
 23
0.0
 33
0.0
 40
0.0
 40
0.0
 40
0.0
 40
0.0
 40
1.0
 40
1.0
 40
1.0
 40
2.0
 40
2.0
 40
2.0
 40
3.0
 40
3.0
 40
3.0
 40
4.0
 40
4.0
 40
4.0
 40
5.0
 40
5.0
 40
5.0
 40
6.0
 40
6.0
 40
6.0
 40
7.0
 40
7.0
 40
7.0
 40
8.0
 40
8.0
 40
8.0
 40
9.0
 40
9.0
 40
9.0
 40
10.0
 40
10.0
 40
10.0
 40
11.0
 40
11.0
 40
11.0
 40
12.0
 40
12.0
 40
12.0
 40
13.0
 40
13.0
 40
13.0
 40
14.0
 40
14.0
 40
14.0
 40
15.0
 40
15.0
 40
15.0
 40
16.0
 40
16.0
 40
16.0
 40
16.0
 10
101.4008734555526
 20
-117.6479437639908
 30
0.0
 10
101.4008734555526
 20
-117.7263196862802
 30
0.0
 10
101.3836479781263
 20
-117.8277777483208
 30
0.0
 10
101.3202582211977
 20
-117.9294080651357
 30
0.0
 10
101.2100151656697
 20
-118.102868622818
 30
0.0
 10
101.0791015372302
 20
-118.1240559600523
 30
0.0
 10
100.9712700485419
 20
-118.1430039852212
 30
0.0
 10
100.9712700485419
 20
-118.1430039852212
 30
0.0
 10
100.9712700485419
 20
-117.9209675811968
 30
0.0
 10
100.9712700485419
 20
-117.9209675811968
 30
0.0
 10
101.1700520580408
 20
-117.8658460534328
 30
0.0
 10
101.199679879214
 20
-117.7388942848014
 30
0.0
 10
101.199679879214
 20
-117.6458767066997
 30
0.0
 10
101.199679879214
 20
-117.506350339547
 30
0.0
 10
101.1004611292388
 20
-117.3539048643247
 30
0.0
 10
100.8675726744359
 20
-117.3539048643247
 30
0.0
 10
100.6116020798818
 20
-117.3539048643247
 30
0.0
 10
100.5416666415313
 20
-117.5337388486548
 30
0.0
 10
100.5416666415313
 20
-117.6543171906385
 30
0.0
 10
100.5416666415313
 20
-117.6860120691028
 30
0.0
 10
100.5416666415313
 20
-117.8277777483208
 30
0.0
 10
100.6708577222281
 20
-117.9166612118403
 30
0.0
 10
100.6708577222281
 20
-117.9166612118403
 30
0.0
 10
100.6519096970593
 20
-118.0921888268138
 30
0.0
 10
100.6519096970593
 20
-118.0921888268138
 30
0.0
 10
100.6519096970593
 20
-118.0921888268138
 30
0.0
 10
99.80579424588188
 20
-117.97161048483
 30
0.0
 10
99.80579424588188
 20
-117.97161048483
 30
0.0
 10
99.80579424588188
 20
-117.97161048483
 30
0.0
 10
99.80579424588188
 20
-117.1931911599378
 30
0.0
 10
99.80579424588188
 20
-117.1931911599378
 30
0.0
 10
99.80579424588188
 20
-117.1931911599378
 30
0.0
 10
100.00009763125
 20
-117.1931911599378
 30
0.0
 10
100.00009763125
 20
-117.1931911599378
 30
0.0
 10
100.00009763125
 20
-117.1931911599378
 30
0.0
 10
100.00009763125
 20
-117.808829723152
 30
0.0
 10
100.00009763125
 20
-117.808829723152
 30
0.0
 10
100.00009763125
 20
-117.808829723152
 30
0.0
 10
100.4231553568387
 20
-117.8742865373717
 30
0.0
 10
100.4231553568387
 20
-117.8742865373717
 30
0.0
 10
100.3893934210832
 20
-117.8129638377343
 30
0.0
 10
100.3494303134543
 20
-117.7304538008625
 30
0.0
 10
100.3494303134543
 20
-117.6121147709442
 30
0.0
 10
100.3494303134543
 20
-117.3582112336813
 30
0.0
 10
100.5354654696578
 20
-117.1211886642961
 30
0.0
 10
100.8482801397185
 20
-117.1211886642961
 30
0.0
 10
101.1659179434585
 20
-117.1211886642961
 30
0.0
 10
101.4008734555526
 20
-117.3454643803859
 30
0.0
 10
101.4008734555526
 20
-117.6479437639908
 30
0.0
  0
HATCH
  5
E9
330
E2
100
AcDbEntity
  8
_U+30EC_U+30A4_U+30E4_U+30FC 1
 62
   179
420
  2234388
100
AcDbHatch
 10
0.0
 20
0.0
 30
0.0
210
0.0
220
0.0
230
1.0
  2
SOLID
 70
     1
 71
     0
 91
        1
 92
        1
 93
        1
 72
     4
 94
        3
 73
     0
 74
     1
 95
       53
 96
       49
 40
0.0
 40
0.0
 40
0.0
 40
0.0
 40
1.0
 40
1.0
 40
1.0
 40
2.0
 40
2.0
 40
2.0
 40
3.0
 40
3.0
 40
3.0
 40
4.0
 40
4.0
 40
4.0
 40
5.0
 40
5.0
 40
5.0
 40
6.0
 40
6.0
 40
6.0
 40
7.0
 40
7.0
 40
7.0
 40
8.0
 40
8.0
 40
8.0
 40
9.0
 40
9.0
 40
9.0
 40
10.0
 40
10.0
 40
10.0
 40
11.0
 40
11.0
 40
11.0
 40
12.0
 40
12.0
 40
12.0
 40
13.0
 40
13.0
 40
13.0
 40
14.0
 40
14.0
 40
14.0
 40
15.0
 40
15.0
 40
15.0
 40
16.0
 40
16.0
 40
16.0
 40
16.0
 10
101.4008734555526
 20
-117.6479437639908
 10
101.4008734555526
 20
-117.7263196862802
 10
101.3836479781263
 20
-117.8277777483208
 10
101.3202582211977
 20
-117.9294080651357
 10
101.2100151656697
 20
-118.102868622818
 10
101.0791015372302
 20
-118.1240559600523
 10
100.9712700485419
 20
-118.1430039852212
 10
100.9712700485419
 20
-118.1430039852212
 10
100.9712700485419
 20
-117.9209675811968
 10
100.9712700485419
 20
-117.9209675811968
 10
101.1700520580408
 20
-117.8658460534328
 10
101.199679879214
 20
-117.7388942848014
 10
101.199679879214
 20
-117.6458767066997
 10
101.199679879214
 20
-117.506350339547
 10
101.1004611292388
 20
-117.3539048643247
 10
100.8675726744359
 20
-117.3539048643247
 10
100.6116020798818
 20
-117.3539048643247
 10
100.5416666415313
 20
-117.5337388486548
 10
100.5416666415313
 20
-117.6543171906385
 10
100.5416666415313
 20
-117.6860120691028
 10
100.5416666415313
 20
-117.8277777483208
 10
100.6708577222281
 20
-117.9166612118403
 10
100.6708577222281
 20
-117.9166612118403
 10
100.6519096970593
 20
-118.0921888268138
 10
100.6519096970593
 20
-118.0921888268138
 10
100.6519096970593
 20
-118.0921888268138
 10
99.80579424588188
 20
-117.97161048483
 10
99.80579424588188
 20
-117.97161048483
 10
99.80579424588188
 20
-117.97161048483
 10
99.80579424588188
 20
-117.1931911599378
 10
99.80579424588188
 20
-117.1931911599378
 10
99.80579424588188
 20
-117.1931911599378
 10
100.00009763125
 20
-117.1931911599378
 10
100.00009763125
 20
-117.1931911599378
 10
100.00009763125
 20
-117.1931911599378
 10
100.00009763125
 20
-117.808829723152
 10
100.00009763125
 20
-117.808829723152
 10
100.00009763125
 20
-117.808829723152
 10
100.4231553568387
 20
-117.8742865373717
 10
100.4231553568387
 20
-117.8742865373717
 10
100.3893934210832
 20
-117.8129638377343
 10
100.3494303134543
 20
-117.7304538008625
 10
100.3494303134543
 20
-117.6121147709442
 10
100.3494303134543
 20
-117.3582112336813
 10
100.5354654696578
 20
-117.1211886642961
 10
100.8482801397185
 20
-117.1211886642961
 10
101.1659179434585
 20
-117.1211886642961
 10
101.4008734555526
 20
-117.3454643803859
 10
101.4008734555526
 20
-117.6479437639908
 97
        0
 97
        0
 75
     2
 76
     1
 98
        0
  0
ENDBLK
  5
E5
330
E2
100
AcDbEntity
  8
0
100
AcDbBlockEnd
  0
BLOCK
  5
EC
330
EA
100
AcDbEntity
  8
0
100
AcDbBlockBegin
  2
block 11
 70
     0
 10
0.0
 20
0.0
 30
0.0
  3
block 11
  1

  0
POLYLINE
  5
EE
330
EA
100
AcDbEntity
  8
_U+30EC_U+30A4_U+30E4_U+30FC 1
 62
   179
420
  2234388
370
    25
100
AcDb2dPolyline
 66
     1
 10
0.0
 20
0.0
 30
0.0
  0
VERTEX
  5
EF
330
EE
100
AcDbEntity
  8
_U+30EC_U+30A4_U+30E4_U+30FC 1
 62
   179
420
  2234388
370
    25
100
AcDbVertex
100
AcDb2dVertex
 10
80.97163487868593
 20
-136.7761424658061
 30
0.0
  0
VERTEX
  5
F0
330
EE
100
AcDbEntity
  8
_U+30EC_U+30A4_U+30E4_U+30FC 1
 62
   179
420
  2234388
370
    25
100
AcDbVertex
100
AcDb2dVertex
 10
80.97163487868593
 20
-100.7297677525953
 30
0.0
  0
VERTEX
  5
F1
330
EE
100
AcDbEntity
  8
_U+30EC_U+30A4_U+30E4_U+30FC 1
 62
   179
420
  2234388
370
    25
100
AcDbVertex
100
AcDb2dVertex
 10
82.12176096045489
 20
-100.7297677525953
 30
0.0
  0
VERTEX
  5
F2
330
EE
100
AcDbEntity
  8
_U+30EC_U+30A4_U+30E4_U+30FC 1
 62
   179
420
  2234388
370
    25
100
AcDbVertex
100
AcDb2dVertex
 10
82.11816262721335
 20
-135.7298741327343
 30
0.0
  0
VERTEX
  5
F3
330
EE
100
AcDbEntity
  8
_U+30EC_U+30A4_U+30E4_U+30FC 1
 62
   179
420
  2234388
370
    25
100
AcDbVertex
100
AcDb2dVertex
 10
94.19543898576303
 20
-138.7298610764286
 30
0.0
  0
VERTEX
  5
F4
330
EE
100
AcDbEntity
  8
_U+30EC_U+30A4_U+30E4_U+30FC 1
 62
   179
420
  2234388
370
    25
100
AcDbVertex
100
AcDb2dVertex
 10
94.19854343012828
 20
-158.6948960714376
 30
0.0
  0
VERTEX
  5
F5
330
EE
100
AcDbEntity
  8
_U+30EC_U+30A4_U+30E4_U+30FC 1
 62
   179
420
  2234388
370
    25
100
AcDbVertex
100
AcDb2dVertex
 10
91.16825295188187
 20
-158.6948960714376
 30
0.0
  0
VERTEX
  5
F6
330
EE
100
AcDbEntity
  8
_U+30EC_U+30A4_U+30E4_U+30FC 1
 62
   179
420
  2234388
370
    25
100
AcDbVertex
100
AcDb2dVertex
 10
91.1679001741131
 20
-158.6948960714376
 30
0.0
  0
VERTEX
  5
F7
330
EE
100
AcDbEntity
  8
_U+30EC_U+30A4_U+30E4_U+30FC 1
 62
   179
420
  2234388
370
    25
100
AcDbVertex
100
AcDb2dVertex
 10
91.1679001741131
 20
-157.6000149606001
 30
0.0
  0
VERTEX
  5
F8
330
EE
100
AcDbEntity
  8
_U+30EC_U+30A4_U+30E4_U+30FC 1
 62
   179
420
  2234388
370
    25
100
AcDbVertex
100
AcDb2dVertex
 10
93.08164901417818
 20
-157.6000149606001
 30
0.0
  0
VERTEX
  5
F9
330
EE
100
AcDbEntity
  8
_U+30EC_U+30A4_U+30E4_U+30FC 1
 62
   179
420
  2234388
370
    25
100
AcDbVertex
100
AcDb2dVertex
 10
93.07716873651471
 20
-139.7799394094995
 30
0.0
  0
VERTEX
  5
FA
330
EE
100
AcDbEntity
  8
_U+30EC_U+30A4_U+30E4_U+30FC 1
 62
   179
420
  2234388
370
    25
100
AcDbVertex
100
AcDb2dVertex
 10
80.97163487868593
 20
-136.7761424658061
 30
0.0
  0
SEQEND
  5
FB
330
EE
100
AcDbEntity
  8
_U+30EC_U+30A4_U+30E4_U+30FC 1
 62
   179
420
  2234388
370
    25
  0
ENDBLK
  5
ED
330
EA
100
AcDbEntity
  8
0
100
AcDbBlockEnd
  0
ENDSEC
  0
SECTION
  2
ENTITIES
  0
INSERT
  5
42
330
1F
100
AcDbEntity
  8
_U+30EC_U+30A4_U+30E4_U+30FC 1
100
AcDbBlockReference
  2
block 2
 10
0.0
 20
0.0
 30
0.0
  0
ENDSEC
  0
SECTION
  2
OBJECTS
  0
DICTIONARY
  5
C
330
0
100
AcDbDictionary
281
     1
  3
ACAD_GROUP
350
D
  3
ACAD_LAYOUT
350
1A
  3
ACAD_MATERIAL
350
3B
  3
ACAD_MLEADERSTYLE
350
FD
  3
ACAD_MLINESTYLE
350
17
  3
ACAD_PLOTSETTINGS
350
19
  3
ACAD_PLOTSTYLENAME
350
E
  3
ACAD_TABLESTYLE
350
FC
  3
ACAD_VISUALSTYLE
350
2A
  0
SUN
  5
3F
330
29
100
AcDbSun
 90
        1
290
     0
 63
     7
421
 16777215
 40
1.0
291
     1
 91
  2455826
 92
 54000000
292
     0
 70
     2
 71
   256
280
     1
  0
DICTIONARY
  5
D
102
{ACAD_REACTORS
330
C
102
}
330
C
100
AcDbDictionary
281
     1
  0
DICTIONARY
  5
1A
102
{ACAD_REACTORS
330
C
102
}
330
C
100
AcDbDictionary
281
     1
  3
Layout1
350
1E
  3
Layout2
350
26
  3
Model
350
22
  0
DICTIONARY
  5
3B
102
{ACAD_REACTORS
330
C
102
}
330
C
100
AcDbDictionary
281
     1
  3
ByBlock
350
3D
  3
ByLayer
350
3C
  3
Global
350
3E
  0
DICTIONARY
  5
FD
102
{ACAD_REACTORS
330
C
102
}
330
C
100
AcDbDictionary
281
     1
  0
DICTIONARY
  5
17
102
{ACAD_REACTORS
330
C
102
}
330
C
100
AcDbDictionary
281
     1
  3
Standard
350
18
  0
DICTIONARY
  5
19
102
{ACAD_REACTORS
330
C
102
}
330
C
100
AcDbDictionary
281
     1
  0
ACDBDICTIONARYWDFLT
  5
E
102
{ACAD_REACTORS
330
C
102
}
330
C
100
AcDbDictionary
281
     1
  3
Normal
350
F
100
AcDbDictionaryWithDefault
340
F
  0
DICTIONARY
  5
FC
102
{ACAD_REACTORS
330
C
102
}
330
C
100
AcDbDictionary
281
     1
  0
DICTIONARY
  5
2A
102
{ACAD_REACTORS
330
C
102
}
330
C
100
AcDbDictionary
281
     1
  3
2dWireframe
350
2F
  3
3D Hidden
350
31
  3
3dWireframe
350
30
  3
Basic
350
32
  3
Brighten
350
36
  3
ColorChange
350
3A
  3
Conceptual
350
34
  3
Dim
350
35
  3
Facepattern
350
39
  3
Flat
350
2B
  3
FlatWithEdges
350
2C
  3
Gouraud
350
2D
  3
GouraudWithEdges
350
2E
  3
Linepattern
350
38
  3
Realistic
350
33
  3
Thicken
350
37
  0
LAYOUT
  5
1E
102
{ACAD_REACTORS
330
1A
102
}
330
1A
100
AcDbPlotSettings
  1

  2
none_device
  4

  6

 40
0.0
 41
0.0
 42
0.0
 43
0.0
 44
0.0
 45
0.0
 46
0.0
 47
0.0
 48
0.0
 49
0.0
140
0.0
141
0.0
142
1.0
143
1.0
 70
   688
 72
     0
 73
     0
 74
     5
  7

 75
    16
 76
     0
 77
     2
 78
   300
147
1.0
148
0.0
149
0.0
100
AcDbLayout
  1
Layout1
 70
     1
 71
     1
 10
0.0
 20
0.0
 11
12.0
 21
9.0
 12
0.0
 22
0.0
 32
0.0
 14
1.000000000000000E+20
 24
1.000000000000000E+20
 34
1.000000000000000E+20
 15
-1.000000000000000E+20
 25
-1.000000000000000E+20
 35
-1.000000000000000E+20
146
0.0
 13
0.0
 23
0.0
 33
0.0
 16
1.0
 26
0.0
 36
0.0
 17
0.0
 27
1.0
 37
0.0
 76
     0
330
1B
  0
LAYOUT
  5
26
102
{ACAD_REACTORS
330
1A
102
}
330
1A
100
AcDbPlotSettings
  1

  2
none_device
  4

  6

 40
0.0
 41
0.0
 42
0.0
 43
0.0
 44
0.0
 45
0.0
 46
0.0
 47
0.0
 48
0.0
 49
0.0
140
0.0
141
0.0
142
1.0
143
1.0
 70
   688
 72
     0
 73
     0
 74
     5
  7

 75
    16
 76
     0
 77
     2
 78
   300
147
1.0
148
0.0
149
0.0
100
AcDbLayout
  1
Layout2
 70
     1
 71
     2
 10
0.0
 20
0.0
 11
0.0
 21
0.0
 12
0.0
 22
0.0
 32
0.0
 14
0.0
 24
0.0
 34
0.0
 15
0.0
 25
0.0
 35
0.0
146
0.0
 13
0.0
 23
0.0
 33
0.0
 16
1.0
 26
0.0
 36
0.0
 17
0.0
 27
1.0
 37
0.0
 76
     0
330
23
  0
LAYOUT
  5
22
102
{ACAD_REACTORS
330
1A
102
}
330
1A
100
AcDbPlotSettings
  1

  2
none_device
  4

  6

 40
0.0
 41
0.0
 42
0.0
 43
0.0
 44
0.0
 45
0.0
 46
0.0
 47
0.0
 48
0.0
 49
0.0
140
0.0
141
0.0
142
1.0
143
1.0
 70
  1712
 72
     0
 73
     0
 74
     0
  7

 75
     0
 76
     0
 77
     2
 78
   300
147
1.0
148
0.0
149
0.0
100
AcDbLayout
  1
Model
 70
     1
 71
     0
 10
0.0
 20
0.0
 11
12.0
 21
9.0
 12
0.0
 22
0.0
 32
0.0
 14
1.000000000000000E+20
 24
1.000000000000000E+20
 34
1.000000000000000E+20
 15
-1.000000000000000E+20
 25
-1.000000000000000E+20
 35
-1.000000000000000E+20
146
0.0
 13
0.0
 23
0.0
 33
0.0
 16
1.0
 26
0.0
 36
0.0
 17
0.0
 27
1.0
 37
0.0
 76
     0
330
1F
331
29
  0
MATERIAL
  5
3D
102
{ACAD_REACTORS
330
3B
102
}
330
3B
100
AcDbMaterial
  1
ByBlock
 72
     1
 94
      127
  0
MATERIAL
  5
3C
102
{ACAD_REACTORS
330
3B
102
}
330
3B
100
AcDbMaterial
  1
ByLayer
 72
     1
 94
      127
  0
MATERIAL
  5
3E
102
{ACAD_REACTORS
330
3B
102
}
330
3B
100
AcDbMaterial
  1
Global
 72
     1
 94
      127
  0
MLINESTYLE
  5
18
102
{ACAD_REACTORS
330
17
102
}
330
17
100
AcDbMlineStyle
  2
Standard
 70
     0
  3

 62
   256
 51
90.0
 52
90.0
 71
     2
 49
0.5
 62
   256
  6
BYLAYER
 49
-0.5
 62
   256
  6
BYLAYER
  0
ACDBPLACEHOLDER
  5
F
102
{ACAD_REACTORS
330
E
102
}
330
E
  0
VISUALSTYLE
  5
2F
102
{ACAD_REACTORS
330
2A
102
}
330
2A
100
AcDbVisualStyle
  2
2dWireframe
 70
     4
177
     2
291
     0
 71
     0
176
     1
 72
     2
176
     1
 73
     0
176
     1
 90
        0
176
     1
 40
-0.6
176
     1
 41
-30.0
176
     1
 62
     5
 63
     7
421
 16777215
176
     1
 74
     1
176
     1
 91
        4
176
     1
 64
     7
176
     1
 65
   257
176
     1
 75
     1
176
     1
175
     1
176
     1
 42
1.0
176
     1
 92
        0
176
     1
 66
   257
176
     1
 43
1.0
176
     1
 76
     1
176
     1
 77
     6
176
     1
 78
     2
176
     1
 67
     7
176
     1
 79
     5
176
     1
170
     0
176
     1
171
     0
176
     1
290
     0
176
     1
 93
        1
176
     1
 44
0.0
176
     1
173
     0
176
     1
  0
VISUALSTYLE
  5
31
102
{ACAD_REACTORS
330
2A
102
}
330
2A
100
AcDbVisualStyle
  2
3D Hidden
 70
     6
177
     2
291
     0
 71
     1
176
     1
 72
     2
176
     1
 73
     2
176
     1
 90
        0
176
     1
 40
-0.6
176
     1
 41
-30.0
176
     1
 62
     5
 63
     7
421
 16777215
176
     1
 74
     2
176
     1
 91
        2
176
     1
 64
     7
176
     1
 65
   257
176
     1
 75
     2
176
     1
175
     1
176
     1
 42
40.0
176
     1
 92
        0
176
     1
 66
   257
176
     1
 43
1.0
176
     1
 76
     1
176
     1
 77
     6
176
     1
 78
     2
176
     1
 67
     7
176
     1
 79
     3
176
     1
170
     0
176
     1
171
     0
176
     1
290
     0
176
     1
 93
        1
176
     1
 44
0.0
176
     1
173
     0
176
     1
  0
VISUALSTYLE
  5
30
102
{ACAD_REACTORS
330
2A
102
}
330
2A
100
AcDbVisualStyle
  2
3dWireframe
 70
     5
177
     2
291
     0
 71
     0
176
     1
 72
     2
176
     1
 73
     0
176
     1
 90
        0
176
     1
 40
-0.6
176
     1
 41
-30.0
176
     1
 62
     5
 63
     7
421
 16777215
176
     1
 74
     1
176
     1
 91
        4
176
     1
 64
     7
176
     1
 65
   257
176
     1
 75
     1
176
     1
175
     1
176
     1
 42
1.0
176
     1
 92
        0
176
     1
 66
   257
176
     1
 43
1.0
176
     1
 76
     1
176
     1
 77
     6
176
     1
 78
     2
176
     1
 67
     7
176
     1
 79
     5
176
     1
170
     0
176
     1
171
     0
176
     1
290
     0
176
     1
 93
        1
176
     1
 44
0.0
176
     1
173
     0
176
     1
  0
VISUALSTYLE
  5
32
102
{ACAD_REACTORS
330
2A
102
}
330
2A
100
AcDbVisualStyle
  2
Basic
 70
     7
177
     2
291
     1
 71
     1
176
     1
 72
     0
176
     1
 73
     1
176
     1
 90
        0
176
     1
 40
-0.6
176
     1
 41
-30.0
176
     1
 62
     5
 63
     7
421
 16777215
176
     1
 74
     0
176
     1
 91
        4
176
     1
 64
     7
176
     1
 65
   257
176
     1
 75
     1
176
     1
175
     1
176
     1
 42
1.0
176
     1
 92
        8
176
     1
 66
     7
176
     1
 43
1.0
176
     1
 76
     1
176
     1
 77
     6
176
     1
 78
     2
176
     1
 67
     7
176
     1
 79
     5
176
     1
170
     0
176
     1
171
     0
176
     1
290
     0
176
     1
 93
        1
176
     1
 44
0.0
176
     1
173
     0
176
     1
  0
VISUALSTYLE
  5
36
102
{ACAD_REACTORS
330
2A
102
}
330
2A
100
AcDbVisualStyle
  2
Brighten
 70
    12
177
     2
291
     1
 71
     2
176
     1
 72
     2
176
     1
 73
     0
176
     1
 90
        0
176
     1
 40
-0.6
176
     1
 41
-30.0
176
     1
 62
     5
 63
     7
421
 16777215
176
     1
 74
     1
176
     1
 91
        4
176
     1
 64
     7
176
     1
 65
   257
176
     1
 75
     1
176
     1
175
     1
176
     1
 42
1.0
176
     1
 92
        8
176
     1
 66
     7
176
     1
 43
1.0
176
     1
 76
     1
176
     1
 77
     6
176
     1
 78
     2
176
     1
 67
     7
176
     1
 79
     5
176
     1
170
     0
176
     1
171
     0
176
     1
290
     0
176
     1
 93
        1
176
     1
 44
50.0
176
     1
173
     0
176
     1
  0
VISUALSTYLE
  5
3A
102
{ACAD_REACTORS
330
2A
102
}
330
2A
100
AcDbVisualStyle
  2
ColorChange
 70
    16
177
     2
291
     1
 71
     2
176
     1
 72
     2
176
     1
 73
     3
176
     1
 90
        0
176
     1
 40
-0.6
176
     1
 41
-30.0
176
     1
 62
     5
 63
     8
421
  8421504
176
     1
 74
     1
176
     1
 91
        4
176
     1
 64
     7
176
     1
 65
   257
176
     1
 75
     1
176
     1
175
     1
176
     1
 42
1.0
176
     1
 92
        8
176
     1
 66
     8
424
  8421504
176
     1
 43
1.0
176
     1
 76
     1
176
     1
 77
     6
176
     1
 78
     2
176
     1
 67
     7
176
     1
 79
     5
176
     1
170
     0
176
     1
171
     0
176
     1
290
     0
176
     1
 93
        1
176
     1
 44
0.0
176
     1
173
     0
176
     1
  0
VISUALSTYLE
  5
34
102
{ACAD_REACTORS
330
2A
102
}
330
2A
100
AcDbVisualStyle
  2
Conceptual
 70
     9
177
     2
291
     0
 71
     3
176
     1
 72
     2
176
     1
 73
     0
176
     1
 90
        0
176
     1
 40
-0.6
176
     1
 41
-30.0
176
     1
 62
     5
 63
     7
421
 16777215
176
     1
 74
     2
176
     1
 91
        2
176
     1
 64
     7
176
     1
 65
   257
176
     1
 75
     1
176
     1
175
     1
176
     1
 42
40.0
176
     1
 92
        8
176
     1
 66
     7
176
     1
 43
1.0
176
     1
 76
     1
176
     1
 77
     6
176
     1
 78
     2
176
     1
 67
     7
176
     1
 79
     3
176
     1
170
     0
176
     1
171
     0
176
     1
290
     0
176
     1
 93
        1
176
     1
 44
0.0
176
     1
173
     0
176
     1
  0
VISUALSTYLE
  5
35
102
{ACAD_REACTORS
330
2A
102
}
330
2A
100
AcDbVisualStyle
  2
Dim
 70
    11
177
     2
291
     1
 71
     2
176
     1
 72
     2
176
     1
 73
     0
176
     1
 90
        0
176
     1
 40
-0.6
176
     1
 41
-30.0
176
     1
 62
     5
 63
     7
421
 16777215
176
     1
 74
     1
176
     1
 91
        4
176
     1
 64
     7
176
     1
 65
   257
176
     1
 75
     1
176
     1
175
     1
176
     1
 42
1.0
176
     1
 92
        8
176
     1
 66
     7
176
     1
 43
1.0
176
     1
 76
     1
176
     1
 77
     6
176
     1
 78
     2
176
     1
 67
     7
176
     1
 79
     5
176
     1
170
     0
176
     1
171
     0
176
     1
290
     0
176
     1
 93
        1
176
     1
 44
-50.0
176
     1
173
     0
176
     1
  0
VISUALSTYLE
  5
39
102
{ACAD_REACTORS
330
2A
102
}
330
2A
100
AcDbVisualStyle
  2
Facepattern
 70
    15
177
     2
291
     1
 71
     2
176
     1
 72
     2
176
     1
 73
     0
176
     1
 90
        0
176
     1
 40
-0.6
176
     1
 41
-30.0
176
     1
 62
     5
 63
     7
421
 16777215
176
     1
 74
     1
176
     1
 91
        4
176
     1
 64
     7
176
     1
 65
   257
176
     1
 75
     1
176
     1
175
     1
176
     1
 42
1.0
176
     1
 92
        8
176
     1
 66
     7
176
     1
 43
1.0
176
     1
 76
     1
176
     1
 77
     6
176
     1
 78
     2
176
     1
 67
     7
176
     1
 79
     5
176
     1
170
     0
176
     1
171
     0
176
     1
290
     0
176
     1
 93
        1
176
     1
 44
0.0
176
     1
173
     0
176
     1
  0
VISUALSTYLE
  5
2B
102
{ACAD_REACTORS
330
2A
102
}
330
2A
100
AcDbVisualStyle
  2
Flat
 70
     0
177
     2
291
     1
 71
     2
176
     1
 72
     1
176
     1
 73
     1
176
     1
 90
        2
176
     1
 40
-0.6
176
     1
 41
30.0
176
     1
 62
     5
 63
     7
421
 16777215
176
     1
 74
     0
176
     1
 91
        4
176
     1
 64
     7
176
     1
 65
   257
176
     1
 75
     1
176
     1
175
     1
176
     1
 42
1.0
176
     1
 92
        8
176
     1
 66
     7
176
     1
 43
1.0
176
     1
 76
     1
176
     1
 77
     6
176
     1
 78
     2
176
     1
 67
     7
176
     1
 79
     5
176
     1
170
     0
176
     1
171
     0
176
     1
290
     0
176
     1
 93
       13
176
     1
 44
0.0
176
     1
173
     0
176
     1
  0
VISUALSTYLE
  5
2C
102
{ACAD_REACTORS
330
2A
102
}
330
2A
100
AcDbVisualStyle
  2
FlatWithEdges
 70
     1
177
     2
291
     1
 71
     2
176
     1
 72
     1
176
     1
 73
     1
176
     1
 90
        2
176
     1
 40
-0.6
176
     1
 41
30.0
176
     1
 62
     5
 63
     7
421
 16777215
176
     1
 74
     1
176
     1
 91
        4
176
     1
 64
     7
176
     1
 65
   257
176
     1
 75
     1
176
     1
175
     1
176
     1
 42
1.0
176
     1
 92
        0
176
     1
 66
   257
176
     1
 43
1.0
176
     1
 76
     1
176
     1
 77
     6
176
     1
 78
     2
176
     1
 67
     7
176
     1
 79
     5
176
     1
170
     0
176
     1
171
     0
176
     1
290
     0
176
     1
 93
       13
176
     1
 44
0.0
176
     1
173
     0
176
     1
  0
VISUALSTYLE
  5
2D
102
{ACAD_REACTORS
330
2A
102
}
330
2A
100
AcDbVisualStyle
  2
Gouraud
 70
     2
177
     2
291
     1
 71
     2
176
     1
 72
     2
176
     1
 73
     1
176
     1
 90
        2
176
     1
 40
-0.6
176
     1
 41
30.0
176
     1
 62
     5
 63
     7
421
 16777215
176
     1
 74
     0
176
     1
 91
        4
176
     1
 64
     7
176
     1
 65
   257
176
     1
 75
     1
176
     1
175
     1
176
     1
 42
1.0
176
     1
 92
        0
176
     1
 66
     7
176
     1
 43
1.0
176
     1
 76
     1
176
     1
 77
     6
176
     1
 78
     2
176
     1
 67
     7
176
     1
 79
     5
176
     1
170
     0
176
     1
171
     0
176
     1
290
     0
176
     1
 93
       13
176
     1
 44
0.0
176
     1
173
     0
176
     1
  0
VISUALSTYLE
  5
2E
102
{ACAD_REACTORS
330
2A
102
}
330
2A
100
AcDbVisualStyle
  2
GouraudWithEdges
 70
     3
177
     2
291
     1
 71
     2
176
     1
 72
     2
176
     1
 73
     1
176
     1
 90
        2
176
     1
 40
-0.6
176
     1
 41
30.0
176
     1
 62
     5
 63
     7
421
 16777215
176
     1
 74
     1
176
     1
 91
        4
176
     1
 64
     7
176
     1
 65
   257
176
     1
 75
     1
176
     1
175
     1
176
     1
 42
1.0
176
     1
 92
        0
176
     1
 66
   257
176
     1
 43
1.0
176
     1
 76
     1
176
     1
 77
     6
176
     1
 78
     2
176
     1
 67
     7
176
     1
 79
     5
176
     1
170
     0
176
     1
171
     0
176
     1
290
     0
176
     1
 93
       13
176
     1
 44
0.0
176
     1
173
     0
176
     1
  0
VISUALSTYLE
  5
38
102
{ACAD_REACTORS
330
2A
102
}
330
2A
100
AcDbVisualStyle
  2
Linepattern
 70
    14
177
     2
291
     1
 71
     2
176
     1
 72
     2
176
     1
 73
     0
176
     1
 90
        0
176
     1
 40
-0.6
176
     1
 41
-30.0
176
     1
 62
     5
 63
     7
421
 16777215
176
     1
 74
     1
176
     1
 91
        4
176
     1
 64
     7
176
     1
 65
   257
176
     1
 75
     7
176
     1
175
     7
176
     1
 42
1.0
176
     1
 92
        8
176
     1
 66
     7
176
     1
 43
1.0
176
     1
 76
     1
176
     1
 77
     6
176
     1
 78
     2
176
     1
 67
     7
176
     1
 79
     5
176
     1
170
     0
176
     1
171
     0
176
     1
290
     0
176
     1
 93
        1
176
     1
 44
0.0
176
     1
173
     0
176
     1
  0
VISUALSTYLE
  5
33
102
{ACAD_REACTORS
330
2A
102
}
330
2A
100
AcDbVisualStyle
  2
Realistic
 70
     8
177
     2
291
     0
 71
     2
176
     1
 72
     2
176
     1
 73
     0
176
     1
 90
        0
176
     1
 40
-0.6
176
     1
 41
-30.0
176
     1
 62
     5
 63
     7
421
 16777215
176
     1
 74
     1
176
     1
 91
        0
176
     1
 64
     7
176
     1
 65
   257
176
     1
 75
     1
176
     1
175
     1
176
     1
 42
1.0
176
     1
 92
        8
176
     1
 66
     8
424
  7895160
176
     1
 43
1.0
176
     1
 76
     1
176
     1
 77
     6
176
     1
 78
     2
176
     1
 67
     7
176
     1
 79
     5
176
     1
170
     0
176
     1
171
     0
176
     1
290
     0
176
     1
 93
       13
176
     1
 44
0.0
176
     1
173
     0
176
     1
  0
VISUALSTYLE
  5
37
102
{ACAD_REACTORS
330
2A
102
}
330
2A
100
AcDbVisualStyle
  2
Thicken
 70
    13
177
     2
291
     1
 71
     2
176
     1
 72
     2
176
     1
 73
     0
176
     1
 90
        0
176
     1
 40
-0.6
176
     1
 41
-30.0
176
     1
 62
     5
 63
     7
421
 16777215
176
     1
 74
     1
176
     1
 91
        4
176
     1
 64
     7
176
     1
 65
   257
176
     1
 75
     1
176
     1
175
     1
176
     1
 42
1.0
176
     1
 92
       12
176
     1
 66
     7
176
     1
 43
1.0
176
     1
 76
     1
176
     1
 77
     6
176
     1
 78
     2
176
     1
 67
     7
176
     1
 79
     5
176
     1
170
     0
176
     1
171
     0
176
     1
290
     0
176
     1
 93
        1
176
     1
 44
0.0
176
     1
173
     0
176
     1
  0
ENDSEC
  0
EOF
