  0
SECTION
  2
HEADER
  9
$ACADVER
  1
AC1024
  9
$ACADMAINTVER
 70
     6
  9
$DWGCODEPAGE
  3
UNDEFINED
  9
$INSBASE
 10
0.0
 20
0.0
 30
0.0
  9
$EXTMIN
 10
1.000000000000000E+20
 20
1.000000000000000E+20
 30
1.000000000000000E+20
  9
$EXTMAX
 10
-1.000000000000000E+20
 20
-1.000000000000000E+20
 30
-1.000000000000000E+20
  9
$LIMMIN
 10
0.0
 20
0.0
  9
$LIMMAX
 10
12.0
 20
9.0
  9
$ORTHOMODE
 70
     0
  9
$REGENMODE
 70
     1
  9
$FILLMODE
 70
     1
  9
$QTEXTMODE
 70
     0
  9
$MIRRTEXT
 70
     1
  9
$LTSCALE
 40
1.0
  9
$ATTMODE
 70
     1
  9
$TEXTSIZE
 40
0.2
  9
$TRACEWID
 40
0.05
  9
$TEXTSTYLE
  7
Standard
  9
$CLAYER
  8
0
  9
$CELTYPE
  6
ByLayer
  9
$CECOLOR
 62
   256
  9
$CELTSCALE
 40
1.0
  9
$DISPSILH
 70
     0
  9
$DIMSCALE
 40
1.0
  9
$DIMASZ
 40
0.18
  9
$DIMEXO
 40
0.0625
  9
$DIMDLI
 40
0.38
  9
$DIMRND
 40
0.0
  9
$DIMDLE
 40
0.0
  9
$DIMEXE
 40
0.18
  9
$DIMTP
 40
0.0
  9
$DIMTM
 40
0.0
  9
$DIMTXT
 40
0.18
  9
$DIMCEN
 40
0.09
  9
$DIMTSZ
 40
0.0
  9
$DIMTOL
 70
     0
  9
$DIMLIM
 70
     0
  9
$DIMTIH
 70
     1
  9
$DIMTOH
 70
     1
  9
$DIMSE1
 70
     0
  9
$DIMSE2
 70
     0
  9
$DIMTAD
 70
     0
  9
$DIMZIN
 70
     0
  9
$DIMBLK
  1

  9
$DIMASO
 70
     1
  9
$DIMSHO
 70
     1
  9
$DIMPOST
  1

  9
$DIMAPOST
  1

  9
$DIMALT
 70
     0
  9
$DIMALTD
 70
     2
  9
$DIMALTF
 40
25.4
  9
$DIMLFAC
 40
1.0
  9
$DIMTOFL
 70
     0
  9
$DIMTVP
 40
0.0
  9
$DIMTIX
 70
     0
  9
$DIMSOXD
 70
     0
  9
$DIMSAH
 70
     0
  9
$DIMBLK1
  1

  9
$DIMBLK2
  1

  9
$DIMSTYLE
  2
Standard
  9
$DIMCLRD
 70
     0
  9
$DIMCLRE
 70
     0
  9
$DIMCLRT
 70
     0
  9
$DIMTFAC
 40
1.0
  9
$DIMGAP
 40
0.09
  9
$DIMJUST
 70
     0
  9
$DIMSD1
 70
     0
  9
$DIMSD2
 70
     0
  9
$DIMTOLJ
 70
     1
  9
$DIMTZIN
 70
     0
  9
$DIMALTZ
 70
     0
  9
$DIMALTTZ
 70
     0
  9
$DIMUPT
 70
     0
  9
$DIMDEC
 70
     4
  9
$DIMTDEC
 70
     4
  9
$DIMALTU
 70
     2
  9
$DIMALTTD
 70
     2
  9
$DIMTXSTY
  7
Standard
  9
$DIMAUNIT
 70
     0
  9
$DIMADEC
 70
     0
  9
$DIMALTRND
 40
0.0
  9
$DIMAZIN
 70
     0
  9
$DIMDSEP
 70
    46
  9
$DIMATFIT
 70
     3
  9
$DIMFRAC
 70
     0
  9
$DIMLDRBLK
  1

  9
$DIMLUNIT
 70
     2
  9
$DIMLWD
 70
    -2
  9
$DIMLWE
 70
    -2
  9
$DIMTMOVE
 70
     0
  9
$DIMFXL
 40
1.0
  9
$DIMFXLON
 70
     0
  9
$DIMJOGANG
 40
0.7853981633974483
  9
$DIMTFILL
 70
     0
  9
$DIMTFILLCLR
 70
     0
  9
$DIMARCSYM
 70
     0
  9
$DIMLTYPE
  6

  9
$DIMLTEX1
  6

  9
$DIMLTEX2
  6

  9
$DIMTXTDIRECTION
 70
     0
  9
$LUNITS
 70
     2
  9
$LUPREC
 70
     4
  9
$SKETCHINC
 40
0.1
  9
$FILLETRAD
 40
0.5
  9
$AUNITS
 70
     0
  9
$AUPREC
 70
     0
  9
$MENU
  1
.
  9
$ELEVATION
 40
0.0
  9
$PELEVATION
 40
0.0
  9
$THICKNESS
 40
0.0
  9
$LIMCHECK
 70
     0
  9
$CHAMFERA
 40
0.5
  9
$CHAMFERB
 40
0.5
  9
$CHAMFERC
 40
1.0
  9
$CHAMFERD
 40
0.0
  9
$SKPOLY
 70
     0
  9
$TDCREATE
 40
2457917.631574074
  9
$TDUCREATE
 40
2457917.256574074
  9
$TDUPDATE
 40
2457917.631574074
  9
$TDUUPDATE
 40
2457917.256574074
  9
$TDINDWG
 40
0.0000000116
  9
$TDUSRTIMER
 40
0.0000000116
  9
$USRTIMER
 70
     1
  9
$ANGBASE
 50
0.0
  9
$ANGDIR
 70
     0
  9
$PDMODE
 70
     0
  9
$PDSIZE
 40
0.0
  9
$PLINEWID
 40
0.0
  9
$SPLFRAME
 70
     0
  9
$SPLINETYPE
 70
     6
  9
$SPLINESEGS
 70
     8
  9
$HANDSEED
  5
E1
  9
$SURFTAB1
 70
     6
  9
$SURFTAB2
 70
     6
  9
$SURFTYPE
 70
     6
  9
$SURFU
 70
     6
  9
$SURFV
 70
     6
  9
$UCSBASE
  2

  9
$UCSNAME
  2

  9
$UCSORG
 10
0.0
 20
0.0
 30
0.0
  9
$UCSXDIR
 10
1.0
 20
0.0
 30
0.0
  9
$UCSYDIR
 10
0.0
 20
1.0
 30
0.0
  9
$UCSORTHOREF
  2

  9
$UCSORTHOVIEW
 70
     0
  9
$UCSORGTOP
 10
0.0
 20
0.0
 30
0.0
  9
$UCSORGBOTTOM
 10
0.0
 20
0.0
 30
0.0
  9
$UCSORGLEFT
 10
0.0
 20
0.0
 30
0.0
  9
$UCSORGRIGHT
 10
0.0
 20
0.0
 30
0.0
  9
$UCSORGFRONT
 10
0.0
 20
0.0
 30
0.0
  9
$UCSORGBACK
 10
0.0
 20
0.0
 30
0.0
  9
$PUCSBASE
  2

  9
$PUCSNAME
  2

  9
$PUCSORG
 10
0.0
 20
0.0
 30
0.0
  9
$PUCSXDIR
 10
1.0
 20
0.0
 30
0.0
  9
$PUCSYDIR
 10
0.0
 20
1.0
 30
0.0
  9
$PUCSORTHOREF
  2

  9
$PUCSORTHOVIEW
 70
     0
  9
$PUCSORGTOP
 10
0.0
 20
0.0
 30
0.0
  9
$PUCSORGBOTTOM
 10
0.0
 20
0.0
 30
0.0
  9
$PUCSORGLEFT
 10
0.0
 20
0.0
 30
0.0
  9
$PUCSORGRIGHT
 10
0.0
 20
0.0
 30
0.0
  9
$PUCSORGFRONT
 10
0.0
 20
0.0
 30
0.0
  9
$PUCSORGBACK
 10
0.0
 20
0.0
 30
0.0
  9
$USERI1
 70
     0
  9
$USERI2
 70
     0
  9
$USERI3
 70
     0
  9
$USERI4
 70
     0
  9
$USERI5
 70
     0
  9
$USERR1
 40
0.0
  9
$USERR2
 40
0.0
  9
$USERR3
 40
0.0
  9
$USERR4
 40
0.0
  9
$USERR5
 40
0.0
  9
$WORLDVIEW
 70
     1
  9
$SHADEDGE
 70
     3
  9
$SHADEDIF
 70
    70
  9
$TILEMODE
 70
     1
  9
$MAXACTVP
 70
    64
  9
$PINSBASE
 10
0.0
 20
0.0
 30
0.0
  9
$PLIMCHECK
 70
     0
  9
$PEXTMIN
 10
1.000000000000000E+20
 20
1.000000000000000E+20
 30
1.000000000000000E+20
  9
$PEXTMAX
 10
-1.000000000000000E+20
 20
-1.000000000000000E+20
 30
-1.000000000000000E+20
  9
$PLIMMIN
 10
0.0
 20
0.0
  9
$PLIMMAX
 10
12.0
 20
9.0
  9
$UNITMODE
 70
     0
  9
$VISRETAIN
 70
     1
  9
$PLINEGEN
 70
     0
  9
$PSLTSCALE
 70
     1
  9
$TREEDEPTH
 70
  3020
  9
$CMLSTYLE
  2
Standard
  9
$CMLJUST
 70
     0
  9
$CMLSCALE
 40
1.0
  9
$PROXYGRAPHICS
 70
     1
  9
$MEASUREMENT
 70
     0
  9
$CELWEIGHT
370
    -1
  9
$ENDCAPS
280
     0
  9
$JOINSTYLE
280
     0
  9
$LWDISPLAY
290
     1
  9
$INSUNITS
 70
     1
  9
$HYPERLINKBASE
  1

  9
$STYLESHEET
  1

  9
$XEDIT
290
     1
  9
$CEPSNTYPE
380
     0
  9
$PSTYLEMODE
290
     1
  9
$FINGERPRINTGUID
  2
{332D7CFA-A03A-376B-F36E-FAF8F4E86217}
  9
$VERSIONGUID
  2
{FAEB1C32-E019-11D5-929B-00C0DF256EC4}
  9
$EXTNAMES
290
     1
  9
$PSVPSCALE
 40
0.0
  9
$OLESTARTUP
290
     0
  9
$SORTENTS
280
   127
  9
$INDEXCTL
280
     0
  9
$HIDETEXT
280
     1
  9
$XCLIPFRAME
280
     2
  9
$HALOGAP
280
     0
  9
$OBSCOLOR
 70
   257
  9
$OBSLTYPE
280
     0
  9
$INTERSECTIONDISPLAY
280
     0
  9
$INTERSECTIONCOLOR
 70
   257
  9
$DIMASSOC
280
     2
  9
$PROJECTNAME
  1

  9
$CAMERADISPLAY
290
     0
  9
$LENSLENGTH
 40
50.0
  9
$CAMERAHEIGHT
 40
0.0
  9
$STEPSPERSEC
 40
2.0
  9
$STEPSIZE
 40
6.0
  9
$3DDWFPREC
 40
2.0
  9
$PSOLWIDTH
 40
0.25
  9
$PSOLHEIGHT
 40
4.0
  9
$LOFTANG1
 40
1.570796326794897
  9
$LOFTANG2
 40
1.570796326794897
  9
$LOFTMAG1
 40
0.0
  9
$LOFTMAG2
 40
0.0
  9
$LOFTPARAM
 70
     7
  9
$LOFTNORMALS
280
     1
  9
$LATITUDE
 40
37.795
  9
$LONGITUDE
 40
-122.394
  9
$NORTHDIRECTION
 40
0.0
  9
$TIMEZONE
 70
 -8000
  9
$LIGHTGLYPHDISPLAY
280
     1
  9
$TILEMODELIGHTSYNCH
280
     1
  9
$CMATERIAL
347
3C
  9
$SOLIDHIST
280
     1
  9
$SHOWHIST
280
     1
  9
$DWFFRAME
280
     2
  9
$DGNFRAME
280
     2
  9
$REALWORLDSCALE
290
     1
  9
$INTERFERECOLOR
 62
   256
  9
$CSHADOW
280
     0
  9
$SHADOWPLANELOCATION
 40
0.0
  0
ENDSEC
  0
SECTION
  2
CLASSES
  0
CLASS
  1
ACDBDICTIONARYWDFLT
  2
AcDbDictionaryWithDefault
  3
ObjectDBX Classes
 90
        0
 91
        4
280
     0
281
     0
  0
CLASS
  1
VISUALSTYLE
  2
AcDbVisualStyle
  3
ObjectDBX Classes
 90
     4095
 91
        4
280
     0
281
     0
  0
CLASS
  1
MATERIAL
  2
AcDbMaterial
  3
ObjectDBX Classes
 90
     1153
 91
        4
280
     0
281
     0
  0
CLASS
  1
SUN
  2
AcDbSun
  3
SCENEOE
 90
     1024
 91
        4
280
     0
281
     0
  0
ENDSEC
  0
SECTION
  2
TABLES
  0
TABLE
  2
VPORT
  5
8
330
0
100
AcDbSymbolTable
 70
     1
  0
VPORT
  5
29
330
8
100
AcDbSymbolTableRecord
100
AcDbViewportTableRecord
  2
*Active
 70
     0
 10
0.0
 20
0.0
 11
1.0
 21
1.0
 12
0.0
 22
0.0
 13
0.0
 23
0.0
 14
0.5
 24
0.5
 15
0.5
 25
0.5
 16
0.0
 26
0.0
 36
1.0
 17
91.00082462281999
 27
-128.4993055234307
 37
0.0
 40
256.9986110468615
 41
0.7081814508812795
 42
50.0
 43
0.0
 44
0.0
 50
0.0
 51
0.0
 71
     0
 72
   100
 73
     1
 74
     3
 75
     0
 76
     0
 77
     0
 78
     0
281
     0
 65
     1
110
0.0
120
0.0
130
0.0
111
1.0
121
0.0
131
0.0
112
0.0
122
1.0
132
0.0
 79
     0
146
0.0
 60
     3
 61
     5
292
     1
282
     1
141
0.0
142
0.0
 63
   250
361
3F
  0
ENDTAB
  0
TABLE
  2
LTYPE
  5
5
330
0
100
AcDbSymbolTable
 70
     1
  0
LTYPE
  5
14
330
5
100
AcDbSymbolTableRecord
100
AcDbLinetypeTableRecord
  2
ByBlock
 70
     0
  3

 72
    65
 73
     0
 40
0.0
  0
LTYPE
  5
15
330
5
100
AcDbSymbolTableRecord
100
AcDbLinetypeTableRecord
  2
ByLayer
 70
     0
  3

 72
    65
 73
     0
 40
0.0
  0
LTYPE
  5
16
330
5
100
AcDbSymbolTableRecord
100
AcDbLinetypeTableRecord
  2
Continuous
 70
     0
  3
Solid line
 72
    65
 73
     0
 40
0.0
  0
ENDTAB
  0
TABLE
  2
LAYER
  5
2
330
0
100
AcDbSymbolTable
 70
     2
  0
LAYER
  5
10
330
2
100
AcDbSymbolTableRecord
100
AcDbLayerTableRecord
  2
0
 70
     0
 62
     7
  6
Continuous
370
    -3
390
F
347
3E
  0
LAYER
  5
40
330
2
100
AcDbSymbolTableRecord
100
AcDbLayerTableRecord
  2
_U+30EC_U+30A4_U+30E4_U+30FC 1
 70
     0
 62
     7
  6
Continuous
370
    -3
390
F
347
3E
  0
ENDTAB
  0
TABLE
  2
STYLE
  5
3
330
0
100
AcDbSymbolTable
 70
     1
  0
STYLE
  5
11
330
3
100
AcDbSymbolTableRecord
100
AcDbTextStyleTableRecord
  2
Standard
 70
     0
 40
0.0
 41
1.0
 50
0.0
 71
     0
 42
0.2
  3
txt
  4

  0
ENDTAB
  0
TABLE
  2
VIEW
  5
6
330
0
100
AcDbSymbolTable
 70
     0
  0
ENDTAB
  0
TABLE
  2
UCS
  5
7
330
0
100
AcDbSymbolTable
 70
     0
  0
ENDTAB
  0
TABLE
  2
APPID
  5
9
330
0
100
AcDbSymbolTable
 70
     1
  0
APPID
  5
12
330
9
100
AcDbSymbolTableRecord
100
AcDbRegAppTableRecord
  2
ACAD
 70
     0
  0
ENDTAB
  0
TABLE
  2
DIMSTYLE
  5
A
330
0
100
AcDbSymbolTable
 70
     1
100
AcDbDimStyleTable
  0
DIMSTYLE
105
27
330
A
100
AcDbSymbolTableRecord
100
AcDbDimStyleTableRecord
  2
Standard
 70
     0
178
     0
340
11
  0
ENDTAB
  0
TABLE
  2
BLOCK_RECORD
  5
1
330
0
100
AcDbSymbolTable
 70
     7
  0
BLOCK_RECORD
  5
1F
330
1
100
AcDbSymbolTableRecord
100
AcDbBlockTableRecord
  2
*Model_Space
340
22
 70
     0
280
     1
281
     0
  0
BLOCK_RECORD
  5
1B
330
1
100
AcDbSymbolTableRecord
100
AcDbBlockTableRecord
  2
*Paper_Space
340
1E
 70
     0
280
     1
281
     0
  0
BLOCK_RECORD
  5
23
330
1
100
AcDbSymbolTableRecord
100
AcDbBlockTableRecord
  2
*Paper_Space0
340
26
 70
     0
280
     1
281
     0
  0
BLOCK_RECORD
  5
53
330
1
100
AcDbSymbolTableRecord
100
AcDbBlockTableRecord
  2
block 2
340
0
102
{BLKREFS
331
54
102
}
 70
     0
280
     1
281
     0
  0
BLOCK_RECORD
  5
69
330
1
100
AcDbSymbolTableRecord
100
AcDbBlockTableRecord
  2
block 3
340
0
102
{BLKREFS
331
6A
102
}
 70
     0
280
     1
281
     0
  0
BLOCK_RECORD
  5
78
330
1
100
AcDbSymbolTableRecord
100
AcDbBlockTableRecord
  2
block 4
340
0
102
{BLKREFS
331
79
102
}
 70
     0
280
     1
281
     0
  0
BLOCK_RECORD
  5
8A
330
1
100
AcDbSymbolTableRecord
100
AcDbBlockTableRecord
  2
block 5
340
0
102
{BLKREFS
331
8B
102
}
 70
     0
280
     1
281
     0
  0
BLOCK_RECORD
  5
9E
330
1
100
AcDbSymbolTableRecord
100
AcDbBlockTableRecord
  2
block 6
340
0
102
{BLKREFS
331
9F
102
}
 70
     0
280
     1
281
     0
  0
BLOCK_RECORD
  5
CD
330
1
100
AcDbSymbolTableRecord
100
AcDbBlockTableRecord
  2
block 7
340
0
102
{BLKREFS
331
CE
102
}
 70
     0
280
     1
281
     0
  0
ENDTAB
  0
ENDSEC
  0
SECTION
  2
BLOCKS
  0
BLOCK
  5
20
330
1F
100
AcDbEntity
  8
0
100
AcDbBlockBegin
  2
*Model_Space
 70
     0
 10
0.0
 20
0.0
 30
0.0
  3
*Model_Space
  1

  0
ENDBLK
  5
21
330
1F
100
AcDbEntity
  8
0
100
AcDbBlockEnd
  0
BLOCK
  5
1C
330
1B
100
AcDbEntity
 67
     1
  8
0
100
AcDbBlockBegin
  2
*Paper_Space
 70
     0
 10
0.0
 20
0.0
 30
0.0
  3
*Paper_Space
  1

  0
ENDBLK
  5
1D
330
1B
100
AcDbEntity
 67
     1
  8
0
100
AcDbBlockEnd
  0
BLOCK
  5
24
330
23
100
AcDbEntity
  8
0
100
AcDbBlockBegin
  2
*Paper_Space0
 70
     0
 10
0.0
 20
0.0
 30
0.0
  3
*Paper_Space0
  1

  0
ENDBLK
  5
25
330
23
100
AcDbEntity
  8
0
100
AcDbBlockEnd
  0
BLOCK
  5
55
330
53
100
AcDbEntity
  8
0
100
AcDbBlockBegin
  2
block 2
 70
     0
 10
0.0
 20
0.0
 30
0.0
  3
block 2
  1

  0
SPLINE
  5
57
330
53
100
AcDbEntity
  8
_U+30EC_U+30A4_U+30E4_U+30FC 1
370
     0
100
AcDbSpline
210
0.0
220
0.0
230
1.0
 70
    11
 71
     3
 72
    26
 73
    22
 74
     0
 42
0.0000000001
 43
0.0000000001
 12
1.0
 22
0.0
 32
0.0
 13
1.0
 23
0.0
 33
0.0
 40
0.0
 40
0.0
 40
0.0
 40
0.0
 40
1.0
 40
1.0
 40
1.0
 40
2.0
 40
2.0
 40
2.0
 40
3.0
 40
3.0
 40
3.0
 40
4.0
 40
4.0
 40
4.0
 40
5.0
 40
5.0
 40
5.0
 40
6.0
 40
6.0
 40
6.0
 40
7.0
 40
7.0
 40
7.0
 40
7.0
 10
91.03750947159827
 20
-112.6770154883238
 30
0.0
 10
91.03750947159827
 20
-112.6770154883238
 30
0.0
 10
91.03750947159827
 20
-111.572690130527
 30
0.0
 10
91.03750947159827
 20
-111.572690130527
 30
0.0
 10
91.03750947159827
 20
-111.572690130527
 30
0.0
 10
90.68507620345721
 20
-111.572690130527
 30
0.0
 10
90.68507620345721
 20
-111.572690130527
 30
0.0
 10
90.68507620345721
 20
-111.572690130527
 30
0.0
 10
90.68507620345721
 20
-111.4247232794355
 30
0.0
 10
90.68507620345721
 20
-111.4247232794355
 30
0.0
 10
91.03992103843794
 20
-111.4099093688489
 30
0.0
 10
91.08953041342554
 20
-111.2469563523966
 30
0.0
 10
91.12122529188984
 20
-111.1327514370606
 30
0.0
 10
91.12122529188984
 20
-111.1327514370606
 30
0.0
 10
91.27728811737165
 20
-111.1327514370606
 30
0.0
 10
91.27728811737165
 20
-111.1327514370606
 30
0.0
 10
91.27728811737165
 20
-111.1327514370606
 30
0.0
 10
91.27728811737165
 20
-112.6770154883238
 30
0.0
 10
91.27728811737165
 20
-112.6770154883238
 30
0.0
 10
91.27728811737165
 20
-112.6770154883238
 30
0.0
 10
91.03750947159827
 20
-112.6770154883238
 30
0.0
 10
91.03750947159827
 20
-112.6770154883238
 30
0.0
  0
HATCH
  5
58
330
53
100
AcDbEntity
  8
_U+30EC_U+30A4_U+30E4_U+30FC 1
 62
     7
420
 16777215
100
AcDbHatch
 10
0.0
 20
0.0
 30
0.0
210
0.0
220
0.0
230
1.0
  2
SOLID
 70
     1
 71
     0
 91
        1
 92
        1
 93
        1
 72
     4
 94
        3
 73
     0
 74
     1
 95
       26
 96
       22
 40
0.0
 40
0.0
 40
0.0
 40
0.0
 40
1.0
 40
1.0
 40
1.0
 40
2.0
 40
2.0
 40
2.0
 40
3.0
 40
3.0
 40
3.0
 40
4.0
 40
4.0
 40
4.0
 40
5.0
 40
5.0
 40
5.0
 40
6.0
 40
6.0
 40
6.0
 40
7.0
 40
7.0
 40
7.0
 40
7.0
 10
91.03750947159827
 20
-112.6770154883238
 10
91.03750947159827
 20
-112.6770154883238
 10
91.03750947159827
 20
-111.572690130527
 10
91.03750947159827
 20
-111.572690130527
 10
91.03750947159827
 20
-111.572690130527
 10
90.68507620345721
 20
-111.572690130527
 10
90.68507620345721
 20
-111.572690130527
 10
90.68507620345721
 20
-111.572690130527
 10
90.68507620345721
 20
-111.4247232794355
 10
90.68507620345721
 20
-111.4247232794355
 10
91.03992103843794
 20
-111.4099093688489
 10
91.08953041342554
 20
-111.2469563523966
 10
91.12122529188984
 20
-111.1327514370606
 10
91.12122529188984
 20
-111.1327514370606
 10
91.27728811737165
 20
-111.1327514370606
 10
91.27728811737165
 20
-111.1327514370606
 10
91.27728811737165
 20
-111.1327514370606
 10
91.27728811737165
 20
-112.6770154883238
 10
91.27728811737165
 20
-112.6770154883238
 10
91.27728811737165
 20
-112.6770154883238
 10
91.03750947159827
 20
-112.6770154883238
 10
91.03750947159827
 20
-112.6770154883238
 97
        0
 97
        0
 75
     2
 76
     1
 98
        0
  0
SPLINE
  5
59
330
53
100
AcDbEntity
  8
_U+30EC_U+30A4_U+30E4_U+30FC 1
370
     0
100
AcDbSpline
210
0.0
220
0.0
230
1.0
 70
    11
 71
     3
 72
    62
 73
    58
 74
     0
 42
0.0000000001
 43
0.0000000001
 12
1.0
 22
0.0
 32
0.0
 13
1.0
 23
0.0
 33
0.0
 40
0.0
 40
0.0
 40
0.0
 40
0.0
 40
1.0
 40
1.0
 40
1.0
 40
2.0
 40
2.0
 40
2.0
 40
3.0
 40
3.0
 40
3.0
 40
4.0
 40
4.0
 40
4.0
 40
5.0
 40
5.0
 40
5.0
 40
6.0
 40
6.0
 40
6.0
 40
7.0
 40
7.0
 40
7.0
 40
8.0
 40
8.0
 40
8.0
 40
9.0
 40
9.0
 40
9.0
 40
10.0
 40
10.0
 40
10.0
 40
11.0
 40
11.0
 40
11.0
 40
12.0
 40
12.0
 40
12.0
 40
13.0
 40
13.0
 40
13.0
 40
14.0
 40
14.0
 40
14.0
 40
15.0
 40
15.0
 40
15.0
 40
16.0
 40
16.0
 40
16.0
 40
17.0
 40
17.0
 40
17.0
 40
18.0
 40
18.0
 40
18.0
 40
19.0
 40
19.0
 40
19.0
 40
19.0
 10
92.33854978160286
 20
-112.727658391957
 30
0.0
 10
92.236919464788
 20
-112.727658391957
 30
0.0
 10
92.00403100998511
 20
-112.706643309497
 30
0.0
 10
91.87070581470594
 20
-112.5206081532935
 30
0.0
 10
91.7914686185452
 20
-112.4082980404743
 30
0.0
 10
91.78698999441437
 20
-112.3089070357249
 30
0.0
 10
91.78251137028354
 20
-112.224329941562
 30
0.0
 10
91.78251137028354
 20
-112.224329941562
 30
0.0
 10
92.01746688237758
 20
-112.224329941562
 30
0.0
 10
92.01746688237758
 20
-112.224329941562
 30
0.0
 10
92.01987844921726
 20
-112.2983994944948
 30
0.0
 10
92.03124726431858
 20
-112.5330104970404
 30
0.0
 10
92.33407115747204
 20
-112.5330104970404
 30
0.0
 10
92.48117673469221
 20
-112.5330104970404
 30
0.0
 10
92.643785241596
 20
-112.4634195682383
 30
0.0
 10
92.643785241596
 20
-112.234837482792
 30
0.0
 10
92.643785241596
 20
-112.1185655101648
 30
0.0
 10
92.60313311487005
 20
-112.0698174090485
 30
0.0
 10
92.56902666956609
 20
-112.0381225305842
 30
0.0
 10
92.49013398295386
 20
-111.9640529776513
 30
0.0
 10
92.36576603593635
 20
-111.9514783791302
 30
0.0
 10
92.30685490313857
 20
-111.9514783791302
 30
0.0
 10
92.2865288397756
 20
-111.9514783791302
 30
0.0
 10
92.24828827988932
 20
-111.9535454364213
 30
0.0
 10
92.21866045871617
 20
-111.9576795510036
 30
0.0
 10
92.21866045871617
 20
-111.9576795510036
 30
0.0
 10
92.21866045871617
 20
-111.763031656087
 30
0.0
 10
92.21866045871617
 20
-111.763031656087
 30
0.0
 10
92.25931258544212
 20
-111.7694050827347
 30
0.0
 10
92.30478784584741
 20
-111.7716443948001
 30
0.0
 10
92.3113335272694
 20
-111.7716443948001
 30
0.0
 10
92.38161347516849
 20
-111.7716443948001
 30
0.0
 10
92.59417586660841
 20
-111.7504570575659
 30
0.0
 10
92.59417586660841
 20
-111.5134344881807
 30
0.0
 10
92.59417586660841
 20
-111.335839815916
 30
0.0
 10
92.45396048035873
 20
-111.280718288152
 30
0.0
 10
92.33648272431172
 20
-111.280718288152
 30
0.0
 10
92.05364038497271
 20
-111.280718288152
 30
0.0
 10
92.04468313671106
 20
-111.5134344881807
 30
0.0
 10
92.04020451258023
 20
-111.5854369838224
 30
0.0
 10
92.04020451258023
 20
-111.5854369838224
 30
0.0
 10
91.82316349700949
 20
-111.5854369838224
 30
0.0
 10
91.82316349700949
 20
-111.5854369838224
 30
0.0
 10
91.83212074527114
 20
-111.4605522724821
 30
0.0
 10
91.86140405689576
 20
-111.0840033359443
 30
0.0
 10
92.34991859670419
 20
-111.0840033359443
 30
0.0
 10
92.58969724247758
 20
-111.0840033359443
 30
0.0
 10
92.84739038477427
 20
-111.2109551045757
 30
0.0
 10
92.84739038477427
 20
-111.507061061533
 30
0.0
 10
92.84739038477427
 20
-111.6932684725107
 30
0.0
 10
92.74541555841087
 20
-111.7757785093824
 30
0.0
 10
92.63930661746518
 20
-111.8371012090199
 30
0.0
 10
92.70476343168492
 20
-111.8646619729019
 30
0.0
 10
92.89941132660154
 20
-111.9451049524825
 30
0.0
 10
92.89941132660154
 20
-112.2222628842708
 30
0.0
 10
92.89941132660154
 20
-112.5605712609224
 30
0.0
 10
92.63482799333435
 20
-112.727658391957
 30
0.0
 10
92.33854978160286
 20
-112.727658391957
 30
0.0
  0
HATCH
  5
5A
330
53
100
AcDbEntity
  8
_U+30EC_U+30A4_U+30E4_U+30FC 1
 62
     7
420
 16777215
100
AcDbHatch
 10
0.0
 20
0.0
 30
0.0
210
0.0
220
0.0
230
1.0
  2
SOLID
 70
     1
 71
     0
 91
        1
 92
        1
 93
        1
 72
     4
 94
        3
 73
     0
 74
     1
 95
       62
 96
       58
 40
0.0
 40
0.0
 40
0.0
 40
0.0
 40
1.0
 40
1.0
 40
1.0
 40
2.0
 40
2.0
 40
2.0
 40
3.0
 40
3.0
 40
3.0
 40
4.0
 40
4.0
 40
4.0
 40
5.0
 40
5.0
 40
5.0
 40
6.0
 40
6.0
 40
6.0
 40
7.0
 40
7.0
 40
7.0
 40
8.0
 40
8.0
 40
8.0
 40
9.0
 40
9.0
 40
9.0
 40
10.0
 40
10.0
 40
10.0
 40
11.0
 40
11.0
 40
11.0
 40
12.0
 40
12.0
 40
12.0
 40
13.0
 40
13.0
 40
13.0
 40
14.0
 40
14.0
 40
14.0
 40
15.0
 40
15.0
 40
15.0
 40
16.0
 40
16.0
 40
16.0
 40
17.0
 40
17.0
 40
17.0
 40
18.0
 40
18.0
 40
18.0
 40
19.0
 40
19.0
 40
19.0
 40
19.0
 10
92.33854978160286
 20
-112.727658391957
 10
92.236919464788
 20
-112.727658391957
 10
92.00403100998511
 20
-112.706643309497
 10
91.87070581470594
 20
-112.5206081532935
 10
91.7914686185452
 20
-112.4082980404743
 10
91.78698999441437
 20
-112.3089070357249
 10
91.78251137028354
 20
-112.224329941562
 10
91.78251137028354
 20
-112.224329941562
 10
92.01746688237758
 20
-112.224329941562
 10
92.01746688237758
 20
-112.224329941562
 10
92.01987844921726
 20
-112.2983994944948
 10
92.03124726431858
 20
-112.5330104970404
 10
92.33407115747204
 20
-112.5330104970404
 10
92.48117673469221
 20
-112.5330104970404
 10
92.643785241596
 20
-112.4634195682383
 10
92.643785241596
 20
-112.234837482792
 10
92.643785241596
 20
-112.1185655101648
 10
92.60313311487005
 20
-112.0698174090485
 10
92.56902666956609
 20
-112.0381225305842
 10
92.49013398295386
 20
-111.9640529776513
 10
92.36576603593635
 20
-111.9514783791302
 10
92.30685490313857
 20
-111.9514783791302
 10
92.2865288397756
 20
-111.9514783791302
 10
92.24828827988932
 20
-111.9535454364213
 10
92.21866045871617
 20
-111.9576795510036
 10
92.21866045871617
 20
-111.9576795510036
 10
92.21866045871617
 20
-111.763031656087
 10
92.21866045871617
 20
-111.763031656087
 10
92.25931258544212
 20
-111.7694050827347
 10
92.30478784584741
 20
-111.7716443948001
 10
92.3113335272694
 20
-111.7716443948001
 10
92.38161347516849
 20
-111.7716443948001
 10
92.59417586660841
 20
-111.7504570575659
 10
92.59417586660841
 20
-111.5134344881807
 10
92.59417586660841
 20
-111.335839815916
 10
92.45396048035873
 20
-111.280718288152
 10
92.33648272431172
 20
-111.280718288152
 10
92.05364038497271
 20
-111.280718288152
 10
92.04468313671106
 20
-111.5134344881807
 10
92.04020451258023
 20
-111.5854369838224
 10
92.04020451258023
 20
-111.5854369838224
 10
91.82316349700949
 20
-111.5854369838224
 10
91.82316349700949
 20
-111.5854369838224
 10
91.83212074527114
 20
-111.4605522724821
 10
91.86140405689576
 20
-111.0840033359443
 10
92.34991859670419
 20
-111.0840033359443
 10
92.58969724247758
 20
-111.0840033359443
 10
92.84739038477427
 20
-111.2109551045757
 10
92.84739038477427
 20
-111.507061061533
 10
92.84739038477427
 20
-111.6932684725107
 10
92.74541555841087
 20
-111.7757785093824
 10
92.63930661746518
 20
-111.8371012090199
 10
92.70476343168492
 20
-111.8646619729019
 10
92.89941132660154
 20
-111.9451049524825
 10
92.89941132660154
 20
-112.2222628842708
 10
92.89941132660154
 20
-112.5605712609224
 10
92.63482799333435
 20
-112.727658391957
 10
92.33854978160286
 20
-112.727658391957
 97
        0
 97
        0
 75
     2
 76
     1
 98
        0
  0
ENDBLK
  5
56
330
53
100
AcDbEntity
  8
0
100
AcDbBlockEnd
  0
BLOCK
  5
6B
330
69
100
AcDbEntity
  8
0
100
AcDbBlockBegin
  2
block 3
 70
     0
 10
0.0
 20
0.0
 30
0.0
  3
block 3
  1

  0
SPLINE
  5
6D
330
69
100
AcDbEntity
  8
_U+30EC_U+30A4_U+30E4_U+30FC 1
370
     0
100
AcDbSpline
210
0.0
220
0.0
230
1.0
 70
    11
 71
     3
 72
    26
 73
    22
 74
     0
 42
0.0000000001
 43
0.0000000001
 12
1.0
 22
0.0
 32
0.0
 13
1.0
 23
0.0
 33
0.0
 40
0.0
 40
0.0
 40
0.0
 40
0.0
 40
1.0
 40
1.0
 40
1.0
 40
2.0
 40
2.0
 40
2.0
 40
3.0
 40
3.0
 40
3.0
 40
4.0
 40
4.0
 40
4.0
 40
5.0
 40
5.0
 40
5.0
 40
6.0
 40
6.0
 40
6.0
 40
7.0
 40
7.0
 40
7.0
 40
7.0
 10
103.6425970878046
 20
-124.8092637491796
 30
0.0
 10
103.6425970878046
 20
-124.8092637491796
 30
0.0
 10
103.6425970878046
 20
-125.0624782673455
 30
0.0
 10
103.6425970878046
 20
-125.0624782673455
 30
0.0
 10
103.3339165323262
 20
-125.0356065225605
 30
0.0
 10
102.8154296617961
 20
-124.8295898125426
 30
0.0
 10
102.31003415411
 20
-124.3955077814011
 30
0.0
 10
102.31003415411
 20
-124.3955077814011
 30
0.0
 10
102.31003415411
 20
-125.2908880980176
 30
0.0
 10
102.31003415411
 20
-125.2908880980176
 30
0.0
 10
102.31003415411
 20
-125.2908880980176
 30
0.0
 10
102.0985052913157
 20
-125.2908880980176
 30
0.0
 10
102.0985052913157
 20
-125.2908880980176
 30
0.0
 10
102.0985052913157
 20
-125.2908880980176
 30
0.0
 10
102.0985052913157
 20
-124.1422932632353
 30
0.0
 10
102.0985052913157
 20
-124.1422932632353
 30
0.0
 10
102.0985052913157
 20
-124.1422932632353
 30
0.0
 10
102.31003415411
 20
-124.1422932632353
 30
0.0
 10
102.31003415411
 20
-124.1422932632353
 30
0.0
 10
102.5997666844195
 20
-124.4881808499543
 30
0.0
 10
103.191978598334
 20
-124.7730902465845
 30
0.0
 10
103.6425970878046
 20
-124.8092637491796
 30
0.0
  0
HATCH
  5
6E
330
69
100
AcDbEntity
  8
_U+30EC_U+30A4_U+30E4_U+30FC 1
 62
     7
420
 16777215
100
AcDbHatch
 10
0.0
 20
0.0
 30
0.0
210
0.0
220
0.0
230
1.0
  2
SOLID
 70
     1
 71
     0
 91
        1
 92
        1
 93
        1
 72
     4
 94
        3
 73
     0
 74
     1
 95
       26
 96
       22
 40
0.0
 40
0.0
 40
0.0
 40
0.0
 40
1.0
 40
1.0
 40
1.0
 40
2.0
 40
2.0
 40
2.0
 40
3.0
 40
3.0
 40
3.0
 40
4.0
 40
4.0
 40
4.0
 40
5.0
 40
5.0
 40
5.0
 40
6.0
 40
6.0
 40
6.0
 40
7.0
 40
7.0
 40
7.0
 40
7.0
 10
103.6425970878046
 20
-124.8092637491796
 10
103.6425970878046
 20
-124.8092637491796
 10
103.6425970878046
 20
-125.0624782673455
 10
103.6425970878046
 20
-125.0624782673455
 10
103.3339165323262
 20
-125.0356065225605
 10
102.8154296617961
 20
-124.8295898125426
 10
102.31003415411
 20
-124.3955077814011
 10
102.31003415411
 20
-124.3955077814011
 10
102.31003415411
 20
-125.2908880980176
 10
102.31003415411
 20
-125.2908880980176
 10
102.31003415411
 20
-125.2908880980176
 10
102.0985052913157
 20
-125.2908880980176
 10
102.0985052913157
 20
-125.2908880980176
 10
102.0985052913157
 20
-125.2908880980176
 10
102.0985052913157
 20
-124.1422932632353
 10
102.0985052913157
 20
-124.1422932632353
 10
102.0985052913157
 20
-124.1422932632353
 10
102.31003415411
 20
-124.1422932632353
 10
102.31003415411
 20
-124.1422932632353
 10
102.5997666844195
 20
-124.4881808499543
 10
103.191978598334
 20
-124.7730902465845
 10
103.6425970878046
 20
-124.8092637491796
 97
        0
 97
        0
 75
     2
 76
     1
 98
        0
  0
ENDBLK
  5
6C
330
69
100
AcDbEntity
  8
0
100
AcDbBlockEnd
  0
BLOCK
  5
7A
330
78
100
AcDbEntity
  8
0
100
AcDbBlockBegin
  2
block 4
 70
     0
 10
0.0
 20
0.0
 30
0.0
  3
block 4
  1

  0
SPLINE
  5
7C
330
78
100
AcDbEntity
  8
_U+30EC_U+30A4_U+30E4_U+30FC 1
370
     0
100
AcDbSpline
210
0.0
220
0.0
230
1.0
 70
    11
 71
     3
 72
    26
 73
    22
 74
     0
 42
0.0000000001
 43
0.0000000001
 12
1.0
 22
0.0
 32
0.0
 13
1.0
 23
0.0
 33
0.0
 40
0.0
 40
0.0
 40
0.0
 40
0.0
 40
1.0
 40
1.0
 40
1.0
 40
2.0
 40
2.0
 40
2.0
 40
3.0
 40
3.0
 40
3.0
 40
4.0
 40
4.0
 40
4.0
 40
5.0
 40
5.0
 40
5.0
 40
6.0
 40
6.0
 40
6.0
 40
7.0
 40
7.0
 40
7.0
 40
7.0
 10
103.6425970878046
 20
-132.1294026362385
 30
0.0
 10
103.6425970878046
 20
-132.1294026362385
 30
0.0
 10
103.6425970878046
 20
-132.3826171544044
 30
0.0
 10
103.6425970878046
 20
-132.3826171544044
 30
0.0
 10
103.3339165323262
 20
-132.3557454096194
 30
0.0
 10
102.8154296617961
 20
-132.1497286996015
 30
0.0
 10
102.31003415411
 20
-131.71564666846
 30
0.0
 10
102.31003415411
 20
-131.71564666846
 30
0.0
 10
102.31003415411
 20
-132.6110269850764
 30
0.0
 10
102.31003415411
 20
-132.6110269850764
 30
0.0
 10
102.31003415411
 20
-132.6110269850764
 30
0.0
 10
102.0985052913157
 20
-132.6110269850764
 30
0.0
 10
102.0985052913157
 20
-132.6110269850764
 30
0.0
 10
102.0985052913157
 20
-132.6110269850764
 30
0.0
 10
102.0985052913157
 20
-131.4624321502941
 30
0.0
 10
102.0985052913157
 20
-131.4624321502941
 30
0.0
 10
102.0985052913157
 20
-131.4624321502941
 30
0.0
 10
102.31003415411
 20
-131.4624321502941
 30
0.0
 10
102.31003415411
 20
-131.4624321502941
 30
0.0
 10
102.5997666844195
 20
-131.8083197370132
 30
0.0
 10
103.191978598334
 20
-132.0932291336434
 30
0.0
 10
103.6425970878046
 20
-132.1294026362385
 30
0.0
  0
HATCH
  5
7D
330
78
100
AcDbEntity
  8
_U+30EC_U+30A4_U+30E4_U+30FC 1
 62
     7
420
 16777215
100
AcDbHatch
 10
0.0
 20
0.0
 30
0.0
210
0.0
220
0.0
230
1.0
  2
SOLID
 70
     1
 71
     0
 91
        1
 92
        1
 93
        1
 72
     4
 94
        3
 73
     0
 74
     1
 95
       26
 96
       22
 40
0.0
 40
0.0
 40
0.0
 40
0.0
 40
1.0
 40
1.0
 40
1.0
 40
2.0
 40
2.0
 40
2.0
 40
3.0
 40
3.0
 40
3.0
 40
4.0
 40
4.0
 40
4.0
 40
5.0
 40
5.0
 40
5.0
 40
6.0
 40
6.0
 40
6.0
 40
7.0
 40
7.0
 40
7.0
 40
7.0
 10
103.6425970878046
 20
-132.1294026362385
 10
103.6425970878046
 20
-132.1294026362385
 10
103.6425970878046
 20
-132.3826171544044
 10
103.6425970878046
 20
-132.3826171544044
 10
103.3339165323262
 20
-132.3557454096194
 10
102.8154296617961
 20
-132.1497286996015
 10
102.31003415411
 20
-131.71564666846
 10
102.31003415411
 20
-131.71564666846
 10
102.31003415411
 20
-132.6110269850764
 10
102.31003415411
 20
-132.6110269850764
 10
102.31003415411
 20
-132.6110269850764
 10
102.0985052913157
 20
-132.6110269850764
 10
102.0985052913157
 20
-132.6110269850764
 10
102.0985052913157
 20
-132.6110269850764
 10
102.0985052913157
 20
-131.4624321502941
 10
102.0985052913157
 20
-131.4624321502941
 10
102.0985052913157
 20
-131.4624321502941
 10
102.31003415411
 20
-131.4624321502941
 10
102.31003415411
 20
-131.4624321502941
 10
102.5997666844195
 20
-131.8083197370132
 10
103.191978598334
 20
-132.0932291336434
 10
103.6425970878046
 20
-132.1294026362385
 97
        0
 97
        0
 75
     2
 76
     1
 98
        0
  0
ENDBLK
  5
7B
330
78
100
AcDbEntity
  8
0
100
AcDbBlockEnd
  0
BLOCK
  5
8C
330
8A
100
AcDbEntity
  8
0
100
AcDbBlockBegin
  2
block 5
 70
     0
 10
0.0
 20
0.0
 30
0.0
  3
block 5
  1

  0
SPLINE
  5
8E
330
8A
100
AcDbEntity
  8
_U+30EC_U+30A4_U+30E4_U+30FC 1
370
     0
100
AcDbSpline
210
0.0
220
0.0
230
1.0
 70
    11
 71
     3
 72
    62
 73
    58
 74
     0
 42
0.0000000001
 43
0.0000000001
 12
1.0
 22
0.0
 32
0.0
 13
1.0
 23
0.0
 33
0.0
 40
0.0
 40
0.0
 40
0.0
 40
0.0
 40
1.0
 40
1.0
 40
1.0
 40
2.0
 40
2.0
 40
2.0
 40
3.0
 40
3.0
 40
3.0
 40
4.0
 40
4.0
 40
4.0
 40
5.0
 40
5.0
 40
5.0
 40
6.0
 40
6.0
 40
6.0
 40
7.0
 40
7.0
 40
7.0
 40
8.0
 40
8.0
 40
8.0
 40
9.0
 40
9.0
 40
9.0
 40
10.0
 40
10.0
 40
10.0
 40
11.0
 40
11.0
 40
11.0
 40
12.0
 40
12.0
 40
12.0
 40
13.0
 40
13.0
 40
13.0
 40
14.0
 40
14.0
 40
14.0
 40
15.0
 40
15.0
 40
15.0
 40
16.0
 40
16.0
 40
16.0
 40
17.0
 40
17.0
 40
17.0
 40
18.0
 40
18.0
 40
18.0
 40
19.0
 40
19.0
 40
19.0
 40
19.0
 10
87.10424395608852
 20
-143.8806233364257
 30
0.0
 10
87.00261363927366
 20
-143.8806233364257
 30
0.0
 10
86.76972518447077
 20
-143.8596082539657
 30
0.0
 10
86.6363999891916
 20
-143.6735730977622
 30
0.0
 10
86.55716279303086
 20
-143.561262984943
 30
0.0
 10
86.55268416890003
 20
-143.4620442349678
 30
0.0
 10
86.5482055447692
 20
-143.3772948860307
 30
0.0
 10
86.5482055447692
 20
-143.3772948860307
 30
0.0
 10
86.78316105686324
 20
-143.3772948860307
 30
0.0
 10
86.78316105686324
 20
-143.3772948860307
 30
0.0
 10
86.78557262370292
 20
-143.4513644389636
 30
0.0
 10
86.79694143880424
 20
-143.6859754415091
 30
0.0
 10
87.0997653319577
 20
-143.6859754415091
 30
0.0
 10
87.24687090917787
 20
-143.6859754415091
 30
0.0
 10
87.40947941608167
 20
-143.616384512707
 30
0.0
 10
87.40947941608167
 20
-143.387974682035
 30
0.0
 10
87.40947941608167
 20
-143.2715304546335
 30
0.0
 10
87.3688272893557
 20
-143.2229546082915
 30
0.0
 10
87.33472084405174
 20
-143.1912597298272
 30
0.0
 10
87.25582815743952
 20
-143.1171901768943
 30
0.0
 10
87.131460210422
 20
-143.1044433235989
 30
0.0
 10
87.07254907762423
 20
-143.1044433235989
 30
0.0
 10
87.05222301426126
 20
-143.1044433235989
 30
0.0
 10
87.01398245437498
 20
-143.1065103808901
 30
0.0
 10
86.98435463320183
 20
-143.1106444954723
 30
0.0
 10
86.98435463320183
 20
-143.1106444954723
 30
0.0
 10
86.98435463320183
 20
-142.9159966005557
 30
0.0
 10
86.98435463320183
 20
-142.9159966005557
 30
0.0
 10
87.02500675992778
 20
-142.9225422819777
 30
0.0
 10
87.07048202033307
 20
-142.9246093392688
 30
0.0
 10
87.07702770175506
 20
-142.9246093392688
 30
0.0
 10
87.14730764965415
 20
-142.9246093392688
 30
0.0
 10
87.35987004109407
 20
-142.9032497472603
 30
0.0
 10
87.35987004109407
 20
-142.6665716874236
 30
0.0
 10
87.35987004109407
 20
-142.4888047603847
 30
0.0
 10
87.21965465484439
 20
-142.4336832326208
 30
0.0
 10
87.10217689879738
 20
-142.4336832326208
 30
0.0
 10
86.81933455945837
 20
-142.4336832326208
 30
0.0
 10
86.81037731119672
 20
-142.6665716874236
 30
0.0
 10
86.80589868706589
 20
-142.7382296735168
 30
0.0
 10
86.80589868706589
 20
-142.7382296735168
 30
0.0
 10
86.58885767149515
 20
-142.7382296735168
 30
0.0
 10
86.58885767149515
 20
-142.7382296735168
 30
0.0
 10
86.5978149197568
 20
-142.6135172169508
 30
0.0
 10
86.62709823138142
 20
-142.236968280413
 30
0.0
 10
87.11561277118984
 20
-142.236968280413
 30
0.0
 10
87.35539141696324
 20
-142.236968280413
 30
0.0
 10
87.61308455925993
 20
-142.3640923038187
 30
0.0
 10
87.61308455925993
 20
-142.6600260060017
 30
0.0
 10
87.61308455925993
 20
-142.8464056717537
 30
0.0
 10
87.51110973289653
 20
-142.9287434538512
 30
0.0
 10
87.40500079195084
 20
-142.9900661534886
 30
0.0
 10
87.47045760617058
 20
-143.0176269173706
 30
0.0
 10
87.6651055010872
 20
-143.0978976421769
 30
0.0
 10
87.6651055010872
 20
-143.3752278287395
 30
0.0
 10
87.6651055010872
 20
-143.7135362053911
 30
0.0
 10
87.40052216782001
 20
-143.8806233364257
 30
0.0
 10
87.10424395608852
 20
-143.8806233364257
 30
0.0
  0
HATCH
  5
8F
330
8A
100
AcDbEntity
  8
_U+30EC_U+30A4_U+30E4_U+30FC 1
 62
     7
420
 16777215
100
AcDbHatch
 10
0.0
 20
0.0
 30
0.0
210
0.0
220
0.0
230
1.0
  2
SOLID
 70
     1
 71
     0
 91
        1
 92
        1
 93
        1
 72
     4
 94
        3
 73
     0
 74
     1
 95
       62
 96
       58
 40
0.0
 40
0.0
 40
0.0
 40
0.0
 40
1.0
 40
1.0
 40
1.0
 40
2.0
 40
2.0
 40
2.0
 40
3.0
 40
3.0
 40
3.0
 40
4.0
 40
4.0
 40
4.0
 40
5.0
 40
5.0
 40
5.0
 40
6.0
 40
6.0
 40
6.0
 40
7.0
 40
7.0
 40
7.0
 40
8.0
 40
8.0
 40
8.0
 40
9.0
 40
9.0
 40
9.0
 40
10.0
 40
10.0
 40
10.0
 40
11.0
 40
11.0
 40
11.0
 40
12.0
 40
12.0
 40
12.0
 40
13.0
 40
13.0
 40
13.0
 40
14.0
 40
14.0
 40
14.0
 40
15.0
 40
15.0
 40
15.0
 40
16.0
 40
16.0
 40
16.0
 40
17.0
 40
17.0
 40
17.0
 40
18.0
 40
18.0
 40
18.0
 40
19.0
 40
19.0
 40
19.0
 40
19.0
 10
87.10424395608852
 20
-143.8806233364257
 10
87.00261363927366
 20
-143.8806233364257
 10
86.76972518447077
 20
-143.8596082539657
 10
86.6363999891916
 20
-143.6735730977622
 10
86.55716279303086
 20
-143.561262984943
 10
86.55268416890003
 20
-143.4620442349678
 10
86.5482055447692
 20
-143.3772948860307
 10
86.5482055447692
 20
-143.3772948860307
 10
86.78316105686324
 20
-143.3772948860307
 10
86.78316105686324
 20
-143.3772948860307
 10
86.78557262370292
 20
-143.4513644389636
 10
86.79694143880424
 20
-143.6859754415091
 10
87.0997653319577
 20
-143.6859754415091
 10
87.24687090917787
 20
-143.6859754415091
 10
87.40947941608167
 20
-143.616384512707
 10
87.40947941608167
 20
-143.387974682035
 10
87.40947941608167
 20
-143.2715304546335
 10
87.3688272893557
 20
-143.2229546082915
 10
87.33472084405174
 20
-143.1912597298272
 10
87.25582815743952
 20
-143.1171901768943
 10
87.131460210422
 20
-143.1044433235989
 10
87.07254907762423
 20
-143.1044433235989
 10
87.05222301426126
 20
-143.1044433235989
 10
87.01398245437498
 20
-143.1065103808901
 10
86.98435463320183
 20
-143.1106444954723
 10
86.98435463320183
 20
-143.1106444954723
 10
86.98435463320183
 20
-142.9159966005557
 10
86.98435463320183
 20
-142.9159966005557
 10
87.02500675992778
 20
-142.9225422819777
 10
87.07048202033307
 20
-142.9246093392688
 10
87.07702770175506
 20
-142.9246093392688
 10
87.14730764965415
 20
-142.9246093392688
 10
87.35987004109407
 20
-142.9032497472603
 10
87.35987004109407
 20
-142.6665716874236
 10
87.35987004109407
 20
-142.4888047603847
 10
87.21965465484439
 20
-142.4336832326208
 10
87.10217689879738
 20
-142.4336832326208
 10
86.81933455945837
 20
-142.4336832326208
 10
86.81037731119672
 20
-142.6665716874236
 10
86.80589868706589
 20
-142.7382296735168
 10
86.80589868706589
 20
-142.7382296735168
 10
86.58885767149515
 20
-142.7382296735168
 10
86.58885767149515
 20
-142.7382296735168
 10
86.5978149197568
 20
-142.6135172169508
 10
86.62709823138142
 20
-142.236968280413
 10
87.11561277118984
 20
-142.236968280413
 10
87.35539141696324
 20
-142.236968280413
 10
87.61308455925993
 20
-142.3640923038187
 10
87.61308455925993
 20
-142.6600260060017
 10
87.61308455925993
 20
-142.8464056717537
 10
87.51110973289653
 20
-142.9287434538512
 10
87.40500079195084
 20
-142.9900661534886
 10
87.47045760617058
 20
-143.0176269173706
 10
87.6651055010872
 20
-143.0978976421769
 10
87.6651055010872
 20
-143.3752278287395
 10
87.6651055010872
 20
-143.7135362053911
 10
87.40052216782001
 20
-143.8806233364257
 10
87.10424395608852
 20
-143.8806233364257
 97
        0
 97
        0
 75
     2
 76
     1
 98
        0
  0
ENDBLK
  5
8D
330
8A
100
AcDbEntity
  8
0
100
AcDbBlockEnd
  0
BLOCK
  5
A0
330
9E
100
AcDbEntity
  8
0
100
AcDbBlockBegin
  2
block 6
 70
     0
 10
0.0
 20
0.0
 30
0.0
  3
block 6
  1

  0
SPLINE
  5
A2
330
9E
100
AcDbEntity
  8
_U+30EC_U+30A4_U+30E4_U+30FC 1
370
     0
100
AcDbSpline
210
0.0
220
0.0
230
1.0
 70
    11
 71
     3
 72
    62
 73
    58
 74
     0
 42
0.0000000001
 43
0.0000000001
 12
1.0
 22
0.0
 32
0.0
 13
1.0
 23
0.0
 33
0.0
 40
0.0
 40
0.0
 40
0.0
 40
0.0
 40
1.0
 40
1.0
 40
1.0
 40
2.0
 40
2.0
 40
2.0
 40
3.0
 40
3.0
 40
3.0
 40
4.0
 40
4.0
 40
4.0
 40
5.0
 40
5.0
 40
5.0
 40
6.0
 40
6.0
 40
6.0
 40
7.0
 40
7.0
 40
7.0
 40
8.0
 40
8.0
 40
8.0
 40
9.0
 40
9.0
 40
9.0
 40
10.0
 40
10.0
 40
10.0
 40
11.0
 40
11.0
 40
11.0
 40
12.0
 40
12.0
 40
12.0
 40
13.0
 40
13.0
 40
13.0
 40
14.0
 40
14.0
 40
14.0
 40
15.0
 40
15.0
 40
15.0
 40
16.0
 40
16.0
 40
16.0
 40
17.0
 40
17.0
 40
17.0
 40
18.0
 40
18.0
 40
18.0
 40
19.0
 40
19.0
 40
19.0
 40
19.0
 10
79.76360675089244
 20
-129.3343966690553
 30
0.0
 10
79.76360675089244
 20
-129.4360269858702
 30
0.0
 10
79.74241941365815
 20
-129.6689154406731
 30
0.0
 10
79.5562120026804
 20
-129.8022406359522
 30
0.0
 10
79.44407414463551
 20
-129.881477832113
 30
0.0
 10
79.34468313988606
 20
-129.8859564562438
 30
0.0
 10
79.26010604572318
 20
-129.8904350803746
 30
0.0
 10
79.26010604572318
 20
-129.8904350803746
 30
0.0
 10
79.26010604572318
 20
-129.6554795682806
 30
0.0
 10
79.26010604572318
 20
-129.6554795682806
 30
0.0
 10
79.33417559865605
 20
-129.6530680014409
 30
0.0
 10
79.56895885597582
 20
-129.6416991863396
 30
0.0
 10
79.56895885597582
 20
-129.3388752931861
 30
0.0
 10
79.56895885597582
 20
-129.191769715966
 30
0.0
 10
79.49919567239951
 20
-129.0291612090622
 30
0.0
 10
79.27061358695319
 20
-129.0291612090622
 30
0.0
 10
79.154341614326
 20
-129.0291612090622
 30
0.0
 10
79.10559351320971
 20
-129.0698133357881
 30
0.0
 10
79.07389863474542
 20
-129.1035752715435
 30
0.0
 10
78.99982908181255
 20
-129.1828124677043
 30
0.0
 10
78.98725448329138
 20
-129.3071804147218
 30
0.0
 10
78.98725448329138
 20
-129.3660915475196
 30
0.0
 10
78.98725448329138
 20
-129.3864176108826
 30
0.0
 10
78.98932154058254
 20
-129.4246581707689
 30
0.0
 10
78.99345565516484
 20
-129.454285991942
 30
0.0
 10
78.99345565516484
 20
-129.454285991942
 30
0.0
 10
78.79898001502248
 20
-129.454285991942
 30
0.0
 10
78.79898001502248
 20
-129.454285991942
 30
0.0
 10
78.80518118689594
 20
-129.413633865216
 30
0.0
 10
78.80742049896135
 20
-129.3681586048107
 30
0.0
 10
78.80742049896135
 20
-129.3616129233888
 30
0.0
 10
78.80742049896135
 20
-129.2913329754897
 30
0.0
 10
78.78623316172705
 20
-129.0787705840497
 30
0.0
 10
78.54921059234186
 20
-129.0787705840497
 30
0.0
 10
78.37161592007723
 20
-129.0787705840497
 30
0.0
 10
78.31649439231325
 20
-129.2189859702994
 30
0.0
 10
78.31649439231325
 20
-129.3364637263464
 30
0.0
 10
78.31649439231325
 20
-129.6193060656855
 30
0.0
 10
78.54921059234186
 20
-129.6282633139471
 30
0.0
 10
78.62121308798359
 20
-129.6327419380779
 30
0.0
 10
78.62121308798359
 20
-129.6327419380779
 30
0.0
 10
78.62121308798359
 20
-129.8497829536487
 30
0.0
 10
78.62121308798359
 20
-129.8497829536487
 30
0.0
 10
78.49632837664328
 20
-129.840825705387
 30
0.0
 10
78.11977944010548
 20
-129.8115423937624
 30
0.0
 10
78.11977944010548
 20
-129.323027853954
 30
0.0
 10
78.11977944010548
 20
-129.0832492081806
 30
0.0
 10
78.24673120873693
 20
-128.8255560658839
 30
0.0
 10
78.54283716569415
 20
-128.8255560658839
 30
0.0
 10
78.72904457667191
 20
-128.8255560658839
 30
0.0
 10
78.81155461354365
 20
-128.9275308922473
 30
0.0
 10
78.87287731318109
 20
-129.033639833193
 30
0.0
 10
78.90043807706309
 20
-128.9681830189732
 30
0.0
 10
78.98088105664367
 20
-128.7735351240566
 30
0.0
 10
79.25803898843202
 20
-128.7735351240566
 30
0.0
 10
79.59651961985782
 20
-128.7735351240566
 30
0.0
 10
79.76360675089244
 20
-129.0381184573238
 30
0.0
 10
79.76360675089244
 20
-129.3343966690553
 30
0.0
  0
HATCH
  5
A3
330
9E
100
AcDbEntity
  8
_U+30EC_U+30A4_U+30E4_U+30FC 1
 62
     7
420
 16777215
100
AcDbHatch
 10
0.0
 20
0.0
 30
0.0
210
0.0
220
0.0
230
1.0
  2
SOLID
 70
     1
 71
     0
 91
        1
 92
        1
 93
        1
 72
     4
 94
        3
 73
     0
 74
     1
 95
       62
 96
       58
 40
0.0
 40
0.0
 40
0.0
 40
0.0
 40
1.0
 40
1.0
 40
1.0
 40
2.0
 40
2.0
 40
2.0
 40
3.0
 40
3.0
 40
3.0
 40
4.0
 40
4.0
 40
4.0
 40
5.0
 40
5.0
 40
5.0
 40
6.0
 40
6.0
 40
6.0
 40
7.0
 40
7.0
 40
7.0
 40
8.0
 40
8.0
 40
8.0
 40
9.0
 40
9.0
 40
9.0
 40
10.0
 40
10.0
 40
10.0
 40
11.0
 40
11.0
 40
11.0
 40
12.0
 40
12.0
 40
12.0
 40
13.0
 40
13.0
 40
13.0
 40
14.0
 40
14.0
 40
14.0
 40
15.0
 40
15.0
 40
15.0
 40
16.0
 40
16.0
 40
16.0
 40
17.0
 40
17.0
 40
17.0
 40
18.0
 40
18.0
 40
18.0
 40
19.0
 40
19.0
 40
19.0
 40
19.0
 10
79.76360675089244
 20
-129.3343966690553
 10
79.76360675089244
 20
-129.4360269858702
 10
79.74241941365815
 20
-129.6689154406731
 10
79.5562120026804
 20
-129.8022406359522
 10
79.44407414463551
 20
-129.881477832113
 10
79.34468313988606
 20
-129.8859564562438
 10
79.26010604572318
 20
-129.8904350803746
 10
79.26010604572318
 20
-129.8904350803746
 10
79.26010604572318
 20
-129.6554795682806
 10
79.26010604572318
 20
-129.6554795682806
 10
79.33417559865605
 20
-129.6530680014409
 10
79.56895885597582
 20
-129.6416991863396
 10
79.56895885597582
 20
-129.3388752931861
 10
79.56895885597582
 20
-129.191769715966
 10
79.49919567239951
 20
-129.0291612090622
 10
79.27061358695319
 20
-129.0291612090622
 10
79.154341614326
 20
-129.0291612090622
 10
79.10559351320971
 20
-129.0698133357881
 10
79.07389863474542
 20
-129.1035752715435
 10
78.99982908181255
 20
-129.1828124677043
 10
78.98725448329138
 20
-129.3071804147218
 10
78.98725448329138
 20
-129.3660915475196
 10
78.98725448329138
 20
-129.3864176108826
 10
78.98932154058254
 20
-129.4246581707689
 10
78.99345565516484
 20
-129.454285991942
 10
78.99345565516484
 20
-129.454285991942
 10
78.79898001502248
 20
-129.454285991942
 10
78.79898001502248
 20
-129.454285991942
 10
78.80518118689594
 20
-129.413633865216
 10
78.80742049896135
 20
-129.3681586048107
 10
78.80742049896135
 20
-129.3616129233888
 10
78.80742049896135
 20
-129.2913329754897
 10
78.78623316172705
 20
-129.0787705840497
 10
78.54921059234186
 20
-129.0787705840497
 10
78.37161592007723
 20
-129.0787705840497
 10
78.31649439231325
 20
-129.2189859702994
 10
78.31649439231325
 20
-129.3364637263464
 10
78.31649439231325
 20
-129.6193060656855
 10
78.54921059234186
 20
-129.6282633139471
 10
78.62121308798359
 20
-129.6327419380779
 10
78.62121308798359
 20
-129.6327419380779
 10
78.62121308798359
 20
-129.8497829536487
 10
78.62121308798359
 20
-129.8497829536487
 10
78.49632837664328
 20
-129.840825705387
 10
78.11977944010548
 20
-129.8115423937624
 10
78.11977944010548
 20
-129.323027853954
 10
78.11977944010548
 20
-129.0832492081806
 10
78.24673120873693
 20
-128.8255560658839
 10
78.54283716569415
 20
-128.8255560658839
 10
78.72904457667191
 20
-128.8255560658839
 10
78.81155461354365
 20
-128.9275308922473
 10
78.87287731318109
 20
-129.033639833193
 10
78.90043807706309
 20
-128.9681830189732
 10
78.98088105664367
 20
-128.7735351240566
 10
79.25803898843202
 20
-128.7735351240566
 10
79.59651961985782
 20
-128.7735351240566
 10
79.76360675089244
 20
-129.0381184573238
 10
79.76360675089244
 20
-129.3343966690553
 97
        0
 97
        0
 75
     2
 76
     1
 98
        0
  0
POLYLINE
  5
A4
330
9E
100
AcDbEntity
  8
_U+30EC_U+30A4_U+30E4_U+30FC 1
370
     0
100
AcDb2dPolyline
 66
     1
 10
0.0
 20
0.0
 30
0.0
  0
VERTEX
  5
A5
330
A4
100
AcDbEntity
  8
_U+30EC_U+30A4_U+30E4_U+30FC 1
370
     0
100
AcDbVertex
100
AcDb2dVertex
 10
79.36587047712034
 20
-127.7124457145997
 30
0.0
  0
VERTEX
  5
A6
330
A4
100
AcDbEntity
  8
_U+30EC_U+30A4_U+30E4_U+30FC 1
370
     0
100
AcDbVertex
100
AcDb2dVertex
 10
79.712791592485
 20
-127.7124457145997
 30
0.0
  0
VERTEX
  5
A7
330
A4
100
AcDbEntity
  8
_U+30EC_U+30A4_U+30E4_U+30FC 1
370
     0
100
AcDbVertex
100
AcDb2dVertex
 10
79.712791592485
 20
-127.9453341694026
 30
0.0
  0
VERTEX
  5
A8
330
A4
100
AcDbEntity
  8
_U+30EC_U+30A4_U+30E4_U+30FC 1
370
     0
100
AcDbVertex
100
AcDb2dVertex
 10
79.36587047712034
 20
-127.9453341694026
 30
0.0
  0
VERTEX
  5
A9
330
A4
100
AcDbEntity
  8
_U+30EC_U+30A4_U+30E4_U+30FC 1
370
     0
100
AcDbVertex
100
AcDb2dVertex
 10
79.36587047712034
 20
-128.6464111006509
 30
0.0
  0
VERTEX
  5
AA
330
A4
100
AcDbEntity
  8
_U+30EC_U+30A4_U+30E4_U+30FC 1
370
     0
100
AcDbVertex
100
AcDb2dVertex
 10
79.14159476103058
 20
-128.6464111006509
 30
0.0
  0
VERTEX
  5
AB
330
A4
100
AcDbEntity
  8
_U+30EC_U+30A4_U+30E4_U+30FC 1
370
     0
100
AcDbVertex
100
AcDb2dVertex
 10
78.16852754122176
 20
-127.9205294819088
 30
0.0
  0
VERTEX
  5
AC
330
A4
100
AcDbEntity
  8
_U+30EC_U+30A4_U+30E4_U+30FC 1
370
     0
100
AcDbVertex
100
AcDb2dVertex
 10
78.16852754122176
 20
-127.7124457145997
 30
0.0
  0
VERTEX
  5
AD
330
A4
100
AcDbEntity
  8
_U+30EC_U+30A4_U+30E4_U+30FC 1
370
     0
100
AcDbVertex
100
AcDb2dVertex
 10
79.16691621284717
 20
-127.7124457145997
 30
0.0
  0
VERTEX
  5
AE
330
A4
100
AcDbEntity
  8
_U+30EC_U+30A4_U+30E4_U+30FC 1
370
     0
100
AcDbVertex
100
AcDb2dVertex
 10
79.16691621284717
 20
-127.4909260748981
 30
0.0
  0
VERTEX
  5
AF
330
A4
100
AcDbEntity
  8
_U+30EC_U+30A4_U+30E4_U+30FC 1
370
     0
100
AcDbVertex
100
AcDb2dVertex
 10
79.36587047712034
 20
-127.4909260748981
 30
0.0
  0
VERTEX
  5
B0
330
A4
100
AcDbEntity
  8
_U+30EC_U+30A4_U+30E4_U+30FC 1
370
     0
100
AcDbVertex
100
AcDb2dVertex
 10
79.36587047712034
 20
-127.7124457145997
 30
0.0
  0
SEQEND
  5
B1
330
A4
100
AcDbEntity
  8
_U+30EC_U+30A4_U+30E4_U+30FC 1
370
     0
  0
POLYLINE
  5
B2
330
9E
100
AcDbEntity
  8
_U+30EC_U+30A4_U+30E4_U+30FC 1
370
     0
100
AcDb2dPolyline
 66
     1
 10
0.0
 20
0.0
 30
0.0
  0
VERTEX
  5
B3
330
B2
100
AcDbEntity
  8
_U+30EC_U+30A4_U+30E4_U+30FC 1
370
     0
100
AcDbVertex
100
AcDb2dVertex
 10
78.51114228722986
 20
-127.9453341694026
 30
0.0
  0
VERTEX
  5
B4
330
B2
100
AcDbEntity
  8
_U+30EC_U+30A4_U+30E4_U+30FC 1
370
     0
100
AcDbVertex
100
AcDb2dVertex
 10
79.16691621284717
 20
-128.433848709211
 30
0.0
  0
VERTEX
  5
B5
330
B2
100
AcDbEntity
  8
_U+30EC_U+30A4_U+30E4_U+30FC 1
370
     0
100
AcDbVertex
100
AcDb2dVertex
 10
79.16691621284717
 20
-127.9453341694026
 30
0.0
  0
VERTEX
  5
B6
330
B2
100
AcDbEntity
  8
_U+30EC_U+30A4_U+30E4_U+30FC 1
370
     0
100
AcDbVertex
100
AcDb2dVertex
 10
78.51114228722986
 20
-127.9453341694026
 30
0.0
  0
SEQEND
  5
B7
330
B2
100
AcDbEntity
  8
_U+30EC_U+30A4_U+30E4_U+30FC 1
370
     0
  0
HATCH
  5
B8
330
9E
100
AcDbEntity
  8
_U+30EC_U+30A4_U+30E4_U+30FC 1
 62
     7
420
 16777215
100
AcDbHatch
 10
0.0
 20
0.0
 30
0.0
210
0.0
220
0.0
230
1.0
  2
SOLID
 70
     1
 71
     0
 91
        2
 92
        1
 93
       11
 72
     1
 10
79.36587047712034
 20
-127.7124457145997
 11
79.712791592485
 21
-127.7124457145997
 72
     1
 10
79.712791592485
 20
-127.7124457145997
 11
79.712791592485
 21
-127.9453341694026
 72
     1
 10
79.712791592485
 20
-127.9453341694026
 11
79.36587047712034
 21
-127.9453341694026
 72
     1
 10
79.36587047712034
 20
-127.9453341694026
 11
79.36587047712034
 21
-128.6464111006509
 72
     1
 10
79.36587047712034
 20
-128.6464111006509
 11
79.14159476103058
 21
-128.6464111006509
 72
     1
 10
79.14159476103058
 20
-128.6464111006509
 11
78.16852754122176
 21
-127.9205294819088
 72
     1
 10
78.16852754122176
 20
-127.9205294819088
 11
78.16852754122176
 21
-127.7124457145997
 72
     1
 10
78.16852754122176
 20
-127.7124457145997
 11
79.16691621284717
 21
-127.7124457145997
 72
     1
 10
79.16691621284717
 20
-127.7124457145997
 11
79.16691621284717
 21
-127.4909260748981
 72
     1
 10
79.16691621284717
 20
-127.4909260748981
 11
79.36587047712034
 21
-127.4909260748981
 72
     1
 10
79.36587047712034
 20
-127.4909260748981
 11
79.36587047712034
 21
-127.7124457145997
 97
        0
 92
        1
 93
        3
 72
     1
 10
78.51114228722986
 20
-127.9453341694026
 11
79.16691621284717
 21
-128.433848709211
 72
     1
 10
79.16691621284717
 20
-128.433848709211
 11
79.16691621284717
 21
-127.9453341694026
 72
     1
 10
79.16691621284717
 20
-127.9453341694026
 11
78.51114228722986
 21
-127.9453341694026
 97
        0
 75
     2
 76
     1
 98
        0
  0
ENDBLK
  5
A1
330
9E
100
AcDbEntity
  8
0
100
AcDbBlockEnd
  0
BLOCK
  5
CF
330
CD
100
AcDbEntity
  8
0
100
AcDbBlockBegin
  2
block 7
 70
     0
 10
0.0
 20
0.0
 30
0.0
  3
block 7
  1

  0
SPLINE
  5
D1
330
CD
100
AcDbEntity
  8
_U+30EC_U+30A4_U+30E4_U+30FC 1
 62
     7
420
 16777215
370
    25
100
AcDbSpline
210
0.0
220
0.0
230
1.0
 70
     8
 71
     3
 72
    14
 73
    10
 74
     0
 42
0.0000000001
 43
0.0000000001
 12
1.0
 22
0.0
 32
0.0
 13
1.0
 23
0.0
 33
0.0
 40
0.0
 40
0.0
 40
0.0
 40
0.0
 40
1.0
 40
1.0
 40
1.0
 40
2.0
 40
2.0
 40
2.0
 40
3.0
 40
3.0
 40
3.0
 40
3.0
 10
84.41725275667335
 20
-145.6414127413675
 30
0.0
 10
84.41725275667335
 20
-145.6414127413675
 30
0.0
 10
84.35869164557714
 20
-146.6852821855512
 30
0.0
 10
85.31432921233902
 20
-145.4505599636377
 30
0.0
 10
85.31432921233902
 20
-145.4505599636377
 30
0.0
 10
85.31778643447304
 20
-145.3437388525528
 30
0.0
 10
85.31778643447304
 20
-145.3437388525528
 30
0.0
 10
85.31778643447304
 20
-145.3437388525528
 30
0.0
 10
85.31778643447304
 20
-135.3440057994972
 30
0.0
 10
85.31778643447304
 20
-135.3440057994972
 30
0.0
  0
ENDBLK
  5
D0
330
CD
100
AcDbEntity
  8
0
100
AcDbBlockEnd
  0
ENDSEC
  0
SECTION
  2
ENTITIES
  0
SPLINE
  5
41
330
1F
100
AcDbEntity
  8
_U+30EC_U+30A4_U+30E4_U+30FC 1
 62
   253
420
 11711154
370
     9
100
AcDbSpline
210
0.0
220
0.0
230
1.0
 70
    11
 71
     3
 72
    80
 73
    76
 74
     0
 42
0.0000000001
 43
0.0000000001
 12
1.0
 22
0.0
 32
0.0
 13
1.0
 23
0.0
 33
0.0
 40
0.0
 40
0.0
 40
0.0
 40
0.0
 40
1.0
 40
1.0
 40
1.0
 40
2.0
 40
2.0
 40
2.0
 40
3.0
 40
3.0
 40
3.0
 40
4.0
 40
4.0
 40
4.0
 40
5.0
 40
5.0
 40
5.0
 40
6.0
 40
6.0
 40
6.0
 40
7.0
 40
7.0
 40
7.0
 40
8.0
 40
8.0
 40
8.0
 40
9.0
 40
9.0
 40
9.0
 40
10.0
 40
10.0
 40
10.0
 40
11.0
 40
11.0
 40
11.0
 40
12.0
 40
12.0
 40
12.0
 40
13.0
 40
13.0
 40
13.0
 40
14.0
 40
14.0
 40
14.0
 40
15.0
 40
15.0
 40
15.0
 40
16.0
 40
16.0
 40
16.0
 40
17.0
 40
17.0
 40
17.0
 40
18.0
 40
18.0
 40
18.0
 40
19.0
 40
19.0
 40
19.0
 40
20.0
 40
20.0
 40
20.0
 40
21.0
 40
21.0
 40
21.0
 40
22.0
 40
22.0
 40
22.0
 40
23.0
 40
23.0
 40
23.0
 40
24.0
 40
24.0
 40
24.0
 40
25.0
 40
25.0
 40
25.0
 40
25.0
 10
84.4392992346629
 20
-111.7656091387251
 30
0.0
 10
84.4392992346629
 20
-111.7656091387251
 30
0.0
 10
84.63773886772934
 20
-111.3025883055076
 30
0.0
 10
85.12280831205251
 20
-112.0081438608867
 30
0.0
 10
85.12280831205251
 20
-112.0081438608867
 30
0.0
 10
85.29919720089731
 20
-112.2286299719427
 30
0.0
 10
85.29919720089731
 20
-112.4491160829987
 30
0.0
 10
85.29919720089731
 20
-112.4491160829987
 30
0.0
 10
85.23304921441265
 20
-121.2906091363439
 30
0.0
 10
85.23304921441265
 20
-121.2906091363439
 30
0.0
 10
85.23304921441265
 20
-121.2906091363439
 30
0.0
 10
85.38739164531971
 20
-121.4008521918719
 30
0.0
 10
85.38739164531971
 20
-121.4008521918719
 30
0.0
 10
85.38739164531971
 20
-121.4008521918719
 30
0.0
 10
85.3432944231085
 20
-127.3980744125948
 30
0.0
 10
85.3432944231085
 20
-127.3980744125948
 30
0.0
 10
85.3432944231085
 20
-127.3980744125948
 30
0.0
 10
98.42086998907442
 20
-127.2657827459612
 30
0.0
 10
98.42086998907442
 20
-127.2657827459612
 30
0.0
 10
98.42086998907442
 20
-127.2657827459612
 30
0.0
 10
98.42086998907442
 20
-121.3567549696607
 30
0.0
 10
98.42086998907442
 20
-121.3567549696607
 30
0.0
 10
98.42086998907442
 20
-121.3567549696607
 30
0.0
 10
98.70750192620628
 20
-121.1583174697103
 30
0.0
 10
99.01618247388673
 20
-121.7095327473503
 30
0.0
 10
99.01618247388673
 20
-121.7095327473503
 30
0.0
 10
99.34691163211579
 20
-122.2607480249902
 30
0.0
 10
99.34691163211579
 20
-122.2607480249902
 30
0.0
 10
99.34691163211579
 20
-122.2607480249902
 30
0.0
 10
99.4130574637616
 20
-128.1256785790796
 30
0.0
 10
99.4130574637616
 20
-128.1256785790796
 30
0.0
 10
99.4130574637616
 20
-128.1256785790796
 30
0.0
 10
99.10437691608115
 20
-128.3461646901355
 30
0.0
 10
99.10437691608115
 20
-128.3461646901355
 30
0.0
 10
99.10437691608115
 20
-128.3461646901355
 30
0.0
 10
89.7530166442283
 20
-128.4123105234523
 30
0.0
 10
89.7530166442283
 20
-128.4123105234523
 30
0.0
 10
89.7530166442283
 20
-128.4123105234523
 30
0.0
 10
89.40023886653871
 20
-128.7209910789307
 30
0.0
 10
89.40023886653871
 20
-128.7209910789307
 30
0.0
 10
89.40023886653871
 20
-128.7209910789307
 30
0.0
 10
89.35614164432752
 20
-134.5860980219089
 30
0.0
 10
89.35614164432752
 20
-134.5860980219089
 30
0.0
 10
89.35614164432752
 20
-134.5860980219089
 30
0.0
 10
88.51829442231475
 20
-135.5341882994497
 30
0.0
 10
88.51829442231475
 20
-135.5341882994497
 30
0.0
 10
88.51829442231475
 20
-135.5341882994497
 30
0.0
 10
88.38600275568116
 20
-135.3577994106049
 30
0.0
 10
88.38600275568116
 20
-135.3577994106049
 30
0.0
 10
88.38600275568116
 20
-135.3577994106049
 30
0.0
 10
88.36395191231445
 20
-128.3241160790299
 30
0.0
 10
88.36395191231445
 20
-128.3241160790299
 30
0.0
 10
88.36395191231445
 20
-128.3241160790299
 30
0.0
 10
85.40943809880147
 20
-128.3682133012412
 30
0.0
 10
85.40943809880147
 20
-128.3682133012412
 30
0.0
 10
85.40943809880147
 20
-128.3682133012412
 30
0.0
 10
85.40943809880147
 20
-135.3137021883937
 30
0.0
 10
85.40943809880147
 20
-135.3137021883937
 30
0.0
 10
85.40943809880147
 20
-135.3137021883937
 30
0.0
 10
85.29919720089731
 20
-135.4459938550273
 30
0.0
 10
85.29919720089731
 20
-135.4459938550273
 30
0.0
 10
85.29919720089731
 20
-135.4459938550273
 30
0.0
 10
85.32124365660707
 20
-145.4340146858636
 30
0.0
 10
85.32124365660707
 20
-145.4340146858636
 30
0.0
 10
85.32124365660707
 20
-145.4340146858636
 30
0.0
 10
84.79207700344057
 20
-146.0072785746092
 30
0.0
 10
84.79207700344057
 20
-146.0072785746092
 30
0.0
 10
84.79207700344057
 20
-146.0072785746092
 30
0.0
 10
84.4833964557601
 20
-145.9190841301868
 30
0.0
 10
84.4833964557601
 20
-145.9190841301868
 30
0.0
 10
84.4833964557601
 20
-145.9190841301868
 30
0.0
 10
84.3952020135657
 20
-137.3201257990032
 30
0.0
 10
84.3952020135657
 20
-137.3201257990032
 30
0.0
 10
84.3952020135657
 20
-137.3201257990032
 30
0.0
 10
84.4392992346629
 20
-111.7656091387251
 30
0.0
 10
84.4392992346629
 20
-111.7656091387251
 30
0.0
  0
HATCH
  5
42
330
1F
100
AcDbEntity
  8
_U+30EC_U+30A4_U+30E4_U+30FC 1
 62
   253
420
 11711154
100
AcDbHatch
 10
0.0
 20
0.0
 30
0.0
210
0.0
220
0.0
230
1.0
  2
SOLID
 70
     1
 71
     0
 91
        1
 92
        1
 93
        1
 72
     4
 94
        3
 73
     0
 74
     1
 95
       80
 96
       76
 40
0.0
 40
0.0
 40
0.0
 40
0.0
 40
1.0
 40
1.0
 40
1.0
 40
2.0
 40
2.0
 40
2.0
 40
3.0
 40
3.0
 40
3.0
 40
4.0
 40
4.0
 40
4.0
 40
5.0
 40
5.0
 40
5.0
 40
6.0
 40
6.0
 40
6.0
 40
7.0
 40
7.0
 40
7.0
 40
8.0
 40
8.0
 40
8.0
 40
9.0
 40
9.0
 40
9.0
 40
10.0
 40
10.0
 40
10.0
 40
11.0
 40
11.0
 40
11.0
 40
12.0
 40
12.0
 40
12.0
 40
13.0
 40
13.0
 40
13.0
 40
14.0
 40
14.0
 40
14.0
 40
15.0
 40
15.0
 40
15.0
 40
16.0
 40
16.0
 40
16.0
 40
17.0
 40
17.0
 40
17.0
 40
18.0
 40
18.0
 40
18.0
 40
19.0
 40
19.0
 40
19.0
 40
20.0
 40
20.0
 40
20.0
 40
21.0
 40
21.0
 40
21.0
 40
22.0
 40
22.0
 40
22.0
 40
23.0
 40
23.0
 40
23.0
 40
24.0
 40
24.0
 40
24.0
 40
25.0
 40
25.0
 40
25.0
 40
25.0
 10
84.4392992346629
 20
-111.7656091387251
 10
84.4392992346629
 20
-111.7656091387251
 10
84.63773886772934
 20
-111.3025883055076
 10
85.12280831205251
 20
-112.0081438608867
 10
85.12280831205251
 20
-112.0081438608867
 10
85.29919720089731
 20
-112.2286299719427
 10
85.29919720089731
 20
-112.4491160829987
 10
85.29919720089731
 20
-112.4491160829987
 10
85.23304921441265
 20
-121.2906091363439
 10
85.23304921441265
 20
-121.2906091363439
 10
85.23304921441265
 20
-121.2906091363439
 10
85.38739164531971
 20
-121.4008521918719
 10
85.38739164531971
 20
-121.4008521918719
 10
85.38739164531971
 20
-121.4008521918719
 10
85.3432944231085
 20
-127.3980744125948
 10
85.3432944231085
 20
-127.3980744125948
 10
85.3432944231085
 20
-127.3980744125948
 10
98.42086998907442
 20
-127.2657827459612
 10
98.42086998907442
 20
-127.2657827459612
 10
98.42086998907442
 20
-127.2657827459612
 10
98.42086998907442
 20
-121.3567549696607
 10
98.42086998907442
 20
-121.3567549696607
 10
98.42086998907442
 20
-121.3567549696607
 10
98.70750192620628
 20
-121.1583174697103
 10
99.01618247388673
 20
-121.7095327473503
 10
99.01618247388673
 20
-121.7095327473503
 10
99.34691163211579
 20
-122.2607480249902
 10
99.34691163211579
 20
-122.2607480249902
 10
99.34691163211579
 20
-122.2607480249902
 10
99.4130574637616
 20
-128.1256785790796
 10
99.4130574637616
 20
-128.1256785790796
 10
99.4130574637616
 20
-128.1256785790796
 10
99.10437691608115
 20
-128.3461646901355
 10
99.10437691608115
 20
-128.3461646901355
 10
99.10437691608115
 20
-128.3461646901355
 10
89.7530166442283
 20
-128.4123105234523
 10
89.7530166442283
 20
-128.4123105234523
 10
89.7530166442283
 20
-128.4123105234523
 10
89.40023886653871
 20
-128.7209910789307
 10
89.40023886653871
 20
-128.7209910789307
 10
89.40023886653871
 20
-128.7209910789307
 10
89.35614164432752
 20
-134.5860980219089
 10
89.35614164432752
 20
-134.5860980219089
 10
89.35614164432752
 20
-134.5860980219089
 10
88.51829442231475
 20
-135.5341882994497
 10
88.51829442231475
 20
-135.5341882994497
 10
88.51829442231475
 20
-135.5341882994497
 10
88.38600275568116
 20
-135.3577994106049
 10
88.38600275568116
 20
-135.3577994106049
 10
88.38600275568116
 20
-135.3577994106049
 10
88.36395191231445
 20
-128.3241160790299
 10
88.36395191231445
 20
-128.3241160790299
 10
88.36395191231445
 20
-128.3241160790299
 10
85.40943809880147
 20
-128.3682133012412
 10
85.40943809880147
 20
-128.3682133012412
 10
85.40943809880147
 20
-128.3682133012412
 10
85.40943809880147
 20
-135.3137021883937
 10
85.40943809880147
 20
-135.3137021883937
 10
85.40943809880147
 20
-135.3137021883937
 10
85.29919720089731
 20
-135.4459938550273
 10
85.29919720089731
 20
-135.4459938550273
 10
85.29919720089731
 20
-135.4459938550273
 10
85.32124365660707
 20
-145.4340146858636
 10
85.32124365660707
 20
-145.4340146858636
 10
85.32124365660707
 20
-145.4340146858636
 10
84.79207700344057
 20
-146.0072785746092
 10
84.79207700344057
 20
-146.0072785746092
 10
84.79207700344057
 20
-146.0072785746092
 10
84.4833964557601
 20
-145.9190841301868
 10
84.4833964557601
 20
-145.9190841301868
 10
84.4833964557601
 20
-145.9190841301868
 10
84.3952020135657
 20
-137.3201257990032
 10
84.3952020135657
 20
-137.3201257990032
 10
84.3952020135657
 20
-137.3201257990032
 10
84.4392992346629
 20
-111.7656091387251
 10
84.4392992346629
 20
-111.7656091387251
 97
        0
 97
        0
 75
     2
 76
     1
 98
        0
  0
SPLINE
  5
43
330
1F
100
AcDbEntity
  8
_U+30EC_U+30A4_U+30E4_U+30FC 1
 62
     7
420
 16777215
370
     9
100
AcDbSpline
210
0.0
220
0.0
230
1.0
 70
    11
 71
     3
 72
    17
 73
    13
 74
     0
 42
0.0000000001
 43
0.0000000001
 12
1.0
 22
0.0
 32
0.0
 13
1.0
 23
0.0
 33
0.0
 40
0.0
 40
0.0
 40
0.0
 40
0.0
 40
1.0
 40
1.0
 40
1.0
 40
2.0
 40
2.0
 40
2.0
 40
3.0
 40
3.0
 40
3.0
 40
4.0
 40
4.0
 40
4.0
 40
4.0
 10
88.61474162813849
 20
-144.4266577416711
 30
0.0
 10
88.61474162813849
 20
-144.3715538527962
 30
0.0
 10
88.5699741292806
 20
-144.3267510750295
 30
0.0
 10
88.51483496402065
 20
-144.3267510750295
 30
0.0
 10
88.45973331121854
 20
-144.3267510750295
 30
0.0
 10
88.41493053345182
 20
-144.3715538527962
 30
0.0
 10
88.41493053345182
 20
-144.4266577416711
 30
0.0
 10
88.41493053345182
 20
-144.4817969083242
 30
0.0
 10
88.45973331121854
 20
-144.5265644083128
 30
0.0
 10
88.51483496402065
 20
-144.5265644083128
 30
0.0
 10
88.5699741292806
 20
-144.5265644083128
 30
0.0
 10
88.61474162813849
 20
-144.4817969083242
 30
0.0
 10
88.61474162813849
 20
-144.4266577416711
 30
0.0
  0
SPLINE
  5
44
330
1F
100
AcDbEntity
  8
_U+30EC_U+30A4_U+30E4_U+30FC 1
 62
     7
420
 16777215
370
     9
100
AcDbSpline
210
0.0
220
0.0
230
1.0
 70
    11
 71
     3
 72
    17
 73
    13
 74
     0
 42
0.0000000001
 43
0.0000000001
 12
1.0
 22
0.0
 32
0.0
 13
1.0
 23
0.0
 33
0.0
 40
0.0
 40
0.0
 40
0.0
 40
0.0
 40
1.0
 40
1.0
 40
1.0
 40
2.0
 40
2.0
 40
2.0
 40
3.0
 40
3.0
 40
3.0
 40
4.0
 40
4.0
 40
4.0
 40
4.0
 10
85.71328559104968
 20
-144.4266577416711
 30
0.0
 10
85.71328559104968
 20
-144.3715538527962
 30
0.0
 10
85.66848281441492
 20
-144.3267510750295
 30
0.0
 10
85.61337892693184
 20
-144.3267510750295
 30
0.0
 10
85.5582397616719
 20
-144.3267510750295
 30
0.0
 10
85.51347226281402
 20
-144.3715538527962
 30
0.0
 10
85.51347226281402
 20
-144.4266577416711
 30
0.0
 10
85.51347226281402
 20
-144.4817969083242
 30
0.0
 10
85.5582397616719
 20
-144.5265644083128
 30
0.0
 10
85.61337892693184
 20
-144.5265644083128
 30
0.0
 10
85.66848281441492
 20
-144.5265644083128
 30
0.0
 10
85.71328559104968
 20
-144.4817969083242
 30
0.0
 10
85.71328559104968
 20
-144.4266577416711
 30
0.0
  0
SPLINE
  5
45
330
1F
100
AcDbEntity
  8
_U+30EC_U+30A4_U+30E4_U+30FC 1
 62
     7
420
 16777215
370
     9
100
AcDbSpline
210
0.0
220
0.0
230
1.0
 70
    11
 71
     3
 72
    17
 73
    13
 74
     0
 42
0.0000000001
 43
0.0000000001
 12
1.0
 22
0.0
 32
0.0
 13
1.0
 23
0.0
 33
0.0
 40
0.0
 40
0.0
 40
0.0
 40
0.0
 40
1.0
 40
1.0
 40
1.0
 40
2.0
 40
2.0
 40
2.0
 40
3.0
 40
3.0
 40
3.0
 40
4.0
 40
4.0
 40
4.0
 40
4.0
 10
98.49802497537561
 20
-113.2732049716817
 30
0.0
 10
98.49802497537561
 20
-113.2180658050289
 30
0.0
 10
98.4532549882482
 20
-113.17329830504
 30
0.0
 10
98.39811582298826
 20
-113.17329830504
 30
0.0
 10
98.34301193550519
 20
-113.17329830504
 30
0.0
 10
98.29820915887042
 20
-113.2180658050289
 30
0.0
 10
98.29820915887042
 20
-113.2732049716817
 30
0.0
 10
98.29820915887042
 20
-113.3283088605569
 30
0.0
 10
98.34301193550519
 20
-113.3731116383233
 30
0.0
 10
98.39811582298826
 20
-113.3731116383233
 30
0.0
 10
98.4532549882482
 20
-113.3731116383233
 30
0.0
 10
98.49802497537561
 20
-113.3283088605569
 30
0.0
 10
98.49802497537561
 20
-113.2732049716817
 30
0.0
  0
SPLINE
  5
46
330
1F
100
AcDbEntity
  8
_U+30EC_U+30A4_U+30E4_U+30FC 1
 62
     7
420
 16777215
370
     9
100
AcDbSpline
210
0.0
220
0.0
230
1.0
 70
    11
 71
     3
 72
    17
 73
    13
 74
     0
 42
0.0000000001
 43
0.0000000001
 12
1.0
 22
0.0
 32
0.0
 13
1.0
 23
0.0
 33
0.0
 40
0.0
 40
0.0
 40
0.0
 40
0.0
 40
1.0
 40
1.0
 40
1.0
 40
2.0
 40
2.0
 40
2.0
 40
3.0
 40
3.0
 40
3.0
 40
4.0
 40
4.0
 40
4.0
 40
4.0
 10
85.78976781132069
 20
-113.2732049716817
 30
0.0
 10
85.78976781132069
 20
-113.2180658050289
 30
0.0
 10
85.74496503468592
 20
-113.17329830504
 30
0.0
 10
85.68986114720285
 20
-113.17329830504
 30
0.0
 10
85.6347219819429
 20
-113.17329830504
 30
0.0
 10
85.58995448308501
 20
-113.2180658050289
 30
0.0
 10
85.58995448308501
 20
-113.2732049716817
 30
0.0
 10
85.58995448308501
 20
-113.3283088605569
 30
0.0
 10
85.6347219819429
 20
-113.3731116383233
 30
0.0
 10
85.68986114720285
 20
-113.3731116383233
 30
0.0
 10
85.74496503468592
 20
-113.3731116383233
 30
0.0
 10
85.78976781132069
 20
-113.3283088605569
 30
0.0
 10
85.78976781132069
 20
-113.2732049716817
 30
0.0
  0
POLYLINE
  5
47
330
1F
100
AcDbEntity
  8
_U+30EC_U+30A4_U+30E4_U+30FC 1
 62
     7
420
 16777215
370
     9
100
AcDb2dPolyline
 66
     1
 10
0.0
 20
0.0
 30
0.0
  0
VERTEX
  5
48
330
47
100
AcDbEntity
  8
_U+30EC_U+30A4_U+30E4_U+30FC 1
 62
     7
420
 16777215
370
     9
100
AcDbVertex
100
AcDb2dVertex
 10
85.68986114720285
 20
-113.2732049716817
 30
0.0
  0
VERTEX
  5
49
330
47
100
AcDbEntity
  8
_U+30EC_U+30A4_U+30E4_U+30FC 1
 62
     7
420
 16777215
370
     9
100
AcDbVertex
100
AcDb2dVertex
 10
98.42774915556558
 20
-113.2732049716817
 30
0.0
  0
SEQEND
  5
4A
330
47
100
AcDbEntity
  8
_U+30EC_U+30A4_U+30E4_U+30FC 1
 62
     7
420
 16777215
370
     9
  0
POLYLINE
  5
4B
330
1F
100
AcDbEntity
  8
_U+30EC_U+30A4_U+30E4_U+30FC 1
 62
     7
420
 16777215
370
     9
100
AcDb2dPolyline
 66
     1
 10
0.0
 20
0.0
 30
0.0
  0
VERTEX
  5
4C
330
4B
100
AcDbEntity
  8
_U+30EC_U+30A4_U+30E4_U+30FC 1
 62
     7
420
 16777215
370
     9
100
AcDbVertex
100
AcDb2dVertex
 10
85.68986114720285
 20
-114.3218721936417
 30
0.0
  0
VERTEX
  5
4D
330
4B
100
AcDbEntity
  8
_U+30EC_U+30A4_U+30E4_U+30FC 1
 62
     7
420
 16777215
370
     9
100
AcDbVertex
100
AcDb2dVertex
 10
85.68986114720285
 20
-112.2734327497094
 30
0.0
  0
SEQEND
  5
4E
330
4B
100
AcDbEntity
  8
_U+30EC_U+30A4_U+30E4_U+30FC 1
 62
     7
420
 16777215
370
     9
  0
POLYLINE
  5
4F
330
1F
100
AcDbEntity
  8
_U+30EC_U+30A4_U+30E4_U+30FC 1
 62
     7
420
 16777215
370
     9
100
AcDb2dPolyline
 66
     1
 10
0.0
 20
0.0
 30
0.0
  0
VERTEX
  5
50
330
4F
100
AcDbEntity
  8
_U+30EC_U+30A4_U+30E4_U+30FC 1
 62
     7
420
 16777215
370
     9
100
AcDbVertex
100
AcDb2dVertex
 10
98.39811582298826
 20
-119.2332091368584
 30
0.0
  0
VERTEX
  5
51
330
4F
100
AcDbEntity
  8
_U+30EC_U+30A4_U+30E4_U+30FC 1
 62
     7
420
 16777215
370
     9
100
AcDbVertex
100
AcDb2dVertex
 10
98.39811582298826
 20
-112.2734327497094
 30
0.0
  0
SEQEND
  5
52
330
4F
100
AcDbEntity
  8
_U+30EC_U+30A4_U+30E4_U+30FC 1
 62
     7
420
 16777215
370
     9
  0
INSERT
  5
54
330
1F
100
AcDbEntity
  8
_U+30EC_U+30A4_U+30E4_U+30FC 1
100
AcDbBlockReference
  2
block 2
 10
0.0
 20
0.0
 30
0.0
  0
SPLINE
  5
5B
330
1F
100
AcDbEntity
  8
_U+30EC_U+30A4_U+30E4_U+30FC 1
 62
     7
420
 16777215
370
     9
100
AcDbSpline
210
0.0
220
0.0
230
1.0
 70
    11
 71
     3
 72
    17
 73
    13
 74
     0
 42
0.0000000001
 43
0.0000000001
 12
1.0
 22
0.0
 32
0.0
 13
1.0
 23
0.0
 33
0.0
 40
0.0
 40
0.0
 40
0.0
 40
0.0
 40
1.0
 40
1.0
 40
1.0
 40
2.0
 40
2.0
 40
2.0
 40
3.0
 40
3.0
 40
3.0
 40
4.0
 40
4.0
 40
4.0
 40
4.0
 10
101.5631321311309
 20
-120.9344094142108
 30
0.0
 10
101.5080282436478
 20
-120.9344094142108
 30
0.0
 10
101.463225467013
 20
-120.9791769141997
 30
0.0
 10
101.463225467013
 20
-121.0343160808525
 30
0.0
 10
101.463225467013
 20
-121.0894199697277
 30
0.0
 10
101.5080282436478
 20
-121.1342227474941
 30
0.0
 10
101.5631321311309
 20
-121.1342227474941
 30
0.0
 10
101.6182712963908
 20
-121.1342227474941
 30
0.0
 10
101.6630387952487
 20
-121.0894199697277
 30
0.0
 10
101.6630387952487
 20
-121.0343160808525
 30
0.0
 10
101.6630387952487
 20
-120.9791769141997
 30
0.0
 10
101.6182712963908
 20
-120.9344094142108
 30
0.0
 10
101.5631321311309
 20
-120.9344094142108
 30
0.0
  0
SPLINE
  5
5C
330
1F
100
AcDbEntity
  8
_U+30EC_U+30A4_U+30E4_U+30FC 1
 62
     7
420
 16777215
370
     9
100
AcDbSpline
210
0.0
220
0.0
230
1.0
 70
    11
 71
     3
 72
    17
 73
    13
 74
     0
 42
0.0000000001
 43
0.0000000001
 12
1.0
 22
0.0
 32
0.0
 13
1.0
 23
0.0
 33
0.0
 40
0.0
 40
0.0
 40
0.0
 40
0.0
 40
1.0
 40
1.0
 40
1.0
 40
2.0
 40
2.0
 40
2.0
 40
3.0
 40
3.0
 40
3.0
 40
4.0
 40
4.0
 40
4.0
 40
4.0
 10
101.5631321311309
 20
-128.3340996901385
 30
0.0
 10
101.5080282436478
 20
-128.3340996901385
 30
0.0
 10
101.463225467013
 20
-128.3789024679053
 30
0.0
 10
101.463225467013
 20
-128.4340063567805
 30
0.0
 10
101.463225467013
 20
-128.4891455234333
 30
0.0
 10
101.5080282436478
 20
-128.5339130234221
 30
0.0
 10
101.5631321311309
 20
-128.5339130234221
 30
0.0
 10
101.6182712963908
 20
-128.5339130234221
 30
0.0
 10
101.6630387952487
 20
-128.4891455234333
 30
0.0
 10
101.6630387952487
 20
-128.4340063567805
 30
0.0
 10
101.6630387952487
 20
-128.3789024679053
 30
0.0
 10
101.6182712963908
 20
-128.3340996901385
 30
0.0
 10
101.5631321311309
 20
-128.3340996901385
 30
0.0
  0
POLYLINE
  5
5D
330
1F
100
AcDbEntity
  8
_U+30EC_U+30A4_U+30E4_U+30FC 1
 62
     7
420
 16777215
370
     9
100
AcDb2dPolyline
 66
     1
 10
0.0
 20
0.0
 30
0.0
  0
VERTEX
  5
5E
330
5D
100
AcDbEntity
  8
_U+30EC_U+30A4_U+30E4_U+30FC 1
 62
     7
420
 16777215
370
     9
100
AcDbVertex
100
AcDb2dVertex
 10
101.5631321311309
 20
-128.3575241345773
 30
0.0
  0
VERTEX
  5
5F
330
5D
100
AcDbEntity
  8
_U+30EC_U+30A4_U+30E4_U+30FC 1
 62
     7
420
 16777215
370
     9
100
AcDbVertex
100
AcDb2dVertex
 10
101.5631321311309
 20
-121.0708285808434
 30
0.0
  0
SEQEND
  5
60
330
5D
100
AcDbEntity
  8
_U+30EC_U+30A4_U+30E4_U+30FC 1
 62
     7
420
 16777215
370
     9
  0
POLYLINE
  5
61
330
1F
100
AcDbEntity
  8
_U+30EC_U+30A4_U+30E4_U+30FC 1
 62
     7
420
 16777215
370
     9
100
AcDb2dPolyline
 66
     1
 10
0.0
 20
0.0
 30
0.0
  0
VERTEX
  5
62
330
61
100
AcDbEntity
  8
_U+30EC_U+30A4_U+30E4_U+30FC 1
 62
     7
420
 16777215
370
     9
100
AcDbVertex
100
AcDb2dVertex
 10
102.6118346043762
 20
-128.4340063567805
 30
0.0
  0
VERTEX
  5
63
330
61
100
AcDbEntity
  8
_U+30EC_U+30A4_U+30E4_U+30FC 1
 62
     7
420
 16777215
370
     9
100
AcDbVertex
100
AcDb2dVertex
 10
100.5630071566462
 20
-128.4340063567805
 30
0.0
  0
SEQEND
  5
64
330
61
100
AcDbEntity
  8
_U+30EC_U+30A4_U+30E4_U+30FC 1
 62
     7
420
 16777215
370
     9
  0
POLYLINE
  5
65
330
1F
100
AcDbEntity
  8
_U+30EC_U+30A4_U+30E4_U+30FC 1
 62
     7
420
 16777215
370
     9
100
AcDb2dPolyline
 66
     1
 10
0.0
 20
0.0
 30
0.0
  0
VERTEX
  5
66
330
65
100
AcDbEntity
  8
_U+30EC_U+30A4_U+30E4_U+30FC 1
 62
     7
420
 16777215
370
     9
100
AcDbVertex
100
AcDb2dVertex
 10
102.6118346043762
 20
-121.0343160808525
 30
0.0
  0
VERTEX
  5
67
330
65
100
AcDbEntity
  8
_U+30EC_U+30A4_U+30E4_U+30FC 1
 62
     7
420
 16777215
370
     9
100
AcDbVertex
100
AcDb2dVertex
 10
100.5630071566462
 20
-121.0343160808525
 30
0.0
  0
SEQEND
  5
68
330
65
100
AcDbEntity
  8
_U+30EC_U+30A4_U+30E4_U+30FC 1
 62
     7
420
 16777215
370
     9
  0
INSERT
  5
6A
330
1F
100
AcDbEntity
  8
_U+30EC_U+30A4_U+30E4_U+30FC 1
100
AcDbBlockReference
  2
block 3
 10
0.0
 20
0.0
 30
0.0
  0
SPLINE
  5
6F
330
1F
100
AcDbEntity
  8
_U+30EC_U+30A4_U+30E4_U+30FC 1
 62
     7
420
 16777215
370
     9
100
AcDbSpline
210
0.0
220
0.0
230
1.0
 70
    11
 71
     3
 72
    17
 73
    13
 74
     0
 42
0.0000000001
 43
0.0000000001
 12
1.0
 22
0.0
 32
0.0
 13
1.0
 23
0.0
 33
0.0
 40
0.0
 40
0.0
 40
0.0
 40
0.0
 40
1.0
 40
1.0
 40
1.0
 40
2.0
 40
2.0
 40
2.0
 40
3.0
 40
3.0
 40
3.0
 40
4.0
 40
4.0
 40
4.0
 40
4.0
 10
101.5631321311309
 20
-135.3343749661664
 30
0.0
 10
101.5080282436478
 20
-135.3343749661664
 30
0.0
 10
101.463225467013
 20
-135.3791777439331
 30
0.0
 10
101.463225467013
 20
-135.4342816328081
 30
0.0
 10
101.463225467013
 20
-135.4894207994611
 30
0.0
 10
101.5080282436478
 20
-135.5341882994497
 30
0.0
 10
101.5631321311309
 20
-135.5341882994497
 30
0.0
 10
101.6182712963908
 20
-135.5341882994497
 30
0.0
 10
101.6630387952487
 20
-135.4894207994611
 30
0.0
 10
101.6630387952487
 20
-135.4342816328081
 30
0.0
 10
101.6630387952487
 20
-135.3791777439331
 30
0.0
 10
101.6182712963908
 20
-135.3343749661664
 30
0.0
 10
101.5631321311309
 20
-135.3343749661664
 30
0.0
  0
POLYLINE
  5
70
330
1F
100
AcDbEntity
  8
_U+30EC_U+30A4_U+30E4_U+30FC 1
 62
     7
420
 16777215
370
     9
100
AcDb2dPolyline
 66
     1
 10
0.0
 20
0.0
 30
0.0
  0
VERTEX
  5
71
330
70
100
AcDbEntity
  8
_U+30EC_U+30A4_U+30E4_U+30FC 1
 62
     7
420
 16777215
370
     9
100
AcDbVertex
100
AcDb2dVertex
 10
101.5631321311309
 20
-135.5341882994497
 30
0.0
  0
VERTEX
  5
72
330
70
100
AcDbEntity
  8
_U+30EC_U+30A4_U+30E4_U+30FC 1
 62
     7
420
 16777215
370
     9
100
AcDbVertex
100
AcDb2dVertex
 10
101.5631321311309
 20
-128.5339130234221
 30
0.0
  0
SEQEND
  5
73
330
70
100
AcDbEntity
  8
_U+30EC_U+30A4_U+30E4_U+30FC 1
 62
     7
420
 16777215
370
     9
  0
POLYLINE
  5
74
330
1F
100
AcDbEntity
  8
_U+30EC_U+30A4_U+30E4_U+30FC 1
 62
     7
420
 16777215
370
     9
100
AcDb2dPolyline
 66
     1
 10
0.0
 20
0.0
 30
0.0
  0
VERTEX
  5
75
330
74
100
AcDbEntity
  8
_U+30EC_U+30A4_U+30E4_U+30FC 1
 62
     7
420
 16777215
370
     9
100
AcDbVertex
100
AcDb2dVertex
 10
102.6118346043762
 20
-135.4342816328081
 30
0.0
  0
VERTEX
  5
76
330
74
100
AcDbEntity
  8
_U+30EC_U+30A4_U+30E4_U+30FC 1
 62
     7
420
 16777215
370
     9
100
AcDbVertex
100
AcDb2dVertex
 10
100.5630071566462
 20
-135.4342816328081
 30
0.0
  0
SEQEND
  5
77
330
74
100
AcDbEntity
  8
_U+30EC_U+30A4_U+30E4_U+30FC 1
 62
     7
420
 16777215
370
     9
  0
INSERT
  5
79
330
1F
100
AcDbEntity
  8
_U+30EC_U+30A4_U+30E4_U+30FC 1
100
AcDbBlockReference
  2
block 4
 10
0.0
 20
0.0
 30
0.0
  0
POLYLINE
  5
7E
330
1F
100
AcDbEntity
  8
_U+30EC_U+30A4_U+30E4_U+30FC 1
 62
     7
420
 16777215
370
     9
100
AcDb2dPolyline
 66
     1
 10
0.0
 20
0.0
 30
0.0
  0
VERTEX
  5
7F
330
7E
100
AcDbEntity
  8
_U+30EC_U+30A4_U+30E4_U+30FC 1
 62
     7
420
 16777215
370
     9
100
AcDbVertex
100
AcDb2dVertex
 10
85.61337892693184
 20
-144.4266577416711
 30
0.0
  0
VERTEX
  5
80
330
7E
100
AcDbEntity
  8
_U+30EC_U+30A4_U+30E4_U+30FC 1
 62
     7
420
 16777215
370
     9
100
AcDbVertex
100
AcDb2dVertex
 10
88.61336579484025
 20
-144.4266577416711
 30
0.0
  0
SEQEND
  5
81
330
7E
100
AcDbEntity
  8
_U+30EC_U+30A4_U+30E4_U+30FC 1
 62
     7
420
 16777215
370
     9
  0
POLYLINE
  5
82
330
1F
100
AcDbEntity
  8
_U+30EC_U+30A4_U+30E4_U+30FC 1
 62
     7
420
 16777215
370
     9
100
AcDb2dPolyline
 66
     1
 10
0.0
 20
0.0
 30
0.0
  0
VERTEX
  5
83
330
82
100
AcDbEntity
  8
_U+30EC_U+30A4_U+30E4_U+30FC 1
 62
     7
420
 16777215
370
     9
100
AcDbVertex
100
AcDb2dVertex
 10
85.61337892693184
 20
-143.3779905197114
 30
0.0
  0
VERTEX
  5
84
330
82
100
AcDbEntity
  8
_U+30EC_U+30A4_U+30E4_U+30FC 1
 62
     7
420
 16777215
370
     9
100
AcDbVertex
100
AcDb2dVertex
 10
85.61337892693184
 20
-145.4264299636437
 30
0.0
  0
SEQEND
  5
85
330
82
100
AcDbEntity
  8
_U+30EC_U+30A4_U+30E4_U+30FC 1
 62
     7
420
 16777215
370
     9
  0
POLYLINE
  5
86
330
1F
100
AcDbEntity
  8
_U+30EC_U+30A4_U+30E4_U+30FC 1
 62
     7
420
 16777215
370
     9
100
AcDb2dPolyline
 66
     1
 10
0.0
 20
0.0
 30
0.0
  0
VERTEX
  5
87
330
86
100
AcDbEntity
  8
_U+30EC_U+30A4_U+30E4_U+30FC 1
 62
     7
420
 16777215
370
     9
100
AcDbVertex
100
AcDb2dVertex
 10
88.51483496402065
 20
-137.3035805212298
 30
0.0
  0
VERTEX
  5
88
330
86
100
AcDbEntity
  8
_U+30EC_U+30A4_U+30E4_U+30FC 1
 62
     7
420
 16777215
370
     9
100
AcDbVertex
100
AcDb2dVertex
 10
88.51483496402065
 20
-145.4264299636437
 30
0.0
  0
SEQEND
  5
89
330
86
100
AcDbEntity
  8
_U+30EC_U+30A4_U+30E4_U+30FC 1
 62
     7
420
 16777215
370
     9
  0
INSERT
  5
8B
330
1F
100
AcDbEntity
  8
_U+30EC_U+30A4_U+30E4_U+30FC 1
100
AcDbBlockReference
  2
block 5
 10
0.0
 20
0.0
 30
0.0
  0
SPLINE
  5
90
330
1F
100
AcDbEntity
  8
_U+30EC_U+30A4_U+30E4_U+30FC 1
 62
     7
420
 16777215
370
     9
100
AcDbSpline
210
0.0
220
0.0
230
1.0
 70
    11
 71
     3
 72
    17
 73
    13
 74
     0
 42
0.0000000001
 43
0.0000000001
 12
1.0
 22
0.0
 32
0.0
 13
1.0
 23
0.0
 33
0.0
 40
0.0
 40
0.0
 40
0.0
 40
0.0
 40
1.0
 40
1.0
 40
1.0
 40
2.0
 40
2.0
 40
2.0
 40
3.0
 40
3.0
 40
3.0
 40
4.0
 40
4.0
 40
4.0
 40
4.0
 10
80.4092012819237
 20
-145.6965166302424
 30
0.0
 10
80.4092012819237
 20
-145.6407071858119
 30
0.0
 10
80.36443378306582
 20
-145.5959396858234
 30
0.0
 10
80.30929461780588
 20
-145.5959396858234
 30
0.0
 10
80.25348517478524
 20
-145.5959396858234
 30
0.0
 10
80.20871767592736
 20
-145.6407071858119
 30
0.0
 10
80.20871767592736
 20
-145.6965166302424
 30
0.0
 10
80.20871767592736
 20
-145.7516557968955
 30
0.0
 10
80.25348517478524
 20
-145.7964585746622
 30
0.0
 10
80.30929461780588
 20
-145.7964585746622
 30
0.0
 10
80.36443378306582
 20
-145.7964585746622
 30
0.0
 10
80.4092012819237
 20
-145.7516557968955
 30
0.0
 10
80.4092012819237
 20
-145.6965166302424
 30
0.0
  0
SPLINE
  5
91
330
1F
100
AcDbEntity
  8
_U+30EC_U+30A4_U+30E4_U+30FC 1
 62
     7
420
 16777215
370
     9
100
AcDbSpline
210
0.0
220
0.0
230
1.0
 70
    11
 71
     3
 72
    17
 73
    13
 74
     0
 42
0.0000000001
 43
0.0000000001
 12
1.0
 22
0.0
 32
0.0
 13
1.0
 23
0.0
 33
0.0
 40
0.0
 40
0.0
 40
0.0
 40
0.0
 40
1.0
 40
1.0
 40
1.0
 40
2.0
 40
2.0
 40
2.0
 40
3.0
 40
3.0
 40
3.0
 40
4.0
 40
4.0
 40
4.0
 40
4.0
 10
80.4092012819237
 20
-111.6960413609649
 30
0.0
 10
80.4092012819237
 20
-111.6409021943121
 30
0.0
 10
80.36443378306582
 20
-111.5960994165454
 30
0.0
 10
80.30929461780588
 20
-111.5960994165454
 30
0.0
 10
80.25348517478524
 20
-111.5960994165454
 30
0.0
 10
80.20871767592736
 20
-111.6409021943121
 30
0.0
 10
80.20871767592736
 20
-111.6960413609649
 30
0.0
 10
80.20871767592736
 20
-111.7518508053953
 30
0.0
 10
80.25348517478524
 20
-111.7966183053842
 30
0.0
 10
80.30929461780588
 20
-111.7966183053842
 30
0.0
 10
80.36443378306582
 20
-111.7966183053842
 30
0.0
 10
80.4092012819237
 20
-111.7518508053953
 30
0.0
 10
80.4092012819237
 20
-111.6960413609649
 30
0.0
  0
POLYLINE
  5
92
330
1F
100
AcDbEntity
  8
_U+30EC_U+30A4_U+30E4_U+30FC 1
 62
     7
420
 16777215
370
     9
100
AcDb2dPolyline
 66
     1
 10
0.0
 20
0.0
 30
0.0
  0
VERTEX
  5
93
330
92
100
AcDbEntity
  8
_U+30EC_U+30A4_U+30E4_U+30FC 1
 62
     7
420
 16777215
370
     9
100
AcDbVertex
100
AcDb2dVertex
 10
80.30929461780588
 20
-145.6965166302424
 30
0.0
  0
VERTEX
  5
94
330
92
100
AcDbEntity
  8
_U+30EC_U+30A4_U+30E4_U+30FC 1
 62
     7
420
 16777215
370
     9
100
AcDbVertex
100
AcDb2dVertex
 10
80.30929461780588
 20
-111.6960413609649
 30
0.0
  0
SEQEND
  5
95
330
92
100
AcDbEntity
  8
_U+30EC_U+30A4_U+30E4_U+30FC 1
 62
     7
420
 16777215
370
     9
  0
POLYLINE
  5
96
330
1F
100
AcDbEntity
  8
_U+30EC_U+30A4_U+30E4_U+30FC 1
 62
     7
420
 16777215
370
     9
100
AcDb2dPolyline
 66
     1
 10
0.0
 20
0.0
 30
0.0
  0
VERTEX
  5
97
330
96
100
AcDbEntity
  8
_U+30EC_U+30A4_U+30E4_U+30FC 1
 62
     7
420
 16777215
370
     9
100
AcDbVertex
100
AcDb2dVertex
 10
81.35799709105125
 20
-145.6965166302424
 30
0.0
  0
VERTEX
  5
98
330
96
100
AcDbEntity
  8
_U+30EC_U+30A4_U+30E4_U+30FC 1
 62
     7
420
 16777215
370
     9
100
AcDbVertex
100
AcDb2dVertex
 10
79.30885214332929
 20
-145.6965166302424
 30
0.0
  0
SEQEND
  5
99
330
96
100
AcDbEntity
  8
_U+30EC_U+30A4_U+30E4_U+30FC 1
 62
     7
420
 16777215
370
     9
  0
POLYLINE
  5
9A
330
1F
100
AcDbEntity
  8
_U+30EC_U+30A4_U+30E4_U+30FC 1
 62
     7
420
 16777215
370
     9
100
AcDb2dPolyline
 66
     1
 10
0.0
 20
0.0
 30
0.0
  0
VERTEX
  5
9B
330
9A
100
AcDbEntity
  8
_U+30EC_U+30A4_U+30E4_U+30FC 1
 62
     7
420
 16777215
370
     9
100
AcDbVertex
100
AcDb2dVertex
 10
81.35799709105125
 20
-111.6960413609649
 30
0.0
  0
VERTEX
  5
9C
330
9A
100
AcDbEntity
  8
_U+30EC_U+30A4_U+30E4_U+30FC 1
 62
     7
420
 16777215
370
     9
100
AcDbVertex
100
AcDb2dVertex
 10
79.30885214332929
 20
-111.6960413609649
 30
0.0
  0
SEQEND
  5
9D
330
9A
100
AcDbEntity
  8
_U+30EC_U+30A4_U+30E4_U+30FC 1
 62
     7
420
 16777215
370
     9
  0
INSERT
  5
9F
330
1F
100
AcDbEntity
  8
_U+30EC_U+30A4_U+30E4_U+30FC 1
100
AcDbBlockReference
  2
block 6
 10
0.0
 20
0.0
 30
0.0
  0
SPLINE
  5
B9
330
1F
100
AcDbEntity
  8
_U+30EC_U+30A4_U+30E4_U+30FC 1
 62
     7
420
 16777215
370
    25
100
AcDbSpline
210
0.0
220
0.0
230
1.0
 70
     8
 71
     3
 72
    14
 73
    10
 74
     0
 42
0.0000000001
 43
0.0000000001
 12
1.0
 22
0.0
 32
0.0
 13
1.0
 23
0.0
 33
0.0
 40
0.0
 40
0.0
 40
0.0
 40
0.0
 40
1.0
 40
1.0
 40
1.0
 40
2.0
 40
2.0
 40
2.0
 40
3.0
 40
3.0
 40
3.0
 40
3.0
 10
99.4233938523868
 20
-127.6185605236508
 30
0.0
 10
99.4233938523868
 20
-127.6185605236508
 30
0.0
 10
99.41443329705984
 20
-128.0354380235466
 30
0.0
 10
99.41443329705984
 20
-128.0354380235466
 30
0.0
 10
99.41443329705984
 20
-128.0354380235466
 30
0.0
 10
99.47645162881095
 20
-128.4005983012331
 30
0.0
 10
99.0492377508212
 20
-128.4005983012331
 30
0.0
 10
99.0492377508212
 20
-128.4005983012331
 30
0.0
 10
98.44912748835351
 20
-128.4005983012331
 30
0.0
 10
98.44912748835351
 20
-128.4005983012331
 30
0.0
  0
POLYLINE
  5
BA
330
1F
100
AcDbEntity
  8
_U+30EC_U+30A4_U+30E4_U+30FC 1
 62
     7
420
 16777215
370
    25
100
AcDb2dPolyline
 66
     1
 10
0.0
 20
0.0
 30
0.0
  0
VERTEX
  5
BB
330
BA
100
AcDbEntity
  8
_U+30EC_U+30A4_U+30E4_U+30FC 1
 62
     7
420
 16777215
370
    25
100
AcDbVertex
100
AcDb2dVertex
 10
89.360937164657
 20
-134.6619099663347
 30
0.0
  0
VERTEX
  5
BC
330
BA
100
AcDbEntity
  8
_U+30EC_U+30A4_U+30E4_U+30FC 1
 62
     7
420
 16777215
370
    25
100
AcDbVertex
100
AcDb2dVertex
 10
89.360937164657
 20
-128.809361912242
 30
0.0
  0
SEQEND
  5
BD
330
BA
100
AcDbEntity
  8
_U+30EC_U+30A4_U+30E4_U+30FC 1
 62
     7
420
 16777215
370
    25
  0
SPLINE
  5
BE
330
1F
100
AcDbEntity
  8
_U+30EC_U+30A4_U+30E4_U+30FC 1
 62
     7
420
 16777215
370
    25
100
AcDbSpline
210
0.0
220
0.0
230
1.0
 70
     8
 71
     3
 72
    14
 73
    10
 74
     0
 42
0.0000000001
 43
0.0000000001
 12
1.0
 22
0.0
 32
0.0
 13
1.0
 23
0.0
 33
0.0
 40
0.0
 40
0.0
 40
0.0
 40
0.0
 40
1.0
 40
1.0
 40
1.0
 40
2.0
 40
2.0
 40
2.0
 40
3.0
 40
3.0
 40
3.0
 40
3.0
 10
88.36049469018042
 20
-128.3437658012475
 30
0.0
 10
88.36049469018042
 20
-128.3437658012475
 30
0.0
 10
88.36049469018042
 20
-135.3440057994972
 30
0.0
 10
88.36049469018042
 20
-135.3440057994972
 30
0.0
 10
88.36049469018042
 20
-135.3440057994972
 30
0.0
 10
88.38600275568116
 20
-135.5858702438815
 30
0.0
 10
88.79800967901848
 20
-135.3212869106143
 30
0.0
 10
88.79800967901848
 20
-135.3212869106143
 30
0.0
 10
89.32717633218499
 20
-134.8803146885023
 30
0.0
 10
89.38577497765371
 20
-134.5275369108127
 30
0.0
  0
POLYLINE
  5
BF
330
1F
100
AcDbEntity
  8
_U+30EC_U+30A4_U+30E4_U+30FC 1
 62
     7
420
 16777215
370
    25
100
AcDb2dPolyline
 66
     1
 10
0.0
 20
0.0
 30
0.0
  0
VERTEX
  5
C0
330
BF
100
AcDbEntity
  8
_U+30EC_U+30A4_U+30E4_U+30FC 1
 62
     7
420
 16777215
370
    25
100
AcDbVertex
100
AcDb2dVertex
 10
85.41769309859087
 20
-128.3437658012475
 30
0.0
  0
VERTEX
  5
C1
330
BF
100
AcDbEntity
  8
_U+30EC_U+30A4_U+30E4_U+30FC 1
 62
     7
420
 16777215
370
    25
100
AcDbVertex
100
AcDb2dVertex
 10
85.41769309859087
 20
-135.3440057994972
 30
0.0
  0
SEQEND
  5
C2
330
BF
100
AcDbEntity
  8
_U+30EC_U+30A4_U+30E4_U+30FC 1
 62
     7
420
 16777215
370
    25
  0
SPLINE
  5
C3
330
1F
100
AcDbEntity
  8
_U+30EC_U+30A4_U+30E4_U+30FC 1
 62
     7
420
 16777215
370
    25
100
AcDbSpline
210
0.0
220
0.0
230
1.0
 70
     8
 71
     3
 72
     8
 73
     4
 74
     0
 42
0.0000000001
 43
0.0000000001
 12
1.0
 22
0.0
 32
0.0
 13
1.0
 23
0.0
 33
0.0
 40
0.0
 40
0.0
 40
0.0
 40
0.0
 40
1.0
 40
1.0
 40
1.0
 40
1.0
 10
89.86876076281246
 20
-128.4005983012331
 30
0.0
 10
89.58900799217177
 20
-128.4005983012331
 30
0.0
 10
89.36164272019457
 20
-128.6176271900678
 30
0.0
 10
89.36164272019457
 20
-128.8858441344452
 30
0.0
  0
POLYLINE
  5
C4
330
1F
100
AcDbEntity
  8
_U+30EC_U+30A4_U+30E4_U+30FC 1
 62
     7
420
 16777215
370
    25
100
AcDb2dPolyline
 66
     1
 10
0.0
 20
0.0
 30
0.0
  0
VERTEX
  5
C5
330
C4
100
AcDbEntity
  8
_U+30EC_U+30A4_U+30E4_U+30FC 1
 62
     7
420
 16777215
370
    25
100
AcDbVertex
100
AcDb2dVertex
 10
85.31778643447304
 20
-112.3058177497014
 30
0.0
  0
VERTEX
  5
C6
330
C4
100
AcDbEntity
  8
_U+30EC_U+30A4_U+30E4_U+30FC 1
 62
     7
420
 16777215
370
    25
100
AcDbVertex
100
AcDb2dVertex
 10
85.31778643447304
 20
-121.3057785807847
 30
0.0
  0
SEQEND
  5
C7
330
C4
100
AcDbEntity
  8
_U+30EC_U+30A4_U+30E4_U+30FC 1
 62
     7
420
 16777215
370
    25
  0
SPLINE
  5
C8
330
1F
100
AcDbEntity
  8
_U+30EC_U+30A4_U+30E4_U+30FC 1
 62
     7
420
 16777215
370
    25
100
AcDbSpline
210
0.0
220
0.0
230
1.0
 70
     8
 71
     3
 72
    14
 73
    10
 74
     0
 42
0.0000000001
 43
0.0000000001
 12
1.0
 22
0.0
 32
0.0
 13
1.0
 23
0.0
 33
0.0
 40
0.0
 40
0.0
 40
0.0
 40
0.0
 40
1.0
 40
1.0
 40
1.0
 40
2.0
 40
2.0
 40
2.0
 40
3.0
 40
3.0
 40
3.0
 40
3.0
 10
84.41725275667335
 20
-145.7867924635532
 30
0.0
 10
84.41725275667335
 20
-145.7867924635532
 30
0.0
 10
84.41725275667335
 20
-112.0081438608867
 30
0.0
 10
84.41725275667335
 20
-112.0081438608867
 30
0.0
 10
84.41725275667335
 20
-112.0081438608867
 30
0.0
 10
84.35869164557714
 20
-110.9646271944811
 30
0.0
 10
85.31432921233902
 20
-112.1993494163946
 30
0.0
 10
85.31432921233902
 20
-112.1993494163946
 30
0.0
 10
85.31778643447304
 20
-112.3058177497014
 30
0.0
 10
85.31778643447304
 20
-112.3058177497014
 30
0.0
  0
POLYLINE
  5
C9
330
1F
100
AcDbEntity
  8
_U+30EC_U+30A4_U+30E4_U+30FC 1
 62
     7
420
 16777215
370
    25
100
AcDb2dPolyline
 66
     1
 10
0.0
 20
0.0
 30
0.0
  0
VERTEX
  5
CA
330
C9
100
AcDbEntity
  8
_U+30EC_U+30A4_U+30E4_U+30FC 1
 62
     7
420
 16777215
370
    25
100
AcDbVertex
100
AcDb2dVertex
 10
85.41769309859087
 20
-121.3057785807847
 30
0.0
  0
VERTEX
  5
CB
330
C9
100
AcDbEntity
  8
_U+30EC_U+30A4_U+30E4_U+30FC 1
 62
     7
420
 16777215
370
    25
100
AcDbVertex
100
AcDb2dVertex
 10
85.41769309859087
 20
-127.3057524681737
 30
0.0
  0
SEQEND
  5
CC
330
C9
100
AcDbEntity
  8
_U+30EC_U+30A4_U+30E4_U+30FC 1
 62
     7
420
 16777215
370
    25
  0
INSERT
  5
CE
330
1F
100
AcDbEntity
  8
_U+30EC_U+30A4_U+30E4_U+30FC 1
100
AcDbBlockReference
  2
block 7
 10
0.0
 20
0.0
 30
0.0
  0
SPLINE
  5
D2
330
1F
100
AcDbEntity
  8
_U+30EC_U+30A4_U+30E4_U+30FC 1
 62
     7
420
 16777215
370
    25
100
AcDbSpline
210
0.0
220
0.0
230
1.0
 70
     8
 71
     3
 72
    17
 73
    13
 74
     0
 42
0.0000000001
 43
0.0000000001
 12
1.0
 22
0.0
 32
0.0
 13
1.0
 23
0.0
 33
0.0
 40
0.0
 40
0.0
 40
0.0
 40
0.0
 40
1.0
 40
1.0
 40
1.0
 40
2.0
 40
2.0
 40
2.0
 40
3.0
 40
3.0
 40
3.0
 40
4.0
 40
4.0
 40
4.0
 40
4.0
 10
98.4174127669404
 20
-127.3436408014976
 30
0.0
 10
98.4174127669404
 20
-127.3436408014976
 30
0.0
 10
98.4174127669404
 20
-121.3436669141086
 30
0.0
 10
98.4174127669404
 20
-121.3436669141086
 30
0.0
 10
98.4174127669404
 20
-121.3436669141086
 30
0.0
 10
98.38435749000593
 20
-121.0921716363935
 30
0.0
 10
98.70750192620628
 20
-121.3274744141126
 30
0.0
 10
98.70750192620628
 20
-121.3274744141126
 30
0.0
 10
99.30348468877926
 20
-121.890049136194
 30
0.0
 10
99.41718496365631
 20
-122.3437919138585
 30
0.0
 10
99.41718496365631
 20
-122.3437919138585
 30
0.0
 10
99.41718496365631
 20
-128.1615208012928
 30
0.0
 10
99.41718496365631
 20
-128.1615208012928
 30
0.0
  0
POLYLINE
  5
D3
330
1F
100
AcDbEntity
  8
_U+30EC_U+30A4_U+30E4_U+30FC 1
 62
     7
420
 16777215
370
    25
100
AcDb2dPolyline
 66
     1
 10
0.0
 20
0.0
 30
0.0
  0
VERTEX
  5
D4
330
D3
100
AcDbEntity
  8
_U+30EC_U+30A4_U+30E4_U+30FC 1
 62
     7
420
 16777215
370
    25
100
AcDbVertex
100
AcDb2dVertex
 10
85.41769309859087
 20
-127.3436408014976
 30
0.0
  0
VERTEX
  5
D5
330
D3
100
AcDbEntity
  8
_U+30EC_U+30A4_U+30E4_U+30FC 1
 62
     7
420
 16777215
370
    25
100
AcDbVertex
100
AcDb2dVertex
 10
98.4174127669404
 20
-127.3436408014976
 30
0.0
  0
SEQEND
  5
D6
330
D3
100
AcDbEntity
  8
_U+30EC_U+30A4_U+30E4_U+30FC 1
 62
     7
420
 16777215
370
    25
  0
POLYLINE
  5
D7
330
1F
100
AcDbEntity
  8
_U+30EC_U+30A4_U+30E4_U+30FC 1
 62
     7
420
 16777215
370
    25
100
AcDb2dPolyline
 66
     1
 10
0.0
 20
0.0
 30
0.0
  0
VERTEX
  5
D8
330
D7
100
AcDbEntity
  8
_U+30EC_U+30A4_U+30E4_U+30FC 1
 62
     7
420
 16777215
370
    25
100
AcDbVertex
100
AcDb2dVertex
 10
89.90735465071674
 20
-128.4005983012331
 30
0.0
  0
VERTEX
  5
D9
330
D7
100
AcDbEntity
  8
_U+30EC_U+30A4_U+30E4_U+30FC 1
 62
     7
420
 16777215
370
    25
100
AcDbVertex
100
AcDb2dVertex
 10
98.4174127669404
 20
-128.4005983012331
 30
0.0
  0
SEQEND
  5
DA
330
D7
100
AcDbEntity
  8
_U+30EC_U+30A4_U+30E4_U+30FC 1
 62
     7
420
 16777215
370
    25
  0
POLYLINE
  5
DB
330
1F
100
AcDbEntity
  8
_U+30EC_U+30A4_U+30E4_U+30FC 1
 62
     7
420
 16777215
370
    25
100
AcDb2dPolyline
 66
     1
 10
0.0
 20
0.0
 30
0.0
  0
VERTEX
  5
DC
330
DB
100
AcDbEntity
  8
_U+30EC_U+30A4_U+30E4_U+30FC 1
 62
     7
420
 16777215
370
    25
100
AcDbVertex
100
AcDb2dVertex
 10
85.4314888675309
 20
-128.3437658012475
 30
0.0
  0
VERTEX
  5
DD
330
DB
100
AcDbEntity
  8
_U+30EC_U+30A4_U+30E4_U+30FC 1
 62
     7
420
 16777215
370
    25
100
AcDbVertex
100
AcDb2dVertex
 10
88.36049469018042
 20
-128.3437658012475
 30
0.0
  0
SEQEND
  5
DE
330
DB
100
AcDbEntity
  8
_U+30EC_U+30A4_U+30E4_U+30FC 1
 62
     7
420
 16777215
370
    25
  0
ENDSEC
  0
SECTION
  2
OBJECTS
  0
DICTIONARY
  5
C
330
0
100
AcDbDictionary
281
     1
  3
ACAD_GROUP
350
D
  3
ACAD_LAYOUT
350
1A
  3
ACAD_MATERIAL
350
3B
  3
ACAD_MLEADERSTYLE
350
E0
  3
ACAD_MLINESTYLE
350
17
  3
ACAD_PLOTSETTINGS
350
19
  3
ACAD_PLOTSTYLENAME
350
E
  3
ACAD_TABLESTYLE
350
DF
  3
ACAD_VISUALSTYLE
350
2A
  0
SUN
  5
3F
330
29
100
AcDbSun
 90
        1
290
     0
 63
     7
421
 16777215
 40
1.0
291
     1
 91
  2455826
 92
 54000000
292
     0
 70
     2
 71
   256
280
     1
  0
DICTIONARY
  5
D
102
{ACAD_REACTORS
330
C
102
}
330
C
100
AcDbDictionary
281
     1
  0
DICTIONARY
  5
1A
102
{ACAD_REACTORS
330
C
102
}
330
C
100
AcDbDictionary
281
     1
  3
Layout1
350
1E
  3
Layout2
350
26
  3
Model
350
22
  0
DICTIONARY
  5
3B
102
{ACAD_REACTORS
330
C
102
}
330
C
100
AcDbDictionary
281
     1
  3
ByBlock
350
3D
  3
ByLayer
350
3C
  3
Global
350
3E
  0
DICTIONARY
  5
E0
102
{ACAD_REACTORS
330
C
102
}
330
C
100
AcDbDictionary
281
     1
  0
DICTIONARY
  5
17
102
{ACAD_REACTORS
330
C
102
}
330
C
100
AcDbDictionary
281
     1
  3
Standard
350
18
  0
DICTIONARY
  5
19
102
{ACAD_REACTORS
330
C
102
}
330
C
100
AcDbDictionary
281
     1
  0
ACDBDICTIONARYWDFLT
  5
E
102
{ACAD_REACTORS
330
C
102
}
330
C
100
AcDbDictionary
281
     1
  3
Normal
350
F
100
AcDbDictionaryWithDefault
340
F
  0
DICTIONARY
  5
DF
102
{ACAD_REACTORS
330
C
102
}
330
C
100
AcDbDictionary
281
     1
  0
DICTIONARY
  5
2A
102
{ACAD_REACTORS
330
C
102
}
330
C
100
AcDbDictionary
281
     1
  3
2dWireframe
350
2F
  3
3D Hidden
350
31
  3
3dWireframe
350
30
  3
Basic
350
32
  3
Brighten
350
36
  3
ColorChange
350
3A
  3
Conceptual
350
34
  3
Dim
350
35
  3
Facepattern
350
39
  3
Flat
350
2B
  3
FlatWithEdges
350
2C
  3
Gouraud
350
2D
  3
GouraudWithEdges
350
2E
  3
Linepattern
350
38
  3
Realistic
350
33
  3
Thicken
350
37
  0
LAYOUT
  5
1E
102
{ACAD_REACTORS
330
1A
102
}
330
1A
100
AcDbPlotSettings
  1

  2
none_device
  4

  6

 40
0.0
 41
0.0
 42
0.0
 43
0.0
 44
0.0
 45
0.0
 46
0.0
 47
0.0
 48
0.0
 49
0.0
140
0.0
141
0.0
142
1.0
143
1.0
 70
   688
 72
     0
 73
     0
 74
     5
  7

 75
    16
 76
     0
 77
     2
 78
   300
147
1.0
148
0.0
149
0.0
100
AcDbLayout
  1
Layout1
 70
     1
 71
     1
 10
0.0
 20
0.0
 11
12.0
 21
9.0
 12
0.0
 22
0.0
 32
0.0
 14
1.000000000000000E+20
 24
1.000000000000000E+20
 34
1.000000000000000E+20
 15
-1.000000000000000E+20
 25
-1.000000000000000E+20
 35
-1.000000000000000E+20
146
0.0
 13
0.0
 23
0.0
 33
0.0
 16
1.0
 26
0.0
 36
0.0
 17
0.0
 27
1.0
 37
0.0
 76
     0
330
1B
  0
LAYOUT
  5
26
102
{ACAD_REACTORS
330
1A
102
}
330
1A
100
AcDbPlotSettings
  1

  2
none_device
  4

  6

 40
0.0
 41
0.0
 42
0.0
 43
0.0
 44
0.0
 45
0.0
 46
0.0
 47
0.0
 48
0.0
 49
0.0
140
0.0
141
0.0
142
1.0
143
1.0
 70
   688
 72
     0
 73
     0
 74
     5
  7

 75
    16
 76
     0
 77
     2
 78
   300
147
1.0
148
0.0
149
0.0
100
AcDbLayout
  1
Layout2
 70
     1
 71
     2
 10
0.0
 20
0.0
 11
0.0
 21
0.0
 12
0.0
 22
0.0
 32
0.0
 14
0.0
 24
0.0
 34
0.0
 15
0.0
 25
0.0
 35
0.0
146
0.0
 13
0.0
 23
0.0
 33
0.0
 16
1.0
 26
0.0
 36
0.0
 17
0.0
 27
1.0
 37
0.0
 76
     0
330
23
  0
LAYOUT
  5
22
102
{ACAD_REACTORS
330
1A
102
}
330
1A
100
AcDbPlotSettings
  1

  2
none_device
  4

  6

 40
0.0
 41
0.0
 42
0.0
 43
0.0
 44
0.0
 45
0.0
 46
0.0
 47
0.0
 48
0.0
 49
0.0
140
0.0
141
0.0
142
1.0
143
1.0
 70
  1712
 72
     0
 73
     0
 74
     0
  7

 75
     0
 76
     0
 77
     2
 78
   300
147
1.0
148
0.0
149
0.0
100
AcDbLayout
  1
Model
 70
     1
 71
     0
 10
0.0
 20
0.0
 11
12.0
 21
9.0
 12
0.0
 22
0.0
 32
0.0
 14
1.000000000000000E+20
 24
1.000000000000000E+20
 34
1.000000000000000E+20
 15
-1.000000000000000E+20
 25
-1.000000000000000E+20
 35
-1.000000000000000E+20
146
0.0
 13
0.0
 23
0.0
 33
0.0
 16
1.0
 26
0.0
 36
0.0
 17
0.0
 27
1.0
 37
0.0
 76
     0
330
1F
331
29
  0
MATERIAL
  5
3D
102
{ACAD_REACTORS
330
3B
102
}
330
3B
100
AcDbMaterial
  1
ByBlock
 72
     1
 94
      127
  0
MATERIAL
  5
3C
102
{ACAD_REACTORS
330
3B
102
}
330
3B
100
AcDbMaterial
  1
ByLayer
 72
     1
 94
      127
  0
MATERIAL
  5
3E
102
{ACAD_REACTORS
330
3B
102
}
330
3B
100
AcDbMaterial
  1
Global
 72
     1
 94
      127
  0
MLINESTYLE
  5
18
102
{ACAD_REACTORS
330
17
102
}
330
17
100
AcDbMlineStyle
  2
Standard
 70
     0
  3

 62
   256
 51
90.0
 52
90.0
 71
     2
 49
0.5
 62
   256
  6
BYLAYER
 49
-0.5
 62
   256
  6
BYLAYER
  0
ACDBPLACEHOLDER
  5
F
102
{ACAD_REACTORS
330
E
102
}
330
E
  0
VISUALSTYLE
  5
2F
102
{ACAD_REACTORS
330
2A
102
}
330
2A
100
AcDbVisualStyle
  2
2dWireframe
 70
     4
177
     2
291
     0
 71
     0
176
     1
 72
     2
176
     1
 73
     0
176
     1
 90
        0
176
     1
 40
-0.6
176
     1
 41
-30.0
176
     1
 62
     5
 63
     7
421
 16777215
176
     1
 74
     1
176
     1
 91
        4
176
     1
 64
     7
176
     1
 65
   257
176
     1
 75
     1
176
     1
175
     1
176
     1
 42
1.0
176
     1
 92
        0
176
     1
 66
   257
176
     1
 43
1.0
176
     1
 76
     1
176
     1
 77
     6
176
     1
 78
     2
176
     1
 67
     7
176
     1
 79
     5
176
     1
170
     0
176
     1
171
     0
176
     1
290
     0
176
     1
 93
        1
176
     1
 44
0.0
176
     1
173
     0
176
     1
  0
VISUALSTYLE
  5
31
102
{ACAD_REACTORS
330
2A
102
}
330
2A
100
AcDbVisualStyle
  2
3D Hidden
 70
     6
177
     2
291
     0
 71
     1
176
     1
 72
     2
176
     1
 73
     2
176
     1
 90
        0
176
     1
 40
-0.6
176
     1
 41
-30.0
176
     1
 62
     5
 63
     7
421
 16777215
176
     1
 74
     2
176
     1
 91
        2
176
     1
 64
     7
176
     1
 65
   257
176
     1
 75
     2
176
     1
175
     1
176
     1
 42
40.0
176
     1
 92
        0
176
     1
 66
   257
176
     1
 43
1.0
176
     1
 76
     1
176
     1
 77
     6
176
     1
 78
     2
176
     1
 67
     7
176
     1
 79
     3
176
     1
170
     0
176
     1
171
     0
176
     1
290
     0
176
     1
 93
        1
176
     1
 44
0.0
176
     1
173
     0
176
     1
  0
VISUALSTYLE
  5
30
102
{ACAD_REACTORS
330
2A
102
}
330
2A
100
AcDbVisualStyle
  2
3dWireframe
 70
     5
177
     2
291
     0
 71
     0
176
     1
 72
     2
176
     1
 73
     0
176
     1
 90
        0
176
     1
 40
-0.6
176
     1
 41
-30.0
176
     1
 62
     5
 63
     7
421
 16777215
176
     1
 74
     1
176
     1
 91
        4
176
     1
 64
     7
176
     1
 65
   257
176
     1
 75
     1
176
     1
175
     1
176
     1
 42
1.0
176
     1
 92
        0
176
     1
 66
   257
176
     1
 43
1.0
176
     1
 76
     1
176
     1
 77
     6
176
     1
 78
     2
176
     1
 67
     7
176
     1
 79
     5
176
     1
170
     0
176
     1
171
     0
176
     1
290
     0
176
     1
 93
        1
176
     1
 44
0.0
176
     1
173
     0
176
     1
  0
VISUALSTYLE
  5
32
102
{ACAD_REACTORS
330
2A
102
}
330
2A
100
AcDbVisualStyle
  2
Basic
 70
     7
177
     2
291
     1
 71
     1
176
     1
 72
     0
176
     1
 73
     1
176
     1
 90
        0
176
     1
 40
-0.6
176
     1
 41
-30.0
176
     1
 62
     5
 63
     7
421
 16777215
176
     1
 74
     0
176
     1
 91
        4
176
     1
 64
     7
176
     1
 65
   257
176
     1
 75
     1
176
     1
175
     1
176
     1
 42
1.0
176
     1
 92
        8
176
     1
 66
     7
176
     1
 43
1.0
176
     1
 76
     1
176
     1
 77
     6
176
     1
 78
     2
176
     1
 67
     7
176
     1
 79
     5
176
     1
170
     0
176
     1
171
     0
176
     1
290
     0
176
     1
 93
        1
176
     1
 44
0.0
176
     1
173
     0
176
     1
  0
VISUALSTYLE
  5
36
102
{ACAD_REACTORS
330
2A
102
}
330
2A
100
AcDbVisualStyle
  2
Brighten
 70
    12
177
     2
291
     1
 71
     2
176
     1
 72
     2
176
     1
 73
     0
176
     1
 90
        0
176
     1
 40
-0.6
176
     1
 41
-30.0
176
     1
 62
     5
 63
     7
421
 16777215
176
     1
 74
     1
176
     1
 91
        4
176
     1
 64
     7
176
     1
 65
   257
176
     1
 75
     1
176
     1
175
     1
176
     1
 42
1.0
176
     1
 92
        8
176
     1
 66
     7
176
     1
 43
1.0
176
     1
 76
     1
176
     1
 77
     6
176
     1
 78
     2
176
     1
 67
     7
176
     1
 79
     5
176
     1
170
     0
176
     1
171
     0
176
     1
290
     0
176
     1
 93
        1
176
     1
 44
50.0
176
     1
173
     0
176
     1
  0
VISUALSTYLE
  5
3A
102
{ACAD_REACTORS
330
2A
102
}
330
2A
100
AcDbVisualStyle
  2
ColorChange
 70
    16
177
     2
291
     1
 71
     2
176
     1
 72
     2
176
     1
 73
     3
176
     1
 90
        0
176
     1
 40
-0.6
176
     1
 41
-30.0
176
     1
 62
     5
 63
     8
421
  8421504
176
     1
 74
     1
176
     1
 91
        4
176
     1
 64
     7
176
     1
 65
   257
176
     1
 75
     1
176
     1
175
     1
176
     1
 42
1.0
176
     1
 92
        8
176
     1
 66
     8
424
  8421504
176
     1
 43
1.0
176
     1
 76
     1
176
     1
 77
     6
176
     1
 78
     2
176
     1
 67
     7
176
     1
 79
     5
176
     1
170
     0
176
     1
171
     0
176
     1
290
     0
176
     1
 93
        1
176
     1
 44
0.0
176
     1
173
     0
176
     1
  0
VISUALSTYLE
  5
34
102
{ACAD_REACTORS
330
2A
102
}
330
2A
100
AcDbVisualStyle
  2
Conceptual
 70
     9
177
     2
291
     0
 71
     3
176
     1
 72
     2
176
     1
 73
     0
176
     1
 90
        0
176
     1
 40
-0.6
176
     1
 41
-30.0
176
     1
 62
     5
 63
     7
421
 16777215
176
     1
 74
     2
176
     1
 91
        2
176
     1
 64
     7
176
     1
 65
   257
176
     1
 75
     1
176
     1
175
     1
176
     1
 42
40.0
176
     1
 92
        8
176
     1
 66
     7
176
     1
 43
1.0
176
     1
 76
     1
176
     1
 77
     6
176
     1
 78
     2
176
     1
 67
     7
176
     1
 79
     3
176
     1
170
     0
176
     1
171
     0
176
     1
290
     0
176
     1
 93
        1
176
     1
 44
0.0
176
     1
173
     0
176
     1
  0
VISUALSTYLE
  5
35
102
{ACAD_REACTORS
330
2A
102
}
330
2A
100
AcDbVisualStyle
  2
Dim
 70
    11
177
     2
291
     1
 71
     2
176
     1
 72
     2
176
     1
 73
     0
176
     1
 90
        0
176
     1
 40
-0.6
176
     1
 41
-30.0
176
     1
 62
     5
 63
     7
421
 16777215
176
     1
 74
     1
176
     1
 91
        4
176
     1
 64
     7
176
     1
 65
   257
176
     1
 75
     1
176
     1
175
     1
176
     1
 42
1.0
176
     1
 92
        8
176
     1
 66
     7
176
     1
 43
1.0
176
     1
 76
     1
176
     1
 77
     6
176
     1
 78
     2
176
     1
 67
     7
176
     1
 79
     5
176
     1
170
     0
176
     1
171
     0
176
     1
290
     0
176
     1
 93
        1
176
     1
 44
-50.0
176
     1
173
     0
176
     1
  0
VISUALSTYLE
  5
39
102
{ACAD_REACTORS
330
2A
102
}
330
2A
100
AcDbVisualStyle
  2
Facepattern
 70
    15
177
     2
291
     1
 71
     2
176
     1
 72
     2
176
     1
 73
     0
176
     1
 90
        0
176
     1
 40
-0.6
176
     1
 41
-30.0
176
     1
 62
     5
 63
     7
421
 16777215
176
     1
 74
     1
176
     1
 91
        4
176
     1
 64
     7
176
     1
 65
   257
176
     1
 75
     1
176
     1
175
     1
176
     1
 42
1.0
176
     1
 92
        8
176
     1
 66
     7
176
     1
 43
1.0
176
     1
 76
     1
176
     1
 77
     6
176
     1
 78
     2
176
     1
 67
     7
176
     1
 79
     5
176
     1
170
     0
176
     1
171
     0
176
     1
290
     0
176
     1
 93
        1
176
     1
 44
0.0
176
     1
173
     0
176
     1
  0
VISUALSTYLE
  5
2B
102
{ACAD_REACTORS
330
2A
102
}
330
2A
100
AcDbVisualStyle
  2
Flat
 70
     0
177
     2
291
     1
 71
     2
176
     1
 72
     1
176
     1
 73
     1
176
     1
 90
        2
176
     1
 40
-0.6
176
     1
 41
30.0
176
     1
 62
     5
 63
     7
421
 16777215
176
     1
 74
     0
176
     1
 91
        4
176
     1
 64
     7
176
     1
 65
   257
176
     1
 75
     1
176
     1
175
     1
176
     1
 42
1.0
176
     1
 92
        8
176
     1
 66
     7
176
     1
 43
1.0
176
     1
 76
     1
176
     1
 77
     6
176
     1
 78
     2
176
     1
 67
     7
176
     1
 79
     5
176
     1
170
     0
176
     1
171
     0
176
     1
290
     0
176
     1
 93
       13
176
     1
 44
0.0
176
     1
173
     0
176
     1
  0
VISUALSTYLE
  5
2C
102
{ACAD_REACTORS
330
2A
102
}
330
2A
100
AcDbVisualStyle
  2
FlatWithEdges
 70
     1
177
     2
291
     1
 71
     2
176
     1
 72
     1
176
     1
 73
     1
176
     1
 90
        2
176
     1
 40
-0.6
176
     1
 41
30.0
176
     1
 62
     5
 63
     7
421
 16777215
176
     1
 74
     1
176
     1
 91
        4
176
     1
 64
     7
176
     1
 65
   257
176
     1
 75
     1
176
     1
175
     1
176
     1
 42
1.0
176
     1
 92
        0
176
     1
 66
   257
176
     1
 43
1.0
176
     1
 76
     1
176
     1
 77
     6
176
     1
 78
     2
176
     1
 67
     7
176
     1
 79
     5
176
     1
170
     0
176
     1
171
     0
176
     1
290
     0
176
     1
 93
       13
176
     1
 44
0.0
176
     1
173
     0
176
     1
  0
VISUALSTYLE
  5
2D
102
{ACAD_REACTORS
330
2A
102
}
330
2A
100
AcDbVisualStyle
  2
Gouraud
 70
     2
177
     2
291
     1
 71
     2
176
     1
 72
     2
176
     1
 73
     1
176
     1
 90
        2
176
     1
 40
-0.6
176
     1
 41
30.0
176
     1
 62
     5
 63
     7
421
 16777215
176
     1
 74
     0
176
     1
 91
        4
176
     1
 64
     7
176
     1
 65
   257
176
     1
 75
     1
176
     1
175
     1
176
     1
 42
1.0
176
     1
 92
        0
176
     1
 66
     7
176
     1
 43
1.0
176
     1
 76
     1
176
     1
 77
     6
176
     1
 78
     2
176
     1
 67
     7
176
     1
 79
     5
176
     1
170
     0
176
     1
171
     0
176
     1
290
     0
176
     1
 93
       13
176
     1
 44
0.0
176
     1
173
     0
176
     1
  0
VISUALSTYLE
  5
2E
102
{ACAD_REACTORS
330
2A
102
}
330
2A
100
AcDbVisualStyle
  2
GouraudWithEdges
 70
     3
177
     2
291
     1
 71
     2
176
     1
 72
     2
176
     1
 73
     1
176
     1
 90
        2
176
     1
 40
-0.6
176
     1
 41
30.0
176
     1
 62
     5
 63
     7
421
 16777215
176
     1
 74
     1
176
     1
 91
        4
176
     1
 64
     7
176
     1
 65
   257
176
     1
 75
     1
176
     1
175
     1
176
     1
 42
1.0
176
     1
 92
        0
176
     1
 66
   257
176
     1
 43
1.0
176
     1
 76
     1
176
     1
 77
     6
176
     1
 78
     2
176
     1
 67
     7
176
     1
 79
     5
176
     1
170
     0
176
     1
171
     0
176
     1
290
     0
176
     1
 93
       13
176
     1
 44
0.0
176
     1
173
     0
176
     1
  0
VISUALSTYLE
  5
38
102
{ACAD_REACTORS
330
2A
102
}
330
2A
100
AcDbVisualStyle
  2
Linepattern
 70
    14
177
     2
291
     1
 71
     2
176
     1
 72
     2
176
     1
 73
     0
176
     1
 90
        0
176
     1
 40
-0.6
176
     1
 41
-30.0
176
     1
 62
     5
 63
     7
421
 16777215
176
     1
 74
     1
176
     1
 91
        4
176
     1
 64
     7
176
     1
 65
   257
176
     1
 75
     7
176
     1
175
     7
176
     1
 42
1.0
176
     1
 92
        8
176
     1
 66
     7
176
     1
 43
1.0
176
     1
 76
     1
176
     1
 77
     6
176
     1
 78
     2
176
     1
 67
     7
176
     1
 79
     5
176
     1
170
     0
176
     1
171
     0
176
     1
290
     0
176
     1
 93
        1
176
     1
 44
0.0
176
     1
173
     0
176
     1
  0
VISUALSTYLE
  5
33
102
{ACAD_REACTORS
330
2A
102
}
330
2A
100
AcDbVisualStyle
  2
Realistic
 70
     8
177
     2
291
     0
 71
     2
176
     1
 72
     2
176
     1
 73
     0
176
     1
 90
        0
176
     1
 40
-0.6
176
     1
 41
-30.0
176
     1
 62
     5
 63
     7
421
 16777215
176
     1
 74
     1
176
     1
 91
        0
176
     1
 64
     7
176
     1
 65
   257
176
     1
 75
     1
176
     1
175
     1
176
     1
 42
1.0
176
     1
 92
        8
176
     1
 66
     8
424
  7895160
176
     1
 43
1.0
176
     1
 76
     1
176
     1
 77
     6
176
     1
 78
     2
176
     1
 67
     7
176
     1
 79
     5
176
     1
170
     0
176
     1
171
     0
176
     1
290
     0
176
     1
 93
       13
176
     1
 44
0.0
176
     1
173
     0
176
     1
  0
VISUALSTYLE
  5
37
102
{ACAD_REACTORS
330
2A
102
}
330
2A
100
AcDbVisualStyle
  2
Thicken
 70
    13
177
     2
291
     1
 71
     2
176
     1
 72
     2
176
     1
 73
     0
176
     1
 90
        0
176
     1
 40
-0.6
176
     1
 41
-30.0
176
     1
 62
     5
 63
     7
421
 16777215
176
     1
 74
     1
176
     1
 91
        4
176
     1
 64
     7
176
     1
 65
   257
176
     1
 75
     1
176
     1
175
     1
176
     1
 42
1.0
176
     1
 92
       12
176
     1
 66
     7
176
     1
 43
1.0
176
     1
 76
     1
176
     1
 77
     6
176
     1
 78
     2
176
     1
 67
     7
176
     1
 79
     5
176
     1
170
     0
176
     1
171
     0
176
     1
290
     0
176
     1
 93
        1
176
     1
 44
0.0
176
     1
173
     0
176
     1
  0
ENDSEC
  0
EOF
