  0
SECTION
  2
HEADER
  9
$ACADVER
  1
AC1024
  9
$ACADMAINTVER
 70
     6
  9
$DWGCODEPAGE
  3
UNDEFINED
  9
$INSBASE
 10
0.0
 20
0.0
 30
0.0
  9
$EXTMIN
 10
1.000000000000000E+20
 20
1.000000000000000E+20
 30
1.000000000000000E+20
  9
$EXTMAX
 10
-1.000000000000000E+20
 20
-1.000000000000000E+20
 30
-1.000000000000000E+20
  9
$LIMMIN
 10
0.0
 20
0.0
  9
$LIMMAX
 10
12.0
 20
9.0
  9
$ORTHOMODE
 70
     0
  9
$REGENMODE
 70
     1
  9
$FILLMODE
 70
     1
  9
$QTEXTMODE
 70
     0
  9
$MIRRTEXT
 70
     1
  9
$LTSCALE
 40
1.0
  9
$ATTMODE
 70
     1
  9
$TEXTSIZE
 40
0.2
  9
$TRACEWID
 40
0.05
  9
$TEXTSTYLE
  7
Standard
  9
$CLAYER
  8
0
  9
$CELTYPE
  6
ByLayer
  9
$CECOLOR
 62
   256
  9
$CELTSCALE
 40
1.0
  9
$DISPSILH
 70
     0
  9
$DIMSCALE
 40
1.0
  9
$DIMASZ
 40
0.18
  9
$DIMEXO
 40
0.0625
  9
$DIMDLI
 40
0.38
  9
$DIMRND
 40
0.0
  9
$DIMDLE
 40
0.0
  9
$DIMEXE
 40
0.18
  9
$DIMTP
 40
0.0
  9
$DIMTM
 40
0.0
  9
$DIMTXT
 40
0.18
  9
$DIMCEN
 40
0.09
  9
$DIMTSZ
 40
0.0
  9
$DIMTOL
 70
     0
  9
$DIMLIM
 70
     0
  9
$DIMTIH
 70
     1
  9
$DIMTOH
 70
     1
  9
$DIMSE1
 70
     0
  9
$DIMSE2
 70
     0
  9
$DIMTAD
 70
     0
  9
$DIMZIN
 70
     0
  9
$DIMBLK
  1

  9
$DIMASO
 70
     1
  9
$DIMSHO
 70
     1
  9
$DIMPOST
  1

  9
$DIMAPOST
  1

  9
$DIMALT
 70
     0
  9
$DIMALTD
 70
     2
  9
$DIMALTF
 40
25.4
  9
$DIMLFAC
 40
1.0
  9
$DIMTOFL
 70
     0
  9
$DIMTVP
 40
0.0
  9
$DIMTIX
 70
     0
  9
$DIMSOXD
 70
     0
  9
$DIMSAH
 70
     0
  9
$DIMBLK1
  1

  9
$DIMBLK2
  1

  9
$DIMSTYLE
  2
Standard
  9
$DIMCLRD
 70
     0
  9
$DIMCLRE
 70
     0
  9
$DIMCLRT
 70
     0
  9
$DIMTFAC
 40
1.0
  9
$DIMGAP
 40
0.09
  9
$DIMJUST
 70
     0
  9
$DIMSD1
 70
     0
  9
$DIMSD2
 70
     0
  9
$DIMTOLJ
 70
     1
  9
$DIMTZIN
 70
     0
  9
$DIMALTZ
 70
     0
  9
$DIMALTTZ
 70
     0
  9
$DIMUPT
 70
     0
  9
$DIMDEC
 70
     4
  9
$DIMTDEC
 70
     4
  9
$DIMALTU
 70
     2
  9
$DIMALTTD
 70
     2
  9
$DIMTXSTY
  7
Standard
  9
$DIMAUNIT
 70
     0
  9
$DIMADEC
 70
     0
  9
$DIMALTRND
 40
0.0
  9
$DIMAZIN
 70
     0
  9
$DIMDSEP
 70
    46
  9
$DIMATFIT
 70
     3
  9
$DIMFRAC
 70
     0
  9
$DIMLDRBLK
  1

  9
$DIMLUNIT
 70
     2
  9
$DIMLWD
 70
    -2
  9
$DIMLWE
 70
    -2
  9
$DIMTMOVE
 70
     0
  9
$DIMFXL
 40
1.0
  9
$DIMFXLON
 70
     0
  9
$DIMJOGANG
 40
0.7853981633974483
  9
$DIMTFILL
 70
     0
  9
$DIMTFILLCLR
 70
     0
  9
$DIMARCSYM
 70
     0
  9
$DIMLTYPE
  6

  9
$DIMLTEX1
  6

  9
$DIMLTEX2
  6

  9
$DIMTXTDIRECTION
 70
     0
  9
$LUNITS
 70
     2
  9
$LUPREC
 70
     4
  9
$SKETCHINC
 40
0.1
  9
$FILLETRAD
 40
0.5
  9
$AUNITS
 70
     0
  9
$AUPREC
 70
     0
  9
$MENU
  1
.
  9
$ELEVATION
 40
0.0
  9
$PELEVATION
 40
0.0
  9
$THICKNESS
 40
0.0
  9
$LIMCHECK
 70
     0
  9
$CHAMFERA
 40
0.5
  9
$CHAMFERB
 40
0.5
  9
$CHAMFERC
 40
1.0
  9
$CHAMFERD
 40
0.0
  9
$SKPOLY
 70
     0
  9
$TDCREATE
 40
2457917.631319445
  9
$TDUCREATE
 40
2457917.256319445
  9
$TDUPDATE
 40
2457917.631319445
  9
$TDUUPDATE
 40
2457917.256319445
  9
$TDINDWG
 40
0.0000000116
  9
$TDUSRTIMER
 40
0.0000000116
  9
$USRTIMER
 70
     1
  9
$ANGBASE
 50
0.0
  9
$ANGDIR
 70
     0
  9
$PDMODE
 70
     0
  9
$PDSIZE
 40
0.0
  9
$PLINEWID
 40
0.0
  9
$SPLFRAME
 70
     0
  9
$SPLINETYPE
 70
     6
  9
$SPLINESEGS
 70
     8
  9
$HANDSEED
  5
3A3
  9
$SURFTAB1
 70
     6
  9
$SURFTAB2
 70
     6
  9
$SURFTYPE
 70
     6
  9
$SURFU
 70
     6
  9
$SURFV
 70
     6
  9
$UCSBASE
  2

  9
$UCSNAME
  2

  9
$UCSORG
 10
0.0
 20
0.0
 30
0.0
  9
$UCSXDIR
 10
1.0
 20
0.0
 30
0.0
  9
$UCSYDIR
 10
0.0
 20
1.0
 30
0.0
  9
$UCSORTHOREF
  2

  9
$UCSORTHOVIEW
 70
     0
  9
$UCSORGTOP
 10
0.0
 20
0.0
 30
0.0
  9
$UCSORGBOTTOM
 10
0.0
 20
0.0
 30
0.0
  9
$UCSORGLEFT
 10
0.0
 20
0.0
 30
0.0
  9
$UCSORGRIGHT
 10
0.0
 20
0.0
 30
0.0
  9
$UCSORGFRONT
 10
0.0
 20
0.0
 30
0.0
  9
$UCSORGBACK
 10
0.0
 20
0.0
 30
0.0
  9
$PUCSBASE
  2

  9
$PUCSNAME
  2

  9
$PUCSORG
 10
0.0
 20
0.0
 30
0.0
  9
$PUCSXDIR
 10
1.0
 20
0.0
 30
0.0
  9
$PUCSYDIR
 10
0.0
 20
1.0
 30
0.0
  9
$PUCSORTHOREF
  2

  9
$PUCSORTHOVIEW
 70
     0
  9
$PUCSORGTOP
 10
0.0
 20
0.0
 30
0.0
  9
$PUCSORGBOTTOM
 10
0.0
 20
0.0
 30
0.0
  9
$PUCSORGLEFT
 10
0.0
 20
0.0
 30
0.0
  9
$PUCSORGRIGHT
 10
0.0
 20
0.0
 30
0.0
  9
$PUCSORGFRONT
 10
0.0
 20
0.0
 30
0.0
  9
$PUCSORGBACK
 10
0.0
 20
0.0
 30
0.0
  9
$USERI1
 70
     0
  9
$USERI2
 70
     0
  9
$USERI3
 70
     0
  9
$USERI4
 70
     0
  9
$USERI5
 70
     0
  9
$USERR1
 40
0.0
  9
$USERR2
 40
0.0
  9
$USERR3
 40
0.0
  9
$USERR4
 40
0.0
  9
$USERR5
 40
0.0
  9
$WORLDVIEW
 70
     1
  9
$SHADEDGE
 70
     3
  9
$SHADEDIF
 70
    70
  9
$TILEMODE
 70
     1
  9
$MAXACTVP
 70
    64
  9
$PINSBASE
 10
0.0
 20
0.0
 30
0.0
  9
$PLIMCHECK
 70
     0
  9
$PEXTMIN
 10
1.000000000000000E+20
 20
1.000000000000000E+20
 30
1.000000000000000E+20
  9
$PEXTMAX
 10
-1.000000000000000E+20
 20
-1.000000000000000E+20
 30
-1.000000000000000E+20
  9
$PLIMMIN
 10
0.0
 20
0.0
  9
$PLIMMAX
 10
12.0
 20
9.0
  9
$UNITMODE
 70
     0
  9
$VISRETAIN
 70
     1
  9
$PLINEGEN
 70
     0
  9
$PSLTSCALE
 70
     1
  9
$TREEDEPTH
 70
  3020
  9
$CMLSTYLE
  2
Standard
  9
$CMLJUST
 70
     0
  9
$CMLSCALE
 40
1.0
  9
$PROXYGRAPHICS
 70
     1
  9
$MEASUREMENT
 70
     0
  9
$CELWEIGHT
370
    -1
  9
$ENDCAPS
280
     0
  9
$JOINSTYLE
280
     0
  9
$LWDISPLAY
290
     1
  9
$INSUNITS
 70
     1
  9
$HYPERLINKBASE
  1

  9
$STYLESHEET
  1

  9
$XEDIT
290
     1
  9
$CEPSNTYPE
380
     0
  9
$PSTYLEMODE
290
     1
  9
$FINGERPRINTGUID
  2
{FB493F97-F8FA-4467-390B-69CD34D425CE}
  9
$VERSIONGUID
  2
{FAEB1C32-E019-11D5-929B-00C0DF256EC4}
  9
$EXTNAMES
290
     1
  9
$PSVPSCALE
 40
0.0
  9
$OLESTARTUP
290
     0
  9
$SORTENTS
280
   127
  9
$INDEXCTL
280
     0
  9
$HIDETEXT
280
     1
  9
$XCLIPFRAME
280
     2
  9
$HALOGAP
280
     0
  9
$OBSCOLOR
 70
   257
  9
$OBSLTYPE
280
     0
  9
$INTERSECTIONDISPLAY
280
     0
  9
$INTERSECTIONCOLOR
 70
   257
  9
$DIMASSOC
280
     2
  9
$PROJECTNAME
  1

  9
$CAMERADISPLAY
290
     0
  9
$LENSLENGTH
 40
50.0
  9
$CAMERAHEIGHT
 40
0.0
  9
$STEPSPERSEC
 40
2.0
  9
$STEPSIZE
 40
6.0
  9
$3DDWFPREC
 40
2.0
  9
$PSOLWIDTH
 40
0.25
  9
$PSOLHEIGHT
 40
4.0
  9
$LOFTANG1
 40
1.570796326794897
  9
$LOFTANG2
 40
1.570796326794897
  9
$LOFTMAG1
 40
0.0
  9
$LOFTMAG2
 40
0.0
  9
$LOFTPARAM
 70
     7
  9
$LOFTNORMALS
280
     1
  9
$LATITUDE
 40
37.795
  9
$LONGITUDE
 40
-122.394
  9
$NORTHDIRECTION
 40
0.0
  9
$TIMEZONE
 70
 -8000
  9
$LIGHTGLYPHDISPLAY
280
     1
  9
$TILEMODELIGHTSYNCH
280
     1
  9
$CMATERIAL
347
3C
  9
$SOLIDHIST
280
     1
  9
$SHOWHIST
280
     1
  9
$DWFFRAME
280
     2
  9
$DGNFRAME
280
     2
  9
$REALWORLDSCALE
290
     1
  9
$INTERFERECOLOR
 62
   256
  9
$CSHADOW
280
     0
  9
$SHADOWPLANELOCATION
 40
0.0
  0
ENDSEC
  0
SECTION
  2
CLASSES
  0
CLASS
  1
ACDBDICTIONARYWDFLT
  2
AcDbDictionaryWithDefault
  3
ObjectDBX Classes
 90
        0
 91
        4
280
     0
281
     0
  0
CLASS
  1
VISUALSTYLE
  2
AcDbVisualStyle
  3
ObjectDBX Classes
 90
     4095
 91
        4
280
     0
281
     0
  0
CLASS
  1
MATERIAL
  2
AcDbMaterial
  3
ObjectDBX Classes
 90
     1153
 91
        4
280
     0
281
     0
  0
CLASS
  1
SUN
  2
AcDbSun
  3
SCENEOE
 90
     1024
 91
        4
280
     0
281
     0
  0
ENDSEC
  0
SECTION
  2
TABLES
  0
TABLE
  2
VPORT
  5
8
330
0
100
AcDbSymbolTable
 70
     1
  0
VPORT
  5
29
330
8
100
AcDbSymbolTableRecord
100
AcDbViewportTableRecord
  2
*Active
 70
     0
 10
0.0
 20
0.0
 11
1.0
 21
1.0
 12
0.0
 22
0.0
 13
0.0
 23
0.0
 14
0.5
 24
0.5
 15
0.5
 25
0.5
 16
0.0
 26
0.0
 36
1.0
 17
91.00082462281999
 27
-128.4993055234307
 37
0.0
 40
256.9986110468615
 41
0.7081814508812795
 42
50.0
 43
0.0
 44
0.0
 50
0.0
 51
0.0
 71
     0
 72
   100
 73
     1
 74
     3
 75
     0
 76
     0
 77
     0
 78
     0
281
     0
 65
     1
110
0.0
120
0.0
130
0.0
111
1.0
121
0.0
131
0.0
112
0.0
122
1.0
132
0.0
 79
     0
146
0.0
 60
     3
 61
     5
292
     1
282
     1
141
0.0
142
0.0
 63
   250
361
3F
  0
ENDTAB
  0
TABLE
  2
LTYPE
  5
5
330
0
100
AcDbSymbolTable
 70
     1
  0
LTYPE
  5
14
330
5
100
AcDbSymbolTableRecord
100
AcDbLinetypeTableRecord
  2
ByBlock
 70
     0
  3

 72
    65
 73
     0
 40
0.0
  0
LTYPE
  5
15
330
5
100
AcDbSymbolTableRecord
100
AcDbLinetypeTableRecord
  2
ByLayer
 70
     0
  3

 72
    65
 73
     0
 40
0.0
  0
LTYPE
  5
16
330
5
100
AcDbSymbolTableRecord
100
AcDbLinetypeTableRecord
  2
Continuous
 70
     0
  3
Solid line
 72
    65
 73
     0
 40
0.0
  0
ENDTAB
  0
TABLE
  2
LAYER
  5
2
330
0
100
AcDbSymbolTable
 70
     2
  0
LAYER
  5
10
330
2
100
AcDbSymbolTableRecord
100
AcDbLayerTableRecord
  2
0
 70
     0
 62
     7
  6
Continuous
370
    -3
390
F
347
3E
  0
LAYER
  5
40
330
2
100
AcDbSymbolTableRecord
100
AcDbLayerTableRecord
  2
_U+30EC_U+30A4_U+30E4_U+30FC 1
 70
     0
 62
     7
  6
Continuous
370
    -3
390
F
347
3E
  0
ENDTAB
  0
TABLE
  2
STYLE
  5
3
330
0
100
AcDbSymbolTable
 70
     1
  0
STYLE
  5
11
330
3
100
AcDbSymbolTableRecord
100
AcDbTextStyleTableRecord
  2
Standard
 70
     0
 40
0.0
 41
1.0
 50
0.0
 71
     0
 42
0.2
  3
txt
  4

  0
ENDTAB
  0
TABLE
  2
VIEW
  5
6
330
0
100
AcDbSymbolTable
 70
     0
  0
ENDTAB
  0
TABLE
  2
UCS
  5
7
330
0
100
AcDbSymbolTable
 70
     0
  0
ENDTAB
  0
TABLE
  2
APPID
  5
9
330
0
100
AcDbSymbolTable
 70
     1
  0
APPID
  5
12
330
9
100
AcDbSymbolTableRecord
100
AcDbRegAppTableRecord
  2
ACAD
 70
     0
  0
ENDTAB
  0
TABLE
  2
DIMSTYLE
  5
A
330
0
100
AcDbSymbolTable
 70
     1
100
AcDbDimStyleTable
  0
DIMSTYLE
105
27
330
A
100
AcDbSymbolTableRecord
100
AcDbDimStyleTableRecord
  2
Standard
 70
     0
178
     0
340
11
  0
ENDTAB
  0
TABLE
  2
BLOCK_RECORD
  5
1
330
0
100
AcDbSymbolTable
 70
    12
  0
BLOCK_RECORD
  5
1F
330
1
100
AcDbSymbolTableRecord
100
AcDbBlockTableRecord
  2
*Model_Space
340
22
 70
     0
280
     1
281
     0
  0
BLOCK_RECORD
  5
1B
330
1
100
AcDbSymbolTableRecord
100
AcDbBlockTableRecord
  2
*Paper_Space
340
1E
 70
     0
280
     1
281
     0
  0
BLOCK_RECORD
  5
23
330
1
100
AcDbSymbolTableRecord
100
AcDbBlockTableRecord
  2
*Paper_Space0
340
26
 70
     0
280
     1
281
     0
  0
BLOCK_RECORD
  5
30B
330
1
100
AcDbSymbolTableRecord
100
AcDbBlockTableRecord
  2
block 2
340
0
102
{BLKREFS
331
30C
102
}
 70
     0
280
     1
281
     0
  0
BLOCK_RECORD
  5
314
330
1
100
AcDbSymbolTableRecord
100
AcDbBlockTableRecord
  2
block 3
340
0
102
{BLKREFS
331
315
102
}
 70
     0
280
     1
281
     0
  0
BLOCK_RECORD
  5
330
330
1
100
AcDbSymbolTableRecord
100
AcDbBlockTableRecord
  2
block 4
340
0
102
{BLKREFS
331
331
102
}
 70
     0
280
     1
281
     0
  0
BLOCK_RECORD
  5
338
330
1
100
AcDbSymbolTableRecord
100
AcDbBlockTableRecord
  2
block 5
340
0
102
{BLKREFS
331
339
102
}
 70
     0
280
     1
281
     0
  0
BLOCK_RECORD
  5
34C
330
1
100
AcDbSymbolTableRecord
100
AcDbBlockTableRecord
  2
block 6
340
0
102
{BLKREFS
331
34D
102
}
 70
     0
280
     1
281
     0
  0
BLOCK_RECORD
  5
357
330
1
100
AcDbSymbolTableRecord
100
AcDbBlockTableRecord
  2
block 7
340
0
102
{BLKREFS
331
358
102
}
 70
     0
280
     1
281
     0
  0
BLOCK_RECORD
  5
36B
330
1
100
AcDbSymbolTableRecord
100
AcDbBlockTableRecord
  2
block 8
340
0
102
{BLKREFS
331
36C
102
}
 70
     0
280
     1
281
     0
  0
BLOCK_RECORD
  5
376
330
1
100
AcDbSymbolTableRecord
100
AcDbBlockTableRecord
  2
block 9
340
0
102
{BLKREFS
331
377
102
}
 70
     0
280
     1
281
     0
  0
BLOCK_RECORD
  5
386
330
1
100
AcDbSymbolTableRecord
100
AcDbBlockTableRecord
  2
block 10
340
0
102
{BLKREFS
331
387
102
}
 70
     0
280
     1
281
     0
  0
BLOCK_RECORD
  5
38F
330
1
100
AcDbSymbolTableRecord
100
AcDbBlockTableRecord
  2
block 11
340
0
102
{BLKREFS
331
390
102
}
 70
     0
280
     1
281
     0
  0
BLOCK_RECORD
  5
397
330
1
100
AcDbSymbolTableRecord
100
AcDbBlockTableRecord
  2
block 12
340
0
102
{BLKREFS
331
398
102
}
 70
     0
280
     1
281
     0
  0
ENDTAB
  0
ENDSEC
  0
SECTION
  2
BLOCKS
  0
BLOCK
  5
20
330
1F
100
AcDbEntity
  8
0
100
AcDbBlockBegin
  2
*Model_Space
 70
     0
 10
0.0
 20
0.0
 30
0.0
  3
*Model_Space
  1

  0
ENDBLK
  5
21
330
1F
100
AcDbEntity
  8
0
100
AcDbBlockEnd
  0
BLOCK
  5
1C
330
1B
100
AcDbEntity
 67
     1
  8
0
100
AcDbBlockBegin
  2
*Paper_Space
 70
     0
 10
0.0
 20
0.0
 30
0.0
  3
*Paper_Space
  1

  0
ENDBLK
  5
1D
330
1B
100
AcDbEntity
 67
     1
  8
0
100
AcDbBlockEnd
  0
BLOCK
  5
24
330
23
100
AcDbEntity
  8
0
100
AcDbBlockBegin
  2
*Paper_Space0
 70
     0
 10
0.0
 20
0.0
 30
0.0
  3
*Paper_Space0
  1

  0
ENDBLK
  5
25
330
23
100
AcDbEntity
  8
0
100
AcDbBlockEnd
  0
BLOCK
  5
30D
330
30B
100
AcDbEntity
  8
0
100
AcDbBlockBegin
  2
block 2
 70
     0
 10
0.0
 20
0.0
 30
0.0
  3
block 2
  1

  0
SPLINE
  5
30F
330
30B
100
AcDbEntity
  8
_U+30EC_U+30A4_U+30E4_U+30FC 1
370
     0
100
AcDbSpline
210
0.0
220
0.0
230
1.0
 70
    11
 71
     3
 72
    26
 73
    22
 74
     0
 42
0.0000000001
 43
0.0000000001
 12
1.0
 22
0.0
 32
0.0
 13
1.0
 23
0.0
 33
0.0
 40
0.0
 40
0.0
 40
0.0
 40
0.0
 40
1.0
 40
1.0
 40
1.0
 40
2.0
 40
2.0
 40
2.0
 40
3.0
 40
3.0
 40
3.0
 40
4.0
 40
4.0
 40
4.0
 40
5.0
 40
5.0
 40
5.0
 40
6.0
 40
6.0
 40
6.0
 40
7.0
 40
7.0
 40
7.0
 40
7.0
 10
78.85289575936665
 20
-139.2025281770049
 30
0.0
 10
78.85289575936665
 20
-139.2025281770049
 30
0.0
 10
78.85289575936665
 20
-138.0980305644338
 30
0.0
 10
78.85289575936665
 20
-138.0980305644338
 30
0.0
 10
78.85289575936665
 20
-138.0980305644338
 30
0.0
 10
78.5228556118797
 20
-138.0980305644338
 30
0.0
 10
78.5228556118797
 20
-138.0980305644338
 30
0.0
 10
78.5228556118797
 20
-138.0980305644338
 30
0.0
 10
78.5228556118797
 20
-137.9502359681166
 30
0.0
 10
78.5228556118797
 20
-137.9502359681166
 30
0.0
 10
78.85496281665779
 20
-137.93542205753
 30
0.0
 10
78.90147160570866
 20
-137.7724690410777
 30
0.0
 10
78.93109942688181
 20
-137.658436380516
 30
0.0
 10
78.93109942688181
 20
-137.658436380516
 30
0.0
 10
79.07717147545641
 20
-137.658436380516
 30
0.0
 10
79.07717147545641
 20
-137.658436380516
 30
0.0
 10
79.07717147545641
 20
-137.658436380516
 30
0.0
 10
79.07717147545641
 20
-139.2025281770049
 30
0.0
 10
79.07717147545641
 20
-139.2025281770049
 30
0.0
 10
79.07717147545641
 20
-139.2025281770049
 30
0.0
 10
78.85289575936665
 20
-139.2025281770049
 30
0.0
 10
78.85289575936665
 20
-139.2025281770049
 30
0.0
  0
HATCH
  5
310
330
30B
100
AcDbEntity
  8
_U+30EC_U+30A4_U+30E4_U+30FC 1
 62
   179
420
  2234388
100
AcDbHatch
 10
0.0
 20
0.0
 30
0.0
210
0.0
220
0.0
230
1.0
  2
SOLID
 70
     1
 71
     0
 91
        1
 92
        1
 93
        1
 72
     4
 94
        3
 73
     0
 74
     1
 95
       26
 96
       22
 40
0.0
 40
0.0
 40
0.0
 40
0.0
 40
1.0
 40
1.0
 40
1.0
 40
2.0
 40
2.0
 40
2.0
 40
3.0
 40
3.0
 40
3.0
 40
4.0
 40
4.0
 40
4.0
 40
5.0
 40
5.0
 40
5.0
 40
6.0
 40
6.0
 40
6.0
 40
7.0
 40
7.0
 40
7.0
 40
7.0
 10
78.85289575936665
 20
-139.2025281770049
 10
78.85289575936665
 20
-139.2025281770049
 10
78.85289575936665
 20
-138.0980305644338
 10
78.85289575936665
 20
-138.0980305644338
 10
78.85289575936665
 20
-138.0980305644338
 10
78.5228556118797
 20
-138.0980305644338
 10
78.5228556118797
 20
-138.0980305644338
 10
78.5228556118797
 20
-138.0980305644338
 10
78.5228556118797
 20
-137.9502359681166
 10
78.5228556118797
 20
-137.9502359681166
 10
78.85496281665779
 20
-137.93542205753
 10
78.90147160570866
 20
-137.7724690410777
 10
78.93109942688181
 20
-137.658436380516
 10
78.93109942688181
 20
-137.658436380516
 10
79.07717147545641
 20
-137.658436380516
 10
79.07717147545641
 20
-137.658436380516
 10
79.07717147545641
 20
-137.658436380516
 10
79.07717147545641
 20
-139.2025281770049
 10
79.07717147545641
 20
-139.2025281770049
 10
79.07717147545641
 20
-139.2025281770049
 10
78.85289575936665
 20
-139.2025281770049
 10
78.85289575936665
 20
-139.2025281770049
 97
        0
 97
        0
 75
     2
 76
     1
 98
        0
  0
SPLINE
  5
311
330
30B
100
AcDbEntity
  8
_U+30EC_U+30A4_U+30E4_U+30FC 1
370
     0
100
AcDbSpline
210
0.0
220
0.0
230
1.0
 70
    11
 71
     3
 72
    32
 73
    28
 74
     0
 42
0.0000000001
 43
0.0000000001
 12
1.0
 22
0.0
 32
0.0
 13
1.0
 23
0.0
 33
0.0
 40
0.0
 40
0.0
 40
0.0
 40
0.0
 40
1.0
 40
1.0
 40
1.0
 40
2.0
 40
2.0
 40
2.0
 40
3.0
 40
3.0
 40
3.0
 40
4.0
 40
4.0
 40
4.0
 40
5.0
 40
5.0
 40
5.0
 40
6.0
 40
6.0
 40
6.0
 40
7.0
 40
7.0
 40
7.0
 40
8.0
 40
8.0
 40
8.0
 40
9.0
 40
9.0
 40
9.0
 40
9.0
 10
80.08262259282657
 20
-139.2535155901866
 30
0.0
 10
79.56637503436188
 20
-139.2535155901866
 30
0.0
 10
79.55793455042301
 20
-138.6988552170614
 30
0.0
 10
79.55793455042301
 20
-138.4852592969759
 30
0.0
 10
79.55793455042301
 20
-138.2547824090127
 30
0.0
 10
79.57705483036615
 20
-137.6074489673342
 30
0.0
 10
80.12069089793859
 20
-137.6074489673342
 30
0.0
 10
80.2941514556209
 20
-137.6074489673342
 30
0.0
 10
80.53961450894496
 20
-137.6770398961363
 30
0.0
 10
80.57768281405697
 20
-138.0091471009144
 30
0.0
 10
80.57768281405697
 20
-138.0091471009144
 30
0.0
 10
80.36391463919722
 20
-138.0091471009144
 30
0.0
 10
80.36391463919722
 20
-138.0091471009144
 30
0.0
 10
80.3534070979672
 20
-137.9523030254078
 30
0.0
 10
80.32171221950291
 20
-137.804163919542
 30
0.0
 10
80.11862384064743
 20
-137.804163919542
 30
0.0
 10
79.82665199827251
 20
-137.804163919542
 30
0.0
 10
79.78634438109509
 20
-138.1321370097378
 30
0.0
 10
79.77376978257392
 20
-138.3371201911102
 30
0.0
 10
79.86678736067567
 20
-138.2592610331435
 30
0.0
 10
79.93448348696083
 20
-138.2000053907972
 30
0.0
 10
80.11638452858202
 20
-138.2000053907972
 30
0.0
 10
80.29621851291206
 20
-138.2000053907972
 30
0.0
 10
80.598697896517
 20
-138.307492369937
 30
0.0
 10
80.598697896517
 20
-138.7140136371965
 30
0.0
 10
80.598697896517
 20
-139.0333739886792
 30
0.0
 10
80.39991588701808
 20
-139.2535155901866
 30
0.0
 10
80.08262259282657
 20
-139.2535155901866
 30
0.0
  0
SPLINE
  5
312
330
30B
100
AcDbEntity
  8
_U+30EC_U+30A4_U+30E4_U+30FC 1
370
     0
100
AcDbSpline
210
0.0
220
0.0
230
1.0
 70
    11
 71
     3
 72
    17
 73
    13
 74
     0
 42
0.0000000001
 43
0.0000000001
 12
1.0
 22
0.0
 32
0.0
 13
1.0
 23
0.0
 33
0.0
 40
0.0
 40
0.0
 40
0.0
 40
0.0
 40
1.0
 40
1.0
 40
1.0
 40
2.0
 40
2.0
 40
2.0
 40
3.0
 40
3.0
 40
3.0
 40
4.0
 40
4.0
 40
4.0
 40
4.0
 10
80.09950356070429
 20
-138.3943087761653
 30
0.0
 10
79.83715953950252
 20
-138.3943087761653
 30
0.0
 10
79.7990912343905
 20
-138.6058376389597
 30
0.0
 10
79.7990912343905
 20
-138.7222818663611
 30
0.0
 10
79.7990912343905
 20
-138.8979817361088
 30
0.0
 10
79.89434812455767
 20
-139.0605902430126
 30
0.0
 10
80.07831622347001
 20
-139.0605902430126
 30
0.0
 10
80.19889456545376
 20
-139.0605902430126
 30
0.0
 10
80.37459443520149
 20
-139.0013346006663
 30
0.0
 10
80.37459443520149
 20
-138.7160806944877
 30
0.0
 10
80.37459443520149
 20
-138.4918049783979
 30
0.0
 10
80.23489581327462
 20
-138.3943087761653
 30
0.0
 10
80.09950356070429
 20
-138.3943087761653
 30
0.0
  0
HATCH
  5
313
330
30B
100
AcDbEntity
  8
_U+30EC_U+30A4_U+30E4_U+30FC 1
 62
   179
420
  2234388
100
AcDbHatch
 10
0.0
 20
0.0
 30
0.0
210
0.0
220
0.0
230
1.0
  2
SOLID
 70
     1
 71
     0
 91
        2
 92
        1
 93
        1
 72
     4
 94
        3
 73
     0
 74
     1
 95
       32
 96
       28
 40
0.0
 40
0.0
 40
0.0
 40
0.0
 40
1.0
 40
1.0
 40
1.0
 40
2.0
 40
2.0
 40
2.0
 40
3.0
 40
3.0
 40
3.0
 40
4.0
 40
4.0
 40
4.0
 40
5.0
 40
5.0
 40
5.0
 40
6.0
 40
6.0
 40
6.0
 40
7.0
 40
7.0
 40
7.0
 40
8.0
 40
8.0
 40
8.0
 40
9.0
 40
9.0
 40
9.0
 40
9.0
 10
80.08262259282657
 20
-139.2535155901866
 10
79.56637503436188
 20
-139.2535155901866
 10
79.55793455042301
 20
-138.6988552170614
 10
79.55793455042301
 20
-138.4852592969759
 10
79.55793455042301
 20
-138.2547824090127
 10
79.57705483036615
 20
-137.6074489673342
 10
80.12069089793859
 20
-137.6074489673342
 10
80.2941514556209
 20
-137.6074489673342
 10
80.53961450894496
 20
-137.6770398961363
 10
80.57768281405697
 20
-138.0091471009144
 10
80.57768281405697
 20
-138.0091471009144
 10
80.36391463919722
 20
-138.0091471009144
 10
80.36391463919722
 20
-138.0091471009144
 10
80.3534070979672
 20
-137.9523030254078
 10
80.32171221950291
 20
-137.804163919542
 10
80.11862384064743
 20
-137.804163919542
 10
79.82665199827251
 20
-137.804163919542
 10
79.78634438109509
 20
-138.1321370097378
 10
79.77376978257392
 20
-138.3371201911102
 10
79.86678736067567
 20
-138.2592610331435
 10
79.93448348696083
 20
-138.2000053907972
 10
80.11638452858202
 20
-138.2000053907972
 10
80.29621851291206
 20
-138.2000053907972
 10
80.598697896517
 20
-138.307492369937
 10
80.598697896517
 20
-138.7140136371965
 10
80.598697896517
 20
-139.0333739886792
 10
80.39991588701808
 20
-139.2535155901866
 10
80.08262259282657
 20
-139.2535155901866
 97
        0
 97
        0
 92
        1
 93
        1
 72
     4
 94
        3
 73
     0
 74
     1
 95
       17
 96
       13
 40
0.0
 40
0.0
 40
0.0
 40
0.0
 40
1.0
 40
1.0
 40
1.0
 40
2.0
 40
2.0
 40
2.0
 40
3.0
 40
3.0
 40
3.0
 40
4.0
 40
4.0
 40
4.0
 40
4.0
 10
80.09950356070429
 20
-138.3943087761653
 10
79.83715953950252
 20
-138.3943087761653
 10
79.7990912343905
 20
-138.6058376389597
 10
79.7990912343905
 20
-138.7222818663611
 10
79.7990912343905
 20
-138.8979817361088
 10
79.89434812455767
 20
-139.0605902430126
 10
80.07831622347001
 20
-139.0605902430126
 10
80.19889456545376
 20
-139.0605902430126
 10
80.37459443520149
 20
-139.0013346006663
 10
80.37459443520149
 20
-138.7160806944877
 10
80.37459443520149
 20
-138.4918049783979
 10
80.23489581327462
 20
-138.3943087761653
 10
80.09950356070429
 20
-138.3943087761653
 97
        0
 97
        0
 75
     2
 76
     1
 98
        0
  0
ENDBLK
  5
30E
330
30B
100
AcDbEntity
  8
0
100
AcDbBlockEnd
  0
BLOCK
  5
316
330
314
100
AcDbEntity
  8
0
100
AcDbBlockBegin
  2
block 3
 70
     0
 10
0.0
 20
0.0
 30
0.0
  3
block 3
  1

  0
POLYLINE
  5
318
330
314
100
AcDbEntity
  8
_U+30EC_U+30A4_U+30E4_U+30FC 1
370
     0
100
AcDb2dPolyline
 66
     1
 10
0.0
 20
0.0
 30
0.0
  0
VERTEX
  5
319
330
318
100
AcDbEntity
  8
_U+30EC_U+30A4_U+30E4_U+30FC 1
370
     0
100
AcDbVertex
100
AcDb2dVertex
 10
79.23357881048675
 20
-142.2069959496913
 30
0.0
  0
VERTEX
  5
31A
330
318
100
AcDbEntity
  8
_U+30EC_U+30A4_U+30E4_U+30FC 1
370
     0
100
AcDbVertex
100
AcDb2dVertex
 10
79.23357881048675
 20
-142.553917065056
 30
0.0
  0
VERTEX
  5
31B
330
318
100
AcDbEntity
  8
_U+30EC_U+30A4_U+30E4_U+30FC 1
370
     0
100
AcDbVertex
100
AcDb2dVertex
 10
79.0156765210447
 20
-142.553917065056
 30
0.0
  0
VERTEX
  5
31C
330
318
100
AcDbEntity
  8
_U+30EC_U+30A4_U+30E4_U+30FC 1
370
     0
100
AcDbVertex
100
AcDb2dVertex
 10
79.0156765210447
 20
-142.2069959496913
 30
0.0
  0
VERTEX
  5
31D
330
318
100
AcDbEntity
  8
_U+30EC_U+30A4_U+30E4_U+30FC 1
370
     0
100
AcDbVertex
100
AcDb2dVertex
 10
78.35990259542739
 20
-142.2069959496913
 30
0.0
  0
VERTEX
  5
31E
330
318
100
AcDbEntity
  8
_U+30EC_U+30A4_U+30E4_U+30FC 1
370
     0
100
AcDbVertex
100
AcDb2dVertex
 10
78.35990259542739
 20
-141.9827202336016
 30
0.0
  0
VERTEX
  5
31F
330
318
100
AcDbEntity
  8
_U+30EC_U+30A4_U+30E4_U+30FC 1
370
     0
100
AcDbVertex
100
AcDb2dVertex
 10
79.03893091557013
 20
-141.009825268567
 30
0.0
  0
VERTEX
  5
320
330
318
100
AcDbEntity
  8
_U+30EC_U+30A4_U+30E4_U+30FC 1
370
     0
100
AcDbVertex
100
AcDb2dVertex
 10
79.23357881048675
 20
-141.009825268567
 30
0.0
  0
VERTEX
  5
321
330
318
100
AcDbEntity
  8
_U+30EC_U+30A4_U+30E4_U+30FC 1
370
     0
100
AcDbVertex
100
AcDb2dVertex
 10
79.23357881048675
 20
-142.0082139401924
 30
0.0
  0
VERTEX
  5
322
330
318
100
AcDbEntity
  8
_U+30EC_U+30A4_U+30E4_U+30FC 1
370
     0
100
AcDbVertex
100
AcDb2dVertex
 10
79.44097355869879
 20
-142.0082139401924
 30
0.0
  0
VERTEX
  5
323
330
318
100
AcDbEntity
  8
_U+30EC_U+30A4_U+30E4_U+30FC 1
370
     0
100
AcDbVertex
100
AcDb2dVertex
 10
79.44097355869879
 20
-142.2069959496913
 30
0.0
  0
VERTEX
  5
324
330
318
100
AcDbEntity
  8
_U+30EC_U+30A4_U+30E4_U+30FC 1
370
     0
100
AcDbVertex
100
AcDb2dVertex
 10
79.23357881048675
 20
-142.2069959496913
 30
0.0
  0
SEQEND
  5
325
330
318
100
AcDbEntity
  8
_U+30EC_U+30A4_U+30E4_U+30FC 1
370
     0
  0
POLYLINE
  5
326
330
314
100
AcDbEntity
  8
_U+30EC_U+30A4_U+30E4_U+30FC 1
370
     0
100
AcDb2dPolyline
 66
     1
 10
0.0
 20
0.0
 30
0.0
  0
VERTEX
  5
327
330
326
100
AcDbEntity
  8
_U+30EC_U+30A4_U+30E4_U+30FC 1
370
     0
100
AcDbVertex
100
AcDb2dVertex
 10
79.0156765210447
 20
-141.3522677598008
 30
0.0
  0
VERTEX
  5
328
330
326
100
AcDbEntity
  8
_U+30EC_U+30A4_U+30E4_U+30FC 1
370
     0
100
AcDbVertex
100
AcDb2dVertex
 10
78.55885685970057
 20
-142.0082139401924
 30
0.0
  0
VERTEX
  5
329
330
326
100
AcDbEntity
  8
_U+30EC_U+30A4_U+30E4_U+30FC 1
370
     0
100
AcDbVertex
100
AcDb2dVertex
 10
79.0156765210447
 20
-142.0082139401924
 30
0.0
  0
VERTEX
  5
32A
330
326
100
AcDbEntity
  8
_U+30EC_U+30A4_U+30E4_U+30FC 1
370
     0
100
AcDbVertex
100
AcDb2dVertex
 10
79.0156765210447
 20
-141.3522677598008
 30
0.0
  0
SEQEND
  5
32B
330
326
100
AcDbEntity
  8
_U+30EC_U+30A4_U+30E4_U+30FC 1
370
     0
  0
HATCH
  5
32C
330
314
100
AcDbEntity
  8
_U+30EC_U+30A4_U+30E4_U+30FC 1
 62
   179
420
  2234388
100
AcDbHatch
 10
0.0
 20
0.0
 30
0.0
210
0.0
220
0.0
230
1.0
  2
SOLID
 70
     1
 71
     0
 91
        2
 92
        1
 93
       11
 72
     1
 10
79.23357881048675
 20
-142.2069959496913
 11
79.23357881048675
 21
-142.553917065056
 72
     1
 10
79.23357881048675
 20
-142.553917065056
 11
79.0156765210447
 21
-142.553917065056
 72
     1
 10
79.0156765210447
 20
-142.553917065056
 11
79.0156765210447
 21
-142.2069959496913
 72
     1
 10
79.0156765210447
 20
-142.2069959496913
 11
78.35990259542739
 21
-142.2069959496913
 72
     1
 10
78.35990259542739
 20
-142.2069959496913
 11
78.35990259542739
 21
-141.9827202336016
 72
     1
 10
78.35990259542739
 20
-141.9827202336016
 11
79.03893091557013
 21
-141.009825268567
 72
     1
 10
79.03893091557013
 20
-141.009825268567
 11
79.23357881048675
 21
-141.009825268567
 72
     1
 10
79.23357881048675
 20
-141.009825268567
 11
79.23357881048675
 21
-142.0082139401924
 72
     1
 10
79.23357881048675
 20
-142.0082139401924
 11
79.44097355869879
 21
-142.0082139401924
 72
     1
 10
79.44097355869879
 20
-142.0082139401924
 11
79.44097355869879
 21
-142.2069959496913
 72
     1
 10
79.44097355869879
 20
-142.2069959496913
 11
79.23357881048675
 21
-142.2069959496913
 97
        0
 92
        1
 93
        3
 72
     1
 10
79.0156765210447
 20
-141.3522677598008
 11
78.55885685970057
 21
-142.0082139401924
 72
     1
 10
78.55885685970057
 20
-142.0082139401924
 11
79.0156765210447
 21
-142.0082139401924
 72
     1
 10
79.0156765210447
 20
-142.0082139401924
 11
79.0156765210447
 21
-141.3522677598008
 97
        0
 75
     2
 76
     1
 98
        0
  0
SPLINE
  5
32D
330
314
100
AcDbEntity
  8
_U+30EC_U+30A4_U+30E4_U+30FC 1
370
     0
100
AcDbSpline
210
0.0
220
0.0
230
1.0
 70
    11
 71
     3
 72
    29
 73
    25
 74
     0
 42
0.0000000001
 43
0.0000000001
 12
1.0
 22
0.0
 32
0.0
 13
1.0
 23
0.0
 33
0.0
 40
0.0
 40
0.0
 40
0.0
 40
0.0
 40
1.0
 40
1.0
 40
1.0
 40
2.0
 40
2.0
 40
2.0
 40
3.0
 40
3.0
 40
3.0
 40
4.0
 40
4.0
 40
4.0
 40
5.0
 40
5.0
 40
5.0
 40
6.0
 40
6.0
 40
6.0
 40
7.0
 40
7.0
 40
7.0
 40
8.0
 40
8.0
 40
8.0
 40
8.0
 10
80.47605249724211
 20
-142.3761501380171
 30
0.0
 10
80.36822100855377
 20
-142.5856119435203
 30
0.0
 10
80.19476045087146
 20
-142.6049044782377
 30
0.0
 10
80.07831622347001
 20
-142.6049044782377
 30
0.0
 10
79.9176025190831
 20
-142.6049044782377
 30
0.0
 10
79.77583683986508
 20
-142.5580511796383
 30
0.0
 10
79.68057994969791
 20
-142.3761501380171
 30
0.0
 10
79.57705483036615
 20
-142.1815022431005
 30
0.0
 10
79.55793455042301
 20
-141.9448241832638
 30
0.0
 10
79.55793455042301
 20
-141.781526657263
 30
0.0
 10
79.55793455042301
 20
-141.637866175528
 30
0.0
 10
79.57481551830074
 20
-141.3860296955563
 30
0.0
 10
79.68057994969791
 20
-141.1872476860574
 30
0.0
 10
79.78858369316049
 20
-140.9843315619761
 30
0.0
 10
79.9492973975474
 20
-140.9609049126765
 30
0.0
 10
80.07831622347001
 20
-140.9609049126765
 30
0.0
 10
80.23696287056576
 20
-140.9609049126765
 30
0.0
 10
80.38079560707494
 20
-141.0053466444362
 30
0.0
 10
80.47605249724211
 20
-141.1872476860574
 30
0.0
 10
80.57544350199156
 20
-141.3798285236828
 30
0.0
 10
80.598697896517
 20
-141.6082383543549
 30
0.0
 10
80.598697896517
 20
-141.781526657263
 30
0.0
 10
80.598697896517
 20
-141.9530924124284
 30
0.0
 10
80.57768281405697
 20
-142.1839138099402
 30
0.0
 10
80.47605249724211
 20
-142.3761501380171
 30
0.0
  0
SPLINE
  5
32E
330
314
100
AcDbEntity
  8
_U+30EC_U+30A4_U+30E4_U+30FC 1
370
     0
100
AcDbSpline
210
0.0
220
0.0
230
1.0
 70
    11
 71
     3
 72
    17
 73
    13
 74
     0
 42
0.0000000001
 43
0.0000000001
 12
1.0
 22
0.0
 32
0.0
 13
1.0
 23
0.0
 33
0.0
 40
0.0
 40
0.0
 40
0.0
 40
0.0
 40
1.0
 40
1.0
 40
1.0
 40
2.0
 40
2.0
 40
2.0
 40
3.0
 40
3.0
 40
3.0
 40
4.0
 40
4.0
 40
4.0
 40
4.0
 10
80.07831622347001
 20
-141.1534857503019
 30
0.0
 10
79.82871905556365
 20
-141.1534857503019
 30
0.0
 10
79.78221026651279
 20
-141.437017108738
 30
0.0
 10
79.78221026651279
 20
-141.781526657263
 30
0.0
 10
79.78221026651279
 20
-142.1012315182942
 30
0.0
 10
79.81821151433364
 20
-142.4099120737725
 30
0.0
 10
80.07831622347001
 20
-142.4099120737725
 30
0.0
 10
80.32584633408521
 20
-142.4099120737725
 30
0.0
 10
80.37459443520149
 20
-142.1287922821761
 30
0.0
 10
80.37459443520149
 20
-141.781526657263
 30
0.0
 10
80.37459443520149
 20
-141.4625108153288
 30
0.0
 10
80.33635387531523
 20
-141.1534857503019
 30
0.0
 10
80.07831622347001
 20
-141.1534857503019
 30
0.0
  0
HATCH
  5
32F
330
314
100
AcDbEntity
  8
_U+30EC_U+30A4_U+30E4_U+30FC 1
 62
   179
420
  2234388
100
AcDbHatch
 10
0.0
 20
0.0
 30
0.0
210
0.0
220
0.0
230
1.0
  2
SOLID
 70
     1
 71
     0
 91
        2
 92
        1
 93
        1
 72
     4
 94
        3
 73
     0
 74
     1
 95
       29
 96
       25
 40
0.0
 40
0.0
 40
0.0
 40
0.0
 40
1.0
 40
1.0
 40
1.0
 40
2.0
 40
2.0
 40
2.0
 40
3.0
 40
3.0
 40
3.0
 40
4.0
 40
4.0
 40
4.0
 40
5.0
 40
5.0
 40
5.0
 40
6.0
 40
6.0
 40
6.0
 40
7.0
 40
7.0
 40
7.0
 40
8.0
 40
8.0
 40
8.0
 40
8.0
 10
80.47605249724211
 20
-142.3761501380171
 10
80.36822100855377
 20
-142.5856119435203
 10
80.19476045087146
 20
-142.6049044782377
 10
80.07831622347001
 20
-142.6049044782377
 10
79.9176025190831
 20
-142.6049044782377
 10
79.77583683986508
 20
-142.5580511796383
 10
79.68057994969791
 20
-142.3761501380171
 10
79.57705483036615
 20
-142.1815022431005
 10
79.55793455042301
 20
-141.9448241832638
 10
79.55793455042301
 20
-141.781526657263
 10
79.55793455042301
 20
-141.637866175528
 10
79.57481551830074
 20
-141.3860296955563
 10
79.68057994969791
 20
-141.1872476860574
 10
79.78858369316049
 20
-140.9843315619761
 10
79.9492973975474
 20
-140.9609049126765
 10
80.07831622347001
 20
-140.9609049126765
 10
80.23696287056576
 20
-140.9609049126765
 10
80.38079560707494
 20
-141.0053466444362
 10
80.47605249724211
 20
-141.1872476860574
 10
80.57544350199156
 20
-141.3798285236828
 10
80.598697896517
 20
-141.6082383543549
 10
80.598697896517
 20
-141.781526657263
 10
80.598697896517
 20
-141.9530924124284
 10
80.57768281405697
 20
-142.1839138099402
 10
80.47605249724211
 20
-142.3761501380171
 97
        0
 97
        0
 92
        1
 93
        1
 72
     4
 94
        3
 73
     0
 74
     1
 95
       17
 96
       13
 40
0.0
 40
0.0
 40
0.0
 40
0.0
 40
1.0
 40
1.0
 40
1.0
 40
2.0
 40
2.0
 40
2.0
 40
3.0
 40
3.0
 40
3.0
 40
4.0
 40
4.0
 40
4.0
 40
4.0
 10
80.07831622347001
 20
-141.1534857503019
 10
79.82871905556365
 20
-141.1534857503019
 10
79.78221026651279
 20
-141.437017108738
 10
79.78221026651279
 20
-141.781526657263
 10
79.78221026651279
 20
-142.1012315182942
 10
79.81821151433364
 20
-142.4099120737725
 10
80.07831622347001
 20
-142.4099120737725
 10
80.32584633408521
 20
-142.4099120737725
 10
80.37459443520149
 20
-142.1287922821761
 10
80.37459443520149
 20
-141.781526657263
 10
80.37459443520149
 20
-141.4625108153288
 10
80.33635387531523
 20
-141.1534857503019
 10
80.07831622347001
 20
-141.1534857503019
 97
        0
 97
        0
 75
     2
 76
     1
 98
        0
  0
ENDBLK
  5
317
330
314
100
AcDbEntity
  8
0
100
AcDbBlockEnd
  0
BLOCK
  5
332
330
330
100
AcDbEntity
  8
0
100
AcDbBlockBegin
  2
block 4
 70
     0
 10
0.0
 20
0.0
 30
0.0
  3
block 4
  1

  0
SPLINE
  5
334
330
330
100
AcDbEntity
  8
_U+30EC_U+30A4_U+30E4_U+30FC 1
370
     0
100
AcDbSpline
210
0.0
220
0.0
230
1.0
 70
    11
 71
     3
 72
    44
 73
    40
 74
     0
 42
0.0000000001
 43
0.0000000001
 12
1.0
 22
0.0
 32
0.0
 13
1.0
 23
0.0
 33
0.0
 40
0.0
 40
0.0
 40
0.0
 40
0.0
 40
1.0
 40
1.0
 40
1.0
 40
2.0
 40
2.0
 40
2.0
 40
3.0
 40
3.0
 40
3.0
 40
4.0
 40
4.0
 40
4.0
 40
5.0
 40
5.0
 40
5.0
 40
6.0
 40
6.0
 40
6.0
 40
7.0
 40
7.0
 40
7.0
 40
8.0
 40
8.0
 40
8.0
 40
9.0
 40
9.0
 40
9.0
 40
10.0
 40
10.0
 40
10.0
 40
11.0
 40
11.0
 40
11.0
 40
12.0
 40
12.0
 40
12.0
 40
13.0
 40
13.0
 40
13.0
 40
13.0
 10
67.92005749170055
 20
-125.5125799924934
 30
0.0
 10
68.0787041387963
 20
-125.7304822819354
 30
0.0
 10
68.15277369172917
 20
-125.8236721148114
 30
0.0
 10
68.29660642823835
 20
-125.8722479611535
 30
0.0
 10
68.29660642823835
 20
-125.8722479611535
 30
0.0
 10
68.29660642823835
 20
-125.0938286362613
 30
0.0
 10
68.29660642823835
 20
-125.0938286362613
 30
0.0
 10
68.29660642823835
 20
-125.0938286362613
 30
0.0
 10
68.50176186438497
 20
-125.0938286362613
 30
0.0
 10
68.50176186438497
 20
-125.0938286362613
 30
0.0
 10
68.50176186438497
 20
-125.0938286362613
 30
0.0
 10
68.50176186438497
 20
-126.1218451290598
 30
0.0
 10
68.50176186438497
 20
-126.1218451290598
 30
0.0
 10
68.14416095301604
 20
-126.0901502505955
 30
0.0
 10
68.06595728550087
 20
-126.0246934363758
 30
0.0
 10
67.76761201647824
 20
-125.6395317611248
 30
0.0
 10
67.56883000697933
 20
-125.3835611665708
 30
0.0
 10
67.50113388069417
 20
-125.318104352351
 30
0.0
 10
67.3636745708327
 20
-125.318104352351
 30
0.0
 10
67.2451632861401
 20
-125.318104352351
 30
0.0
 10
67.11407740292634
 20
-125.3899345932185
 30
0.0
 10
67.11407740292634
 20
-125.5866495454263
 30
0.0
 10
67.11407740292634
 20
-125.8469265093369
 30
0.0
 10
67.34455429088956
 20
-125.8553669932758
 30
0.0
 10
67.460998518291
 20
-125.8596733626323
 30
0.0
 10
67.460998518291
 20
-125.8596733626323
 30
0.0
 10
67.460998518291
 20
-126.0837768239478
 30
0.0
 10
67.460998518291
 20
-126.0837768239478
 30
0.0
 10
67.33404674965955
 20
-126.0753363400089
 30
0.0
 10
67.22190889161466
 20
-126.0648287987789
 30
0.0
 10
67.10339760692207
 20
-125.9843858191984
 30
0.0
 10
66.94268390253517
 20
-125.8744872732189
 30
0.0
 10
66.90874971200546
 20
-125.6882798622411
 30
0.0
 10
66.90874971200546
 20
-125.5718356348397
 30
0.0
 10
66.90874971200546
 20
-125.2946777030513
 30
0.0
 10
67.09289006569206
 20
-125.0874552096136
 30
0.0
 10
67.36574162812384
 20
-125.0874552096136
 30
0.0
 10
67.5941514587959
 20
-125.0874552096136
 30
0.0
 10
67.69371471831963
 20
-125.2037271822407
 30
0.0
 10
67.92005749170055
 20
-125.5125799924934
 30
0.0
  0
HATCH
  5
335
330
330
100
AcDbEntity
  8
_U+30EC_U+30A4_U+30E4_U+30FC 1
 62
   179
420
  2234388
100
AcDbHatch
 10
0.0
 20
0.0
 30
0.0
210
0.0
220
0.0
230
1.0
  2
SOLID
 70
     1
 71
     0
 91
        1
 92
        1
 93
        1
 72
     4
 94
        3
 73
     0
 74
     1
 95
       44
 96
       40
 40
0.0
 40
0.0
 40
0.0
 40
0.0
 40
1.0
 40
1.0
 40
1.0
 40
2.0
 40
2.0
 40
2.0
 40
3.0
 40
3.0
 40
3.0
 40
4.0
 40
4.0
 40
4.0
 40
5.0
 40
5.0
 40
5.0
 40
6.0
 40
6.0
 40
6.0
 40
7.0
 40
7.0
 40
7.0
 40
8.0
 40
8.0
 40
8.0
 40
9.0
 40
9.0
 40
9.0
 40
10.0
 40
10.0
 40
10.0
 40
11.0
 40
11.0
 40
11.0
 40
12.0
 40
12.0
 40
12.0
 40
13.0
 40
13.0
 40
13.0
 40
13.0
 10
67.92005749170055
 20
-125.5125799924934
 10
68.0787041387963
 20
-125.7304822819354
 10
68.15277369172917
 20
-125.8236721148114
 10
68.29660642823835
 20
-125.8722479611535
 10
68.29660642823835
 20
-125.8722479611535
 10
68.29660642823835
 20
-125.0938286362613
 10
68.29660642823835
 20
-125.0938286362613
 10
68.29660642823835
 20
-125.0938286362613
 10
68.50176186438497
 20
-125.0938286362613
 10
68.50176186438497
 20
-125.0938286362613
 10
68.50176186438497
 20
-125.0938286362613
 10
68.50176186438497
 20
-126.1218451290598
 10
68.50176186438497
 20
-126.1218451290598
 10
68.14416095301604
 20
-126.0901502505955
 10
68.06595728550087
 20
-126.0246934363758
 10
67.76761201647824
 20
-125.6395317611248
 10
67.56883000697933
 20
-125.3835611665708
 10
67.50113388069417
 20
-125.318104352351
 10
67.3636745708327
 20
-125.318104352351
 10
67.2451632861401
 20
-125.318104352351
 10
67.11407740292634
 20
-125.3899345932185
 10
67.11407740292634
 20
-125.5866495454263
 10
67.11407740292634
 20
-125.8469265093369
 10
67.34455429088956
 20
-125.8553669932758
 10
67.460998518291
 20
-125.8596733626323
 10
67.460998518291
 20
-125.8596733626323
 10
67.460998518291
 20
-126.0837768239478
 10
67.460998518291
 20
-126.0837768239478
 10
67.33404674965955
 20
-126.0753363400089
 10
67.22190889161466
 20
-126.0648287987789
 10
67.10339760692207
 20
-125.9843858191984
 10
66.94268390253517
 20
-125.8744872732189
 10
66.90874971200546
 20
-125.6882798622411
 10
66.90874971200546
 20
-125.5718356348397
 10
66.90874971200546
 20
-125.2946777030513
 10
67.09289006569206
 20
-125.0874552096136
 10
67.36574162812384
 20
-125.0874552096136
 10
67.5941514587959
 20
-125.0874552096136
 10
67.69371471831963
 20
-125.2037271822407
 10
67.92005749170055
 20
-125.5125799924934
 97
        0
 97
        0
 75
     2
 76
     1
 98
        0
  0
SPLINE
  5
336
330
330
100
AcDbEntity
  8
_U+30EC_U+30A4_U+30E4_U+30FC 1
370
     0
100
AcDbSpline
210
0.0
220
0.0
230
1.0
 70
    11
 71
     3
 72
    44
 73
    40
 74
     0
 42
0.0000000001
 43
0.0000000001
 12
1.0
 22
0.0
 32
0.0
 13
1.0
 23
0.0
 33
0.0
 40
0.0
 40
0.0
 40
0.0
 40
0.0
 40
1.0
 40
1.0
 40
1.0
 40
2.0
 40
2.0
 40
2.0
 40
3.0
 40
3.0
 40
3.0
 40
4.0
 40
4.0
 40
4.0
 40
5.0
 40
5.0
 40
5.0
 40
6.0
 40
6.0
 40
6.0
 40
7.0
 40
7.0
 40
7.0
 40
8.0
 40
8.0
 40
8.0
 40
9.0
 40
9.0
 40
9.0
 40
10.0
 40
10.0
 40
10.0
 40
11.0
 40
11.0
 40
11.0
 40
12.0
 40
12.0
 40
12.0
 40
13.0
 40
13.0
 40
13.0
 40
13.0
 10
67.92005749170055
 20
-124.335735374732
 30
0.0
 10
68.0787041387963
 20
-124.5536376641741
 30
0.0
 10
68.15277369172917
 20
-124.6468274970501
 30
0.0
 10
68.29660642823835
 20
-124.6954033433921
 30
0.0
 10
68.29660642823835
 20
-124.6954033433921
 30
0.0
 10
68.29660642823835
 20
-123.9169840184999
 30
0.0
 10
68.29660642823835
 20
-123.9169840184999
 30
0.0
 10
68.29660642823835
 20
-123.9169840184999
 30
0.0
 10
68.50176186438497
 20
-123.9169840184999
 30
0.0
 10
68.50176186438497
 20
-123.9169840184999
 30
0.0
 10
68.50176186438497
 20
-123.9169840184999
 30
0.0
 10
68.50176186438497
 20
-124.9450005112985
 30
0.0
 10
68.50176186438497
 20
-124.9450005112985
 30
0.0
 10
68.14416095301604
 20
-124.9133056328342
 30
0.0
 10
68.06595728550087
 20
-124.8478488186144
 30
0.0
 10
67.76761201647824
 20
-124.4626871433635
 30
0.0
 10
67.56883000697933
 20
-124.2067165488094
 30
0.0
 10
67.50113388069417
 20
-124.1412597345897
 30
0.0
 10
67.3636745708327
 20
-124.1412597345897
 30
0.0
 10
67.2451632861401
 20
-124.1412597345897
 30
0.0
 10
67.11407740292634
 20
-124.2130899754572
 30
0.0
 10
67.11407740292634
 20
-124.4098049276649
 30
0.0
 10
67.11407740292634
 20
-124.6700818915755
 30
0.0
 10
67.34455429088956
 20
-124.6785223755144
 30
0.0
 10
67.460998518291
 20
-124.682828744871
 30
0.0
 10
67.460998518291
 20
-124.682828744871
 30
0.0
 10
67.460998518291
 20
-124.9069322061865
 30
0.0
 10
67.460998518291
 20
-124.9069322061865
 30
0.0
 10
67.33404674965955
 20
-124.8984917222476
 30
0.0
 10
67.22190889161466
 20
-124.8879841810176
 30
0.0
 10
67.10339760692207
 20
-124.807541201437
 30
0.0
 10
66.94268390253517
 20
-124.6976426554575
 30
0.0
 10
66.90874971200546
 20
-124.5114352444798
 30
0.0
 10
66.90874971200546
 20
-124.3949910170783
 30
0.0
 10
66.90874971200546
 20
-124.11783308529
 30
0.0
 10
67.09289006569206
 20
-123.9106105918522
 30
0.0
 10
67.36574162812384
 20
-123.9106105918522
 30
0.0
 10
67.5941514587959
 20
-123.9106105918522
 30
0.0
 10
67.69371471831963
 20
-124.0268825644794
 30
0.0
 10
67.92005749170055
 20
-124.335735374732
 30
0.0
  0
HATCH
  5
337
330
330
100
AcDbEntity
  8
_U+30EC_U+30A4_U+30E4_U+30FC 1
 62
   179
420
  2234388
100
AcDbHatch
 10
0.0
 20
0.0
 30
0.0
210
0.0
220
0.0
230
1.0
  2
SOLID
 70
     1
 71
     0
 91
        1
 92
        1
 93
        1
 72
     4
 94
        3
 73
     0
 74
     1
 95
       44
 96
       40
 40
0.0
 40
0.0
 40
0.0
 40
0.0
 40
1.0
 40
1.0
 40
1.0
 40
2.0
 40
2.0
 40
2.0
 40
3.0
 40
3.0
 40
3.0
 40
4.0
 40
4.0
 40
4.0
 40
5.0
 40
5.0
 40
5.0
 40
6.0
 40
6.0
 40
6.0
 40
7.0
 40
7.0
 40
7.0
 40
8.0
 40
8.0
 40
8.0
 40
9.0
 40
9.0
 40
9.0
 40
10.0
 40
10.0
 40
10.0
 40
11.0
 40
11.0
 40
11.0
 40
12.0
 40
12.0
 40
12.0
 40
13.0
 40
13.0
 40
13.0
 40
13.0
 10
67.92005749170055
 20
-124.335735374732
 10
68.0787041387963
 20
-124.5536376641741
 10
68.15277369172917
 20
-124.6468274970501
 10
68.29660642823835
 20
-124.6954033433921
 10
68.29660642823835
 20
-124.6954033433921
 10
68.29660642823835
 20
-123.9169840184999
 10
68.29660642823835
 20
-123.9169840184999
 10
68.29660642823835
 20
-123.9169840184999
 10
68.50176186438497
 20
-123.9169840184999
 10
68.50176186438497
 20
-123.9169840184999
 10
68.50176186438497
 20
-123.9169840184999
 10
68.50176186438497
 20
-124.9450005112985
 10
68.50176186438497
 20
-124.9450005112985
 10
68.14416095301604
 20
-124.9133056328342
 10
68.06595728550087
 20
-124.8478488186144
 10
67.76761201647824
 20
-124.4626871433635
 10
67.56883000697933
 20
-124.2067165488094
 10
67.50113388069417
 20
-124.1412597345897
 10
67.3636745708327
 20
-124.1412597345897
 10
67.2451632861401
 20
-124.1412597345897
 10
67.11407740292634
 20
-124.2130899754572
 10
67.11407740292634
 20
-124.4098049276649
 10
67.11407740292634
 20
-124.6700818915755
 10
67.34455429088956
 20
-124.6785223755144
 10
67.460998518291
 20
-124.682828744871
 10
67.460998518291
 20
-124.682828744871
 10
67.460998518291
 20
-124.9069322061865
 10
67.460998518291
 20
-124.9069322061865
 10
67.33404674965955
 20
-124.8984917222476
 10
67.22190889161466
 20
-124.8879841810176
 10
67.10339760692207
 20
-124.807541201437
 10
66.94268390253517
 20
-124.6976426554575
 10
66.90874971200546
 20
-124.5114352444798
 10
66.90874971200546
 20
-124.3949910170783
 10
66.90874971200546
 20
-124.11783308529
 10
67.09289006569206
 20
-123.9106105918522
 10
67.36574162812384
 20
-123.9106105918522
 10
67.5941514587959
 20
-123.9106105918522
 10
67.69371471831963
 20
-124.0268825644794
 10
67.92005749170055
 20
-124.335735374732
 97
        0
 97
        0
 75
     2
 76
     1
 98
        0
  0
ENDBLK
  5
333
330
330
100
AcDbEntity
  8
0
100
AcDbBlockEnd
  0
BLOCK
  5
33A
330
338
100
AcDbEntity
  8
0
100
AcDbBlockBegin
  2
block 5
 70
     0
 10
0.0
 20
0.0
 30
0.0
  3
block 5
  1

  0
SPLINE
  5
33C
330
338
100
AcDbEntity
  8
_U+30EC_U+30A4_U+30E4_U+30FC 1
370
     0
100
AcDbSpline
210
0.0
220
0.0
230
1.0
 70
    11
 71
     3
 72
    26
 73
    22
 74
     0
 42
0.0000000001
 43
0.0000000001
 12
1.0
 22
0.0
 32
0.0
 13
1.0
 23
0.0
 33
0.0
 40
0.0
 40
0.0
 40
0.0
 40
0.0
 40
1.0
 40
1.0
 40
1.0
 40
2.0
 40
2.0
 40
2.0
 40
3.0
 40
3.0
 40
3.0
 40
4.0
 40
4.0
 40
4.0
 40
5.0
 40
5.0
 40
5.0
 40
6.0
 40
6.0
 40
6.0
 40
7.0
 40
7.0
 40
7.0
 40
7.0
 10
68.50176186438497
 20
-132.9524359476647
 30
0.0
 10
68.50176186438497
 20
-132.9524359476647
 30
0.0
 10
67.39743650658815
 20
-132.9524359476647
 30
0.0
 10
67.39743650658815
 20
-132.9524359476647
 30
0.0
 10
67.39743650658815
 20
-132.9524359476647
 30
0.0
 10
67.39743650658815
 20
-133.2824760951516
 30
0.0
 10
67.39743650658815
 20
-133.2824760951516
 30
0.0
 10
67.39743650658815
 20
-133.2824760951516
 30
0.0
 10
67.24946965549667
 20
-133.2824760951516
 30
0.0
 10
67.24946965549667
 20
-133.2824760951516
 30
0.0
 10
67.23465574491009
 20
-132.9503688903735
 30
0.0
 10
67.07170272845777
 20
-132.9038601013227
 30
0.0
 10
66.95749781312173
 20
-132.8742322801495
 30
0.0
 10
66.95749781312173
 20
-132.8742322801495
 30
0.0
 10
66.95749781312173
 20
-132.7281602315749
 30
0.0
 10
66.95749781312173
 20
-132.7281602315749
 30
0.0
 10
66.95749781312173
 20
-132.7281602315749
 30
0.0
 10
68.50176186438497
 20
-132.7281602315749
 30
0.0
 10
68.50176186438497
 20
-132.7281602315749
 30
0.0
 10
68.50176186438497
 20
-132.7281602315749
 30
0.0
 10
68.50176186438497
 20
-132.9524359476647
 30
0.0
 10
68.50176186438497
 20
-132.9524359476647
 30
0.0
  0
HATCH
  5
33D
330
338
100
AcDbEntity
  8
_U+30EC_U+30A4_U+30E4_U+30FC 1
 62
   179
420
  2234388
100
AcDbHatch
 10
0.0
 20
0.0
 30
0.0
210
0.0
220
0.0
230
1.0
  2
SOLID
 70
     1
 71
     0
 91
        1
 92
        1
 93
        1
 72
     4
 94
        3
 73
     0
 74
     1
 95
       26
 96
       22
 40
0.0
 40
0.0
 40
0.0
 40
0.0
 40
1.0
 40
1.0
 40
1.0
 40
2.0
 40
2.0
 40
2.0
 40
3.0
 40
3.0
 40
3.0
 40
4.0
 40
4.0
 40
4.0
 40
5.0
 40
5.0
 40
5.0
 40
6.0
 40
6.0
 40
6.0
 40
7.0
 40
7.0
 40
7.0
 40
7.0
 10
68.50176186438497
 20
-132.9524359476647
 10
68.50176186438497
 20
-132.9524359476647
 10
67.39743650658815
 20
-132.9524359476647
 10
67.39743650658815
 20
-132.9524359476647
 10
67.39743650658815
 20
-132.9524359476647
 10
67.39743650658815
 20
-133.2824760951516
 10
67.39743650658815
 20
-133.2824760951516
 10
67.39743650658815
 20
-133.2824760951516
 10
67.24946965549667
 20
-133.2824760951516
 10
67.24946965549667
 20
-133.2824760951516
 10
67.23465574491009
 20
-132.9503688903735
 10
67.07170272845777
 20
-132.9038601013227
 10
66.95749781312173
 20
-132.8742322801495
 10
66.95749781312173
 20
-132.8742322801495
 10
66.95749781312173
 20
-132.7281602315749
 10
66.95749781312173
 20
-132.7281602315749
 10
66.95749781312173
 20
-132.7281602315749
 10
68.50176186438497
 20
-132.7281602315749
 10
68.50176186438497
 20
-132.7281602315749
 10
68.50176186438497
 20
-132.7281602315749
 10
68.50176186438497
 20
-132.9524359476647
 10
68.50176186438497
 20
-132.9524359476647
 97
        0
 97
        0
 75
     2
 76
     1
 98
        0
  0
SPLINE
  5
33E
330
338
100
AcDbEntity
  8
_U+30EC_U+30A4_U+30E4_U+30FC 1
370
     0
100
AcDbSpline
210
0.0
220
0.0
230
1.0
 70
    11
 71
     3
 72
    29
 73
    25
 74
     0
 42
0.0000000001
 43
0.0000000001
 12
1.0
 22
0.0
 32
0.0
 13
1.0
 23
0.0
 33
0.0
 40
0.0
 40
0.0
 40
0.0
 40
0.0
 40
1.0
 40
1.0
 40
1.0
 40
2.0
 40
2.0
 40
2.0
 40
3.0
 40
3.0
 40
3.0
 40
4.0
 40
4.0
 40
4.0
 40
5.0
 40
5.0
 40
5.0
 40
6.0
 40
6.0
 40
6.0
 40
7.0
 40
7.0
 40
7.0
 40
8.0
 40
8.0
 40
8.0
 40
8.0
 10
68.55257702279242
 20
-131.7270154835613
 30
0.0
 10
68.55257702279242
 20
-131.9933213645711
 30
0.0
 10
68.41494545815668
 20
-132.2475694113826
 30
0.0
 10
68.06595728550087
 20
-132.2475694113826
 30
0.0
 10
67.80998669094681
 20
-132.2475694113826
 30
0.0
 10
67.71472980077965
 20
-132.1056314773903
 30
0.0
 10
67.65340710114221
 20
-131.9998670459931
 30
0.0
 10
67.5941514587959
 20
-132.1249240121077
 30
0.0
 10
67.47994654345987
 20
-132.2007161127832
 30
0.0
 10
67.31923283907297
 20
-132.2007161127832
 30
0.0
 10
67.04414196457577
 20
-132.2007161127832
 30
0.0
 10
66.90874971200546
 20
-132.0019341032842
 30
0.0
 10
66.90874971200546
 20
-131.7270154835613
 30
0.0
 10
66.90874971200546
 20
-131.4434841251253
 30
0.0
 10
67.05258244851464
 20
-131.2533148543395
 30
0.0
 10
67.31923283907297
 20
-131.2533148543395
 30
0.0
 10
67.47994654345987
 20
-131.2533148543395
 30
0.0
 10
67.5941514587959
 20
-131.3311740123061
 30
0.0
 10
67.65340710114221
 20
-131.4562309784207
 30
0.0
 10
67.70422225954964
 20
-131.3673475149012
 30
0.0
 10
67.7994791497168
 20
-131.2085286130312
 30
0.0
 10
68.06182317091857
 20
-131.2085286130312
 30
0.0
 10
68.43613279539098
 20
-131.2085286130312
 30
0.0
 10
68.55257702279242
 20
-131.487925856885
 30
0.0
 10
68.55257702279242
 20
-131.7270154835613
 30
0.0
  0
SPLINE
  5
33F
330
338
100
AcDbEntity
  8
_U+30EC_U+30A4_U+30E4_U+30FC 1
370
     0
100
AcDbSpline
210
0.0
220
0.0
230
1.0
 70
    11
 71
     3
 72
    17
 73
    13
 74
     0
 42
0.0000000001
 43
0.0000000001
 12
1.0
 22
0.0
 32
0.0
 13
1.0
 23
0.0
 33
0.0
 40
0.0
 40
0.0
 40
0.0
 40
0.0
 40
1.0
 40
1.0
 40
1.0
 40
2.0
 40
2.0
 40
2.0
 40
3.0
 40
3.0
 40
3.0
 40
4.0
 40
4.0
 40
4.0
 40
4.0
 10
67.10133054963092
 20
-131.7270154835613
 30
0.0
 10
67.10133054963092
 20
-131.8920355573048
 30
0.0
 10
67.19641518502381
 20
-131.9767849062419
 30
0.0
 10
67.33180743759414
 20
-131.9767849062419
 30
0.0
 10
67.4546250916433
 20
-131.9767849062419
 30
0.0
 10
67.57313637633588
 20
-131.9044379010517
 30
0.0
 10
67.57313637633588
 20
-131.7270154835613
 30
0.0
 10
67.57313637633588
 20
-131.5492485565224
 30
0.0
 10
67.4546250916433
 20
-131.4772460608807
 30
0.0
 10
67.33180743759414
 20
-131.4772460608807
 30
0.0
 10
67.19641518502381
 20
-131.4772460608807
 30
0.0
 10
67.10133054963092
 20
-131.564062467109
 30
0.0
 10
67.10133054963092
 20
-131.7270154835613
 30
0.0
  0
SPLINE
  5
340
330
338
100
AcDbEntity
  8
_U+30EC_U+30A4_U+30E4_U+30FC 1
370
     0
100
AcDbSpline
210
0.0
220
0.0
230
1.0
 70
    11
 71
     3
 72
    17
 73
    13
 74
     0
 42
0.0000000001
 43
0.0000000001
 12
1.0
 22
0.0
 32
0.0
 13
1.0
 23
0.0
 33
0.0
 40
0.0
 40
0.0
 40
0.0
 40
0.0
 40
1.0
 40
1.0
 40
1.0
 40
2.0
 40
2.0
 40
2.0
 40
3.0
 40
3.0
 40
3.0
 40
4.0
 40
4.0
 40
4.0
 40
4.0
 10
67.76141084460478
 20
-131.7270154835613
 30
0.0
 10
67.76141084460478
 20
-131.8706759652962
 30
0.0
 10
67.84805499605882
 20
-132.0229491857443
 30
0.0
 10
68.0511433749143
 20
-132.0229491857443
 30
0.0
 10
68.25629881106093
 20
-132.0229491857443
 30
0.0
 10
68.35792912787579
 20
-131.8961696718871
 30
0.0
 10
68.35792912787579
 20
-131.7270154835613
 30
0.0
 10
68.35792912787579
 20
-131.5406358178093
 30
0.0
 10
68.2352837286009
 20
-131.4307372718298
 30
0.0
 10
68.05751680156202
 20
-131.4307372718298
 30
0.0
 10
67.8353081427634
 20
-131.4307372718298
 30
0.0
 10
67.76141084460478
 20
-131.5936902882821
 30
0.0
 10
67.76141084460478
 20
-131.7270154835613
 30
0.0
  0
HATCH
  5
341
330
338
100
AcDbEntity
  8
_U+30EC_U+30A4_U+30E4_U+30FC 1
 62
   179
420
  2234388
100
AcDbHatch
 10
0.0
 20
0.0
 30
0.0
210
0.0
220
0.0
230
1.0
  2
SOLID
 70
     1
 71
     0
 91
        3
 92
        1
 93
        1
 72
     4
 94
        3
 73
     0
 74
     1
 95
       29
 96
       25
 40
0.0
 40
0.0
 40
0.0
 40
0.0
 40
1.0
 40
1.0
 40
1.0
 40
2.0
 40
2.0
 40
2.0
 40
3.0
 40
3.0
 40
3.0
 40
4.0
 40
4.0
 40
4.0
 40
5.0
 40
5.0
 40
5.0
 40
6.0
 40
6.0
 40
6.0
 40
7.0
 40
7.0
 40
7.0
 40
8.0
 40
8.0
 40
8.0
 40
8.0
 10
68.55257702279242
 20
-131.7270154835613
 10
68.55257702279242
 20
-131.9933213645711
 10
68.41494545815668
 20
-132.2475694113826
 10
68.06595728550087
 20
-132.2475694113826
 10
67.80998669094681
 20
-132.2475694113826
 10
67.71472980077965
 20
-132.1056314773903
 10
67.65340710114221
 20
-131.9998670459931
 10
67.5941514587959
 20
-132.1249240121077
 10
67.47994654345987
 20
-132.2007161127832
 10
67.31923283907297
 20
-132.2007161127832
 10
67.04414196457577
 20
-132.2007161127832
 10
66.90874971200546
 20
-132.0019341032842
 10
66.90874971200546
 20
-131.7270154835613
 10
66.90874971200546
 20
-131.4434841251253
 10
67.05258244851464
 20
-131.2533148543395
 10
67.31923283907297
 20
-131.2533148543395
 10
67.47994654345987
 20
-131.2533148543395
 10
67.5941514587959
 20
-131.3311740123061
 10
67.65340710114221
 20
-131.4562309784207
 10
67.70422225954964
 20
-131.3673475149012
 10
67.7994791497168
 20
-131.2085286130312
 10
68.06182317091857
 20
-131.2085286130312
 10
68.43613279539098
 20
-131.2085286130312
 10
68.55257702279242
 20
-131.487925856885
 10
68.55257702279242
 20
-131.7270154835613
 97
        0
 97
        0
 92
        1
 93
        1
 72
     4
 94
        3
 73
     0
 74
     1
 95
       17
 96
       13
 40
0.0
 40
0.0
 40
0.0
 40
0.0
 40
1.0
 40
1.0
 40
1.0
 40
2.0
 40
2.0
 40
2.0
 40
3.0
 40
3.0
 40
3.0
 40
4.0
 40
4.0
 40
4.0
 40
4.0
 10
67.10133054963092
 20
-131.7270154835613
 10
67.10133054963092
 20
-131.8920355573048
 10
67.19641518502381
 20
-131.9767849062419
 10
67.33180743759414
 20
-131.9767849062419
 10
67.4546250916433
 20
-131.9767849062419
 10
67.57313637633588
 20
-131.9044379010517
 10
67.57313637633588
 20
-131.7270154835613
 10
67.57313637633588
 20
-131.5492485565224
 10
67.4546250916433
 20
-131.4772460608807
 10
67.33180743759414
 20
-131.4772460608807
 10
67.19641518502381
 20
-131.4772460608807
 10
67.10133054963092
 20
-131.564062467109
 10
67.10133054963092
 20
-131.7270154835613
 97
        0
 97
        0
 92
        1
 93
        1
 72
     4
 94
        3
 73
     0
 74
     1
 95
       17
 96
       13
 40
0.0
 40
0.0
 40
0.0
 40
0.0
 40
1.0
 40
1.0
 40
1.0
 40
2.0
 40
2.0
 40
2.0
 40
3.0
 40
3.0
 40
3.0
 40
4.0
 40
4.0
 40
4.0
 40
4.0
 10
67.76141084460478
 20
-131.7270154835613
 10
67.76141084460478
 20
-131.8706759652962
 10
67.84805499605882
 20
-132.0229491857443
 10
68.0511433749143
 20
-132.0229491857443
 10
68.25629881106093
 20
-132.0229491857443
 10
68.35792912787579
 20
-131.8961696718871
 10
68.35792912787579
 20
-131.7270154835613
 10
68.35792912787579
 20
-131.5406358178093
 10
68.2352837286009
 20
-131.4307372718298
 10
68.05751680156202
 20
-131.4307372718298
 10
67.8353081427634
 20
-131.4307372718298
 10
67.76141084460478
 20
-131.5936902882821
 10
67.76141084460478
 20
-131.7270154835613
 97
        0
 97
        0
 75
     2
 76
     1
 98
        0
  0
POLYLINE
  5
342
330
338
100
AcDbEntity
  8
_U+30EC_U+30A4_U+30E4_U+30FC 1
370
     0
100
AcDb2dPolyline
 66
     1
 10
0.0
 20
0.0
 30
0.0
  0
VERTEX
  5
343
330
342
100
AcDbEntity
  8
_U+30EC_U+30A4_U+30E4_U+30FC 1
370
     0
100
AcDbVertex
100
AcDb2dVertex
 10
68.50176186438497
 20
-130.9901095592664
 30
0.0
  0
VERTEX
  5
344
330
342
100
AcDbEntity
  8
_U+30EC_U+30A4_U+30E4_U+30FC 1
370
     0
100
AcDbVertex
100
AcDb2dVertex
 10
68.25009763918747
 20
-130.9901095592664
 30
0.0
  0
VERTEX
  5
345
330
342
100
AcDbEntity
  8
_U+30EC_U+30A4_U+30E4_U+30FC 1
370
     0
100
AcDbVertex
100
AcDb2dVertex
 10
68.25009763918747
 20
-130.7386175888431
 30
0.0
  0
VERTEX
  5
346
330
342
100
AcDbEntity
  8
_U+30EC_U+30A4_U+30E4_U+30FC 1
370
     0
100
AcDbVertex
100
AcDb2dVertex
 10
68.50176186438497
 20
-130.7386175888431
 30
0.0
  0
VERTEX
  5
347
330
342
100
AcDbEntity
  8
_U+30EC_U+30A4_U+30E4_U+30FC 1
370
     0
100
AcDbVertex
100
AcDb2dVertex
 10
68.50176186438497
 20
-130.9901095592664
 30
0.0
  0
SEQEND
  5
348
330
342
100
AcDbEntity
  8
_U+30EC_U+30A4_U+30E4_U+30FC 1
370
     0
  0
HATCH
  5
349
330
338
100
AcDbEntity
  8
_U+30EC_U+30A4_U+30E4_U+30FC 1
 62
   179
420
  2234388
100
AcDbHatch
 10
0.0
 20
0.0
 30
0.0
210
0.0
220
0.0
230
1.0
  2
SOLID
 70
     1
 71
     0
 91
        1
 92
        1
 93
        4
 72
     1
 10
68.50176186438497
 20
-130.9901095592664
 11
68.25009763918747
 21
-130.9901095592664
 72
     1
 10
68.25009763918747
 20
-130.9901095592664
 11
68.25009763918747
 21
-130.7386175888431
 72
     1
 10
68.25009763918747
 20
-130.7386175888431
 11
68.50176186438497
 21
-130.7386175888431
 72
     1
 10
68.50176186438497
 20
-130.7386175888431
 11
68.50176186438497
 21
-130.9901095592664
 97
        0
 75
     2
 76
     1
 98
        0
  0
SPLINE
  5
34A
330
338
100
AcDbEntity
  8
_U+30EC_U+30A4_U+30E4_U+30FC 1
370
     0
100
AcDbSpline
210
0.0
220
0.0
230
1.0
 70
    11
 71
     3
 72
    53
 73
    49
 74
     0
 42
0.0000000001
 43
0.0000000001
 12
1.0
 22
0.0
 32
0.0
 13
1.0
 23
0.0
 33
0.0
 40
0.0
 40
0.0
 40
0.0
 40
0.0
 40
1.0
 40
1.0
 40
1.0
 40
2.0
 40
2.0
 40
2.0
 40
3.0
 40
3.0
 40
3.0
 40
4.0
 40
4.0
 40
4.0
 40
5.0
 40
5.0
 40
5.0
 40
6.0
 40
6.0
 40
6.0
 40
7.0
 40
7.0
 40
7.0
 40
8.0
 40
8.0
 40
8.0
 40
9.0
 40
9.0
 40
9.0
 40
10.0
 40
10.0
 40
10.0
 40
11.0
 40
11.0
 40
11.0
 40
12.0
 40
12.0
 40
12.0
 40
13.0
 40
13.0
 40
13.0
 40
14.0
 40
14.0
 40
14.0
 40
15.0
 40
15.0
 40
15.0
 40
16.0
 40
16.0
 40
16.0
 40
16.0
 10
68.55257702279242
 20
-130.0206596897171
 30
0.0
 10
68.55257702279242
 20
-130.0992078667808
 30
0.0
 10
68.53552380014042
 20
-130.2004936740471
 30
0.0
 10
68.47213404321182
 20
-130.3024685004105
 30
0.0
 10
68.36206324245809
 20
-130.4757568033186
 30
0.0
 10
68.23097735924435
 20
-130.4967718857786
 30
0.0
 10
68.12314587055602
 20
-130.516064420496
 30
0.0
 10
68.12314587055602
 20
-130.516064420496
 30
0.0
 10
68.12314587055602
 20
-130.2938557616974
 30
0.0
 10
68.12314587055602
 20
-130.2938557616974
 30
0.0
 10
68.32192788005494
 20
-130.2387342339334
 30
0.0
 10
68.35155570122808
 20
-130.1116102105277
 30
0.0
 10
68.35155570122808
 20
-130.0185926324259
 30
0.0
 10
68.35155570122808
 20
-129.8790662652733
 30
0.0
 10
68.25216469647863
 20
-129.7267930448253
 30
0.0
 10
68.01944849645
 20
-129.7267930448253
 30
0.0
 10
67.76347790189594
 20
-129.7267930448253
 30
0.0
 10
67.69371471831963
 20
-129.9066270291553
 30
0.0
 10
67.69371471831963
 20
-130.027205371139
 30
0.0
 10
67.69371471831963
 20
-130.0589002496033
 30
0.0
 10
67.69371471831963
 20
-130.2004936740471
 30
0.0
 10
67.82273354424224
 20
-130.2893771375666
 30
0.0
 10
67.82273354424224
 20
-130.2893771375666
 30
0.0
 10
67.8036132642991
 20
-130.4650770073143
 30
0.0
 10
67.8036132642991
 20
-130.4650770073143
 30
0.0
 10
67.8036132642991
 20
-130.4650770073143
 30
0.0
 10
66.95749781312173
 20
-130.3444986653305
 30
0.0
 10
66.95749781312173
 20
-130.3444986653305
 30
0.0
 10
66.95749781312173
 20
-130.3444986653305
 30
0.0
 10
66.95749781312173
 20
-129.5659070856641
 30
0.0
 10
66.95749781312173
 20
-129.5659070856641
 30
0.0
 10
66.95749781312173
 20
-129.5659070856641
 30
0.0
 10
67.15214570803836
 20
-129.5659070856641
 30
0.0
 10
67.15214570803836
 20
-129.5659070856641
 30
0.0
 10
67.15214570803836
 20
-129.5659070856641
 30
0.0
 10
67.15214570803836
 20
-130.1818901584268
 30
0.0
 10
67.15214570803836
 20
-130.1818901584268
 30
0.0
 10
67.15214570803836
 20
-130.1818901584268
 30
0.0
 10
67.57520343362704
 20
-130.2473469726465
 30
0.0
 10
67.57520343362704
 20
-130.2473469726465
 30
0.0
 10
67.54126924309732
 20
-130.1860242730091
 30
0.0
 10
67.50113388069417
 20
-130.1033419813631
 30
0.0
 10
67.50113388069417
 20
-129.9848306966705
 30
0.0
 10
67.50113388069417
 20
-129.7312716689561
 30
0.0
 10
67.68734129167191
 20
-129.4942490995709
 30
0.0
 10
68.00032821650687
 20
-129.4942490995709
 30
0.0
 10
68.31779376547264
 20
-129.4942490995709
 30
0.0
 10
68.55257702279242
 20
-129.7181803061121
 30
0.0
 10
68.55257702279242
 20
-130.0206596897171
 30
0.0
  0
HATCH
  5
34B
330
338
100
AcDbEntity
  8
_U+30EC_U+30A4_U+30E4_U+30FC 1
 62
   179
420
  2234388
100
AcDbHatch
 10
0.0
 20
0.0
 30
0.0
210
0.0
220
0.0
230
1.0
  2
SOLID
 70
     1
 71
     0
 91
        1
 92
        1
 93
        1
 72
     4
 94
        3
 73
     0
 74
     1
 95
       53
 96
       49
 40
0.0
 40
0.0
 40
0.0
 40
0.0
 40
1.0
 40
1.0
 40
1.0
 40
2.0
 40
2.0
 40
2.0
 40
3.0
 40
3.0
 40
3.0
 40
4.0
 40
4.0
 40
4.0
 40
5.0
 40
5.0
 40
5.0
 40
6.0
 40
6.0
 40
6.0
 40
7.0
 40
7.0
 40
7.0
 40
8.0
 40
8.0
 40
8.0
 40
9.0
 40
9.0
 40
9.0
 40
10.0
 40
10.0
 40
10.0
 40
11.0
 40
11.0
 40
11.0
 40
12.0
 40
12.0
 40
12.0
 40
13.0
 40
13.0
 40
13.0
 40
14.0
 40
14.0
 40
14.0
 40
15.0
 40
15.0
 40
15.0
 40
16.0
 40
16.0
 40
16.0
 40
16.0
 10
68.55257702279242
 20
-130.0206596897171
 10
68.55257702279242
 20
-130.0992078667808
 10
68.53552380014042
 20
-130.2004936740471
 10
68.47213404321182
 20
-130.3024685004105
 10
68.36206324245809
 20
-130.4757568033186
 10
68.23097735924435
 20
-130.4967718857786
 10
68.12314587055602
 20
-130.516064420496
 10
68.12314587055602
 20
-130.516064420496
 10
68.12314587055602
 20
-130.2938557616974
 10
68.12314587055602
 20
-130.2938557616974
 10
68.32192788005494
 20
-130.2387342339334
 10
68.35155570122808
 20
-130.1116102105277
 10
68.35155570122808
 20
-130.0185926324259
 10
68.35155570122808
 20
-129.8790662652733
 10
68.25216469647863
 20
-129.7267930448253
 10
68.01944849645
 20
-129.7267930448253
 10
67.76347790189594
 20
-129.7267930448253
 10
67.69371471831963
 20
-129.9066270291553
 10
67.69371471831963
 20
-130.027205371139
 10
67.69371471831963
 20
-130.0589002496033
 10
67.69371471831963
 20
-130.2004936740471
 10
67.82273354424224
 20
-130.2893771375666
 10
67.82273354424224
 20
-130.2893771375666
 10
67.8036132642991
 20
-130.4650770073143
 10
67.8036132642991
 20
-130.4650770073143
 10
67.8036132642991
 20
-130.4650770073143
 10
66.95749781312173
 20
-130.3444986653305
 10
66.95749781312173
 20
-130.3444986653305
 10
66.95749781312173
 20
-130.3444986653305
 10
66.95749781312173
 20
-129.5659070856641
 10
66.95749781312173
 20
-129.5659070856641
 10
66.95749781312173
 20
-129.5659070856641
 10
67.15214570803836
 20
-129.5659070856641
 10
67.15214570803836
 20
-129.5659070856641
 10
67.15214570803836
 20
-129.5659070856641
 10
67.15214570803836
 20
-130.1818901584268
 10
67.15214570803836
 20
-130.1818901584268
 10
67.15214570803836
 20
-130.1818901584268
 10
67.57520343362704
 20
-130.2473469726465
 10
67.57520343362704
 20
-130.2473469726465
 10
67.54126924309732
 20
-130.1860242730091
 10
67.50113388069417
 20
-130.1033419813631
 10
67.50113388069417
 20
-129.9848306966705
 10
67.50113388069417
 20
-129.7312716689561
 10
67.68734129167191
 20
-129.4942490995709
 10
68.00032821650687
 20
-129.4942490995709
 10
68.31779376547264
 20
-129.4942490995709
 10
68.55257702279242
 20
-129.7181803061121
 10
68.55257702279242
 20
-130.0206596897171
 97
        0
 97
        0
 75
     2
 76
     1
 98
        0
  0
ENDBLK
  5
33B
330
338
100
AcDbEntity
  8
0
100
AcDbBlockEnd
  0
BLOCK
  5
34E
330
34C
100
AcDbEntity
  8
0
100
AcDbBlockBegin
  2
block 6
 70
     0
 10
0.0
 20
0.0
 30
0.0
  3
block 6
  1

  0
SPLINE
  5
350
330
34C
100
AcDbEntity
  8
_U+30EC_U+30A4_U+30E4_U+30FC 1
370
     0
100
AcDbSpline
210
0.0
220
0.0
230
1.0
 70
    11
 71
     3
 72
    35
 73
    31
 74
     0
 42
0.0000000001
 43
0.0000000001
 12
1.0
 22
0.0
 32
0.0
 13
1.0
 23
0.0
 33
0.0
 40
0.0
 40
0.0
 40
0.0
 40
0.0
 40
1.0
 40
1.0
 40
1.0
 40
2.0
 40
2.0
 40
2.0
 40
3.0
 40
3.0
 40
3.0
 40
4.0
 40
4.0
 40
4.0
 40
5.0
 40
5.0
 40
5.0
 40
6.0
 40
6.0
 40
6.0
 40
7.0
 40
7.0
 40
7.0
 40
8.0
 40
8.0
 40
8.0
 40
9.0
 40
9.0
 40
9.0
 40
10.0
 40
10.0
 40
10.0
 40
10.0
 10
74.68605276995696
 20
-113.8869330227435
 30
0.0
 10
74.68605276995696
 20
-113.8869330227435
 30
0.0
 10
74.63523761154953
 20
-114.1513441012365
 30
0.0
 10
74.63523761154953
 20
-114.1513441012365
 30
0.0
 10
74.77493623347641
 20
-114.1640909545319
 30
0.0
 10
75.1029093236722
 20
-114.2550414753425
 30
0.0
 10
75.1029093236722
 20
-114.6464043224669
 30
0.0
 10
75.1029093236722
 20
-115.1244113210453
 30
0.0
 10
74.69673256596124
 20
-115.2492960323856
 30
0.0
 10
74.42164169146403
 20
-115.2492960323856
 30
0.0
 10
74.42164169146403
 20
-115.2492960323856
 30
0.0
 10
74.35394556517888
 20
-115.602590574398
 30
0.0
 10
74.35394556517888
 20
-115.602590574398
 30
0.0
 10
74.35394556517888
 20
-115.602590574398
 30
0.0
 10
74.14655081696684
 20
-115.602590574398
 30
0.0
 10
74.14655081696684
 20
-115.602590574398
 30
0.0
 10
74.14655081696684
 20
-115.602590574398
 30
0.0
 10
74.21855331260856
 20
-115.234482121799
 30
0.0
 10
74.21855331260856
 20
-115.234482121799
 30
0.0
 10
74.11072182392024
 20
-115.2153618418559
 30
0.0
 10
73.75949433919902
 20
-115.1540391422184
 30
0.0
 10
73.75949433919902
 20
-114.7373548432775
 30
0.0
 10
73.75949433919902
 20
-114.2888034110979
 30
0.0
 10
74.11485593850254
 20
-114.138597247941
 30
0.0
 10
74.4300821754029
 20
-114.138597247941
 30
0.0
 10
74.4300821754029
 20
-114.138597247941
 30
0.0
 10
74.47883027651919
 20
-113.8869330227435
 30
0.0
 10
74.47883027651919
 20
-113.8869330227435
 30
0.0
 10
74.47883027651919
 20
-113.8869330227435
 30
0.0
 10
74.68605276995696
 20
-113.8869330227435
 30
0.0
 10
74.68605276995696
 20
-113.8869330227435
 30
0.0
  0
SPLINE
  5
351
330
34C
100
AcDbEntity
  8
_U+30EC_U+30A4_U+30E4_U+30FC 1
370
     0
100
AcDbSpline
210
0.0
220
0.0
230
1.0
 70
    11
 71
     3
 72
    14
 73
    10
 74
     0
 42
0.0000000001
 43
0.0000000001
 12
1.0
 22
0.0
 32
0.0
 13
1.0
 23
0.0
 33
0.0
 40
0.0
 40
0.0
 40
0.0
 40
0.0
 40
1.0
 40
1.0
 40
1.0
 40
2.0
 40
2.0
 40
2.0
 40
3.0
 40
3.0
 40
3.0
 40
3.0
 10
74.39632023964745
 20
-114.3120578056234
 30
0.0
 10
74.2757418976637
 20
-114.3204982895622
 30
0.0
 10
73.98153074322337
 20
-114.3437526840877
 30
0.0
 10
73.98153074322337
 20
-114.7414889578598
 30
0.0
 10
73.98153074322337
 20
-114.8050509695626
 30
0.0
 10
73.98153074322337
 20
-115.0186468896481
 30
0.0
 10
74.25024819107286
 20
-115.0630886214078
 30
0.0
 10
74.25024819107286
 20
-115.0630886214078
 30
0.0
 10
74.39632023964745
 20
-114.3120578056234
 30
0.0
 10
74.39632023964745
 20
-114.3120578056234
 30
0.0
  0
SPLINE
  5
352
330
34C
100
AcDbEntity
  8
_U+30EC_U+30A4_U+30E4_U+30FC 1
370
     0
100
AcDbSpline
210
0.0
220
0.0
230
1.0
 70
    11
 71
     3
 72
    14
 73
    10
 74
     0
 42
0.0000000001
 43
0.0000000001
 12
1.0
 22
0.0
 32
0.0
 13
1.0
 23
0.0
 33
0.0
 40
0.0
 40
0.0
 40
0.0
 40
0.0
 40
1.0
 40
1.0
 40
1.0
 40
2.0
 40
2.0
 40
2.0
 40
3.0
 40
3.0
 40
3.0
 40
3.0
 10
74.4576429392849
 20
-115.0715291053467
 30
0.0
 10
74.63954398090608
 20
-115.0673949907644
 30
0.0
 10
74.88276772216473
 20
-114.9869520111838
 30
0.0
 10
74.88276772216473
 20
-114.6315904118803
 30
0.0
 10
74.88276772216473
 20
-114.5384005790043
 30
0.0
 10
74.87019312364356
 20
-114.3501261107354
 30
0.0
 10
74.59940861850293
 20
-114.3227376016277
 30
0.0
 10
74.59940861850293
 20
-114.3227376016277
 30
0.0
 10
74.4576429392849
 20
-115.0715291053467
 30
0.0
 10
74.4576429392849
 20
-115.0715291053467
 30
0.0
  0
HATCH
  5
353
330
34C
100
AcDbEntity
  8
_U+30EC_U+30A4_U+30E4_U+30FC 1
 62
   179
420
  2234388
100
AcDbHatch
 10
0.0
 20
0.0
 30
0.0
210
0.0
220
0.0
230
1.0
  2
SOLID
 70
     1
 71
     0
 91
        3
 92
        1
 93
        1
 72
     4
 94
        3
 73
     0
 74
     1
 95
       35
 96
       31
 40
0.0
 40
0.0
 40
0.0
 40
0.0
 40
1.0
 40
1.0
 40
1.0
 40
2.0
 40
2.0
 40
2.0
 40
3.0
 40
3.0
 40
3.0
 40
4.0
 40
4.0
 40
4.0
 40
5.0
 40
5.0
 40
5.0
 40
6.0
 40
6.0
 40
6.0
 40
7.0
 40
7.0
 40
7.0
 40
8.0
 40
8.0
 40
8.0
 40
9.0
 40
9.0
 40
9.0
 40
10.0
 40
10.0
 40
10.0
 40
10.0
 10
74.68605276995696
 20
-113.8869330227435
 10
74.68605276995696
 20
-113.8869330227435
 10
74.63523761154953
 20
-114.1513441012365
 10
74.63523761154953
 20
-114.1513441012365
 10
74.77493623347641
 20
-114.1640909545319
 10
75.1029093236722
 20
-114.2550414753425
 10
75.1029093236722
 20
-114.6464043224669
 10
75.1029093236722
 20
-115.1244113210453
 10
74.69673256596124
 20
-115.2492960323856
 10
74.42164169146403
 20
-115.2492960323856
 10
74.42164169146403
 20
-115.2492960323856
 10
74.35394556517888
 20
-115.602590574398
 10
74.35394556517888
 20
-115.602590574398
 10
74.35394556517888
 20
-115.602590574398
 10
74.14655081696684
 20
-115.602590574398
 10
74.14655081696684
 20
-115.602590574398
 10
74.14655081696684
 20
-115.602590574398
 10
74.21855331260856
 20
-115.234482121799
 10
74.21855331260856
 20
-115.234482121799
 10
74.11072182392024
 20
-115.2153618418559
 10
73.75949433919902
 20
-115.1540391422184
 10
73.75949433919902
 20
-114.7373548432775
 10
73.75949433919902
 20
-114.2888034110979
 10
74.11485593850254
 20
-114.138597247941
 10
74.4300821754029
 20
-114.138597247941
 10
74.4300821754029
 20
-114.138597247941
 10
74.47883027651919
 20
-113.8869330227435
 10
74.47883027651919
 20
-113.8869330227435
 10
74.47883027651919
 20
-113.8869330227435
 10
74.68605276995696
 20
-113.8869330227435
 10
74.68605276995696
 20
-113.8869330227435
 97
        0
 97
        0
 92
        1
 93
        1
 72
     4
 94
        3
 73
     0
 74
     1
 95
       14
 96
       10
 40
0.0
 40
0.0
 40
0.0
 40
0.0
 40
1.0
 40
1.0
 40
1.0
 40
2.0
 40
2.0
 40
2.0
 40
3.0
 40
3.0
 40
3.0
 40
3.0
 10
74.39632023964745
 20
-114.3120578056234
 10
74.2757418976637
 20
-114.3204982895622
 10
73.98153074322337
 20
-114.3437526840877
 10
73.98153074322337
 20
-114.7414889578598
 10
73.98153074322337
 20
-114.8050509695626
 10
73.98153074322337
 20
-115.0186468896481
 10
74.25024819107286
 20
-115.0630886214078
 10
74.25024819107286
 20
-115.0630886214078
 10
74.39632023964745
 20
-114.3120578056234
 10
74.39632023964745
 20
-114.3120578056234
 97
        0
 97
        0
 92
        1
 93
        1
 72
     4
 94
        3
 73
     0
 74
     1
 95
       14
 96
       10
 40
0.0
 40
0.0
 40
0.0
 40
0.0
 40
1.0
 40
1.0
 40
1.0
 40
2.0
 40
2.0
 40
2.0
 40
3.0
 40
3.0
 40
3.0
 40
3.0
 10
74.4576429392849
 20
-115.0715291053467
 10
74.63954398090608
 20
-115.0673949907644
 10
74.88276772216473
 20
-114.9869520111838
 10
74.88276772216473
 20
-114.6315904118803
 10
74.88276772216473
 20
-114.5384005790043
 10
74.87019312364356
 20
-114.3501261107354
 10
74.59940861850293
 20
-114.3227376016277
 10
74.59940861850293
 20
-114.3227376016277
 10
74.4576429392849
 20
-115.0715291053467
 10
74.4576429392849
 20
-115.0715291053467
 97
        0
 97
        0
 75
     2
 76
     1
 98
        0
  0
SPLINE
  5
354
330
34C
100
AcDbEntity
  8
_U+30EC_U+30A4_U+30E4_U+30FC 1
370
     0
100
AcDbSpline
210
0.0
220
0.0
230
1.0
 70
    11
 71
     3
 72
    32
 73
    28
 74
     0
 42
0.0000000001
 43
0.0000000001
 12
1.0
 22
0.0
 32
0.0
 13
1.0
 23
0.0
 33
0.0
 40
0.0
 40
0.0
 40
0.0
 40
0.0
 40
1.0
 40
1.0
 40
1.0
 40
2.0
 40
2.0
 40
2.0
 40
3.0
 40
3.0
 40
3.0
 40
4.0
 40
4.0
 40
4.0
 40
5.0
 40
5.0
 40
5.0
 40
6.0
 40
6.0
 40
6.0
 40
7.0
 40
7.0
 40
7.0
 40
8.0
 40
8.0
 40
8.0
 40
9.0
 40
9.0
 40
9.0
 40
9.0
 10
75.81897242028137
 20
-115.3085516747319
 30
0.0
 10
75.30272486181669
 20
-115.3085516747319
 30
0.0
 10
75.29428437787782
 20
-114.7542358111552
 30
0.0
 10
75.29428437787782
 20
-114.5406398910697
 30
0.0
 10
75.29428437787782
 20
-114.3099907483322
 30
0.0
 10
75.31340465782095
 20
-113.6626573066538
 30
0.0
 10
75.85704072539338
 20
-113.6626573066538
 30
0.0
 10
76.03050128307571
 20
-113.6626573066538
 30
0.0
 10
76.27596433639977
 20
-113.7324204902301
 30
0.0
 10
76.31403264151177
 20
-114.0645276950082
 30
0.0
 10
76.31403264151177
 20
-114.0645276950082
 30
0.0
 10
76.10026446665202
 20
-114.0645276950082
 30
0.0
 10
76.10026446665202
 20
-114.0645276950082
 30
0.0
 10
76.08975692542201
 20
-114.0075113647273
 30
0.0
 10
76.05806204695772
 20
-113.8593722588616
 30
0.0
 10
75.85497366810223
 20
-113.8593722588616
 30
0.0
 10
75.56300182572731
 20
-113.8593722588616
 30
0.0
 10
75.52269420854988
 20
-114.1873453490573
 30
0.0
 10
75.51011961002872
 20
-114.392500785204
 30
0.0
 10
75.60313718813048
 20
-114.3142971176888
 30
0.0
 10
75.67083331441563
 20
-114.2550414753425
 30
0.0
 10
75.85273435603682
 20
-114.2550414753425
 30
0.0
 10
76.03256834036686
 20
-114.2550414753425
 30
0.0
 10
76.3350477239718
 20
-114.3628729640308
 30
0.0
 10
76.3350477239718
 20
-114.7690497217418
 30
0.0
 10
76.3350477239718
 20
-115.0885823279987
 30
0.0
 10
76.13626571447288
 20
-115.3085516747319
 30
0.0
 10
75.81897242028137
 20
-115.3085516747319
 30
0.0
  0
SPLINE
  5
355
330
34C
100
AcDbEntity
  8
_U+30EC_U+30A4_U+30E4_U+30FC 1
370
     0
100
AcDbSpline
210
0.0
220
0.0
230
1.0
 70
    11
 71
     3
 72
    17
 73
    13
 74
     0
 42
0.0000000001
 43
0.0000000001
 12
1.0
 22
0.0
 32
0.0
 13
1.0
 23
0.0
 33
0.0
 40
0.0
 40
0.0
 40
0.0
 40
0.0
 40
1.0
 40
1.0
 40
1.0
 40
2.0
 40
2.0
 40
2.0
 40
3.0
 40
3.0
 40
3.0
 40
4.0
 40
4.0
 40
4.0
 40
4.0
 10
75.8358533881591
 20
-114.4496893702591
 30
0.0
 10
75.57350936695732
 20
-114.4496893702591
 30
0.0
 10
75.5354410618453
 20
-114.6612182330534
 30
0.0
 10
75.5354410618453
 20
-114.7774902056806
 30
0.0
 10
75.5354410618453
 20
-114.9531900754284
 30
0.0
 10
75.63069795201247
 20
-115.1159708371064
 30
0.0
 10
75.81466605092481
 20
-115.1159708371064
 30
0.0
 10
75.93524439290856
 20
-115.1159708371064
 30
0.0
 10
76.11094426265629
 20
-115.0567151947601
 30
0.0
 10
76.11094426265629
 20
-114.7711167790329
 30
0.0
 10
76.11094426265629
 20
-114.5470133177174
 30
0.0
 10
75.97124564072942
 20
-114.4496893702591
 30
0.0
 10
75.8358533881591
 20
-114.4496893702591
 30
0.0
  0
HATCH
  5
356
330
34C
100
AcDbEntity
  8
_U+30EC_U+30A4_U+30E4_U+30FC 1
 62
   179
420
  2234388
100
AcDbHatch
 10
0.0
 20
0.0
 30
0.0
210
0.0
220
0.0
230
1.0
  2
SOLID
 70
     1
 71
     0
 91
        2
 92
        1
 93
        1
 72
     4
 94
        3
 73
     0
 74
     1
 95
       32
 96
       28
 40
0.0
 40
0.0
 40
0.0
 40
0.0
 40
1.0
 40
1.0
 40
1.0
 40
2.0
 40
2.0
 40
2.0
 40
3.0
 40
3.0
 40
3.0
 40
4.0
 40
4.0
 40
4.0
 40
5.0
 40
5.0
 40
5.0
 40
6.0
 40
6.0
 40
6.0
 40
7.0
 40
7.0
 40
7.0
 40
8.0
 40
8.0
 40
8.0
 40
9.0
 40
9.0
 40
9.0
 40
9.0
 10
75.81897242028137
 20
-115.3085516747319
 10
75.30272486181669
 20
-115.3085516747319
 10
75.29428437787782
 20
-114.7542358111552
 10
75.29428437787782
 20
-114.5406398910697
 10
75.29428437787782
 20
-114.3099907483322
 10
75.31340465782095
 20
-113.6626573066538
 10
75.85704072539338
 20
-113.6626573066538
 10
76.03050128307571
 20
-113.6626573066538
 10
76.27596433639977
 20
-113.7324204902301
 10
76.31403264151177
 20
-114.0645276950082
 10
76.31403264151177
 20
-114.0645276950082
 10
76.10026446665202
 20
-114.0645276950082
 10
76.10026446665202
 20
-114.0645276950082
 10
76.08975692542201
 20
-114.0075113647273
 10
76.05806204695772
 20
-113.8593722588616
 10
75.85497366810223
 20
-113.8593722588616
 10
75.56300182572731
 20
-113.8593722588616
 10
75.52269420854988
 20
-114.1873453490573
 10
75.51011961002872
 20
-114.392500785204
 10
75.60313718813048
 20
-114.3142971176888
 10
75.67083331441563
 20
-114.2550414753425
 10
75.85273435603682
 20
-114.2550414753425
 10
76.03256834036686
 20
-114.2550414753425
 10
76.3350477239718
 20
-114.3628729640308
 10
76.3350477239718
 20
-114.7690497217418
 10
76.3350477239718
 20
-115.0885823279987
 10
76.13626571447288
 20
-115.3085516747319
 10
75.81897242028137
 20
-115.3085516747319
 97
        0
 97
        0
 92
        1
 93
        1
 72
     4
 94
        3
 73
     0
 74
     1
 95
       17
 96
       13
 40
0.0
 40
0.0
 40
0.0
 40
0.0
 40
1.0
 40
1.0
 40
1.0
 40
2.0
 40
2.0
 40
2.0
 40
3.0
 40
3.0
 40
3.0
 40
4.0
 40
4.0
 40
4.0
 40
4.0
 10
75.8358533881591
 20
-114.4496893702591
 10
75.57350936695732
 20
-114.4496893702591
 10
75.5354410618453
 20
-114.6612182330534
 10
75.5354410618453
 20
-114.7774902056806
 10
75.5354410618453
 20
-114.9531900754284
 10
75.63069795201247
 20
-115.1159708371064
 10
75.81466605092481
 20
-115.1159708371064
 10
75.93524439290856
 20
-115.1159708371064
 10
76.11094426265629
 20
-115.0567151947601
 10
76.11094426265629
 20
-114.7711167790329
 10
76.11094426265629
 20
-114.5470133177174
 10
75.97124564072942
 20
-114.4496893702591
 10
75.8358533881591
 20
-114.4496893702591
 97
        0
 97
        0
 75
     2
 76
     1
 98
        0
  0
ENDBLK
  5
34F
330
34C
100
AcDbEntity
  8
0
100
AcDbBlockEnd
  0
BLOCK
  5
359
330
357
100
AcDbEntity
  8
0
100
AcDbBlockBegin
  2
block 7
 70
     0
 10
0.0
 20
0.0
 30
0.0
  3
block 7
  1

  0
SPLINE
  5
35B
330
357
100
AcDbEntity
  8
_U+30EC_U+30A4_U+30E4_U+30FC 1
370
     0
100
AcDbSpline
210
0.0
220
0.0
230
1.0
 70
    11
 71
     3
 72
    29
 73
    25
 74
     0
 42
0.0000000001
 43
0.0000000001
 12
1.0
 22
0.0
 32
0.0
 13
1.0
 23
0.0
 33
0.0
 40
0.0
 40
0.0
 40
0.0
 40
0.0
 40
1.0
 40
1.0
 40
1.0
 40
2.0
 40
2.0
 40
2.0
 40
3.0
 40
3.0
 40
3.0
 40
4.0
 40
4.0
 40
4.0
 40
5.0
 40
5.0
 40
5.0
 40
6.0
 40
6.0
 40
6.0
 40
7.0
 40
7.0
 40
7.0
 40
8.0
 40
8.0
 40
8.0
 40
8.0
 10
78.1959160503295
 20
-115.3085516747319
 30
0.0
 10
77.92943791454542
 20
-115.3085516747319
 30
0.0
 10
77.6755343772825
 20
-115.1709201100962
 30
0.0
 10
77.6755343772825
 20
-114.8219319374404
 30
0.0
 10
77.6755343772825
 20
-114.5659613428863
 30
0.0
 10
77.81730005650054
 20
-114.4707044527191
 30
0.0
 10
77.9230644878977
 20
-114.4093817530817
 30
0.0
 10
77.7981797765574
 20
-114.3501261107354
 30
0.0
 10
77.72204316633338
 20
-114.2359211953994
 30
0.0
 10
77.72204316633338
 20
-114.0752074910124
 30
0.0
 10
77.72204316633338
 20
-113.8001166165153
 30
0.0
 10
77.92099743060656
 20
-113.6647243639449
 30
0.0
 10
78.1959160503295
 20
-113.6647243639449
 30
0.0
 10
78.47944740876555
 20
-113.6647243639449
 30
0.0
 10
78.66978893432561
 20
-113.8085571004541
 30
0.0
 10
78.66978893432561
 20
-114.0752074910124
 30
0.0
 10
78.66978893432561
 20
-114.2359211953994
 30
0.0
 10
78.59158526681044
 20
-114.3501261107354
 30
0.0
 10
78.46670055547014
 20
-114.4093817530817
 30
0.0
 10
78.55558401898958
 20
-114.4601969114891
 30
0.0
 10
78.71423066608533
 20
-114.5554538016563
 30
0.0
 10
78.71423066608533
 20
-114.8177978228581
 30
0.0
 10
78.71423066608533
 20
-115.1921074473305
 30
0.0
 10
78.43500567700583
 20
-115.3085516747319
 30
0.0
 10
78.1959160503295
 20
-115.3085516747319
 30
0.0
  0
SPLINE
  5
35C
330
357
100
AcDbEntity
  8
_U+30EC_U+30A4_U+30E4_U+30FC 1
370
     0
100
AcDbSpline
210
0.0
220
0.0
230
1.0
 70
    11
 71
     3
 72
    17
 73
    13
 74
     0
 42
0.0000000001
 43
0.0000000001
 12
1.0
 22
0.0
 32
0.0
 13
1.0
 23
0.0
 33
0.0
 40
0.0
 40
0.0
 40
0.0
 40
0.0
 40
1.0
 40
1.0
 40
1.0
 40
2.0
 40
2.0
 40
2.0
 40
3.0
 40
3.0
 40
3.0
 40
4.0
 40
4.0
 40
4.0
 40
4.0
 10
78.1959160503295
 20
-114.5173854965443
 30
0.0
 10
78.05208331382032
 20
-114.5173854965443
 30
0.0
 10
77.89981009337227
 20
-114.6040296479983
 30
0.0
 10
77.89981009337227
 20
-114.8071180268538
 30
0.0
 10
77.89981009337227
 20
-115.0122734630004
 30
0.0
 10
78.02676186200372
 20
-115.1139037798153
 30
0.0
 10
78.1959160503295
 20
-115.1139037798153
 30
0.0
 10
78.38212346130724
 20
-115.1139037798153
 30
0.0
 10
78.49219426206098
 20
-114.9912583805404
 30
0.0
 10
78.49219426206098
 20
-114.8134914535015
 30
0.0
 10
78.49219426206098
 20
-114.5912827947029
 30
0.0
 10
78.32924124560867
 20
-114.5173854965443
 30
0.0
 10
78.1959160503295
 20
-114.5173854965443
 30
0.0
  0
SPLINE
  5
35D
330
357
100
AcDbEntity
  8
_U+30EC_U+30A4_U+30E4_U+30FC 1
370
     0
100
AcDbSpline
210
0.0
220
0.0
230
1.0
 70
    11
 71
     3
 72
    17
 73
    13
 74
     0
 42
0.0000000001
 43
0.0000000001
 12
1.0
 22
0.0
 32
0.0
 13
1.0
 23
0.0
 33
0.0
 40
0.0
 40
0.0
 40
0.0
 40
0.0
 40
1.0
 40
1.0
 40
1.0
 40
2.0
 40
2.0
 40
2.0
 40
3.0
 40
3.0
 40
3.0
 40
4.0
 40
4.0
 40
4.0
 40
4.0
 10
78.1959160503295
 20
-113.8573052015704
 30
0.0
 10
78.03089597658602
 20
-113.8573052015704
 30
0.0
 10
77.94631888242314
 20
-113.9523898369633
 30
0.0
 10
77.94631888242314
 20
-114.0877820895336
 30
0.0
 10
77.94631888242314
 20
-114.2105997435828
 30
0.0
 10
78.01832137806487
 20
-114.3291110282754
 30
0.0
 10
78.1959160503295
 20
-114.3291110282754
 30
0.0
 10
78.37368297736839
 20
-114.3291110282754
 30
0.0
 10
78.44551321823585
 20
-114.2105997435828
 30
0.0
 10
78.44551321823585
 20
-114.0877820895336
 30
0.0
 10
78.44551321823585
 20
-113.9523898369633
 30
0.0
 10
78.3588690667818
 20
-113.8573052015704
 30
0.0
 10
78.1959160503295
 20
-113.8573052015704
 30
0.0
  0
HATCH
  5
35E
330
357
100
AcDbEntity
  8
_U+30EC_U+30A4_U+30E4_U+30FC 1
 62
   179
420
  2234388
100
AcDbHatch
 10
0.0
 20
0.0
 30
0.0
210
0.0
220
0.0
230
1.0
  2
SOLID
 70
     1
 71
     0
 91
        3
 92
        1
 93
        1
 72
     4
 94
        3
 73
     0
 74
     1
 95
       29
 96
       25
 40
0.0
 40
0.0
 40
0.0
 40
0.0
 40
1.0
 40
1.0
 40
1.0
 40
2.0
 40
2.0
 40
2.0
 40
3.0
 40
3.0
 40
3.0
 40
4.0
 40
4.0
 40
4.0
 40
5.0
 40
5.0
 40
5.0
 40
6.0
 40
6.0
 40
6.0
 40
7.0
 40
7.0
 40
7.0
 40
8.0
 40
8.0
 40
8.0
 40
8.0
 10
78.1959160503295
 20
-115.3085516747319
 10
77.92943791454542
 20
-115.3085516747319
 10
77.6755343772825
 20
-115.1709201100962
 10
77.6755343772825
 20
-114.8219319374404
 10
77.6755343772825
 20
-114.5659613428863
 10
77.81730005650054
 20
-114.4707044527191
 10
77.9230644878977
 20
-114.4093817530817
 10
77.7981797765574
 20
-114.3501261107354
 10
77.72204316633338
 20
-114.2359211953994
 10
77.72204316633338
 20
-114.0752074910124
 10
77.72204316633338
 20
-113.8001166165153
 10
77.92099743060656
 20
-113.6647243639449
 10
78.1959160503295
 20
-113.6647243639449
 10
78.47944740876555
 20
-113.6647243639449
 10
78.66978893432561
 20
-113.8085571004541
 10
78.66978893432561
 20
-114.0752074910124
 10
78.66978893432561
 20
-114.2359211953994
 10
78.59158526681044
 20
-114.3501261107354
 10
78.46670055547014
 20
-114.4093817530817
 10
78.55558401898958
 20
-114.4601969114891
 10
78.71423066608533
 20
-114.5554538016563
 10
78.71423066608533
 20
-114.8177978228581
 10
78.71423066608533
 20
-115.1921074473305
 10
78.43500567700583
 20
-115.3085516747319
 10
78.1959160503295
 20
-115.3085516747319
 97
        0
 97
        0
 92
        1
 93
        1
 72
     4
 94
        3
 73
     0
 74
     1
 95
       17
 96
       13
 40
0.0
 40
0.0
 40
0.0
 40
0.0
 40
1.0
 40
1.0
 40
1.0
 40
2.0
 40
2.0
 40
2.0
 40
3.0
 40
3.0
 40
3.0
 40
4.0
 40
4.0
 40
4.0
 40
4.0
 10
78.1959160503295
 20
-114.5173854965443
 10
78.05208331382032
 20
-114.5173854965443
 10
77.89981009337227
 20
-114.6040296479983
 10
77.89981009337227
 20
-114.8071180268538
 10
77.89981009337227
 20
-115.0122734630004
 10
78.02676186200372
 20
-115.1139037798153
 10
78.1959160503295
 20
-115.1139037798153
 10
78.38212346130724
 20
-115.1139037798153
 10
78.49219426206098
 20
-114.9912583805404
 10
78.49219426206098
 20
-114.8134914535015
 10
78.49219426206098
 20
-114.5912827947029
 10
78.32924124560867
 20
-114.5173854965443
 10
78.1959160503295
 20
-114.5173854965443
 97
        0
 97
        0
 92
        1
 93
        1
 72
     4
 94
        3
 73
     0
 74
     1
 95
       17
 96
       13
 40
0.0
 40
0.0
 40
0.0
 40
0.0
 40
1.0
 40
1.0
 40
1.0
 40
2.0
 40
2.0
 40
2.0
 40
3.0
 40
3.0
 40
3.0
 40
4.0
 40
4.0
 40
4.0
 40
4.0
 10
78.1959160503295
 20
-113.8573052015704
 10
78.03089597658602
 20
-113.8573052015704
 10
77.94631888242314
 20
-113.9523898369633
 10
77.94631888242314
 20
-114.0877820895336
 10
77.94631888242314
 20
-114.2105997435828
 10
78.01832137806487
 20
-114.3291110282754
 10
78.1959160503295
 20
-114.3291110282754
 10
78.37368297736839
 20
-114.3291110282754
 10
78.44551321823585
 20
-114.2105997435828
 10
78.44551321823585
 20
-114.0877820895336
 10
78.44551321823585
 20
-113.9523898369633
 10
78.3588690667818
 20
-113.8573052015704
 10
78.1959160503295
 20
-113.8573052015704
 97
        0
 97
        0
 75
     2
 76
     1
 98
        0
  0
POLYLINE
  5
35F
330
357
100
AcDbEntity
  8
_U+30EC_U+30A4_U+30E4_U+30FC 1
370
     0
100
AcDb2dPolyline
 66
     1
 10
0.0
 20
0.0
 30
0.0
  0
VERTEX
  5
360
330
35F
100
AcDbEntity
  8
_U+30EC_U+30A4_U+30E4_U+30FC 1
370
     0
100
AcDbVertex
100
AcDb2dVertex
 10
78.93282197462443
 20
-115.2577365163245
 30
0.0
  0
VERTEX
  5
361
330
35F
100
AcDbEntity
  8
_U+30EC_U+30A4_U+30E4_U+30FC 1
370
     0
100
AcDbVertex
100
AcDb2dVertex
 10
78.93282197462443
 20
-115.006072291127
 30
0.0
  0
VERTEX
  5
362
330
35F
100
AcDbEntity
  8
_U+30EC_U+30A4_U+30E4_U+30FC 1
370
     0
100
AcDbVertex
100
AcDb2dVertex
 10
79.18448619982193
 20
-115.006072291127
 30
0.0
  0
VERTEX
  5
363
330
35F
100
AcDbEntity
  8
_U+30EC_U+30A4_U+30E4_U+30FC 1
370
     0
100
AcDbVertex
100
AcDb2dVertex
 10
79.18448619982193
 20
-115.2577365163245
 30
0.0
  0
VERTEX
  5
364
330
35F
100
AcDbEntity
  8
_U+30EC_U+30A4_U+30E4_U+30FC 1
370
     0
100
AcDbVertex
100
AcDb2dVertex
 10
78.93282197462443
 20
-115.2577365163245
 30
0.0
  0
SEQEND
  5
365
330
35F
100
AcDbEntity
  8
_U+30EC_U+30A4_U+30E4_U+30FC 1
370
     0
  0
HATCH
  5
366
330
357
100
AcDbEntity
  8
_U+30EC_U+30A4_U+30E4_U+30FC 1
 62
   179
420
  2234388
100
AcDbHatch
 10
0.0
 20
0.0
 30
0.0
210
0.0
220
0.0
230
1.0
  2
SOLID
 70
     1
 71
     0
 91
        1
 92
        1
 93
        4
 72
     1
 10
78.93282197462443
 20
-115.2577365163245
 11
78.93282197462443
 21
-115.006072291127
 72
     1
 10
78.93282197462443
 20
-115.006072291127
 11
79.18448619982193
 21
-115.006072291127
 72
     1
 10
79.18448619982193
 20
-115.006072291127
 11
79.18448619982193
 21
-115.2577365163245
 72
     1
 10
79.18448619982193
 20
-115.2577365163245
 11
78.93282197462443
 21
-115.2577365163245
 97
        0
 75
     2
 76
     1
 98
        0
  0
SPLINE
  5
367
330
357
100
AcDbEntity
  8
_U+30EC_U+30A4_U+30E4_U+30FC 1
370
     0
100
AcDbSpline
210
0.0
220
0.0
230
1.0
 70
    11
 71
     3
 72
    29
 73
    25
 74
     0
 42
0.0000000001
 43
0.0000000001
 12
1.0
 22
0.0
 32
0.0
 13
1.0
 23
0.0
 33
0.0
 40
0.0
 40
0.0
 40
0.0
 40
0.0
 40
1.0
 40
1.0
 40
1.0
 40
2.0
 40
2.0
 40
2.0
 40
3.0
 40
3.0
 40
3.0
 40
4.0
 40
4.0
 40
4.0
 40
5.0
 40
5.0
 40
5.0
 40
6.0
 40
6.0
 40
6.0
 40
7.0
 40
7.0
 40
7.0
 40
8.0
 40
8.0
 40
8.0
 40
8.0
 10
79.92104761456835
 20
-115.3085516747319
 30
0.0
 10
79.65456947878428
 20
-115.3085516747319
 30
0.0
 10
79.40066594152137
 20
-115.1709201100962
 30
0.0
 10
79.40066594152137
 20
-114.8219319374404
 30
0.0
 10
79.40066594152137
 20
-114.5659613428863
 30
0.0
 10
79.54243162073939
 20
-114.4707044527191
 30
0.0
 10
79.64819605213657
 20
-114.4093817530817
 30
0.0
 10
79.52331134079625
 20
-114.3501261107354
 30
0.0
 10
79.44717473057224
 20
-114.2359211953994
 30
0.0
 10
79.44717473057224
 20
-114.0752074910124
 30
0.0
 10
79.44717473057224
 20
-113.8001166165153
 30
0.0
 10
79.64612899484541
 20
-113.6647243639449
 30
0.0
 10
79.92104761456835
 20
-113.6647243639449
 30
0.0
 10
80.20457897300442
 20
-113.6647243639449
 30
0.0
 10
80.39492049856447
 20
-113.8085571004541
 30
0.0
 10
80.39492049856447
 20
-114.0752074910124
 30
0.0
 10
80.39492049856447
 20
-114.2359211953994
 30
0.0
 10
80.31671683104929
 20
-114.3501261107354
 30
0.0
 10
80.19183211970899
 20
-114.4093817530817
 30
0.0
 10
80.28071558322844
 20
-114.4601969114891
 30
0.0
 10
80.43936223032419
 20
-114.5554538016563
 30
0.0
 10
80.43936223032419
 20
-114.8177978228581
 30
0.0
 10
80.43936223032419
 20
-115.1921074473305
 30
0.0
 10
80.1601372412447
 20
-115.3085516747319
 30
0.0
 10
79.92104761456835
 20
-115.3085516747319
 30
0.0
  0
SPLINE
  5
368
330
357
100
AcDbEntity
  8
_U+30EC_U+30A4_U+30E4_U+30FC 1
370
     0
100
AcDbSpline
210
0.0
220
0.0
230
1.0
 70
    11
 71
     3
 72
    17
 73
    13
 74
     0
 42
0.0000000001
 43
0.0000000001
 12
1.0
 22
0.0
 32
0.0
 13
1.0
 23
0.0
 33
0.0
 40
0.0
 40
0.0
 40
0.0
 40
0.0
 40
1.0
 40
1.0
 40
1.0
 40
2.0
 40
2.0
 40
2.0
 40
3.0
 40
3.0
 40
3.0
 40
4.0
 40
4.0
 40
4.0
 40
4.0
 10
79.92104761456835
 20
-114.5173854965443
 30
0.0
 10
79.77721487805917
 20
-114.5173854965443
 30
0.0
 10
79.62494165761113
 20
-114.6040296479983
 30
0.0
 10
79.62494165761113
 20
-114.8071180268538
 30
0.0
 10
79.62494165761113
 20
-115.0122734630004
 30
0.0
 10
79.75189342624259
 20
-115.1139037798153
 30
0.0
 10
79.92104761456835
 20
-115.1139037798153
 30
0.0
 10
80.10725502554611
 20
-115.1139037798153
 30
0.0
 10
80.21732582629984
 20
-114.9912583805404
 30
0.0
 10
80.21732582629984
 20
-114.8134914535015
 30
0.0
 10
80.21732582629984
 20
-114.5912827947029
 30
0.0
 10
80.05437280984752
 20
-114.5173854965443
 30
0.0
 10
79.92104761456835
 20
-114.5173854965443
 30
0.0
  0
SPLINE
  5
369
330
357
100
AcDbEntity
  8
_U+30EC_U+30A4_U+30E4_U+30FC 1
370
     0
100
AcDbSpline
210
0.0
220
0.0
230
1.0
 70
    11
 71
     3
 72
    17
 73
    13
 74
     0
 42
0.0000000001
 43
0.0000000001
 12
1.0
 22
0.0
 32
0.0
 13
1.0
 23
0.0
 33
0.0
 40
0.0
 40
0.0
 40
0.0
 40
0.0
 40
1.0
 40
1.0
 40
1.0
 40
2.0
 40
2.0
 40
2.0
 40
3.0
 40
3.0
 40
3.0
 40
4.0
 40
4.0
 40
4.0
 40
4.0
 10
79.92104761456835
 20
-113.8573052015704
 30
0.0
 10
79.75602754082489
 20
-113.8573052015704
 30
0.0
 10
79.671450446662
 20
-113.9523898369633
 30
0.0
 10
79.671450446662
 20
-114.0877820895336
 30
0.0
 10
79.671450446662
 20
-114.2105997435828
 30
0.0
 10
79.74345294230372
 20
-114.3291110282754
 30
0.0
 10
79.92104761456835
 20
-114.3291110282754
 30
0.0
 10
80.09881454160724
 20
-114.3291110282754
 30
0.0
 10
80.17064478247471
 20
-114.2105997435828
 30
0.0
 10
80.17064478247471
 20
-114.0877820895336
 30
0.0
 10
80.17064478247471
 20
-113.9523898369633
 30
0.0
 10
80.08400063102067
 20
-113.8573052015704
 30
0.0
 10
79.92104761456835
 20
-113.8573052015704
 30
0.0
  0
HATCH
  5
36A
330
357
100
AcDbEntity
  8
_U+30EC_U+30A4_U+30E4_U+30FC 1
 62
   179
420
  2234388
100
AcDbHatch
 10
0.0
 20
0.0
 30
0.0
210
0.0
220
0.0
230
1.0
  2
SOLID
 70
     1
 71
     0
 91
        3
 92
        1
 93
        1
 72
     4
 94
        3
 73
     0
 74
     1
 95
       29
 96
       25
 40
0.0
 40
0.0
 40
0.0
 40
0.0
 40
1.0
 40
1.0
 40
1.0
 40
2.0
 40
2.0
 40
2.0
 40
3.0
 40
3.0
 40
3.0
 40
4.0
 40
4.0
 40
4.0
 40
5.0
 40
5.0
 40
5.0
 40
6.0
 40
6.0
 40
6.0
 40
7.0
 40
7.0
 40
7.0
 40
8.0
 40
8.0
 40
8.0
 40
8.0
 10
79.92104761456835
 20
-115.3085516747319
 10
79.65456947878428
 20
-115.3085516747319
 10
79.40066594152137
 20
-115.1709201100962
 10
79.40066594152137
 20
-114.8219319374404
 10
79.40066594152137
 20
-114.5659613428863
 10
79.54243162073939
 20
-114.4707044527191
 10
79.64819605213657
 20
-114.4093817530817
 10
79.52331134079625
 20
-114.3501261107354
 10
79.44717473057224
 20
-114.2359211953994
 10
79.44717473057224
 20
-114.0752074910124
 10
79.44717473057224
 20
-113.8001166165153
 10
79.64612899484541
 20
-113.6647243639449
 10
79.92104761456835
 20
-113.6647243639449
 10
80.20457897300442
 20
-113.6647243639449
 10
80.39492049856447
 20
-113.8085571004541
 10
80.39492049856447
 20
-114.0752074910124
 10
80.39492049856447
 20
-114.2359211953994
 10
80.31671683104929
 20
-114.3501261107354
 10
80.19183211970899
 20
-114.4093817530817
 10
80.28071558322844
 20
-114.4601969114891
 10
80.43936223032419
 20
-114.5554538016563
 10
80.43936223032419
 20
-114.8177978228581
 10
80.43936223032419
 20
-115.1921074473305
 10
80.1601372412447
 20
-115.3085516747319
 10
79.92104761456835
 20
-115.3085516747319
 97
        0
 97
        0
 92
        1
 93
        1
 72
     4
 94
        3
 73
     0
 74
     1
 95
       17
 96
       13
 40
0.0
 40
0.0
 40
0.0
 40
0.0
 40
1.0
 40
1.0
 40
1.0
 40
2.0
 40
2.0
 40
2.0
 40
3.0
 40
3.0
 40
3.0
 40
4.0
 40
4.0
 40
4.0
 40
4.0
 10
79.92104761456835
 20
-114.5173854965443
 10
79.77721487805917
 20
-114.5173854965443
 10
79.62494165761113
 20
-114.6040296479983
 10
79.62494165761113
 20
-114.8071180268538
 10
79.62494165761113
 20
-115.0122734630004
 10
79.75189342624259
 20
-115.1139037798153
 10
79.92104761456835
 20
-115.1139037798153
 10
80.10725502554611
 20
-115.1139037798153
 10
80.21732582629984
 20
-114.9912583805404
 10
80.21732582629984
 20
-114.8134914535015
 10
80.21732582629984
 20
-114.5912827947029
 10
80.05437280984752
 20
-114.5173854965443
 10
79.92104761456835
 20
-114.5173854965443
 97
        0
 97
        0
 92
        1
 93
        1
 72
     4
 94
        3
 73
     0
 74
     1
 95
       17
 96
       13
 40
0.0
 40
0.0
 40
0.0
 40
0.0
 40
1.0
 40
1.0
 40
1.0
 40
2.0
 40
2.0
 40
2.0
 40
3.0
 40
3.0
 40
3.0
 40
4.0
 40
4.0
 40
4.0
 40
4.0
 10
79.92104761456835
 20
-113.8573052015704
 10
79.75602754082489
 20
-113.8573052015704
 10
79.671450446662
 20
-113.9523898369633
 10
79.671450446662
 20
-114.0877820895336
 10
79.671450446662
 20
-114.2105997435828
 10
79.74345294230372
 20
-114.3291110282754
 10
79.92104761456835
 20
-114.3291110282754
 10
80.09881454160724
 20
-114.3291110282754
 10
80.17064478247471
 20
-114.2105997435828
 10
80.17064478247471
 20
-114.0877820895336
 10
80.17064478247471
 20
-113.9523898369633
 10
80.08400063102067
 20
-113.8573052015704
 10
79.92104761456835
 20
-113.8573052015704
 97
        0
 97
        0
 75
     2
 76
     1
 98
        0
  0
ENDBLK
  5
35A
330
357
100
AcDbEntity
  8
0
100
AcDbBlockEnd
  0
BLOCK
  5
36D
330
36B
100
AcDbEntity
  8
0
100
AcDbBlockBegin
  2
block 8
 70
     0
 10
0.0
 20
0.0
 30
0.0
  3
block 8
  1

  0
SPLINE
  5
36F
330
36B
100
AcDbEntity
  8
_U+30EC_U+30A4_U+30E4_U+30FC 1
370
     0
100
AcDbSpline
210
0.0
220
0.0
230
1.0
 70
    11
 71
     3
 72
    35
 73
    31
 74
     0
 42
0.0000000001
 43
0.0000000001
 12
1.0
 22
0.0
 32
0.0
 13
1.0
 23
0.0
 33
0.0
 40
0.0
 40
0.0
 40
0.0
 40
0.0
 40
1.0
 40
1.0
 40
1.0
 40
2.0
 40
2.0
 40
2.0
 40
3.0
 40
3.0
 40
3.0
 40
4.0
 40
4.0
 40
4.0
 40
5.0
 40
5.0
 40
5.0
 40
6.0
 40
6.0
 40
6.0
 40
7.0
 40
7.0
 40
7.0
 40
8.0
 40
8.0
 40
8.0
 40
9.0
 40
9.0
 40
9.0
 40
10.0
 40
10.0
 40
10.0
 40
10.0
 10
82.4471638791278
 20
-113.8869330227435
 30
0.0
 10
82.4471638791278
 20
-113.8869330227435
 30
0.0
 10
82.39634872072035
 20
-114.1513441012365
 30
0.0
 10
82.39634872072035
 20
-114.1513441012365
 30
0.0
 10
82.53604734264724
 20
-114.1640909545319
 30
0.0
 10
82.86402043284302
 20
-114.2550414753425
 30
0.0
 10
82.86402043284302
 20
-114.6464043224669
 30
0.0
 10
82.86402043284302
 20
-115.1244113210453
 30
0.0
 10
82.45784367513207
 20
-115.2492960323856
 30
0.0
 10
82.18275280063487
 20
-115.2492960323856
 30
0.0
 10
82.18275280063487
 20
-115.2492960323856
 30
0.0
 10
82.11505667434972
 20
-115.602590574398
 30
0.0
 10
82.11505667434972
 20
-115.602590574398
 30
0.0
 10
82.11505667434972
 20
-115.602590574398
 30
0.0
 10
81.90766192613768
 20
-115.602590574398
 30
0.0
 10
81.90766192613768
 20
-115.602590574398
 30
0.0
 10
81.90766192613768
 20
-115.602590574398
 30
0.0
 10
81.97966442177939
 20
-115.234482121799
 30
0.0
 10
81.97966442177939
 20
-115.234482121799
 30
0.0
 10
81.87183293309107
 20
-115.2153618418559
 30
0.0
 10
81.52060544836985
 20
-115.1540391422184
 30
0.0
 10
81.52060544836985
 20
-114.7373548432775
 30
0.0
 10
81.52060544836985
 20
-114.2888034110979
 30
0.0
 10
81.87596704767337
 20
-114.138597247941
 30
0.0
 10
82.19119328457373
 20
-114.138597247941
 30
0.0
 10
82.19119328457373
 20
-114.138597247941
 30
0.0
 10
82.23994138569002
 20
-113.8869330227435
 30
0.0
 10
82.23994138569002
 20
-113.8869330227435
 30
0.0
 10
82.23994138569002
 20
-113.8869330227435
 30
0.0
 10
82.4471638791278
 20
-113.8869330227435
 30
0.0
 10
82.4471638791278
 20
-113.8869330227435
 30
0.0
  0
SPLINE
  5
370
330
36B
100
AcDbEntity
  8
_U+30EC_U+30A4_U+30E4_U+30FC 1
370
     0
100
AcDbSpline
210
0.0
220
0.0
230
1.0
 70
    11
 71
     3
 72
    14
 73
    10
 74
     0
 42
0.0000000001
 43
0.0000000001
 12
1.0
 22
0.0
 32
0.0
 13
1.0
 23
0.0
 33
0.0
 40
0.0
 40
0.0
 40
0.0
 40
0.0
 40
1.0
 40
1.0
 40
1.0
 40
2.0
 40
2.0
 40
2.0
 40
3.0
 40
3.0
 40
3.0
 40
3.0
 10
82.15743134881828
 20
-114.3120578056234
 30
0.0
 10
82.03685300683453
 20
-114.3204982895622
 30
0.0
 10
81.7426418523942
 20
-114.3437526840877
 30
0.0
 10
81.7426418523942
 20
-114.7414889578598
 30
0.0
 10
81.7426418523942
 20
-114.8050509695626
 30
0.0
 10
81.7426418523942
 20
-115.0186468896481
 30
0.0
 10
82.0113593002437
 20
-115.0630886214078
 30
0.0
 10
82.0113593002437
 20
-115.0630886214078
 30
0.0
 10
82.15743134881828
 20
-114.3120578056234
 30
0.0
 10
82.15743134881828
 20
-114.3120578056234
 30
0.0
  0
SPLINE
  5
371
330
36B
100
AcDbEntity
  8
_U+30EC_U+30A4_U+30E4_U+30FC 1
370
     0
100
AcDbSpline
210
0.0
220
0.0
230
1.0
 70
    11
 71
     3
 72
    14
 73
    10
 74
     0
 42
0.0000000001
 43
0.0000000001
 12
1.0
 22
0.0
 32
0.0
 13
1.0
 23
0.0
 33
0.0
 40
0.0
 40
0.0
 40
0.0
 40
0.0
 40
1.0
 40
1.0
 40
1.0
 40
2.0
 40
2.0
 40
2.0
 40
3.0
 40
3.0
 40
3.0
 40
3.0
 10
82.21875404845574
 20
-115.0715291053467
 30
0.0
 10
82.40065509007692
 20
-115.0673949907644
 30
0.0
 10
82.64387883133556
 20
-114.9869520111838
 30
0.0
 10
82.64387883133556
 20
-114.6315904118803
 30
0.0
 10
82.64387883133556
 20
-114.5384005790043
 30
0.0
 10
82.6313042328144
 20
-114.3501261107354
 30
0.0
 10
82.36051972767376
 20
-114.3227376016277
 30
0.0
 10
82.36051972767376
 20
-114.3227376016277
 30
0.0
 10
82.21875404845574
 20
-115.0715291053467
 30
0.0
 10
82.21875404845574
 20
-115.0715291053467
 30
0.0
  0
HATCH
  5
372
330
36B
100
AcDbEntity
  8
_U+30EC_U+30A4_U+30E4_U+30FC 1
 62
   179
420
  2234388
100
AcDbHatch
 10
0.0
 20
0.0
 30
0.0
210
0.0
220
0.0
230
1.0
  2
SOLID
 70
     1
 71
     0
 91
        3
 92
        1
 93
        1
 72
     4
 94
        3
 73
     0
 74
     1
 95
       35
 96
       31
 40
0.0
 40
0.0
 40
0.0
 40
0.0
 40
1.0
 40
1.0
 40
1.0
 40
2.0
 40
2.0
 40
2.0
 40
3.0
 40
3.0
 40
3.0
 40
4.0
 40
4.0
 40
4.0
 40
5.0
 40
5.0
 40
5.0
 40
6.0
 40
6.0
 40
6.0
 40
7.0
 40
7.0
 40
7.0
 40
8.0
 40
8.0
 40
8.0
 40
9.0
 40
9.0
 40
9.0
 40
10.0
 40
10.0
 40
10.0
 40
10.0
 10
82.4471638791278
 20
-113.8869330227435
 10
82.4471638791278
 20
-113.8869330227435
 10
82.39634872072035
 20
-114.1513441012365
 10
82.39634872072035
 20
-114.1513441012365
 10
82.53604734264724
 20
-114.1640909545319
 10
82.86402043284302
 20
-114.2550414753425
 10
82.86402043284302
 20
-114.6464043224669
 10
82.86402043284302
 20
-115.1244113210453
 10
82.45784367513207
 20
-115.2492960323856
 10
82.18275280063487
 20
-115.2492960323856
 10
82.18275280063487
 20
-115.2492960323856
 10
82.11505667434972
 20
-115.602590574398
 10
82.11505667434972
 20
-115.602590574398
 10
82.11505667434972
 20
-115.602590574398
 10
81.90766192613768
 20
-115.602590574398
 10
81.90766192613768
 20
-115.602590574398
 10
81.90766192613768
 20
-115.602590574398
 10
81.97966442177939
 20
-115.234482121799
 10
81.97966442177939
 20
-115.234482121799
 10
81.87183293309107
 20
-115.2153618418559
 10
81.52060544836985
 20
-115.1540391422184
 10
81.52060544836985
 20
-114.7373548432775
 10
81.52060544836985
 20
-114.2888034110979
 10
81.87596704767337
 20
-114.138597247941
 10
82.19119328457373
 20
-114.138597247941
 10
82.19119328457373
 20
-114.138597247941
 10
82.23994138569002
 20
-113.8869330227435
 10
82.23994138569002
 20
-113.8869330227435
 10
82.23994138569002
 20
-113.8869330227435
 10
82.4471638791278
 20
-113.8869330227435
 10
82.4471638791278
 20
-113.8869330227435
 97
        0
 97
        0
 92
        1
 93
        1
 72
     4
 94
        3
 73
     0
 74
     1
 95
       14
 96
       10
 40
0.0
 40
0.0
 40
0.0
 40
0.0
 40
1.0
 40
1.0
 40
1.0
 40
2.0
 40
2.0
 40
2.0
 40
3.0
 40
3.0
 40
3.0
 40
3.0
 10
82.15743134881828
 20
-114.3120578056234
 10
82.03685300683453
 20
-114.3204982895622
 10
81.7426418523942
 20
-114.3437526840877
 10
81.7426418523942
 20
-114.7414889578598
 10
81.7426418523942
 20
-114.8050509695626
 10
81.7426418523942
 20
-115.0186468896481
 10
82.0113593002437
 20
-115.0630886214078
 10
82.0113593002437
 20
-115.0630886214078
 10
82.15743134881828
 20
-114.3120578056234
 10
82.15743134881828
 20
-114.3120578056234
 97
        0
 97
        0
 92
        1
 93
        1
 72
     4
 94
        3
 73
     0
 74
     1
 95
       14
 96
       10
 40
0.0
 40
0.0
 40
0.0
 40
0.0
 40
1.0
 40
1.0
 40
1.0
 40
2.0
 40
2.0
 40
2.0
 40
3.0
 40
3.0
 40
3.0
 40
3.0
 10
82.21875404845574
 20
-115.0715291053467
 10
82.40065509007692
 20
-115.0673949907644
 10
82.64387883133556
 20
-114.9869520111838
 10
82.64387883133556
 20
-114.6315904118803
 10
82.64387883133556
 20
-114.5384005790043
 10
82.6313042328144
 20
-114.3501261107354
 10
82.36051972767376
 20
-114.3227376016277
 10
82.36051972767376
 20
-114.3227376016277
 10
82.21875404845574
 20
-115.0715291053467
 10
82.21875404845574
 20
-115.0715291053467
 97
        0
 97
        0
 75
     2
 76
     1
 98
        0
  0
SPLINE
  5
373
330
36B
100
AcDbEntity
  8
_U+30EC_U+30A4_U+30E4_U+30FC 1
370
     0
100
AcDbSpline
210
0.0
220
0.0
230
1.0
 70
    11
 71
     3
 72
    32
 73
    28
 74
     0
 42
0.0000000001
 43
0.0000000001
 12
1.0
 22
0.0
 32
0.0
 13
1.0
 23
0.0
 33
0.0
 40
0.0
 40
0.0
 40
0.0
 40
0.0
 40
1.0
 40
1.0
 40
1.0
 40
2.0
 40
2.0
 40
2.0
 40
3.0
 40
3.0
 40
3.0
 40
4.0
 40
4.0
 40
4.0
 40
5.0
 40
5.0
 40
5.0
 40
6.0
 40
6.0
 40
6.0
 40
7.0
 40
7.0
 40
7.0
 40
8.0
 40
8.0
 40
8.0
 40
9.0
 40
9.0
 40
9.0
 40
9.0
 10
83.58008352945221
 20
-115.3085516747319
 30
0.0
 10
83.06383597098751
 20
-115.3085516747319
 30
0.0
 10
83.05539548704866
 20
-114.7542358111552
 30
0.0
 10
83.05539548704866
 20
-114.5406398910697
 30
0.0
 10
83.05539548704866
 20
-114.3099907483322
 30
0.0
 10
83.0745157669918
 20
-113.6626573066538
 30
0.0
 10
83.61815183456422
 20
-113.6626573066538
 30
0.0
 10
83.79161239224655
 20
-113.6626573066538
 30
0.0
 10
84.0370754455706
 20
-113.7324204902301
 30
0.0
 10
84.07514375068261
 20
-114.0645276950082
 30
0.0
 10
84.07514375068261
 20
-114.0645276950082
 30
0.0
 10
83.86137557582285
 20
-114.0645276950082
 30
0.0
 10
83.86137557582285
 20
-114.0645276950082
 30
0.0
 10
83.85086803459284
 20
-114.0075113647273
 30
0.0
 10
83.81917315612854
 20
-113.8593722588616
 30
0.0
 10
83.61608477727306
 20
-113.8593722588616
 30
0.0
 10
83.32411293489814
 20
-113.8593722588616
 30
0.0
 10
83.28380531772072
 20
-114.1873453490573
 30
0.0
 10
83.27123071919955
 20
-114.392500785204
 30
0.0
 10
83.3642482973013
 20
-114.3142971176888
 30
0.0
 10
83.43194442358646
 20
-114.2550414753425
 30
0.0
 10
83.61384546520766
 20
-114.2550414753425
 30
0.0
 10
83.79367944953769
 20
-114.2550414753425
 30
0.0
 10
84.09615883314262
 20
-114.3628729640308
 30
0.0
 10
84.09615883314262
 20
-114.7690497217418
 30
0.0
 10
84.09615883314262
 20
-115.0885823279987
 30
0.0
 10
83.89737682364371
 20
-115.3085516747319
 30
0.0
 10
83.58008352945221
 20
-115.3085516747319
 30
0.0
  0
SPLINE
  5
374
330
36B
100
AcDbEntity
  8
_U+30EC_U+30A4_U+30E4_U+30FC 1
370
     0
100
AcDbSpline
210
0.0
220
0.0
230
1.0
 70
    11
 71
     3
 72
    17
 73
    13
 74
     0
 42
0.0000000001
 43
0.0000000001
 12
1.0
 22
0.0
 32
0.0
 13
1.0
 23
0.0
 33
0.0
 40
0.0
 40
0.0
 40
0.0
 40
0.0
 40
1.0
 40
1.0
 40
1.0
 40
2.0
 40
2.0
 40
2.0
 40
3.0
 40
3.0
 40
3.0
 40
4.0
 40
4.0
 40
4.0
 40
4.0
 10
83.59696449732994
 20
-114.4496893702591
 30
0.0
 10
83.33462047612815
 20
-114.4496893702591
 30
0.0
 10
83.29655217101615
 20
-114.6612182330534
 30
0.0
 10
83.29655217101615
 20
-114.7774902056806
 30
0.0
 10
83.29655217101615
 20
-114.9531900754284
 30
0.0
 10
83.3918090611833
 20
-115.1159708371064
 30
0.0
 10
83.57577716009564
 20
-115.1159708371064
 30
0.0
 10
83.69635550207938
 20
-115.1159708371064
 30
0.0
 10
83.87205537182713
 20
-115.0567151947601
 30
0.0
 10
83.87205537182713
 20
-114.7711167790329
 30
0.0
 10
83.87205537182713
 20
-114.5470133177174
 30
0.0
 10
83.73235674990025
 20
-114.4496893702591
 30
0.0
 10
83.59696449732994
 20
-114.4496893702591
 30
0.0
  0
HATCH
  5
375
330
36B
100
AcDbEntity
  8
_U+30EC_U+30A4_U+30E4_U+30FC 1
 62
   179
420
  2234388
100
AcDbHatch
 10
0.0
 20
0.0
 30
0.0
210
0.0
220
0.0
230
1.0
  2
SOLID
 70
     1
 71
     0
 91
        2
 92
        1
 93
        1
 72
     4
 94
        3
 73
     0
 74
     1
 95
       32
 96
       28
 40
0.0
 40
0.0
 40
0.0
 40
0.0
 40
1.0
 40
1.0
 40
1.0
 40
2.0
 40
2.0
 40
2.0
 40
3.0
 40
3.0
 40
3.0
 40
4.0
 40
4.0
 40
4.0
 40
5.0
 40
5.0
 40
5.0
 40
6.0
 40
6.0
 40
6.0
 40
7.0
 40
7.0
 40
7.0
 40
8.0
 40
8.0
 40
8.0
 40
9.0
 40
9.0
 40
9.0
 40
9.0
 10
83.58008352945221
 20
-115.3085516747319
 10
83.06383597098751
 20
-115.3085516747319
 10
83.05539548704866
 20
-114.7542358111552
 10
83.05539548704866
 20
-114.5406398910697
 10
83.05539548704866
 20
-114.3099907483322
 10
83.0745157669918
 20
-113.6626573066538
 10
83.61815183456422
 20
-113.6626573066538
 10
83.79161239224655
 20
-113.6626573066538
 10
84.0370754455706
 20
-113.7324204902301
 10
84.07514375068261
 20
-114.0645276950082
 10
84.07514375068261
 20
-114.0645276950082
 10
83.86137557582285
 20
-114.0645276950082
 10
83.86137557582285
 20
-114.0645276950082
 10
83.85086803459284
 20
-114.0075113647273
 10
83.81917315612854
 20
-113.8593722588616
 10
83.61608477727306
 20
-113.8593722588616
 10
83.32411293489814
 20
-113.8593722588616
 10
83.28380531772072
 20
-114.1873453490573
 10
83.27123071919955
 20
-114.392500785204
 10
83.3642482973013
 20
-114.3142971176888
 10
83.43194442358646
 20
-114.2550414753425
 10
83.61384546520766
 20
-114.2550414753425
 10
83.79367944953769
 20
-114.2550414753425
 10
84.09615883314262
 20
-114.3628729640308
 10
84.09615883314262
 20
-114.7690497217418
 10
84.09615883314262
 20
-115.0885823279987
 10
83.89737682364371
 20
-115.3085516747319
 10
83.58008352945221
 20
-115.3085516747319
 97
        0
 97
        0
 92
        1
 93
        1
 72
     4
 94
        3
 73
     0
 74
     1
 95
       17
 96
       13
 40
0.0
 40
0.0
 40
0.0
 40
0.0
 40
1.0
 40
1.0
 40
1.0
 40
2.0
 40
2.0
 40
2.0
 40
3.0
 40
3.0
 40
3.0
 40
4.0
 40
4.0
 40
4.0
 40
4.0
 10
83.59696449732994
 20
-114.4496893702591
 10
83.33462047612815
 20
-114.4496893702591
 10
83.29655217101615
 20
-114.6612182330534
 10
83.29655217101615
 20
-114.7774902056806
 10
83.29655217101615
 20
-114.9531900754284
 10
83.3918090611833
 20
-115.1159708371064
 10
83.57577716009564
 20
-115.1159708371064
 10
83.69635550207938
 20
-115.1159708371064
 10
83.87205537182713
 20
-115.0567151947601
 10
83.87205537182713
 20
-114.7711167790329
 10
83.87205537182713
 20
-114.5470133177174
 10
83.73235674990025
 20
-114.4496893702591
 10
83.59696449732994
 20
-114.4496893702591
 97
        0
 97
        0
 75
     2
 76
     1
 98
        0
  0
ENDBLK
  5
36E
330
36B
100
AcDbEntity
  8
0
100
AcDbBlockEnd
  0
BLOCK
  5
378
330
376
100
AcDbEntity
  8
0
100
AcDbBlockBegin
  2
block 9
 70
     0
 10
0.0
 20
0.0
 30
0.0
  3
block 9
  1

  0
SPLINE
  5
37A
330
376
100
AcDbEntity
  8
_U+30EC_U+30A4_U+30E4_U+30FC 1
370
     0
100
AcDbSpline
210
0.0
220
0.0
230
1.0
 70
    11
 71
     3
 72
    44
 73
    40
 74
     0
 42
0.0000000001
 43
0.0000000001
 12
1.0
 22
0.0
 32
0.0
 13
1.0
 23
0.0
 33
0.0
 40
0.0
 40
0.0
 40
0.0
 40
0.0
 40
1.0
 40
1.0
 40
1.0
 40
2.0
 40
2.0
 40
2.0
 40
3.0
 40
3.0
 40
3.0
 40
4.0
 40
4.0
 40
4.0
 40
5.0
 40
5.0
 40
5.0
 40
6.0
 40
6.0
 40
6.0
 40
7.0
 40
7.0
 40
7.0
 40
8.0
 40
8.0
 40
8.0
 40
9.0
 40
9.0
 40
9.0
 40
10.0
 40
10.0
 40
10.0
 40
11.0
 40
11.0
 40
11.0
 40
12.0
 40
12.0
 40
12.0
 40
13.0
 40
13.0
 40
13.0
 40
13.0
 10
107.9224392091305
 20
-115.2051988101744
 30
0.0
 10
107.7047091744627
 20
-115.3638454572702
 30
0.0
 10
107.6113470868124
 20
-115.437915010203
 30
0.0
 10
107.5627712404704
 20
-115.5817477467122
 30
0.0
 10
107.5627712404704
 20
-115.5817477467122
 30
0.0
 10
108.3413628201369
 20
-115.5817477467122
 30
0.0
 10
108.3413628201369
 20
-115.5817477467122
 30
0.0
 10
108.3413628201369
 20
-115.5817477467122
 30
0.0
 10
108.3413628201369
 20
-115.7869031828588
 30
0.0
 10
108.3413628201369
 20
-115.7869031828588
 30
0.0
 10
108.3413628201369
 20
-115.7869031828588
 30
0.0
 10
107.3133463273383
 20
-115.7869031828588
 30
0.0
 10
107.3133463273383
 20
-115.7869031828588
 30
0.0
 10
107.3450412058026
 20
-115.4293022714899
 30
0.0
 10
107.4104980200224
 20
-115.3510986039747
 30
0.0
 10
107.7956596952733
 20
-115.0527533349521
 30
0.0
 10
108.0512857802788
 20
-114.8539713254532
 30
0.0
 10
108.1167425944986
 20
-114.786275199168
 30
0.0
 10
108.1167425944986
 20
-114.6488158893065
 30
0.0
 10
108.1167425944986
 20
-114.530304604614
 30
0.0
 10
108.0450846084054
 20
-114.3992187214002
 30
0.0
 10
107.8483696561976
 20
-114.3992187214002
 30
0.0
 10
107.5882649470613
 20
-114.3992187214002
 30
0.0
 10
107.5796522083482
 20
-114.6296956093634
 30
0.0
 10
107.5751735842173
 20
-114.7461398367649
 30
0.0
 10
107.5751735842173
 20
-114.7461398367649
 30
0.0
 10
107.3512423776761
 20
-114.7461398367649
 30
0.0
 10
107.3512423776761
 20
-114.7461398367649
 30
0.0
 10
107.3595106068407
 20
-114.6191880681334
 30
0.0
 10
107.370190402845
 20
-114.5070502100885
 30
0.0
 10
107.4504611276513
 20
-114.3885389253959
 30
0.0
 10
107.5607041831793
 20
-114.227825221009
 30
0.0
 10
107.7467393393828
 20
-114.1938910304793
 30
0.0
 10
107.8631835667842
 20
-114.1938910304793
 30
0.0
 10
108.1401692437983
 20
-114.1938910304793
 30
0.0
 10
108.3475639920103
 20
-114.3780313841659
 30
0.0
 10
108.3475639920103
 20
-114.6508829465977
 30
0.0
 10
108.3475639920103
 20
-114.8792927772698
 30
0.0
 10
108.2311197646089
 20
-114.9788560367935
 30
0.0
 10
107.9224392091305
 20
-115.2051988101744
 30
0.0
  0
HATCH
  5
37B
330
376
100
AcDbEntity
  8
_U+30EC_U+30A4_U+30E4_U+30FC 1
 62
   179
420
  2234388
100
AcDbHatch
 10
0.0
 20
0.0
 30
0.0
210
0.0
220
0.0
230
1.0
  2
SOLID
 70
     1
 71
     0
 91
        1
 92
        1
 93
        1
 72
     4
 94
        3
 73
     0
 74
     1
 95
       44
 96
       40
 40
0.0
 40
0.0
 40
0.0
 40
0.0
 40
1.0
 40
1.0
 40
1.0
 40
2.0
 40
2.0
 40
2.0
 40
3.0
 40
3.0
 40
3.0
 40
4.0
 40
4.0
 40
4.0
 40
5.0
 40
5.0
 40
5.0
 40
6.0
 40
6.0
 40
6.0
 40
7.0
 40
7.0
 40
7.0
 40
8.0
 40
8.0
 40
8.0
 40
9.0
 40
9.0
 40
9.0
 40
10.0
 40
10.0
 40
10.0
 40
11.0
 40
11.0
 40
11.0
 40
12.0
 40
12.0
 40
12.0
 40
13.0
 40
13.0
 40
13.0
 40
13.0
 10
107.9224392091305
 20
-115.2051988101744
 10
107.7047091744627
 20
-115.3638454572702
 10
107.6113470868124
 20
-115.437915010203
 10
107.5627712404704
 20
-115.5817477467122
 10
107.5627712404704
 20
-115.5817477467122
 10
108.3413628201369
 20
-115.5817477467122
 10
108.3413628201369
 20
-115.5817477467122
 10
108.3413628201369
 20
-115.5817477467122
 10
108.3413628201369
 20
-115.7869031828588
 10
108.3413628201369
 20
-115.7869031828588
 10
108.3413628201369
 20
-115.7869031828588
 10
107.3133463273383
 20
-115.7869031828588
 10
107.3133463273383
 20
-115.7869031828588
 10
107.3450412058026
 20
-115.4293022714899
 10
107.4104980200224
 20
-115.3510986039747
 10
107.7956596952733
 20
-115.0527533349521
 10
108.0512857802788
 20
-114.8539713254532
 10
108.1167425944986
 20
-114.786275199168
 10
108.1167425944986
 20
-114.6488158893065
 10
108.1167425944986
 20
-114.530304604614
 10
108.0450846084054
 20
-114.3992187214002
 10
107.8483696561976
 20
-114.3992187214002
 10
107.5882649470613
 20
-114.3992187214002
 10
107.5796522083482
 20
-114.6296956093634
 10
107.5751735842173
 20
-114.7461398367649
 10
107.5751735842173
 20
-114.7461398367649
 10
107.3512423776761
 20
-114.7461398367649
 10
107.3512423776761
 20
-114.7461398367649
 10
107.3595106068407
 20
-114.6191880681334
 10
107.370190402845
 20
-114.5070502100885
 10
107.4504611276513
 20
-114.3885389253959
 10
107.5607041831793
 20
-114.227825221009
 10
107.7467393393828
 20
-114.1938910304793
 10
107.8631835667842
 20
-114.1938910304793
 10
108.1401692437983
 20
-114.1938910304793
 10
108.3475639920103
 20
-114.3780313841659
 10
108.3475639920103
 20
-114.6508829465977
 10
108.3475639920103
 20
-114.8792927772698
 10
108.2311197646089
 20
-114.9788560367935
 10
107.9224392091305
 20
-115.2051988101744
 97
        0
 97
        0
 75
     2
 76
     1
 98
        0
  0
POLYLINE
  5
37C
330
376
100
AcDbEntity
  8
_U+30EC_U+30A4_U+30E4_U+30FC 1
370
     0
100
AcDb2dPolyline
 66
     1
 10
0.0
 20
0.0
 30
0.0
  0
VERTEX
  5
37D
330
37C
100
AcDbEntity
  8
_U+30EC_U+30A4_U+30E4_U+30FC 1
370
     0
100
AcDbVertex
100
AcDb2dVertex
 10
108.5659830457752
 20
-115.7869031828588
 30
0.0
  0
VERTEX
  5
37E
330
37C
100
AcDbEntity
  8
_U+30EC_U+30A4_U+30E4_U+30FC 1
370
     0
100
AcDbVertex
100
AcDb2dVertex
 10
108.5659830457752
 20
-115.5352389576613
 30
0.0
  0
VERTEX
  5
37F
330
37C
100
AcDbEntity
  8
_U+30EC_U+30A4_U+30E4_U+30FC 1
370
     0
100
AcDbVertex
100
AcDb2dVertex
 10
108.8178195257469
 20
-115.5352389576613
 30
0.0
  0
VERTEX
  5
380
330
37C
100
AcDbEntity
  8
_U+30EC_U+30A4_U+30E4_U+30FC 1
370
     0
100
AcDbVertex
100
AcDb2dVertex
 10
108.8178195257469
 20
-115.7869031828588
 30
0.0
  0
VERTEX
  5
381
330
37C
100
AcDbEntity
  8
_U+30EC_U+30A4_U+30E4_U+30FC 1
370
     0
100
AcDbVertex
100
AcDb2dVertex
 10
108.5659830457752
 20
-115.7869031828588
 30
0.0
  0
SEQEND
  5
382
330
37C
100
AcDbEntity
  8
_U+30EC_U+30A4_U+30E4_U+30FC 1
370
     0
  0
HATCH
  5
383
330
376
100
AcDbEntity
  8
_U+30EC_U+30A4_U+30E4_U+30FC 1
 62
   179
420
  2234388
100
AcDbHatch
 10
0.0
 20
0.0
 30
0.0
210
0.0
220
0.0
230
1.0
  2
SOLID
 70
     1
 71
     0
 91
        1
 92
        1
 93
        4
 72
     1
 10
108.5659830457752
 20
-115.7869031828588
 11
108.5659830457752
 21
-115.5352389576613
 72
     1
 10
108.5659830457752
 20
-115.5352389576613
 11
108.8178195257469
 21
-115.5352389576613
 72
     1
 10
108.8178195257469
 20
-115.5352389576613
 11
108.8178195257469
 21
-115.7869031828588
 72
     1
 10
108.8178195257469
 20
-115.7869031828588
 11
108.5659830457752
 21
-115.7869031828588
 97
        0
 75
     2
 76
     1
 98
        0
  0
SPLINE
  5
384
330
376
100
AcDbEntity
  8
_U+30EC_U+30A4_U+30E4_U+30FC 1
370
     0
100
AcDbSpline
210
0.0
220
0.0
230
1.0
 70
    11
 71
     3
 72
    62
 73
    58
 74
     0
 42
0.0000000001
 43
0.0000000001
 12
1.0
 22
0.0
 32
0.0
 13
1.0
 23
0.0
 33
0.0
 40
0.0
 40
0.0
 40
0.0
 40
0.0
 40
1.0
 40
1.0
 40
1.0
 40
2.0
 40
2.0
 40
2.0
 40
3.0
 40
3.0
 40
3.0
 40
4.0
 40
4.0
 40
4.0
 40
5.0
 40
5.0
 40
5.0
 40
6.0
 40
6.0
 40
6.0
 40
7.0
 40
7.0
 40
7.0
 40
8.0
 40
8.0
 40
8.0
 40
9.0
 40
9.0
 40
9.0
 40
10.0
 40
10.0
 40
10.0
 40
11.0
 40
11.0
 40
11.0
 40
12.0
 40
12.0
 40
12.0
 40
13.0
 40
13.0
 40
13.0
 40
14.0
 40
14.0
 40
14.0
 40
15.0
 40
15.0
 40
15.0
 40
16.0
 40
16.0
 40
16.0
 40
17.0
 40
17.0
 40
17.0
 40
18.0
 40
18.0
 40
18.0
 40
19.0
 40
19.0
 40
19.0
 40
19.0
 10
109.5457682017802
 20
-115.8377183412663
 30
0.0
 10
109.4506835663873
 20
-115.8377183412663
 30
0.0
 10
109.2329535317195
 20
-115.816531004032
 30
0.0
 10
109.1082410751535
 20
-115.6303235930542
 30
0.0
 10
109.0338270126721
 20
-115.5181857350094
 30
0.0
 10
109.0296928980898
 20
-115.4187947302599
 30
0.0
 10
109.0255587835075
 20
-115.334217636097
 30
0.0
 10
109.0255587835075
 20
-115.334217636097
 30
0.0
 10
109.2453558754664
 20
-115.334217636097
 30
0.0
 10
109.2453558754664
 20
-115.334217636097
 30
0.0
 10
109.2474229327576
 20
-115.4082871890299
 30
0.0
 10
109.2584472383104
 20
-115.6430704463497
 30
0.0
 10
109.5416340871979
 20
-115.6430704463497
 30
0.0
 10
109.6794379066079
 20
-115.6430704463497
 30
0.0
 10
109.831711127056
 20
-115.5733072627733
 30
0.0
 10
109.831711127056
 20
-115.344725177327
 30
0.0
 10
109.831711127056
 20
-115.2284532046998
 30
0.0
 10
109.7934705671697
 20
-115.1797051035836
 30
0.0
 10
109.7617756887054
 20
-115.1480102251193
 30
0.0
 10
109.6877061357725
 20
-115.0739406721864
 30
0.0
 10
109.5712619083711
 20
-115.0613660736652
 30
0.0
 10
109.5161403806071
 20
-115.0613660736652
 30
0.0
 10
109.4975368649867
 20
-115.0613660736652
 30
0.0
 10
109.4613633623916
 20
-115.0634331309564
 30
0.0
 10
109.4338025985096
 20
-115.0675672455387
 30
0.0
 10
109.4338025985096
 20
-115.0675672455387
 30
0.0
 10
109.4338025985096
 20
-114.8729193506221
 30
0.0
 10
109.4338025985096
 20
-114.8729193506221
 30
0.0
 10
109.4720431583959
 20
-114.8792927772698
 30
0.0
 10
109.5140733233159
 20
-114.8815320893352
 30
0.0
 10
109.5206190047379
 20
-114.8815320893352
 30
0.0
 10
109.5860758189577
 20
-114.8815320893352
 30
0.0
 10
109.7848578284566
 20
-114.8603447521009
 30
0.0
 10
109.7848578284566
 20
-114.6233221827157
 30
0.0
 10
109.7848578284566
 20
-114.4457275104511
 30
0.0
 10
109.6539442000171
 20
-114.3906059826871
 30
0.0
 10
109.5437011444891
 20
-114.3906059826871
 30
0.0
 10
109.2794623207704
 20
-114.3906059826871
 30
0.0
 10
109.2708495820573
 20
-114.6233221827157
 30
0.0
 10
109.266715467475
 20
-114.6953246783574
 30
0.0
 10
109.266715467475
 20
-114.6953246783574
 30
0.0
 10
109.0634548338453
 20
-114.6953246783574
 30
0.0
 10
109.0634548338453
 20
-114.6953246783574
 30
0.0
 10
109.0720675725584
 20
-114.5704399670171
 30
0.0
 10
109.0996283364404
 20
-114.1938910304793
 30
0.0
 10
109.5564479977845
 20
-114.1938910304793
 30
0.0
 10
109.7807237138743
 20
-114.1938910304793
 30
0.0
 10
110.0218803978418
 20
-114.3208427991108
 30
0.0
 10
110.0218803978418
 20
-114.616948756068
 30
0.0
 10
110.0218803978418
 20
-114.8031561670457
 30
0.0
 10
109.9267957624489
 20
-114.8856662039175
 30
0.0
 10
109.8272325029251
 20
-114.9469889035549
 30
0.0
 10
109.8888997121111
 20
-114.9745496674369
 30
0.0
 10
110.0708007537323
 20
-115.0549926470175
 30
0.0
 10
110.0708007537323
 20
-115.3321505788059
 30
0.0
 10
110.0708007537323
 20
-115.6706312102316
 30
0.0
 10
109.8230983883428
 20
-115.8377183412663
 30
0.0
 10
109.5457682017802
 20
-115.8377183412663
 30
0.0
  0
HATCH
  5
385
330
376
100
AcDbEntity
  8
_U+30EC_U+30A4_U+30E4_U+30FC 1
 62
   179
420
  2234388
100
AcDbHatch
 10
0.0
 20
0.0
 30
0.0
210
0.0
220
0.0
230
1.0
  2
SOLID
 70
     1
 71
     0
 91
        1
 92
        1
 93
        1
 72
     4
 94
        3
 73
     0
 74
     1
 95
       62
 96
       58
 40
0.0
 40
0.0
 40
0.0
 40
0.0
 40
1.0
 40
1.0
 40
1.0
 40
2.0
 40
2.0
 40
2.0
 40
3.0
 40
3.0
 40
3.0
 40
4.0
 40
4.0
 40
4.0
 40
5.0
 40
5.0
 40
5.0
 40
6.0
 40
6.0
 40
6.0
 40
7.0
 40
7.0
 40
7.0
 40
8.0
 40
8.0
 40
8.0
 40
9.0
 40
9.0
 40
9.0
 40
10.0
 40
10.0
 40
10.0
 40
11.0
 40
11.0
 40
11.0
 40
12.0
 40
12.0
 40
12.0
 40
13.0
 40
13.0
 40
13.0
 40
14.0
 40
14.0
 40
14.0
 40
15.0
 40
15.0
 40
15.0
 40
16.0
 40
16.0
 40
16.0
 40
17.0
 40
17.0
 40
17.0
 40
18.0
 40
18.0
 40
18.0
 40
19.0
 40
19.0
 40
19.0
 40
19.0
 10
109.5457682017802
 20
-115.8377183412663
 10
109.4506835663873
 20
-115.8377183412663
 10
109.2329535317195
 20
-115.816531004032
 10
109.1082410751535
 20
-115.6303235930542
 10
109.0338270126721
 20
-115.5181857350094
 10
109.0296928980898
 20
-115.4187947302599
 10
109.0255587835075
 20
-115.334217636097
 10
109.0255587835075
 20
-115.334217636097
 10
109.2453558754664
 20
-115.334217636097
 10
109.2453558754664
 20
-115.334217636097
 10
109.2474229327576
 20
-115.4082871890299
 10
109.2584472383104
 20
-115.6430704463497
 10
109.5416340871979
 20
-115.6430704463497
 10
109.6794379066079
 20
-115.6430704463497
 10
109.831711127056
 20
-115.5733072627733
 10
109.831711127056
 20
-115.344725177327
 10
109.831711127056
 20
-115.2284532046998
 10
109.7934705671697
 20
-115.1797051035836
 10
109.7617756887054
 20
-115.1480102251193
 10
109.6877061357725
 20
-115.0739406721864
 10
109.5712619083711
 20
-115.0613660736652
 10
109.5161403806071
 20
-115.0613660736652
 10
109.4975368649867
 20
-115.0613660736652
 10
109.4613633623916
 20
-115.0634331309564
 10
109.4338025985096
 20
-115.0675672455387
 10
109.4338025985096
 20
-115.0675672455387
 10
109.4338025985096
 20
-114.8729193506221
 10
109.4338025985096
 20
-114.8729193506221
 10
109.4720431583959
 20
-114.8792927772698
 10
109.5140733233159
 20
-114.8815320893352
 10
109.5206190047379
 20
-114.8815320893352
 10
109.5860758189577
 20
-114.8815320893352
 10
109.7848578284566
 20
-114.8603447521009
 10
109.7848578284566
 20
-114.6233221827157
 10
109.7848578284566
 20
-114.4457275104511
 10
109.6539442000171
 20
-114.3906059826871
 10
109.5437011444891
 20
-114.3906059826871
 10
109.2794623207704
 20
-114.3906059826871
 10
109.2708495820573
 20
-114.6233221827157
 10
109.266715467475
 20
-114.6953246783574
 10
109.266715467475
 20
-114.6953246783574
 10
109.0634548338453
 20
-114.6953246783574
 10
109.0634548338453
 20
-114.6953246783574
 10
109.0720675725584
 20
-114.5704399670171
 10
109.0996283364404
 20
-114.1938910304793
 10
109.5564479977845
 20
-114.1938910304793
 10
109.7807237138743
 20
-114.1938910304793
 10
110.0218803978418
 20
-114.3208427991108
 10
110.0218803978418
 20
-114.616948756068
 10
110.0218803978418
 20
-114.8031561670457
 10
109.9267957624489
 20
-114.8856662039175
 10
109.8272325029251
 20
-114.9469889035549
 10
109.8888997121111
 20
-114.9745496674369
 10
110.0708007537323
 20
-115.0549926470175
 10
110.0708007537323
 20
-115.3321505788059
 10
110.0708007537323
 20
-115.6706312102316
 10
109.8230983883428
 20
-115.8377183412663
 10
109.5457682017802
 20
-115.8377183412663
 97
        0
 97
        0
 75
     2
 76
     1
 98
        0
  0
ENDBLK
  5
379
330
376
100
AcDbEntity
  8
0
100
AcDbBlockEnd
  0
BLOCK
  5
388
330
386
100
AcDbEntity
  8
0
100
AcDbBlockBegin
  2
block 10
 70
     0
 10
0.0
 20
0.0
 30
0.0
  3
block 10
  1

  0
SPLINE
  5
38A
330
386
100
AcDbEntity
  8
_U+30EC_U+30A4_U+30E4_U+30FC 1
370
     0
100
AcDbSpline
210
0.0
220
0.0
230
1.0
 70
    11
 71
     3
 72
    53
 73
    49
 74
     0
 42
0.0000000001
 43
0.0000000001
 12
1.0
 22
0.0
 32
0.0
 13
1.0
 23
0.0
 33
0.0
 40
0.0
 40
0.0
 40
0.0
 40
0.0
 40
1.0
 40
1.0
 40
1.0
 40
2.0
 40
2.0
 40
2.0
 40
3.0
 40
3.0
 40
3.0
 40
4.0
 40
4.0
 40
4.0
 40
5.0
 40
5.0
 40
5.0
 40
6.0
 40
6.0
 40
6.0
 40
7.0
 40
7.0
 40
7.0
 40
8.0
 40
8.0
 40
8.0
 40
9.0
 40
9.0
 40
9.0
 40
10.0
 40
10.0
 40
10.0
 40
11.0
 40
11.0
 40
11.0
 40
12.0
 40
12.0
 40
12.0
 40
13.0
 40
13.0
 40
13.0
 40
14.0
 40
14.0
 40
14.0
 40
15.0
 40
15.0
 40
15.0
 40
16.0
 40
16.0
 40
16.0
 40
16.0
 10
114.920806177867
 20
-126.8594400724518
 30
0.0
 10
114.920806177867
 20
-126.9378159947412
 30
0.0
 10
114.9035807004408
 20
-127.0392740567818
 30
0.0
 10
114.8401909435122
 20
-127.1409043735967
 30
0.0
 10
114.7302923975327
 20
-127.3143649312791
 30
0.0
 10
114.5990342595447
 20
-127.3355522685133
 30
0.0
 10
114.4915472804049
 20
-127.3545002936822
 30
0.0
 10
114.4915472804049
 20
-127.3545002936822
 30
0.0
 10
114.4915472804049
 20
-127.1324638896579
 30
0.0
 10
114.4915472804049
 20
-127.1324638896579
 30
0.0
 10
114.6899847803553
 20
-127.0773423618939
 30
0.0
 10
114.7196126015284
 20
-126.9503905932624
 30
0.0
 10
114.7196126015284
 20
-126.8573730151607
 30
0.0
 10
114.7196126015284
 20
-126.717846648008
 30
0.0
 10
114.6203938515532
 20
-126.5654011727857
 30
0.0
 10
114.3875053967504
 20
-126.5654011727857
 30
0.0
 10
114.1318793117448
 20
-126.5654011727857
 30
0.0
 10
114.0619438733942
 20
-126.7452351571158
 30
0.0
 10
114.0619438733942
 20
-126.8658134990995
 30
0.0
 10
114.0619438733942
 20
-126.8975083775638
 30
0.0
 10
114.0619438733942
 20
-127.0392740567818
 30
0.0
 10
114.1911349540911
 20
-127.1281575203013
 30
0.0
 10
114.1911349540911
 20
-127.1281575203013
 30
0.0
 10
114.1718424193737
 20
-127.3036851352748
 30
0.0
 10
114.1718424193737
 20
-127.3036851352748
 30
0.0
 10
114.1718424193737
 20
-127.3036851352748
 30
0.0
 10
113.3257269681963
 20
-127.183106793291
 30
0.0
 10
113.3257269681963
 20
-127.183106793291
 30
0.0
 10
113.3257269681963
 20
-127.183106793291
 30
0.0
 10
113.3257269681963
 20
-126.4046874683988
 30
0.0
 10
113.3257269681963
 20
-126.4046874683988
 30
0.0
 10
113.3257269681963
 20
-126.4046874683988
 30
0.0
 10
113.520374863113
 20
-126.4046874683988
 30
0.0
 10
113.520374863113
 20
-126.4046874683988
 30
0.0
 10
113.520374863113
 20
-126.4046874683988
 30
0.0
 10
113.520374863113
 20
-127.020326031613
 30
0.0
 10
113.520374863113
 20
-127.020326031613
 30
0.0
 10
113.520374863113
 20
-127.020326031613
 30
0.0
 10
113.9434325887017
 20
-127.0857828458327
 30
0.0
 10
113.9434325887017
 20
-127.0857828458327
 30
0.0
 10
113.9093261433977
 20
-127.0244601461953
 30
0.0
 10
113.8693630357688
 20
-126.9419501093235
 30
0.0
 10
113.8693630357688
 20
-126.8236110794052
 30
0.0
 10
113.8693630357688
 20
-126.5697075421423
 30
0.0
 10
114.0553981919723
 20
-126.3326849727571
 30
0.0
 10
114.3685573715815
 20
-126.3326849727571
 30
0.0
 10
114.685850665773
 20
-126.3326849727571
 30
0.0
 10
114.920806177867
 20
-126.5569606888469
 30
0.0
 10
114.920806177867
 20
-126.8594400724518
 30
0.0
  0
HATCH
  5
38B
330
386
100
AcDbEntity
  8
_U+30EC_U+30A4_U+30E4_U+30FC 1
 62
   179
420
  2234388
100
AcDbHatch
 10
0.0
 20
0.0
 30
0.0
210
0.0
220
0.0
230
1.0
  2
SOLID
 70
     1
 71
     0
 91
        1
 92
        1
 93
        1
 72
     4
 94
        3
 73
     0
 74
     1
 95
       53
 96
       49
 40
0.0
 40
0.0
 40
0.0
 40
0.0
 40
1.0
 40
1.0
 40
1.0
 40
2.0
 40
2.0
 40
2.0
 40
3.0
 40
3.0
 40
3.0
 40
4.0
 40
4.0
 40
4.0
 40
5.0
 40
5.0
 40
5.0
 40
6.0
 40
6.0
 40
6.0
 40
7.0
 40
7.0
 40
7.0
 40
8.0
 40
8.0
 40
8.0
 40
9.0
 40
9.0
 40
9.0
 40
10.0
 40
10.0
 40
10.0
 40
11.0
 40
11.0
 40
11.0
 40
12.0
 40
12.0
 40
12.0
 40
13.0
 40
13.0
 40
13.0
 40
14.0
 40
14.0
 40
14.0
 40
15.0
 40
15.0
 40
15.0
 40
16.0
 40
16.0
 40
16.0
 40
16.0
 10
114.920806177867
 20
-126.8594400724518
 10
114.920806177867
 20
-126.9378159947412
 10
114.9035807004408
 20
-127.0392740567818
 10
114.8401909435122
 20
-127.1409043735967
 10
114.7302923975327
 20
-127.3143649312791
 10
114.5990342595447
 20
-127.3355522685133
 10
114.4915472804049
 20
-127.3545002936822
 10
114.4915472804049
 20
-127.3545002936822
 10
114.4915472804049
 20
-127.1324638896579
 10
114.4915472804049
 20
-127.1324638896579
 10
114.6899847803553
 20
-127.0773423618939
 10
114.7196126015284
 20
-126.9503905932624
 10
114.7196126015284
 20
-126.8573730151607
 10
114.7196126015284
 20
-126.717846648008
 10
114.6203938515532
 20
-126.5654011727857
 10
114.3875053967504
 20
-126.5654011727857
 10
114.1318793117448
 20
-126.5654011727857
 10
114.0619438733942
 20
-126.7452351571158
 10
114.0619438733942
 20
-126.8658134990995
 10
114.0619438733942
 20
-126.8975083775638
 10
114.0619438733942
 20
-127.0392740567818
 10
114.1911349540911
 20
-127.1281575203013
 10
114.1911349540911
 20
-127.1281575203013
 10
114.1718424193737
 20
-127.3036851352748
 10
114.1718424193737
 20
-127.3036851352748
 10
114.1718424193737
 20
-127.3036851352748
 10
113.3257269681963
 20
-127.183106793291
 10
113.3257269681963
 20
-127.183106793291
 10
113.3257269681963
 20
-127.183106793291
 10
113.3257269681963
 20
-126.4046874683988
 10
113.3257269681963
 20
-126.4046874683988
 10
113.3257269681963
 20
-126.4046874683988
 10
113.520374863113
 20
-126.4046874683988
 10
113.520374863113
 20
-126.4046874683988
 10
113.520374863113
 20
-126.4046874683988
 10
113.520374863113
 20
-127.020326031613
 10
113.520374863113
 20
-127.020326031613
 10
113.520374863113
 20
-127.020326031613
 10
113.9434325887017
 20
-127.0857828458327
 10
113.9434325887017
 20
-127.0857828458327
 10
113.9093261433977
 20
-127.0244601461953
 10
113.8693630357688
 20
-126.9419501093235
 10
113.8693630357688
 20
-126.8236110794052
 10
113.8693630357688
 20
-126.5697075421423
 10
114.0553981919723
 20
-126.3326849727571
 10
114.3685573715815
 20
-126.3326849727571
 10
114.685850665773
 20
-126.3326849727571
 10
114.920806177867
 20
-126.5569606888469
 10
114.920806177867
 20
-126.8594400724518
 97
        0
 97
        0
 75
     2
 76
     1
 98
        0
  0
SPLINE
  5
38C
330
386
100
AcDbEntity
  8
_U+30EC_U+30A4_U+30E4_U+30FC 1
370
     0
100
AcDbSpline
210
0.0
220
0.0
230
1.0
 70
    11
 71
     3
 72
    29
 73
    25
 74
     0
 42
0.0000000001
 43
0.0000000001
 12
1.0
 22
0.0
 32
0.0
 13
1.0
 23
0.0
 33
0.0
 40
0.0
 40
0.0
 40
0.0
 40
0.0
 40
1.0
 40
1.0
 40
1.0
 40
2.0
 40
2.0
 40
2.0
 40
3.0
 40
3.0
 40
3.0
 40
4.0
 40
4.0
 40
4.0
 40
5.0
 40
5.0
 40
5.0
 40
6.0
 40
6.0
 40
6.0
 40
7.0
 40
7.0
 40
7.0
 40
8.0
 40
8.0
 40
8.0
 40
8.0
 10
114.6920518376464
 20
-125.2659111557495
 30
0.0
 10
114.9015136431496
 20
-125.3737426444378
 30
0.0
 10
114.920806177867
 20
-125.5472032021201
 30
0.0
 10
114.920806177867
 20
-125.6636474295216
 30
0.0
 10
114.920806177867
 20
-125.8243611339085
 30
0.0
 10
114.8742973888162
 20
-125.9661268131265
 30
0.0
 10
114.6920518376464
 20
-126.0613837032937
 30
0.0
 10
114.4977484522783
 20
-126.1649088226254
 30
0.0
 10
114.2607258828932
 20
-126.1840291025686
 30
0.0
 10
114.0977728664408
 20
-126.1840291025686
 30
0.0
 10
113.9541123847059
 20
-126.1840291025686
 30
0.0
 10
113.7022759047342
 20
-126.1671481346909
 30
0.0
 10
113.5034938952352
 20
-126.0613837032937
 30
0.0
 10
113.3002332616055
 20
-125.9533799598311
 30
0.0
 10
113.2768066123058
 20
-125.7926662554442
 30
0.0
 10
113.2768066123058
 20
-125.6636474295216
 30
0.0
 10
113.2768066123058
 20
-125.5050007824258
 30
0.0
 10
113.321592853614
 20
-125.3611680459167
 30
0.0
 10
113.5034938952352
 20
-125.2659111557495
 30
0.0
 10
113.6957302233122
 20
-125.166520151
 30
0.0
 10
113.9244845635328
 20
-125.1432657564746
 30
0.0
 10
114.0977728664408
 20
-125.1432657564746
 30
0.0
 10
114.2689941120578
 20
-125.1432657564746
 30
0.0
 10
114.4998155095695
 20
-125.1642808389346
 30
0.0
 10
114.6920518376464
 20
-125.2659111557495
 30
0.0
  0
SPLINE
  5
38D
330
386
100
AcDbEntity
  8
_U+30EC_U+30A4_U+30E4_U+30FC 1
370
     0
100
AcDbSpline
210
0.0
220
0.0
230
1.0
 70
    11
 71
     3
 72
    17
 73
    13
 74
     0
 42
0.0000000001
 43
0.0000000001
 12
1.0
 22
0.0
 32
0.0
 13
1.0
 23
0.0
 33
0.0
 40
0.0
 40
0.0
 40
0.0
 40
0.0
 40
1.0
 40
1.0
 40
1.0
 40
2.0
 40
2.0
 40
2.0
 40
3.0
 40
3.0
 40
3.0
 40
4.0
 40
4.0
 40
4.0
 40
4.0
 10
113.4697319594798
 20
-125.6636474295216
 30
0.0
 10
113.4697319594798
 20
-125.9132445974279
 30
0.0
 10
113.7529188083673
 20
-125.9597533864788
 30
0.0
 10
114.0977728664408
 20
-125.9597533864788
 30
0.0
 10
114.4171332179235
 20
-125.9597533864788
 30
0.0
 10
114.7261582829504
 20
-125.923752138658
 30
0.0
 10
114.7261582829504
 20
-125.6636474295216
 30
0.0
 10
114.7261582829504
 20
-125.4161173189064
 30
0.0
 10
114.4446939818055
 20
-125.3673692177901
 30
0.0
 10
114.0977728664408
 20
-125.3673692177901
 30
0.0
 10
113.7784125149582
 20
-125.3673692177901
 30
0.0
 10
113.4697319594798
 20
-125.4056097776764
 30
0.0
 10
113.4697319594798
 20
-125.6636474295216
 30
0.0
  0
HATCH
  5
38E
330
386
100
AcDbEntity
  8
_U+30EC_U+30A4_U+30E4_U+30FC 1
 62
   179
420
  2234388
100
AcDbHatch
 10
0.0
 20
0.0
 30
0.0
210
0.0
220
0.0
230
1.0
  2
SOLID
 70
     1
 71
     0
 91
        2
 92
        1
 93
        1
 72
     4
 94
        3
 73
     0
 74
     1
 95
       29
 96
       25
 40
0.0
 40
0.0
 40
0.0
 40
0.0
 40
1.0
 40
1.0
 40
1.0
 40
2.0
 40
2.0
 40
2.0
 40
3.0
 40
3.0
 40
3.0
 40
4.0
 40
4.0
 40
4.0
 40
5.0
 40
5.0
 40
5.0
 40
6.0
 40
6.0
 40
6.0
 40
7.0
 40
7.0
 40
7.0
 40
8.0
 40
8.0
 40
8.0
 40
8.0
 10
114.6920518376464
 20
-125.2659111557495
 10
114.9015136431496
 20
-125.3737426444378
 10
114.920806177867
 20
-125.5472032021201
 10
114.920806177867
 20
-125.6636474295216
 10
114.920806177867
 20
-125.8243611339085
 10
114.8742973888162
 20
-125.9661268131265
 10
114.6920518376464
 20
-126.0613837032937
 10
114.4977484522783
 20
-126.1649088226254
 10
114.2607258828932
 20
-126.1840291025686
 10
114.0977728664408
 20
-126.1840291025686
 10
113.9541123847059
 20
-126.1840291025686
 10
113.7022759047342
 20
-126.1671481346909
 10
113.5034938952352
 20
-126.0613837032937
 10
113.3002332616055
 20
-125.9533799598311
 10
113.2768066123058
 20
-125.7926662554442
 10
113.2768066123058
 20
-125.6636474295216
 10
113.2768066123058
 20
-125.5050007824258
 10
113.321592853614
 20
-125.3611680459167
 10
113.5034938952352
 20
-125.2659111557495
 10
113.6957302233122
 20
-125.166520151
 10
113.9244845635328
 20
-125.1432657564746
 10
114.0977728664408
 20
-125.1432657564746
 10
114.2689941120578
 20
-125.1432657564746
 10
114.4998155095695
 20
-125.1642808389346
 10
114.6920518376464
 20
-125.2659111557495
 97
        0
 97
        0
 92
        1
 93
        1
 72
     4
 94
        3
 73
     0
 74
     1
 95
       17
 96
       13
 40
0.0
 40
0.0
 40
0.0
 40
0.0
 40
1.0
 40
1.0
 40
1.0
 40
2.0
 40
2.0
 40
2.0
 40
3.0
 40
3.0
 40
3.0
 40
4.0
 40
4.0
 40
4.0
 40
4.0
 10
113.4697319594798
 20
-125.6636474295216
 10
113.4697319594798
 20
-125.9132445974279
 10
113.7529188083673
 20
-125.9597533864788
 10
114.0977728664408
 20
-125.9597533864788
 10
114.4171332179235
 20
-125.9597533864788
 10
114.7261582829504
 20
-125.923752138658
 10
114.7261582829504
 20
-125.6636474295216
 10
114.7261582829504
 20
-125.4161173189064
 10
114.4446939818055
 20
-125.3673692177901
 10
114.0977728664408
 20
-125.3673692177901
 10
113.7784125149582
 20
-125.3673692177901
 10
113.4697319594798
 20
-125.4056097776764
 10
113.4697319594798
 20
-125.6636474295216
 97
        0
 97
        0
 75
     2
 76
     1
 98
        0
  0
ENDBLK
  5
389
330
386
100
AcDbEntity
  8
0
100
AcDbBlockEnd
  0
BLOCK
  5
391
330
38F
100
AcDbEntity
  8
0
100
AcDbBlockBegin
  2
block 11
 70
     0
 10
0.0
 20
0.0
 30
0.0
  3
block 11
  1

  0
SPLINE
  5
393
330
38F
100
AcDbEntity
  8
_U+30EC_U+30A4_U+30E4_U+30FC 1
370
     0
100
AcDbSpline
210
0.0
220
0.0
230
1.0
 70
    11
 71
     3
 72
    26
 73
    22
 74
     0
 42
0.0000000001
 43
0.0000000001
 12
1.0
 22
0.0
 32
0.0
 13
1.0
 23
0.0
 33
0.0
 40
0.0
 40
0.0
 40
0.0
 40
0.0
 40
1.0
 40
1.0
 40
1.0
 40
2.0
 40
2.0
 40
2.0
 40
3.0
 40
3.0
 40
3.0
 40
4.0
 40
4.0
 40
4.0
 40
5.0
 40
5.0
 40
5.0
 40
6.0
 40
6.0
 40
6.0
 40
7.0
 40
7.0
 40
7.0
 40
7.0
 10
101.6068901655705
 20
-139.2025281770049
 30
0.0
 10
101.6068901655705
 20
-139.2025281770049
 30
0.0
 10
101.6068901655705
 20
-138.0980305644338
 30
0.0
 10
101.6068901655705
 20
-138.0980305644338
 30
0.0
 10
101.6068901655705
 20
-138.0980305644338
 30
0.0
 10
101.2768500180836
 20
-138.0980305644338
 30
0.0
 10
101.2768500180836
 20
-138.0980305644338
 30
0.0
 10
101.2768500180836
 20
-138.0980305644338
 30
0.0
 10
101.2768500180836
 20
-137.9502359681166
 30
0.0
 10
101.2768500180836
 20
-137.9502359681166
 30
0.0
 10
101.6089572228616
 20
-137.93542205753
 30
0.0
 10
101.655810521461
 20
-137.7724690410777
 30
0.0
 10
101.6854383426342
 20
-137.658436380516
 30
0.0
 10
101.6854383426342
 20
-137.658436380516
 30
0.0
 10
101.8315103912088
 20
-137.658436380516
 30
0.0
 10
101.8315103912088
 20
-137.658436380516
 30
0.0
 10
101.8315103912088
 20
-137.658436380516
 30
0.0
 10
101.8315103912088
 20
-139.2025281770049
 30
0.0
 10
101.8315103912088
 20
-139.2025281770049
 30
0.0
 10
101.8315103912088
 20
-139.2025281770049
 30
0.0
 10
101.6068901655705
 20
-139.2025281770049
 30
0.0
 10
101.6068901655705
 20
-139.2025281770049
 30
0.0
  0
HATCH
  5
394
330
38F
100
AcDbEntity
  8
_U+30EC_U+30A4_U+30E4_U+30FC 1
 62
   179
420
  2234388
100
AcDbHatch
 10
0.0
 20
0.0
 30
0.0
210
0.0
220
0.0
230
1.0
  2
SOLID
 70
     1
 71
     0
 91
        1
 92
        1
 93
        1
 72
     4
 94
        3
 73
     0
 74
     1
 95
       26
 96
       22
 40
0.0
 40
0.0
 40
0.0
 40
0.0
 40
1.0
 40
1.0
 40
1.0
 40
2.0
 40
2.0
 40
2.0
 40
3.0
 40
3.0
 40
3.0
 40
4.0
 40
4.0
 40
4.0
 40
5.0
 40
5.0
 40
5.0
 40
6.0
 40
6.0
 40
6.0
 40
7.0
 40
7.0
 40
7.0
 40
7.0
 10
101.6068901655705
 20
-139.2025281770049
 10
101.6068901655705
 20
-139.2025281770049
 10
101.6068901655705
 20
-138.0980305644338
 10
101.6068901655705
 20
-138.0980305644338
 10
101.6068901655705
 20
-138.0980305644338
 10
101.2768500180836
 20
-138.0980305644338
 10
101.2768500180836
 20
-138.0980305644338
 10
101.2768500180836
 20
-138.0980305644338
 10
101.2768500180836
 20
-137.9502359681166
 10
101.2768500180836
 20
-137.9502359681166
 10
101.6089572228616
 20
-137.93542205753
 10
101.655810521461
 20
-137.7724690410777
 10
101.6854383426342
 20
-137.658436380516
 10
101.6854383426342
 20
-137.658436380516
 10
101.8315103912088
 20
-137.658436380516
 10
101.8315103912088
 20
-137.658436380516
 10
101.8315103912088
 20
-137.658436380516
 10
101.8315103912088
 20
-139.2025281770049
 10
101.8315103912088
 20
-139.2025281770049
 10
101.8315103912088
 20
-139.2025281770049
 10
101.6068901655705
 20
-139.2025281770049
 10
101.6068901655705
 20
-139.2025281770049
 97
        0
 97
        0
 75
     2
 76
     1
 98
        0
  0
SPLINE
  5
395
330
38F
100
AcDbEntity
  8
_U+30EC_U+30A4_U+30E4_U+30FC 1
370
     0
100
AcDbSpline
210
0.0
220
0.0
230
1.0
 70
    11
 71
     3
 72
    44
 73
    40
 74
     0
 42
0.0000000001
 43
0.0000000001
 12
1.0
 22
0.0
 32
0.0
 13
1.0
 23
0.0
 33
0.0
 40
0.0
 40
0.0
 40
0.0
 40
0.0
 40
1.0
 40
1.0
 40
1.0
 40
2.0
 40
2.0
 40
2.0
 40
3.0
 40
3.0
 40
3.0
 40
4.0
 40
4.0
 40
4.0
 40
5.0
 40
5.0
 40
5.0
 40
6.0
 40
6.0
 40
6.0
 40
7.0
 40
7.0
 40
7.0
 40
8.0
 40
8.0
 40
8.0
 40
9.0
 40
9.0
 40
9.0
 40
10.0
 40
10.0
 40
10.0
 40
11.0
 40
11.0
 40
11.0
 40
12.0
 40
12.0
 40
12.0
 40
13.0
 40
13.0
 40
13.0
 40
13.0
 10
102.9256727173241
 20
-138.6209960590948
 30
0.0
 10
102.7079426826564
 20
-138.7794704514162
 30
0.0
 10
102.6145805950061
 20
-138.8535400043491
 30
0.0
 10
102.5660047486641
 20
-138.997200486084
 30
0.0
 10
102.5660047486641
 20
-138.997200486084
 30
0.0
 10
103.3445963283305
 20
-138.997200486084
 30
0.0
 10
103.3445963283305
 20
-138.997200486084
 30
0.0
 10
103.3445963283305
 20
-138.997200486084
 30
0.0
 10
103.3445963283305
 20
-139.2025281770049
 30
0.0
 10
103.3445963283305
 20
-139.2025281770049
 30
0.0
 10
103.3445963283305
 20
-139.2025281770049
 30
0.0
 10
102.316579835532
 20
-139.2025281770049
 30
0.0
 10
102.316579835532
 20
-139.2025281770049
 30
0.0
 10
102.3482747139963
 20
-138.844927265636
 30
0.0
 10
102.413731528216
 20
-138.7667235981208
 30
0.0
 10
102.7988932034669
 20
-138.4683783290982
 30
0.0
 10
103.0545192884725
 20
-138.2695963195993
 30
0.0
 10
103.1199761026922
 20
-138.2020724480884
 30
0.0
 10
103.1199761026922
 20
-138.0642686286784
 30
0.0
 10
103.1199761026922
 20
-137.9457573439858
 30
0.0
 10
103.048318116599
 20
-137.8148437155463
 30
0.0
 10
102.8516031643913
 20
-137.8148437155463
 30
0.0
 10
102.5914984552549
 20
-137.8148437155463
 30
0.0
 10
102.5828857165418
 20
-138.0453206035095
 30
0.0
 10
102.578407092411
 20
-138.161764830911
 30
0.0
 10
102.578407092411
 20
-138.161764830911
 30
0.0
 10
102.3544758858697
 20
-138.161764830911
 30
0.0
 10
102.3544758858697
 20
-138.161764830911
 30
0.0
 10
102.3627441150343
 20
-138.0346408075052
 30
0.0
 10
102.3734239110386
 20
-137.9226752042346
 30
0.0
 10
102.4536946358449
 20
-137.804163919542
 30
0.0
 10
102.5639376913729
 20
-137.6432779603809
 30
0.0
 10
102.7499728475764
 20
-137.6095160246254
 30
0.0
 10
102.8664170749778
 20
-137.6095160246254
 30
0.0
 10
103.1434027519919
 20
-137.6095160246254
 30
0.0
 10
103.350797500204
 20
-137.7934841235378
 30
0.0
 10
103.350797500204
 20
-138.0663356859695
 30
0.0
 10
103.350797500204
 20
-138.2950900261901
 30
0.0
 10
103.2343532728025
 20
-138.3943087761653
 30
0.0
 10
102.9256727173241
 20
-138.6209960590948
 30
0.0
  0
HATCH
  5
396
330
38F
100
AcDbEntity
  8
_U+30EC_U+30A4_U+30E4_U+30FC 1
 62
   179
420
  2234388
100
AcDbHatch
 10
0.0
 20
0.0
 30
0.0
210
0.0
220
0.0
230
1.0
  2
SOLID
 70
     1
 71
     0
 91
        1
 92
        1
 93
        1
 72
     4
 94
        3
 73
     0
 74
     1
 95
       44
 96
       40
 40
0.0
 40
0.0
 40
0.0
 40
0.0
 40
1.0
 40
1.0
 40
1.0
 40
2.0
 40
2.0
 40
2.0
 40
3.0
 40
3.0
 40
3.0
 40
4.0
 40
4.0
 40
4.0
 40
5.0
 40
5.0
 40
5.0
 40
6.0
 40
6.0
 40
6.0
 40
7.0
 40
7.0
 40
7.0
 40
8.0
 40
8.0
 40
8.0
 40
9.0
 40
9.0
 40
9.0
 40
10.0
 40
10.0
 40
10.0
 40
11.0
 40
11.0
 40
11.0
 40
12.0
 40
12.0
 40
12.0
 40
13.0
 40
13.0
 40
13.0
 40
13.0
 10
102.9256727173241
 20
-138.6209960590948
 10
102.7079426826564
 20
-138.7794704514162
 10
102.6145805950061
 20
-138.8535400043491
 10
102.5660047486641
 20
-138.997200486084
 10
102.5660047486641
 20
-138.997200486084
 10
103.3445963283305
 20
-138.997200486084
 10
103.3445963283305
 20
-138.997200486084
 10
103.3445963283305
 20
-138.997200486084
 10
103.3445963283305
 20
-139.2025281770049
 10
103.3445963283305
 20
-139.2025281770049
 10
103.3445963283305
 20
-139.2025281770049
 10
102.316579835532
 20
-139.2025281770049
 10
102.316579835532
 20
-139.2025281770049
 10
102.3482747139963
 20
-138.844927265636
 10
102.413731528216
 20
-138.7667235981208
 10
102.7988932034669
 20
-138.4683783290982
 10
103.0545192884725
 20
-138.2695963195993
 10
103.1199761026922
 20
-138.2020724480884
 10
103.1199761026922
 20
-138.0642686286784
 10
103.1199761026922
 20
-137.9457573439858
 10
103.048318116599
 20
-137.8148437155463
 10
102.8516031643913
 20
-137.8148437155463
 10
102.5914984552549
 20
-137.8148437155463
 10
102.5828857165418
 20
-138.0453206035095
 10
102.578407092411
 20
-138.161764830911
 10
102.578407092411
 20
-138.161764830911
 10
102.3544758858697
 20
-138.161764830911
 10
102.3544758858697
 20
-138.161764830911
 10
102.3627441150343
 20
-138.0346408075052
 10
102.3734239110386
 20
-137.9226752042346
 10
102.4536946358449
 20
-137.804163919542
 10
102.5639376913729
 20
-137.6432779603809
 10
102.7499728475764
 20
-137.6095160246254
 10
102.8664170749778
 20
-137.6095160246254
 10
103.1434027519919
 20
-137.6095160246254
 10
103.350797500204
 20
-137.7934841235378
 10
103.350797500204
 20
-138.0663356859695
 10
103.350797500204
 20
-138.2950900261901
 10
103.2343532728025
 20
-138.3943087761653
 10
102.9256727173241
 20
-138.6209960590948
 97
        0
 97
        0
 75
     2
 76
     1
 98
        0
  0
ENDBLK
  5
392
330
38F
100
AcDbEntity
  8
0
100
AcDbBlockEnd
  0
BLOCK
  5
399
330
397
100
AcDbEntity
  8
0
100
AcDbBlockBegin
  2
block 12
 70
     0
 10
0.0
 20
0.0
 30
0.0
  3
block 12
  1

  0
SPLINE
  5
39B
330
397
100
AcDbEntity
  8
_U+30EC_U+30A4_U+30E4_U+30FC 1
370
     0
100
AcDbSpline
210
0.0
220
0.0
230
1.0
 70
    11
 71
     3
 72
    32
 73
    28
 74
     0
 42
0.0000000001
 43
0.0000000001
 12
1.0
 22
0.0
 32
0.0
 13
1.0
 23
0.0
 33
0.0
 40
0.0
 40
0.0
 40
0.0
 40
0.0
 40
1.0
 40
1.0
 40
1.0
 40
2.0
 40
2.0
 40
2.0
 40
3.0
 40
3.0
 40
3.0
 40
4.0
 40
4.0
 40
4.0
 40
5.0
 40
5.0
 40
5.0
 40
6.0
 40
6.0
 40
6.0
 40
7.0
 40
7.0
 40
7.0
 40
8.0
 40
8.0
 40
8.0
 40
9.0
 40
9.0
 40
9.0
 40
9.0
 10
101.6599446360433
 20
-142.5167100338153
 30
0.0
 10
101.1438693323529
 20
-142.5167100338153
 30
0.0
 10
101.1352565936398
 20
-141.96204966069
 30
0.0
 10
101.1352565936398
 20
-141.7484537406046
 30
0.0
 10
101.1352565936398
 20
-141.5179768526413
 30
0.0
 10
101.1542046188087
 20
-140.8706434109629
 30
0.0
 10
101.6978406863811
 20
-140.8706434109629
 30
0.0
 10
101.8714734988377
 20
-140.8706434109629
 30
0.0
 10
102.1167642973875
 20
-140.9402343397649
 30
0.0
 10
102.1550048572738
 20
-141.272341544543
 30
0.0
 10
102.1550048572738
 20
-141.272341544543
 30
0.0
 10
101.9410644276397
 20
-141.272341544543
 30
0.0
 10
101.9410644276397
 20
-141.272341544543
 30
0.0
 10
101.930729141184
 20
-141.2154974690364
 30
0.0
 10
101.8990342627197
 20
-141.0673583631707
 30
0.0
 10
101.69577362909
 20
-141.0673583631707
 30
0.0
 10
101.4039740414893
 20
-141.0673583631707
 30
0.0
 10
101.3636664243119
 20
-141.3953314533665
 30
0.0
 10
101.351264080565
 20
-141.6003146347388
 30
0.0
 10
101.4442816586667
 20
-141.5224554767722
 30
0.0
 10
101.5118055301776
 20
-141.4631998344259
 30
0.0
 10
101.6937065717988
 20
-141.4631998344259
 30
0.0
 10
101.8735405561288
 20
-141.4631998344259
 30
0.0
 10
102.1760199397338
 20
-141.5706868135657
 30
0.0
 10
102.1760199397338
 20
-141.9772080808251
 30
0.0
 10
102.1760199397338
 20
-142.2965684323078
 30
0.0
 10
101.9772379302349
 20
-142.5167100338153
 30
0.0
 10
101.6599446360433
 20
-142.5167100338153
 30
0.0
  0
SPLINE
  5
39C
330
397
100
AcDbEntity
  8
_U+30EC_U+30A4_U+30E4_U+30FC 1
370
     0
100
AcDbSpline
210
0.0
220
0.0
230
1.0
 70
    11
 71
     3
 72
    17
 73
    13
 74
     0
 42
0.0000000001
 43
0.0000000001
 12
1.0
 22
0.0
 32
0.0
 13
1.0
 23
0.0
 33
0.0
 40
0.0
 40
0.0
 40
0.0
 40
0.0
 40
1.0
 40
1.0
 40
1.0
 40
2.0
 40
2.0
 40
2.0
 40
3.0
 40
3.0
 40
3.0
 40
4.0
 40
4.0
 40
4.0
 40
4.0
 10
101.6768256039211
 20
-141.657503219794
 30
0.0
 10
101.4146538374936
 20
-141.657503219794
 30
0.0
 10
101.3764132776073
 20
-141.8690320825883
 30
0.0
 10
101.3764132776073
 20
-141.9854763099897
 30
0.0
 10
101.3764132776073
 20
-142.1611761797375
 30
0.0
 10
101.4718424225487
 20
-142.3237846866413
 30
0.0
 10
101.655810521461
 20
-142.3237846866413
 30
0.0
 10
101.7763888634448
 20
-142.3237846866413
 30
0.0
 10
101.9520887331925
 20
-142.264529044295
 30
0.0
 10
101.9520887331925
 20
-141.9792751381163
 30
0.0
 10
101.9520887331925
 20
-141.7549994220265
 30
0.0
 10
101.8122178564914
 20
-141.657503219794
 30
0.0
 10
101.6768256039211
 20
-141.657503219794
 30
0.0
  0
HATCH
  5
39D
330
397
100
AcDbEntity
  8
_U+30EC_U+30A4_U+30E4_U+30FC 1
 62
   179
420
  2234388
100
AcDbHatch
 10
0.0
 20
0.0
 30
0.0
210
0.0
220
0.0
230
1.0
  2
SOLID
 70
     1
 71
     0
 91
        2
 92
        1
 93
        1
 72
     4
 94
        3
 73
     0
 74
     1
 95
       32
 96
       28
 40
0.0
 40
0.0
 40
0.0
 40
0.0
 40
1.0
 40
1.0
 40
1.0
 40
2.0
 40
2.0
 40
2.0
 40
3.0
 40
3.0
 40
3.0
 40
4.0
 40
4.0
 40
4.0
 40
5.0
 40
5.0
 40
5.0
 40
6.0
 40
6.0
 40
6.0
 40
7.0
 40
7.0
 40
7.0
 40
8.0
 40
8.0
 40
8.0
 40
9.0
 40
9.0
 40
9.0
 40
9.0
 10
101.6599446360433
 20
-142.5167100338153
 10
101.1438693323529
 20
-142.5167100338153
 10
101.1352565936398
 20
-141.96204966069
 10
101.1352565936398
 20
-141.7484537406046
 10
101.1352565936398
 20
-141.5179768526413
 10
101.1542046188087
 20
-140.8706434109629
 10
101.6978406863811
 20
-140.8706434109629
 10
101.8714734988377
 20
-140.8706434109629
 10
102.1167642973875
 20
-140.9402343397649
 10
102.1550048572738
 20
-141.272341544543
 10
102.1550048572738
 20
-141.272341544543
 10
101.9410644276397
 20
-141.272341544543
 10
101.9410644276397
 20
-141.272341544543
 10
101.930729141184
 20
-141.2154974690364
 10
101.8990342627197
 20
-141.0673583631707
 10
101.69577362909
 20
-141.0673583631707
 10
101.4039740414893
 20
-141.0673583631707
 10
101.3636664243119
 20
-141.3953314533665
 10
101.351264080565
 20
-141.6003146347388
 10
101.4442816586667
 20
-141.5224554767722
 10
101.5118055301776
 20
-141.4631998344259
 10
101.6937065717988
 20
-141.4631998344259
 10
101.8735405561288
 20
-141.4631998344259
 10
102.1760199397338
 20
-141.5706868135657
 10
102.1760199397338
 20
-141.9772080808251
 10
102.1760199397338
 20
-142.2965684323078
 10
101.9772379302349
 20
-142.5167100338153
 10
101.6599446360433
 20
-142.5167100338153
 97
        0
 97
        0
 92
        1
 93
        1
 72
     4
 94
        3
 73
     0
 74
     1
 95
       17
 96
       13
 40
0.0
 40
0.0
 40
0.0
 40
0.0
 40
1.0
 40
1.0
 40
1.0
 40
2.0
 40
2.0
 40
2.0
 40
3.0
 40
3.0
 40
3.0
 40
4.0
 40
4.0
 40
4.0
 40
4.0
 10
101.6768256039211
 20
-141.657503219794
 10
101.4146538374936
 20
-141.657503219794
 10
101.3764132776073
 20
-141.8690320825883
 10
101.3764132776073
 20
-141.9854763099897
 10
101.3764132776073
 20
-142.1611761797375
 10
101.4718424225487
 20
-142.3237846866413
 10
101.655810521461
 20
-142.3237846866413
 10
101.7763888634448
 20
-142.3237846866413
 10
101.9520887331925
 20
-142.264529044295
 10
101.9520887331925
 20
-141.9792751381163
 10
101.9520887331925
 20
-141.7549994220265
 10
101.8122178564914
 20
-141.657503219794
 10
101.6768256039211
 20
-141.657503219794
 97
        0
 97
        0
 75
     2
 76
     1
 98
        0
  0
SPLINE
  5
39E
330
397
100
AcDbEntity
  8
_U+30EC_U+30A4_U+30E4_U+30FC 1
370
     0
100
AcDbSpline
210
0.0
220
0.0
230
1.0
 70
    11
 71
     3
 72
    29
 73
    25
 74
     0
 42
0.0000000001
 43
0.0000000001
 12
1.0
 22
0.0
 32
0.0
 13
1.0
 23
0.0
 33
0.0
 40
0.0
 40
0.0
 40
0.0
 40
0.0
 40
1.0
 40
1.0
 40
1.0
 40
2.0
 40
2.0
 40
2.0
 40
3.0
 40
3.0
 40
3.0
 40
4.0
 40
4.0
 40
4.0
 40
5.0
 40
5.0
 40
5.0
 40
6.0
 40
6.0
 40
6.0
 40
7.0
 40
7.0
 40
7.0
 40
8.0
 40
8.0
 40
8.0
 40
8.0
 10
103.2302191582202
 20
-142.2879556935947
 30
0.0
 10
103.1223876695319
 20
-142.4974174990979
 30
0.0
 10
102.9490993666238
 20
-142.5167100338153
 30
0.0
 10
102.8326551392224
 20
-142.5167100338153
 30
0.0
 10
102.6717691800612
 20
-142.5167100338153
 30
0.0
 10
102.5301757556175
 20
-142.4698567352159
 30
0.0
 10
102.434746610676
 20
-142.2879556935947
 30
0.0
 10
102.33104923657
 20
-142.0933077986781
 30
0.0
 10
102.3121012114011
 20
-141.8566297388414
 30
0.0
 10
102.3121012114011
 20
-141.6933322128406
 30
0.0
 10
102.3121012114011
 20
-141.5496717311056
 30
0.0
 10
102.3289821792789
 20
-141.2978352511339
 30
0.0
 10
102.434746610676
 20
-141.099053241635
 30
0.0
 10
102.5425780993644
 20
-140.8961371175538
 30
0.0
 10
102.7034640585255
 20
-140.872710468254
 30
0.0
 10
102.8326551392224
 20
-140.872710468254
 30
0.0
 10
102.9911295315439
 20
-140.872710468254
 30
0.0
 10
103.1351345228273
 20
-140.9171522000138
 30
0.0
 10
103.2302191582202
 20
-141.099053241635
 30
0.0
 10
103.3294379081954
 20
-141.2916340792604
 30
0.0
 10
103.3528645574951
 20
-141.5200439099325
 30
0.0
 10
103.3528645574951
 20
-141.6933322128406
 30
0.0
 10
103.3528645574951
 20
-141.864897968006
 30
0.0
 10
103.3318494750351
 20
-142.0957193655177
 30
0.0
 10
103.2302191582202
 20
-142.2879556935947
 30
0.0
  0
SPLINE
  5
39F
330
397
100
AcDbEntity
  8
_U+30EC_U+30A4_U+30E4_U+30FC 1
370
     0
100
AcDbSpline
210
0.0
220
0.0
230
1.0
 70
    11
 71
     3
 72
    17
 73
    13
 74
     0
 42
0.0000000001
 43
0.0000000001
 12
1.0
 22
0.0
 32
0.0
 13
1.0
 23
0.0
 33
0.0
 40
0.0
 40
0.0
 40
0.0
 40
0.0
 40
1.0
 40
1.0
 40
1.0
 40
2.0
 40
2.0
 40
2.0
 40
3.0
 40
3.0
 40
3.0
 40
4.0
 40
4.0
 40
4.0
 40
4.0
 10
102.8326551392224
 20
-141.0652913058795
 30
0.0
 10
102.5828857165418
 20
-141.0652913058795
 30
0.0
 10
102.5363769274909
 20
-141.3488226643156
 30
0.0
 10
102.5363769274909
 20
-141.6933322128406
 30
0.0
 10
102.5363769274909
 20
-142.0130370738717
 30
0.0
 10
102.5722059205375
 20
-142.3217176293501
 30
0.0
 10
102.8326551392224
 20
-142.3217176293501
 30
0.0
 10
103.0800129950633
 20
-142.3217176293501
 30
0.0
 10
103.1289333509539
 20
-142.0405978377538
 30
0.0
 10
103.1289333509539
 20
-141.6933322128406
 30
0.0
 10
103.1289333509539
 20
-141.3743163709064
 30
0.0
 10
103.0903482815191
 20
-141.0652913058795
 30
0.0
 10
102.8326551392224
 20
-141.0652913058795
 30
0.0
  0
HATCH
  5
3A0
330
397
100
AcDbEntity
  8
_U+30EC_U+30A4_U+30E4_U+30FC 1
 62
   179
420
  2234388
100
AcDbHatch
 10
0.0
 20
0.0
 30
0.0
210
0.0
220
0.0
230
1.0
  2
SOLID
 70
     1
 71
     0
 91
        2
 92
        1
 93
        1
 72
     4
 94
        3
 73
     0
 74
     1
 95
       29
 96
       25
 40
0.0
 40
0.0
 40
0.0
 40
0.0
 40
1.0
 40
1.0
 40
1.0
 40
2.0
 40
2.0
 40
2.0
 40
3.0
 40
3.0
 40
3.0
 40
4.0
 40
4.0
 40
4.0
 40
5.0
 40
5.0
 40
5.0
 40
6.0
 40
6.0
 40
6.0
 40
7.0
 40
7.0
 40
7.0
 40
8.0
 40
8.0
 40
8.0
 40
8.0
 10
103.2302191582202
 20
-142.2879556935947
 10
103.1223876695319
 20
-142.4974174990979
 10
102.9490993666238
 20
-142.5167100338153
 10
102.8326551392224
 20
-142.5167100338153
 10
102.6717691800612
 20
-142.5167100338153
 10
102.5301757556175
 20
-142.4698567352159
 10
102.434746610676
 20
-142.2879556935947
 10
102.33104923657
 20
-142.0933077986781
 10
102.3121012114011
 20
-141.8566297388414
 10
102.3121012114011
 20
-141.6933322128406
 10
102.3121012114011
 20
-141.5496717311056
 10
102.3289821792789
 20
-141.2978352511339
 10
102.434746610676
 20
-141.099053241635
 10
102.5425780993644
 20
-140.8961371175538
 10
102.7034640585255
 20
-140.872710468254
 10
102.8326551392224
 20
-140.872710468254
 10
102.9911295315439
 20
-140.872710468254
 10
103.1351345228273
 20
-140.9171522000138
 10
103.2302191582202
 20
-141.099053241635
 10
103.3294379081954
 20
-141.2916340792604
 10
103.3528645574951
 20
-141.5200439099325
 10
103.3528645574951
 20
-141.6933322128406
 10
103.3528645574951
 20
-141.864897968006
 10
103.3318494750351
 20
-142.0957193655177
 10
103.2302191582202
 20
-142.2879556935947
 97
        0
 97
        0
 92
        1
 93
        1
 72
     4
 94
        3
 73
     0
 74
     1
 95
       17
 96
       13
 40
0.0
 40
0.0
 40
0.0
 40
0.0
 40
1.0
 40
1.0
 40
1.0
 40
2.0
 40
2.0
 40
2.0
 40
3.0
 40
3.0
 40
3.0
 40
4.0
 40
4.0
 40
4.0
 40
4.0
 10
102.8326551392224
 20
-141.0652913058795
 10
102.5828857165418
 20
-141.0652913058795
 10
102.5363769274909
 20
-141.3488226643156
 10
102.5363769274909
 20
-141.6933322128406
 10
102.5363769274909
 20
-142.0130370738717
 10
102.5722059205375
 20
-142.3217176293501
 10
102.8326551392224
 20
-142.3217176293501
 10
103.0800129950633
 20
-142.3217176293501
 10
103.1289333509539
 20
-142.0405978377538
 10
103.1289333509539
 20
-141.6933322128406
 10
103.1289333509539
 20
-141.3743163709064
 10
103.0903482815191
 20
-141.0652913058795
 10
102.8326551392224
 20
-141.0652913058795
 97
        0
 97
        0
 75
     2
 76
     1
 98
        0
  0
ENDBLK
  5
39A
330
397
100
AcDbEntity
  8
0
100
AcDbBlockEnd
  0
ENDSEC
  0
SECTION
  2
ENTITIES
  0
POLYLINE
  5
41
330
1F
100
AcDbEntity
  8
_U+30EC_U+30A4_U+30E4_U+30FC 1
 62
   179
420
  2234388
370
     9
100
AcDb2dPolyline
 66
     1
 10
0.0
 20
0.0
 30
0.0
  0
VERTEX
  5
42
330
41
100
AcDbEntity
  8
_U+30EC_U+30A4_U+30E4_U+30FC 1
 62
   179
420
  2234388
370
     9
100
AcDbVertex
100
AcDb2dVertex
 10
85.98270197306519
 20
-134.5443996885864
 30
0.0
  0
VERTEX
  5
43
330
41
100
AcDbEntity
  8
_U+30EC_U+30A4_U+30E4_U+30FC 1
 62
   179
420
  2234388
370
     9
100
AcDbVertex
100
AcDb2dVertex
 10
72.70562842290266
 20
-134.5443996885864
 30
0.0
  0
VERTEX
  5
44
330
41
100
AcDbEntity
  8
_U+30EC_U+30A4_U+30E4_U+30FC 1
 62
   179
420
  2234388
370
     9
100
AcDbVertex
100
AcDb2dVertex
 10
72.70562842290266
 20
-118.1354352482438
 30
0.0
  0
VERTEX
  5
45
330
41
100
AcDbEntity
  8
_U+30EC_U+30A4_U+30E4_U+30FC 1
 62
   179
420
  2234388
370
     9
100
AcDbVertex
100
AcDb2dVertex
 10
85.98270197306519
 20
-118.1354352482438
 30
0.0
  0
VERTEX
  5
46
330
41
100
AcDbEntity
  8
_U+30EC_U+30A4_U+30E4_U+30FC 1
 62
   179
420
  2234388
370
     9
100
AcDbVertex
100
AcDb2dVertex
 10
85.98270197306519
 20
-134.5443996885864
 30
0.0
  0
SEQEND
  5
47
330
41
100
AcDbEntity
  8
_U+30EC_U+30A4_U+30E4_U+30FC 1
 62
   179
420
  2234388
370
     9
  0
SPLINE
  5
48
330
1F
100
AcDbEntity
  8
_U+30EC_U+30A4_U+30E4_U+30FC 1
 62
   179
420
  2234388
370
     9
100
AcDbSpline
210
0.0
220
0.0
230
1.0
 70
    11
 71
     3
 72
    17
 73
    13
 74
     0
 42
0.0000000001
 43
0.0000000001
 12
1.0
 22
0.0
 32
0.0
 13
1.0
 23
0.0
 33
0.0
 40
0.0
 40
0.0
 40
0.0
 40
0.0
 40
1.0
 40
1.0
 40
1.0
 40
2.0
 40
2.0
 40
2.0
 40
3.0
 40
3.0
 40
3.0
 40
4.0
 40
4.0
 40
4.0
 40
4.0
 10
74.27160893850673
 20
-124.7400349688149
 30
0.0
 10
74.27160893850673
 20
-124.1760491356227
 30
0.0
 10
74.72877364906572
 20
-123.718531635737
 30
0.0
 10
75.29290057911808
 20
-123.718531635737
 30
0.0
 10
75.85702750917045
 20
-123.718531635737
 30
0.0
 10
76.31419221972942
 20
-124.1760491356227
 30
0.0
 10
76.31419221972942
 20
-124.7400349688149
 30
0.0
 10
76.31419221972942
 20
-125.3039855242295
 30
0.0
 10
75.85702750917045
 20
-125.7615030241153
 30
0.0
 10
75.29290057911808
 20
-125.7615030241153
 30
0.0
 10
74.72877364906572
 20
-125.7615030241153
 30
0.0
 10
74.27160893850673
 20
-125.3039855242295
 30
0.0
 10
74.27160893850673
 20
-124.7400349688149
 30
0.0
  0
SPLINE
  5
49
330
1F
100
AcDbEntity
  8
_U+30EC_U+30A4_U+30E4_U+30FC 1
 62
   179
420
  2234388
370
     9
100
AcDbSpline
210
0.0
220
0.0
230
1.0
 70
    11
 71
     3
 72
    17
 73
    13
 74
     0
 42
0.0000000001
 43
0.0000000001
 12
1.0
 22
0.0
 32
0.0
 13
1.0
 23
0.0
 33
0.0
 40
0.0
 40
0.0
 40
0.0
 40
0.0
 40
1.0
 40
1.0
 40
1.0
 40
2.0
 40
2.0
 40
2.0
 40
3.0
 40
3.0
 40
3.0
 40
4.0
 40
4.0
 40
4.0
 40
4.0
 10
82.44215373005876
 20
-124.7400349688149
 30
0.0
 10
82.44215373005876
 20
-124.1760491356227
 30
0.0
 10
82.89931844061775
 20
-123.718531635737
 30
0.0
 10
83.46348064844699
 20
-123.718531635737
 30
0.0
 10
84.02760757849936
 20
-123.718531635737
 30
0.0
 10
84.48477228905834
 20
-124.1760491356227
 30
0.0
 10
84.48477228905834
 20
-124.7400349688149
 30
0.0
 10
84.48477228905834
 20
-125.3039855242295
 30
0.0
 10
84.02760757849936
 20
-125.7615030241153
 30
0.0
 10
83.46348064844699
 20
-125.7615030241153
 30
0.0
 10
82.89931844061775
 20
-125.7615030241153
 30
0.0
 10
82.44215373005876
 20
-125.3039855242295
 30
0.0
 10
82.44215373005876
 20
-124.7400349688149
 30
0.0
  0
POLYLINE
  5
4A
330
1F
100
AcDbEntity
  8
_U+30EC_U+30A4_U+30E4_U+30FC 1
 62
   179
420
  2234388
370
     9
100
AcDb2dPolyline
 66
     1
 10
0.0
 20
0.0
 30
0.0
  0
VERTEX
  5
4B
330
4A
100
AcDbEntity
  8
_U+30EC_U+30A4_U+30E4_U+30FC 1
 62
   179
420
  2234388
370
     9
100
AcDbVertex
100
AcDb2dVertex
 10
72.713036756047
 20
-133.7933710776625
 30
0.0
  0
VERTEX
  5
4C
330
4A
100
AcDbEntity
  8
_U+30EC_U+30A4_U+30E4_U+30FC 1
 62
   179
420
  2234388
370
     9
100
AcDbVertex
100
AcDb2dVertex
 10
85.97166002890245
 20
-133.7933710776625
 30
0.0
  0
SEQEND
  5
4D
330
4A
100
AcDbEntity
  8
_U+30EC_U+30A4_U+30E4_U+30FC 1
 62
   179
420
  2234388
370
     9
  0
SPLINE
  5
4E
330
1F
100
AcDbEntity
  8
_U+30EC_U+30A4_U+30E4_U+30FC 1
 62
   179
420
  2234388
370
     9
100
AcDbSpline
210
0.0
220
0.0
230
1.0
 70
     8
 71
     3
 72
    14
 73
    10
 74
     0
 42
0.0000000001
 43
0.0000000001
 12
1.0
 22
0.0
 32
0.0
 13
1.0
 23
0.0
 33
0.0
 40
0.0
 40
0.0
 40
0.0
 40
0.0
 40
1.0
 40
1.0
 40
1.0
 40
2.0
 40
2.0
 40
2.0
 40
3.0
 40
3.0
 40
3.0
 40
3.0
 10
74.5358394873212
 20
-133.7933710776625
 30
0.0
 10
74.5358394873212
 20
-133.7933710776625
 30
0.0
 10
75.79984223285159
 20
-132.2058710780594
 30
0.0
 10
75.79984223285159
 20
-132.2058710780594
 30
0.0
 10
75.79984223285159
 20
-132.2058710780594
 30
0.0
 10
76.09405889201216
 20
-131.6181433004288
 30
0.0
 10
76.56431165779279
 20
-132.2058710780594
 30
0.0
 10
76.56431165779279
 20
-132.2058710780594
 30
0.0
 10
77.74011996112876
 20
-133.7933710776625
 30
0.0
 10
77.74011996112876
 20
-133.7933710776625
 30
0.0
  0
POLYLINE
  5
4F
330
1F
100
AcDbEntity
  8
_U+30EC_U+30A4_U+30E4_U+30FC 1
 62
   179
420
  2234388
370
     9
100
AcDb2dPolyline
 66
     1
 10
0.0
 20
0.0
 30
0.0
  0
VERTEX
  5
50
330
4F
100
AcDbEntity
  8
_U+30EC_U+30A4_U+30E4_U+30FC 1
 62
   179
420
  2234388
370
     9
100
AcDbVertex
100
AcDb2dVertex
 10
76.15262000162924
 20
-132.264784966934
 30
0.0
  0
VERTEX
  5
51
330
4F
100
AcDbEntity
  8
_U+30EC_U+30A4_U+30E4_U+30FC 1
 62
   179
420
  2234388
370
     9
100
AcDbVertex
100
AcDb2dVertex
 10
76.15262000162924
 20
-133.3820321888767
 30
0.0
  0
SEQEND
  5
52
330
4F
100
AcDbEntity
  8
_U+30EC_U+30A4_U+30E4_U+30FC 1
 62
   179
420
  2234388
370
     9
  0
SPLINE
  5
53
330
1F
100
AcDbEntity
  8
_U+30EC_U+30A4_U+30E4_U+30FC 1
 62
   179
420
  2234388
370
     9
100
AcDbSpline
210
0.0
220
0.0
230
1.0
 70
     8
 71
     3
 72
    14
 73
    10
 74
     0
 42
0.0000000001
 43
0.0000000001
 12
1.0
 22
0.0
 32
0.0
 13
1.0
 23
0.0
 33
0.0
 40
0.0
 40
0.0
 40
0.0
 40
0.0
 40
1.0
 40
1.0
 40
1.0
 40
2.0
 40
2.0
 40
2.0
 40
3.0
 40
3.0
 40
3.0
 40
3.0
 10
81.0327712660151
 20
-133.7933710776625
 30
0.0
 10
81.0327712660151
 20
-133.7933710776625
 30
0.0
 10
82.2967740115455
 20
-132.2058710780594
 30
0.0
 10
82.2967740115455
 20
-132.2058710780594
 30
0.0
 10
82.2967740115455
 20
-132.2058710780594
 30
0.0
 10
82.59099067070606
 20
-131.6181433004288
 30
0.0
 10
83.06124343648669
 20
-132.2058710780594
 30
0.0
 10
83.06124343648669
 20
-132.2058710780594
 30
0.0
 10
84.23705173982266
 20
-133.7933710776625
 30
0.0
 10
84.23705173982266
 20
-133.7933710776625
 30
0.0
  0
POLYLINE
  5
54
330
1F
100
AcDbEntity
  8
_U+30EC_U+30A4_U+30E4_U+30FC 1
 62
   179
420
  2234388
370
     9
100
AcDb2dPolyline
 66
     1
 10
0.0
 20
0.0
 30
0.0
  0
VERTEX
  5
55
330
54
100
AcDbEntity
  8
_U+30EC_U+30A4_U+30E4_U+30FC 1
 62
   179
420
  2234388
370
     9
100
AcDbVertex
100
AcDb2dVertex
 10
82.64955178032315
 20
-132.264784966934
 30
0.0
  0
VERTEX
  5
56
330
54
100
AcDbEntity
  8
_U+30EC_U+30A4_U+30E4_U+30FC 1
 62
   179
420
  2234388
370
     9
100
AcDbVertex
100
AcDb2dVertex
 10
82.64955178032315
 20
-133.3820321888767
 30
0.0
  0
SEQEND
  5
57
330
54
100
AcDbEntity
  8
_U+30EC_U+30A4_U+30E4_U+30FC 1
 62
   179
420
  2234388
370
     9
  0
POLYLINE
  5
58
330
1F
100
AcDbEntity
  8
_U+30EC_U+30A4_U+30E4_U+30FC 1
 62
   179
420
  2234388
370
     9
100
AcDb2dPolyline
 66
     1
 10
0.0
 20
0.0
 30
0.0
  0
VERTEX
  5
59
330
58
100
AcDbEntity
  8
_U+30EC_U+30A4_U+30E4_U+30FC 1
 62
   179
420
  2234388
370
     9
100
AcDbVertex
100
AcDb2dVertex
 10
78.69406632568044
 20
-129.8924955230821
 30
0.0
  0
VERTEX
  5
5A
330
58
100
AcDbEntity
  8
_U+30EC_U+30A4_U+30E4_U+30FC 1
 62
   179
420
  2234388
370
     9
100
AcDbVertex
100
AcDb2dVertex
 10
78.52646160773418
 20
-130.0013627452772
 30
0.0
  0
VERTEX
  5
5B
330
58
100
AcDbEntity
  8
_U+30EC_U+30A4_U+30E4_U+30FC 1
 62
   179
420
  2234388
370
     9
100
AcDbVertex
100
AcDb2dVertex
 10
78.66150493762227
 20
-130.1650163563476
 30
0.0
  0
VERTEX
  5
5C
330
58
100
AcDbEntity
  8
_U+30EC_U+30A4_U+30E4_U+30FC 1
 62
   179
420
  2234388
370
     9
100
AcDbVertex
100
AcDb2dVertex
 10
80.14514712199362
 20
-130.1650163563476
 30
0.0
  0
VERTEX
  5
5D
330
58
100
AcDbEntity
  8
_U+30EC_U+30A4_U+30E4_U+30FC 1
 62
   179
420
  2234388
370
     9
100
AcDbVertex
100
AcDb2dVertex
 10
80.27934378523665
 20
-130.0557963563748
 30
0.0
  0
VERTEX
  5
5E
330
58
100
AcDbEntity
  8
_U+30EC_U+30A4_U+30E4_U+30FC 1
 62
   179
420
  2234388
370
     9
100
AcDbVertex
100
AcDb2dVertex
 10
80.09417073440525
 20
-129.9062891341904
 30
0.0
  0
VERTEX
  5
5F
330
58
100
AcDbEntity
  8
_U+30EC_U+30A4_U+30E4_U+30FC 1
 62
   179
420
  2234388
370
     9
100
AcDbVertex
100
AcDb2dVertex
 10
78.69406632568044
 20
-129.8924955230821
 30
0.0
  0
SEQEND
  5
60
330
58
100
AcDbEntity
  8
_U+30EC_U+30A4_U+30E4_U+30FC 1
 62
   179
420
  2234388
370
     9
  0
POLYLINE
  5
61
330
1F
100
AcDbEntity
  8
_U+30EC_U+30A4_U+30E4_U+30FC 1
 62
   179
420
  2234388
370
     9
100
AcDb2dPolyline
 66
     1
 10
0.0
 20
0.0
 30
0.0
  0
VERTEX
  5
62
330
61
100
AcDbEntity
  8
_U+30EC_U+30A4_U+30E4_U+30FC 1
 62
   179
420
  2234388
370
     9
100
AcDbVertex
100
AcDb2dVertex
 10
78.52646160773418
 20
-130.0013627452772
 30
0.0
  0
VERTEX
  5
63
330
61
100
AcDbEntity
  8
_U+30EC_U+30A4_U+30E4_U+30FC 1
 62
   179
420
  2234388
370
     9
100
AcDbVertex
100
AcDb2dVertex
 10
80.27934378523665
 20
-130.0557963563748
 30
0.0
  0
SEQEND
  5
64
330
61
100
AcDbEntity
  8
_U+30EC_U+30A4_U+30E4_U+30FC 1
 62
   179
420
  2234388
370
     9
  0
POLYLINE
  5
65
330
1F
100
AcDbEntity
  8
_U+30EC_U+30A4_U+30E4_U+30FC 1
 62
   179
420
  2234388
370
     9
100
AcDb2dPolyline
 66
     1
 10
0.0
 20
0.0
 30
0.0
  0
VERTEX
  5
66
330
65
100
AcDbEntity
  8
_U+30EC_U+30A4_U+30E4_U+30FC 1
 62
   179
420
  2234388
370
     9
100
AcDbVertex
100
AcDb2dVertex
 10
78.78208437899048
 20
-132.2555069113803
 30
0.0
  0
VERTEX
  5
67
330
65
100
AcDbEntity
  8
_U+30EC_U+30A4_U+30E4_U+30FC 1
 62
   179
420
  2234388
370
     9
100
AcDbVertex
100
AcDb2dVertex
 10
78.62188799418853
 20
-132.3747105224617
 30
0.0
  0
VERTEX
  5
68
330
65
100
AcDbEntity
  8
_U+30EC_U+30A4_U+30E4_U+30FC 1
 62
   179
420
  2234388
370
     9
100
AcDbVertex
100
AcDb2dVertex
 10
78.7509360914233
 20
-132.5538510779729
 30
0.0
  0
VERTEX
  5
69
330
65
100
AcDbEntity
  8
_U+30EC_U+30A4_U+30E4_U+30FC 1
 62
   179
420
  2234388
370
     9
100
AcDbVertex
100
AcDb2dVertex
 10
80.16945553551334
 20
-132.5538510779729
 30
0.0
  0
VERTEX
  5
6A
330
65
100
AcDbEntity
  8
_U+30EC_U+30A4_U+30E4_U+30FC 1
 62
   179
420
  2234388
370
     9
100
AcDbVertex
100
AcDb2dVertex
 10
80.29775878476684
 20
-132.4342946891137
 30
0.0
  0
VERTEX
  5
6B
330
65
100
AcDbEntity
  8
_U+30EC_U+30A4_U+30E4_U+30FC 1
 62
   179
420
  2234388
370
     9
100
AcDbVertex
100
AcDb2dVertex
 10
80.12069962261732
 20
-132.2703235780437
 30
0.0
  0
VERTEX
  5
6C
330
65
100
AcDbEntity
  8
_U+30EC_U+30A4_U+30E4_U+30FC 1
 62
   179
420
  2234388
370
     9
100
AcDbVertex
100
AcDb2dVertex
 10
78.78208437899048
 20
-132.2555069113803
 30
0.0
  0
SEQEND
  5
6D
330
65
100
AcDbEntity
  8
_U+30EC_U+30A4_U+30E4_U+30FC 1
 62
   179
420
  2234388
370
     9
  0
POLYLINE
  5
6E
330
1F
100
AcDbEntity
  8
_U+30EC_U+30A4_U+30E4_U+30FC 1
 62
   179
420
  2234388
370
     9
100
AcDb2dPolyline
 66
     1
 10
0.0
 20
0.0
 30
0.0
  0
VERTEX
  5
6F
330
6E
100
AcDbEntity
  8
_U+30EC_U+30A4_U+30E4_U+30FC 1
 62
   179
420
  2234388
370
     9
100
AcDbVertex
100
AcDb2dVertex
 10
78.62188799418853
 20
-132.3747105224617
 30
0.0
  0
VERTEX
  5
70
330
6E
100
AcDbEntity
  8
_U+30EC_U+30A4_U+30E4_U+30FC 1
 62
   179
420
  2234388
370
     9
100
AcDbVertex
100
AcDb2dVertex
 10
80.29775878476684
 20
-132.4342946891137
 30
0.0
  0
SEQEND
  5
71
330
6E
100
AcDbEntity
  8
_U+30EC_U+30A4_U+30E4_U+30FC 1
 62
   179
420
  2234388
370
     9
  0
POLYLINE
  5
72
330
1F
100
AcDbEntity
  8
_U+30EC_U+30A4_U+30E4_U+30FC 1
 62
   179
420
  2234388
370
     9
100
AcDb2dPolyline
 66
     1
 10
0.0
 20
0.0
 30
0.0
  0
VERTEX
  5
73
330
72
100
AcDbEntity
  8
_U+30EC_U+30A4_U+30E4_U+30FC 1
 62
   179
420
  2234388
370
     9
100
AcDbVertex
100
AcDb2dVertex
 10
78.78208437899048
 20
-132.5455608001968
 30
0.0
  0
VERTEX
  5
74
330
72
100
AcDbEntity
  8
_U+30EC_U+30A4_U+30E4_U+30FC 1
 62
   179
420
  2234388
370
     9
100
AcDbVertex
100
AcDb2dVertex
 10
78.62188799418853
 20
-132.6654699668338
 30
0.0
  0
VERTEX
  5
75
330
72
100
AcDbEntity
  8
_U+30EC_U+30A4_U+30E4_U+30FC 1
 62
   179
420
  2234388
370
     9
100
AcDbVertex
100
AcDb2dVertex
 10
78.7509360914233
 20
-132.8439049667888
 30
0.0
  0
VERTEX
  5
76
330
72
100
AcDbEntity
  8
_U+30EC_U+30A4_U+30E4_U+30FC 1
 62
   179
420
  2234388
370
     9
100
AcDbVertex
100
AcDb2dVertex
 10
80.16945553551334
 20
-132.8439049667888
 30
0.0
  0
VERTEX
  5
77
330
72
100
AcDbEntity
  8
_U+30EC_U+30A4_U+30E4_U+30FC 1
 62
   179
420
  2234388
370
     9
100
AcDbVertex
100
AcDb2dVertex
 10
80.29775878476684
 20
-132.7254069112629
 30
0.0
  0
VERTEX
  5
78
330
72
100
AcDbEntity
  8
_U+30EC_U+30A4_U+30E4_U+30FC 1
 62
   179
420
  2234388
370
     9
100
AcDbVertex
100
AcDb2dVertex
 10
80.12069962261732
 20
-132.5614005224154
 30
0.0
  0
VERTEX
  5
79
330
72
100
AcDbEntity
  8
_U+30EC_U+30A4_U+30E4_U+30FC 1
 62
   179
420
  2234388
370
     9
100
AcDbVertex
100
AcDb2dVertex
 10
78.78208437899048
 20
-132.5455608001968
 30
0.0
  0
SEQEND
  5
7A
330
72
100
AcDbEntity
  8
_U+30EC_U+30A4_U+30E4_U+30FC 1
 62
   179
420
  2234388
370
     9
  0
POLYLINE
  5
7B
330
1F
100
AcDbEntity
  8
_U+30EC_U+30A4_U+30E4_U+30FC 1
 62
   179
420
  2234388
370
     9
100
AcDb2dPolyline
 66
     1
 10
0.0
 20
0.0
 30
0.0
  0
VERTEX
  5
7C
330
7B
100
AcDbEntity
  8
_U+30EC_U+30A4_U+30E4_U+30FC 1
 62
   179
420
  2234388
370
     9
100
AcDbVertex
100
AcDb2dVertex
 10
78.62188799418853
 20
-132.6654699668338
 30
0.0
  0
VERTEX
  5
7D
330
7B
100
AcDbEntity
  8
_U+30EC_U+30A4_U+30E4_U+30FC 1
 62
   179
420
  2234388
370
     9
100
AcDbVertex
100
AcDb2dVertex
 10
80.29775878476684
 20
-132.7254069112629
 30
0.0
  0
SEQEND
  5
7E
330
7B
100
AcDbEntity
  8
_U+30EC_U+30A4_U+30E4_U+30FC 1
 62
   179
420
  2234388
370
     9
  0
POLYLINE
  5
7F
330
1F
100
AcDbEntity
  8
_U+30EC_U+30A4_U+30E4_U+30FC 1
 62
   179
420
  2234388
370
     9
100
AcDb2dPolyline
 66
     1
 10
0.0
 20
0.0
 30
0.0
  0
VERTEX
  5
80
330
7F
100
AcDbEntity
  8
_U+30EC_U+30A4_U+30E4_U+30FC 1
 62
   179
420
  2234388
370
     9
100
AcDbVertex
100
AcDb2dVertex
 10
78.78208437899048
 20
-132.8363202445689
 30
0.0
  0
VERTEX
  5
81
330
7F
100
AcDbEntity
  8
_U+30EC_U+30A4_U+30E4_U+30FC 1
 62
   179
420
  2234388
370
     9
100
AcDbVertex
100
AcDb2dVertex
 10
78.62188799418853
 20
-132.9562294112052
 30
0.0
  0
VERTEX
  5
82
330
7F
100
AcDbEntity
  8
_U+30EC_U+30A4_U+30E4_U+30FC 1
 62
   179
420
  2234388
370
     9
100
AcDbVertex
100
AcDb2dVertex
 10
78.7509360914233
 20
-133.1353699667165
 30
0.0
  0
VERTEX
  5
83
330
7F
100
AcDbEntity
  8
_U+30EC_U+30A4_U+30E4_U+30FC 1
 62
   179
420
  2234388
370
     9
100
AcDbVertex
100
AcDb2dVertex
 10
80.16945553551334
 20
-133.1353699667165
 30
0.0
  0
VERTEX
  5
84
330
7F
100
AcDbEntity
  8
_U+30EC_U+30A4_U+30E4_U+30FC 1
 62
   179
420
  2234388
370
     9
100
AcDbVertex
100
AcDb2dVertex
 10
80.29775878476684
 20
-133.016166355635
 30
0.0
  0
VERTEX
  5
85
330
7F
100
AcDbEntity
  8
_U+30EC_U+30A4_U+30E4_U+30FC 1
 62
   179
420
  2234388
370
     9
100
AcDbVertex
100
AcDb2dVertex
 10
80.12069962261732
 20
-132.852195244565
 30
0.0
  0
VERTEX
  5
86
330
7F
100
AcDbEntity
  8
_U+30EC_U+30A4_U+30E4_U+30FC 1
 62
   179
420
  2234388
370
     9
100
AcDbVertex
100
AcDb2dVertex
 10
78.78208437899048
 20
-132.8363202445689
 30
0.0
  0
SEQEND
  5
87
330
7F
100
AcDbEntity
  8
_U+30EC_U+30A4_U+30E4_U+30FC 1
 62
   179
420
  2234388
370
     9
  0
POLYLINE
  5
88
330
1F
100
AcDbEntity
  8
_U+30EC_U+30A4_U+30E4_U+30FC 1
 62
   179
420
  2234388
370
     9
100
AcDb2dPolyline
 66
     1
 10
0.0
 20
0.0
 30
0.0
  0
VERTEX
  5
89
330
88
100
AcDbEntity
  8
_U+30EC_U+30A4_U+30E4_U+30FC 1
 62
   179
420
  2234388
370
     9
100
AcDbVertex
100
AcDb2dVertex
 10
78.62188799418853
 20
-132.9562294112052
 30
0.0
  0
VERTEX
  5
8A
330
88
100
AcDbEntity
  8
_U+30EC_U+30A4_U+30E4_U+30FC 1
 62
   179
420
  2234388
370
     9
100
AcDbVertex
100
AcDb2dVertex
 10
80.29775878476684
 20
-133.016166355635
 30
0.0
  0
SEQEND
  5
8B
330
88
100
AcDbEntity
  8
_U+30EC_U+30A4_U+30E4_U+30FC 1
 62
   179
420
  2234388
370
     9
  0
POLYLINE
  5
8C
330
1F
100
AcDbEntity
  8
_U+30EC_U+30A4_U+30E4_U+30FC 1
 62
   179
420
  2234388
370
     9
100
AcDb2dPolyline
 66
     1
 10
0.0
 20
0.0
 30
0.0
  0
VERTEX
  5
8D
330
8C
100
AcDbEntity
  8
_U+30EC_U+30A4_U+30E4_U+30FC 1
 62
   179
420
  2234388
370
     9
100
AcDbVertex
100
AcDb2dVertex
 10
78.78208437899048
 20
-133.1353699667165
 30
0.0
  0
VERTEX
  5
8E
330
8C
100
AcDbEntity
  8
_U+30EC_U+30A4_U+30E4_U+30FC 1
 62
   179
420
  2234388
370
     9
100
AcDbVertex
100
AcDb2dVertex
 10
78.62188799418853
 20
-133.254926355575
 30
0.0
  0
VERTEX
  5
8F
330
8C
100
AcDbEntity
  8
_U+30EC_U+30A4_U+30E4_U+30FC 1
 62
   179
420
  2234388
370
     9
100
AcDbVertex
100
AcDb2dVertex
 10
78.7509360914233
 20
-133.4337141333085
 30
0.0
  0
VERTEX
  5
90
330
8C
100
AcDbEntity
  8
_U+30EC_U+30A4_U+30E4_U+30FC 1
 62
   179
420
  2234388
370
     9
100
AcDbVertex
100
AcDb2dVertex
 10
80.16945553551334
 20
-133.4337141333085
 30
0.0
  0
VERTEX
  5
91
330
8C
100
AcDbEntity
  8
_U+30EC_U+30A4_U+30E4_U+30FC 1
 62
   179
420
  2234388
370
     9
100
AcDbVertex
100
AcDb2dVertex
 10
80.29775878476684
 20
-133.314510522227
 30
0.0
  0
VERTEX
  5
92
330
8C
100
AcDbEntity
  8
_U+30EC_U+30A4_U+30E4_U+30FC 1
 62
   179
420
  2234388
370
     9
100
AcDbVertex
100
AcDb2dVertex
 10
80.12069962261732
 20
-133.150539411157
 30
0.0
  0
VERTEX
  5
93
330
8C
100
AcDbEntity
  8
_U+30EC_U+30A4_U+30E4_U+30FC 1
 62
   179
420
  2234388
370
     9
100
AcDbVertex
100
AcDb2dVertex
 10
78.78208437899048
 20
-133.1353699667165
 30
0.0
  0
SEQEND
  5
94
330
8C
100
AcDbEntity
  8
_U+30EC_U+30A4_U+30E4_U+30FC 1
 62
   179
420
  2234388
370
     9
  0
POLYLINE
  5
95
330
1F
100
AcDbEntity
  8
_U+30EC_U+30A4_U+30E4_U+30FC 1
 62
   179
420
  2234388
370
     9
100
AcDb2dPolyline
 66
     1
 10
0.0
 20
0.0
 30
0.0
  0
VERTEX
  5
96
330
95
100
AcDbEntity
  8
_U+30EC_U+30A4_U+30E4_U+30FC 1
 62
   179
420
  2234388
370
     9
100
AcDbVertex
100
AcDb2dVertex
 10
78.62188799418853
 20
-133.254926355575
 30
0.0
  0
VERTEX
  5
97
330
95
100
AcDbEntity
  8
_U+30EC_U+30A4_U+30E4_U+30FC 1
 62
   179
420
  2234388
370
     9
100
AcDbVertex
100
AcDb2dVertex
 10
80.29775878476684
 20
-133.314510522227
 30
0.0
  0
SEQEND
  5
98
330
95
100
AcDbEntity
  8
_U+30EC_U+30A4_U+30E4_U+30FC 1
 62
   179
420
  2234388
370
     9
  0
POLYLINE
  5
99
330
1F
100
AcDbEntity
  8
_U+30EC_U+30A4_U+30E4_U+30FC 1
 62
   179
420
  2234388
370
     9
100
AcDb2dPolyline
 66
     1
 10
0.0
 20
0.0
 30
0.0
  0
VERTEX
  5
9A
330
99
100
AcDbEntity
  8
_U+30EC_U+30A4_U+30E4_U+30FC 1
 62
   179
420
  2234388
370
     9
100
AcDbVertex
100
AcDb2dVertex
 10
78.78208437899048
 20
-133.4302569110872
 30
0.0
  0
VERTEX
  5
9B
330
99
100
AcDbEntity
  8
_U+30EC_U+30A4_U+30E4_U+30FC 1
 62
   179
420
  2234388
370
     9
100
AcDbVertex
100
AcDb2dVertex
 10
78.62188799418853
 20
-133.549460522168
 30
0.0
  0
VERTEX
  5
9C
330
99
100
AcDbEntity
  8
_U+30EC_U+30A4_U+30E4_U+30FC 1
 62
   179
420
  2234388
370
     9
100
AcDbVertex
100
AcDb2dVertex
 10
78.7509360914233
 20
-133.7286010776792
 30
0.0
  0
VERTEX
  5
9D
330
99
100
AcDbEntity
  8
_U+30EC_U+30A4_U+30E4_U+30FC 1
 62
   179
420
  2234388
370
     9
100
AcDbVertex
100
AcDb2dVertex
 10
80.16945553551334
 20
-133.7286010776792
 30
0.0
  0
VERTEX
  5
9E
330
99
100
AcDbEntity
  8
_U+30EC_U+30A4_U+30E4_U+30FC 1
 62
   179
420
  2234388
370
     9
100
AcDbVertex
100
AcDb2dVertex
 10
80.29775878476684
 20
-133.6090799665975
 30
0.0
  0
VERTEX
  5
9F
330
99
100
AcDbEntity
  8
_U+30EC_U+30A4_U+30E4_U+30FC 1
 62
   179
420
  2234388
370
     9
100
AcDbVertex
100
AcDb2dVertex
 10
80.12069962261732
 20
-133.4447560777497
 30
0.0
  0
VERTEX
  5
A0
330
99
100
AcDbEntity
  8
_U+30EC_U+30A4_U+30E4_U+30FC 1
 62
   179
420
  2234388
370
     9
100
AcDbVertex
100
AcDb2dVertex
 10
78.78208437899048
 20
-133.4302569110872
 30
0.0
  0
SEQEND
  5
A1
330
99
100
AcDbEntity
  8
_U+30EC_U+30A4_U+30E4_U+30FC 1
 62
   179
420
  2234388
370
     9
  0
POLYLINE
  5
A2
330
1F
100
AcDbEntity
  8
_U+30EC_U+30A4_U+30E4_U+30FC 1
 62
   179
420
  2234388
370
     9
100
AcDb2dPolyline
 66
     1
 10
0.0
 20
0.0
 30
0.0
  0
VERTEX
  5
A3
330
A2
100
AcDbEntity
  8
_U+30EC_U+30A4_U+30E4_U+30FC 1
 62
   179
420
  2234388
370
     9
100
AcDbVertex
100
AcDb2dVertex
 10
78.62188799418853
 20
-133.549460522168
 30
0.0
  0
VERTEX
  5
A4
330
A2
100
AcDbEntity
  8
_U+30EC_U+30A4_U+30E4_U+30FC 1
 62
   179
420
  2234388
370
     9
100
AcDbVertex
100
AcDb2dVertex
 10
80.29775878476684
 20
-133.6090799665975
 30
0.0
  0
SEQEND
  5
A5
330
A2
100
AcDbEntity
  8
_U+30EC_U+30A4_U+30E4_U+30FC 1
 62
   179
420
  2234388
370
     9
  0
POLYLINE
  5
A6
330
1F
100
AcDbEntity
  8
_U+30EC_U+30A4_U+30E4_U+30FC 1
 62
   179
420
  2234388
370
     9
100
AcDb2dPolyline
 66
     1
 10
0.0
 20
0.0
 30
0.0
  0
VERTEX
  5
A7
330
A6
100
AcDbEntity
  8
_U+30EC_U+30A4_U+30E4_U+30FC 1
 62
   179
420
  2234388
370
     9
100
AcDbVertex
100
AcDb2dVertex
 10
78.69406632568044
 20
-129.6200099675947
 30
0.0
  0
VERTEX
  5
A8
330
A6
100
AcDbEntity
  8
_U+30EC_U+30A4_U+30E4_U+30FC 1
 62
   179
420
  2234388
370
     9
100
AcDbVertex
100
AcDb2dVertex
 10
78.52646160773418
 20
-129.7295474675679
 30
0.0
  0
VERTEX
  5
A9
330
A6
100
AcDbEntity
  8
_U+30EC_U+30A4_U+30E4_U+30FC 1
 62
   179
420
  2234388
370
     9
100
AcDbVertex
100
AcDb2dVertex
 10
78.66150493762227
 20
-129.8924955230821
 30
0.0
  0
VERTEX
  5
AA
330
A6
100
AcDbEntity
  8
_U+30EC_U+30A4_U+30E4_U+30FC 1
 62
   179
420
  2234388
370
     9
100
AcDbVertex
100
AcDb2dVertex
 10
80.14514712199362
 20
-129.8924955230821
 30
0.0
  0
VERTEX
  5
AB
330
A6
100
AcDbEntity
  8
_U+30EC_U+30A4_U+30E4_U+30FC 1
 62
   179
420
  2234388
370
     9
100
AcDbVertex
100
AcDb2dVertex
 10
80.27934378523665
 20
-129.7832755231099
 30
0.0
  0
VERTEX
  5
AC
330
A6
100
AcDbEntity
  8
_U+30EC_U+30A4_U+30E4_U+30FC 1
 62
   179
420
  2234388
370
     9
100
AcDbVertex
100
AcDb2dVertex
 10
80.09417073440525
 20
-129.6337683009249
 30
0.0
  0
VERTEX
  5
AD
330
A6
100
AcDbEntity
  8
_U+30EC_U+30A4_U+30E4_U+30FC 1
 62
   179
420
  2234388
370
     9
100
AcDbVertex
100
AcDb2dVertex
 10
78.69406632568044
 20
-129.6200099675947
 30
0.0
  0
SEQEND
  5
AE
330
A6
100
AcDbEntity
  8
_U+30EC_U+30A4_U+30E4_U+30FC 1
 62
   179
420
  2234388
370
     9
  0
POLYLINE
  5
AF
330
1F
100
AcDbEntity
  8
_U+30EC_U+30A4_U+30E4_U+30FC 1
 62
   179
420
  2234388
370
     9
100
AcDb2dPolyline
 66
     1
 10
0.0
 20
0.0
 30
0.0
  0
VERTEX
  5
B0
330
AF
100
AcDbEntity
  8
_U+30EC_U+30A4_U+30E4_U+30FC 1
 62
   179
420
  2234388
370
     9
100
AcDbVertex
100
AcDb2dVertex
 10
78.52646160773418
 20
-129.7295474675679
 30
0.0
  0
VERTEX
  5
B1
330
AF
100
AcDbEntity
  8
_U+30EC_U+30A4_U+30E4_U+30FC 1
 62
   179
420
  2234388
370
     9
100
AcDbVertex
100
AcDb2dVertex
 10
80.27934378523665
 20
-129.7832755231099
 30
0.0
  0
SEQEND
  5
B2
330
AF
100
AcDbEntity
  8
_U+30EC_U+30A4_U+30E4_U+30FC 1
 62
   179
420
  2234388
370
     9
  0
POLYLINE
  5
B3
330
1F
100
AcDbEntity
  8
_U+30EC_U+30A4_U+30E4_U+30FC 1
 62
   179
420
  2234388
370
     9
100
AcDb2dPolyline
 66
     1
 10
0.0
 20
0.0
 30
0.0
  0
VERTEX
  5
B4
330
B3
100
AcDbEntity
  8
_U+30EC_U+30A4_U+30E4_U+30FC 1
 62
   179
420
  2234388
370
     9
100
AcDbVertex
100
AcDb2dVertex
 10
78.69406632568044
 20
-129.3237119121136
 30
0.0
  0
VERTEX
  5
B5
330
B3
100
AcDbEntity
  8
_U+30EC_U+30A4_U+30E4_U+30FC 1
 62
   179
420
  2234388
370
     9
100
AcDbVertex
100
AcDb2dVertex
 10
78.52646160773418
 20
-129.4332846898636
 30
0.0
  0
VERTEX
  5
B6
330
B3
100
AcDbEntity
  8
_U+30EC_U+30A4_U+30E4_U+30FC 1
 62
   179
420
  2234388
370
     9
100
AcDbVertex
100
AcDb2dVertex
 10
78.66150493762227
 20
-129.5958799676008
 30
0.0
  0
VERTEX
  5
B7
330
B3
100
AcDbEntity
  8
_U+30EC_U+30A4_U+30E4_U+30FC 1
 62
   179
420
  2234388
370
     9
100
AcDbVertex
100
AcDb2dVertex
 10
80.14514712199362
 20
-129.5958799676008
 30
0.0
  0
VERTEX
  5
B8
330
B3
100
AcDbEntity
  8
_U+30EC_U+30A4_U+30E4_U+30FC 1
 62
   179
420
  2234388
370
     9
100
AcDbVertex
100
AcDb2dVertex
 10
80.27934378523665
 20
-129.487365523184
 30
0.0
  0
VERTEX
  5
B9
330
B3
100
AcDbEntity
  8
_U+30EC_U+30A4_U+30E4_U+30FC 1
 62
   179
420
  2234388
370
     9
100
AcDbVertex
100
AcDb2dVertex
 10
80.09417073440525
 20
-129.3375055232213
 30
0.0
  0
VERTEX
  5
BA
330
B3
100
AcDbEntity
  8
_U+30EC_U+30A4_U+30E4_U+30FC 1
 62
   179
420
  2234388
370
     9
100
AcDbVertex
100
AcDb2dVertex
 10
78.69406632568044
 20
-129.3237119121136
 30
0.0
  0
SEQEND
  5
BB
330
B3
100
AcDbEntity
  8
_U+30EC_U+30A4_U+30E4_U+30FC 1
 62
   179
420
  2234388
370
     9
  0
POLYLINE
  5
BC
330
1F
100
AcDbEntity
  8
_U+30EC_U+30A4_U+30E4_U+30FC 1
 62
   179
420
  2234388
370
     9
100
AcDb2dPolyline
 66
     1
 10
0.0
 20
0.0
 30
0.0
  0
VERTEX
  5
BD
330
BC
100
AcDbEntity
  8
_U+30EC_U+30A4_U+30E4_U+30FC 1
 62
   179
420
  2234388
370
     9
100
AcDbVertex
100
AcDb2dVertex
 10
78.52646160773418
 20
-129.4332846898636
 30
0.0
  0
VERTEX
  5
BE
330
BC
100
AcDbEntity
  8
_U+30EC_U+30A4_U+30E4_U+30FC 1
 62
   179
420
  2234388
370
     9
100
AcDbVertex
100
AcDb2dVertex
 10
80.27934378523665
 20
-129.487365523184
 30
0.0
  0
SEQEND
  5
BF
330
BC
100
AcDbEntity
  8
_U+30EC_U+30A4_U+30E4_U+30FC 1
 62
   179
420
  2234388
370
     9
  0
POLYLINE
  5
C0
330
1F
100
AcDbEntity
  8
_U+30EC_U+30A4_U+30E4_U+30FC 1
 62
   179
420
  2234388
370
     9
100
AcDb2dPolyline
 66
     1
 10
0.0
 20
0.0
 30
0.0
  0
VERTEX
  5
C1
330
C0
100
AcDbEntity
  8
_U+30EC_U+30A4_U+30E4_U+30FC 1
 62
   179
420
  2234388
370
     9
100
AcDbVertex
100
AcDb2dVertex
 10
78.69406632568044
 20
-129.0591285788464
 30
0.0
  0
VERTEX
  5
C2
330
C0
100
AcDbEntity
  8
_U+30EC_U+30A4_U+30E4_U+30FC 1
 62
   179
420
  2234388
370
     9
100
AcDbVertex
100
AcDb2dVertex
 10
78.52646160773418
 20
-129.1679958010415
 30
0.0
  0
VERTEX
  5
C3
330
C0
100
AcDbEntity
  8
_U+30EC_U+30A4_U+30E4_U+30FC 1
 62
   179
420
  2234388
370
     9
100
AcDbVertex
100
AcDb2dVertex
 10
78.66150493762227
 20
-129.3312966343335
 30
0.0
  0
VERTEX
  5
C4
330
C0
100
AcDbEntity
  8
_U+30EC_U+30A4_U+30E4_U+30FC 1
 62
   179
420
  2234388
370
     9
100
AcDbVertex
100
AcDb2dVertex
 10
80.14514712199362
 20
-129.3312966343335
 30
0.0
  0
VERTEX
  5
C5
330
C0
100
AcDbEntity
  8
_U+30EC_U+30A4_U+30E4_U+30FC 1
 62
   179
420
  2234388
370
     9
100
AcDbVertex
100
AcDb2dVertex
 10
80.27934378523665
 20
-129.2224294121391
 30
0.0
  0
VERTEX
  5
C6
330
C0
100
AcDbEntity
  8
_U+30EC_U+30A4_U+30E4_U+30FC 1
 62
   179
420
  2234388
370
     9
100
AcDbVertex
100
AcDb2dVertex
 10
80.09417073440525
 20
-129.0725694121763
 30
0.0
  0
VERTEX
  5
C7
330
C0
100
AcDbEntity
  8
_U+30EC_U+30A4_U+30E4_U+30FC 1
 62
   179
420
  2234388
370
     9
100
AcDbVertex
100
AcDb2dVertex
 10
78.69406632568044
 20
-129.0591285788464
 30
0.0
  0
SEQEND
  5
C8
330
C0
100
AcDbEntity
  8
_U+30EC_U+30A4_U+30E4_U+30FC 1
 62
   179
420
  2234388
370
     9
  0
POLYLINE
  5
C9
330
1F
100
AcDbEntity
  8
_U+30EC_U+30A4_U+30E4_U+30FC 1
 62
   179
420
  2234388
370
     9
100
AcDb2dPolyline
 66
     1
 10
0.0
 20
0.0
 30
0.0
  0
VERTEX
  5
CA
330
C9
100
AcDbEntity
  8
_U+30EC_U+30A4_U+30E4_U+30FC 1
 62
   179
420
  2234388
370
     9
100
AcDbVertex
100
AcDb2dVertex
 10
78.52646160773418
 20
-129.1679958010415
 30
0.0
  0
VERTEX
  5
CB
330
C9
100
AcDbEntity
  8
_U+30EC_U+30A4_U+30E4_U+30FC 1
 62
   179
420
  2234388
370
     9
100
AcDbVertex
100
AcDb2dVertex
 10
80.27934378523665
 20
-129.2224294121391
 30
0.0
  0
SEQEND
  5
CC
330
C9
100
AcDbEntity
  8
_U+30EC_U+30A4_U+30E4_U+30FC 1
 62
   179
420
  2234388
370
     9
  0
POLYLINE
  5
CD
330
1F
100
AcDbEntity
  8
_U+30EC_U+30A4_U+30E4_U+30FC 1
 62
   179
420
  2234388
370
     9
100
AcDb2dPolyline
 66
     1
 10
0.0
 20
0.0
 30
0.0
  0
VERTEX
  5
CE
330
CD
100
AcDbEntity
  8
_U+30EC_U+30A4_U+30E4_U+30FC 1
 62
   179
420
  2234388
370
     9
100
AcDbVertex
100
AcDb2dVertex
 10
78.69149104796837
 20
-128.8014244122443
 30
0.0
  0
VERTEX
  5
CF
330
CD
100
AcDbEntity
  8
_U+30EC_U+30A4_U+30E4_U+30FC 1
 62
   179
420
  2234388
370
     9
100
AcDbVertex
100
AcDb2dVertex
 10
78.52543855220472
 20
-128.9137488566607
 30
0.0
  0
VERTEX
  5
D0
330
CD
100
AcDbEntity
  8
_U+30EC_U+30A4_U+30E4_U+30FC 1
 62
   179
420
  2234388
370
     9
100
AcDbVertex
100
AcDb2dVertex
 10
78.6646093819875
 20
-129.0749683010643
 30
0.0
  0
VERTEX
  5
D1
330
CD
100
AcDbEntity
  8
_U+30EC_U+30A4_U+30E4_U+30FC 1
 62
   179
420
  2234388
370
     9
100
AcDbVertex
100
AcDb2dVertex
 10
80.14789878859008
 20
-129.0508735788485
 30
0.0
  0
VERTEX
  5
D2
330
CD
100
AcDbEntity
  8
_U+30EC_U+30A4_U+30E4_U+30FC 1
 62
   179
420
  2234388
370
     9
100
AcDbVertex
100
AcDb2dVertex
 10
80.28071961853487
 20
-128.9392546899876
 30
0.0
  0
VERTEX
  5
D3
330
CD
100
AcDbEntity
  8
_U+30EC_U+30A4_U+30E4_U+30FC 1
 62
   179
420
  2234388
370
     9
100
AcDbVertex
100
AcDb2dVertex
 10
80.09124267892439
 20
-128.7924991344684
 30
0.0
  0
VERTEX
  5
D4
330
CD
100
AcDbEntity
  8
_U+30EC_U+30A4_U+30E4_U+30FC 1
 62
   179
420
  2234388
370
     9
100
AcDbVertex
100
AcDb2dVertex
 10
78.69149104796837
 20
-128.8014244122443
 30
0.0
  0
SEQEND
  5
D5
330
CD
100
AcDbEntity
  8
_U+30EC_U+30A4_U+30E4_U+30FC 1
 62
   179
420
  2234388
370
     9
  0
POLYLINE
  5
D6
330
1F
100
AcDbEntity
  8
_U+30EC_U+30A4_U+30E4_U+30FC 1
 62
   179
420
  2234388
370
     9
100
AcDb2dPolyline
 66
     1
 10
0.0
 20
0.0
 30
0.0
  0
VERTEX
  5
D7
330
D6
100
AcDbEntity
  8
_U+30EC_U+30A4_U+30E4_U+30FC 1
 62
   179
420
  2234388
370
     9
100
AcDbVertex
100
AcDb2dVertex
 10
78.52543855220472
 20
-128.9137488566607
 30
0.0
  0
VERTEX
  5
D8
330
D6
100
AcDbEntity
  8
_U+30EC_U+30A4_U+30E4_U+30FC 1
 62
   179
420
  2234388
370
     9
100
AcDbVertex
100
AcDb2dVertex
 10
80.28071961853487
 20
-128.9392546899876
 30
0.0
  0
SEQEND
  5
D9
330
D6
100
AcDbEntity
  8
_U+30EC_U+30A4_U+30E4_U+30FC 1
 62
   179
420
  2234388
370
     9
  0
POLYLINE
  5
DA
330
1F
100
AcDbEntity
  8
_U+30EC_U+30A4_U+30E4_U+30FC 1
 62
   179
420
  2234388
370
     9
100
AcDb2dPolyline
 66
     1
 10
0.0
 20
0.0
 30
0.0
  0
VERTEX
  5
DB
330
DA
100
AcDbEntity
  8
_U+30EC_U+30A4_U+30E4_U+30FC 1
 62
   179
420
  2234388
370
     9
100
AcDbVertex
100
AcDb2dVertex
 10
78.69406632568044
 20
-128.5217069123141
 30
0.0
  0
VERTEX
  5
DC
330
DA
100
AcDbEntity
  8
_U+30EC_U+30A4_U+30E4_U+30FC 1
 62
   179
420
  2234388
370
     9
100
AcDbVertex
100
AcDb2dVertex
 10
78.52646160773418
 20
-128.6302213567315
 30
0.0
  0
VERTEX
  5
DD
330
DA
100
AcDbEntity
  8
_U+30EC_U+30A4_U+30E4_U+30FC 1
 62
   179
420
  2234388
370
     9
100
AcDbVertex
100
AcDb2dVertex
 10
78.66150493762227
 20
-128.7938749678012
 30
0.0
  0
VERTEX
  5
DE
330
DA
100
AcDbEntity
  8
_U+30EC_U+30A4_U+30E4_U+30FC 1
 62
   179
420
  2234388
370
     9
100
AcDbVertex
100
AcDb2dVertex
 10
80.14514712199362
 20
-128.7938749678012
 30
0.0
  0
VERTEX
  5
DF
330
DA
100
AcDbEntity
  8
_U+30EC_U+30A4_U+30E4_U+30FC 1
 62
   179
420
  2234388
370
     9
100
AcDbVertex
100
AcDb2dVertex
 10
80.27934378523665
 20
-128.6850077456064
 30
0.0
  0
VERTEX
  5
E0
330
DA
100
AcDbEntity
  8
_U+30EC_U+30A4_U+30E4_U+30FC 1
 62
   179
420
  2234388
370
     9
100
AcDbVertex
100
AcDb2dVertex
 10
80.09417073440525
 20
-128.5347949678662
 30
0.0
  0
VERTEX
  5
E1
330
DA
100
AcDbEntity
  8
_U+30EC_U+30A4_U+30E4_U+30FC 1
 62
   179
420
  2234388
370
     9
100
AcDbVertex
100
AcDb2dVertex
 10
78.69406632568044
 20
-128.5217069123141
 30
0.0
  0
SEQEND
  5
E2
330
DA
100
AcDbEntity
  8
_U+30EC_U+30A4_U+30E4_U+30FC 1
 62
   179
420
  2234388
370
     9
  0
POLYLINE
  5
E3
330
1F
100
AcDbEntity
  8
_U+30EC_U+30A4_U+30E4_U+30FC 1
 62
   179
420
  2234388
370
     9
100
AcDb2dPolyline
 66
     1
 10
0.0
 20
0.0
 30
0.0
  0
VERTEX
  5
E4
330
E3
100
AcDbEntity
  8
_U+30EC_U+30A4_U+30E4_U+30FC 1
 62
   179
420
  2234388
370
     9
100
AcDbVertex
100
AcDb2dVertex
 10
78.52646160773418
 20
-128.6302213567315
 30
0.0
  0
VERTEX
  5
E5
330
E3
100
AcDbEntity
  8
_U+30EC_U+30A4_U+30E4_U+30FC 1
 62
   179
420
  2234388
370
     9
100
AcDbVertex
100
AcDb2dVertex
 10
80.27934378523665
 20
-128.6850077456064
 30
0.0
  0
SEQEND
  5
E6
330
E3
100
AcDbEntity
  8
_U+30EC_U+30A4_U+30E4_U+30FC 1
 62
   179
420
  2234388
370
     9
  0
POLYLINE
  5
E7
330
1F
100
AcDbEntity
  8
_U+30EC_U+30A4_U+30E4_U+30FC 1
 62
   179
420
  2234388
370
     9
100
AcDb2dPolyline
 66
     1
 10
0.0
 20
0.0
 30
0.0
  0
VERTEX
  5
E8
330
E7
100
AcDbEntity
  8
_U+30EC_U+30A4_U+30E4_U+30FC 1
 62
   179
420
  2234388
370
     9
100
AcDbVertex
100
AcDb2dVertex
 10
78.69406632568044
 20
-128.2564180234914
 30
0.0
  0
VERTEX
  5
E9
330
E7
100
AcDbEntity
  8
_U+30EC_U+30A4_U+30E4_U+30FC 1
 62
   179
420
  2234388
370
     9
100
AcDbVertex
100
AcDb2dVertex
 10
78.52646160773418
 20
-128.3652852456865
 30
0.0
  0
VERTEX
  5
EA
330
E7
100
AcDbEntity
  8
_U+30EC_U+30A4_U+30E4_U+30FC 1
 62
   179
420
  2234388
370
     9
100
AcDbVertex
100
AcDb2dVertex
 10
78.66150493762227
 20
-128.5285860789788
 30
0.0
  0
VERTEX
  5
EB
330
E7
100
AcDbEntity
  8
_U+30EC_U+30A4_U+30E4_U+30FC 1
 62
   179
420
  2234388
370
     9
100
AcDbVertex
100
AcDb2dVertex
 10
80.14514712199362
 20
-128.5285860789788
 30
0.0
  0
VERTEX
  5
EC
330
E7
100
AcDbEntity
  8
_U+30EC_U+30A4_U+30E4_U+30FC 1
 62
   179
420
  2234388
370
     9
100
AcDbVertex
100
AcDb2dVertex
 10
80.27934378523665
 20
-128.419718856784
 30
0.0
  0
VERTEX
  5
ED
330
E7
100
AcDbEntity
  8
_U+30EC_U+30A4_U+30E4_U+30FC 1
 62
   179
420
  2234388
370
     9
100
AcDbVertex
100
AcDb2dVertex
 10
80.09417073440525
 20
-128.2695060790438
 30
0.0
  0
VERTEX
  5
EE
330
E7
100
AcDbEntity
  8
_U+30EC_U+30A4_U+30E4_U+30FC 1
 62
   179
420
  2234388
370
     9
100
AcDbVertex
100
AcDb2dVertex
 10
78.69406632568044
 20
-128.2564180234914
 30
0.0
  0
SEQEND
  5
EF
330
E7
100
AcDbEntity
  8
_U+30EC_U+30A4_U+30E4_U+30FC 1
 62
   179
420
  2234388
370
     9
  0
POLYLINE
  5
F0
330
1F
100
AcDbEntity
  8
_U+30EC_U+30A4_U+30E4_U+30FC 1
 62
   179
420
  2234388
370
     9
100
AcDb2dPolyline
 66
     1
 10
0.0
 20
0.0
 30
0.0
  0
VERTEX
  5
F1
330
F0
100
AcDbEntity
  8
_U+30EC_U+30A4_U+30E4_U+30FC 1
 62
   179
420
  2234388
370
     9
100
AcDbVertex
100
AcDb2dVertex
 10
78.52646160773418
 20
-128.3652852456865
 30
0.0
  0
VERTEX
  5
F2
330
F0
100
AcDbEntity
  8
_U+30EC_U+30A4_U+30E4_U+30FC 1
 62
   179
420
  2234388
370
     9
100
AcDbVertex
100
AcDb2dVertex
 10
80.27934378523665
 20
-128.419718856784
 30
0.0
  0
SEQEND
  5
F3
330
F0
100
AcDbEntity
  8
_U+30EC_U+30A4_U+30E4_U+30FC 1
 62
   179
420
  2234388
370
     9
  0
POLYLINE
  5
F4
330
1F
100
AcDbEntity
  8
_U+30EC_U+30A4_U+30E4_U+30FC 1
 62
   179
420
  2234388
370
     9
100
AcDb2dPolyline
 66
     1
 10
0.0
 20
0.0
 30
0.0
  0
VERTEX
  5
F5
330
F4
100
AcDbEntity
  8
_U+30EC_U+30A4_U+30E4_U+30FC 1
 62
   179
420
  2234388
370
     9
100
AcDbVertex
100
AcDb2dVertex
 10
78.69406632568044
 20
-127.9911644124465
 30
0.0
  0
VERTEX
  5
F6
330
F4
100
AcDbEntity
  8
_U+30EC_U+30A4_U+30E4_U+30FC 1
 62
   179
420
  2234388
370
     9
100
AcDbVertex
100
AcDb2dVertex
 10
78.52646160773418
 20
-128.1000316346416
 30
0.0
  0
VERTEX
  5
F7
330
F4
100
AcDbEntity
  8
_U+30EC_U+30A4_U+30E4_U+30FC 1
 62
   179
420
  2234388
370
     9
100
AcDbVertex
100
AcDb2dVertex
 10
78.66150493762227
 20
-128.2633324679343
 30
0.0
  0
VERTEX
  5
F8
330
F4
100
AcDbEntity
  8
_U+30EC_U+30A4_U+30E4_U+30FC 1
 62
   179
420
  2234388
370
     9
100
AcDbVertex
100
AcDb2dVertex
 10
80.14514712199362
 20
-128.2633324679343
 30
0.0
  0
VERTEX
  5
F9
330
F4
100
AcDbEntity
  8
_U+30EC_U+30A4_U+30E4_U+30FC 1
 62
   179
420
  2234388
370
     9
100
AcDbVertex
100
AcDb2dVertex
 10
80.27934378523665
 20
-128.1547827457391
 30
0.0
  0
VERTEX
  5
FA
330
F4
100
AcDbEntity
  8
_U+30EC_U+30A4_U+30E4_U+30FC 1
 62
   179
420
  2234388
370
     9
100
AcDbVertex
100
AcDb2dVertex
 10
80.09417073440525
 20
-128.0049227457766
 30
0.0
  0
VERTEX
  5
FB
330
F4
100
AcDbEntity
  8
_U+30EC_U+30A4_U+30E4_U+30FC 1
 62
   179
420
  2234388
370
     9
100
AcDbVertex
100
AcDb2dVertex
 10
78.69406632568044
 20
-127.9911644124465
 30
0.0
  0
SEQEND
  5
FC
330
F4
100
AcDbEntity
  8
_U+30EC_U+30A4_U+30E4_U+30FC 1
 62
   179
420
  2234388
370
     9
  0
POLYLINE
  5
FD
330
1F
100
AcDbEntity
  8
_U+30EC_U+30A4_U+30E4_U+30FC 1
 62
   179
420
  2234388
370
     9
100
AcDb2dPolyline
 66
     1
 10
0.0
 20
0.0
 30
0.0
  0
VERTEX
  5
FE
330
FD
100
AcDbEntity
  8
_U+30EC_U+30A4_U+30E4_U+30FC 1
 62
   179
420
  2234388
370
     9
100
AcDbVertex
100
AcDb2dVertex
 10
78.52646160773418
 20
-128.1000316346416
 30
0.0
  0
VERTEX
  5
FF
330
FD
100
AcDbEntity
  8
_U+30EC_U+30A4_U+30E4_U+30FC 1
 62
   179
420
  2234388
370
     9
100
AcDbVertex
100
AcDb2dVertex
 10
80.27934378523665
 20
-128.1547827457391
 30
0.0
  0
SEQEND
  5
100
330
FD
100
AcDbEntity
  8
_U+30EC_U+30A4_U+30E4_U+30FC 1
 62
   179
420
  2234388
370
     9
  0
POLYLINE
  5
101
330
1F
100
AcDbEntity
  8
_U+30EC_U+30A4_U+30E4_U+30FC 1
 62
   179
420
  2234388
370
     9
100
AcDb2dPolyline
 66
     1
 10
0.0
 20
0.0
 30
0.0
  0
VERTEX
  5
102
330
101
100
AcDbEntity
  8
_U+30EC_U+30A4_U+30E4_U+30FC 1
 62
   179
420
  2234388
370
     9
100
AcDbVertex
100
AcDb2dVertex
 10
78.69406632568044
 20
-127.7217480236252
 30
0.0
  0
VERTEX
  5
103
330
101
100
AcDbEntity
  8
_U+30EC_U+30A4_U+30E4_U+30FC 1
 62
   179
420
  2234388
370
     9
100
AcDbVertex
100
AcDb2dVertex
 10
78.52646160773418
 20
-127.8312855235976
 30
0.0
  0
VERTEX
  5
104
330
101
100
AcDbEntity
  8
_U+30EC_U+30A4_U+30E4_U+30FC 1
 62
   179
420
  2234388
370
     9
100
AcDbVertex
100
AcDb2dVertex
 10
78.66150493762227
 20
-127.994939134668
 30
0.0
  0
VERTEX
  5
105
330
101
100
AcDbEntity
  8
_U+30EC_U+30A4_U+30E4_U+30FC 1
 62
   179
420
  2234388
370
     9
100
AcDbVertex
100
AcDb2dVertex
 10
80.14514712199362
 20
-127.994939134668
 30
0.0
  0
VERTEX
  5
106
330
101
100
AcDbEntity
  8
_U+30EC_U+30A4_U+30E4_U+30FC 1
 62
   179
420
  2234388
370
     9
100
AcDbVertex
100
AcDb2dVertex
 10
80.27934378523665
 20
-127.8857191346952
 30
0.0
  0
VERTEX
  5
107
330
101
100
AcDbEntity
  8
_U+30EC_U+30A4_U+30E4_U+30FC 1
 62
   179
420
  2234388
370
     9
100
AcDbVertex
100
AcDb2dVertex
 10
80.09417073440525
 20
-127.7362119125105
 30
0.0
  0
VERTEX
  5
108
330
101
100
AcDbEntity
  8
_U+30EC_U+30A4_U+30E4_U+30FC 1
 62
   179
420
  2234388
370
     9
100
AcDbVertex
100
AcDb2dVertex
 10
78.69406632568044
 20
-127.7217480236252
 30
0.0
  0
SEQEND
  5
109
330
101
100
AcDbEntity
  8
_U+30EC_U+30A4_U+30E4_U+30FC 1
 62
   179
420
  2234388
370
     9
  0
POLYLINE
  5
10A
330
1F
100
AcDbEntity
  8
_U+30EC_U+30A4_U+30E4_U+30FC 1
 62
   179
420
  2234388
370
     9
100
AcDb2dPolyline
 66
     1
 10
0.0
 20
0.0
 30
0.0
  0
VERTEX
  5
10B
330
10A
100
AcDbEntity
  8
_U+30EC_U+30A4_U+30E4_U+30FC 1
 62
   179
420
  2234388
370
     9
100
AcDbVertex
100
AcDb2dVertex
 10
78.52646160773418
 20
-127.8312855235976
 30
0.0
  0
VERTEX
  5
10C
330
10A
100
AcDbEntity
  8
_U+30EC_U+30A4_U+30E4_U+30FC 1
 62
   179
420
  2234388
370
     9
100
AcDbVertex
100
AcDb2dVertex
 10
80.27934378523665
 20
-127.8857191346952
 30
0.0
  0
SEQEND
  5
10D
330
10A
100
AcDbEntity
  8
_U+30EC_U+30A4_U+30E4_U+30FC 1
 62
   179
420
  2234388
370
     9
  0
POLYLINE
  5
10E
330
1F
100
AcDbEntity
  8
_U+30EC_U+30A4_U+30E4_U+30FC 1
 62
   179
420
  2234388
370
     9
100
AcDb2dPolyline
 66
     1
 10
0.0
 20
0.0
 30
0.0
  0
VERTEX
  5
10F
330
10E
100
AcDbEntity
  8
_U+30EC_U+30A4_U+30E4_U+30FC 1
 62
   179
420
  2234388
370
     9
100
AcDbVertex
100
AcDb2dVertex
 10
78.69406632568044
 20
-127.4575174681357
 30
0.0
  0
VERTEX
  5
110
330
10E
100
AcDbEntity
  8
_U+30EC_U+30A4_U+30E4_U+30FC 1
 62
   179
420
  2234388
370
     9
100
AcDbVertex
100
AcDb2dVertex
 10
78.52646160773418
 20
-127.5660319125531
 30
0.0
  0
VERTEX
  5
111
330
10E
100
AcDbEntity
  8
_U+30EC_U+30A4_U+30E4_U+30FC 1
 62
   179
420
  2234388
370
     9
100
AcDbVertex
100
AcDb2dVertex
 10
78.66150493762227
 20
-127.7293327458454
 30
0.0
  0
VERTEX
  5
112
330
10E
100
AcDbEntity
  8
_U+30EC_U+30A4_U+30E4_U+30FC 1
 62
   179
420
  2234388
370
     9
100
AcDbVertex
100
AcDb2dVertex
 10
80.14514712199362
 20
-127.7293327458454
 30
0.0
  0
VERTEX
  5
113
330
10E
100
AcDbEntity
  8
_U+30EC_U+30A4_U+30E4_U+30FC 1
 62
   179
420
  2234388
370
     9
100
AcDbVertex
100
AcDb2dVertex
 10
80.27934378523665
 20
-127.621135801428
 30
0.0
  0
VERTEX
  5
114
330
10E
100
AcDbEntity
  8
_U+30EC_U+30A4_U+30E4_U+30FC 1
 62
   179
420
  2234388
370
     9
100
AcDbVertex
100
AcDb2dVertex
 10
80.09417073440525
 20
-127.4706055236879
 30
0.0
  0
VERTEX
  5
115
330
10E
100
AcDbEntity
  8
_U+30EC_U+30A4_U+30E4_U+30FC 1
 62
   179
420
  2234388
370
     9
100
AcDbVertex
100
AcDb2dVertex
 10
78.69406632568044
 20
-127.4575174681357
 30
0.0
  0
SEQEND
  5
116
330
10E
100
AcDbEntity
  8
_U+30EC_U+30A4_U+30E4_U+30FC 1
 62
   179
420
  2234388
370
     9
  0
POLYLINE
  5
117
330
1F
100
AcDbEntity
  8
_U+30EC_U+30A4_U+30E4_U+30FC 1
 62
   179
420
  2234388
370
     9
100
AcDb2dPolyline
 66
     1
 10
0.0
 20
0.0
 30
0.0
  0
VERTEX
  5
118
330
117
100
AcDbEntity
  8
_U+30EC_U+30A4_U+30E4_U+30FC 1
 62
   179
420
  2234388
370
     9
100
AcDbVertex
100
AcDb2dVertex
 10
78.52646160773418
 20
-127.5660319125531
 30
0.0
  0
VERTEX
  5
119
330
117
100
AcDbEntity
  8
_U+30EC_U+30A4_U+30E4_U+30FC 1
 62
   179
420
  2234388
370
     9
100
AcDbVertex
100
AcDb2dVertex
 10
80.27934378523665
 20
-127.621135801428
 30
0.0
  0
SEQEND
  5
11A
330
117
100
AcDbEntity
  8
_U+30EC_U+30A4_U+30E4_U+30FC 1
 62
   179
420
  2234388
370
     9
  0
POLYLINE
  5
11B
330
1F
100
AcDbEntity
  8
_U+30EC_U+30A4_U+30E4_U+30FC 1
 62
   179
420
  2234388
370
     9
100
AcDb2dPolyline
 66
     1
 10
0.0
 20
0.0
 30
0.0
  0
VERTEX
  5
11C
330
11B
100
AcDbEntity
  8
_U+30EC_U+30A4_U+30E4_U+30FC 1
 62
   179
420
  2234388
370
     9
100
AcDbVertex
100
AcDb2dVertex
 10
78.69406632568044
 20
-127.1815394126492
 30
0.0
  0
VERTEX
  5
11D
330
11B
100
AcDbEntity
  8
_U+30EC_U+30A4_U+30E4_U+30FC 1
 62
   179
420
  2234388
370
     9
100
AcDbVertex
100
AcDb2dVertex
 10
78.52646160773418
 20
-127.2897363570663
 30
0.0
  0
VERTEX
  5
11E
330
11B
100
AcDbEntity
  8
_U+30EC_U+30A4_U+30E4_U+30FC 1
 62
   179
420
  2234388
370
     9
100
AcDbVertex
100
AcDb2dVertex
 10
78.66150493762227
 20
-127.4537074681367
 30
0.0
  0
VERTEX
  5
11F
330
11B
100
AcDbEntity
  8
_U+30EC_U+30A4_U+30E4_U+30FC 1
 62
   179
420
  2234388
370
     9
100
AcDbVertex
100
AcDb2dVertex
 10
80.14514712199362
 20
-127.4537074681367
 30
0.0
  0
VERTEX
  5
120
330
11B
100
AcDbEntity
  8
_U+30EC_U+30A4_U+30E4_U+30FC 1
 62
   179
420
  2234388
370
     9
100
AcDbVertex
100
AcDb2dVertex
 10
80.27934378523665
 20
-127.3448402459416
 30
0.0
  0
VERTEX
  5
121
330
11B
100
AcDbEntity
  8
_U+30EC_U+30A4_U+30E4_U+30FC 1
 62
   179
420
  2234388
370
     9
100
AcDbVertex
100
AcDb2dVertex
 10
80.09417073440525
 20
-127.1946627459792
 30
0.0
  0
VERTEX
  5
122
330
11B
100
AcDbEntity
  8
_U+30EC_U+30A4_U+30E4_U+30FC 1
 62
   179
420
  2234388
370
     9
100
AcDbVertex
100
AcDb2dVertex
 10
78.69406632568044
 20
-127.1815394126492
 30
0.0
  0
SEQEND
  5
123
330
11B
100
AcDbEntity
  8
_U+30EC_U+30A4_U+30E4_U+30FC 1
 62
   179
420
  2234388
370
     9
  0
POLYLINE
  5
124
330
1F
100
AcDbEntity
  8
_U+30EC_U+30A4_U+30E4_U+30FC 1
 62
   179
420
  2234388
370
     9
100
AcDb2dPolyline
 66
     1
 10
0.0
 20
0.0
 30
0.0
  0
VERTEX
  5
125
330
124
100
AcDbEntity
  8
_U+30EC_U+30A4_U+30E4_U+30FC 1
 62
   179
420
  2234388
370
     9
100
AcDbVertex
100
AcDb2dVertex
 10
78.52646160773418
 20
-127.2897363570663
 30
0.0
  0
VERTEX
  5
126
330
124
100
AcDbEntity
  8
_U+30EC_U+30A4_U+30E4_U+30FC 1
 62
   179
420
  2234388
370
     9
100
AcDbVertex
100
AcDb2dVertex
 10
80.27934378523665
 20
-127.3448402459416
 30
0.0
  0
SEQEND
  5
127
330
124
100
AcDbEntity
  8
_U+30EC_U+30A4_U+30E4_U+30FC 1
 62
   179
420
  2234388
370
     9
  0
POLYLINE
  5
128
330
1F
100
AcDbEntity
  8
_U+30EC_U+30A4_U+30E4_U+30FC 1
 62
   179
420
  2234388
370
     9
100
AcDb2dPolyline
 66
     1
 10
0.0
 20
0.0
 30
0.0
  0
VERTEX
  5
129
330
128
100
AcDbEntity
  8
_U+30EC_U+30A4_U+30E4_U+30FC 1
 62
   179
420
  2234388
370
     9
100
AcDbVertex
100
AcDb2dVertex
 10
78.69406632568044
 20
-126.9197430238256
 30
0.0
  0
VERTEX
  5
12A
330
128
100
AcDbEntity
  8
_U+30EC_U+30A4_U+30E4_U+30FC 1
 62
   179
420
  2234388
370
     9
100
AcDbVertex
100
AcDb2dVertex
 10
78.52646160773418
 20
-127.0286102460207
 30
0.0
  0
VERTEX
  5
12B
330
128
100
AcDbEntity
  8
_U+30EC_U+30A4_U+30E4_U+30FC 1
 62
   179
420
  2234388
370
     9
100
AcDbVertex
100
AcDb2dVertex
 10
78.66150493762227
 20
-127.192228579313
 30
0.0
  0
VERTEX
  5
12C
330
128
100
AcDbEntity
  8
_U+30EC_U+30A4_U+30E4_U+30FC 1
 62
   179
420
  2234388
370
     9
100
AcDbVertex
100
AcDb2dVertex
 10
80.14514712199362
 20
-127.192228579313
 30
0.0
  0
VERTEX
  5
12D
330
128
100
AcDbEntity
  8
_U+30EC_U+30A4_U+30E4_U+30FC 1
 62
   179
420
  2234388
370
     9
100
AcDbVertex
100
AcDb2dVertex
 10
80.27934378523665
 20
-127.0837141348957
 30
0.0
  0
VERTEX
  5
12E
330
128
100
AcDbEntity
  8
_U+30EC_U+30A4_U+30E4_U+30FC 1
 62
   179
420
  2234388
370
     9
100
AcDbVertex
100
AcDb2dVertex
 10
80.09417073440525
 20
-126.9335013571554
 30
0.0
  0
VERTEX
  5
12F
330
128
100
AcDbEntity
  8
_U+30EC_U+30A4_U+30E4_U+30FC 1
 62
   179
420
  2234388
370
     9
100
AcDbVertex
100
AcDb2dVertex
 10
78.69406632568044
 20
-126.9197430238256
 30
0.0
  0
SEQEND
  5
130
330
128
100
AcDbEntity
  8
_U+30EC_U+30A4_U+30E4_U+30FC 1
 62
   179
420
  2234388
370
     9
  0
POLYLINE
  5
131
330
1F
100
AcDbEntity
  8
_U+30EC_U+30A4_U+30E4_U+30FC 1
 62
   179
420
  2234388
370
     9
100
AcDb2dPolyline
 66
     1
 10
0.0
 20
0.0
 30
0.0
  0
VERTEX
  5
132
330
131
100
AcDbEntity
  8
_U+30EC_U+30A4_U+30E4_U+30FC 1
 62
   179
420
  2234388
370
     9
100
AcDbVertex
100
AcDb2dVertex
 10
78.52646160773418
 20
-127.0286102460207
 30
0.0
  0
VERTEX
  5
133
330
131
100
AcDbEntity
  8
_U+30EC_U+30A4_U+30E4_U+30FC 1
 62
   179
420
  2234388
370
     9
100
AcDbVertex
100
AcDb2dVertex
 10
80.27934378523665
 20
-127.0837141348957
 30
0.0
  0
SEQEND
  5
134
330
131
100
AcDbEntity
  8
_U+30EC_U+30A4_U+30E4_U+30FC 1
 62
   179
420
  2234388
370
     9
  0
POLYLINE
  5
135
330
1F
100
AcDbEntity
  8
_U+30EC_U+30A4_U+30E4_U+30FC 1
 62
   179
420
  2234388
370
     9
100
AcDb2dPolyline
 66
     1
 10
0.0
 20
0.0
 30
0.0
  0
VERTEX
  5
136
330
135
100
AcDbEntity
  8
_U+30EC_U+30A4_U+30E4_U+30FC 1
 62
   179
420
  2234388
370
     9
100
AcDbVertex
100
AcDb2dVertex
 10
78.71114076968928
 20
-134.8469066329552
 30
0.0
  0
VERTEX
  5
137
330
135
100
AcDbEntity
  8
_U+30EC_U+30A4_U+30E4_U+30FC 1
 62
   179
420
  2234388
370
     9
100
AcDbVertex
100
AcDb2dVertex
 10
78.5338699408785
 20
-134.9630057995925
 30
0.0
  0
VERTEX
  5
138
330
135
100
AcDbEntity
  8
_U+30EC_U+30A4_U+30E4_U+30FC 1
 62
   179
420
  2234388
370
     9
100
AcDbVertex
100
AcDb2dVertex
 10
78.67512215949708
 20
-135.1376660773267
 30
0.0
  0
VERTEX
  5
139
330
135
100
AcDbEntity
  8
_U+30EC_U+30A4_U+30E4_U+30FC 1
 62
   179
420
  2234388
370
     9
100
AcDbVertex
100
AcDb2dVertex
 10
80.23524656413943
 20
-135.1376660773267
 30
0.0
  0
VERTEX
  5
13A
330
135
100
AcDbEntity
  8
_U+30EC_U+30A4_U+30E4_U+30FC 1
 62
   179
420
  2234388
370
     9
100
AcDbVertex
100
AcDb2dVertex
 10
80.37752183828746
 20
-135.0208613551339
 30
0.0
  0
VERTEX
  5
13B
330
135
100
AcDbEntity
  8
_U+30EC_U+30A4_U+30E4_U+30FC 1
 62
   179
420
  2234388
370
     9
100
AcDbVertex
100
AcDb2dVertex
 10
80.1818360099465
 20
-134.8610177440625
 30
0.0
  0
VERTEX
  5
13C
330
135
100
AcDbEntity
  8
_U+30EC_U+30A4_U+30E4_U+30FC 1
 62
   179
420
  2234388
370
     9
100
AcDbVertex
100
AcDb2dVertex
 10
78.71114076968928
 20
-134.8469066329552
 30
0.0
  0
SEQEND
  5
13D
330
135
100
AcDbEntity
  8
_U+30EC_U+30A4_U+30E4_U+30FC 1
 62
   179
420
  2234388
370
     9
  0
POLYLINE
  5
13E
330
1F
100
AcDbEntity
  8
_U+30EC_U+30A4_U+30E4_U+30FC 1
 62
   179
420
  2234388
370
     9
100
AcDb2dPolyline
 66
     1
 10
0.0
 20
0.0
 30
0.0
  0
VERTEX
  5
13F
330
13E
100
AcDbEntity
  8
_U+30EC_U+30A4_U+30E4_U+30FC 1
 62
   179
420
  2234388
370
     9
100
AcDbVertex
100
AcDb2dVertex
 10
78.5338699408785
 20
-134.9630057995925
 30
0.0
  0
VERTEX
  5
140
330
13E
100
AcDbEntity
  8
_U+30EC_U+30A4_U+30E4_U+30FC 1
 62
   179
420
  2234388
370
     9
100
AcDbVertex
100
AcDb2dVertex
 10
80.37752183828746
 20
-135.0208613551339
 30
0.0
  0
SEQEND
  5
141
330
13E
100
AcDbEntity
  8
_U+30EC_U+30A4_U+30E4_U+30FC 1
 62
   179
420
  2234388
370
     9
  0
POLYLINE
  5
142
330
1F
100
AcDbEntity
  8
_U+30EC_U+30A4_U+30E4_U+30FC 1
 62
   179
420
  2234388
370
     9
100
AcDb2dPolyline
 66
     1
 10
0.0
 20
0.0
 30
0.0
  0
VERTEX
  5
143
330
142
100
AcDbEntity
  8
_U+30EC_U+30A4_U+30E4_U+30FC 1
 62
   179
420
  2234388
370
     9
100
AcDbVertex
100
AcDb2dVertex
 10
78.71114076968928
 20
-134.5592163552492
 30
0.0
  0
VERTEX
  5
144
330
142
100
AcDbEntity
  8
_U+30EC_U+30A4_U+30E4_U+30FC 1
 62
   179
420
  2234388
370
     9
100
AcDbVertex
100
AcDb2dVertex
 10
78.5338699408785
 20
-134.676021077442
 30
0.0
  0
VERTEX
  5
145
330
142
100
AcDbEntity
  8
_U+30EC_U+30A4_U+30E4_U+30FC 1
 62
   179
420
  2234388
370
     9
100
AcDbVertex
100
AcDb2dVertex
 10
78.67512215949708
 20
-134.8503285773984
 30
0.0
  0
VERTEX
  5
146
330
142
100
AcDbEntity
  8
_U+30EC_U+30A4_U+30E4_U+30FC 1
 62
   179
420
  2234388
370
     9
100
AcDbVertex
100
AcDb2dVertex
 10
80.23524656413943
 20
-134.8503285773984
 30
0.0
  0
VERTEX
  5
147
330
142
100
AcDbEntity
  8
_U+30EC_U+30A4_U+30E4_U+30FC 1
 62
   179
420
  2234388
370
     9
100
AcDbVertex
100
AcDb2dVertex
 10
80.37752183828746
 20
-134.7339119107608
 30
0.0
  0
VERTEX
  5
148
330
142
100
AcDbEntity
  8
_U+30EC_U+30A4_U+30E4_U+30FC 1
 62
   179
420
  2234388
370
     9
100
AcDbVertex
100
AcDb2dVertex
 10
80.1818360099465
 20
-134.5740330219119
 30
0.0
  0
VERTEX
  5
149
330
142
100
AcDbEntity
  8
_U+30EC_U+30A4_U+30E4_U+30FC 1
 62
   179
420
  2234388
370
     9
100
AcDbVertex
100
AcDb2dVertex
 10
78.71114076968928
 20
-134.5592163552492
 30
0.0
  0
SEQEND
  5
14A
330
142
100
AcDbEntity
  8
_U+30EC_U+30A4_U+30E4_U+30FC 1
 62
   179
420
  2234388
370
     9
  0
POLYLINE
  5
14B
330
1F
100
AcDbEntity
  8
_U+30EC_U+30A4_U+30E4_U+30FC 1
 62
   179
420
  2234388
370
     9
100
AcDb2dPolyline
 66
     1
 10
0.0
 20
0.0
 30
0.0
  0
VERTEX
  5
14C
330
14B
100
AcDbEntity
  8
_U+30EC_U+30A4_U+30E4_U+30FC 1
 62
   179
420
  2234388
370
     9
100
AcDbVertex
100
AcDb2dVertex
 10
78.5338699408785
 20
-134.676021077442
 30
0.0
  0
VERTEX
  5
14D
330
14B
100
AcDbEntity
  8
_U+30EC_U+30A4_U+30E4_U+30FC 1
 62
   179
420
  2234388
370
     9
100
AcDbVertex
100
AcDb2dVertex
 10
80.37752183828746
 20
-134.7339119107608
 30
0.0
  0
SEQEND
  5
14E
330
14B
100
AcDbEntity
  8
_U+30EC_U+30A4_U+30E4_U+30FC 1
 62
   179
420
  2234388
370
     9
  0
POLYLINE
  5
14F
330
1F
100
AcDbEntity
  8
_U+30EC_U+30A4_U+30E4_U+30FC 1
 62
   179
420
  2234388
370
     9
100
AcDb2dPolyline
 66
     1
 10
0.0
 20
0.0
 30
0.0
  0
VERTEX
  5
150
330
14F
100
AcDbEntity
  8
_U+30EC_U+30A4_U+30E4_U+30FC 1
 62
   179
420
  2234388
370
     9
100
AcDbVertex
100
AcDb2dVertex
 10
77.21095330796226
 20
-131.9488724670128
 30
0.0
  0
VERTEX
  5
151
330
14F
100
AcDbEntity
  8
_U+30EC_U+30A4_U+30E4_U+30FC 1
 62
   179
420
  2234388
370
     9
100
AcDbVertex
100
AcDb2dVertex
 10
77.21095330796226
 20
-132.2355044113856
 30
0.0
  0
VERTEX
  5
152
330
14F
100
AcDbEntity
  8
_U+30EC_U+30A4_U+30E4_U+30FC 1
 62
   179
420
  2234388
370
     9
100
AcDbVertex
100
AcDb2dVertex
 10
81.62067541768309
 20
-132.2355044113856
 30
0.0
  0
VERTEX
  5
153
330
14F
100
AcDbEntity
  8
_U+30EC_U+30A4_U+30E4_U+30FC 1
 62
   179
420
  2234388
370
     9
100
AcDbVertex
100
AcDb2dVertex
 10
81.62067541768309
 20
-131.9488724670128
 30
0.0
  0
VERTEX
  5
154
330
14F
100
AcDbEntity
  8
_U+30EC_U+30A4_U+30E4_U+30FC 1
 62
   179
420
  2234388
370
     9
100
AcDbVertex
100
AcDb2dVertex
 10
77.21095330796226
 20
-131.9488724670128
 30
0.0
  0
SEQEND
  5
155
330
14F
100
AcDbEntity
  8
_U+30EC_U+30A4_U+30E4_U+30FC 1
 62
   179
420
  2234388
370
     9
  0
POLYLINE
  5
156
330
1F
100
AcDbEntity
  8
_U+30EC_U+30A4_U+30E4_U+30FC 1
 62
   179
420
  2234388
370
     9
100
AcDb2dPolyline
 66
     1
 10
0.0
 20
0.0
 30
0.0
  0
VERTEX
  5
157
330
156
100
AcDbEntity
  8
_U+30EC_U+30A4_U+30E4_U+30FC 1
 62
   179
420
  2234388
370
     9
100
AcDbVertex
100
AcDb2dVertex
 10
78.40157827758688
 20
-131.992969689224
 30
0.0
  0
VERTEX
  5
158
330
156
100
AcDbEntity
  8
_U+30EC_U+30A4_U+30E4_U+30FC 1
 62
   179
420
  2234388
370
     9
100
AcDbVertex
100
AcDb2dVertex
 10
78.40157827758688
 20
-132.2134558002799
 30
0.0
  0
SEQEND
  5
159
330
156
100
AcDbEntity
  8
_U+30EC_U+30A4_U+30E4_U+30FC 1
 62
   179
420
  2234388
370
     9
  0
POLYLINE
  5
15A
330
1F
100
AcDbEntity
  8
_U+30EC_U+30A4_U+30E4_U+30FC 1
 62
   179
420
  2234388
370
     9
100
AcDb2dPolyline
 66
     1
 10
0.0
 20
0.0
 30
0.0
  0
VERTEX
  5
15B
330
15A
100
AcDbEntity
  8
_U+30EC_U+30A4_U+30E4_U+30FC 1
 62
   179
420
  2234388
370
     9
100
AcDbVertex
100
AcDb2dVertex
 10
80.29775878476684
 20
-131.9709210781184
 30
0.0
  0
VERTEX
  5
15C
330
15A
100
AcDbEntity
  8
_U+30EC_U+30A4_U+30E4_U+30FC 1
 62
   179
420
  2234388
370
     9
100
AcDbVertex
100
AcDb2dVertex
 10
80.29775878476684
 20
-132.2134558002799
 30
0.0
  0
SEQEND
  5
15D
330
15A
100
AcDbEntity
  8
_U+30EC_U+30A4_U+30E4_U+30FC 1
 62
   179
420
  2234388
370
     9
  0
SPLINE
  5
15E
330
1F
100
AcDbEntity
  8
_U+30EC_U+30A4_U+30E4_U+30FC 1
 62
   179
420
  2234388
370
     9
100
AcDbSpline
210
0.0
220
0.0
230
1.0
 70
     8
 71
     3
 72
    17
 73
    13
 74
     0
 42
0.0000000001
 43
0.0000000001
 12
1.0
 22
0.0
 32
0.0
 13
1.0
 23
0.0
 33
0.0
 40
0.0
 40
0.0
 40
0.0
 40
0.0
 40
1.0
 40
1.0
 40
1.0
 40
2.0
 40
2.0
 40
2.0
 40
3.0
 40
3.0
 40
3.0
 40
4.0
 40
4.0
 40
4.0
 40
4.0
 10
77.78421718222596
 20
-131.9268238559072
 30
0.0
 10
77.78421718222596
 20
-131.9268238559072
 30
0.0
 10
77.74011996112876
 20
-130.4495669118321
 30
0.0
 10
77.74011996112876
 20
-130.4495669118321
 30
0.0
 10
77.74011996112876
 20
-130.4495669118321
 30
0.0
 10
78.66616160417013
 20
-129.7881085786641
 30
0.0
 10
79.34966853117686
 20
-130.55980996736
 30
0.0
 10
79.34966853117686
 20
-130.55980996736
 30
0.0
 10
79.37171714172547
 20
-131.9488724670128
 30
0.0
 10
79.37171714172547
 20
-131.9488724670128
 30
0.0
 10
79.37171714172547
 20
-131.9488724670128
 30
0.0
 10
79.37171714172547
 20
-132.1473099669631
 30
0.0
 10
79.37171714172547
 20
-132.1473099669631
 30
0.0
  0
SPLINE
  5
15F
330
1F
100
AcDbEntity
  8
_U+30EC_U+30A4_U+30E4_U+30FC 1
 62
   179
420
  2234388
370
     9
100
AcDbSpline
210
0.0
220
0.0
230
1.0
 70
     8
 71
     3
 72
    14
 73
    10
 74
     0
 42
0.0000000001
 43
0.0000000001
 12
1.0
 22
0.0
 32
0.0
 13
1.0
 23
0.0
 33
0.0
 40
0.0
 40
0.0
 40
0.0
 40
0.0
 40
1.0
 40
1.0
 40
1.0
 40
2.0
 40
2.0
 40
2.0
 40
3.0
 40
3.0
 40
3.0
 40
3.0
 10
79.34966853117686
 20
-130.55980996736
 30
0.0
 10
79.34966853117686
 20
-130.55980996736
 30
0.0
 10
79.68039768940592
 20
-130.1629349674593
 30
0.0
 10
80.18751573202381
 20
-130.1629349674593
 30
0.0
 10
80.18751573202381
 20
-130.1629349674593
 30
0.0
 10
80.76077960628753
 20
-130.1408863563537
 30
0.0
 10
81.00331432232217
 20
-130.4495669118321
 30
0.0
 10
81.00331432232217
 20
-130.4495669118321
 30
0.0
 10
81.00331432232217
 20
-131.9268238559072
 30
0.0
 10
81.00331432232217
 20
-131.9268238559072
 30
0.0
  0
POLYLINE
  5
160
330
1F
100
AcDbEntity
  8
_U+30EC_U+30A4_U+30E4_U+30FC 1
 62
   179
420
  2234388
370
     9
100
AcDb2dPolyline
 66
     1
 10
0.0
 20
0.0
 30
0.0
  0
VERTEX
  5
161
330
160
100
AcDbEntity
  8
_U+30EC_U+30A4_U+30E4_U+30FC 1
 62
   179
420
  2234388
370
     9
100
AcDbVertex
100
AcDb2dVertex
 10
79.17327964678803
 20
-130.3317391340834
 30
0.0
  0
VERTEX
  5
162
330
160
100
AcDbEntity
  8
_U+30EC_U+30A4_U+30E4_U+30FC 1
 62
   179
420
  2234388
370
     9
100
AcDbVertex
100
AcDb2dVertex
 10
79.630444357347
 20
-130.3221083007526
 30
0.0
  0
SEQEND
  5
163
330
160
100
AcDbEntity
  8
_U+30EC_U+30A4_U+30E4_U+30FC 1
 62
   179
420
  2234388
370
     9
  0
POLYLINE
  5
164
330
1F
100
AcDbEntity
  8
_U+30EC_U+30A4_U+30E4_U+30FC 1
 62
   179
420
  2234388
370
     9
100
AcDb2dPolyline
 66
     1
 10
0.0
 20
0.0
 30
0.0
  0
VERTEX
  5
165
330
164
100
AcDbEntity
  8
_U+30EC_U+30A4_U+30E4_U+30FC 1
 62
   179
420
  2234388
370
     9
100
AcDbVertex
100
AcDb2dVertex
 10
82.06164762865518
 20
-135.9837682993374
 30
0.0
  0
VERTEX
  5
166
330
164
100
AcDbEntity
  8
_U+30EC_U+30A4_U+30E4_U+30FC 1
 62
   179
420
  2234388
370
     9
100
AcDbVertex
100
AcDb2dVertex
 10
76.79202970753877
 20
-135.9837682993374
 30
0.0
  0
VERTEX
  5
167
330
164
100
AcDbEntity
  8
_U+30EC_U+30A4_U+30E4_U+30FC 1
 62
   179
420
  2234388
370
     9
100
AcDbVertex
100
AcDb2dVertex
 10
76.79202970753877
 20
-135.1459210773246
 30
0.0
  0
VERTEX
  5
168
330
164
100
AcDbEntity
  8
_U+30EC_U+30A4_U+30E4_U+30FC 1
 62
   179
420
  2234388
370
     9
100
AcDbVertex
100
AcDb2dVertex
 10
82.06164762865518
 20
-135.1459210773246
 30
0.0
  0
VERTEX
  5
169
330
164
100
AcDbEntity
  8
_U+30EC_U+30A4_U+30E4_U+30FC 1
 62
   179
420
  2234388
370
     9
100
AcDbVertex
100
AcDb2dVertex
 10
82.06164762865518
 20
-135.9837682993374
 30
0.0
  0
SEQEND
  5
16A
330
164
100
AcDbEntity
  8
_U+30EC_U+30A4_U+30E4_U+30FC 1
 62
   179
420
  2234388
370
     9
  0
POLYLINE
  5
16B
330
1F
100
AcDbEntity
  8
_U+30EC_U+30A4_U+30E4_U+30FC 1
 62
   179
420
  2234388
370
     9
100
AcDb2dPolyline
 66
     1
 10
0.0
 20
0.0
 30
0.0
  0
VERTEX
  5
16C
330
16B
100
AcDbEntity
  8
_U+30EC_U+30A4_U+30E4_U+30FC 1
 62
   179
420
  2234388
370
     9
100
AcDbVertex
100
AcDb2dVertex
 10
77.71807135058015
 20
-135.1459210773246
 30
0.0
  0
VERTEX
  5
16D
330
16B
100
AcDbEntity
  8
_U+30EC_U+30A4_U+30E4_U+30FC 1
 62
   179
420
  2234388
370
     9
100
AcDbVertex
100
AcDb2dVertex
 10
77.71807135058015
 20
-135.9837682993374
 30
0.0
  0
SEQEND
  5
16E
330
16B
100
AcDbEntity
  8
_U+30EC_U+30A4_U+30E4_U+30FC 1
 62
   179
420
  2234388
370
     9
  0
POLYLINE
  5
16F
330
1F
100
AcDbEntity
  8
_U+30EC_U+30A4_U+30E4_U+30FC 1
 62
   179
420
  2234388
370
     9
100
AcDb2dPolyline
 66
     1
 10
0.0
 20
0.0
 30
0.0
  0
VERTEX
  5
170
330
16F
100
AcDbEntity
  8
_U+30EC_U+30A4_U+30E4_U+30FC 1
 62
   179
420
  2234388
370
     9
100
AcDbVertex
100
AcDb2dVertex
 10
81.17970320671101
 20
-135.1459210773246
 30
0.0
  0
VERTEX
  5
171
330
16F
100
AcDbEntity
  8
_U+30EC_U+30A4_U+30E4_U+30FC 1
 62
   179
420
  2234388
370
     9
100
AcDbVertex
100
AcDb2dVertex
 10
81.17970320671101
 20
-135.9837682993374
 30
0.0
  0
SEQEND
  5
172
330
16F
100
AcDbEntity
  8
_U+30EC_U+30A4_U+30E4_U+30FC 1
 62
   179
420
  2234388
370
     9
  0
POLYLINE
  5
173
330
1F
100
AcDbEntity
  8
_U+30EC_U+30A4_U+30E4_U+30FC 1
 62
   179
420
  2234388
370
     9
100
AcDb2dPolyline
 66
     1
 10
0.0
 20
0.0
 30
0.0
  0
VERTEX
  5
174
330
173
100
AcDbEntity
  8
_U+30EC_U+30A4_U+30E4_U+30FC 1
 62
   179
420
  2234388
370
     9
100
AcDbVertex
100
AcDb2dVertex
 10
101.5366032429188
 20
-129.7822524675541
 30
0.0
  0
VERTEX
  5
175
330
173
100
AcDbEntity
  8
_U+30EC_U+30A4_U+30E4_U+30FC 1
 62
   179
420
  2234388
370
     9
100
AcDbVertex
100
AcDb2dVertex
 10
101.3688221360881
 20
-129.8911196897492
 30
0.0
  0
VERTEX
  5
176
330
173
100
AcDbEntity
  8
_U+30EC_U+30A4_U+30E4_U+30FC 1
 62
   179
420
  2234388
370
     9
100
AcDbVertex
100
AcDb2dVertex
 10
101.5038654659762
 20
-130.0547733008197
 30
0.0
  0
VERTEX
  5
177
330
173
100
AcDbEntity
  8
_U+30EC_U+30A4_U+30E4_U+30FC 1
 62
   179
420
  2234388
370
     9
100
AcDbVertex
100
AcDb2dVertex
 10
102.987684039232
 20
-130.0547733008197
 30
0.0
  0
VERTEX
  5
178
330
173
100
AcDbEntity
  8
_U+30EC_U+30A4_U+30E4_U+30FC 1
 62
   179
420
  2234388
370
     9
100
AcDbVertex
100
AcDb2dVertex
 10
103.1217043135906
 20
-129.9455533008468
 30
0.0
  0
VERTEX
  5
179
330
173
100
AcDbEntity
  8
_U+30EC_U+30A4_U+30E4_U+30FC 1
 62
   179
420
  2234388
370
     9
100
AcDbVertex
100
AcDb2dVertex
 10
102.9367076516436
 20
-129.7960460786624
 30
0.0
  0
VERTEX
  5
17A
330
173
100
AcDbEntity
  8
_U+30EC_U+30A4_U+30E4_U+30FC 1
 62
   179
420
  2234388
370
     9
100
AcDbVertex
100
AcDb2dVertex
 10
101.5366032429188
 20
-129.7822524675541
 30
0.0
  0
SEQEND
  5
17B
330
173
100
AcDbEntity
  8
_U+30EC_U+30A4_U+30E4_U+30FC 1
 62
   179
420
  2234388
370
     9
  0
POLYLINE
  5
17C
330
1F
100
AcDbEntity
  8
_U+30EC_U+30A4_U+30E4_U+30FC 1
 62
   179
420
  2234388
370
     9
100
AcDb2dPolyline
 66
     1
 10
0.0
 20
0.0
 30
0.0
  0
VERTEX
  5
17D
330
17C
100
AcDbEntity
  8
_U+30EC_U+30A4_U+30E4_U+30FC 1
 62
   179
420
  2234388
370
     9
100
AcDbVertex
100
AcDb2dVertex
 10
101.3688221360881
 20
-129.8911196897492
 30
0.0
  0
VERTEX
  5
17E
330
17C
100
AcDbEntity
  8
_U+30EC_U+30A4_U+30E4_U+30FC 1
 62
   179
420
  2234388
370
     9
100
AcDbVertex
100
AcDb2dVertex
 10
103.1217043135906
 20
-129.9455533008468
 30
0.0
  0
SEQEND
  5
17F
330
17C
100
AcDbEntity
  8
_U+30EC_U+30A4_U+30E4_U+30FC 1
 62
   179
420
  2234388
370
     9
  0
POLYLINE
  5
180
330
1F
100
AcDbEntity
  8
_U+30EC_U+30A4_U+30E4_U+30FC 1
 62
   179
420
  2234388
370
     9
100
AcDb2dPolyline
 66
     1
 10
0.0
 20
0.0
 30
0.0
  0
VERTEX
  5
181
330
180
100
AcDbEntity
  8
_U+30EC_U+30A4_U+30E4_U+30FC 1
 62
   179
420
  2234388
370
     9
100
AcDbVertex
100
AcDb2dVertex
 10
101.6244449073444
 20
-132.2555069113803
 30
0.0
  0
VERTEX
  5
182
330
180
100
AcDbEntity
  8
_U+30EC_U+30A4_U+30E4_U+30FC 1
 62
   179
420
  2234388
370
     9
100
AcDbVertex
100
AcDb2dVertex
 10
101.4642485225425
 20
-132.3747105224617
 30
0.0
  0
VERTEX
  5
183
330
180
100
AcDbEntity
  8
_U+30EC_U+30A4_U+30E4_U+30FC 1
 62
   179
420
  2234388
370
     9
100
AcDbVertex
100
AcDb2dVertex
 10
101.593118241477
 20
-132.5538510779729
 30
0.0
  0
VERTEX
  5
184
330
180
100
AcDbEntity
  8
_U+30EC_U+30A4_U+30E4_U+30FC 1
 62
   179
420
  2234388
370
     9
100
AcDbVertex
100
AcDb2dVertex
 10
103.0118166409139
 20
-132.5538510779729
 30
0.0
  0
VERTEX
  5
185
330
180
100
AcDbEntity
  8
_U+30EC_U+30A4_U+30E4_U+30FC 1
 62
   179
420
  2234388
370
     9
100
AcDbVertex
100
AcDb2dVertex
 10
103.1399429242364
 20
-132.4342946891137
 30
0.0
  0
VERTEX
  5
186
330
180
100
AcDbEntity
  8
_U+30EC_U+30A4_U+30E4_U+30FC 1
 62
   179
420
  2234388
370
     9
100
AcDbVertex
100
AcDb2dVertex
 10
102.9628837620869
 20
-132.2703235780437
 30
0.0
  0
VERTEX
  5
187
330
180
100
AcDbEntity
  8
_U+30EC_U+30A4_U+30E4_U+30FC 1
 62
   179
420
  2234388
370
     9
100
AcDbVertex
100
AcDb2dVertex
 10
101.6244449073444
 20
-132.2555069113803
 30
0.0
  0
SEQEND
  5
188
330
180
100
AcDbEntity
  8
_U+30EC_U+30A4_U+30E4_U+30FC 1
 62
   179
420
  2234388
370
     9
  0
POLYLINE
  5
189
330
1F
100
AcDbEntity
  8
_U+30EC_U+30A4_U+30E4_U+30FC 1
 62
   179
420
  2234388
370
     9
100
AcDb2dPolyline
 66
     1
 10
0.0
 20
0.0
 30
0.0
  0
VERTEX
  5
18A
330
189
100
AcDbEntity
  8
_U+30EC_U+30A4_U+30E4_U+30FC 1
 62
   179
420
  2234388
370
     9
100
AcDbVertex
100
AcDb2dVertex
 10
101.4642485225425
 20
-132.3747105224617
 30
0.0
  0
VERTEX
  5
18B
330
189
100
AcDbEntity
  8
_U+30EC_U+30A4_U+30E4_U+30FC 1
 62
   179
420
  2234388
370
     9
100
AcDbVertex
100
AcDb2dVertex
 10
103.1399429242364
 20
-132.4342946891137
 30
0.0
  0
SEQEND
  5
18C
330
189
100
AcDbEntity
  8
_U+30EC_U+30A4_U+30E4_U+30FC 1
 62
   179
420
  2234388
370
     9
  0
POLYLINE
  5
18D
330
1F
100
AcDbEntity
  8
_U+30EC_U+30A4_U+30E4_U+30FC 1
 62
   179
420
  2234388
370
     9
100
AcDb2dPolyline
 66
     1
 10
0.0
 20
0.0
 30
0.0
  0
VERTEX
  5
18E
330
18D
100
AcDbEntity
  8
_U+30EC_U+30A4_U+30E4_U+30FC 1
 62
   179
420
  2234388
370
     9
100
AcDbVertex
100
AcDb2dVertex
 10
101.6244449073444
 20
-132.5455608001968
 30
0.0
  0
VERTEX
  5
18F
330
18D
100
AcDbEntity
  8
_U+30EC_U+30A4_U+30E4_U+30FC 1
 62
   179
420
  2234388
370
     9
100
AcDbVertex
100
AcDb2dVertex
 10
101.4642485225425
 20
-132.6654699668338
 30
0.0
  0
VERTEX
  5
190
330
18D
100
AcDbEntity
  8
_U+30EC_U+30A4_U+30E4_U+30FC 1
 62
   179
420
  2234388
370
     9
100
AcDbVertex
100
AcDb2dVertex
 10
101.593118241477
 20
-132.8439049667888
 30
0.0
  0
VERTEX
  5
191
330
18D
100
AcDbEntity
  8
_U+30EC_U+30A4_U+30E4_U+30FC 1
 62
   179
420
  2234388
370
     9
100
AcDbVertex
100
AcDb2dVertex
 10
103.0118166409139
 20
-132.8439049667888
 30
0.0
  0
VERTEX
  5
192
330
18D
100
AcDbEntity
  8
_U+30EC_U+30A4_U+30E4_U+30FC 1
 62
   179
420
  2234388
370
     9
100
AcDbVertex
100
AcDb2dVertex
 10
103.1399429242364
 20
-132.7254069112629
 30
0.0
  0
VERTEX
  5
193
330
18D
100
AcDbEntity
  8
_U+30EC_U+30A4_U+30E4_U+30FC 1
 62
   179
420
  2234388
370
     9
100
AcDbVertex
100
AcDb2dVertex
 10
102.9628837620869
 20
-132.5614005224154
 30
0.0
  0
VERTEX
  5
194
330
18D
100
AcDbEntity
  8
_U+30EC_U+30A4_U+30E4_U+30FC 1
 62
   179
420
  2234388
370
     9
100
AcDbVertex
100
AcDb2dVertex
 10
101.6244449073444
 20
-132.5455608001968
 30
0.0
  0
SEQEND
  5
195
330
18D
100
AcDbEntity
  8
_U+30EC_U+30A4_U+30E4_U+30FC 1
 62
   179
420
  2234388
370
     9
  0
POLYLINE
  5
196
330
1F
100
AcDbEntity
  8
_U+30EC_U+30A4_U+30E4_U+30FC 1
 62
   179
420
  2234388
370
     9
100
AcDb2dPolyline
 66
     1
 10
0.0
 20
0.0
 30
0.0
  0
VERTEX
  5
197
330
196
100
AcDbEntity
  8
_U+30EC_U+30A4_U+30E4_U+30FC 1
 62
   179
420
  2234388
370
     9
100
AcDbVertex
100
AcDb2dVertex
 10
101.4642485225425
 20
-132.6654699668338
 30
0.0
  0
VERTEX
  5
198
330
196
100
AcDbEntity
  8
_U+30EC_U+30A4_U+30E4_U+30FC 1
 62
   179
420
  2234388
370
     9
100
AcDbVertex
100
AcDb2dVertex
 10
103.1399429242364
 20
-132.7254069112629
 30
0.0
  0
SEQEND
  5
199
330
196
100
AcDbEntity
  8
_U+30EC_U+30A4_U+30E4_U+30FC 1
 62
   179
420
  2234388
370
     9
  0
POLYLINE
  5
19A
330
1F
100
AcDbEntity
  8
_U+30EC_U+30A4_U+30E4_U+30FC 1
 62
   179
420
  2234388
370
     9
100
AcDb2dPolyline
 66
     1
 10
0.0
 20
0.0
 30
0.0
  0
VERTEX
  5
19B
330
19A
100
AcDbEntity
  8
_U+30EC_U+30A4_U+30E4_U+30FC 1
 62
   179
420
  2234388
370
     9
100
AcDbVertex
100
AcDb2dVertex
 10
101.6244449073444
 20
-132.8363202445689
 30
0.0
  0
VERTEX
  5
19C
330
19A
100
AcDbEntity
  8
_U+30EC_U+30A4_U+30E4_U+30FC 1
 62
   179
420
  2234388
370
     9
100
AcDbVertex
100
AcDb2dVertex
 10
101.4642485225425
 20
-132.9562294112052
 30
0.0
  0
VERTEX
  5
19D
330
19A
100
AcDbEntity
  8
_U+30EC_U+30A4_U+30E4_U+30FC 1
 62
   179
420
  2234388
370
     9
100
AcDbVertex
100
AcDb2dVertex
 10
101.593118241477
 20
-133.1353699667165
 30
0.0
  0
VERTEX
  5
19E
330
19A
100
AcDbEntity
  8
_U+30EC_U+30A4_U+30E4_U+30FC 1
 62
   179
420
  2234388
370
     9
100
AcDbVertex
100
AcDb2dVertex
 10
103.0118166409139
 20
-133.1353699667165
 30
0.0
  0
VERTEX
  5
19F
330
19A
100
AcDbEntity
  8
_U+30EC_U+30A4_U+30E4_U+30FC 1
 62
   179
420
  2234388
370
     9
100
AcDbVertex
100
AcDb2dVertex
 10
103.1399429242364
 20
-133.016166355635
 30
0.0
  0
VERTEX
  5
1A0
330
19A
100
AcDbEntity
  8
_U+30EC_U+30A4_U+30E4_U+30FC 1
 62
   179
420
  2234388
370
     9
100
AcDbVertex
100
AcDb2dVertex
 10
102.9628837620869
 20
-132.852195244565
 30
0.0
  0
VERTEX
  5
1A1
330
19A
100
AcDbEntity
  8
_U+30EC_U+30A4_U+30E4_U+30FC 1
 62
   179
420
  2234388
370
     9
100
AcDbVertex
100
AcDb2dVertex
 10
101.6244449073444
 20
-132.8363202445689
 30
0.0
  0
SEQEND
  5
1A2
330
19A
100
AcDbEntity
  8
_U+30EC_U+30A4_U+30E4_U+30FC 1
 62
   179
420
  2234388
370
     9
  0
POLYLINE
  5
1A3
330
1F
100
AcDbEntity
  8
_U+30EC_U+30A4_U+30E4_U+30FC 1
 62
   179
420
  2234388
370
     9
100
AcDb2dPolyline
 66
     1
 10
0.0
 20
0.0
 30
0.0
  0
VERTEX
  5
1A4
330
1A3
100
AcDbEntity
  8
_U+30EC_U+30A4_U+30E4_U+30FC 1
 62
   179
420
  2234388
370
     9
100
AcDbVertex
100
AcDb2dVertex
 10
101.4642485225425
 20
-132.9562294112052
 30
0.0
  0
VERTEX
  5
1A5
330
1A3
100
AcDbEntity
  8
_U+30EC_U+30A4_U+30E4_U+30FC 1
 62
   179
420
  2234388
370
     9
100
AcDbVertex
100
AcDb2dVertex
 10
103.1399429242364
 20
-133.016166355635
 30
0.0
  0
SEQEND
  5
1A6
330
1A3
100
AcDbEntity
  8
_U+30EC_U+30A4_U+30E4_U+30FC 1
 62
   179
420
  2234388
370
     9
  0
POLYLINE
  5
1A7
330
1F
100
AcDbEntity
  8
_U+30EC_U+30A4_U+30E4_U+30FC 1
 62
   179
420
  2234388
370
     9
100
AcDb2dPolyline
 66
     1
 10
0.0
 20
0.0
 30
0.0
  0
VERTEX
  5
1A8
330
1A7
100
AcDbEntity
  8
_U+30EC_U+30A4_U+30E4_U+30FC 1
 62
   179
420
  2234388
370
     9
100
AcDbVertex
100
AcDb2dVertex
 10
101.6244449073444
 20
-133.1353699667165
 30
0.0
  0
VERTEX
  5
1A9
330
1A7
100
AcDbEntity
  8
_U+30EC_U+30A4_U+30E4_U+30FC 1
 62
   179
420
  2234388
370
     9
100
AcDbVertex
100
AcDb2dVertex
 10
101.4642485225425
 20
-133.254926355575
 30
0.0
  0
VERTEX
  5
1AA
330
1A7
100
AcDbEntity
  8
_U+30EC_U+30A4_U+30E4_U+30FC 1
 62
   179
420
  2234388
370
     9
100
AcDbVertex
100
AcDb2dVertex
 10
101.593118241477
 20
-133.4337141333085
 30
0.0
  0
VERTEX
  5
1AB
330
1A7
100
AcDbEntity
  8
_U+30EC_U+30A4_U+30E4_U+30FC 1
 62
   179
420
  2234388
370
     9
100
AcDbVertex
100
AcDb2dVertex
 10
103.0118166409139
 20
-133.4337141333085
 30
0.0
  0
VERTEX
  5
1AC
330
1A7
100
AcDbEntity
  8
_U+30EC_U+30A4_U+30E4_U+30FC 1
 62
   179
420
  2234388
370
     9
100
AcDbVertex
100
AcDb2dVertex
 10
103.1399429242364
 20
-133.314510522227
 30
0.0
  0
VERTEX
  5
1AD
330
1A7
100
AcDbEntity
  8
_U+30EC_U+30A4_U+30E4_U+30FC 1
 62
   179
420
  2234388
370
     9
100
AcDbVertex
100
AcDb2dVertex
 10
102.9628837620869
 20
-133.150539411157
 30
0.0
  0
VERTEX
  5
1AE
330
1A7
100
AcDbEntity
  8
_U+30EC_U+30A4_U+30E4_U+30FC 1
 62
   179
420
  2234388
370
     9
100
AcDbVertex
100
AcDb2dVertex
 10
101.6244449073444
 20
-133.1353699667165
 30
0.0
  0
SEQEND
  5
1AF
330
1A7
100
AcDbEntity
  8
_U+30EC_U+30A4_U+30E4_U+30FC 1
 62
   179
420
  2234388
370
     9
  0
POLYLINE
  5
1B0
330
1F
100
AcDbEntity
  8
_U+30EC_U+30A4_U+30E4_U+30FC 1
 62
   179
420
  2234388
370
     9
100
AcDb2dPolyline
 66
     1
 10
0.0
 20
0.0
 30
0.0
  0
VERTEX
  5
1B1
330
1B0
100
AcDbEntity
  8
_U+30EC_U+30A4_U+30E4_U+30FC 1
 62
   179
420
  2234388
370
     9
100
AcDbVertex
100
AcDb2dVertex
 10
101.4642485225425
 20
-133.254926355575
 30
0.0
  0
VERTEX
  5
1B2
330
1B0
100
AcDbEntity
  8
_U+30EC_U+30A4_U+30E4_U+30FC 1
 62
   179
420
  2234388
370
     9
100
AcDbVertex
100
AcDb2dVertex
 10
103.1399429242364
 20
-133.314510522227
 30
0.0
  0
SEQEND
  5
1B3
330
1B0
100
AcDbEntity
  8
_U+30EC_U+30A4_U+30E4_U+30FC 1
 62
   179
420
  2234388
370
     9
  0
POLYLINE
  5
1B4
330
1F
100
AcDbEntity
  8
_U+30EC_U+30A4_U+30E4_U+30FC 1
 62
   179
420
  2234388
370
     9
100
AcDb2dPolyline
 66
     1
 10
0.0
 20
0.0
 30
0.0
  0
VERTEX
  5
1B5
330
1B4
100
AcDbEntity
  8
_U+30EC_U+30A4_U+30E4_U+30FC 1
 62
   179
420
  2234388
370
     9
100
AcDbVertex
100
AcDb2dVertex
 10
101.6244449073444
 20
-133.4144171888687
 30
0.0
  0
VERTEX
  5
1B6
330
1B4
100
AcDbEntity
  8
_U+30EC_U+30A4_U+30E4_U+30FC 1
 62
   179
420
  2234388
370
     9
100
AcDbVertex
100
AcDb2dVertex
 10
101.4642485225425
 20
-133.4936510777376
 30
0.0
  0
VERTEX
  5
1B7
330
1B4
100
AcDbEntity
  8
_U+30EC_U+30A4_U+30E4_U+30FC 1
 62
   179
420
  2234388
370
     9
100
AcDbVertex
100
AcDb2dVertex
 10
101.593118241477
 20
-133.6114788554862
 30
0.0
  0
VERTEX
  5
1B8
330
1B4
100
AcDbEntity
  8
_U+30EC_U+30A4_U+30E4_U+30FC 1
 62
   179
420
  2234388
370
     9
100
AcDbVertex
100
AcDb2dVertex
 10
103.0118166409139
 20
-133.6114788554862
 30
0.0
  0
VERTEX
  5
1B9
330
1B4
100
AcDbEntity
  8
_U+30EC_U+30A4_U+30E4_U+30FC 1
 62
   179
420
  2234388
370
     9
100
AcDbVertex
100
AcDb2dVertex
 10
103.1399429242364
 20
-133.5329505221721
 30
0.0
  0
VERTEX
  5
1BA
330
1B4
100
AcDbEntity
  8
_U+30EC_U+30A4_U+30E4_U+30FC 1
 62
   179
420
  2234388
370
     9
100
AcDbVertex
100
AcDb2dVertex
 10
102.9628837620869
 20
-133.4244007999773
 30
0.0
  0
VERTEX
  5
1BB
330
1B4
100
AcDbEntity
  8
_U+30EC_U+30A4_U+30E4_U+30FC 1
 62
   179
420
  2234388
370
     9
100
AcDbVertex
100
AcDb2dVertex
 10
101.6244449073444
 20
-133.4144171888687
 30
0.0
  0
SEQEND
  5
1BC
330
1B4
100
AcDbEntity
  8
_U+30EC_U+30A4_U+30E4_U+30FC 1
 62
   179
420
  2234388
370
     9
  0
POLYLINE
  5
1BD
330
1F
100
AcDbEntity
  8
_U+30EC_U+30A4_U+30E4_U+30FC 1
 62
   179
420
  2234388
370
     9
100
AcDb2dPolyline
 66
     1
 10
0.0
 20
0.0
 30
0.0
  0
VERTEX
  5
1BE
330
1BD
100
AcDbEntity
  8
_U+30EC_U+30A4_U+30E4_U+30FC 1
 62
   179
420
  2234388
370
     9
100
AcDbVertex
100
AcDb2dVertex
 10
101.5366032429188
 20
-129.5097669120668
 30
0.0
  0
VERTEX
  5
1BF
330
1BD
100
AcDbEntity
  8
_U+30EC_U+30A4_U+30E4_U+30FC 1
 62
   179
420
  2234388
370
     9
100
AcDbVertex
100
AcDb2dVertex
 10
101.3688221360881
 20
-129.6193044120399
 30
0.0
  0
VERTEX
  5
1C0
330
1BD
100
AcDbEntity
  8
_U+30EC_U+30A4_U+30E4_U+30FC 1
 62
   179
420
  2234388
370
     9
100
AcDbVertex
100
AcDb2dVertex
 10
101.5038654659762
 20
-129.7822524675541
 30
0.0
  0
VERTEX
  5
1C1
330
1BD
100
AcDbEntity
  8
_U+30EC_U+30A4_U+30E4_U+30FC 1
 62
   179
420
  2234388
370
     9
100
AcDbVertex
100
AcDb2dVertex
 10
102.987684039232
 20
-129.7822524675541
 30
0.0
  0
VERTEX
  5
1C2
330
1BD
100
AcDbEntity
  8
_U+30EC_U+30A4_U+30E4_U+30FC 1
 62
   179
420
  2234388
370
     9
100
AcDbVertex
100
AcDb2dVertex
 10
103.1217043135906
 20
-129.6730324675819
 30
0.0
  0
VERTEX
  5
1C3
330
1BD
100
AcDbEntity
  8
_U+30EC_U+30A4_U+30E4_U+30FC 1
 62
   179
420
  2234388
370
     9
100
AcDbVertex
100
AcDb2dVertex
 10
102.9367076516436
 20
-129.5235252453969
 30
0.0
  0
VERTEX
  5
1C4
330
1BD
100
AcDbEntity
  8
_U+30EC_U+30A4_U+30E4_U+30FC 1
 62
   179
420
  2234388
370
     9
100
AcDbVertex
100
AcDb2dVertex
 10
101.5366032429188
 20
-129.5097669120668
 30
0.0
  0
SEQEND
  5
1C5
330
1BD
100
AcDbEntity
  8
_U+30EC_U+30A4_U+30E4_U+30FC 1
 62
   179
420
  2234388
370
     9
  0
POLYLINE
  5
1C6
330
1F
100
AcDbEntity
  8
_U+30EC_U+30A4_U+30E4_U+30FC 1
 62
   179
420
  2234388
370
     9
100
AcDb2dPolyline
 66
     1
 10
0.0
 20
0.0
 30
0.0
  0
VERTEX
  5
1C7
330
1C6
100
AcDbEntity
  8
_U+30EC_U+30A4_U+30E4_U+30FC 1
 62
   179
420
  2234388
370
     9
100
AcDbVertex
100
AcDb2dVertex
 10
101.3688221360881
 20
-129.6193044120399
 30
0.0
  0
VERTEX
  5
1C8
330
1C6
100
AcDbEntity
  8
_U+30EC_U+30A4_U+30E4_U+30FC 1
 62
   179
420
  2234388
370
     9
100
AcDbVertex
100
AcDb2dVertex
 10
103.1217043135906
 20
-129.6730324675819
 30
0.0
  0
SEQEND
  5
1C9
330
1C6
100
AcDbEntity
  8
_U+30EC_U+30A4_U+30E4_U+30FC 1
 62
   179
420
  2234388
370
     9
  0
POLYLINE
  5
1CA
330
1F
100
AcDbEntity
  8
_U+30EC_U+30A4_U+30E4_U+30FC 1
 62
   179
420
  2234388
370
     9
100
AcDb2dPolyline
 66
     1
 10
0.0
 20
0.0
 30
0.0
  0
VERTEX
  5
1CB
330
1CA
100
AcDbEntity
  8
_U+30EC_U+30A4_U+30E4_U+30FC 1
 62
   179
420
  2234388
370
     9
100
AcDbVertex
100
AcDb2dVertex
 10
101.5366032429188
 20
-129.2134688565856
 30
0.0
  0
VERTEX
  5
1CC
330
1CA
100
AcDbEntity
  8
_U+30EC_U+30A4_U+30E4_U+30FC 1
 62
   179
420
  2234388
370
     9
100
AcDbVertex
100
AcDb2dVertex
 10
101.3688221360881
 20
-129.3230416343356
 30
0.0
  0
VERTEX
  5
1CD
330
1CA
100
AcDbEntity
  8
_U+30EC_U+30A4_U+30E4_U+30FC 1
 62
   179
420
  2234388
370
     9
100
AcDbVertex
100
AcDb2dVertex
 10
101.5038654659762
 20
-129.4856369120727
 30
0.0
  0
VERTEX
  5
1CE
330
1CA
100
AcDbEntity
  8
_U+30EC_U+30A4_U+30E4_U+30FC 1
 62
   179
420
  2234388
370
     9
100
AcDbVertex
100
AcDb2dVertex
 10
102.987684039232
 20
-129.4856369120727
 30
0.0
  0
VERTEX
  5
1CF
330
1CA
100
AcDbEntity
  8
_U+30EC_U+30A4_U+30E4_U+30FC 1
 62
   179
420
  2234388
370
     9
100
AcDbVertex
100
AcDb2dVertex
 10
103.1217043135906
 20
-129.3771224676561
 30
0.0
  0
VERTEX
  5
1D0
330
1CA
100
AcDbEntity
  8
_U+30EC_U+30A4_U+30E4_U+30FC 1
 62
   179
420
  2234388
370
     9
100
AcDbVertex
100
AcDb2dVertex
 10
102.9367076516436
 20
-129.2272624676933
 30
0.0
  0
VERTEX
  5
1D1
330
1CA
100
AcDbEntity
  8
_U+30EC_U+30A4_U+30E4_U+30FC 1
 62
   179
420
  2234388
370
     9
100
AcDbVertex
100
AcDb2dVertex
 10
101.5366032429188
 20
-129.2134688565856
 30
0.0
  0
SEQEND
  5
1D2
330
1CA
100
AcDbEntity
  8
_U+30EC_U+30A4_U+30E4_U+30FC 1
 62
   179
420
  2234388
370
     9
  0
POLYLINE
  5
1D3
330
1F
100
AcDbEntity
  8
_U+30EC_U+30A4_U+30E4_U+30FC 1
 62
   179
420
  2234388
370
     9
100
AcDb2dPolyline
 66
     1
 10
0.0
 20
0.0
 30
0.0
  0
VERTEX
  5
1D4
330
1D3
100
AcDbEntity
  8
_U+30EC_U+30A4_U+30E4_U+30FC 1
 62
   179
420
  2234388
370
     9
100
AcDbVertex
100
AcDb2dVertex
 10
101.3688221360881
 20
-129.3230416343356
 30
0.0
  0
VERTEX
  5
1D5
330
1D3
100
AcDbEntity
  8
_U+30EC_U+30A4_U+30E4_U+30FC 1
 62
   179
420
  2234388
370
     9
100
AcDbVertex
100
AcDb2dVertex
 10
103.1217043135906
 20
-129.3771224676561
 30
0.0
  0
SEQEND
  5
1D6
330
1D3
100
AcDbEntity
  8
_U+30EC_U+30A4_U+30E4_U+30FC 1
 62
   179
420
  2234388
370
     9
  0
POLYLINE
  5
1D7
330
1F
100
AcDbEntity
  8
_U+30EC_U+30A4_U+30E4_U+30FC 1
 62
   179
420
  2234388
370
     9
100
AcDb2dPolyline
 66
     1
 10
0.0
 20
0.0
 30
0.0
  0
VERTEX
  5
1D8
330
1D7
100
AcDbEntity
  8
_U+30EC_U+30A4_U+30E4_U+30FC 1
 62
   179
420
  2234388
370
     9
100
AcDbVertex
100
AcDb2dVertex
 10
101.5366032429188
 20
-128.9488855233184
 30
0.0
  0
VERTEX
  5
1D9
330
1D7
100
AcDbEntity
  8
_U+30EC_U+30A4_U+30E4_U+30FC 1
 62
   179
420
  2234388
370
     9
100
AcDbVertex
100
AcDb2dVertex
 10
101.3688221360881
 20
-129.0577527455135
 30
0.0
  0
VERTEX
  5
1DA
330
1D7
100
AcDbEntity
  8
_U+30EC_U+30A4_U+30E4_U+30FC 1
 62
   179
420
  2234388
370
     9
100
AcDbVertex
100
AcDb2dVertex
 10
101.5038654659762
 20
-129.2210535788056
 30
0.0
  0
VERTEX
  5
1DB
330
1D7
100
AcDbEntity
  8
_U+30EC_U+30A4_U+30E4_U+30FC 1
 62
   179
420
  2234388
370
     9
100
AcDbVertex
100
AcDb2dVertex
 10
102.987684039232
 20
-129.2210535788056
 30
0.0
  0
VERTEX
  5
1DC
330
1D7
100
AcDbEntity
  8
_U+30EC_U+30A4_U+30E4_U+30FC 1
 62
   179
420
  2234388
370
     9
100
AcDbVertex
100
AcDb2dVertex
 10
103.1217043135906
 20
-129.1121863566111
 30
0.0
  0
VERTEX
  5
1DD
330
1D7
100
AcDbEntity
  8
_U+30EC_U+30A4_U+30E4_U+30FC 1
 62
   179
420
  2234388
370
     9
100
AcDbVertex
100
AcDb2dVertex
 10
102.9367076516436
 20
-128.9623263566483
 30
0.0
  0
VERTEX
  5
1DE
330
1D7
100
AcDbEntity
  8
_U+30EC_U+30A4_U+30E4_U+30FC 1
 62
   179
420
  2234388
370
     9
100
AcDbVertex
100
AcDb2dVertex
 10
101.5366032429188
 20
-128.9488855233184
 30
0.0
  0
SEQEND
  5
1DF
330
1D7
100
AcDbEntity
  8
_U+30EC_U+30A4_U+30E4_U+30FC 1
 62
   179
420
  2234388
370
     9
  0
POLYLINE
  5
1E0
330
1F
100
AcDbEntity
  8
_U+30EC_U+30A4_U+30E4_U+30FC 1
 62
   179
420
  2234388
370
     9
100
AcDb2dPolyline
 66
     1
 10
0.0
 20
0.0
 30
0.0
  0
VERTEX
  5
1E1
330
1E0
100
AcDbEntity
  8
_U+30EC_U+30A4_U+30E4_U+30FC 1
 62
   179
420
  2234388
370
     9
100
AcDbVertex
100
AcDb2dVertex
 10
101.3688221360881
 20
-129.0577527455135
 30
0.0
  0
VERTEX
  5
1E2
330
1E0
100
AcDbEntity
  8
_U+30EC_U+30A4_U+30E4_U+30FC 1
 62
   179
420
  2234388
370
     9
100
AcDbVertex
100
AcDb2dVertex
 10
103.1217043135906
 20
-129.1121863566111
 30
0.0
  0
SEQEND
  5
1E3
330
1E0
100
AcDbEntity
  8
_U+30EC_U+30A4_U+30E4_U+30FC 1
 62
   179
420
  2234388
370
     9
  0
POLYLINE
  5
1E4
330
1F
100
AcDbEntity
  8
_U+30EC_U+30A4_U+30E4_U+30FC 1
 62
   179
420
  2234388
370
     9
100
AcDb2dPolyline
 66
     1
 10
0.0
 20
0.0
 30
0.0
  0
VERTEX
  5
1E5
330
1E4
100
AcDbEntity
  8
_U+30EC_U+30A4_U+30E4_U+30FC 1
 62
   179
420
  2234388
370
     9
100
AcDbVertex
100
AcDb2dVertex
 10
101.5338515763223
 20
-128.691181356716
 30
0.0
  0
VERTEX
  5
1E6
330
1E4
100
AcDbEntity
  8
_U+30EC_U+30A4_U+30E4_U+30FC 1
 62
   179
420
  2234388
370
     9
100
AcDbVertex
100
AcDb2dVertex
 10
101.3677990805587
 20
-128.8035058011327
 30
0.0
  0
VERTEX
  5
1E7
330
1E4
100
AcDbEntity
  8
_U+30EC_U+30A4_U+30E4_U+30FC 1
 62
   179
420
  2234388
370
     9
100
AcDbVertex
100
AcDb2dVertex
 10
101.5069699103415
 20
-128.9647252455363
 30
0.0
  0
VERTEX
  5
1E8
330
1E4
100
AcDbEntity
  8
_U+30EC_U+30A4_U+30E4_U+30FC 1
 62
   179
420
  2234388
370
     9
100
AcDbVertex
100
AcDb2dVertex
 10
102.9904357058284
 20
-128.9406305233205
 30
0.0
  0
VERTEX
  5
1E9
330
1E4
100
AcDbEntity
  8
_U+30EC_U+30A4_U+30E4_U+30FC 1
 62
   179
420
  2234388
370
     9
100
AcDbVertex
100
AcDb2dVertex
 10
103.1230801468888
 20
-128.8290116344596
 30
0.0
  0
VERTEX
  5
1EA
330
1E4
100
AcDbEntity
  8
_U+30EC_U+30A4_U+30E4_U+30FC 1
 62
   179
420
  2234388
370
     9
100
AcDbVertex
100
AcDb2dVertex
 10
102.9336032072783
 20
-128.6822560789407
 30
0.0
  0
VERTEX
  5
1EB
330
1E4
100
AcDbEntity
  8
_U+30EC_U+30A4_U+30E4_U+30FC 1
 62
   179
420
  2234388
370
     9
100
AcDbVertex
100
AcDb2dVertex
 10
101.5338515763223
 20
-128.691181356716
 30
0.0
  0
SEQEND
  5
1EC
330
1E4
100
AcDbEntity
  8
_U+30EC_U+30A4_U+30E4_U+30FC 1
 62
   179
420
  2234388
370
     9
  0
POLYLINE
  5
1ED
330
1F
100
AcDbEntity
  8
_U+30EC_U+30A4_U+30E4_U+30FC 1
 62
   179
420
  2234388
370
     9
100
AcDb2dPolyline
 66
     1
 10
0.0
 20
0.0
 30
0.0
  0
VERTEX
  5
1EE
330
1ED
100
AcDbEntity
  8
_U+30EC_U+30A4_U+30E4_U+30FC 1
 62
   179
420
  2234388
370
     9
100
AcDbVertex
100
AcDb2dVertex
 10
101.3677990805587
 20
-128.8035058011327
 30
0.0
  0
VERTEX
  5
1EF
330
1ED
100
AcDbEntity
  8
_U+30EC_U+30A4_U+30E4_U+30FC 1
 62
   179
420
  2234388
370
     9
100
AcDbVertex
100
AcDb2dVertex
 10
103.1230801468888
 20
-128.8290116344596
 30
0.0
  0
SEQEND
  5
1F0
330
1ED
100
AcDbEntity
  8
_U+30EC_U+30A4_U+30E4_U+30FC 1
 62
   179
420
  2234388
370
     9
  0
POLYLINE
  5
1F1
330
1F
100
AcDbEntity
  8
_U+30EC_U+30A4_U+30E4_U+30FC 1
 62
   179
420
  2234388
370
     9
100
AcDb2dPolyline
 66
     1
 10
0.0
 20
0.0
 30
0.0
  0
VERTEX
  5
1F2
330
1F1
100
AcDbEntity
  8
_U+30EC_U+30A4_U+30E4_U+30FC 1
 62
   179
420
  2234388
370
     9
100
AcDbVertex
100
AcDb2dVertex
 10
101.5366032429188
 20
-128.4114638567861
 30
0.0
  0
VERTEX
  5
1F3
330
1F1
100
AcDbEntity
  8
_U+30EC_U+30A4_U+30E4_U+30FC 1
 62
   179
420
  2234388
370
     9
100
AcDbVertex
100
AcDb2dVertex
 10
101.3688221360881
 20
-128.5199783012035
 30
0.0
  0
VERTEX
  5
1F4
330
1F1
100
AcDbEntity
  8
_U+30EC_U+30A4_U+30E4_U+30FC 1
 62
   179
420
  2234388
370
     9
100
AcDbVertex
100
AcDb2dVertex
 10
101.5038654659762
 20
-128.6836319122736
 30
0.0
  0
VERTEX
  5
1F5
330
1F1
100
AcDbEntity
  8
_U+30EC_U+30A4_U+30E4_U+30FC 1
 62
   179
420
  2234388
370
     9
100
AcDbVertex
100
AcDb2dVertex
 10
102.987684039232
 20
-128.6836319122736
 30
0.0
  0
VERTEX
  5
1F6
330
1F1
100
AcDbEntity
  8
_U+30EC_U+30A4_U+30E4_U+30FC 1
 62
   179
420
  2234388
370
     9
100
AcDbVertex
100
AcDb2dVertex
 10
103.1217043135906
 20
-128.5747646900784
 30
0.0
  0
VERTEX
  5
1F7
330
1F1
100
AcDbEntity
  8
_U+30EC_U+30A4_U+30E4_U+30FC 1
 62
   179
420
  2234388
370
     9
100
AcDbVertex
100
AcDb2dVertex
 10
102.9367076516436
 20
-128.4245519123382
 30
0.0
  0
VERTEX
  5
1F8
330
1F1
100
AcDbEntity
  8
_U+30EC_U+30A4_U+30E4_U+30FC 1
 62
   179
420
  2234388
370
     9
100
AcDbVertex
100
AcDb2dVertex
 10
101.5366032429188
 20
-128.4114638567861
 30
0.0
  0
SEQEND
  5
1F9
330
1F1
100
AcDbEntity
  8
_U+30EC_U+30A4_U+30E4_U+30FC 1
 62
   179
420
  2234388
370
     9
  0
POLYLINE
  5
1FA
330
1F
100
AcDbEntity
  8
_U+30EC_U+30A4_U+30E4_U+30FC 1
 62
   179
420
  2234388
370
     9
100
AcDb2dPolyline
 66
     1
 10
0.0
 20
0.0
 30
0.0
  0
VERTEX
  5
1FB
330
1FA
100
AcDbEntity
  8
_U+30EC_U+30A4_U+30E4_U+30FC 1
 62
   179
420
  2234388
370
     9
100
AcDbVertex
100
AcDb2dVertex
 10
101.3688221360881
 20
-128.5199783012035
 30
0.0
  0
VERTEX
  5
1FC
330
1FA
100
AcDbEntity
  8
_U+30EC_U+30A4_U+30E4_U+30FC 1
 62
   179
420
  2234388
370
     9
100
AcDbVertex
100
AcDb2dVertex
 10
103.1217043135906
 20
-128.5747646900784
 30
0.0
  0
SEQEND
  5
1FD
330
1FA
100
AcDbEntity
  8
_U+30EC_U+30A4_U+30E4_U+30FC 1
 62
   179
420
  2234388
370
     9
  0
POLYLINE
  5
1FE
330
1F
100
AcDbEntity
  8
_U+30EC_U+30A4_U+30E4_U+30FC 1
 62
   179
420
  2234388
370
     9
100
AcDb2dPolyline
 66
     1
 10
0.0
 20
0.0
 30
0.0
  0
VERTEX
  5
1FF
330
1FE
100
AcDbEntity
  8
_U+30EC_U+30A4_U+30E4_U+30FC 1
 62
   179
420
  2234388
370
     9
100
AcDbVertex
100
AcDb2dVertex
 10
101.5366032429188
 20
-128.1461749679634
 30
0.0
  0
VERTEX
  5
200
330
1FE
100
AcDbEntity
  8
_U+30EC_U+30A4_U+30E4_U+30FC 1
 62
   179
420
  2234388
370
     9
100
AcDbVertex
100
AcDb2dVertex
 10
101.3688221360881
 20
-128.2550421901585
 30
0.0
  0
VERTEX
  5
201
330
1FE
100
AcDbEntity
  8
_U+30EC_U+30A4_U+30E4_U+30FC 1
 62
   179
420
  2234388
370
     9
100
AcDbVertex
100
AcDb2dVertex
 10
101.5038654659762
 20
-128.4183430234508
 30
0.0
  0
VERTEX
  5
202
330
1FE
100
AcDbEntity
  8
_U+30EC_U+30A4_U+30E4_U+30FC 1
 62
   179
420
  2234388
370
     9
100
AcDbVertex
100
AcDb2dVertex
 10
102.987684039232
 20
-128.4183430234508
 30
0.0
  0
VERTEX
  5
203
330
1FE
100
AcDbEntity
  8
_U+30EC_U+30A4_U+30E4_U+30FC 1
 62
   179
420
  2234388
370
     9
100
AcDbVertex
100
AcDb2dVertex
 10
103.1217043135906
 20
-128.309475801256
 30
0.0
  0
VERTEX
  5
204
330
1FE
100
AcDbEntity
  8
_U+30EC_U+30A4_U+30E4_U+30FC 1
 62
   179
420
  2234388
370
     9
100
AcDbVertex
100
AcDb2dVertex
 10
102.9367076516436
 20
-128.1592630235158
 30
0.0
  0
VERTEX
  5
205
330
1FE
100
AcDbEntity
  8
_U+30EC_U+30A4_U+30E4_U+30FC 1
 62
   179
420
  2234388
370
     9
100
AcDbVertex
100
AcDb2dVertex
 10
101.5366032429188
 20
-128.1461749679634
 30
0.0
  0
SEQEND
  5
206
330
1FE
100
AcDbEntity
  8
_U+30EC_U+30A4_U+30E4_U+30FC 1
 62
   179
420
  2234388
370
     9
  0
POLYLINE
  5
207
330
1F
100
AcDbEntity
  8
_U+30EC_U+30A4_U+30E4_U+30FC 1
 62
   179
420
  2234388
370
     9
100
AcDb2dPolyline
 66
     1
 10
0.0
 20
0.0
 30
0.0
  0
VERTEX
  5
208
330
207
100
AcDbEntity
  8
_U+30EC_U+30A4_U+30E4_U+30FC 1
 62
   179
420
  2234388
370
     9
100
AcDbVertex
100
AcDb2dVertex
 10
101.3688221360881
 20
-128.2550421901585
 30
0.0
  0
VERTEX
  5
209
330
207
100
AcDbEntity
  8
_U+30EC_U+30A4_U+30E4_U+30FC 1
 62
   179
420
  2234388
370
     9
100
AcDbVertex
100
AcDb2dVertex
 10
103.1217043135906
 20
-128.309475801256
 30
0.0
  0
SEQEND
  5
20A
330
207
100
AcDbEntity
  8
_U+30EC_U+30A4_U+30E4_U+30FC 1
 62
   179
420
  2234388
370
     9
  0
POLYLINE
  5
20B
330
1F
100
AcDbEntity
  8
_U+30EC_U+30A4_U+30E4_U+30FC 1
 62
   179
420
  2234388
370
     9
100
AcDb2dPolyline
 66
     1
 10
0.0
 20
0.0
 30
0.0
  0
VERTEX
  5
20C
330
20B
100
AcDbEntity
  8
_U+30EC_U+30A4_U+30E4_U+30FC 1
 62
   179
420
  2234388
370
     9
100
AcDbVertex
100
AcDb2dVertex
 10
101.5366032429188
 20
-127.8809213569185
 30
0.0
  0
VERTEX
  5
20D
330
20B
100
AcDbEntity
  8
_U+30EC_U+30A4_U+30E4_U+30FC 1
 62
   179
420
  2234388
370
     9
100
AcDbVertex
100
AcDb2dVertex
 10
101.3688221360881
 20
-127.9897885791136
 30
0.0
  0
VERTEX
  5
20E
330
20B
100
AcDbEntity
  8
_U+30EC_U+30A4_U+30E4_U+30FC 1
 62
   179
420
  2234388
370
     9
100
AcDbVertex
100
AcDb2dVertex
 10
101.5038654659762
 20
-128.1530894124063
 30
0.0
  0
VERTEX
  5
20F
330
20B
100
AcDbEntity
  8
_U+30EC_U+30A4_U+30E4_U+30FC 1
 62
   179
420
  2234388
370
     9
100
AcDbVertex
100
AcDb2dVertex
 10
102.987684039232
 20
-128.1530894124063
 30
0.0
  0
VERTEX
  5
210
330
20B
100
AcDbEntity
  8
_U+30EC_U+30A4_U+30E4_U+30FC 1
 62
   179
420
  2234388
370
     9
100
AcDbVertex
100
AcDb2dVertex
 10
103.1217043135906
 20
-128.0445396902111
 30
0.0
  0
VERTEX
  5
211
330
20B
100
AcDbEntity
  8
_U+30EC_U+30A4_U+30E4_U+30FC 1
 62
   179
420
  2234388
370
     9
100
AcDbVertex
100
AcDb2dVertex
 10
102.9367076516436
 20
-127.8946796902487
 30
0.0
  0
VERTEX
  5
212
330
20B
100
AcDbEntity
  8
_U+30EC_U+30A4_U+30E4_U+30FC 1
 62
   179
420
  2234388
370
     9
100
AcDbVertex
100
AcDb2dVertex
 10
101.5366032429188
 20
-127.8809213569185
 30
0.0
  0
SEQEND
  5
213
330
20B
100
AcDbEntity
  8
_U+30EC_U+30A4_U+30E4_U+30FC 1
 62
   179
420
  2234388
370
     9
  0
POLYLINE
  5
214
330
1F
100
AcDbEntity
  8
_U+30EC_U+30A4_U+30E4_U+30FC 1
 62
   179
420
  2234388
370
     9
100
AcDb2dPolyline
 66
     1
 10
0.0
 20
0.0
 30
0.0
  0
VERTEX
  5
215
330
214
100
AcDbEntity
  8
_U+30EC_U+30A4_U+30E4_U+30FC 1
 62
   179
420
  2234388
370
     9
100
AcDbVertex
100
AcDb2dVertex
 10
101.3688221360881
 20
-127.9897885791136
 30
0.0
  0
VERTEX
  5
216
330
214
100
AcDbEntity
  8
_U+30EC_U+30A4_U+30E4_U+30FC 1
 62
   179
420
  2234388
370
     9
100
AcDbVertex
100
AcDb2dVertex
 10
103.1217043135906
 20
-128.0445396902111
 30
0.0
  0
SEQEND
  5
217
330
214
100
AcDbEntity
  8
_U+30EC_U+30A4_U+30E4_U+30FC 1
 62
   179
420
  2234388
370
     9
  0
POLYLINE
  5
218
330
1F
100
AcDbEntity
  8
_U+30EC_U+30A4_U+30E4_U+30FC 1
 62
   179
420
  2234388
370
     9
100
AcDb2dPolyline
 66
     1
 10
0.0
 20
0.0
 30
0.0
  0
VERTEX
  5
219
330
218
100
AcDbEntity
  8
_U+30EC_U+30A4_U+30E4_U+30FC 1
 62
   179
420
  2234388
370
     9
100
AcDbVertex
100
AcDb2dVertex
 10
101.5366032429188
 20
-127.6115049680972
 30
0.0
  0
VERTEX
  5
21A
330
218
100
AcDbEntity
  8
_U+30EC_U+30A4_U+30E4_U+30FC 1
 62
   179
420
  2234388
370
     9
100
AcDbVertex
100
AcDb2dVertex
 10
101.3688221360881
 20
-127.7210424680696
 30
0.0
  0
VERTEX
  5
21B
330
218
100
AcDbEntity
  8
_U+30EC_U+30A4_U+30E4_U+30FC 1
 62
   179
420
  2234388
370
     9
100
AcDbVertex
100
AcDb2dVertex
 10
101.5038654659762
 20
-127.8846960791401
 30
0.0
  0
VERTEX
  5
21C
330
218
100
AcDbEntity
  8
_U+30EC_U+30A4_U+30E4_U+30FC 1
 62
   179
420
  2234388
370
     9
100
AcDbVertex
100
AcDb2dVertex
 10
102.987684039232
 20
-127.8846960791401
 30
0.0
  0
VERTEX
  5
21D
330
218
100
AcDbEntity
  8
_U+30EC_U+30A4_U+30E4_U+30FC 1
 62
   179
420
  2234388
370
     9
100
AcDbVertex
100
AcDb2dVertex
 10
103.1217043135906
 20
-127.7754760791672
 30
0.0
  0
VERTEX
  5
21E
330
218
100
AcDbEntity
  8
_U+30EC_U+30A4_U+30E4_U+30FC 1
 62
   179
420
  2234388
370
     9
100
AcDbVertex
100
AcDb2dVertex
 10
102.9367076516436
 20
-127.6259688569825
 30
0.0
  0
VERTEX
  5
21F
330
218
100
AcDbEntity
  8
_U+30EC_U+30A4_U+30E4_U+30FC 1
 62
   179
420
  2234388
370
     9
100
AcDbVertex
100
AcDb2dVertex
 10
101.5366032429188
 20
-127.6115049680972
 30
0.0
  0
SEQEND
  5
220
330
218
100
AcDbEntity
  8
_U+30EC_U+30A4_U+30E4_U+30FC 1
 62
   179
420
  2234388
370
     9
  0
POLYLINE
  5
221
330
1F
100
AcDbEntity
  8
_U+30EC_U+30A4_U+30E4_U+30FC 1
 62
   179
420
  2234388
370
     9
100
AcDb2dPolyline
 66
     1
 10
0.0
 20
0.0
 30
0.0
  0
VERTEX
  5
222
330
221
100
AcDbEntity
  8
_U+30EC_U+30A4_U+30E4_U+30FC 1
 62
   179
420
  2234388
370
     9
100
AcDbVertex
100
AcDb2dVertex
 10
101.3688221360881
 20
-127.7210424680696
 30
0.0
  0
VERTEX
  5
223
330
221
100
AcDbEntity
  8
_U+30EC_U+30A4_U+30E4_U+30FC 1
 62
   179
420
  2234388
370
     9
100
AcDbVertex
100
AcDb2dVertex
 10
103.1217043135906
 20
-127.7754760791672
 30
0.0
  0
SEQEND
  5
224
330
221
100
AcDbEntity
  8
_U+30EC_U+30A4_U+30E4_U+30FC 1
 62
   179
420
  2234388
370
     9
  0
POLYLINE
  5
225
330
1F
100
AcDbEntity
  8
_U+30EC_U+30A4_U+30E4_U+30FC 1
 62
   179
420
  2234388
370
     9
100
AcDb2dPolyline
 66
     1
 10
0.0
 20
0.0
 30
0.0
  0
VERTEX
  5
226
330
225
100
AcDbEntity
  8
_U+30EC_U+30A4_U+30E4_U+30FC 1
 62
   179
420
  2234388
370
     9
100
AcDbVertex
100
AcDb2dVertex
 10
101.5366032429188
 20
-127.3472744126077
 30
0.0
  0
VERTEX
  5
227
330
225
100
AcDbEntity
  8
_U+30EC_U+30A4_U+30E4_U+30FC 1
 62
   179
420
  2234388
370
     9
100
AcDbVertex
100
AcDb2dVertex
 10
101.3688221360881
 20
-127.4557888570251
 30
0.0
  0
VERTEX
  5
228
330
225
100
AcDbEntity
  8
_U+30EC_U+30A4_U+30E4_U+30FC 1
 62
   179
420
  2234388
370
     9
100
AcDbVertex
100
AcDb2dVertex
 10
101.5038654659762
 20
-127.6190896903174
 30
0.0
  0
VERTEX
  5
229
330
225
100
AcDbEntity
  8
_U+30EC_U+30A4_U+30E4_U+30FC 1
 62
   179
420
  2234388
370
     9
100
AcDbVertex
100
AcDb2dVertex
 10
102.987684039232
 20
-127.6190896903174
 30
0.0
  0
VERTEX
  5
22A
330
225
100
AcDbEntity
  8
_U+30EC_U+30A4_U+30E4_U+30FC 1
 62
   179
420
  2234388
370
     9
100
AcDbVertex
100
AcDb2dVertex
 10
103.1217043135906
 20
-127.5108927459
 30
0.0
  0
VERTEX
  5
22B
330
225
100
AcDbEntity
  8
_U+30EC_U+30A4_U+30E4_U+30FC 1
 62
   179
420
  2234388
370
     9
100
AcDbVertex
100
AcDb2dVertex
 10
102.9367076516436
 20
-127.3603624681599
 30
0.0
  0
VERTEX
  5
22C
330
225
100
AcDbEntity
  8
_U+30EC_U+30A4_U+30E4_U+30FC 1
 62
   179
420
  2234388
370
     9
100
AcDbVertex
100
AcDb2dVertex
 10
101.5366032429188
 20
-127.3472744126077
 30
0.0
  0
SEQEND
  5
22D
330
225
100
AcDbEntity
  8
_U+30EC_U+30A4_U+30E4_U+30FC 1
 62
   179
420
  2234388
370
     9
  0
POLYLINE
  5
22E
330
1F
100
AcDbEntity
  8
_U+30EC_U+30A4_U+30E4_U+30FC 1
 62
   179
420
  2234388
370
     9
100
AcDb2dPolyline
 66
     1
 10
0.0
 20
0.0
 30
0.0
  0
VERTEX
  5
22F
330
22E
100
AcDbEntity
  8
_U+30EC_U+30A4_U+30E4_U+30FC 1
 62
   179
420
  2234388
370
     9
100
AcDbVertex
100
AcDb2dVertex
 10
101.3688221360881
 20
-127.4557888570251
 30
0.0
  0
VERTEX
  5
230
330
22E
100
AcDbEntity
  8
_U+30EC_U+30A4_U+30E4_U+30FC 1
 62
   179
420
  2234388
370
     9
100
AcDbVertex
100
AcDb2dVertex
 10
103.1217043135906
 20
-127.5108927459
 30
0.0
  0
SEQEND
  5
231
330
22E
100
AcDbEntity
  8
_U+30EC_U+30A4_U+30E4_U+30FC 1
 62
   179
420
  2234388
370
     9
  0
POLYLINE
  5
232
330
1F
100
AcDbEntity
  8
_U+30EC_U+30A4_U+30E4_U+30FC 1
 62
   179
420
  2234388
370
     9
100
AcDb2dPolyline
 66
     1
 10
0.0
 20
0.0
 30
0.0
  0
VERTEX
  5
233
330
232
100
AcDbEntity
  8
_U+30EC_U+30A4_U+30E4_U+30FC 1
 62
   179
420
  2234388
370
     9
100
AcDbVertex
100
AcDb2dVertex
 10
101.5366032429188
 20
-127.0712963571212
 30
0.0
  0
VERTEX
  5
234
330
232
100
AcDbEntity
  8
_U+30EC_U+30A4_U+30E4_U+30FC 1
 62
   179
420
  2234388
370
     9
100
AcDbVertex
100
AcDb2dVertex
 10
101.3688221360881
 20
-127.1794933015383
 30
0.0
  0
VERTEX
  5
235
330
232
100
AcDbEntity
  8
_U+30EC_U+30A4_U+30E4_U+30FC 1
 62
   179
420
  2234388
370
     9
100
AcDbVertex
100
AcDb2dVertex
 10
101.5038654659762
 20
-127.3434644126087
 30
0.0
  0
VERTEX
  5
236
330
232
100
AcDbEntity
  8
_U+30EC_U+30A4_U+30E4_U+30FC 1
 62
   179
420
  2234388
370
     9
100
AcDbVertex
100
AcDb2dVertex
 10
102.987684039232
 20
-127.3434644126087
 30
0.0
  0
VERTEX
  5
237
330
232
100
AcDbEntity
  8
_U+30EC_U+30A4_U+30E4_U+30FC 1
 62
   179
420
  2234388
370
     9
100
AcDbVertex
100
AcDb2dVertex
 10
103.1217043135906
 20
-127.2345971904136
 30
0.0
  0
VERTEX
  5
238
330
232
100
AcDbEntity
  8
_U+30EC_U+30A4_U+30E4_U+30FC 1
 62
   179
420
  2234388
370
     9
100
AcDbVertex
100
AcDb2dVertex
 10
102.9367076516436
 20
-127.0844196904512
 30
0.0
  0
VERTEX
  5
239
330
232
100
AcDbEntity
  8
_U+30EC_U+30A4_U+30E4_U+30FC 1
 62
   179
420
  2234388
370
     9
100
AcDbVertex
100
AcDb2dVertex
 10
101.5366032429188
 20
-127.0712963571212
 30
0.0
  0
SEQEND
  5
23A
330
232
100
AcDbEntity
  8
_U+30EC_U+30A4_U+30E4_U+30FC 1
 62
   179
420
  2234388
370
     9
  0
POLYLINE
  5
23B
330
1F
100
AcDbEntity
  8
_U+30EC_U+30A4_U+30E4_U+30FC 1
 62
   179
420
  2234388
370
     9
100
AcDb2dPolyline
 66
     1
 10
0.0
 20
0.0
 30
0.0
  0
VERTEX
  5
23C
330
23B
100
AcDbEntity
  8
_U+30EC_U+30A4_U+30E4_U+30FC 1
 62
   179
420
  2234388
370
     9
100
AcDbVertex
100
AcDb2dVertex
 10
101.3688221360881
 20
-127.1794933015383
 30
0.0
  0
VERTEX
  5
23D
330
23B
100
AcDbEntity
  8
_U+30EC_U+30A4_U+30E4_U+30FC 1
 62
   179
420
  2234388
370
     9
100
AcDbVertex
100
AcDb2dVertex
 10
103.1217043135906
 20
-127.2345971904136
 30
0.0
  0
SEQEND
  5
23E
330
23B
100
AcDbEntity
  8
_U+30EC_U+30A4_U+30E4_U+30FC 1
 62
   179
420
  2234388
370
     9
  0
POLYLINE
  5
23F
330
1F
100
AcDbEntity
  8
_U+30EC_U+30A4_U+30E4_U+30FC 1
 62
   179
420
  2234388
370
     9
100
AcDb2dPolyline
 66
     1
 10
0.0
 20
0.0
 30
0.0
  0
VERTEX
  5
240
330
23F
100
AcDbEntity
  8
_U+30EC_U+30A4_U+30E4_U+30FC 1
 62
   179
420
  2234388
370
     9
100
AcDbVertex
100
AcDb2dVertex
 10
101.5366032429188
 20
-126.8094999682976
 30
0.0
  0
VERTEX
  5
241
330
23F
100
AcDbEntity
  8
_U+30EC_U+30A4_U+30E4_U+30FC 1
 62
   179
420
  2234388
370
     9
100
AcDbVertex
100
AcDb2dVertex
 10
101.3688221360881
 20
-126.9183671904928
 30
0.0
  0
VERTEX
  5
242
330
23F
100
AcDbEntity
  8
_U+30EC_U+30A4_U+30E4_U+30FC 1
 62
   179
420
  2234388
370
     9
100
AcDbVertex
100
AcDb2dVertex
 10
101.5038654659762
 20
-127.081985523785
 30
0.0
  0
VERTEX
  5
243
330
23F
100
AcDbEntity
  8
_U+30EC_U+30A4_U+30E4_U+30FC 1
 62
   179
420
  2234388
370
     9
100
AcDbVertex
100
AcDb2dVertex
 10
102.987684039232
 20
-127.081985523785
 30
0.0
  0
VERTEX
  5
244
330
23F
100
AcDbEntity
  8
_U+30EC_U+30A4_U+30E4_U+30FC 1
 62
   179
420
  2234388
370
     9
100
AcDbVertex
100
AcDb2dVertex
 10
103.1217043135906
 20
-126.9734710793677
 30
0.0
  0
VERTEX
  5
245
330
23F
100
AcDbEntity
  8
_U+30EC_U+30A4_U+30E4_U+30FC 1
 62
   179
420
  2234388
370
     9
100
AcDbVertex
100
AcDb2dVertex
 10
102.9367076516436
 20
-126.8232583016274
 30
0.0
  0
VERTEX
  5
246
330
23F
100
AcDbEntity
  8
_U+30EC_U+30A4_U+30E4_U+30FC 1
 62
   179
420
  2234388
370
     9
100
AcDbVertex
100
AcDb2dVertex
 10
101.5366032429188
 20
-126.8094999682976
 30
0.0
  0
SEQEND
  5
247
330
23F
100
AcDbEntity
  8
_U+30EC_U+30A4_U+30E4_U+30FC 1
 62
   179
420
  2234388
370
     9
  0
POLYLINE
  5
248
330
1F
100
AcDbEntity
  8
_U+30EC_U+30A4_U+30E4_U+30FC 1
 62
   179
420
  2234388
370
     9
100
AcDb2dPolyline
 66
     1
 10
0.0
 20
0.0
 30
0.0
  0
VERTEX
  5
249
330
248
100
AcDbEntity
  8
_U+30EC_U+30A4_U+30E4_U+30FC 1
 62
   179
420
  2234388
370
     9
100
AcDbVertex
100
AcDb2dVertex
 10
101.3688221360881
 20
-126.9183671904928
 30
0.0
  0
VERTEX
  5
24A
330
248
100
AcDbEntity
  8
_U+30EC_U+30A4_U+30E4_U+30FC 1
 62
   179
420
  2234388
370
     9
100
AcDbVertex
100
AcDb2dVertex
 10
103.1217043135906
 20
-126.9734710793677
 30
0.0
  0
SEQEND
  5
24B
330
248
100
AcDbEntity
  8
_U+30EC_U+30A4_U+30E4_U+30FC 1
 62
   179
420
  2234388
370
     9
  0
POLYLINE
  5
24C
330
1F
100
AcDbEntity
  8
_U+30EC_U+30A4_U+30E4_U+30FC 1
 62
   179
420
  2234388
370
     9
100
AcDb2dPolyline
 66
     1
 10
0.0
 20
0.0
 30
0.0
  0
VERTEX
  5
24D
330
24C
100
AcDbEntity
  8
_U+30EC_U+30A4_U+30E4_U+30FC 1
 62
   179
420
  2234388
370
     9
100
AcDbVertex
100
AcDb2dVertex
 10
101.5535012980432
 20
-134.7366635774272
 30
0.0
  0
VERTEX
  5
24E
330
24C
100
AcDbEntity
  8
_U+30EC_U+30A4_U+30E4_U+30FC 1
 62
   179
420
  2234388
370
     9
100
AcDbVertex
100
AcDb2dVertex
 10
101.3760540803481
 20
-134.8527627440645
 30
0.0
  0
VERTEX
  5
24F
330
24C
100
AcDbEntity
  8
_U+30EC_U+30A4_U+30E4_U+30FC 1
 62
   179
420
  2234388
370
     9
100
AcDbVertex
100
AcDb2dVertex
 10
101.5173062989666
 20
-135.0274230217987
 30
0.0
  0
VERTEX
  5
250
330
24C
100
AcDbEntity
  8
_U+30EC_U+30A4_U+30E4_U+30FC 1
 62
   179
420
  2234388
370
     9
100
AcDbVertex
100
AcDb2dVertex
 10
103.0776070924934
 20
-135.0274230217987
 30
0.0
  0
VERTEX
  5
251
330
24C
100
AcDbEntity
  8
_U+30EC_U+30A4_U+30E4_U+30FC 1
 62
   179
420
  2234388
370
     9
100
AcDbVertex
100
AcDb2dVertex
 10
103.2198823666414
 20
-134.9106182996059
 30
0.0
  0
VERTEX
  5
252
330
24C
100
AcDbEntity
  8
_U+30EC_U+30A4_U+30E4_U+30FC 1
 62
   179
420
  2234388
370
     9
100
AcDbVertex
100
AcDb2dVertex
 10
103.0241965383004
 20
-134.7507746885345
 30
0.0
  0
VERTEX
  5
253
330
24C
100
AcDbEntity
  8
_U+30EC_U+30A4_U+30E4_U+30FC 1
 62
   179
420
  2234388
370
     9
100
AcDbVertex
100
AcDb2dVertex
 10
101.5535012980432
 20
-134.7366635774272
 30
0.0
  0
SEQEND
  5
254
330
24C
100
AcDbEntity
  8
_U+30EC_U+30A4_U+30E4_U+30FC 1
 62
   179
420
  2234388
370
     9
  0
POLYLINE
  5
255
330
1F
100
AcDbEntity
  8
_U+30EC_U+30A4_U+30E4_U+30FC 1
 62
   179
420
  2234388
370
     9
100
AcDb2dPolyline
 66
     1
 10
0.0
 20
0.0
 30
0.0
  0
VERTEX
  5
256
330
255
100
AcDbEntity
  8
_U+30EC_U+30A4_U+30E4_U+30FC 1
 62
   179
420
  2234388
370
     9
100
AcDbVertex
100
AcDb2dVertex
 10
101.3760540803481
 20
-134.8527627440645
 30
0.0
  0
VERTEX
  5
257
330
255
100
AcDbEntity
  8
_U+30EC_U+30A4_U+30E4_U+30FC 1
 62
   179
420
  2234388
370
     9
100
AcDbVertex
100
AcDb2dVertex
 10
103.2198823666414
 20
-134.9106182996059
 30
0.0
  0
SEQEND
  5
258
330
255
100
AcDbEntity
  8
_U+30EC_U+30A4_U+30E4_U+30FC 1
 62
   179
420
  2234388
370
     9
  0
POLYLINE
  5
259
330
1F
100
AcDbEntity
  8
_U+30EC_U+30A4_U+30E4_U+30FC 1
 62
   179
420
  2234388
370
     9
100
AcDb2dPolyline
 66
     1
 10
0.0
 20
0.0
 30
0.0
  0
VERTEX
  5
25A
330
259
100
AcDbEntity
  8
_U+30EC_U+30A4_U+30E4_U+30FC 1
 62
   179
420
  2234388
370
     9
100
AcDbVertex
100
AcDb2dVertex
 10
101.5535012980432
 20
-134.4489732997212
 30
0.0
  0
VERTEX
  5
25B
330
259
100
AcDbEntity
  8
_U+30EC_U+30A4_U+30E4_U+30FC 1
 62
   179
420
  2234388
370
     9
100
AcDbVertex
100
AcDb2dVertex
 10
101.3760540803481
 20
-134.565778021914
 30
0.0
  0
VERTEX
  5
25C
330
259
100
AcDbEntity
  8
_U+30EC_U+30A4_U+30E4_U+30FC 1
 62
   179
420
  2234388
370
     9
100
AcDbVertex
100
AcDb2dVertex
 10
101.5173062989666
 20
-134.7400855218704
 30
0.0
  0
VERTEX
  5
25D
330
259
100
AcDbEntity
  8
_U+30EC_U+30A4_U+30E4_U+30FC 1
 62
   179
420
  2234388
370
     9
100
AcDbVertex
100
AcDb2dVertex
 10
103.0776070924934
 20
-134.7400855218704
 30
0.0
  0
VERTEX
  5
25E
330
259
100
AcDbEntity
  8
_U+30EC_U+30A4_U+30E4_U+30FC 1
 62
   179
420
  2234388
370
     9
100
AcDbVertex
100
AcDb2dVertex
 10
103.2198823666414
 20
-134.6236688552328
 30
0.0
  0
VERTEX
  5
25F
330
259
100
AcDbEntity
  8
_U+30EC_U+30A4_U+30E4_U+30FC 1
 62
   179
420
  2234388
370
     9
100
AcDbVertex
100
AcDb2dVertex
 10
103.0241965383004
 20
-134.4637899663839
 30
0.0
  0
VERTEX
  5
260
330
259
100
AcDbEntity
  8
_U+30EC_U+30A4_U+30E4_U+30FC 1
 62
   179
420
  2234388
370
     9
100
AcDbVertex
100
AcDb2dVertex
 10
101.5535012980432
 20
-134.4489732997212
 30
0.0
  0
SEQEND
  5
261
330
259
100
AcDbEntity
  8
_U+30EC_U+30A4_U+30E4_U+30FC 1
 62
   179
420
  2234388
370
     9
  0
POLYLINE
  5
262
330
1F
100
AcDbEntity
  8
_U+30EC_U+30A4_U+30E4_U+30FC 1
 62
   179
420
  2234388
370
     9
100
AcDb2dPolyline
 66
     1
 10
0.0
 20
0.0
 30
0.0
  0
VERTEX
  5
263
330
262
100
AcDbEntity
  8
_U+30EC_U+30A4_U+30E4_U+30FC 1
 62
   179
420
  2234388
370
     9
100
AcDbVertex
100
AcDb2dVertex
 10
101.3760540803481
 20
-134.565778021914
 30
0.0
  0
VERTEX
  5
264
330
262
100
AcDbEntity
  8
_U+30EC_U+30A4_U+30E4_U+30FC 1
 62
   179
420
  2234388
370
     9
100
AcDbVertex
100
AcDb2dVertex
 10
103.2198823666414
 20
-134.6236688552328
 30
0.0
  0
SEQEND
  5
265
330
262
100
AcDbEntity
  8
_U+30EC_U+30A4_U+30E4_U+30FC 1
 62
   179
420
  2234388
370
     9
  0
POLYLINE
  5
266
330
1F
100
AcDbEntity
  8
_U+30EC_U+30A4_U+30E4_U+30FC 1
 62
   179
420
  2234388
370
     9
100
AcDb2dPolyline
 66
     1
 10
0.0
 20
0.0
 30
0.0
  0
VERTEX
  5
267
330
266
100
AcDbEntity
  8
_U+30EC_U+30A4_U+30E4_U+30FC 1
 62
   179
420
  2234388
370
     9
100
AcDbVertex
100
AcDb2dVertex
 10
100.0531374474318
 20
-131.9488724670128
 30
0.0
  0
VERTEX
  5
268
330
266
100
AcDbEntity
  8
_U+30EC_U+30A4_U+30E4_U+30FC 1
 62
   179
420
  2234388
370
     9
100
AcDbVertex
100
AcDb2dVertex
 10
100.0531374474318
 20
-132.2355044113856
 30
0.0
  0
VERTEX
  5
269
330
266
100
AcDbEntity
  8
_U+30EC_U+30A4_U+30E4_U+30FC 1
 62
   179
420
  2234388
370
     9
100
AcDbVertex
100
AcDb2dVertex
 10
104.4628595571526
 20
-132.2355044113856
 30
0.0
  0
VERTEX
  5
26A
330
266
100
AcDbEntity
  8
_U+30EC_U+30A4_U+30E4_U+30FC 1
 62
   179
420
  2234388
370
     9
100
AcDbVertex
100
AcDb2dVertex
 10
104.4628595571526
 20
-131.9488724670128
 30
0.0
  0
VERTEX
  5
26B
330
266
100
AcDbEntity
  8
_U+30EC_U+30A4_U+30E4_U+30FC 1
 62
   179
420
  2234388
370
     9
100
AcDbVertex
100
AcDb2dVertex
 10
100.0531374474318
 20
-131.9488724670128
 30
0.0
  0
SEQEND
  5
26C
330
266
100
AcDbEntity
  8
_U+30EC_U+30A4_U+30E4_U+30FC 1
 62
   179
420
  2234388
370
     9
  0
POLYLINE
  5
26D
330
1F
100
AcDbEntity
  8
_U+30EC_U+30A4_U+30E4_U+30FC 1
 62
   179
420
  2234388
370
     9
100
AcDb2dPolyline
 66
     1
 10
0.0
 20
0.0
 30
0.0
  0
VERTEX
  5
26E
330
26D
100
AcDbEntity
  8
_U+30EC_U+30A4_U+30E4_U+30FC 1
 62
   179
420
  2234388
370
     9
100
AcDbVertex
100
AcDb2dVertex
 10
101.2437624170564
 20
-131.992969689224
 30
0.0
  0
VERTEX
  5
26F
330
26D
100
AcDbEntity
  8
_U+30EC_U+30A4_U+30E4_U+30FC 1
 62
   179
420
  2234388
370
     9
100
AcDbVertex
100
AcDb2dVertex
 10
101.2437624170564
 20
-132.2134558002799
 30
0.0
  0
SEQEND
  5
270
330
26D
100
AcDbEntity
  8
_U+30EC_U+30A4_U+30E4_U+30FC 1
 62
   179
420
  2234388
370
     9
  0
POLYLINE
  5
271
330
1F
100
AcDbEntity
  8
_U+30EC_U+30A4_U+30E4_U+30FC 1
 62
   179
420
  2234388
370
     9
100
AcDb2dPolyline
 66
     1
 10
0.0
 20
0.0
 30
0.0
  0
VERTEX
  5
272
330
271
100
AcDbEntity
  8
_U+30EC_U+30A4_U+30E4_U+30FC 1
 62
   179
420
  2234388
370
     9
100
AcDbVertex
100
AcDb2dVertex
 10
104.2423734516666
 20
-135.8735252438094
 30
0.0
  0
VERTEX
  5
273
330
271
100
AcDbEntity
  8
_U+30EC_U+30A4_U+30E4_U+30FC 1
 62
   179
420
  2234388
370
     9
100
AcDbVertex
100
AcDb2dVertex
 10
100.3177207740151
 20
-135.8735252438094
 30
0.0
  0
VERTEX
  5
274
330
271
100
AcDbEntity
  8
_U+30EC_U+30A4_U+30E4_U+30FC 1
 62
   179
420
  2234388
370
     9
100
AcDbVertex
100
AcDb2dVertex
 10
100.3177207740151
 20
-135.0356780217966
 30
0.0
  0
VERTEX
  5
275
330
271
100
AcDbEntity
  8
_U+30EC_U+30A4_U+30E4_U+30FC 1
 62
   179
420
  2234388
370
     9
100
AcDbVertex
100
AcDb2dVertex
 10
104.2423734516666
 20
-135.0356780217966
 30
0.0
  0
VERTEX
  5
276
330
271
100
AcDbEntity
  8
_U+30EC_U+30A4_U+30E4_U+30FC 1
 62
   179
420
  2234388
370
     9
100
AcDbVertex
100
AcDb2dVertex
 10
104.2423734516666
 20
-135.8735252438094
 30
0.0
  0
SEQEND
  5
277
330
271
100
AcDbEntity
  8
_U+30EC_U+30A4_U+30E4_U+30FC 1
 62
   179
420
  2234388
370
     9
  0
POLYLINE
  5
278
330
1F
100
AcDbEntity
  8
_U+30EC_U+30A4_U+30E4_U+30FC 1
 62
   179
420
  2234388
370
     9
100
AcDb2dPolyline
 66
     1
 10
0.0
 20
0.0
 30
0.0
  0
VERTEX
  5
279
330
278
100
AcDbEntity
  8
_U+30EC_U+30A4_U+30E4_U+30FC 1
 62
   179
420
  2234388
370
     9
100
AcDbVertex
100
AcDb2dVertex
 10
101.5038654659762
 20
-130.0547733008197
 30
0.0
  0
VERTEX
  5
27A
330
278
100
AcDbEntity
  8
_U+30EC_U+30A4_U+30E4_U+30FC 1
 62
   179
420
  2234388
370
     9
100
AcDbVertex
100
AcDb2dVertex
 10
100.8909846482788
 20
-130.1629349674593
 30
0.0
  0
VERTEX
  5
27B
330
278
100
AcDbEntity
  8
_U+30EC_U+30A4_U+30E4_U+30FC 1
 62
   179
420
  2234388
370
     9
100
AcDbVertex
100
AcDb2dVertex
 10
100.3618179951123
 20
-130.3834210785153
 30
0.0
  0
VERTEX
  5
27C
330
278
100
AcDbEntity
  8
_U+30EC_U+30A4_U+30E4_U+30FC 1
 62
   179
420
  2234388
370
     9
100
AcDbVertex
100
AcDb2dVertex
 10
100.3618179951123
 20
-131.882726633696
 30
0.0
  0
SEQEND
  5
27D
330
278
100
AcDbEntity
  8
_U+30EC_U+30A4_U+30E4_U+30FC 1
 62
   179
420
  2234388
370
     9
  0
POLYLINE
  5
27E
330
1F
100
AcDbEntity
  8
_U+30EC_U+30A4_U+30E4_U+30FC 1
 62
   179
420
  2234388
370
     9
100
AcDb2dPolyline
 66
     1
 10
0.0
 20
0.0
 30
0.0
  0
VERTEX
  5
27F
330
27E
100
AcDbEntity
  8
_U+30EC_U+30A4_U+30E4_U+30FC 1
 62
   179
420
  2234388
370
     9
100
AcDbVertex
100
AcDb2dVertex
 10
102.987684039232
 20
-130.0547733008197
 30
0.0
  0
VERTEX
  5
280
330
27E
100
AcDbEntity
  8
_U+30EC_U+30A4_U+30E4_U+30FC 1
 62
   179
420
  2234388
370
     9
100
AcDbVertex
100
AcDb2dVertex
 10
103.5147693035627
 20
-130.118837745248
 30
0.0
  0
VERTEX
  5
281
330
27E
100
AcDbEntity
  8
_U+30EC_U+30A4_U+30E4_U+30FC 1
 62
   179
420
  2234388
370
     9
100
AcDbVertex
100
AcDb2dVertex
 10
104.1321303989236
 20
-130.4054696896208
 30
0.0
  0
VERTEX
  5
282
330
27E
100
AcDbEntity
  8
_U+30EC_U+30A4_U+30E4_U+30FC 1
 62
   179
420
  2234388
370
     9
100
AcDbVertex
100
AcDb2dVertex
 10
104.1321303989236
 20
-131.9488724670128
 30
0.0
  0
SEQEND
  5
283
330
27E
100
AcDbEntity
  8
_U+30EC_U+30A4_U+30E4_U+30FC 1
 62
   179
420
  2234388
370
     9
  0
SPLINE
  5
284
330
1F
100
AcDbEntity
  8
_U+30EC_U+30A4_U+30E4_U+30FC 1
 62
   179
420
  2234388
370
     9
100
AcDbSpline
210
0.0
220
0.0
230
1.0
 70
     8
 71
     3
 72
    11
 73
     7
 74
     0
 42
0.0000000001
 43
0.0000000001
 12
1.0
 22
0.0
 32
0.0
 13
1.0
 23
0.0
 33
0.0
 40
0.0
 40
0.0
 40
0.0
 40
0.0
 40
1.0
 40
1.0
 40
1.0
 40
2.0
 40
2.0
 40
2.0
 40
2.0
 10
100.8909846482788
 20
-130.1629349674593
 30
0.0
 10
100.8909846482788
 20
-130.1629349674593
 30
0.0
 10
101.3319568592509
 20
-130.229080800776
 30
0.0
 10
101.3319568592509
 20
-130.6259558006768
 30
0.0
 10
101.3319568592509
 20
-130.6259558006768
 30
0.0
 10
101.3319568592509
 20
-131.9047752448016
 30
0.0
 10
101.3319568592509
 20
-131.9047752448016
 30
0.0
  0
SPLINE
  5
285
330
1F
100
AcDbEntity
  8
_U+30EC_U+30A4_U+30E4_U+30FC 1
 62
   179
420
  2234388
370
     9
100
AcDbSpline
210
0.0
220
0.0
230
1.0
 70
     8
 71
     3
 72
    17
 73
    13
 74
     0
 42
0.0000000001
 43
0.0000000001
 12
1.0
 22
0.0
 32
0.0
 13
1.0
 23
0.0
 33
0.0
 40
0.0
 40
0.0
 40
0.0
 40
0.0
 40
1.0
 40
1.0
 40
1.0
 40
2.0
 40
2.0
 40
2.0
 40
3.0
 40
3.0
 40
3.0
 40
4.0
 40
4.0
 40
4.0
 40
4.0
 10
101.3319568592509
 20
-130.5377613562544
 30
0.0
 10
101.3319568592509
 20
-130.5377613562544
 30
0.0
 10
101.5965401858341
 20
-130.0747405230369
 30
0.0
 10
102.1698040600978
 20
-130.118837745248
 30
0.0
 10
102.1698040600978
 20
-130.118837745248
 30
0.0
 10
102.9194568187503
 20
-130.0967891341425
 30
0.0
 10
103.1399429242364
 20
-130.4716155229376
 30
0.0
 10
103.1399429242364
 20
-130.4716155229376
 30
0.0
 10
103.1399429242364
 20
-131.9709210781184
 30
0.0
 10
103.1399429242364
 20
-131.9709210781184
 30
0.0
 10
103.1399429242364
 20
-131.9709210781184
 30
0.0
 10
103.1399429242364
 20
-132.2134558002799
 30
0.0
 10
103.1399429242364
 20
-132.2134558002799
 30
0.0
  0
SPLINE
  5
286
330
1F
100
AcDbEntity
  8
_U+30EC_U+30A4_U+30E4_U+30FC 1
 62
   179
420
  2234388
370
     9
100
AcDbSpline
210
0.0
220
0.0
230
1.0
 70
     8
 71
     3
 72
     8
 73
     4
 74
     0
 42
0.0000000001
 43
0.0000000001
 12
1.0
 22
0.0
 32
0.0
 13
1.0
 23
0.0
 33
0.0
 40
0.0
 40
0.0
 40
0.0
 40
0.0
 40
1.0
 40
1.0
 40
1.0
 40
1.0
 10
103.1399429242364
 20
-130.4716155229376
 30
0.0
 10
103.1399429242364
 20
-130.4716155229376
 30
0.0
 10
103.4706720824655
 20
-130.118837745248
 30
0.0
 10
103.8454984617917
 20
-130.2511294118816
 30
0.0
  0
SPLINE
  5
287
330
1F
100
AcDbEntity
  8
_U+30EC_U+30A4_U+30E4_U+30FC 1
 62
   179
420
  2234388
370
     9
100
AcDbSpline
210
0.0
220
0.0
230
1.0
 70
    11
 71
     3
 72
    29
 73
    25
 74
     0
 42
0.0000000001
 43
0.0000000001
 12
1.0
 22
0.0
 32
0.0
 13
1.0
 23
0.0
 33
0.0
 40
0.0
 40
0.0
 40
0.0
 40
0.0
 40
1.0
 40
1.0
 40
1.0
 40
2.0
 40
2.0
 40
2.0
 40
3.0
 40
3.0
 40
3.0
 40
4.0
 40
4.0
 40
4.0
 40
5.0
 40
5.0
 40
5.0
 40
6.0
 40
6.0
 40
6.0
 40
7.0
 40
7.0
 40
7.0
 40
8.0
 40
8.0
 40
8.0
 40
8.0
 10
92.46841541871197
 20
-133.6907127443551
 30
0.0
 10
92.46841541871197
 20
-133.6907127443551
 30
0.0
 10
92.46841541871197
 20
-134.4844627441566
 30
0.0
 10
92.46841541871197
 20
-134.4844627441566
 30
0.0
 10
92.46841541871197
 20
-134.4844627441566
 30
0.0
 10
110.1514010786925
 20
-134.3962682997343
 30
0.0
 10
110.1514010786925
 20
-134.3962682997343
 30
0.0
 10
110.1514010786925
 20
-134.3962682997343
 30
0.0
 10
111.9152899225809
 20
-134.7049488552126
 30
0.0
 10
111.9152899225809
 20
-132.8087683001311
 30
0.0
 10
111.9152899225809
 20
-132.8087683001311
 30
0.0
 10
111.9152899225809
 20
-118.0361988593798
 30
0.0
 10
111.9152899225809
 20
-118.0361988593798
 30
0.0
 10
111.9152899225809
 20
-118.0361988593798
 30
0.0
 10
111.0774427217339
 20
-118.0361988593798
 30
0.0
 10
111.0774427217339
 20
-118.0361988593798
 30
0.0
 10
111.0774427217339
 20
-118.0361988593798
 30
0.0
 10
111.0774427217339
 20
-132.7205738557087
 30
0.0
 10
111.0774427217339
 20
-132.7205738557087
 30
0.0
 10
111.0774427217339
 20
-132.7205738557087
 30
0.0
 10
111.1215399428311
 20
-133.6025182999327
 30
0.0
 10
110.460081626373
 20
-133.6025182999327
 30
0.0
 10
110.460081626373
 20
-133.6025182999327
 30
0.0
 10
92.46841541871197
 20
-133.6907127443551
 30
0.0
 10
92.46841541871197
 20
-133.6907127443551
 30
0.0
  0
POLYLINE
  5
288
330
1F
100
AcDbEntity
  8
_U+30EC_U+30A4_U+30E4_U+30FC 1
 62
   179
420
  2234388
370
     9
100
AcDb2dPolyline
 66
     1
 10
0.0
 20
0.0
 30
0.0
  0
VERTEX
  5
289
330
288
100
AcDbEntity
  8
_U+30EC_U+30A4_U+30E4_U+30FC 1
 62
   179
420
  2234388
370
     9
100
AcDbVertex
100
AcDb2dVertex
 10
93.96772093601705
 20
-133.6907127443551
 30
0.0
  0
VERTEX
  5
28A
330
288
100
AcDbEntity
  8
_U+30EC_U+30A4_U+30E4_U+30FC 1
 62
   179
420
  2234388
370
     9
100
AcDbVertex
100
AcDb2dVertex
 10
93.96772093601705
 20
-134.4844627441566
 30
0.0
  0
SEQEND
  5
28B
330
288
100
AcDbEntity
  8
_U+30EC_U+30A4_U+30E4_U+30FC 1
 62
   179
420
  2234388
370
     9
  0
POLYLINE
  5
28C
330
1F
100
AcDbEntity
  8
_U+30EC_U+30A4_U+30E4_U+30FC 1
 62
   179
420
  2234388
370
     9
100
AcDb2dPolyline
 66
     1
 10
0.0
 20
0.0
 30
0.0
  0
VERTEX
  5
28D
330
28C
100
AcDbEntity
  8
_U+30EC_U+30A4_U+30E4_U+30FC 1
 62
   179
420
  2234388
370
     9
100
AcDbVertex
100
AcDb2dVertex
 10
109.9088663626579
 20
-133.6245669110383
 30
0.0
  0
VERTEX
  5
28E
330
28C
100
AcDbEntity
  8
_U+30EC_U+30A4_U+30E4_U+30FC 1
 62
   179
420
  2234388
370
     9
100
AcDbVertex
100
AcDb2dVertex
 10
109.9088663626579
 20
-134.4183169108398
 30
0.0
  0
SEQEND
  5
28F
330
28C
100
AcDbEntity
  8
_U+30EC_U+30A4_U+30E4_U+30FC 1
 62
   179
420
  2234388
370
     9
  0
POLYLINE
  5
290
330
1F
100
AcDbEntity
  8
_U+30EC_U+30A4_U+30E4_U+30FC 1
 62
   179
420
  2234388
370
     9
100
AcDb2dPolyline
 66
     1
 10
0.0
 20
0.0
 30
0.0
  0
VERTEX
  5
291
330
290
100
AcDbEntity
  8
_U+30EC_U+30A4_U+30E4_U+30FC 1
 62
   179
420
  2234388
370
     9
100
AcDbVertex
100
AcDb2dVertex
 10
109.7104288677204
 20
-133.6025182999327
 30
0.0
  0
VERTEX
  5
292
330
290
100
AcDbEntity
  8
_U+30EC_U+30A4_U+30E4_U+30FC 1
 62
   179
420
  2234388
370
     9
100
AcDbVertex
100
AcDb2dVertex
 10
111.0774427217339
 20
-132.0150183003296
 30
0.0
  0
SEQEND
  5
293
330
290
100
AcDbEntity
  8
_U+30EC_U+30A4_U+30E4_U+30FC 1
 62
   179
420
  2234388
370
     9
  0
POLYLINE
  5
294
330
1F
100
AcDbEntity
  8
_U+30EC_U+30A4_U+30E4_U+30FC 1
 62
   179
420
  2234388
370
     9
100
AcDb2dPolyline
 66
     1
 10
0.0
 20
0.0
 30
0.0
  0
VERTEX
  5
295
330
294
100
AcDbEntity
  8
_U+30EC_U+30A4_U+30E4_U+30FC 1
 62
   179
420
  2234388
370
     9
100
AcDbVertex
100
AcDb2dVertex
 10
111.1215399428311
 20
-119.733941914511
 30
0.0
  0
VERTEX
  5
296
330
294
100
AcDbEntity
  8
_U+30EC_U+30A4_U+30E4_U+30FC 1
 62
   179
420
  2234388
370
     9
100
AcDbVertex
100
AcDb2dVertex
 10
111.9152899225809
 20
-119.733941914511
 30
0.0
  0
SEQEND
  5
297
330
294
100
AcDbEntity
  8
_U+30EC_U+30A4_U+30E4_U+30FC 1
 62
   179
420
  2234388
370
     9
  0
POLYLINE
  5
298
330
1F
100
AcDbEntity
  8
_U+30EC_U+30A4_U+30E4_U+30FC 1
 62
   179
420
  2234388
370
     9
100
AcDb2dPolyline
 66
     1
 10
0.0
 20
0.0
 30
0.0
  0
VERTEX
  5
299
330
298
100
AcDbEntity
  8
_U+30EC_U+30A4_U+30E4_U+30FC 1
 62
   179
420
  2234388
370
     9
100
AcDbVertex
100
AcDb2dVertex
 10
111.1215399428311
 20
-123.5924488579908
 30
0.0
  0
VERTEX
  5
29A
330
298
100
AcDbEntity
  8
_U+30EC_U+30A4_U+30E4_U+30FC 1
 62
   179
420
  2234388
370
     9
100
AcDbVertex
100
AcDb2dVertex
 10
111.9152899225809
 20
-123.5924488579908
 30
0.0
  0
SEQEND
  5
29B
330
298
100
AcDbEntity
  8
_U+30EC_U+30A4_U+30E4_U+30FC 1
 62
   179
420
  2234388
370
     9
  0
POLYLINE
  5
29C
330
1F
100
AcDbEntity
  8
_U+30EC_U+30A4_U+30E4_U+30FC 1
 62
   179
420
  2234388
370
     9
100
AcDb2dPolyline
 66
     1
 10
0.0
 20
0.0
 30
0.0
  0
VERTEX
  5
29D
330
29C
100
AcDbEntity
  8
_U+30EC_U+30A4_U+30E4_U+30FC 1
 62
   179
420
  2234388
370
     9
100
AcDbVertex
100
AcDb2dVertex
 10
111.1215399428311
 20
-125.5988724686003
 30
0.0
  0
VERTEX
  5
29E
330
29C
100
AcDbEntity
  8
_U+30EC_U+30A4_U+30E4_U+30FC 1
 62
   179
420
  2234388
370
     9
100
AcDbVertex
100
AcDb2dVertex
 10
111.9152899225809
 20
-125.5988724686003
 30
0.0
  0
SEQEND
  5
29F
330
29C
100
AcDbEntity
  8
_U+30EC_U+30A4_U+30E4_U+30FC 1
 62
   179
420
  2234388
370
     9
  0
POLYLINE
  5
2A0
330
1F
100
AcDbEntity
  8
_U+30EC_U+30A4_U+30E4_U+30FC 1
 62
   179
420
  2234388
370
     9
100
AcDb2dPolyline
 66
     1
 10
0.0
 20
0.0
 30
0.0
  0
VERTEX
  5
2A1
330
2A0
100
AcDbEntity
  8
_U+30EC_U+30A4_U+30E4_U+30FC 1
 62
   179
420
  2234388
370
     9
100
AcDbVertex
100
AcDb2dVertex
 10
111.1215399428311
 20
-129.8763030230865
 30
0.0
  0
VERTEX
  5
2A2
330
2A0
100
AcDbEntity
  8
_U+30EC_U+30A4_U+30E4_U+30FC 1
 62
   179
420
  2234388
370
     9
100
AcDbVertex
100
AcDb2dVertex
 10
111.9152899225809
 20
-129.8763030230865
 30
0.0
  0
SEQEND
  5
2A3
330
2A0
100
AcDbEntity
  8
_U+30EC_U+30A4_U+30E4_U+30FC 1
 62
   179
420
  2234388
370
     9
  0
SPLINE
  5
2A4
330
1F
100
AcDbEntity
  8
_U+30EC_U+30A4_U+30E4_U+30FC 1
 62
   179
420
  2234388
370
     9
100
AcDbSpline
210
0.0
220
0.0
230
1.0
 70
     8
 71
     3
 72
    35
 73
    31
 74
     0
 42
0.0000000001
 43
0.0000000001
 12
1.0
 22
0.0
 32
0.0
 13
1.0
 23
0.0
 33
0.0
 40
0.0
 40
0.0
 40
0.0
 40
0.0
 40
1.0
 40
1.0
 40
1.0
 40
2.0
 40
2.0
 40
2.0
 40
3.0
 40
3.0
 40
3.0
 40
4.0
 40
4.0
 40
4.0
 40
5.0
 40
5.0
 40
5.0
 40
6.0
 40
6.0
 40
6.0
 40
7.0
 40
7.0
 40
7.0
 40
8.0
 40
8.0
 40
8.0
 40
9.0
 40
9.0
 40
9.0
 40
10.0
 40
10.0
 40
10.0
 40
10.0
 10
80.26950128548775
 20
-129.2524155232424
 30
0.0
 10
80.47552350245391
 20
-129.0246974677436
 30
0.0
 10
80.605945443571
 20
-128.7270235789292
 30
0.0
 10
80.62178516538913
 20
-128.3990460790113
 30
0.0
 10
80.62178516538913
 20
-128.3990460790113
 30
0.0
 10
80.6284879429959
 20
-128.3990460790113
 30
0.0
 10
80.6284879429959
 20
-128.3990460790113
 30
0.0
 10
80.6284879429959
 20
-128.3990460790113
 30
0.0
 10
80.6284879429959
 20
-120.8584210808965
 30
0.0
 10
80.6284879429959
 20
-120.8584210808965
 30
0.0
 10
80.6284879429959
 20
-120.8584210808965
 30
0.0
 10
80.60626294356291
 20
-120.8584210808965
 30
0.0
 10
80.60626294356291
 20
-120.8584210808965
 30
0.0
 10
80.50032377959897
 20
-120.2086749699478
 30
0.0
 10
79.94085553557044
 20
-119.7118933034053
 30
0.0
 10
79.26147408898244
 20
-119.7118933034053
 30
0.0
 10
78.58209466187041
 20
-119.7118933034053
 30
0.0
 10
78.0226243983659
 20
-120.2086749699478
 30
0.0
 10
77.91668523440198
 20
-120.8584210808965
 30
0.0
 10
77.91668523440198
 20
-120.8584210808965
 30
0.0
 10
77.89446023496899
 20
-120.8584210808965
 30
0.0
 10
77.89446023496899
 20
-120.8584210808965
 30
0.0
 10
77.89446023496899
 20
-120.8584210808965
 30
0.0
 10
77.89446023496899
 20
-128.3990460790113
 30
0.0
 10
77.89446023496899
 20
-128.3990460790113
 30
0.0
 10
77.89446023496899
 20
-128.3990460790113
 30
0.0
 10
77.90119829035264
 20
-128.3990460790113
 30
0.0
 10
77.90119829035264
 20
-128.3990460790113
 30
0.0
 10
77.92289412313247
 20
-128.8455216344555
 30
0.0
 10
78.15699745049332
 20
-129.2362230232467
 30
0.0
 10
78.50511855272312
 20
-129.4701499676326
 30
0.0
  0
POLYLINE
  5
2A5
330
1F
100
AcDbEntity
  8
_U+30EC_U+30A4_U+30E4_U+30FC 1
 62
   179
420
  2234388
370
     9
100
AcDb2dPolyline
 66
     1
 10
0.0
 20
0.0
 30
0.0
  0
VERTEX
  5
2A6
330
2A5
100
AcDbEntity
  8
_U+30EC_U+30A4_U+30E4_U+30FC 1
 62
   179
420
  2234388
370
     9
100
AcDbVertex
100
AcDb2dVertex
 10
72.00748121849166
 20
-121.2993933030085
 30
0.0
  0
VERTEX
  5
2A7
330
2A5
100
AcDbEntity
  8
_U+30EC_U+30A4_U+30E4_U+30FC 1
 62
   179
420
  2234388
370
     9
100
AcDbVertex
100
AcDb2dVertex
 10
69.44984239485358
 20
-121.2993933030085
 30
0.0
  0
VERTEX
  5
2A8
330
2A5
100
AcDbEntity
  8
_U+30EC_U+30A4_U+30E4_U+30FC 1
 62
   179
420
  2234388
370
     9
100
AcDbVertex
100
AcDb2dVertex
 10
69.44984239485358
 20
-134.5506085774734
 30
0.0
  0
VERTEX
  5
2A9
330
2A5
100
AcDbEntity
  8
_U+30EC_U+30A4_U+30E4_U+30FC 1
 62
   179
420
  2234388
370
     9
100
AcDbVertex
100
AcDb2dVertex
 10
72.2059187134291
 20
-134.5506085774734
 30
0.0
  0
SEQEND
  5
2AA
330
2A5
100
AcDbEntity
  8
_U+30EC_U+30A4_U+30E4_U+30FC 1
 62
   179
420
  2234388
370
     9
  0
POLYLINE
  5
2AB
330
1F
100
AcDbEntity
  8
_U+30EC_U+30A4_U+30E4_U+30FC 1
 62
   179
420
  2234388
370
     9
100
AcDb2dPolyline
 66
     1
 10
0.0
 20
0.0
 30
0.0
  0
VERTEX
  5
2AC
330
2AB
100
AcDbEntity
  8
_U+30EC_U+30A4_U+30E4_U+30FC 1
 62
   179
420
  2234388
370
     9
100
AcDbVertex
100
AcDb2dVertex
 10
69.49393961595078
 20
-128.5533863567505
 30
0.0
  0
VERTEX
  5
2AD
330
2AB
100
AcDbEntity
  8
_U+30EC_U+30A4_U+30E4_U+30FC 1
 62
   179
420
  2234388
370
     9
100
AcDbVertex
100
AcDb2dVertex
 10
72.05157843958887
 20
-128.5533863567505
 30
0.0
  0
SEQEND
  5
2AE
330
2AB
100
AcDbEntity
  8
_U+30EC_U+30A4_U+30E4_U+30FC 1
 62
   179
420
  2234388
370
     9
  0
POLYLINE
  5
2AF
330
1F
100
AcDbEntity
  8
_U+30EC_U+30A4_U+30E4_U+30FC 1
 62
   179
420
  2234388
370
     9
100
AcDb2dPolyline
 66
     1
 10
0.0
 20
0.0
 30
0.0
  0
VERTEX
  5
2B0
330
2AF
100
AcDbEntity
  8
_U+30EC_U+30A4_U+30E4_U+30FC 1
 62
   179
420
  2234388
370
     9
100
AcDbVertex
100
AcDb2dVertex
 10
74.23439088390069
 20
-117.5070321928454
 30
0.0
  0
VERTEX
  5
2B1
330
2AF
100
AcDbEntity
  8
_U+30EC_U+30A4_U+30E4_U+30FC 1
 62
   179
420
  2234388
370
     9
100
AcDbVertex
100
AcDb2dVertex
 10
74.23439088390069
 20
-115.6990460821863
 30
0.0
  0
VERTEX
  5
2B2
330
2AF
100
AcDbEntity
  8
_U+30EC_U+30A4_U+30E4_U+30FC 1
 62
   179
420
  2234388
370
     9
100
AcDbVertex
100
AcDb2dVertex
 10
76.17466861217785
 20
-115.6990460821863
 30
0.0
  0
VERTEX
  5
2B3
330
2AF
100
AcDbEntity
  8
_U+30EC_U+30A4_U+30E4_U+30FC 1
 62
   179
420
  2234388
370
     9
100
AcDbVertex
100
AcDb2dVertex
 10
76.17466861217785
 20
-117.4849835817399
 30
0.0
  0
SEQEND
  5
2B4
330
2AF
100
AcDbEntity
  8
_U+30EC_U+30A4_U+30E4_U+30FC 1
 62
   179
420
  2234388
370
     9
  0
POLYLINE
  5
2B5
330
1F
100
AcDbEntity
  8
_U+30EC_U+30A4_U+30E4_U+30FC 1
 62
   179
420
  2234388
370
     9
100
AcDb2dPolyline
 66
     1
 10
0.0
 20
0.0
 30
0.0
  0
VERTEX
  5
2B6
330
2B5
100
AcDbEntity
  8
_U+30EC_U+30A4_U+30E4_U+30FC 1
 62
   179
420
  2234388
370
     9
100
AcDbVertex
100
AcDb2dVertex
 10
82.30418234468982
 20
-117.5070321928454
 30
0.0
  0
VERTEX
  5
2B7
330
2B5
100
AcDbEntity
  8
_U+30EC_U+30A4_U+30E4_U+30FC 1
 62
   179
420
  2234388
370
     9
100
AcDbVertex
100
AcDb2dVertex
 10
82.30418234468982
 20
-115.6990460821863
 30
0.0
  0
VERTEX
  5
2B8
330
2B5
100
AcDbEntity
  8
_U+30EC_U+30A4_U+30E4_U+30FC 1
 62
   179
420
  2234388
370
     9
100
AcDbVertex
100
AcDb2dVertex
 10
84.24446007296699
 20
-115.6990460821863
 30
0.0
  0
VERTEX
  5
2B9
330
2B5
100
AcDbEntity
  8
_U+30EC_U+30A4_U+30E4_U+30FC 1
 62
   179
420
  2234388
370
     9
100
AcDbVertex
100
AcDb2dVertex
 10
84.24446007296699
 20
-117.4849835817399
 30
0.0
  0
SEQEND
  5
2BA
330
2B5
100
AcDbEntity
  8
_U+30EC_U+30A4_U+30E4_U+30FC 1
 62
   179
420
  2234388
370
     9
  0
POLYLINE
  5
2BB
330
1F
100
AcDbEntity
  8
_U+30EC_U+30A4_U+30E4_U+30FC 1
 62
   179
420
  2234388
370
     9
100
AcDb2dPolyline
 66
     1
 10
0.0
 20
0.0
 30
0.0
  0
VERTEX
  5
2BC
330
2BB
100
AcDbEntity
  8
_U+30EC_U+30A4_U+30E4_U+30FC 1
 62
   179
420
  2234388
370
     9
100
AcDbVertex
100
AcDb2dVertex
 10
77.74011996112876
 20
-117.5070321928454
 30
0.0
  0
VERTEX
  5
2BD
330
2BB
100
AcDbEntity
  8
_U+30EC_U+30A4_U+30E4_U+30FC 1
 62
   179
420
  2234388
370
     9
100
AcDbVertex
100
AcDb2dVertex
 10
77.74011996112876
 20
-115.6990460821863
 30
0.0
  0
VERTEX
  5
2BE
330
2BB
100
AcDbEntity
  8
_U+30EC_U+30A4_U+30E4_U+30FC 1
 62
   179
420
  2234388
370
     9
100
AcDbVertex
100
AcDb2dVertex
 10
80.65053655354451
 20
-115.6990460821863
 30
0.0
  0
VERTEX
  5
2BF
330
2BB
100
AcDbEntity
  8
_U+30EC_U+30A4_U+30E4_U+30FC 1
 62
   179
420
  2234388
370
     9
100
AcDbVertex
100
AcDb2dVertex
 10
80.65053655354451
 20
-117.4849835817399
 30
0.0
  0
SEQEND
  5
2C0
330
2BB
100
AcDbEntity
  8
_U+30EC_U+30A4_U+30E4_U+30FC 1
 62
   179
420
  2234388
370
     9
  0
POLYLINE
  5
2C1
330
1F
100
AcDbEntity
  8
_U+30EC_U+30A4_U+30E4_U+30FC 1
 62
   179
420
  2234388
370
     9
100
AcDb2dPolyline
 66
     1
 10
0.0
 20
0.0
 30
0.0
  0
VERTEX
  5
2C2
330
2C1
100
AcDbEntity
  8
_U+30EC_U+30A4_U+30E4_U+30FC 1
 62
   179
420
  2234388
370
     9
100
AcDbVertex
100
AcDb2dVertex
 10
76.85817553918459
 20
-136.9759557990893
 30
0.0
  0
VERTEX
  5
2C3
330
2C1
100
AcDbEntity
  8
_U+30EC_U+30A4_U+30E4_U+30FC 1
 62
   179
420
  2234388
370
     9
100
AcDbVertex
100
AcDb2dVertex
 10
76.85817553918459
 20
-140.239150242718
 30
0.0
  0
VERTEX
  5
2C4
330
2C1
100
AcDbEntity
  8
_U+30EC_U+30A4_U+30E4_U+30FC 1
 62
   179
420
  2234388
370
     9
100
AcDbVertex
100
AcDb2dVertex
 10
82.08369623920377
 20
-140.239150242718
 30
0.0
  0
VERTEX
  5
2C5
330
2C1
100
AcDbEntity
  8
_U+30EC_U+30A4_U+30E4_U+30FC 1
 62
   179
420
  2234388
370
     9
100
AcDbVertex
100
AcDb2dVertex
 10
82.08369623920377
 20
-136.8877613546669
 30
0.0
  0
SEQEND
  5
2C6
330
2C1
100
AcDbEntity
  8
_U+30EC_U+30A4_U+30E4_U+30FC 1
 62
   179
420
  2234388
370
     9
  0
POLYLINE
  5
2C7
330
1F
100
AcDbEntity
  8
_U+30EC_U+30A4_U+30E4_U+30FC 1
 62
   179
420
  2234388
370
     9
100
AcDb2dPolyline
 66
     1
 10
0.0
 20
0.0
 30
0.0
  0
VERTEX
  5
2C8
330
2C7
100
AcDbEntity
  8
_U+30EC_U+30A4_U+30E4_U+30FC 1
 62
   179
420
  2234388
370
     9
100
AcDbVertex
100
AcDb2dVertex
 10
72.99966869317885
 20
-140.2832474649292
 30
0.0
  0
VERTEX
  5
2C9
330
2C7
100
AcDbEntity
  8
_U+30EC_U+30A4_U+30E4_U+30FC 1
 62
   179
420
  2234388
370
     9
100
AcDbVertex
100
AcDb2dVertex
 10
72.99966869317885
 20
-143.6346363529802
 30
0.0
  0
VERTEX
  5
2CA
330
2C7
100
AcDbEntity
  8
_U+30EC_U+30A4_U+30E4_U+30FC 1
 62
   179
420
  2234388
370
     9
100
AcDbVertex
100
AcDb2dVertex
 10
86.07449474850114
 20
-143.6346363529802
 30
0.0
  0
VERTEX
  5
2CB
330
2C7
100
AcDbEntity
  8
_U+30EC_U+30A4_U+30E4_U+30FC 1
 62
   179
420
  2234388
370
     9
100
AcDbVertex
100
AcDb2dVertex
 10
86.07449474850114
 20
-140.1068585760844
 30
0.0
  0
SEQEND
  5
2CC
330
2C7
100
AcDbEntity
  8
_U+30EC_U+30A4_U+30E4_U+30FC 1
 62
   179
420
  2234388
370
     9
  0
POLYLINE
  5
2CD
330
1F
100
AcDbEntity
  8
_U+30EC_U+30A4_U+30E4_U+30FC 1
 62
   179
420
  2234388
370
     9
100
AcDb2dPolyline
 66
     1
 10
0.0
 20
0.0
 30
0.0
  0
VERTEX
  5
2CE
330
2CD
100
AcDbEntity
  8
_U+30EC_U+30A4_U+30E4_U+30FC 1
 62
   179
420
  2234388
370
     9
100
AcDbVertex
100
AcDb2dVertex
 10
100.3618179951123
 20
-136.9539071879837
 30
0.0
  0
VERTEX
  5
2CF
330
2CD
100
AcDbEntity
  8
_U+30EC_U+30A4_U+30E4_U+30FC 1
 62
   179
420
  2234388
370
     9
100
AcDbVertex
100
AcDb2dVertex
 10
100.3618179951123
 20
-140.12890718719
 30
0.0
  0
VERTEX
  5
2D0
330
2CD
100
AcDbEntity
  8
_U+30EC_U+30A4_U+30E4_U+30FC 1
 62
   179
420
  2234388
370
     9
100
AcDbVertex
100
AcDb2dVertex
 10
104.2864706727638
 20
-140.12890718719
 30
0.0
  0
VERTEX
  5
2D1
330
2CD
100
AcDbEntity
  8
_U+30EC_U+30A4_U+30E4_U+30FC 1
 62
   179
420
  2234388
370
     9
100
AcDbVertex
100
AcDb2dVertex
 10
104.2864706727638
 20
-136.8216155213501
 30
0.0
  0
SEQEND
  5
2D2
330
2CD
100
AcDbEntity
  8
_U+30EC_U+30A4_U+30E4_U+30FC 1
 62
   179
420
  2234388
370
     9
  0
POLYLINE
  5
2D3
330
1F
100
AcDbEntity
  8
_U+30EC_U+30A4_U+30E4_U+30FC 1
 62
   179
420
  2234388
370
     9
100
AcDb2dPolyline
 66
     1
 10
0.0
 20
0.0
 30
0.0
  0
VERTEX
  5
2D4
330
2D3
100
AcDbEntity
  8
_U+30EC_U+30A4_U+30E4_U+30FC 1
 62
   179
420
  2234388
370
     9
100
AcDbVertex
100
AcDb2dVertex
 10
92.42431819761475
 20
-140.2171016316124
 30
0.0
  0
VERTEX
  5
2D5
330
2D3
100
AcDbEntity
  8
_U+30EC_U+30A4_U+30E4_U+30FC 1
 62
   179
420
  2234388
370
     9
100
AcDbVertex
100
AcDb2dVertex
 10
92.42431819761475
 20
-143.5243932974522
 30
0.0
  0
VERTEX
  5
2D6
330
2D3
100
AcDbEntity
  8
_U+30EC_U+30A4_U+30E4_U+30FC 1
 62
   179
420
  2234388
370
     9
100
AcDbVertex
100
AcDb2dVertex
 10
111.9593871436781
 20
-143.5243932974522
 30
0.0
  0
VERTEX
  5
2D7
330
2D3
100
AcDbEntity
  8
_U+30EC_U+30A4_U+30E4_U+30FC 1
 62
   179
420
  2234388
370
     9
100
AcDbVertex
100
AcDb2dVertex
 10
111.9593871436781
 20
-140.12890718719
 30
0.0
  0
SEQEND
  5
2D8
330
2D3
100
AcDbEntity
  8
_U+30EC_U+30A4_U+30E4_U+30FC 1
 62
   179
420
  2234388
370
     9
  0
POLYLINE
  5
2D9
330
1F
100
AcDbEntity
  8
_U+30EC_U+30A4_U+30E4_U+30FC 1
 62
   179
420
  2234388
370
     9
100
AcDb2dPolyline
 66
     1
 10
0.0
 20
0.0
 30
0.0
  0
VERTEX
  5
2DA
330
2D9
100
AcDbEntity
  8
_U+30EC_U+30A4_U+30E4_U+30FC 1
 62
   179
420
  2234388
370
     9
100
AcDbVertex
100
AcDb2dVertex
 10
110.9451510584423
 20
-117.3747405262119
 30
0.0
  0
VERTEX
  5
2DB
330
2D9
100
AcDbEntity
  8
_U+30EC_U+30A4_U+30E4_U+30FC 1
 62
   179
420
  2234388
370
     9
100
AcDbVertex
100
AcDb2dVertex
 10
110.9451510584423
 20
-115.7431433043975
 30
0.0
  0
VERTEX
  5
2DC
330
2D9
100
AcDbEntity
  8
_U+30EC_U+30A4_U+30E4_U+30FC 1
 62
   179
420
  2234388
370
     9
100
AcDbVertex
100
AcDb2dVertex
 10
111.6948038170948
 20
-115.7431433043975
 30
0.0
  0
VERTEX
  5
2DD
330
2D9
100
AcDbEntity
  8
_U+30EC_U+30A4_U+30E4_U+30FC 1
 62
   179
420
  2234388
370
     9
100
AcDbVertex
100
AcDb2dVertex
 10
111.6948038170948
 20
-117.4188377484231
 30
0.0
  0
SEQEND
  5
2DE
330
2D9
100
AcDbEntity
  8
_U+30EC_U+30A4_U+30E4_U+30FC 1
 62
   179
420
  2234388
370
     9
  0
POLYLINE
  5
2DF
330
1F
100
AcDbEntity
  8
_U+30EC_U+30A4_U+30E4_U+30FC 1
 62
   179
420
  2234388
370
     9
100
AcDb2dPolyline
 66
     1
 10
0.0
 20
0.0
 30
0.0
  0
VERTEX
  5
2E0
330
2DF
100
AcDbEntity
  8
_U+30EC_U+30A4_U+30E4_U+30FC 1
 62
   179
420
  2234388
370
     9
100
AcDbVertex
100
AcDb2dVertex
 10
113.3704982187887
 20
-117.9921016371686
 30
0.0
  0
VERTEX
  5
2E1
330
2DF
100
AcDbEntity
  8
_U+30EC_U+30A4_U+30E4_U+30FC 1
 62
   179
420
  2234388
370
     9
100
AcDbVertex
100
AcDb2dVertex
 10
115.7958453791352
 20
-117.9921016371686
 30
0.0
  0
VERTEX
  5
2E2
330
2DF
100
AcDbEntity
  8
_U+30EC_U+30A4_U+30E4_U+30FC 1
 62
   179
420
  2234388
370
     9
100
AcDbVertex
100
AcDb2dVertex
 10
115.7958453791352
 20
-134.3080738553118
 30
0.0
  0
VERTEX
  5
2E3
330
2DF
100
AcDbEntity
  8
_U+30EC_U+30A4_U+30E4_U+30FC 1
 62
   179
420
  2234388
370
     9
100
AcDbVertex
100
AcDb2dVertex
 10
112.9736232289139
 20
-134.3080738553118
 30
0.0
  0
SEQEND
  5
2E4
330
2DF
100
AcDbEntity
  8
_U+30EC_U+30A4_U+30E4_U+30FC 1
 62
   179
420
  2234388
370
     9
  0
SPLINE
  5
2E5
330
1F
100
AcDbEntity
  8
_U+30EC_U+30A4_U+30E4_U+30FC 1
370
     0
100
AcDbSpline
210
0.0
220
0.0
230
1.0
 70
    11
 71
     3
 72
    17
 73
    13
 74
     0
 42
0.0000000001
 43
0.0000000001
 12
1.0
 22
0.0
 32
0.0
 13
1.0
 23
0.0
 33
0.0
 40
0.0
 40
0.0
 40
0.0
 40
0.0
 40
1.0
 40
1.0
 40
1.0
 40
2.0
 40
2.0
 40
2.0
 40
3.0
 40
3.0
 40
3.0
 40
4.0
 40
4.0
 40
4.0
 40
4.0
 10
73.15436174478786
 20
-143.5981238529896
 30
0.0
 10
73.15436174478786
 20
-143.6670213529722
 30
0.0
 10
73.09819952399846
 20
-143.7228307974026
 30
0.0
 10
73.02930202575618
 20
-143.7228307974026
 30
0.0
 10
72.9602281386295
 20
-143.7228307974026
 30
0.0
 10
72.9042423067245
 20
-143.6670213529722
 30
0.0
 10
72.9042423067245
 20
-143.5981238529896
 30
0.0
 10
72.9042423067245
 20
-143.5288735752286
 30
0.0
 10
72.9602281386295
 20
-143.4727113530204
 30
0.0
 10
73.02930202575618
 20
-143.4727113530204
 30
0.0
 10
73.09819952399846
 20
-143.4727113530204
 30
0.0
 10
73.15436174478786
 20
-143.5288735752286
 30
0.0
 10
73.15436174478786
 20
-143.5981238529896
 30
0.0
  0
HATCH
  5
2E6
330
1F
100
AcDbEntity
  8
_U+30EC_U+30A4_U+30E4_U+30FC 1
 62
   179
420
  2234388
100
AcDbHatch
 10
0.0
 20
0.0
 30
0.0
210
0.0
220
0.0
230
1.0
  2
SOLID
 70
     1
 71
     0
 91
        1
 92
        1
 93
        1
 72
     4
 94
        3
 73
     0
 74
     1
 95
       17
 96
       13
 40
0.0
 40
0.0
 40
0.0
 40
0.0
 40
1.0
 40
1.0
 40
1.0
 40
2.0
 40
2.0
 40
2.0
 40
3.0
 40
3.0
 40
3.0
 40
4.0
 40
4.0
 40
4.0
 40
4.0
 10
73.15436174478786
 20
-143.5981238529896
 10
73.15436174478786
 20
-143.6670213529722
 10
73.09819952399846
 20
-143.7228307974026
 10
73.02930202575618
 20
-143.7228307974026
 10
72.9602281386295
 20
-143.7228307974026
 10
72.9042423067245
 20
-143.6670213529722
 10
72.9042423067245
 20
-143.5981238529896
 10
72.9042423067245
 20
-143.5288735752286
 10
72.9602281386295
 20
-143.4727113530204
 10
73.02930202575618
 20
-143.4727113530204
 10
73.09819952399846
 20
-143.4727113530204
 10
73.15436174478786
 20
-143.5288735752286
 10
73.15436174478786
 20
-143.5981238529896
 97
        0
 97
        0
 75
     2
 76
     1
 98
        0
  0
SPLINE
  5
2E7
330
1F
100
AcDbEntity
  8
_U+30EC_U+30A4_U+30E4_U+30FC 1
370
     0
100
AcDbSpline
210
0.0
220
0.0
230
1.0
 70
    11
 71
     3
 72
    17
 73
    13
 74
     0
 42
0.0000000001
 43
0.0000000001
 12
1.0
 22
0.0
 32
0.0
 13
1.0
 23
0.0
 33
0.0
 40
0.0
 40
0.0
 40
0.0
 40
0.0
 40
1.0
 40
1.0
 40
1.0
 40
2.0
 40
2.0
 40
2.0
 40
3.0
 40
3.0
 40
3.0
 40
4.0
 40
4.0
 40
4.0
 40
4.0
 10
86.17750585698421
 20
-143.5981238529896
 30
0.0
 10
86.17750585698421
 20
-143.6670213529722
 30
0.0
 10
86.12134363619481
 20
-143.7228307974026
 30
0.0
 10
86.05244613795253
 20
-143.7228307974026
 30
0.0
 10
85.98337225082587
 20
-143.7228307974026
 30
0.0
 10
85.92738641892085
 20
-143.6670213529722
 30
0.0
 10
85.92738641892085
 20
-143.5981238529896
 30
0.0
 10
85.92738641892085
 20
-143.5288735752286
 30
0.0
 10
85.98337225082587
 20
-143.4727113530204
 30
0.0
 10
86.05244613795253
 20
-143.4727113530204
 30
0.0
 10
86.12134363619481
 20
-143.4727113530204
 30
0.0
 10
86.17750585698421
 20
-143.5288735752286
 30
0.0
 10
86.17750585698421
 20
-143.5981238529896
 30
0.0
  0
HATCH
  5
2E8
330
1F
100
AcDbEntity
  8
_U+30EC_U+30A4_U+30E4_U+30FC 1
 62
   179
420
  2234388
100
AcDbHatch
 10
0.0
 20
0.0
 30
0.0
210
0.0
220
0.0
230
1.0
  2
SOLID
 70
     1
 71
     0
 91
        1
 92
        1
 93
        1
 72
     4
 94
        3
 73
     0
 74
     1
 95
       17
 96
       13
 40
0.0
 40
0.0
 40
0.0
 40
0.0
 40
1.0
 40
1.0
 40
1.0
 40
2.0
 40
2.0
 40
2.0
 40
3.0
 40
3.0
 40
3.0
 40
4.0
 40
4.0
 40
4.0
 40
4.0
 10
86.17750585698421
 20
-143.5981238529896
 10
86.17750585698421
 20
-143.6670213529722
 10
86.12134363619481
 20
-143.7228307974026
 10
86.05244613795253
 20
-143.7228307974026
 10
85.98337225082587
 20
-143.7228307974026
 10
85.92738641892085
 20
-143.6670213529722
 10
85.92738641892085
 20
-143.5981238529896
 10
85.92738641892085
 20
-143.5288735752286
 10
85.98337225082587
 20
-143.4727113530204
 10
86.05244613795253
 20
-143.4727113530204
 10
86.12134363619481
 20
-143.4727113530204
 10
86.17750585698421
 20
-143.5288735752286
 10
86.17750585698421
 20
-143.5981238529896
 97
        0
 97
        0
 75
     2
 76
     1
 98
        0
  0
SPLINE
  5
2E9
330
1F
100
AcDbEntity
  8
_U+30EC_U+30A4_U+30E4_U+30FC 1
370
     0
100
AcDbSpline
210
0.0
220
0.0
230
1.0
 70
    11
 71
     3
 72
    17
 73
    13
 74
     0
 42
0.0000000001
 43
0.0000000001
 12
1.0
 22
0.0
 32
0.0
 13
1.0
 23
0.0
 33
0.0
 40
0.0
 40
0.0
 40
0.0
 40
0.0
 40
1.0
 40
1.0
 40
1.0
 40
2.0
 40
2.0
 40
2.0
 40
3.0
 40
3.0
 40
3.0
 40
4.0
 40
4.0
 40
4.0
 40
4.0
 10
92.59382791551242
 20
-143.4978644085702
 30
0.0
 10
92.59382791551242
 20
-143.5667619085528
 30
0.0
 10
92.53731291695425
 20
-143.622924130761
 30
0.0
 10
92.46841541871197
 20
-143.622924130761
 30
0.0
 10
92.39951792046969
 20
-143.622924130761
 30
0.0
 10
92.34370847744906
 20
-143.5667619085528
 30
0.0
 10
92.34370847744906
 20
-143.4978644085702
 30
0.0
 10
92.34370847744906
 20
-143.4286141308093
 30
0.0
 10
92.39951792046969
 20
-143.3728046863788
 30
0.0
 10
92.46841541871197
 20
-143.3728046863788
 30
0.0
 10
92.53731291695425
 20
-143.3728046863788
 30
0.0
 10
92.59382791551242
 20
-143.4286141308093
 30
0.0
 10
92.59382791551242
 20
-143.4978644085702
 30
0.0
  0
HATCH
  5
2EA
330
1F
100
AcDbEntity
  8
_U+30EC_U+30A4_U+30E4_U+30FC 1
 62
   179
420
  2234388
100
AcDbHatch
 10
0.0
 20
0.0
 30
0.0
210
0.0
220
0.0
230
1.0
  2
SOLID
 70
     1
 71
     0
 91
        1
 92
        1
 93
        1
 72
     4
 94
        3
 73
     0
 74
     1
 95
       17
 96
       13
 40
0.0
 40
0.0
 40
0.0
 40
0.0
 40
1.0
 40
1.0
 40
1.0
 40
2.0
 40
2.0
 40
2.0
 40
3.0
 40
3.0
 40
3.0
 40
4.0
 40
4.0
 40
4.0
 40
4.0
 10
92.59382791551242
 20
-143.4978644085702
 10
92.59382791551242
 20
-143.5667619085528
 10
92.53731291695425
 20
-143.622924130761
 10
92.46841541871197
 20
-143.622924130761
 10
92.39951792046969
 20
-143.622924130761
 10
92.34370847744906
 20
-143.5667619085528
 10
92.34370847744906
 20
-143.4978644085702
 10
92.34370847744906
 20
-143.4286141308093
 10
92.39951792046969
 20
-143.3728046863788
 10
92.46841541871197
 20
-143.3728046863788
 10
92.53731291695425
 20
-143.3728046863788
 10
92.59382791551242
 20
-143.4286141308093
 10
92.59382791551242
 20
-143.4978644085702
 97
        0
 97
        0
 75
     2
 76
     1
 98
        0
  0
SPLINE
  5
2EB
330
1F
100
AcDbEntity
  8
_U+30EC_U+30A4_U+30E4_U+30FC 1
370
     0
100
AcDbSpline
210
0.0
220
0.0
230
1.0
 70
    11
 71
     3
 72
    17
 73
    13
 74
     0
 42
0.0000000001
 43
0.0000000001
 12
1.0
 22
0.0
 32
0.0
 13
1.0
 23
0.0
 33
0.0
 40
0.0
 40
0.0
 40
0.0
 40
0.0
 40
1.0
 40
1.0
 40
1.0
 40
2.0
 40
2.0
 40
2.0
 40
3.0
 40
3.0
 40
3.0
 40
4.0
 40
4.0
 40
4.0
 40
4.0
 10
111.8126315918666
 20
-115.7431433043975
 30
0.0
 10
111.8126315918666
 20
-115.8120408043804
 30
0.0
 10
111.7568249720605
 20
-115.8678502488109
 30
0.0
 10
111.6879246506037
 20
-115.8678502488109
 30
0.0
 10
111.6186743745926
 20
-115.8678502488109
 30
0.0
 10
111.5625121538032
 20
-115.8120408043804
 30
0.0
 10
111.5625121538032
 20
-115.7431433043975
 30
0.0
 10
111.5625121538032
 20
-115.6738930266372
 30
0.0
 10
111.6186743745926
 20
-115.6177660822065
 30
0.0
 10
111.6879246506037
 20
-115.6177660822065
 30
0.0
 10
111.7568249720605
 20
-115.6177660822065
 30
0.0
 10
111.8126315918666
 20
-115.6738930266372
 30
0.0
 10
111.8126315918666
 20
-115.7431433043975
 30
0.0
  0
HATCH
  5
2EC
330
1F
100
AcDbEntity
  8
_U+30EC_U+30A4_U+30E4_U+30FC 1
 62
   179
420
  2234388
100
AcDbHatch
 10
0.0
 20
0.0
 30
0.0
210
0.0
220
0.0
230
1.0
  2
SOLID
 70
     1
 71
     0
 91
        1
 92
        1
 93
        1
 72
     4
 94
        3
 73
     0
 74
     1
 95
       17
 96
       13
 40
0.0
 40
0.0
 40
0.0
 40
0.0
 40
1.0
 40
1.0
 40
1.0
 40
2.0
 40
2.0
 40
2.0
 40
3.0
 40
3.0
 40
3.0
 40
4.0
 40
4.0
 40
4.0
 40
4.0
 10
111.8126315918666
 20
-115.7431433043975
 10
111.8126315918666
 20
-115.8120408043804
 10
111.7568249720605
 20
-115.8678502488109
 10
111.6879246506037
 20
-115.8678502488109
 10
111.6186743745926
 20
-115.8678502488109
 10
111.5625121538032
 20
-115.8120408043804
 10
111.5625121538032
 20
-115.7431433043975
 10
111.5625121538032
 20
-115.6738930266372
 10
111.6186743745926
 20
-115.6177660822065
 10
111.6879246506037
 20
-115.6177660822065
 10
111.7568249720605
 20
-115.6177660822065
 10
111.8126315918666
 20
-115.6738930266372
 10
111.8126315918666
 20
-115.7431433043975
 97
        0
 97
        0
 75
     2
 76
     1
 98
        0
  0
SPLINE
  5
2ED
330
1F
100
AcDbEntity
  8
_U+30EC_U+30A4_U+30E4_U+30FC 1
370
     0
100
AcDbSpline
210
0.0
220
0.0
230
1.0
 70
    11
 71
     3
 72
    17
 73
    13
 74
     0
 42
0.0000000001
 43
0.0000000001
 12
1.0
 22
0.0
 32
0.0
 13
1.0
 23
0.0
 33
0.0
 40
0.0
 40
0.0
 40
0.0
 40
0.0
 40
1.0
 40
1.0
 40
1.0
 40
2.0
 40
2.0
 40
2.0
 40
3.0
 40
3.0
 40
3.0
 40
4.0
 40
4.0
 40
4.0
 40
4.0
 10
111.0774427217339
 20
-115.7431433043975
 30
0.0
 10
111.0774427217339
 20
-115.8120408043804
 30
0.0
 10
111.0216360833558
 20
-115.8678502488109
 30
0.0
 10
110.952735780471
 20
-115.8678502488109
 30
0.0
 10
110.8834855044599
 20
-115.8678502488109
 30
0.0
 10
110.8273585614474
 20
-115.8120408043804
 30
0.0
 10
110.8273585614474
 20
-115.7431433043975
 30
0.0
 10
110.8273585614474
 20
-115.6738930266372
 30
0.0
 10
110.8834855044599
 20
-115.6177660822065
 30
0.0
 10
110.952735780471
 20
-115.6177660822065
 30
0.0
 10
111.0216360833558
 20
-115.6177660822065
 30
0.0
 10
111.0774427217339
 20
-115.6738930266372
 30
0.0
 10
111.0774427217339
 20
-115.7431433043975
 30
0.0
  0
HATCH
  5
2EE
330
1F
100
AcDbEntity
  8
_U+30EC_U+30A4_U+30E4_U+30FC 1
 62
   179
420
  2234388
100
AcDbHatch
 10
0.0
 20
0.0
 30
0.0
210
0.0
220
0.0
230
1.0
  2
SOLID
 70
     1
 71
     0
 91
        1
 92
        1
 93
        1
 72
     4
 94
        3
 73
     0
 74
     1
 95
       17
 96
       13
 40
0.0
 40
0.0
 40
0.0
 40
0.0
 40
1.0
 40
1.0
 40
1.0
 40
2.0
 40
2.0
 40
2.0
 40
3.0
 40
3.0
 40
3.0
 40
4.0
 40
4.0
 40
4.0
 40
4.0
 10
111.0774427217339
 20
-115.7431433043975
 10
111.0774427217339
 20
-115.8120408043804
 10
111.0216360833558
 20
-115.8678502488109
 10
110.952735780471
 20
-115.8678502488109
 10
110.8834855044599
 20
-115.8678502488109
 10
110.8273585614474
 20
-115.8120408043804
 10
110.8273585614474
 20
-115.7431433043975
 10
110.8273585614474
 20
-115.6738930266372
 10
110.8834855044599
 20
-115.6177660822065
 10
110.952735780471
 20
-115.6177660822065
 10
111.0216360833558
 20
-115.6177660822065
 10
111.0774427217339
 20
-115.6738930266372
 10
111.0774427217339
 20
-115.7431433043975
 97
        0
 97
        0
 75
     2
 76
     1
 98
        0
  0
SPLINE
  5
2EF
330
1F
100
AcDbEntity
  8
_U+30EC_U+30A4_U+30E4_U+30FC 1
370
     0
100
AcDbSpline
210
0.0
220
0.0
230
1.0
 70
    11
 71
     3
 72
    17
 73
    13
 74
     0
 42
0.0000000001
 43
0.0000000001
 12
1.0
 22
0.0
 32
0.0
 13
1.0
 23
0.0
 33
0.0
 40
0.0
 40
0.0
 40
0.0
 40
0.0
 40
1.0
 40
1.0
 40
1.0
 40
2.0
 40
2.0
 40
2.0
 40
3.0
 40
3.0
 40
3.0
 40
4.0
 40
4.0
 40
4.0
 40
4.0
 10
115.8840398213296
 20
-118.080296081591
 30
0.0
 10
115.8840398213296
 20
-118.1491935815739
 30
0.0
 10
115.8282333043764
 20
-118.2050030260043
 30
0.0
 10
115.7593328800667
 20
-118.2050030260043
 30
0.0
 10
115.6900826040557
 20
-118.2050030260043
 30
0.0
 10
115.6339556610431
 20
-118.1491935815739
 30
0.0
 10
115.6339556610431
 20
-118.080296081591
 30
0.0
 10
115.6339556610431
 20
-118.0110458038307
 30
0.0
 10
115.6900826040557
 20
-117.9549188594
 30
0.0
 10
115.7593328800667
 20
-117.9549188594
 30
0.0
 10
115.8282333043764
 20
-117.9549188594
 30
0.0
 10
115.8840398213296
 20
-118.0110458038307
 30
0.0
 10
115.8840398213296
 20
-118.080296081591
 30
0.0
  0
HATCH
  5
2F0
330
1F
100
AcDbEntity
  8
_U+30EC_U+30A4_U+30E4_U+30FC 1
 62
   179
420
  2234388
100
AcDbHatch
 10
0.0
 20
0.0
 30
0.0
210
0.0
220
0.0
230
1.0
  2
SOLID
 70
     1
 71
     0
 91
        1
 92
        1
 93
        1
 72
     4
 94
        3
 73
     0
 74
     1
 95
       17
 96
       13
 40
0.0
 40
0.0
 40
0.0
 40
0.0
 40
1.0
 40
1.0
 40
1.0
 40
2.0
 40
2.0
 40
2.0
 40
3.0
 40
3.0
 40
3.0
 40
4.0
 40
4.0
 40
4.0
 40
4.0
 10
115.8840398213296
 20
-118.080296081591
 10
115.8840398213296
 20
-118.1491935815739
 10
115.8282333043764
 20
-118.2050030260043
 10
115.7593328800667
 20
-118.2050030260043
 10
115.6900826040557
 20
-118.2050030260043
 10
115.6339556610431
 20
-118.1491935815739
 10
115.6339556610431
 20
-118.080296081591
 10
115.6339556610431
 20
-118.0110458038307
 10
115.6900826040557
 20
-117.9549188594
 10
115.7593328800667
 20
-117.9549188594
 10
115.8282333043764
 20
-117.9549188594
 10
115.8840398213296
 20
-118.0110458038307
 10
115.8840398213296
 20
-118.080296081591
 97
        0
 97
        0
 75
     2
 76
     1
 98
        0
  0
SPLINE
  5
2F1
330
1F
100
AcDbEntity
  8
_U+30EC_U+30A4_U+30E4_U+30FC 1
370
     0
100
AcDbSpline
210
0.0
220
0.0
230
1.0
 70
    11
 71
     3
 72
    17
 73
    13
 74
     0
 42
0.0000000001
 43
0.0000000001
 12
1.0
 22
0.0
 32
0.0
 13
1.0
 23
0.0
 33
0.0
 40
0.0
 40
0.0
 40
0.0
 40
0.0
 40
1.0
 40
1.0
 40
1.0
 40
2.0
 40
2.0
 40
2.0
 40
3.0
 40
3.0
 40
3.0
 40
4.0
 40
4.0
 40
4.0
 40
4.0
 10
115.8840398213296
 20
-134.2639766331007
 30
0.0
 10
115.8840398213296
 20
-134.3328741330832
 30
0.0
 10
115.8282333043764
 20
-134.3886835775137
 30
0.0
 10
115.7593328800667
 20
-134.3886835775137
 30
0.0
 10
115.6900826040557
 20
-134.3886835775137
 30
0.0
 10
115.6339556610431
 20
-134.3328741330832
 30
0.0
 10
115.6339556610431
 20
-134.2639766331007
 30
0.0
 10
115.6339556610431
 20
-134.1947263553403
 30
0.0
 10
115.6900826040557
 20
-134.1385994109096
 30
0.0
 10
115.7593328800667
 20
-134.1385994109096
 30
0.0
 10
115.8282333043764
 20
-134.1385994109096
 30
0.0
 10
115.8840398213296
 20
-134.1947263553403
 30
0.0
 10
115.8840398213296
 20
-134.2639766331007
 30
0.0
  0
HATCH
  5
2F2
330
1F
100
AcDbEntity
  8
_U+30EC_U+30A4_U+30E4_U+30FC 1
 62
   179
420
  2234388
100
AcDbHatch
 10
0.0
 20
0.0
 30
0.0
210
0.0
220
0.0
230
1.0
  2
SOLID
 70
     1
 71
     0
 91
        1
 92
        1
 93
        1
 72
     4
 94
        3
 73
     0
 74
     1
 95
       17
 96
       13
 40
0.0
 40
0.0
 40
0.0
 40
0.0
 40
1.0
 40
1.0
 40
1.0
 40
2.0
 40
2.0
 40
2.0
 40
3.0
 40
3.0
 40
3.0
 40
4.0
 40
4.0
 40
4.0
 40
4.0
 10
115.8840398213296
 20
-134.2639766331007
 10
115.8840398213296
 20
-134.3328741330832
 10
115.8282333043764
 20
-134.3886835775137
 10
115.7593328800667
 20
-134.3886835775137
 10
115.6900826040557
 20
-134.3886835775137
 10
115.6339556610431
 20
-134.3328741330832
 10
115.6339556610431
 20
-134.2639766331007
 10
115.6339556610431
 20
-134.1947263553403
 10
115.6900826040557
 20
-134.1385994109096
 10
115.7593328800667
 20
-134.1385994109096
 10
115.8282333043764
 20
-134.1385994109096
 10
115.8840398213296
 20
-134.1947263553403
 10
115.8840398213296
 20
-134.2639766331007
 97
        0
 97
        0
 75
     2
 76
     1
 98
        0
  0
SPLINE
  5
2F3
330
1F
100
AcDbEntity
  8
_U+30EC_U+30A4_U+30E4_U+30FC 1
370
     0
100
AcDbSpline
210
0.0
220
0.0
230
1.0
 70
    11
 71
     3
 72
    17
 73
    13
 74
     0
 42
0.0000000001
 43
0.0000000001
 12
1.0
 22
0.0
 32
0.0
 13
1.0
 23
0.0
 33
0.0
 40
0.0
 40
0.0
 40
0.0
 40
0.0
 40
1.0
 40
1.0
 40
1.0
 40
2.0
 40
2.0
 40
2.0
 40
3.0
 40
3.0
 40
3.0
 40
4.0
 40
4.0
 40
4.0
 40
4.0
 10
112.0407024193813
 20
-143.4978644085702
 30
0.0
 10
112.0407024193813
 20
-143.5667619085528
 30
0.0
 10
111.9841874208231
 20
-143.622924130761
 30
0.0
 10
111.9152899225809
 20
-143.622924130761
 30
0.0
 10
111.8463924243386
 20
-143.622924130761
 30
0.0
 10
111.790582981318
 20
-143.5667619085528
 30
0.0
 10
111.790582981318
 20
-143.4978644085702
 30
0.0
 10
111.790582981318
 20
-143.4286141308093
 30
0.0
 10
111.8463924243386
 20
-143.3728046863788
 30
0.0
 10
111.9152899225809
 20
-143.3728046863788
 30
0.0
 10
111.9841874208231
 20
-143.3728046863788
 30
0.0
 10
112.0407024193813
 20
-143.4286141308093
 30
0.0
 10
112.0407024193813
 20
-143.4978644085702
 30
0.0
  0
HATCH
  5
2F4
330
1F
100
AcDbEntity
  8
_U+30EC_U+30A4_U+30E4_U+30FC 1
 62
   179
420
  2234388
100
AcDbHatch
 10
0.0
 20
0.0
 30
0.0
210
0.0
220
0.0
230
1.0
  2
SOLID
 70
     1
 71
     0
 91
        1
 92
        1
 93
        1
 72
     4
 94
        3
 73
     0
 74
     1
 95
       17
 96
       13
 40
0.0
 40
0.0
 40
0.0
 40
0.0
 40
1.0
 40
1.0
 40
1.0
 40
2.0
 40
2.0
 40
2.0
 40
3.0
 40
3.0
 40
3.0
 40
4.0
 40
4.0
 40
4.0
 40
4.0
 10
112.0407024193813
 20
-143.4978644085702
 10
112.0407024193813
 20
-143.5667619085528
 10
111.9841874208231
 20
-143.622924130761
 10
111.9152899225809
 20
-143.622924130761
 10
111.8463924243386
 20
-143.622924130761
 10
111.790582981318
 20
-143.5667619085528
 10
111.790582981318
 20
-143.4978644085702
 10
111.790582981318
 20
-143.4286141308093
 10
111.8463924243386
 20
-143.3728046863788
 10
111.9152899225809
 20
-143.3728046863788
 10
111.9841874208231
 20
-143.3728046863788
 10
112.0407024193813
 20
-143.4286141308093
 10
112.0407024193813
 20
-143.4978644085702
 97
        0
 97
        0
 75
     2
 76
     1
 98
        0
  0
SPLINE
  5
2F5
330
1F
100
AcDbEntity
  8
_U+30EC_U+30A4_U+30E4_U+30FC 1
370
     0
100
AcDbSpline
210
0.0
220
0.0
230
1.0
 70
    11
 71
     3
 72
    17
 73
    13
 74
     0
 42
0.0000000001
 43
0.0000000001
 12
1.0
 22
0.0
 32
0.0
 13
1.0
 23
0.0
 33
0.0
 40
0.0
 40
0.0
 40
0.0
 40
0.0
 40
1.0
 40
1.0
 40
1.0
 40
2.0
 40
2.0
 40
2.0
 40
3.0
 40
3.0
 40
3.0
 40
4.0
 40
4.0
 40
4.0
 40
4.0
 10
82.18670734768686
 20
-140.239150242718
 30
0.0
 10
82.18670734768686
 20
-140.3080477427006
 30
0.0
 10
82.13054720168948
 20
-140.363857187131
 30
0.0
 10
82.06164762865518
 20
-140.363857187131
 30
0.0
 10
81.9925737415285
 20
-140.363857187131
 30
0.0
 10
81.9365879096235
 20
-140.3080477427006
 30
0.0
 10
81.9365879096235
 20
-140.239150242718
 30
0.0
 10
81.9365879096235
 20
-140.1698999649576
 30
0.0
 10
81.9925737415285
 20
-140.113773020527
 30
0.0
 10
82.06164762865518
 20
-140.113773020527
 30
0.0
 10
82.13054720168948
 20
-140.113773020527
 30
0.0
 10
82.18670734768686
 20
-140.1698999649576
 30
0.0
 10
82.18670734768686
 20
-140.239150242718
 30
0.0
  0
HATCH
  5
2F6
330
1F
100
AcDbEntity
  8
_U+30EC_U+30A4_U+30E4_U+30FC 1
 62
   179
420
  2234388
100
AcDbHatch
 10
0.0
 20
0.0
 30
0.0
210
0.0
220
0.0
230
1.0
  2
SOLID
 70
     1
 71
     0
 91
        1
 92
        1
 93
        1
 72
     4
 94
        3
 73
     0
 74
     1
 95
       17
 96
       13
 40
0.0
 40
0.0
 40
0.0
 40
0.0
 40
1.0
 40
1.0
 40
1.0
 40
2.0
 40
2.0
 40
2.0
 40
3.0
 40
3.0
 40
3.0
 40
4.0
 40
4.0
 40
4.0
 40
4.0
 10
82.18670734768686
 20
-140.239150242718
 10
82.18670734768686
 20
-140.3080477427006
 10
82.13054720168948
 20
-140.363857187131
 10
82.06164762865518
 20
-140.363857187131
 10
81.9925737415285
 20
-140.363857187131
 10
81.9365879096235
 20
-140.3080477427006
 10
81.9365879096235
 20
-140.239150242718
 10
81.9365879096235
 20
-140.1698999649576
 10
81.9925737415285
 20
-140.113773020527
 10
82.06164762865518
 20
-140.113773020527
 10
82.13054720168948
 20
-140.113773020527
 10
82.18670734768686
 20
-140.1698999649576
 10
82.18670734768686
 20
-140.239150242718
 97
        0
 97
        0
 75
     2
 76
     1
 98
        0
  0
SPLINE
  5
2F7
330
1F
100
AcDbEntity
  8
_U+30EC_U+30A4_U+30E4_U+30FC 1
370
     0
100
AcDbSpline
210
0.0
220
0.0
230
1.0
 70
    11
 71
     3
 72
    17
 73
    13
 74
     0
 42
0.0000000001
 43
0.0000000001
 12
1.0
 22
0.0
 32
0.0
 13
1.0
 23
0.0
 33
0.0
 40
0.0
 40
0.0
 40
0.0
 40
0.0
 40
1.0
 40
1.0
 40
1.0
 40
2.0
 40
2.0
 40
2.0
 40
3.0
 40
3.0
 40
3.0
 40
4.0
 40
4.0
 40
4.0
 40
4.0
 10
77.00528386876488
 20
-140.239150242718
 30
0.0
 10
77.00528386876488
 20
-140.3080477427006
 30
0.0
 10
76.94912164797547
 20
-140.363857187131
 30
0.0
 10
76.8802241497332
 20
-140.363857187131
 30
0.0
 10
76.81115026260652
 20
-140.363857187131
 30
0.0
 10
76.75516443070151
 20
-140.3080477427006
 30
0.0
 10
76.75516443070151
 20
-140.239150242718
 30
0.0
 10
76.75516443070151
 20
-140.1698999649576
 30
0.0
 10
76.81115026260652
 20
-140.113773020527
 30
0.0
 10
76.8802241497332
 20
-140.113773020527
 30
0.0
 10
76.94912164797547
 20
-140.113773020527
 30
0.0
 10
77.00528386876488
 20
-140.1698999649576
 30
0.0
 10
77.00528386876488
 20
-140.239150242718
 30
0.0
  0
HATCH
  5
2F8
330
1F
100
AcDbEntity
  8
_U+30EC_U+30A4_U+30E4_U+30FC 1
 62
   179
420
  2234388
100
AcDbHatch
 10
0.0
 20
0.0
 30
0.0
210
0.0
220
0.0
230
1.0
  2
SOLID
 70
     1
 71
     0
 91
        1
 92
        1
 93
        1
 72
     4
 94
        3
 73
     0
 74
     1
 95
       17
 96
       13
 40
0.0
 40
0.0
 40
0.0
 40
0.0
 40
1.0
 40
1.0
 40
1.0
 40
2.0
 40
2.0
 40
2.0
 40
3.0
 40
3.0
 40
3.0
 40
4.0
 40
4.0
 40
4.0
 40
4.0
 10
77.00528386876488
 20
-140.239150242718
 10
77.00528386876488
 20
-140.3080477427006
 10
76.94912164797547
 20
-140.363857187131
 10
76.8802241497332
 20
-140.363857187131
 10
76.81115026260652
 20
-140.363857187131
 10
76.75516443070151
 20
-140.3080477427006
 10
76.75516443070151
 20
-140.239150242718
 10
76.75516443070151
 20
-140.1698999649576
 10
76.81115026260652
 20
-140.113773020527
 10
76.8802241497332
 20
-140.113773020527
 10
76.94912164797547
 20
-140.113773020527
 10
77.00528386876488
 20
-140.1698999649576
 10
77.00528386876488
 20
-140.239150242718
 97
        0
 97
        0
 75
     2
 76
     1
 98
        0
  0
SPLINE
  5
2F9
330
1F
100
AcDbEntity
  8
_U+30EC_U+30A4_U+30E4_U+30FC 1
370
     0
100
AcDbSpline
210
0.0
220
0.0
230
1.0
 70
    11
 71
     3
 72
    17
 73
    13
 74
     0
 42
0.0000000001
 43
0.0000000001
 12
1.0
 22
0.0
 32
0.0
 13
1.0
 23
0.0
 33
0.0
 40
0.0
 40
0.0
 40
0.0
 40
0.0
 40
1.0
 40
1.0
 40
1.0
 40
2.0
 40
2.0
 40
2.0
 40
3.0
 40
3.0
 40
3.0
 40
4.0
 40
4.0
 40
4.0
 40
4.0
 10
69.59695072443387
 20
-134.5285599663679
 30
0.0
 10
69.59695072443387
 20
-134.5974574663504
 30
0.0
 10
69.54078850364446
 20
-134.6532669107808
 30
0.0
 10
69.47189100540218
 20
-134.6532669107808
 30
0.0
 10
69.40281711827551
 20
-134.6532669107808
 30
0.0
 10
69.3468312863705
 20
-134.5974574663504
 30
0.0
 10
69.3468312863705
 20
-134.5285599663679
 30
0.0
 10
69.3468312863705
 20
-134.4593096886075
 30
0.0
 10
69.40281711827551
 20
-134.4031827441768
 30
0.0
 10
69.47189100540218
 20
-134.4031827441768
 30
0.0
 10
69.54078850364446
 20
-134.4031827441768
 30
0.0
 10
69.59695072443387
 20
-134.4593096886075
 30
0.0
 10
69.59695072443387
 20
-134.5285599663679
 30
0.0
  0
HATCH
  5
2FA
330
1F
100
AcDbEntity
  8
_U+30EC_U+30A4_U+30E4_U+30FC 1
 62
   179
420
  2234388
100
AcDbHatch
 10
0.0
 20
0.0
 30
0.0
210
0.0
220
0.0
230
1.0
  2
SOLID
 70
     1
 71
     0
 91
        1
 92
        1
 93
        1
 72
     4
 94
        3
 73
     0
 74
     1
 95
       17
 96
       13
 40
0.0
 40
0.0
 40
0.0
 40
0.0
 40
1.0
 40
1.0
 40
1.0
 40
2.0
 40
2.0
 40
2.0
 40
3.0
 40
3.0
 40
3.0
 40
4.0
 40
4.0
 40
4.0
 40
4.0
 10
69.59695072443387
 20
-134.5285599663679
 10
69.59695072443387
 20
-134.5974574663504
 10
69.54078850364446
 20
-134.6532669107808
 10
69.47189100540218
 20
-134.6532669107808
 10
69.40281711827551
 20
-134.6532669107808
 10
69.3468312863705
 20
-134.5974574663504
 10
69.3468312863705
 20
-134.5285599663679
 10
69.3468312863705
 20
-134.4593096886075
 10
69.40281711827551
 20
-134.4031827441768
 10
69.47189100540218
 20
-134.4031827441768
 10
69.54078850364446
 20
-134.4031827441768
 10
69.59695072443387
 20
-134.4593096886075
 10
69.59695072443387
 20
-134.5285599663679
 97
        0
 97
        0
 75
     2
 76
     1
 98
        0
  0
SPLINE
  5
2FB
330
1F
100
AcDbEntity
  8
_U+30EC_U+30A4_U+30E4_U+30FC 1
370
     0
100
AcDbSpline
210
0.0
220
0.0
230
1.0
 70
    11
 71
     3
 72
    17
 73
    13
 74
     0
 42
0.0000000001
 43
0.0000000001
 12
1.0
 22
0.0
 32
0.0
 13
1.0
 23
0.0
 33
0.0
 40
0.0
 40
0.0
 40
0.0
 40
0.0
 40
1.0
 40
1.0
 40
1.0
 40
2.0
 40
2.0
 40
2.0
 40
3.0
 40
3.0
 40
3.0
 40
4.0
 40
4.0
 40
4.0
 40
4.0
 10
69.59695072443387
 20
-128.5533863567505
 30
0.0
 10
69.59695072443387
 20
-128.6222838567334
 30
0.0
 10
69.54078850364446
 20
-128.6780933011639
 30
0.0
 10
69.47189100540218
 20
-128.6780933011639
 30
0.0
 10
69.40281711827551
 20
-128.6780933011639
 30
0.0
 10
69.3468312863705
 20
-128.6222838567334
 30
0.0
 10
69.3468312863705
 20
-128.5533863567505
 30
0.0
 10
69.3468312863705
 20
-128.4841360789902
 30
0.0
 10
69.40281711827551
 20
-128.4280091345595
 30
0.0
 10
69.47189100540218
 20
-128.4280091345595
 30
0.0
 10
69.54078850364446
 20
-128.4280091345595
 30
0.0
 10
69.59695072443387
 20
-128.4841360789902
 30
0.0
 10
69.59695072443387
 20
-128.5533863567505
 30
0.0
  0
HATCH
  5
2FC
330
1F
100
AcDbEntity
  8
_U+30EC_U+30A4_U+30E4_U+30FC 1
 62
   179
420
  2234388
100
AcDbHatch
 10
0.0
 20
0.0
 30
0.0
210
0.0
220
0.0
230
1.0
  2
SOLID
 70
     1
 71
     0
 91
        1
 92
        1
 93
        1
 72
     4
 94
        3
 73
     0
 74
     1
 95
       17
 96
       13
 40
0.0
 40
0.0
 40
0.0
 40
0.0
 40
1.0
 40
1.0
 40
1.0
 40
2.0
 40
2.0
 40
2.0
 40
3.0
 40
3.0
 40
3.0
 40
4.0
 40
4.0
 40
4.0
 40
4.0
 10
69.59695072443387
 20
-128.5533863567505
 10
69.59695072443387
 20
-128.6222838567334
 10
69.54078850364446
 20
-128.6780933011639
 10
69.47189100540218
 20
-128.6780933011639
 10
69.40281711827551
 20
-128.6780933011639
 10
69.3468312863705
 20
-128.6222838567334
 10
69.3468312863705
 20
-128.5533863567505
 10
69.3468312863705
 20
-128.4841360789902
 10
69.40281711827551
 20
-128.4280091345595
 10
69.47189100540218
 20
-128.4280091345595
 10
69.54078850364446
 20
-128.4280091345595
 10
69.59695072443387
 20
-128.4841360789902
 10
69.59695072443387
 20
-128.5533863567505
 97
        0
 97
        0
 75
     2
 76
     1
 98
        0
  0
SPLINE
  5
2FD
330
1F
100
AcDbEntity
  8
_U+30EC_U+30A4_U+30E4_U+30FC 1
370
     0
100
AcDbSpline
210
0.0
220
0.0
230
1.0
 70
    11
 71
     3
 72
    17
 73
    13
 74
     0
 42
0.0000000001
 43
0.0000000001
 12
1.0
 22
0.0
 32
0.0
 13
1.0
 23
0.0
 33
0.0
 40
0.0
 40
0.0
 40
0.0
 40
0.0
 40
1.0
 40
1.0
 40
1.0
 40
2.0
 40
2.0
 40
2.0
 40
3.0
 40
3.0
 40
3.0
 40
4.0
 40
4.0
 40
4.0
 40
4.0
 10
69.59695072443387
 20
-121.3434905252197
 30
0.0
 10
69.59695072443387
 20
-121.4123880252026
 30
0.0
 10
69.54078850364446
 20
-121.468197469633
 30
0.0
 10
69.47189100540218
 20
-121.468197469633
 30
0.0
 10
69.40281711827551
 20
-121.468197469633
 30
0.0
 10
69.3468312863705
 20
-121.4123880252026
 30
0.0
 10
69.3468312863705
 20
-121.3434905252197
 30
0.0
 10
69.3468312863705
 20
-121.2742402474593
 30
0.0
 10
69.40281711827551
 20
-121.2181133030287
 30
0.0
 10
69.47189100540218
 20
-121.2181133030287
 30
0.0
 10
69.54078850364446
 20
-121.2181133030287
 30
0.0
 10
69.59695072443387
 20
-121.2742402474593
 30
0.0
 10
69.59695072443387
 20
-121.3434905252197
 30
0.0
  0
HATCH
  5
2FE
330
1F
100
AcDbEntity
  8
_U+30EC_U+30A4_U+30E4_U+30FC 1
 62
   179
420
  2234388
100
AcDbHatch
 10
0.0
 20
0.0
 30
0.0
210
0.0
220
0.0
230
1.0
  2
SOLID
 70
     1
 71
     0
 91
        1
 92
        1
 93
        1
 72
     4
 94
        3
 73
     0
 74
     1
 95
       17
 96
       13
 40
0.0
 40
0.0
 40
0.0
 40
0.0
 40
1.0
 40
1.0
 40
1.0
 40
2.0
 40
2.0
 40
2.0
 40
3.0
 40
3.0
 40
3.0
 40
4.0
 40
4.0
 40
4.0
 40
4.0
 10
69.59695072443387
 20
-121.3434905252197
 10
69.59695072443387
 20
-121.4123880252026
 10
69.54078850364446
 20
-121.468197469633
 10
69.47189100540218
 20
-121.468197469633
 10
69.40281711827551
 20
-121.468197469633
 10
69.3468312863705
 20
-121.4123880252026
 10
69.3468312863705
 20
-121.3434905252197
 10
69.3468312863705
 20
-121.2742402474593
 10
69.40281711827551
 20
-121.2181133030287
 10
69.47189100540218
 20
-121.2181133030287
 10
69.54078850364446
 20
-121.2181133030287
 10
69.59695072443387
 20
-121.2742402474593
 10
69.59695072443387
 20
-121.3434905252197
 97
        0
 97
        0
 75
     2
 76
     1
 98
        0
  0
SPLINE
  5
2FF
330
1F
100
AcDbEntity
  8
_U+30EC_U+30A4_U+30E4_U+30FC 1
370
     0
100
AcDbSpline
210
0.0
220
0.0
230
1.0
 70
    11
 71
     3
 72
    17
 73
    13
 74
     0
 42
0.0000000001
 43
0.0000000001
 12
1.0
 22
0.0
 32
0.0
 13
1.0
 23
0.0
 33
0.0
 40
0.0
 40
0.0
 40
0.0
 40
0.0
 40
1.0
 40
1.0
 40
1.0
 40
2.0
 40
2.0
 40
2.0
 40
3.0
 40
3.0
 40
3.0
 40
4.0
 40
4.0
 40
4.0
 40
4.0
 10
74.38149921348098
 20
-115.7210946932919
 30
0.0
 10
74.38149921348098
 20
-115.7899921932748
 30
0.0
 10
74.32533887030745
 20
-115.8458016377053
 30
0.0
 10
74.2564394944493
 20
-115.8458016377053
 30
0.0
 10
74.18736560732262
 20
-115.8458016377053
 30
0.0
 10
74.13137977541761
 20
-115.7899921932748
 30
0.0
 10
74.13137977541761
 20
-115.7210946932919
 30
0.0
 10
74.13137977541761
 20
-115.6518444155316
 30
0.0
 10
74.18736560732262
 20
-115.5957174711009
 30
0.0
 10
74.2564394944493
 20
-115.5957174711009
 30
0.0
 10
74.32533887030745
 20
-115.5957174711009
 30
0.0
 10
74.38149921348098
 20
-115.6518444155316
 30
0.0
 10
74.38149921348098
 20
-115.7210946932919
 30
0.0
  0
HATCH
  5
300
330
1F
100
AcDbEntity
  8
_U+30EC_U+30A4_U+30E4_U+30FC 1
 62
   179
420
  2234388
100
AcDbHatch
 10
0.0
 20
0.0
 30
0.0
210
0.0
220
0.0
230
1.0
  2
SOLID
 70
     1
 71
     0
 91
        1
 92
        1
 93
        1
 72
     4
 94
        3
 73
     0
 74
     1
 95
       17
 96
       13
 40
0.0
 40
0.0
 40
0.0
 40
0.0
 40
1.0
 40
1.0
 40
1.0
 40
2.0
 40
2.0
 40
2.0
 40
3.0
 40
3.0
 40
3.0
 40
4.0
 40
4.0
 40
4.0
 40
4.0
 10
74.38149921348098
 20
-115.7210946932919
 10
74.38149921348098
 20
-115.7899921932748
 10
74.32533887030745
 20
-115.8458016377053
 10
74.2564394944493
 20
-115.8458016377053
 10
74.18736560732262
 20
-115.8458016377053
 10
74.13137977541761
 20
-115.7899921932748
 10
74.13137977541761
 20
-115.7210946932919
 10
74.13137977541761
 20
-115.6518444155316
 10
74.18736560732262
 20
-115.5957174711009
 10
74.2564394944493
 20
-115.5957174711009
 10
74.32533887030745
 20
-115.5957174711009
 10
74.38149921348098
 20
-115.6518444155316
 10
74.38149921348098
 20
-115.7210946932919
 97
        0
 97
        0
 75
     2
 76
     1
 98
        0
  0
SPLINE
  5
301
330
1F
100
AcDbEntity
  8
_U+30EC_U+30A4_U+30E4_U+30FC 1
370
     0
100
AcDbSpline
210
0.0
220
0.0
230
1.0
 70
    11
 71
     3
 72
    17
 73
    13
 74
     0
 42
0.0000000001
 43
0.0000000001
 12
1.0
 22
0.0
 32
0.0
 13
1.0
 23
0.0
 33
0.0
 40
0.0
 40
0.0
 40
0.0
 40
0.0
 40
1.0
 40
1.0
 40
1.0
 40
2.0
 40
2.0
 40
2.0
 40
3.0
 40
3.0
 40
3.0
 40
4.0
 40
4.0
 40
4.0
 40
4.0
 10
76.25563111011233
 20
-115.7210946932919
 30
0.0
 10
76.25563111011233
 20
-115.7899921932748
 30
0.0
 10
76.19946888932293
 20
-115.8458016377053
 30
0.0
 10
76.13057139108065
 20
-115.8458016377053
 30
0.0
 10
76.06149750395397
 20
-115.8458016377053
 30
0.0
 10
76.00551167204897
 20
-115.7899921932748
 30
0.0
 10
76.00551167204897
 20
-115.7210946932919
 30
0.0
 10
76.00551167204897
 20
-115.6518444155316
 30
0.0
 10
76.06149750395397
 20
-115.5957174711009
 30
0.0
 10
76.13057139108065
 20
-115.5957174711009
 30
0.0
 10
76.19946888932293
 20
-115.5957174711009
 30
0.0
 10
76.25563111011233
 20
-115.6518444155316
 30
0.0
 10
76.25563111011233
 20
-115.7210946932919
 30
0.0
  0
HATCH
  5
302
330
1F
100
AcDbEntity
  8
_U+30EC_U+30A4_U+30E4_U+30FC 1
 62
   179
420
  2234388
100
AcDbHatch
 10
0.0
 20
0.0
 30
0.0
210
0.0
220
0.0
230
1.0
  2
SOLID
 70
     1
 71
     0
 91
        1
 92
        1
 93
        1
 72
     4
 94
        3
 73
     0
 74
     1
 95
       17
 96
       13
 40
0.0
 40
0.0
 40
0.0
 40
0.0
 40
1.0
 40
1.0
 40
1.0
 40
2.0
 40
2.0
 40
2.0
 40
3.0
 40
3.0
 40
3.0
 40
4.0
 40
4.0
 40
4.0
 40
4.0
 10
76.25563111011233
 20
-115.7210946932919
 10
76.25563111011233
 20
-115.7899921932748
 10
76.19946888932293
 20
-115.8458016377053
 10
76.13057139108065
 20
-115.8458016377053
 10
76.06149750395397
 20
-115.8458016377053
 10
76.00551167204897
 20
-115.7899921932748
 10
76.00551167204897
 20
-115.7210946932919
 10
76.00551167204897
 20
-115.6518444155316
 10
76.06149750395397
 20
-115.5957174711009
 10
76.13057139108065
 20
-115.5957174711009
 10
76.19946888932293
 20
-115.5957174711009
 10
76.25563111011233
 20
-115.6518444155316
 10
76.25563111011233
 20
-115.7210946932919
 97
        0
 97
        0
 75
     2
 76
     1
 98
        0
  0
SPLINE
  5
303
330
1F
100
AcDbEntity
  8
_U+30EC_U+30A4_U+30E4_U+30FC 1
370
     0
100
AcDbSpline
210
0.0
220
0.0
230
1.0
 70
    11
 71
     3
 72
    17
 73
    13
 74
     0
 42
0.0000000001
 43
0.0000000001
 12
1.0
 22
0.0
 32
0.0
 13
1.0
 23
0.0
 33
0.0
 40
0.0
 40
0.0
 40
0.0
 40
0.0
 40
1.0
 40
1.0
 40
1.0
 40
2.0
 40
2.0
 40
2.0
 40
3.0
 40
3.0
 40
3.0
 40
4.0
 40
4.0
 40
4.0
 40
4.0
 10
77.93132551180625
 20
-115.7210946932919
 30
0.0
 10
77.93132551180625
 20
-115.7899921932748
 30
0.0
 10
77.87516329101685
 20
-115.8458016377053
 30
0.0
 10
77.80626579277457
 20
-115.8458016377053
 30
0.0
 10
77.7371919056479
 20
-115.8458016377053
 30
0.0
 10
77.68120607374289
 20
-115.7899921932748
 30
0.0
 10
77.68120607374289
 20
-115.7210946932919
 30
0.0
 10
77.68120607374289
 20
-115.6518444155316
 30
0.0
 10
77.7371919056479
 20
-115.5957174711009
 30
0.0
 10
77.80626579277457
 20
-115.5957174711009
 30
0.0
 10
77.87516329101685
 20
-115.5957174711009
 30
0.0
 10
77.93132551180625
 20
-115.6518444155316
 30
0.0
 10
77.93132551180625
 20
-115.7210946932919
 30
0.0
  0
HATCH
  5
304
330
1F
100
AcDbEntity
  8
_U+30EC_U+30A4_U+30E4_U+30FC 1
 62
   179
420
  2234388
100
AcDbHatch
 10
0.0
 20
0.0
 30
0.0
210
0.0
220
0.0
230
1.0
  2
SOLID
 70
     1
 71
     0
 91
        1
 92
        1
 93
        1
 72
     4
 94
        3
 73
     0
 74
     1
 95
       17
 96
       13
 40
0.0
 40
0.0
 40
0.0
 40
0.0
 40
1.0
 40
1.0
 40
1.0
 40
2.0
 40
2.0
 40
2.0
 40
3.0
 40
3.0
 40
3.0
 40
4.0
 40
4.0
 40
4.0
 40
4.0
 10
77.93132551180625
 20
-115.7210946932919
 10
77.93132551180625
 20
-115.7899921932748
 10
77.87516329101685
 20
-115.8458016377053
 10
77.80626579277457
 20
-115.8458016377053
 10
77.7371919056479
 20
-115.8458016377053
 10
77.68120607374289
 20
-115.7899921932748
 10
77.68120607374289
 20
-115.7210946932919
 10
77.68120607374289
 20
-115.6518444155316
 10
77.7371919056479
 20
-115.5957174711009
 10
77.80626579277457
 20
-115.5957174711009
 10
77.87516329101685
 20
-115.5957174711009
 10
77.93132551180625
 20
-115.6518444155316
 10
77.93132551180625
 20
-115.7210946932919
 97
        0
 97
        0
 75
     2
 76
     1
 98
        0
  0
SPLINE
  5
305
330
1F
100
AcDbEntity
  8
_U+30EC_U+30A4_U+30E4_U+30FC 1
370
     0
100
AcDbSpline
210
0.0
220
0.0
230
1.0
 70
    11
 71
     3
 72
    17
 73
    13
 74
     0
 42
0.0000000001
 43
0.0000000001
 12
1.0
 22
0.0
 32
0.0
 13
1.0
 23
0.0
 33
0.0
 40
0.0
 40
0.0
 40
0.0
 40
0.0
 40
1.0
 40
1.0
 40
1.0
 40
2.0
 40
2.0
 40
2.0
 40
3.0
 40
3.0
 40
3.0
 40
4.0
 40
4.0
 40
4.0
 40
4.0
 10
80.7755962725762
 20
-115.7210946932919
 30
0.0
 10
80.7755962725762
 20
-115.7899921932748
 30
0.0
 10
80.71943609093115
 20
-115.8458016377053
 30
0.0
 10
80.65053655354451
 20
-115.8458016377053
 30
0.0
 10
80.58146266641783
 20
-115.8458016377053
 30
0.0
 10
80.52547683451283
 20
-115.7899921932748
 30
0.0
 10
80.52547683451283
 20
-115.7210946932919
 30
0.0
 10
80.52547683451283
 20
-115.6518444155316
 30
0.0
 10
80.58146266641783
 20
-115.5957174711009
 30
0.0
 10
80.65053655354451
 20
-115.5957174711009
 30
0.0
 10
80.71943609093115
 20
-115.5957174711009
 30
0.0
 10
80.7755962725762
 20
-115.6518444155316
 30
0.0
 10
80.7755962725762
 20
-115.7210946932919
 30
0.0
  0
HATCH
  5
306
330
1F
100
AcDbEntity
  8
_U+30EC_U+30A4_U+30E4_U+30FC 1
 62
   179
420
  2234388
100
AcDbHatch
 10
0.0
 20
0.0
 30
0.0
210
0.0
220
0.0
230
1.0
  2
SOLID
 70
     1
 71
     0
 91
        1
 92
        1
 93
        1
 72
     4
 94
        3
 73
     0
 74
     1
 95
       17
 96
       13
 40
0.0
 40
0.0
 40
0.0
 40
0.0
 40
1.0
 40
1.0
 40
1.0
 40
2.0
 40
2.0
 40
2.0
 40
3.0
 40
3.0
 40
3.0
 40
4.0
 40
4.0
 40
4.0
 40
4.0
 10
80.7755962725762
 20
-115.7210946932919
 10
80.7755962725762
 20
-115.7899921932748
 10
80.71943609093115
 20
-115.8458016377053
 10
80.65053655354451
 20
-115.8458016377053
 10
80.58146266641783
 20
-115.8458016377053
 10
80.52547683451283
 20
-115.7899921932748
 10
80.52547683451283
 20
-115.7210946932919
 10
80.52547683451283
 20
-115.6518444155316
 10
80.58146266641783
 20
-115.5957174711009
 10
80.65053655354451
 20
-115.5957174711009
 10
80.71943609093115
 20
-115.5957174711009
 10
80.7755962725762
 20
-115.6518444155316
 10
80.7755962725762
 20
-115.7210946932919
 97
        0
 97
        0
 75
     2
 76
     1
 98
        0
  0
SPLINE
  5
307
330
1F
100
AcDbEntity
  8
_U+30EC_U+30A4_U+30E4_U+30FC 1
370
     0
100
AcDbSpline
210
0.0
220
0.0
230
1.0
 70
    11
 71
     3
 72
    17
 73
    13
 74
     0
 42
0.0000000001
 43
0.0000000001
 12
1.0
 22
0.0
 32
0.0
 13
1.0
 23
0.0
 33
0.0
 40
0.0
 40
0.0
 40
0.0
 40
0.0
 40
1.0
 40
1.0
 40
1.0
 40
2.0
 40
2.0
 40
2.0
 40
3.0
 40
3.0
 40
3.0
 40
4.0
 40
4.0
 40
4.0
 40
4.0
 10
82.4292420637215
 20
-115.7210946932919
 30
0.0
 10
82.4292420637215
 20
-115.7899921932748
 30
0.0
 10
82.3730798429321
 20
-115.8458016377053
 30
0.0
 10
82.30418234468982
 20
-115.8458016377053
 30
0.0
 10
82.23510845756316
 20
-115.8458016377053
 30
0.0
 10
82.17912262565814
 20
-115.7899921932748
 30
0.0
 10
82.17912262565814
 20
-115.7210946932919
 30
0.0
 10
82.17912262565814
 20
-115.6518444155316
 30
0.0
 10
82.23510845756316
 20
-115.5957174711009
 30
0.0
 10
82.30418234468982
 20
-115.5957174711009
 30
0.0
 10
82.3730798429321
 20
-115.5957174711009
 30
0.0
 10
82.4292420637215
 20
-115.6518444155316
 30
0.0
 10
82.4292420637215
 20
-115.7210946932919
 30
0.0
  0
HATCH
  5
308
330
1F
100
AcDbEntity
  8
_U+30EC_U+30A4_U+30E4_U+30FC 1
 62
   179
420
  2234388
100
AcDbHatch
 10
0.0
 20
0.0
 30
0.0
210
0.0
220
0.0
230
1.0
  2
SOLID
 70
     1
 71
     0
 91
        1
 92
        1
 93
        1
 72
     4
 94
        3
 73
     0
 74
     1
 95
       17
 96
       13
 40
0.0
 40
0.0
 40
0.0
 40
0.0
 40
1.0
 40
1.0
 40
1.0
 40
2.0
 40
2.0
 40
2.0
 40
3.0
 40
3.0
 40
3.0
 40
4.0
 40
4.0
 40
4.0
 40
4.0
 10
82.4292420637215
 20
-115.7210946932919
 10
82.4292420637215
 20
-115.7899921932748
 10
82.3730798429321
 20
-115.8458016377053
 10
82.30418234468982
 20
-115.8458016377053
 10
82.23510845756316
 20
-115.8458016377053
 10
82.17912262565814
 20
-115.7899921932748
 10
82.17912262565814
 20
-115.7210946932919
 10
82.17912262565814
 20
-115.6518444155316
 10
82.23510845756316
 20
-115.5957174711009
 10
82.30418234468982
 20
-115.5957174711009
 10
82.3730798429321
 20
-115.5957174711009
 10
82.4292420637215
 20
-115.6518444155316
 10
82.4292420637215
 20
-115.7210946932919
 97
        0
 97
        0
 75
     2
 76
     1
 98
        0
  0
SPLINE
  5
309
330
1F
100
AcDbEntity
  8
_U+30EC_U+30A4_U+30E4_U+30FC 1
370
     0
100
AcDbSpline
210
0.0
220
0.0
230
1.0
 70
    11
 71
     3
 72
    17
 73
    13
 74
     0
 42
0.0000000001
 43
0.0000000001
 12
1.0
 22
0.0
 32
0.0
 13
1.0
 23
0.0
 33
0.0
 40
0.0
 40
0.0
 40
0.0
 40
0.0
 40
1.0
 40
1.0
 40
1.0
 40
2.0
 40
2.0
 40
2.0
 40
3.0
 40
3.0
 40
3.0
 40
4.0
 40
4.0
 40
4.0
 40
4.0
 10
84.34747118145008
 20
-115.7210946932919
 30
0.0
 10
84.34747118145008
 20
-115.7899921932748
 30
0.0
 10
84.29131109003818
 20
-115.8458016377053
 30
0.0
 10
84.22241146241838
 20
-115.8458016377053
 30
0.0
 10
84.15333757529172
 20
-115.8458016377053
 30
0.0
 10
84.0973517433867
 20
-115.7899921932748
 30
0.0
 10
84.0973517433867
 20
-115.7210946932919
 30
0.0
 10
84.0973517433867
 20
-115.6518444155316
 30
0.0
 10
84.15333757529172
 20
-115.5957174711009
 30
0.0
 10
84.22241146241838
 20
-115.5957174711009
 30
0.0
 10
84.29131109003818
 20
-115.5957174711009
 30
0.0
 10
84.34747118145008
 20
-115.6518444155316
 30
0.0
 10
84.34747118145008
 20
-115.7210946932919
 30
0.0
  0
HATCH
  5
30A
330
1F
100
AcDbEntity
  8
_U+30EC_U+30A4_U+30E4_U+30FC 1
 62
   179
420
  2234388
100
AcDbHatch
 10
0.0
 20
0.0
 30
0.0
210
0.0
220
0.0
230
1.0
  2
SOLID
 70
     1
 71
     0
 91
        1
 92
        1
 93
        1
 72
     4
 94
        3
 73
     0
 74
     1
 95
       17
 96
       13
 40
0.0
 40
0.0
 40
0.0
 40
0.0
 40
1.0
 40
1.0
 40
1.0
 40
2.0
 40
2.0
 40
2.0
 40
3.0
 40
3.0
 40
3.0
 40
4.0
 40
4.0
 40
4.0
 40
4.0
 10
84.34747118145008
 20
-115.7210946932919
 10
84.34747118145008
 20
-115.7899921932748
 10
84.29131109003818
 20
-115.8458016377053
 10
84.22241146241838
 20
-115.8458016377053
 10
84.15333757529172
 20
-115.8458016377053
 10
84.0973517433867
 20
-115.7899921932748
 10
84.0973517433867
 20
-115.7210946932919
 10
84.0973517433867
 20
-115.6518444155316
 10
84.15333757529172
 20
-115.5957174711009
 10
84.22241146241838
 20
-115.5957174711009
 10
84.29131109003818
 20
-115.5957174711009
 10
84.34747118145008
 20
-115.6518444155316
 10
84.34747118145008
 20
-115.7210946932919
 97
        0
 97
        0
 75
     2
 76
     1
 98
        0
  0
INSERT
  5
30C
330
1F
100
AcDbEntity
  8
_U+30EC_U+30A4_U+30E4_U+30FC 1
100
AcDbBlockReference
  2
block 2
 10
0.0
 20
0.0
 30
0.0
  0
INSERT
  5
315
330
1F
100
AcDbEntity
  8
_U+30EC_U+30A4_U+30E4_U+30FC 1
100
AcDbBlockReference
  2
block 3
 10
0.0
 20
0.0
 30
0.0
  0
INSERT
  5
331
330
1F
100
AcDbEntity
  8
_U+30EC_U+30A4_U+30E4_U+30FC 1
100
AcDbBlockReference
  2
block 4
 10
0.0
 20
0.0
 30
0.0
  0
INSERT
  5
339
330
1F
100
AcDbEntity
  8
_U+30EC_U+30A4_U+30E4_U+30FC 1
100
AcDbBlockReference
  2
block 5
 10
0.0
 20
0.0
 30
0.0
  0
INSERT
  5
34D
330
1F
100
AcDbEntity
  8
_U+30EC_U+30A4_U+30E4_U+30FC 1
100
AcDbBlockReference
  2
block 6
 10
0.0
 20
0.0
 30
0.0
  0
INSERT
  5
358
330
1F
100
AcDbEntity
  8
_U+30EC_U+30A4_U+30E4_U+30FC 1
100
AcDbBlockReference
  2
block 7
 10
0.0
 20
0.0
 30
0.0
  0
INSERT
  5
36C
330
1F
100
AcDbEntity
  8
_U+30EC_U+30A4_U+30E4_U+30FC 1
100
AcDbBlockReference
  2
block 8
 10
0.0
 20
0.0
 30
0.0
  0
INSERT
  5
377
330
1F
100
AcDbEntity
  8
_U+30EC_U+30A4_U+30E4_U+30FC 1
100
AcDbBlockReference
  2
block 9
 10
0.0
 20
0.0
 30
0.0
  0
INSERT
  5
387
330
1F
100
AcDbEntity
  8
_U+30EC_U+30A4_U+30E4_U+30FC 1
100
AcDbBlockReference
  2
block 10
 10
0.0
 20
0.0
 30
0.0
  0
INSERT
  5
390
330
1F
100
AcDbEntity
  8
_U+30EC_U+30A4_U+30E4_U+30FC 1
100
AcDbBlockReference
  2
block 11
 10
0.0
 20
0.0
 30
0.0
  0
INSERT
  5
398
330
1F
100
AcDbEntity
  8
_U+30EC_U+30A4_U+30E4_U+30FC 1
100
AcDbBlockReference
  2
block 12
 10
0.0
 20
0.0
 30
0.0
  0
ENDSEC
  0
SECTION
  2
OBJECTS
  0
DICTIONARY
  5
C
330
0
100
AcDbDictionary
281
     1
  3
ACAD_GROUP
350
D
  3
ACAD_LAYOUT
350
1A
  3
ACAD_MATERIAL
350
3B
  3
ACAD_MLEADERSTYLE
350
3A2
  3
ACAD_MLINESTYLE
350
17
  3
ACAD_PLOTSETTINGS
350
19
  3
ACAD_PLOTSTYLENAME
350
E
  3
ACAD_TABLESTYLE
350
3A1
  3
ACAD_VISUALSTYLE
350
2A
  0
SUN
  5
3F
330
29
100
AcDbSun
 90
        1
290
     0
 63
     7
421
 16777215
 40
1.0
291
     1
 91
  2455826
 92
 54000000
292
     0
 70
     2
 71
   256
280
     1
  0
DICTIONARY
  5
D
102
{ACAD_REACTORS
330
C
102
}
330
C
100
AcDbDictionary
281
     1
  0
DICTIONARY
  5
1A
102
{ACAD_REACTORS
330
C
102
}
330
C
100
AcDbDictionary
281
     1
  3
Layout1
350
1E
  3
Layout2
350
26
  3
Model
350
22
  0
DICTIONARY
  5
3B
102
{ACAD_REACTORS
330
C
102
}
330
C
100
AcDbDictionary
281
     1
  3
ByBlock
350
3D
  3
ByLayer
350
3C
  3
Global
350
3E
  0
DICTIONARY
  5
3A2
102
{ACAD_REACTORS
330
C
102
}
330
C
100
AcDbDictionary
281
     1
  0
DICTIONARY
  5
17
102
{ACAD_REACTORS
330
C
102
}
330
C
100
AcDbDictionary
281
     1
  3
Standard
350
18
  0
DICTIONARY
  5
19
102
{ACAD_REACTORS
330
C
102
}
330
C
100
AcDbDictionary
281
     1
  0
ACDBDICTIONARYWDFLT
  5
E
102
{ACAD_REACTORS
330
C
102
}
330
C
100
AcDbDictionary
281
     1
  3
Normal
350
F
100
AcDbDictionaryWithDefault
340
F
  0
DICTIONARY
  5
3A1
102
{ACAD_REACTORS
330
C
102
}
330
C
100
AcDbDictionary
281
     1
  0
DICTIONARY
  5
2A
102
{ACAD_REACTORS
330
C
102
}
330
C
100
AcDbDictionary
281
     1
  3
2dWireframe
350
2F
  3
3D Hidden
350
31
  3
3dWireframe
350
30
  3
Basic
350
32
  3
Brighten
350
36
  3
ColorChange
350
3A
  3
Conceptual
350
34
  3
Dim
350
35
  3
Facepattern
350
39
  3
Flat
350
2B
  3
FlatWithEdges
350
2C
  3
Gouraud
350
2D
  3
GouraudWithEdges
350
2E
  3
Linepattern
350
38
  3
Realistic
350
33
  3
Thicken
350
37
  0
LAYOUT
  5
1E
102
{ACAD_REACTORS
330
1A
102
}
330
1A
100
AcDbPlotSettings
  1

  2
none_device
  4

  6

 40
0.0
 41
0.0
 42
0.0
 43
0.0
 44
0.0
 45
0.0
 46
0.0
 47
0.0
 48
0.0
 49
0.0
140
0.0
141
0.0
142
1.0
143
1.0
 70
   688
 72
     0
 73
     0
 74
     5
  7

 75
    16
 76
     0
 77
     2
 78
   300
147
1.0
148
0.0
149
0.0
100
AcDbLayout
  1
Layout1
 70
     1
 71
     1
 10
0.0
 20
0.0
 11
12.0
 21
9.0
 12
0.0
 22
0.0
 32
0.0
 14
1.000000000000000E+20
 24
1.000000000000000E+20
 34
1.000000000000000E+20
 15
-1.000000000000000E+20
 25
-1.000000000000000E+20
 35
-1.000000000000000E+20
146
0.0
 13
0.0
 23
0.0
 33
0.0
 16
1.0
 26
0.0
 36
0.0
 17
0.0
 27
1.0
 37
0.0
 76
     0
330
1B
  0
LAYOUT
  5
26
102
{ACAD_REACTORS
330
1A
102
}
330
1A
100
AcDbPlotSettings
  1

  2
none_device
  4

  6

 40
0.0
 41
0.0
 42
0.0
 43
0.0
 44
0.0
 45
0.0
 46
0.0
 47
0.0
 48
0.0
 49
0.0
140
0.0
141
0.0
142
1.0
143
1.0
 70
   688
 72
     0
 73
     0
 74
     5
  7

 75
    16
 76
     0
 77
     2
 78
   300
147
1.0
148
0.0
149
0.0
100
AcDbLayout
  1
Layout2
 70
     1
 71
     2
 10
0.0
 20
0.0
 11
0.0
 21
0.0
 12
0.0
 22
0.0
 32
0.0
 14
0.0
 24
0.0
 34
0.0
 15
0.0
 25
0.0
 35
0.0
146
0.0
 13
0.0
 23
0.0
 33
0.0
 16
1.0
 26
0.0
 36
0.0
 17
0.0
 27
1.0
 37
0.0
 76
     0
330
23
  0
LAYOUT
  5
22
102
{ACAD_REACTORS
330
1A
102
}
330
1A
100
AcDbPlotSettings
  1

  2
none_device
  4

  6

 40
0.0
 41
0.0
 42
0.0
 43
0.0
 44
0.0
 45
0.0
 46
0.0
 47
0.0
 48
0.0
 49
0.0
140
0.0
141
0.0
142
1.0
143
1.0
 70
  1712
 72
     0
 73
     0
 74
     0
  7

 75
     0
 76
     0
 77
     2
 78
   300
147
1.0
148
0.0
149
0.0
100
AcDbLayout
  1
Model
 70
     1
 71
     0
 10
0.0
 20
0.0
 11
12.0
 21
9.0
 12
0.0
 22
0.0
 32
0.0
 14
1.000000000000000E+20
 24
1.000000000000000E+20
 34
1.000000000000000E+20
 15
-1.000000000000000E+20
 25
-1.000000000000000E+20
 35
-1.000000000000000E+20
146
0.0
 13
0.0
 23
0.0
 33
0.0
 16
1.0
 26
0.0
 36
0.0
 17
0.0
 27
1.0
 37
0.0
 76
     0
330
1F
331
29
  0
MATERIAL
  5
3D
102
{ACAD_REACTORS
330
3B
102
}
330
3B
100
AcDbMaterial
  1
ByBlock
 72
     1
 94
      127
  0
MATERIAL
  5
3C
102
{ACAD_REACTORS
330
3B
102
}
330
3B
100
AcDbMaterial
  1
ByLayer
 72
     1
 94
      127
  0
MATERIAL
  5
3E
102
{ACAD_REACTORS
330
3B
102
}
330
3B
100
AcDbMaterial
  1
Global
 72
     1
 94
      127
  0
MLINESTYLE
  5
18
102
{ACAD_REACTORS
330
17
102
}
330
17
100
AcDbMlineStyle
  2
Standard
 70
     0
  3

 62
   256
 51
90.0
 52
90.0
 71
     2
 49
0.5
 62
   256
  6
BYLAYER
 49
-0.5
 62
   256
  6
BYLAYER
  0
ACDBPLACEHOLDER
  5
F
102
{ACAD_REACTORS
330
E
102
}
330
E
  0
VISUALSTYLE
  5
2F
102
{ACAD_REACTORS
330
2A
102
}
330
2A
100
AcDbVisualStyle
  2
2dWireframe
 70
     4
177
     2
291
     0
 71
     0
176
     1
 72
     2
176
     1
 73
     0
176
     1
 90
        0
176
     1
 40
-0.6
176
     1
 41
-30.0
176
     1
 62
     5
 63
     7
421
 16777215
176
     1
 74
     1
176
     1
 91
        4
176
     1
 64
     7
176
     1
 65
   257
176
     1
 75
     1
176
     1
175
     1
176
     1
 42
1.0
176
     1
 92
        0
176
     1
 66
   257
176
     1
 43
1.0
176
     1
 76
     1
176
     1
 77
     6
176
     1
 78
     2
176
     1
 67
     7
176
     1
 79
     5
176
     1
170
     0
176
     1
171
     0
176
     1
290
     0
176
     1
 93
        1
176
     1
 44
0.0
176
     1
173
     0
176
     1
  0
VISUALSTYLE
  5
31
102
{ACAD_REACTORS
330
2A
102
}
330
2A
100
AcDbVisualStyle
  2
3D Hidden
 70
     6
177
     2
291
     0
 71
     1
176
     1
 72
     2
176
     1
 73
     2
176
     1
 90
        0
176
     1
 40
-0.6
176
     1
 41
-30.0
176
     1
 62
     5
 63
     7
421
 16777215
176
     1
 74
     2
176
     1
 91
        2
176
     1
 64
     7
176
     1
 65
   257
176
     1
 75
     2
176
     1
175
     1
176
     1
 42
40.0
176
     1
 92
        0
176
     1
 66
   257
176
     1
 43
1.0
176
     1
 76
     1
176
     1
 77
     6
176
     1
 78
     2
176
     1
 67
     7
176
     1
 79
     3
176
     1
170
     0
176
     1
171
     0
176
     1
290
     0
176
     1
 93
        1
176
     1
 44
0.0
176
     1
173
     0
176
     1
  0
VISUALSTYLE
  5
30
102
{ACAD_REACTORS
330
2A
102
}
330
2A
100
AcDbVisualStyle
  2
3dWireframe
 70
     5
177
     2
291
     0
 71
     0
176
     1
 72
     2
176
     1
 73
     0
176
     1
 90
        0
176
     1
 40
-0.6
176
     1
 41
-30.0
176
     1
 62
     5
 63
     7
421
 16777215
176
     1
 74
     1
176
     1
 91
        4
176
     1
 64
     7
176
     1
 65
   257
176
     1
 75
     1
176
     1
175
     1
176
     1
 42
1.0
176
     1
 92
        0
176
     1
 66
   257
176
     1
 43
1.0
176
     1
 76
     1
176
     1
 77
     6
176
     1
 78
     2
176
     1
 67
     7
176
     1
 79
     5
176
     1
170
     0
176
     1
171
     0
176
     1
290
     0
176
     1
 93
        1
176
     1
 44
0.0
176
     1
173
     0
176
     1
  0
VISUALSTYLE
  5
32
102
{ACAD_REACTORS
330
2A
102
}
330
2A
100
AcDbVisualStyle
  2
Basic
 70
     7
177
     2
291
     1
 71
     1
176
     1
 72
     0
176
     1
 73
     1
176
     1
 90
        0
176
     1
 40
-0.6
176
     1
 41
-30.0
176
     1
 62
     5
 63
     7
421
 16777215
176
     1
 74
     0
176
     1
 91
        4
176
     1
 64
     7
176
     1
 65
   257
176
     1
 75
     1
176
     1
175
     1
176
     1
 42
1.0
176
     1
 92
        8
176
     1
 66
     7
176
     1
 43
1.0
176
     1
 76
     1
176
     1
 77
     6
176
     1
 78
     2
176
     1
 67
     7
176
     1
 79
     5
176
     1
170
     0
176
     1
171
     0
176
     1
290
     0
176
     1
 93
        1
176
     1
 44
0.0
176
     1
173
     0
176
     1
  0
VISUALSTYLE
  5
36
102
{ACAD_REACTORS
330
2A
102
}
330
2A
100
AcDbVisualStyle
  2
Brighten
 70
    12
177
     2
291
     1
 71
     2
176
     1
 72
     2
176
     1
 73
     0
176
     1
 90
        0
176
     1
 40
-0.6
176
     1
 41
-30.0
176
     1
 62
     5
 63
     7
421
 16777215
176
     1
 74
     1
176
     1
 91
        4
176
     1
 64
     7
176
     1
 65
   257
176
     1
 75
     1
176
     1
175
     1
176
     1
 42
1.0
176
     1
 92
        8
176
     1
 66
     7
176
     1
 43
1.0
176
     1
 76
     1
176
     1
 77
     6
176
     1
 78
     2
176
     1
 67
     7
176
     1
 79
     5
176
     1
170
     0
176
     1
171
     0
176
     1
290
     0
176
     1
 93
        1
176
     1
 44
50.0
176
     1
173
     0
176
     1
  0
VISUALSTYLE
  5
3A
102
{ACAD_REACTORS
330
2A
102
}
330
2A
100
AcDbVisualStyle
  2
ColorChange
 70
    16
177
     2
291
     1
 71
     2
176
     1
 72
     2
176
     1
 73
     3
176
     1
 90
        0
176
     1
 40
-0.6
176
     1
 41
-30.0
176
     1
 62
     5
 63
     8
421
  8421504
176
     1
 74
     1
176
     1
 91
        4
176
     1
 64
     7
176
     1
 65
   257
176
     1
 75
     1
176
     1
175
     1
176
     1
 42
1.0
176
     1
 92
        8
176
     1
 66
     8
424
  8421504
176
     1
 43
1.0
176
     1
 76
     1
176
     1
 77
     6
176
     1
 78
     2
176
     1
 67
     7
176
     1
 79
     5
176
     1
170
     0
176
     1
171
     0
176
     1
290
     0
176
     1
 93
        1
176
     1
 44
0.0
176
     1
173
     0
176
     1
  0
VISUALSTYLE
  5
34
102
{ACAD_REACTORS
330
2A
102
}
330
2A
100
AcDbVisualStyle
  2
Conceptual
 70
     9
177
     2
291
     0
 71
     3
176
     1
 72
     2
176
     1
 73
     0
176
     1
 90
        0
176
     1
 40
-0.6
176
     1
 41
-30.0
176
     1
 62
     5
 63
     7
421
 16777215
176
     1
 74
     2
176
     1
 91
        2
176
     1
 64
     7
176
     1
 65
   257
176
     1
 75
     1
176
     1
175
     1
176
     1
 42
40.0
176
     1
 92
        8
176
     1
 66
     7
176
     1
 43
1.0
176
     1
 76
     1
176
     1
 77
     6
176
     1
 78
     2
176
     1
 67
     7
176
     1
 79
     3
176
     1
170
     0
176
     1
171
     0
176
     1
290
     0
176
     1
 93
        1
176
     1
 44
0.0
176
     1
173
     0
176
     1
  0
VISUALSTYLE
  5
35
102
{ACAD_REACTORS
330
2A
102
}
330
2A
100
AcDbVisualStyle
  2
Dim
 70
    11
177
     2
291
     1
 71
     2
176
     1
 72
     2
176
     1
 73
     0
176
     1
 90
        0
176
     1
 40
-0.6
176
     1
 41
-30.0
176
     1
 62
     5
 63
     7
421
 16777215
176
     1
 74
     1
176
     1
 91
        4
176
     1
 64
     7
176
     1
 65
   257
176
     1
 75
     1
176
     1
175
     1
176
     1
 42
1.0
176
     1
 92
        8
176
     1
 66
     7
176
     1
 43
1.0
176
     1
 76
     1
176
     1
 77
     6
176
     1
 78
     2
176
     1
 67
     7
176
     1
 79
     5
176
     1
170
     0
176
     1
171
     0
176
     1
290
     0
176
     1
 93
        1
176
     1
 44
-50.0
176
     1
173
     0
176
     1
  0
VISUALSTYLE
  5
39
102
{ACAD_REACTORS
330
2A
102
}
330
2A
100
AcDbVisualStyle
  2
Facepattern
 70
    15
177
     2
291
     1
 71
     2
176
     1
 72
     2
176
     1
 73
     0
176
     1
 90
        0
176
     1
 40
-0.6
176
     1
 41
-30.0
176
     1
 62
     5
 63
     7
421
 16777215
176
     1
 74
     1
176
     1
 91
        4
176
     1
 64
     7
176
     1
 65
   257
176
     1
 75
     1
176
     1
175
     1
176
     1
 42
1.0
176
     1
 92
        8
176
     1
 66
     7
176
     1
 43
1.0
176
     1
 76
     1
176
     1
 77
     6
176
     1
 78
     2
176
     1
 67
     7
176
     1
 79
     5
176
     1
170
     0
176
     1
171
     0
176
     1
290
     0
176
     1
 93
        1
176
     1
 44
0.0
176
     1
173
     0
176
     1
  0
VISUALSTYLE
  5
2B
102
{ACAD_REACTORS
330
2A
102
}
330
2A
100
AcDbVisualStyle
  2
Flat
 70
     0
177
     2
291
     1
 71
     2
176
     1
 72
     1
176
     1
 73
     1
176
     1
 90
        2
176
     1
 40
-0.6
176
     1
 41
30.0
176
     1
 62
     5
 63
     7
421
 16777215
176
     1
 74
     0
176
     1
 91
        4
176
     1
 64
     7
176
     1
 65
   257
176
     1
 75
     1
176
     1
175
     1
176
     1
 42
1.0
176
     1
 92
        8
176
     1
 66
     7
176
     1
 43
1.0
176
     1
 76
     1
176
     1
 77
     6
176
     1
 78
     2
176
     1
 67
     7
176
     1
 79
     5
176
     1
170
     0
176
     1
171
     0
176
     1
290
     0
176
     1
 93
       13
176
     1
 44
0.0
176
     1
173
     0
176
     1
  0
VISUALSTYLE
  5
2C
102
{ACAD_REACTORS
330
2A
102
}
330
2A
100
AcDbVisualStyle
  2
FlatWithEdges
 70
     1
177
     2
291
     1
 71
     2
176
     1
 72
     1
176
     1
 73
     1
176
     1
 90
        2
176
     1
 40
-0.6
176
     1
 41
30.0
176
     1
 62
     5
 63
     7
421
 16777215
176
     1
 74
     1
176
     1
 91
        4
176
     1
 64
     7
176
     1
 65
   257
176
     1
 75
     1
176
     1
175
     1
176
     1
 42
1.0
176
     1
 92
        0
176
     1
 66
   257
176
     1
 43
1.0
176
     1
 76
     1
176
     1
 77
     6
176
     1
 78
     2
176
     1
 67
     7
176
     1
 79
     5
176
     1
170
     0
176
     1
171
     0
176
     1
290
     0
176
     1
 93
       13
176
     1
 44
0.0
176
     1
173
     0
176
     1
  0
VISUALSTYLE
  5
2D
102
{ACAD_REACTORS
330
2A
102
}
330
2A
100
AcDbVisualStyle
  2
Gouraud
 70
     2
177
     2
291
     1
 71
     2
176
     1
 72
     2
176
     1
 73
     1
176
     1
 90
        2
176
     1
 40
-0.6
176
     1
 41
30.0
176
     1
 62
     5
 63
     7
421
 16777215
176
     1
 74
     0
176
     1
 91
        4
176
     1
 64
     7
176
     1
 65
   257
176
     1
 75
     1
176
     1
175
     1
176
     1
 42
1.0
176
     1
 92
        0
176
     1
 66
     7
176
     1
 43
1.0
176
     1
 76
     1
176
     1
 77
     6
176
     1
 78
     2
176
     1
 67
     7
176
     1
 79
     5
176
     1
170
     0
176
     1
171
     0
176
     1
290
     0
176
     1
 93
       13
176
     1
 44
0.0
176
     1
173
     0
176
     1
  0
VISUALSTYLE
  5
2E
102
{ACAD_REACTORS
330
2A
102
}
330
2A
100
AcDbVisualStyle
  2
GouraudWithEdges
 70
     3
177
     2
291
     1
 71
     2
176
     1
 72
     2
176
     1
 73
     1
176
     1
 90
        2
176
     1
 40
-0.6
176
     1
 41
30.0
176
     1
 62
     5
 63
     7
421
 16777215
176
     1
 74
     1
176
     1
 91
        4
176
     1
 64
     7
176
     1
 65
   257
176
     1
 75
     1
176
     1
175
     1
176
     1
 42
1.0
176
     1
 92
        0
176
     1
 66
   257
176
     1
 43
1.0
176
     1
 76
     1
176
     1
 77
     6
176
     1
 78
     2
176
     1
 67
     7
176
     1
 79
     5
176
     1
170
     0
176
     1
171
     0
176
     1
290
     0
176
     1
 93
       13
176
     1
 44
0.0
176
     1
173
     0
176
     1
  0
VISUALSTYLE
  5
38
102
{ACAD_REACTORS
330
2A
102
}
330
2A
100
AcDbVisualStyle
  2
Linepattern
 70
    14
177
     2
291
     1
 71
     2
176
     1
 72
     2
176
     1
 73
     0
176
     1
 90
        0
176
     1
 40
-0.6
176
     1
 41
-30.0
176
     1
 62
     5
 63
     7
421
 16777215
176
     1
 74
     1
176
     1
 91
        4
176
     1
 64
     7
176
     1
 65
   257
176
     1
 75
     7
176
     1
175
     7
176
     1
 42
1.0
176
     1
 92
        8
176
     1
 66
     7
176
     1
 43
1.0
176
     1
 76
     1
176
     1
 77
     6
176
     1
 78
     2
176
     1
 67
     7
176
     1
 79
     5
176
     1
170
     0
176
     1
171
     0
176
     1
290
     0
176
     1
 93
        1
176
     1
 44
0.0
176
     1
173
     0
176
     1
  0
VISUALSTYLE
  5
33
102
{ACAD_REACTORS
330
2A
102
}
330
2A
100
AcDbVisualStyle
  2
Realistic
 70
     8
177
     2
291
     0
 71
     2
176
     1
 72
     2
176
     1
 73
     0
176
     1
 90
        0
176
     1
 40
-0.6
176
     1
 41
-30.0
176
     1
 62
     5
 63
     7
421
 16777215
176
     1
 74
     1
176
     1
 91
        0
176
     1
 64
     7
176
     1
 65
   257
176
     1
 75
     1
176
     1
175
     1
176
     1
 42
1.0
176
     1
 92
        8
176
     1
 66
     8
424
  7895160
176
     1
 43
1.0
176
     1
 76
     1
176
     1
 77
     6
176
     1
 78
     2
176
     1
 67
     7
176
     1
 79
     5
176
     1
170
     0
176
     1
171
     0
176
     1
290
     0
176
     1
 93
       13
176
     1
 44
0.0
176
     1
173
     0
176
     1
  0
VISUALSTYLE
  5
37
102
{ACAD_REACTORS
330
2A
102
}
330
2A
100
AcDbVisualStyle
  2
Thicken
 70
    13
177
     2
291
     1
 71
     2
176
     1
 72
     2
176
     1
 73
     0
176
     1
 90
        0
176
     1
 40
-0.6
176
     1
 41
-30.0
176
     1
 62
     5
 63
     7
421
 16777215
176
     1
 74
     1
176
     1
 91
        4
176
     1
 64
     7
176
     1
 65
   257
176
     1
 75
     1
176
     1
175
     1
176
     1
 42
1.0
176
     1
 92
       12
176
     1
 66
     7
176
     1
 43
1.0
176
     1
 76
     1
176
     1
 77
     6
176
     1
 78
     2
176
     1
 67
     7
176
     1
 79
     5
176
     1
170
     0
176
     1
171
     0
176
     1
290
     0
176
     1
 93
        1
176
     1
 44
0.0
176
     1
173
     0
176
     1
  0
ENDSEC
  0
EOF
