  0
SECTION
  2
HEADER
  9
$ACADVER
  1
AC1024
  9
$ACADMAINTVER
 70
     6
  9
$DWGCODEPAGE
  3
UNDEFINED
  9
$INSBASE
 10
0.0
 20
0.0
 30
0.0
  9
$EXTMIN
 10
1.000000000000000E+20
 20
1.000000000000000E+20
 30
1.000000000000000E+20
  9
$EXTMAX
 10
-1.000000000000000E+20
 20
-1.000000000000000E+20
 30
-1.000000000000000E+20
  9
$LIMMIN
 10
0.0
 20
0.0
  9
$LIMMAX
 10
12.0
 20
9.0
  9
$ORTHOMODE
 70
     0
  9
$REGENMODE
 70
     1
  9
$FILLMODE
 70
     1
  9
$QTEXTMODE
 70
     0
  9
$MIRRTEXT
 70
     1
  9
$LTSCALE
 40
1.0
  9
$ATTMODE
 70
     1
  9
$TEXTSIZE
 40
0.2
  9
$TRACEWID
 40
0.05
  9
$TEXTSTYLE
  7
Standard
  9
$CLAYER
  8
0
  9
$CELTYPE
  6
ByLayer
  9
$CECOLOR
 62
   256
  9
$CELTSCALE
 40
1.0
  9
$DISPSILH
 70
     0
  9
$DIMSCALE
 40
1.0
  9
$DIMASZ
 40
0.18
  9
$DIMEXO
 40
0.0625
  9
$DIMDLI
 40
0.38
  9
$DIMRND
 40
0.0
  9
$DIMDLE
 40
0.0
  9
$DIMEXE
 40
0.18
  9
$DIMTP
 40
0.0
  9
$DIMTM
 40
0.0
  9
$DIMTXT
 40
0.18
  9
$DIMCEN
 40
0.09
  9
$DIMTSZ
 40
0.0
  9
$DIMTOL
 70
     0
  9
$DIMLIM
 70
     0
  9
$DIMTIH
 70
     1
  9
$DIMTOH
 70
     1
  9
$DIMSE1
 70
     0
  9
$DIMSE2
 70
     0
  9
$DIMTAD
 70
     0
  9
$DIMZIN
 70
     0
  9
$DIMBLK
  1

  9
$DIMASO
 70
     1
  9
$DIMSHO
 70
     1
  9
$DIMPOST
  1

  9
$DIMAPOST
  1

  9
$DIMALT
 70
     0
  9
$DIMALTD
 70
     2
  9
$DIMALTF
 40
25.4
  9
$DIMLFAC
 40
1.0
  9
$DIMTOFL
 70
     0
  9
$DIMTVP
 40
0.0
  9
$DIMTIX
 70
     0
  9
$DIMSOXD
 70
     0
  9
$DIMSAH
 70
     0
  9
$DIMBLK1
  1

  9
$DIMBLK2
  1

  9
$DIMSTYLE
  2
Standard
  9
$DIMCLRD
 70
     0
  9
$DIMCLRE
 70
     0
  9
$DIMCLRT
 70
     0
  9
$DIMTFAC
 40
1.0
  9
$DIMGAP
 40
0.09
  9
$DIMJUST
 70
     0
  9
$DIMSD1
 70
     0
  9
$DIMSD2
 70
     0
  9
$DIMTOLJ
 70
     1
  9
$DIMTZIN
 70
     0
  9
$DIMALTZ
 70
     0
  9
$DIMALTTZ
 70
     0
  9
$DIMUPT
 70
     0
  9
$DIMDEC
 70
     4
  9
$DIMTDEC
 70
     4
  9
$DIMALTU
 70
     2
  9
$DIMALTTD
 70
     2
  9
$DIMTXSTY
  7
Standard
  9
$DIMAUNIT
 70
     0
  9
$DIMADEC
 70
     0
  9
$DIMALTRND
 40
0.0
  9
$DIMAZIN
 70
     0
  9
$DIMDSEP
 70
    46
  9
$DIMATFIT
 70
     3
  9
$DIMFRAC
 70
     0
  9
$DIMLDRBLK
  1

  9
$DIMLUNIT
 70
     2
  9
$DIMLWD
 70
    -2
  9
$DIMLWE
 70
    -2
  9
$DIMTMOVE
 70
     0
  9
$DIMFXL
 40
1.0
  9
$DIMFXLON
 70
     0
  9
$DIMJOGANG
 40
0.7853981633974483
  9
$DIMTFILL
 70
     0
  9
$DIMTFILLCLR
 70
     0
  9
$DIMARCSYM
 70
     0
  9
$DIMLTYPE
  6

  9
$DIMLTEX1
  6

  9
$DIMLTEX2
  6

  9
$DIMTXTDIRECTION
 70
     0
  9
$LUNITS
 70
     2
  9
$LUPREC
 70
     4
  9
$SKETCHINC
 40
0.1
  9
$FILLETRAD
 40
0.5
  9
$AUNITS
 70
     0
  9
$AUPREC
 70
     0
  9
$MENU
  1
.
  9
$ELEVATION
 40
0.0
  9
$PELEVATION
 40
0.0
  9
$THICKNESS
 40
0.0
  9
$LIMCHECK
 70
     0
  9
$CHAMFERA
 40
0.5
  9
$CHAMFERB
 40
0.5
  9
$CHAMFERC
 40
1.0
  9
$CHAMFERD
 40
0.0
  9
$SKPOLY
 70
     0
  9
$TDCREATE
 40
2457917.631296284
  9
$TDUCREATE
 40
2457917.256296296
  9
$TDUPDATE
 40
2457917.631296284
  9
$TDUUPDATE
 40
2457917.256296296
  9
$TDINDWG
 40
0.0000000116
  9
$TDUSRTIMER
 40
0.0000000116
  9
$USRTIMER
 70
     1
  9
$ANGBASE
 50
0.0
  9
$ANGDIR
 70
     0
  9
$PDMODE
 70
     0
  9
$PDSIZE
 40
0.0
  9
$PLINEWID
 40
0.0
  9
$SPLFRAME
 70
     0
  9
$SPLINETYPE
 70
     6
  9
$SPLINESEGS
 70
     8
  9
$HANDSEED
  5
19D
  9
$SURFTAB1
 70
     6
  9
$SURFTAB2
 70
     6
  9
$SURFTYPE
 70
     6
  9
$SURFU
 70
     6
  9
$SURFV
 70
     6
  9
$UCSBASE
  2

  9
$UCSNAME
  2

  9
$UCSORG
 10
0.0
 20
0.0
 30
0.0
  9
$UCSXDIR
 10
1.0
 20
0.0
 30
0.0
  9
$UCSYDIR
 10
0.0
 20
1.0
 30
0.0
  9
$UCSORTHOREF
  2

  9
$UCSORTHOVIEW
 70
     0
  9
$UCSORGTOP
 10
0.0
 20
0.0
 30
0.0
  9
$UCSORGBOTTOM
 10
0.0
 20
0.0
 30
0.0
  9
$UCSORGLEFT
 10
0.0
 20
0.0
 30
0.0
  9
$UCSORGRIGHT
 10
0.0
 20
0.0
 30
0.0
  9
$UCSORGFRONT
 10
0.0
 20
0.0
 30
0.0
  9
$UCSORGBACK
 10
0.0
 20
0.0
 30
0.0
  9
$PUCSBASE
  2

  9
$PUCSNAME
  2

  9
$PUCSORG
 10
0.0
 20
0.0
 30
0.0
  9
$PUCSXDIR
 10
1.0
 20
0.0
 30
0.0
  9
$PUCSYDIR
 10
0.0
 20
1.0
 30
0.0
  9
$PUCSORTHOREF
  2

  9
$PUCSORTHOVIEW
 70
     0
  9
$PUCSORGTOP
 10
0.0
 20
0.0
 30
0.0
  9
$PUCSORGBOTTOM
 10
0.0
 20
0.0
 30
0.0
  9
$PUCSORGLEFT
 10
0.0
 20
0.0
 30
0.0
  9
$PUCSORGRIGHT
 10
0.0
 20
0.0
 30
0.0
  9
$PUCSORGFRONT
 10
0.0
 20
0.0
 30
0.0
  9
$PUCSORGBACK
 10
0.0
 20
0.0
 30
0.0
  9
$USERI1
 70
     0
  9
$USERI2
 70
     0
  9
$USERI3
 70
     0
  9
$USERI4
 70
     0
  9
$USERI5
 70
     0
  9
$USERR1
 40
0.0
  9
$USERR2
 40
0.0
  9
$USERR3
 40
0.0
  9
$USERR4
 40
0.0
  9
$USERR5
 40
0.0
  9
$WORLDVIEW
 70
     1
  9
$SHADEDGE
 70
     3
  9
$SHADEDIF
 70
    70
  9
$TILEMODE
 70
     1
  9
$MAXACTVP
 70
    64
  9
$PINSBASE
 10
0.0
 20
0.0
 30
0.0
  9
$PLIMCHECK
 70
     0
  9
$PEXTMIN
 10
1.000000000000000E+20
 20
1.000000000000000E+20
 30
1.000000000000000E+20
  9
$PEXTMAX
 10
-1.000000000000000E+20
 20
-1.000000000000000E+20
 30
-1.000000000000000E+20
  9
$PLIMMIN
 10
0.0
 20
0.0
  9
$PLIMMAX
 10
12.0
 20
9.0
  9
$UNITMODE
 70
     0
  9
$VISRETAIN
 70
     1
  9
$PLINEGEN
 70
     0
  9
$PSLTSCALE
 70
     1
  9
$TREEDEPTH
 70
  3020
  9
$CMLSTYLE
  2
Standard
  9
$CMLJUST
 70
     0
  9
$CMLSCALE
 40
1.0
  9
$PROXYGRAPHICS
 70
     1
  9
$MEASUREMENT
 70
     0
  9
$CELWEIGHT
370
    -1
  9
$ENDCAPS
280
     0
  9
$JOINSTYLE
280
     0
  9
$LWDISPLAY
290
     1
  9
$INSUNITS
 70
     1
  9
$HYPERLINKBASE
  1

  9
$STYLESHEET
  1

  9
$XEDIT
290
     1
  9
$CEPSNTYPE
380
     0
  9
$PSTYLEMODE
290
     1
  9
$FINGERPRINTGUID
  2
{6B6D1499-5FFD-7985-0F06-16E010C531BF}
  9
$VERSIONGUID
  2
{FAEB1C32-E019-11D5-929B-00C0DF256EC4}
  9
$EXTNAMES
290
     1
  9
$PSVPSCALE
 40
0.0
  9
$OLESTARTUP
290
     0
  9
$SORTENTS
280
   127
  9
$INDEXCTL
280
     0
  9
$HIDETEXT
280
     1
  9
$XCLIPFRAME
280
     2
  9
$HALOGAP
280
     0
  9
$OBSCOLOR
 70
   257
  9
$OBSLTYPE
280
     0
  9
$INTERSECTIONDISPLAY
280
     0
  9
$INTERSECTIONCOLOR
 70
   257
  9
$DIMASSOC
280
     2
  9
$PROJECTNAME
  1

  9
$CAMERADISPLAY
290
     0
  9
$LENSLENGTH
 40
50.0
  9
$CAMERAHEIGHT
 40
0.0
  9
$STEPSPERSEC
 40
2.0
  9
$STEPSIZE
 40
6.0
  9
$3DDWFPREC
 40
2.0
  9
$PSOLWIDTH
 40
0.25
  9
$PSOLHEIGHT
 40
4.0
  9
$LOFTANG1
 40
1.570796326794897
  9
$LOFTANG2
 40
1.570796326794897
  9
$LOFTMAG1
 40
0.0
  9
$LOFTMAG2
 40
0.0
  9
$LOFTPARAM
 70
     7
  9
$LOFTNORMALS
280
     1
  9
$LATITUDE
 40
37.795
  9
$LONGITUDE
 40
-122.394
  9
$NORTHDIRECTION
 40
0.0
  9
$TIMEZONE
 70
 -8000
  9
$LIGHTGLYPHDISPLAY
280
     1
  9
$TILEMODELIGHTSYNCH
280
     1
  9
$CMATERIAL
347
3C
  9
$SOLIDHIST
280
     1
  9
$SHOWHIST
280
     1
  9
$DWFFRAME
280
     2
  9
$DGNFRAME
280
     2
  9
$REALWORLDSCALE
290
     1
  9
$INTERFERECOLOR
 62
   256
  9
$CSHADOW
280
     0
  9
$SHADOWPLANELOCATION
 40
0.0
  0
ENDSEC
  0
SECTION
  2
CLASSES
  0
CLASS
  1
ACDBDICTIONARYWDFLT
  2
AcDbDictionaryWithDefault
  3
ObjectDBX Classes
 90
        0
 91
        4
280
     0
281
     0
  0
CLASS
  1
VISUALSTYLE
  2
AcDbVisualStyle
  3
ObjectDBX Classes
 90
     4095
 91
        4
280
     0
281
     0
  0
CLASS
  1
MATERIAL
  2
AcDbMaterial
  3
ObjectDBX Classes
 90
     1153
 91
        4
280
     0
281
     0
  0
CLASS
  1
SUN
  2
AcDbSun
  3
SCENEOE
 90
     1024
 91
        4
280
     0
281
     0
  0
ENDSEC
  0
SECTION
  2
TABLES
  0
TABLE
  2
VPORT
  5
8
330
0
100
AcDbSymbolTable
 70
     1
  0
VPORT
  5
29
330
8
100
AcDbSymbolTableRecord
100
AcDbViewportTableRecord
  2
*Active
 70
     0
 10
0.0
 20
0.0
 11
1.0
 21
1.0
 12
0.0
 22
0.0
 13
0.0
 23
0.0
 14
0.5
 24
0.5
 15
0.5
 25
0.5
 16
0.0
 26
0.0
 36
1.0
 17
91.00082462281999
 27
-128.4993055234307
 37
0.0
 40
256.9986110468615
 41
0.7081814508812795
 42
50.0
 43
0.0
 44
0.0
 50
0.0
 51
0.0
 71
     0
 72
   100
 73
     1
 74
     3
 75
     0
 76
     0
 77
     0
 78
     0
281
     0
 65
     1
110
0.0
120
0.0
130
0.0
111
1.0
121
0.0
131
0.0
112
0.0
122
1.0
132
0.0
 79
     0
146
0.0
 60
     3
 61
     5
292
     1
282
     1
141
0.0
142
0.0
 63
   250
361
3F
  0
ENDTAB
  0
TABLE
  2
LTYPE
  5
5
330
0
100
AcDbSymbolTable
 70
     1
  0
LTYPE
  5
14
330
5
100
AcDbSymbolTableRecord
100
AcDbLinetypeTableRecord
  2
ByBlock
 70
     0
  3

 72
    65
 73
     0
 40
0.0
  0
LTYPE
  5
15
330
5
100
AcDbSymbolTableRecord
100
AcDbLinetypeTableRecord
  2
ByLayer
 70
     0
  3

 72
    65
 73
     0
 40
0.0
  0
LTYPE
  5
16
330
5
100
AcDbSymbolTableRecord
100
AcDbLinetypeTableRecord
  2
Continuous
 70
     0
  3
Solid line
 72
    65
 73
     0
 40
0.0
  0
ENDTAB
  0
TABLE
  2
LAYER
  5
2
330
0
100
AcDbSymbolTable
 70
     2
  0
LAYER
  5
10
330
2
100
AcDbSymbolTableRecord
100
AcDbLayerTableRecord
  2
0
 70
     0
 62
     7
  6
Continuous
370
    -3
390
F
347
3E
  0
LAYER
  5
40
330
2
100
AcDbSymbolTableRecord
100
AcDbLayerTableRecord
  2
_U+30EC_U+30A4_U+30E4_U+30FC 1
 70
     0
 62
     7
  6
Continuous
370
    -3
390
F
347
3E
  0
ENDTAB
  0
TABLE
  2
STYLE
  5
3
330
0
100
AcDbSymbolTable
 70
     1
  0
STYLE
  5
11
330
3
100
AcDbSymbolTableRecord
100
AcDbTextStyleTableRecord
  2
Standard
 70
     0
 40
0.0
 41
1.0
 50
0.0
 71
     0
 42
0.2
  3
txt
  4

  0
ENDTAB
  0
TABLE
  2
VIEW
  5
6
330
0
100
AcDbSymbolTable
 70
     0
  0
ENDTAB
  0
TABLE
  2
UCS
  5
7
330
0
100
AcDbSymbolTable
 70
     0
  0
ENDTAB
  0
TABLE
  2
APPID
  5
9
330
0
100
AcDbSymbolTable
 70
     1
  0
APPID
  5
12
330
9
100
AcDbSymbolTableRecord
100
AcDbRegAppTableRecord
  2
ACAD
 70
     0
  0
ENDTAB
  0
TABLE
  2
DIMSTYLE
  5
A
330
0
100
AcDbSymbolTable
 70
     1
100
AcDbDimStyleTable
  0
DIMSTYLE
105
27
330
A
100
AcDbSymbolTableRecord
100
AcDbDimStyleTableRecord
  2
Standard
 70
     0
178
     0
340
11
  0
ENDTAB
  0
TABLE
  2
BLOCK_RECORD
  5
1
330
0
100
AcDbSymbolTable
 70
    25
  0
BLOCK_RECORD
  5
1F
330
1
100
AcDbSymbolTableRecord
100
AcDbBlockTableRecord
  2
*Model_Space
340
22
 70
     0
280
     1
281
     0
  0
BLOCK_RECORD
  5
1B
330
1
100
AcDbSymbolTableRecord
100
AcDbBlockTableRecord
  2
*Paper_Space
340
1E
 70
     0
280
     1
281
     0
  0
BLOCK_RECORD
  5
23
330
1
100
AcDbSymbolTableRecord
100
AcDbBlockTableRecord
  2
*Paper_Space0
340
26
 70
     0
280
     1
281
     0
  0
BLOCK_RECORD
  5
B6
330
1
100
AcDbSymbolTableRecord
100
AcDbBlockTableRecord
  2
block 2
340
0
102
{BLKREFS
331
B7
102
}
 70
     0
280
     1
281
     0
  0
BLOCK_RECORD
  5
C6
330
1
100
AcDbSymbolTableRecord
100
AcDbBlockTableRecord
  2
block 3
340
0
102
{BLKREFS
331
C7
102
}
 70
     0
280
     1
281
     0
  0
BLOCK_RECORD
  5
CE
330
1
100
AcDbSymbolTableRecord
100
AcDbBlockTableRecord
  2
block 4
340
0
102
{BLKREFS
331
CF
102
}
 70
     0
280
     1
281
     0
  0
BLOCK_RECORD
  5
D3
330
1
100
AcDbSymbolTableRecord
100
AcDbBlockTableRecord
  2
block 5
340
0
102
{BLKREFS
331
D4
102
}
 70
     0
280
     1
281
     0
  0
BLOCK_RECORD
  5
D8
330
1
100
AcDbSymbolTableRecord
100
AcDbBlockTableRecord
  2
block 6
340
0
102
{BLKREFS
331
D9
102
}
 70
     0
280
     1
281
     0
  0
BLOCK_RECORD
  5
DD
330
1
100
AcDbSymbolTableRecord
100
AcDbBlockTableRecord
  2
block 7
340
0
102
{BLKREFS
331
DE
102
}
 70
     0
280
     1
281
     0
  0
BLOCK_RECORD
  5
ED
330
1
100
AcDbSymbolTableRecord
100
AcDbBlockTableRecord
  2
block 8
340
0
102
{BLKREFS
331
EE
102
}
 70
     0
280
     1
281
     0
  0
BLOCK_RECORD
  5
106
330
1
100
AcDbSymbolTableRecord
100
AcDbBlockTableRecord
  2
block 9
340
0
102
{BLKREFS
331
107
102
}
 70
     0
280
     1
281
     0
  0
BLOCK_RECORD
  5
10B
330
1
100
AcDbSymbolTableRecord
100
AcDbBlockTableRecord
  2
block 10
340
0
102
{BLKREFS
331
10C
102
}
 70
     0
280
     1
281
     0
  0
BLOCK_RECORD
  5
110
330
1
100
AcDbSymbolTableRecord
100
AcDbBlockTableRecord
  2
block 11
340
0
102
{BLKREFS
331
111
102
}
 70
     0
280
     1
281
     0
  0
BLOCK_RECORD
  5
115
330
1
100
AcDbSymbolTableRecord
100
AcDbBlockTableRecord
  2
block 12
340
0
102
{BLKREFS
331
116
102
}
 70
     0
280
     1
281
     0
  0
BLOCK_RECORD
  5
121
330
1
100
AcDbSymbolTableRecord
100
AcDbBlockTableRecord
  2
block 13
340
0
102
{BLKREFS
331
122
102
}
 70
     0
280
     1
281
     0
  0
BLOCK_RECORD
  5
129
330
1
100
AcDbSymbolTableRecord
100
AcDbBlockTableRecord
  2
block 14
340
0
102
{BLKREFS
331
12A
102
}
 70
     0
280
     1
281
     0
  0
BLOCK_RECORD
  5
12E
330
1
100
AcDbSymbolTableRecord
100
AcDbBlockTableRecord
  2
block 15
340
0
102
{BLKREFS
331
12F
102
}
 70
     0
280
     1
281
     0
  0
BLOCK_RECORD
  5
133
330
1
100
AcDbSymbolTableRecord
100
AcDbBlockTableRecord
  2
block 16
340
0
102
{BLKREFS
331
134
102
}
 70
     0
280
     1
281
     0
  0
BLOCK_RECORD
  5
138
330
1
100
AcDbSymbolTableRecord
100
AcDbBlockTableRecord
  2
block 17
340
0
102
{BLKREFS
331
139
102
}
 70
     0
280
     1
281
     0
  0
BLOCK_RECORD
  5
144
330
1
100
AcDbSymbolTableRecord
100
AcDbBlockTableRecord
  2
block 18
340
0
102
{BLKREFS
331
145
102
}
 70
     0
280
     1
281
     0
  0
BLOCK_RECORD
  5
15D
330
1
100
AcDbSymbolTableRecord
100
AcDbBlockTableRecord
  2
block 19
340
0
102
{BLKREFS
331
15E
102
}
 70
     0
280
     1
281
     0
  0
BLOCK_RECORD
  5
162
330
1
100
AcDbSymbolTableRecord
100
AcDbBlockTableRecord
  2
block 20
340
0
102
{BLKREFS
331
163
102
}
 70
     0
280
     1
281
     0
  0
BLOCK_RECORD
  5
167
330
1
100
AcDbSymbolTableRecord
100
AcDbBlockTableRecord
  2
block 21
340
0
102
{BLKREFS
331
168
102
}
 70
     0
280
     1
281
     0
  0
BLOCK_RECORD
  5
179
330
1
100
AcDbSymbolTableRecord
100
AcDbBlockTableRecord
  2
block 22
340
0
102
{BLKREFS
331
17A
102
}
 70
     0
280
     1
281
     0
  0
BLOCK_RECORD
  5
18B
330
1
100
AcDbSymbolTableRecord
100
AcDbBlockTableRecord
  2
block 23
340
0
102
{BLKREFS
331
18C
102
}
 70
     0
280
     1
281
     0
  0
BLOCK_RECORD
  5
191
330
1
100
AcDbSymbolTableRecord
100
AcDbBlockTableRecord
  2
block 24
340
0
102
{BLKREFS
331
192
102
}
 70
     0
280
     1
281
     0
  0
BLOCK_RECORD
  5
196
330
1
100
AcDbSymbolTableRecord
100
AcDbBlockTableRecord
  2
block 25
340
0
102
{BLKREFS
331
197
102
}
 70
     0
280
     1
281
     0
  0
ENDTAB
  0
ENDSEC
  0
SECTION
  2
BLOCKS
  0
BLOCK
  5
20
330
1F
100
AcDbEntity
  8
0
100
AcDbBlockBegin
  2
*Model_Space
 70
     0
 10
0.0
 20
0.0
 30
0.0
  3
*Model_Space
  1

  0
ENDBLK
  5
21
330
1F
100
AcDbEntity
  8
0
100
AcDbBlockEnd
  0
BLOCK
  5
1C
330
1B
100
AcDbEntity
 67
     1
  8
0
100
AcDbBlockBegin
  2
*Paper_Space
 70
     0
 10
0.0
 20
0.0
 30
0.0
  3
*Paper_Space
  1

  0
ENDBLK
  5
1D
330
1B
100
AcDbEntity
 67
     1
  8
0
100
AcDbBlockEnd
  0
BLOCK
  5
24
330
23
100
AcDbEntity
  8
0
100
AcDbBlockBegin
  2
*Paper_Space0
 70
     0
 10
0.0
 20
0.0
 30
0.0
  3
*Paper_Space0
  1

  0
ENDBLK
  5
25
330
23
100
AcDbEntity
  8
0
100
AcDbBlockEnd
  0
BLOCK
  5
B8
330
B6
100
AcDbEntity
  8
0
100
AcDbBlockBegin
  2
block 2
 70
     0
 10
0.0
 20
0.0
 30
0.0
  3
block 2
  1

  0
POLYLINE
  5
BA
330
B6
100
AcDbEntity
  8
_U+30EC_U+30A4_U+30E4_U+30FC 1
 62
   179
420
  2234388
370
     9
100
AcDb2dPolyline
 66
     1
 10
0.0
 20
0.0
 30
0.0
  0
VERTEX
  5
BB
330
BA
100
AcDbEntity
  8
_U+30EC_U+30A4_U+30E4_U+30FC 1
 62
   179
420
  2234388
370
     9
100
AcDbVertex
100
AcDb2dVertex
 10
82.25715706811175
 20
-118.4783705259358
 30
0.0
  0
VERTEX
  5
BC
330
BA
100
AcDbEntity
  8
_U+30EC_U+30A4_U+30E4_U+30FC 1
 62
   179
420
  2234388
370
     9
100
AcDbVertex
100
AcDb2dVertex
 10
82.25715706811175
 20
-140.478580520436
 30
0.0
  0
SEQEND
  5
BD
330
BA
100
AcDbEntity
  8
_U+30EC_U+30A4_U+30E4_U+30FC 1
 62
   179
420
  2234388
370
     9
  0
POLYLINE
  5
BE
330
B6
100
AcDbEntity
  8
_U+30EC_U+30A4_U+30E4_U+30FC 1
 62
   179
420
  2234388
370
     9
100
AcDb2dPolyline
 66
     1
 10
0.0
 20
0.0
 30
0.0
  0
VERTEX
  5
BF
330
BE
100
AcDbEntity
  8
_U+30EC_U+30A4_U+30E4_U+30FC 1
 62
   179
420
  2234388
370
     9
100
AcDbVertex
100
AcDb2dVertex
 10
83.71684564198311
 20
-118.4783705259358
 30
0.0
  0
VERTEX
  5
C0
330
BE
100
AcDbEntity
  8
_U+30EC_U+30A4_U+30E4_U+30FC 1
 62
   179
420
  2234388
370
     9
100
AcDbVertex
100
AcDb2dVertex
 10
81.2570694241302
 20
-118.4783705259358
 30
0.0
  0
SEQEND
  5
C1
330
BE
100
AcDbEntity
  8
_U+30EC_U+30A4_U+30E4_U+30FC 1
 62
   179
420
  2234388
370
     9
  0
POLYLINE
  5
C2
330
B6
100
AcDbEntity
  8
_U+30EC_U+30A4_U+30E4_U+30FC 1
 62
   179
420
  2234388
370
     9
100
AcDb2dPolyline
 66
     1
 10
0.0
 20
0.0
 30
0.0
  0
VERTEX
  5
C3
330
C2
100
AcDbEntity
  8
_U+30EC_U+30A4_U+30E4_U+30FC 1
 62
   179
420
  2234388
370
     9
100
AcDbVertex
100
AcDb2dVertex
 10
83.71684564198311
 20
-140.478580520436
 30
0.0
  0
VERTEX
  5
C4
330
C2
100
AcDbEntity
  8
_U+30EC_U+30A4_U+30E4_U+30FC 1
 62
   179
420
  2234388
370
     9
100
AcDbVertex
100
AcDb2dVertex
 10
81.2570694241302
 20
-140.478580520436
 30
0.0
  0
SEQEND
  5
C5
330
C2
100
AcDbEntity
  8
_U+30EC_U+30A4_U+30E4_U+30FC 1
 62
   179
420
  2234388
370
     9
  0
INSERT
  5
C7
330
B6
100
AcDbEntity
  8
_U+30EC_U+30A4_U+30E4_U+30FC 1
100
AcDbBlockReference
  2
block 3
 10
0.0
 20
0.0
 30
0.0
  0
INSERT
  5
CF
330
B6
100
AcDbEntity
  8
_U+30EC_U+30A4_U+30E4_U+30FC 1
100
AcDbBlockReference
  2
block 4
 10
0.0
 20
0.0
 30
0.0
  0
INSERT
  5
D4
330
B6
100
AcDbEntity
  8
_U+30EC_U+30A4_U+30E4_U+30FC 1
100
AcDbBlockReference
  2
block 5
 10
0.0
 20
0.0
 30
0.0
  0
INSERT
  5
D9
330
B6
100
AcDbEntity
  8
_U+30EC_U+30A4_U+30E4_U+30FC 1
100
AcDbBlockReference
  2
block 6
 10
0.0
 20
0.0
 30
0.0
  0
ENDBLK
  5
B9
330
B6
100
AcDbEntity
  8
0
100
AcDbBlockEnd
  0
BLOCK
  5
C8
330
C6
100
AcDbEntity
  8
0
100
AcDbBlockBegin
  2
block 3
 70
     0
 10
0.0
 20
0.0
 30
0.0
  3
block 3
  1

  0
SPLINE
  5
CA
330
C6
100
AcDbEntity
  8
_U+30EC_U+30A4_U+30E4_U+30FC 1
370
     0
100
AcDbSpline
210
0.0
220
0.0
230
1.0
 70
    11
 71
     3
 72
    44
 73
    40
 74
     0
 42
0.0000000001
 43
0.0000000001
 12
1.0
 22
0.0
 32
0.0
 13
1.0
 23
0.0
 33
0.0
 40
0.0
 40
0.0
 40
0.0
 40
0.0
 40
1.0
 40
1.0
 40
1.0
 40
2.0
 40
2.0
 40
2.0
 40
3.0
 40
3.0
 40
3.0
 40
4.0
 40
4.0
 40
4.0
 40
5.0
 40
5.0
 40
5.0
 40
6.0
 40
6.0
 40
6.0
 40
7.0
 40
7.0
 40
7.0
 40
8.0
 40
8.0
 40
8.0
 40
9.0
 40
9.0
 40
9.0
 40
10.0
 40
10.0
 40
10.0
 40
11.0
 40
11.0
 40
11.0
 40
12.0
 40
12.0
 40
12.0
 40
13.0
 40
13.0
 40
13.0
 40
13.0
 10
81.30253090415354
 20
-129.9744954102147
 30
0.0
 10
81.46117755124929
 20
-130.1922254448825
 30
0.0
 10
81.53524710418216
 20
-130.2852430229842
 30
0.0
 10
81.67907984069134
 20
-130.3341633788748
 30
0.0
 10
81.67907984069134
 20
-130.3341633788748
 30
0.0
 10
81.67907984069134
 20
-129.5555717992083
 30
0.0
 10
81.67907984069134
 20
-129.5555717992083
 30
0.0
 10
81.67907984069134
 20
-129.5555717992083
 30
0.0
 10
81.88423527683797
 20
-129.5555717992083
 30
0.0
 10
81.88423527683797
 20
-129.5555717992083
 30
0.0
 10
81.88423527683797
 20
-129.5555717992083
 30
0.0
 10
81.88423527683797
 20
-130.5835882920069
 30
0.0
 10
81.88423527683797
 20
-130.5835882920069
 30
0.0
 10
81.5268066202433
 20
-130.5518934135426
 30
0.0
 10
81.44843069795387
 20
-130.4864365993228
 30
0.0
 10
81.15025768370549
 20
-130.1012749240719
 30
0.0
 10
80.95130341943232
 20
-129.8453043295179
 30
0.0
 10
80.88360729314715
 20
-129.7798475152981
 30
0.0
 10
80.7461479832857
 20
-129.7798475152981
 30
0.0
 10
80.6276366985931
 20
-129.7798475152981
 30
0.0
 10
80.49655081537934
 20
-129.8518500109398
 30
0.0
 10
80.49655081537934
 20
-130.0485649631476
 30
0.0
 10
80.49655081537934
 20
-130.3086696722839
 30
0.0
 10
80.72702770334256
 20
-130.3172824109971
 30
0.0
 10
80.843471930744
 20
-130.3214165255794
 30
0.0
 10
80.843471930744
 20
-130.3214165255794
 30
0.0
 10
80.843471930744
 20
-130.5456922416691
 30
0.0
 10
80.843471930744
 20
-130.5456922416691
 30
0.0
 10
80.71652016211254
 20
-130.537079502956
 30
0.0
 10
80.60438230406766
 20
-130.5263997069517
 30
0.0
 10
80.48587101937507
 20
-130.4461289821454
 30
0.0
 10
80.32515731498816
 20
-130.3362304361659
 30
0.0
 10
80.29122312445845
 20
-130.1498507704139
 30
0.0
 10
80.29122312445845
 20
-130.033751052561
 30
0.0
 10
80.29122312445845
 20
-129.7564208659984
 30
0.0
 10
80.47536347814506
 20
-129.5493706273349
 30
0.0
 10
80.74821504057684
 20
-129.5493706273349
 30
0.0
 10
80.97679712602317
 20
-129.5493706273349
 30
0.0
 10
81.07618813077262
 20
-129.6654703451878
 30
0.0
 10
81.30253090415354
 20
-129.9744954102147
 30
0.0
  0
HATCH
  5
CB
330
C6
100
AcDbEntity
  8
_U+30EC_U+30A4_U+30E4_U+30FC 1
 62
   179
420
  2234388
100
AcDbHatch
 10
0.0
 20
0.0
 30
0.0
210
0.0
220
0.0
230
1.0
  2
SOLID
 70
     1
 71
     0
 91
        1
 92
        1
 93
        1
 72
     4
 94
        3
 73
     0
 74
     1
 95
       44
 96
       40
 40
0.0
 40
0.0
 40
0.0
 40
0.0
 40
1.0
 40
1.0
 40
1.0
 40
2.0
 40
2.0
 40
2.0
 40
3.0
 40
3.0
 40
3.0
 40
4.0
 40
4.0
 40
4.0
 40
5.0
 40
5.0
 40
5.0
 40
6.0
 40
6.0
 40
6.0
 40
7.0
 40
7.0
 40
7.0
 40
8.0
 40
8.0
 40
8.0
 40
9.0
 40
9.0
 40
9.0
 40
10.0
 40
10.0
 40
10.0
 40
11.0
 40
11.0
 40
11.0
 40
12.0
 40
12.0
 40
12.0
 40
13.0
 40
13.0
 40
13.0
 40
13.0
 10
81.30253090415354
 20
-129.9744954102147
 10
81.46117755124929
 20
-130.1922254448825
 10
81.53524710418216
 20
-130.2852430229842
 10
81.67907984069134
 20
-130.3341633788748
 10
81.67907984069134
 20
-130.3341633788748
 10
81.67907984069134
 20
-129.5555717992083
 10
81.67907984069134
 20
-129.5555717992083
 10
81.67907984069134
 20
-129.5555717992083
 10
81.88423527683797
 20
-129.5555717992083
 10
81.88423527683797
 20
-129.5555717992083
 10
81.88423527683797
 20
-129.5555717992083
 10
81.88423527683797
 20
-130.5835882920069
 10
81.88423527683797
 20
-130.5835882920069
 10
81.5268066202433
 20
-130.5518934135426
 10
81.44843069795387
 20
-130.4864365993228
 10
81.15025768370549
 20
-130.1012749240719
 10
80.95130341943232
 20
-129.8453043295179
 10
80.88360729314715
 20
-129.7798475152981
 10
80.7461479832857
 20
-129.7798475152981
 10
80.6276366985931
 20
-129.7798475152981
 10
80.49655081537934
 20
-129.8518500109398
 10
80.49655081537934
 20
-130.0485649631476
 10
80.49655081537934
 20
-130.3086696722839
 10
80.72702770334256
 20
-130.3172824109971
 10
80.843471930744
 20
-130.3214165255794
 10
80.843471930744
 20
-130.3214165255794
 10
80.843471930744
 20
-130.5456922416691
 10
80.843471930744
 20
-130.5456922416691
 10
80.71652016211254
 20
-130.537079502956
 10
80.60438230406766
 20
-130.5263997069517
 10
80.48587101937507
 20
-130.4461289821454
 10
80.32515731498816
 20
-130.3362304361659
 10
80.29122312445845
 20
-130.1498507704139
 10
80.29122312445845
 20
-130.033751052561
 10
80.29122312445845
 20
-129.7564208659984
 10
80.47536347814506
 20
-129.5493706273349
 10
80.74821504057684
 20
-129.5493706273349
 10
80.97679712602317
 20
-129.5493706273349
 10
81.07618813077262
 20
-129.6654703451878
 10
81.30253090415354
 20
-129.9744954102147
 97
        0
 97
        0
 75
     2
 76
     1
 98
        0
  0
SPLINE
  5
CC
330
C6
100
AcDbEntity
  8
_U+30EC_U+30A4_U+30E4_U+30FC 1
370
     0
100
AcDbSpline
210
0.0
220
0.0
230
1.0
 70
    11
 71
     3
 72
    44
 73
    40
 74
     0
 42
0.0000000001
 43
0.0000000001
 12
1.0
 22
0.0
 32
0.0
 13
1.0
 23
0.0
 33
0.0
 40
0.0
 40
0.0
 40
0.0
 40
0.0
 40
1.0
 40
1.0
 40
1.0
 40
2.0
 40
2.0
 40
2.0
 40
3.0
 40
3.0
 40
3.0
 40
4.0
 40
4.0
 40
4.0
 40
5.0
 40
5.0
 40
5.0
 40
6.0
 40
6.0
 40
6.0
 40
7.0
 40
7.0
 40
7.0
 40
8.0
 40
8.0
 40
8.0
 40
9.0
 40
9.0
 40
9.0
 40
10.0
 40
10.0
 40
10.0
 40
11.0
 40
11.0
 40
11.0
 40
12.0
 40
12.0
 40
12.0
 40
13.0
 40
13.0
 40
13.0
 40
13.0
 10
81.30253090415354
 20
-128.7976507924534
 30
0.0
 10
81.46117755124929
 20
-129.0153808271212
 30
0.0
 10
81.53524710418216
 20
-129.1083984052229
 30
0.0
 10
81.67907984069134
 20
-129.1573187611135
 30
0.0
 10
81.67907984069134
 20
-129.1573187611135
 30
0.0
 10
81.67907984069134
 20
-128.378727181447
 30
0.0
 10
81.67907984069134
 20
-128.378727181447
 30
0.0
 10
81.67907984069134
 20
-128.378727181447
 30
0.0
 10
81.88423527683797
 20
-128.378727181447
 30
0.0
 10
81.88423527683797
 20
-128.378727181447
 30
0.0
 10
81.88423527683797
 20
-128.378727181447
 30
0.0
 10
81.88423527683797
 20
-129.4067436742455
 30
0.0
 10
81.88423527683797
 20
-129.4067436742455
 30
0.0
 10
81.5268066202433
 20
-129.3750487957813
 30
0.0
 10
81.44843069795387
 20
-129.3095919815615
 30
0.0
 10
81.15025768370549
 20
-128.9244303063106
 30
0.0
 10
80.95130341943232
 20
-128.6684597117565
 30
0.0
 10
80.88360729314715
 20
-128.6030028975368
 30
0.0
 10
80.7461479832857
 20
-128.6030028975368
 30
0.0
 10
80.6276366985931
 20
-128.6030028975368
 30
0.0
 10
80.49655081537934
 20
-128.6748331384042
 30
0.0
 10
80.49655081537934
 20
-128.8717203453863
 30
0.0
 10
80.49655081537934
 20
-129.1318250545226
 30
0.0
 10
80.72702770334256
 20
-129.1400932836872
 30
0.0
 10
80.843471930744
 20
-129.144571907818
 30
0.0
 10
80.843471930744
 20
-129.144571907818
 30
0.0
 10
80.843471930744
 20
-129.3688476239078
 30
0.0
 10
80.843471930744
 20
-129.3688476239078
 30
0.0
 10
80.71652016211254
 20
-129.3602348851947
 30
0.0
 10
80.60438230406766
 20
-129.3495550891904
 30
0.0
 10
80.48587101937507
 20
-129.2692843643841
 30
0.0
 10
80.32515731498816
 20
-129.1593858184046
 30
0.0
 10
80.29122312445845
 20
-128.9730061526526
 30
0.0
 10
80.29122312445845
 20
-128.8569064347997
 30
0.0
 10
80.29122312445845
 20
-128.5795762482371
 30
0.0
 10
80.47536347814506
 20
-128.3723537547993
 30
0.0
 10
80.74821504057684
 20
-128.3723537547993
 30
0.0
 10
80.97679712602317
 20
-128.3723537547993
 30
0.0
 10
81.07618813077262
 20
-128.4886257274265
 30
0.0
 10
81.30253090415354
 20
-128.7976507924534
 30
0.0
  0
HATCH
  5
CD
330
C6
100
AcDbEntity
  8
_U+30EC_U+30A4_U+30E4_U+30FC 1
 62
   179
420
  2234388
100
AcDbHatch
 10
0.0
 20
0.0
 30
0.0
210
0.0
220
0.0
230
1.0
  2
SOLID
 70
     1
 71
     0
 91
        1
 92
        1
 93
        1
 72
     4
 94
        3
 73
     0
 74
     1
 95
       44
 96
       40
 40
0.0
 40
0.0
 40
0.0
 40
0.0
 40
1.0
 40
1.0
 40
1.0
 40
2.0
 40
2.0
 40
2.0
 40
3.0
 40
3.0
 40
3.0
 40
4.0
 40
4.0
 40
4.0
 40
5.0
 40
5.0
 40
5.0
 40
6.0
 40
6.0
 40
6.0
 40
7.0
 40
7.0
 40
7.0
 40
8.0
 40
8.0
 40
8.0
 40
9.0
 40
9.0
 40
9.0
 40
10.0
 40
10.0
 40
10.0
 40
11.0
 40
11.0
 40
11.0
 40
12.0
 40
12.0
 40
12.0
 40
13.0
 40
13.0
 40
13.0
 40
13.0
 10
81.30253090415354
 20
-128.7976507924534
 10
81.46117755124929
 20
-129.0153808271212
 10
81.53524710418216
 20
-129.1083984052229
 10
81.67907984069134
 20
-129.1573187611135
 10
81.67907984069134
 20
-129.1573187611135
 10
81.67907984069134
 20
-128.378727181447
 10
81.67907984069134
 20
-128.378727181447
 10
81.67907984069134
 20
-128.378727181447
 10
81.88423527683797
 20
-128.378727181447
 10
81.88423527683797
 20
-128.378727181447
 10
81.88423527683797
 20
-128.378727181447
 10
81.88423527683797
 20
-129.4067436742455
 10
81.88423527683797
 20
-129.4067436742455
 10
81.5268066202433
 20
-129.3750487957813
 10
81.44843069795387
 20
-129.3095919815615
 10
81.15025768370549
 20
-128.9244303063106
 10
80.95130341943232
 20
-128.6684597117565
 10
80.88360729314715
 20
-128.6030028975368
 10
80.7461479832857
 20
-128.6030028975368
 10
80.6276366985931
 20
-128.6030028975368
 10
80.49655081537934
 20
-128.6748331384042
 10
80.49655081537934
 20
-128.8717203453863
 10
80.49655081537934
 20
-129.1318250545226
 10
80.72702770334256
 20
-129.1400932836872
 10
80.843471930744
 20
-129.144571907818
 10
80.843471930744
 20
-129.144571907818
 10
80.843471930744
 20
-129.3688476239078
 10
80.843471930744
 20
-129.3688476239078
 10
80.71652016211254
 20
-129.3602348851947
 10
80.60438230406766
 20
-129.3495550891904
 10
80.48587101937507
 20
-129.2692843643841
 10
80.32515731498816
 20
-129.1593858184046
 10
80.29122312445845
 20
-128.9730061526526
 10
80.29122312445845
 20
-128.8569064347997
 10
80.29122312445845
 20
-128.5795762482371
 10
80.47536347814506
 20
-128.3723537547993
 10
80.74821504057684
 20
-128.3723537547993
 10
80.97679712602317
 20
-128.3723537547993
 10
81.07618813077262
 20
-128.4886257274265
 10
81.30253090415354
 20
-128.7976507924534
 97
        0
 97
        0
 75
     2
 76
     1
 98
        0
  0
ENDBLK
  5
C9
330
C6
100
AcDbEntity
  8
0
100
AcDbBlockEnd
  0
BLOCK
  5
D0
330
CE
100
AcDbEntity
  8
0
100
AcDbBlockBegin
  2
block 4
 70
     0
 10
0.0
 20
0.0
 30
0.0
  3
block 4
  1

  0
SPLINE
  5
D2
330
CE
100
AcDbEntity
  8
_U+30EC_U+30A4_U+30E4_U+30FC 1
 62
   179
420
  2234388
370
    25
100
AcDbSpline
210
0.0
220
0.0
230
1.0
 70
    11
 71
     3
 72
    17
 73
    13
 74
     0
 42
0.0000000001
 43
0.0000000001
 12
1.0
 22
0.0
 32
0.0
 13
1.0
 23
0.0
 33
0.0
 40
0.0
 40
0.0
 40
0.0
 40
0.0
 40
1.0
 40
1.0
 40
1.0
 40
2.0
 40
2.0
 40
2.0
 40
3.0
 40
3.0
 40
3.0
 40
4.0
 40
4.0
 40
4.0
 40
4.0
 10
86.2924055762751
 20
-118.4783705259358
 30
0.0
 10
86.2924055762751
 20
-118.4983730259308
 30
0.0
 10
86.27656585445699
 20
-118.5142127481494
 30
0.0
 10
86.25691613273607
 20
-118.5142127481494
 30
0.0
 10
86.23761918878392
 20
-118.5142127481494
 30
0.0
 10
86.22177946696581
 20
-118.4983730259308
 30
0.0
 10
86.22177946696581
 20
-118.4783705259358
 30
0.0
 10
86.22177946696581
 20
-118.4591088592741
 30
0.0
 10
86.23761918878392
 20
-118.4432338592781
 30
0.0
 10
86.25691613273607
 20
-118.4432338592781
 30
0.0
 10
86.27656585445699
 20
-118.4432338592781
 30
0.0
 10
86.2924055762751
 20
-118.4591088592741
 30
0.0
 10
86.2924055762751
 20
-118.4783705259358
 30
0.0
  0
ENDBLK
  5
D1
330
CE
100
AcDbEntity
  8
0
100
AcDbBlockEnd
  0
BLOCK
  5
D5
330
D3
100
AcDbEntity
  8
0
100
AcDbBlockBegin
  2
block 5
 70
     0
 10
0.0
 20
0.0
 30
0.0
  3
block 5
  1

  0
SPLINE
  5
D7
330
D3
100
AcDbEntity
  8
_U+30EC_U+30A4_U+30E4_U+30FC 1
 62
   179
420
  2234388
370
    25
100
AcDbSpline
210
0.0
220
0.0
230
1.0
 70
    11
 71
     3
 72
    17
 73
    13
 74
     0
 42
0.0000000001
 43
0.0000000001
 12
1.0
 22
0.0
 32
0.0
 13
1.0
 23
0.0
 33
0.0
 40
0.0
 40
0.0
 40
0.0
 40
0.0
 40
1.0
 40
1.0
 40
1.0
 40
2.0
 40
2.0
 40
2.0
 40
3.0
 40
3.0
 40
3.0
 40
4.0
 40
4.0
 40
4.0
 40
4.0
 10
86.2924055762751
 20
-140.478580520436
 30
0.0
 10
86.2924055762751
 20
-140.4978774648752
 30
0.0
 10
86.27656585445699
 20
-140.5137171870938
 30
0.0
 10
86.25691613273607
 20
-140.5137171870938
 30
0.0
 10
86.23761918878392
 20
-140.5137171870938
 30
0.0
 10
86.22177946696581
 20
-140.4978774648752
 30
0.0
 10
86.22177946696581
 20
-140.478580520436
 30
0.0
 10
86.22177946696581
 20
-140.4586132982188
 30
0.0
 10
86.23761918878392
 20
-140.4434438537783
 30
0.0
 10
86.25691613273607
 20
-140.4434438537783
 30
0.0
 10
86.27656585445699
 20
-140.4434438537783
 30
0.0
 10
86.2924055762751
 20
-140.4586132982188
 30
0.0
 10
86.2924055762751
 20
-140.478580520436
 30
0.0
  0
ENDBLK
  5
D6
330
D3
100
AcDbEntity
  8
0
100
AcDbBlockEnd
  0
BLOCK
  5
DA
330
D8
100
AcDbEntity
  8
0
100
AcDbBlockBegin
  2
block 6
 70
     0
 10
0.0
 20
0.0
 30
0.0
  3
block 6
  1

  0
SPLINE
  5
DC
330
D8
100
AcDbEntity
  8
_U+30EC_U+30A4_U+30E4_U+30FC 1
 62
   179
420
  2234388
370
     9
100
AcDbSpline
210
0.0
220
0.0
230
1.0
 70
    11
 71
     3
 72
    17
 73
    13
 74
     0
 42
0.0000000001
 43
0.0000000001
 12
1.0
 22
0.0
 32
0.0
 13
1.0
 23
0.0
 33
0.0
 40
0.0
 40
0.0
 40
0.0
 40
0.0
 40
1.0
 40
1.0
 40
1.0
 40
2.0
 40
2.0
 40
2.0
 40
3.0
 40
3.0
 40
3.0
 40
4.0
 40
4.0
 40
4.0
 40
4.0
 10
82.29229373388202
 20
-140.478580520436
 30
0.0
 10
82.29229373388202
 20
-140.4978774648752
 30
0.0
 10
82.2764540120639
 20
-140.5137171870938
 30
0.0
 10
82.25715706811175
 20
-140.5137171870938
 30
0.0
 10
82.23754262416772
 20
-140.5137171870938
 30
0.0
 10
82.22166762457273
 20
-140.4978774648752
 30
0.0
 10
82.22166762457273
 20
-140.478580520436
 30
0.0
 10
82.22166762457273
 20
-140.4586132982188
 30
0.0
 10
82.23754262416772
 20
-140.4434438537783
 30
0.0
 10
82.25715706811175
 20
-140.4434438537783
 30
0.0
 10
82.2764540120639
 20
-140.4434438537783
 30
0.0
 10
82.29229373388202
 20
-140.4586132982188
 30
0.0
 10
82.29229373388202
 20
-140.478580520436
 30
0.0
  0
ENDBLK
  5
DB
330
D8
100
AcDbEntity
  8
0
100
AcDbBlockEnd
  0
BLOCK
  5
DF
330
DD
100
AcDbEntity
  8
0
100
AcDbBlockBegin
  2
block 7
 70
     0
 10
0.0
 20
0.0
 30
0.0
  3
block 7
  1

  0
POLYLINE
  5
E1
330
DD
100
AcDbEntity
  8
_U+30EC_U+30A4_U+30E4_U+30FC 1
 62
   179
420
  2234388
370
     9
100
AcDb2dPolyline
 66
     1
 10
0.0
 20
0.0
 30
0.0
  0
VERTEX
  5
E2
330
E1
100
AcDbEntity
  8
_U+30EC_U+30A4_U+30E4_U+30FC 1
 62
   179
420
  2234388
370
     9
100
AcDbVertex
100
AcDb2dVertex
 10
86.25691613273607
 20
-144.4783396861029
 30
0.0
  0
VERTEX
  5
E3
330
E1
100
AcDbEntity
  8
_U+30EC_U+30A4_U+30E4_U+30FC 1
 62
   179
420
  2234388
370
     9
100
AcDbVertex
100
AcDb2dVertex
 10
90.25702797512916
 20
-144.4783396861029
 30
0.0
  0
SEQEND
  5
E4
330
E1
100
AcDbEntity
  8
_U+30EC_U+30A4_U+30E4_U+30FC 1
 62
   179
420
  2234388
370
     9
  0
POLYLINE
  5
E5
330
DD
100
AcDbEntity
  8
_U+30EC_U+30A4_U+30E4_U+30FC 1
 62
   179
420
  2234388
370
     9
100
AcDb2dPolyline
 66
     1
 10
0.0
 20
0.0
 30
0.0
  0
VERTEX
  5
E6
330
E5
100
AcDbEntity
  8
_U+30EC_U+30A4_U+30E4_U+30FC 1
 62
   179
420
  2234388
370
     9
100
AcDbVertex
100
AcDb2dVertex
 10
86.25691613273607
 20
-143.0183335753567
 30
0.0
  0
VERTEX
  5
E7
330
E5
100
AcDbEntity
  8
_U+30EC_U+30A4_U+30E4_U+30FC 1
 62
   179
420
  2234388
370
     9
100
AcDbVertex
100
AcDb2dVertex
 10
86.25691613273607
 20
-145.4781119080748
 30
0.0
  0
SEQEND
  5
E8
330
E5
100
AcDbEntity
  8
_U+30EC_U+30A4_U+30E4_U+30FC 1
 62
   179
420
  2234388
370
     9
  0
POLYLINE
  5
E9
330
DD
100
AcDbEntity
  8
_U+30EC_U+30A4_U+30E4_U+30FC 1
 62
   179
420
  2234388
370
     9
100
AcDb2dPolyline
 66
     1
 10
0.0
 20
0.0
 30
0.0
  0
VERTEX
  5
EA
330
E9
100
AcDbEntity
  8
_U+30EC_U+30A4_U+30E4_U+30FC 1
 62
   179
420
  2234388
370
     9
100
AcDbVertex
100
AcDb2dVertex
 10
90.25702797512916
 20
-143.0183335753567
 30
0.0
  0
VERTEX
  5
EB
330
E9
100
AcDbEntity
  8
_U+30EC_U+30A4_U+30E4_U+30FC 1
 62
   179
420
  2234388
370
     9
100
AcDbVertex
100
AcDb2dVertex
 10
90.25702797512916
 20
-145.4781119080748
 30
0.0
  0
SEQEND
  5
EC
330
E9
100
AcDbEntity
  8
_U+30EC_U+30A4_U+30E4_U+30FC 1
 62
   179
420
  2234388
370
     9
  0
INSERT
  5
EE
330
DD
100
AcDbEntity
  8
_U+30EC_U+30A4_U+30E4_U+30FC 1
100
AcDbBlockReference
  2
block 8
 10
0.0
 20
0.0
 30
0.0
  0
INSERT
  5
107
330
DD
100
AcDbEntity
  8
_U+30EC_U+30A4_U+30E4_U+30FC 1
100
AcDbBlockReference
  2
block 9
 10
0.0
 20
0.0
 30
0.0
  0
INSERT
  5
10C
330
DD
100
AcDbEntity
  8
_U+30EC_U+30A4_U+30E4_U+30FC 1
100
AcDbBlockReference
  2
block 10
 10
0.0
 20
0.0
 30
0.0
  0
INSERT
  5
111
330
DD
100
AcDbEntity
  8
_U+30EC_U+30A4_U+30E4_U+30FC 1
100
AcDbBlockReference
  2
block 11
 10
0.0
 20
0.0
 30
0.0
  0
ENDBLK
  5
E0
330
DD
100
AcDbEntity
  8
0
100
AcDbBlockEnd
  0
BLOCK
  5
EF
330
ED
100
AcDbEntity
  8
0
100
AcDbBlockBegin
  2
block 8
 70
     0
 10
0.0
 20
0.0
 30
0.0
  3
block 8
  1

  0
POLYLINE
  5
F1
330
ED
100
AcDbEntity
  8
_U+30EC_U+30A4_U+30E4_U+30FC 1
370
     0
100
AcDb2dPolyline
 66
     1
 10
0.0
 20
0.0
 30
0.0
  0
VERTEX
  5
F2
330
F1
100
AcDbEntity
  8
_U+30EC_U+30A4_U+30E4_U+30FC 1
370
     0
100
AcDbVertex
100
AcDb2dVertex
 10
88.58873560068268
 20
-143.7586669562479
 30
0.0
  0
VERTEX
  5
F3
330
F1
100
AcDbEntity
  8
_U+30EC_U+30A4_U+30E4_U+30FC 1
370
     0
100
AcDbVertex
100
AcDb2dVertex
 10
88.58873560068268
 20
-144.1055880716125
 30
0.0
  0
VERTEX
  5
F4
330
F1
100
AcDbEntity
  8
_U+30EC_U+30A4_U+30E4_U+30FC 1
370
     0
100
AcDbVertex
100
AcDb2dVertex
 10
88.37083331124063
 20
-144.1055880716125
 30
0.0
  0
VERTEX
  5
F5
330
F1
100
AcDbEntity
  8
_U+30EC_U+30A4_U+30E4_U+30FC 1
370
     0
100
AcDbVertex
100
AcDb2dVertex
 10
88.37083331124063
 20
-143.7586669562479
 30
0.0
  0
VERTEX
  5
F6
330
F1
100
AcDbEntity
  8
_U+30EC_U+30A4_U+30E4_U+30FC 1
370
     0
100
AcDbVertex
100
AcDb2dVertex
 10
87.71505938562332
 20
-143.7586669562479
 30
0.0
  0
VERTEX
  5
F7
330
F1
100
AcDbEntity
  8
_U+30EC_U+30A4_U+30E4_U+30FC 1
370
     0
100
AcDbVertex
100
AcDb2dVertex
 10
87.71505938562332
 20
-143.5343912401581
 30
0.0
  0
VERTEX
  5
F8
330
F1
100
AcDbEntity
  8
_U+30EC_U+30A4_U+30E4_U+30FC 1
370
     0
100
AcDbVertex
100
AcDb2dVertex
 10
88.39408770576607
 20
-142.561151765575
 30
0.0
  0
VERTEX
  5
F9
330
F1
100
AcDbEntity
  8
_U+30EC_U+30A4_U+30E4_U+30FC 1
370
     0
100
AcDbVertex
100
AcDb2dVertex
 10
88.58873560068268
 20
-142.561151765575
 30
0.0
  0
VERTEX
  5
FA
330
F1
100
AcDbEntity
  8
_U+30EC_U+30A4_U+30E4_U+30FC 1
370
     0
100
AcDbVertex
100
AcDb2dVertex
 10
88.58873560068268
 20
-143.5595404372004
 30
0.0
  0
VERTEX
  5
FB
330
F1
100
AcDbEntity
  8
_U+30EC_U+30A4_U+30E4_U+30FC 1
370
     0
100
AcDbVertex
100
AcDb2dVertex
 10
88.79613034889472
 20
-143.5595404372004
 30
0.0
  0
VERTEX
  5
FC
330
F1
100
AcDbEntity
  8
_U+30EC_U+30A4_U+30E4_U+30FC 1
370
     0
100
AcDbVertex
100
AcDb2dVertex
 10
88.79613034889472
 20
-143.7586669562479
 30
0.0
  0
VERTEX
  5
FD
330
F1
100
AcDbEntity
  8
_U+30EC_U+30A4_U+30E4_U+30FC 1
370
     0
100
AcDbVertex
100
AcDb2dVertex
 10
88.58873560068268
 20
-143.7586669562479
 30
0.0
  0
SEQEND
  5
FE
330
F1
100
AcDbEntity
  8
_U+30EC_U+30A4_U+30E4_U+30FC 1
370
     0
  0
POLYLINE
  5
FF
330
ED
100
AcDbEntity
  8
_U+30EC_U+30A4_U+30E4_U+30FC 1
370
     0
100
AcDb2dPolyline
 66
     1
 10
0.0
 20
0.0
 30
0.0
  0
VERTEX
  5
100
330
FF
100
AcDbEntity
  8
_U+30EC_U+30A4_U+30E4_U+30FC 1
370
     0
100
AcDbVertex
100
AcDb2dVertex
 10
88.37083331124063
 20
-142.9039387663574
 30
0.0
  0
VERTEX
  5
101
330
FF
100
AcDbEntity
  8
_U+30EC_U+30A4_U+30E4_U+30FC 1
370
     0
100
AcDbVertex
100
AcDb2dVertex
 10
87.9140136498965
 20
-143.5595404372004
 30
0.0
  0
VERTEX
  5
102
330
FF
100
AcDbEntity
  8
_U+30EC_U+30A4_U+30E4_U+30FC 1
370
     0
100
AcDbVertex
100
AcDb2dVertex
 10
88.37083331124063
 20
-143.5595404372004
 30
0.0
  0
VERTEX
  5
103
330
FF
100
AcDbEntity
  8
_U+30EC_U+30A4_U+30E4_U+30FC 1
370
     0
100
AcDbVertex
100
AcDb2dVertex
 10
88.37083331124063
 20
-142.9039387663574
 30
0.0
  0
SEQEND
  5
104
330
FF
100
AcDbEntity
  8
_U+30EC_U+30A4_U+30E4_U+30FC 1
370
     0
  0
HATCH
  5
105
330
ED
100
AcDbEntity
  8
_U+30EC_U+30A4_U+30E4_U+30FC 1
 62
   179
420
  2234388
100
AcDbHatch
 10
0.0
 20
0.0
 30
0.0
210
0.0
220
0.0
230
1.0
  2
SOLID
 70
     1
 71
     0
 91
        2
 92
        1
 93
       11
 72
     1
 10
88.58873560068268
 20
-143.7586669562479
 11
88.58873560068268
 21
-144.1055880716125
 72
     1
 10
88.58873560068268
 20
-144.1055880716125
 11
88.37083331124063
 21
-144.1055880716125
 72
     1
 10
88.37083331124063
 20
-144.1055880716125
 11
88.37083331124063
 21
-143.7586669562479
 72
     1
 10
88.37083331124063
 20
-143.7586669562479
 11
87.71505938562332
 21
-143.7586669562479
 72
     1
 10
87.71505938562332
 20
-143.7586669562479
 11
87.71505938562332
 21
-143.5343912401581
 72
     1
 10
87.71505938562332
 20
-143.5343912401581
 11
88.39408770576607
 21
-142.561151765575
 72
     1
 10
88.39408770576607
 20
-142.561151765575
 11
88.58873560068268
 21
-142.561151765575
 72
     1
 10
88.58873560068268
 20
-142.561151765575
 11
88.58873560068268
 21
-143.5595404372004
 72
     1
 10
88.58873560068268
 20
-143.5595404372004
 11
88.79613034889472
 21
-143.5595404372004
 72
     1
 10
88.79613034889472
 20
-143.5595404372004
 11
88.79613034889472
 21
-143.7586669562479
 72
     1
 10
88.79613034889472
 20
-143.7586669562479
 11
88.58873560068268
 21
-143.7586669562479
 97
        0
 92
        1
 93
        3
 72
     1
 10
88.37083331124063
 20
-142.9039387663574
 11
87.9140136498965
 21
-143.5595404372004
 72
     1
 10
87.9140136498965
 20
-143.5595404372004
 11
88.37083331124063
 21
-143.5595404372004
 72
     1
 10
88.37083331124063
 20
-143.5595404372004
 11
88.37083331124063
 21
-142.9039387663574
 97
        0
 75
     2
 76
     1
 98
        0
  0
ENDBLK
  5
F0
330
ED
100
AcDbEntity
  8
0
100
AcDbBlockEnd
  0
BLOCK
  5
108
330
106
100
AcDbEntity
  8
0
100
AcDbBlockBegin
  2
block 9
 70
     0
 10
0.0
 20
0.0
 30
0.0
  3
block 9
  1

  0
SPLINE
  5
10A
330
106
100
AcDbEntity
  8
_U+30EC_U+30A4_U+30E4_U+30FC 1
 62
   179
420
  2234388
370
    25
100
AcDbSpline
210
0.0
220
0.0
230
1.0
 70
    11
 71
     3
 72
    17
 73
    13
 74
     0
 42
0.0000000001
 43
0.0000000001
 12
1.0
 22
0.0
 32
0.0
 13
1.0
 23
0.0
 33
0.0
 40
0.0
 40
0.0
 40
0.0
 40
0.0
 40
1.0
 40
1.0
 40
1.0
 40
2.0
 40
2.0
 40
2.0
 40
3.0
 40
3.0
 40
3.0
 40
4.0
 40
4.0
 40
4.0
 40
4.0
 10
86.2924055762751
 20
-140.478580520436
 30
0.0
 10
86.2924055762751
 20
-140.4978774648752
 30
0.0
 10
86.27656585445699
 20
-140.5137171870938
 30
0.0
 10
86.25691613273607
 20
-140.5137171870938
 30
0.0
 10
86.23761918878392
 20
-140.5137171870938
 30
0.0
 10
86.22177946696581
 20
-140.4978774648752
 30
0.0
 10
86.22177946696581
 20
-140.478580520436
 30
0.0
 10
86.22177946696581
 20
-140.4586132982188
 30
0.0
 10
86.23761918878392
 20
-140.4434438537783
 30
0.0
 10
86.25691613273607
 20
-140.4434438537783
 30
0.0
 10
86.27656585445699
 20
-140.4434438537783
 30
0.0
 10
86.2924055762751
 20
-140.4586132982188
 30
0.0
 10
86.2924055762751
 20
-140.478580520436
 30
0.0
  0
ENDBLK
  5
109
330
106
100
AcDbEntity
  8
0
100
AcDbBlockEnd
  0
BLOCK
  5
10D
330
10B
100
AcDbEntity
  8
0
100
AcDbBlockBegin
  2
block 10
 70
     0
 10
0.0
 20
0.0
 30
0.0
  3
block 10
  1

  0
SPLINE
  5
10F
330
10B
100
AcDbEntity
  8
_U+30EC_U+30A4_U+30E4_U+30FC 1
 62
   179
420
  2234388
370
    25
100
AcDbSpline
210
0.0
220
0.0
230
1.0
 70
    11
 71
     3
 72
    17
 73
    13
 74
     0
 42
0.0000000001
 43
0.0000000001
 12
1.0
 22
0.0
 32
0.0
 13
1.0
 23
0.0
 33
0.0
 40
0.0
 40
0.0
 40
0.0
 40
0.0
 40
1.0
 40
1.0
 40
1.0
 40
2.0
 40
2.0
 40
2.0
 40
3.0
 40
3.0
 40
3.0
 40
4.0
 40
4.0
 40
4.0
 40
4.0
 10
90.29216464089941
 20
-140.478580520436
 30
0.0
 10
90.29216464089941
 20
-140.4978774648752
 30
0.0
 10
90.27632491908129
 20
-140.5137171870938
 30
0.0
 10
90.25702797512916
 20
-140.5137171870938
 30
0.0
 10
90.23738053299627
 20
-140.5137171870938
 30
0.0
 10
90.22189130935891
 20
-140.4978774648752
 30
0.0
 10
90.22189130935891
 20
-140.478580520436
 30
0.0
 10
90.22189130935891
 20
-140.4586132982188
 30
0.0
 10
90.23738053299627
 20
-140.4434438537783
 30
0.0
 10
90.25702797512916
 20
-140.4434438537783
 30
0.0
 10
90.27632491908129
 20
-140.4434438537783
 30
0.0
 10
90.29216464089941
 20
-140.4586132982188
 30
0.0
 10
90.29216464089941
 20
-140.478580520436
 30
0.0
  0
ENDBLK
  5
10E
330
10B
100
AcDbEntity
  8
0
100
AcDbBlockEnd
  0
BLOCK
  5
112
330
110
100
AcDbEntity
  8
0
100
AcDbBlockBegin
  2
block 11
 70
     0
 10
0.0
 20
0.0
 30
0.0
  3
block 11
  1

  0
SPLINE
  5
114
330
110
100
AcDbEntity
  8
_U+30EC_U+30A4_U+30E4_U+30FC 1
 62
   179
420
  2234388
370
     9
100
AcDbSpline
210
0.0
220
0.0
230
1.0
 70
    11
 71
     3
 72
    17
 73
    13
 74
     0
 42
0.0000000001
 43
0.0000000001
 12
1.0
 22
0.0
 32
0.0
 13
1.0
 23
0.0
 33
0.0
 40
0.0
 40
0.0
 40
0.0
 40
0.0
 40
1.0
 40
1.0
 40
1.0
 40
2.0
 40
2.0
 40
2.0
 40
3.0
 40
3.0
 40
3.0
 40
4.0
 40
4.0
 40
4.0
 40
4.0
 10
90.29216464089941
 20
-144.4783396861029
 30
0.0
 10
90.29216464089941
 20
-144.4976366305421
 30
0.0
 10
90.27632491908129
 20
-144.5134763527606
 30
0.0
 10
90.25702797512916
 20
-144.5134763527606
 30
0.0
 10
90.23738053299627
 20
-144.5134763527606
 30
0.0
 10
90.22189130935891
 20
-144.4976366305421
 30
0.0
 10
90.22189130935891
 20
-144.4783396861029
 30
0.0
 10
90.22189130935891
 20
-144.4590427416631
 30
0.0
 10
90.23738053299627
 20
-144.4432030194446
 30
0.0
 10
90.25702797512916
 20
-144.4432030194446
 30
0.0
 10
90.27632491908129
 20
-144.4432030194446
 30
0.0
 10
90.29216464089941
 20
-144.4590427416631
 30
0.0
 10
90.29216464089941
 20
-144.4783396861029
 30
0.0
  0
ENDBLK
  5
113
330
110
100
AcDbEntity
  8
0
100
AcDbBlockEnd
  0
BLOCK
  5
117
330
115
100
AcDbEntity
  8
0
100
AcDbBlockBegin
  2
block 12
 70
     0
 10
0.0
 20
0.0
 30
0.0
  3
block 12
  1

  0
POLYLINE
  5
119
330
115
100
AcDbEntity
  8
_U+30EC_U+30A4_U+30E4_U+30FC 1
 62
   179
420
  2234388
370
     9
100
AcDb2dPolyline
 66
     1
 10
0.0
 20
0.0
 30
0.0
  0
VERTEX
  5
11A
330
119
100
AcDbEntity
  8
_U+30EC_U+30A4_U+30E4_U+30FC 1
 62
   179
420
  2234388
370
     9
100
AcDbVertex
100
AcDb2dVertex
 10
90.25702797512916
 20
-144.4783396861029
 30
0.0
  0
VERTEX
  5
11B
330
119
100
AcDbEntity
  8
_U+30EC_U+30A4_U+30E4_U+30FC 1
 62
   179
420
  2234388
370
     9
100
AcDbVertex
100
AcDb2dVertex
 10
98.25686360436968
 20
-144.4783396861029
 30
0.0
  0
SEQEND
  5
11C
330
119
100
AcDbEntity
  8
_U+30EC_U+30A4_U+30E4_U+30FC 1
 62
   179
420
  2234388
370
     9
  0
POLYLINE
  5
11D
330
115
100
AcDbEntity
  8
_U+30EC_U+30A4_U+30E4_U+30FC 1
 62
   179
420
  2234388
370
     9
100
AcDb2dPolyline
 66
     1
 10
0.0
 20
0.0
 30
0.0
  0
VERTEX
  5
11E
330
11D
100
AcDbEntity
  8
_U+30EC_U+30A4_U+30E4_U+30FC 1
 62
   179
420
  2234388
370
     9
100
AcDbVertex
100
AcDb2dVertex
 10
98.25686360436968
 20
-143.0183335753567
 30
0.0
  0
VERTEX
  5
11F
330
11D
100
AcDbEntity
  8
_U+30EC_U+30A4_U+30E4_U+30FC 1
 62
   179
420
  2234388
370
     9
100
AcDbVertex
100
AcDb2dVertex
 10
98.25686360436968
 20
-145.4781119080748
 30
0.0
  0
SEQEND
  5
120
330
11D
100
AcDbEntity
  8
_U+30EC_U+30A4_U+30E4_U+30FC 1
 62
   179
420
  2234388
370
     9
  0
INSERT
  5
122
330
115
100
AcDbEntity
  8
_U+30EC_U+30A4_U+30E4_U+30FC 1
100
AcDbBlockReference
  2
block 13
 10
0.0
 20
0.0
 30
0.0
  0
INSERT
  5
12A
330
115
100
AcDbEntity
  8
_U+30EC_U+30A4_U+30E4_U+30FC 1
100
AcDbBlockReference
  2
block 14
 10
0.0
 20
0.0
 30
0.0
  0
INSERT
  5
12F
330
115
100
AcDbEntity
  8
_U+30EC_U+30A4_U+30E4_U+30FC 1
100
AcDbBlockReference
  2
block 15
 10
0.0
 20
0.0
 30
0.0
  0
INSERT
  5
134
330
115
100
AcDbEntity
  8
_U+30EC_U+30A4_U+30E4_U+30FC 1
100
AcDbBlockReference
  2
block 16
 10
0.0
 20
0.0
 30
0.0
  0
ENDBLK
  5
118
330
115
100
AcDbEntity
  8
0
100
AcDbBlockEnd
  0
BLOCK
  5
123
330
121
100
AcDbEntity
  8
0
100
AcDbBlockBegin
  2
block 13
 70
     0
 10
0.0
 20
0.0
 30
0.0
  3
block 13
  1

  0
SPLINE
  5
125
330
121
100
AcDbEntity
  8
_U+30EC_U+30A4_U+30E4_U+30FC 1
370
     0
100
AcDbSpline
210
0.0
220
0.0
230
1.0
 70
    11
 71
     3
 72
    29
 73
    25
 74
     0
 42
0.0000000001
 43
0.0000000001
 12
1.0
 22
0.0
 32
0.0
 13
1.0
 23
0.0
 33
0.0
 40
0.0
 40
0.0
 40
0.0
 40
0.0
 40
1.0
 40
1.0
 40
1.0
 40
2.0
 40
2.0
 40
2.0
 40
3.0
 40
3.0
 40
3.0
 40
4.0
 40
4.0
 40
4.0
 40
5.0
 40
5.0
 40
5.0
 40
6.0
 40
6.0
 40
6.0
 40
7.0
 40
7.0
 40
7.0
 40
8.0
 40
8.0
 40
8.0
 40
8.0
 10
94.25677894778998
 20
-144.1562309752457
 30
0.0
 10
93.99012855723164
 20
-144.1562309752457
 30
0.0
 10
93.73622501996873
 20
-144.0187716653842
 30
0.0
 10
93.73622501996873
 20
-143.6697834927284
 30
0.0
 10
93.73622501996873
 20
-143.4138128981743
 30
0.0
 10
93.8778184444125
 20
-143.3183837532329
 30
0.0
 10
93.98358287580966
 20
-143.2570610535955
 30
0.0
 10
93.85887041924362
 20
-143.1978054112492
 30
0.0
 10
93.7827338090196
 20
-143.0837727506874
 30
0.0
 10
93.7827338090196
 20
-142.9228867915262
 30
0.0
 10
93.7827338090196
 20
-142.6479681718033
 30
0.0
 10
93.98151581851852
 20
-142.512575919233
 30
0.0
 10
94.25677894778998
 20
-142.512575919233
 30
0.0
 10
94.5399657966775
 20
-142.512575919233
 30
0.0
 10
94.73047957701183
 20
-142.6562364009679
 30
0.0
 10
94.73047957701183
 20
-142.9228867915262
 30
0.0
 10
94.73047957701183
 20
-143.0837727506874
 30
0.0
 10
94.65227590949665
 20
-143.1978054112492
 30
0.0
 10
94.52756345293061
 20
-143.2570610535955
 30
0.0
 10
94.61610240690153
 20
-143.3080484667772
 30
0.0
 10
94.77492130877155
 20
-143.40313310217
 30
0.0
 10
94.77492130877155
 20
-143.6653048685976
 30
0.0
 10
94.77492130877155
 20
-144.0397867478442
 30
0.0
 10
94.49552406491779
 20
-144.1562309752457
 30
0.0
 10
94.25677894778998
 20
-144.1562309752457
 30
0.0
  0
SPLINE
  5
126
330
121
100
AcDbEntity
  8
_U+30EC_U+30A4_U+30E4_U+30FC 1
370
     0
100
AcDbSpline
210
0.0
220
0.0
230
1.0
 70
    11
 71
     3
 72
    17
 73
    13
 74
     0
 42
0.0000000001
 43
0.0000000001
 12
1.0
 22
0.0
 32
0.0
 13
1.0
 23
0.0
 33
0.0
 40
0.0
 40
0.0
 40
0.0
 40
0.0
 40
1.0
 40
1.0
 40
1.0
 40
2.0
 40
2.0
 40
2.0
 40
3.0
 40
3.0
 40
3.0
 40
4.0
 40
4.0
 40
4.0
 40
4.0
 10
94.25677894778998
 20
-143.3648925422838
 30
0.0
 10
94.11277395650653
 20
-143.3648925422838
 30
0.0
 10
93.96050073605849
 20
-143.4517089485121
 30
0.0
 10
93.96050073605849
 20
-143.6549695821418
 30
0.0
 10
93.96050073605849
 20
-143.8599527635142
 30
0.0
 10
94.08728024991568
 20
-143.9615830803291
 30
0.0
 10
94.25677894778998
 20
-143.9615830803291
 30
0.0
 10
94.44281410399347
 20
-143.9615830803291
 30
0.0
 10
94.55271264997293
 20
-143.8389376810541
 30
0.0
 10
94.55271264997293
 20
-143.6611707540153
 30
0.0
 10
94.55271264997293
 20
-143.4389620952167
 30
0.0
 10
94.38975963352063
 20
-143.3648925422838
 30
0.0
 10
94.25677894778998
 20
-143.3648925422838
 30
0.0
  0
SPLINE
  5
127
330
121
100
AcDbEntity
  8
_U+30EC_U+30A4_U+30E4_U+30FC 1
370
     0
100
AcDbSpline
210
0.0
220
0.0
230
1.0
 70
    11
 71
     3
 72
    17
 73
    13
 74
     0
 42
0.0000000001
 43
0.0000000001
 12
1.0
 22
0.0
 32
0.0
 13
1.0
 23
0.0
 33
0.0
 40
0.0
 40
0.0
 40
0.0
 40
0.0
 40
1.0
 40
1.0
 40
1.0
 40
2.0
 40
2.0
 40
2.0
 40
3.0
 40
3.0
 40
3.0
 40
4.0
 40
4.0
 40
4.0
 40
4.0
 10
94.25677894778998
 20
-142.7048122473099
 30
0.0
 10
94.0917588740465
 20
-142.7048122473099
 30
0.0
 10
94.00700952510937
 20
-142.8002413922513
 30
0.0
 10
94.00700952510937
 20
-142.9356336448216
 30
0.0
 10
94.00700952510937
 20
-143.0582790440965
 30
0.0
 10
94.07901202075108
 20
-143.1767903287891
 30
0.0
 10
94.25677894778998
 20
-143.1767903287891
 30
0.0
 10
94.43420136528034
 20
-143.1767903287891
 30
0.0
 10
94.50620386092207
 20
-143.0582790440965
 30
0.0
 10
94.50620386092207
 20
-142.9356336448216
 30
0.0
 10
94.50620386092207
 20
-142.8002413922513
 30
0.0
 10
94.41938745469376
 20
-142.7048122473099
 30
0.0
 10
94.25677894778998
 20
-142.7048122473099
 30
0.0
  0
HATCH
  5
128
330
121
100
AcDbEntity
  8
_U+30EC_U+30A4_U+30E4_U+30FC 1
 62
   179
420
  2234388
100
AcDbHatch
 10
0.0
 20
0.0
 30
0.0
210
0.0
220
0.0
230
1.0
  2
SOLID
 70
     1
 71
     0
 91
        3
 92
        1
 93
        1
 72
     4
 94
        3
 73
     0
 74
     1
 95
       29
 96
       25
 40
0.0
 40
0.0
 40
0.0
 40
0.0
 40
1.0
 40
1.0
 40
1.0
 40
2.0
 40
2.0
 40
2.0
 40
3.0
 40
3.0
 40
3.0
 40
4.0
 40
4.0
 40
4.0
 40
5.0
 40
5.0
 40
5.0
 40
6.0
 40
6.0
 40
6.0
 40
7.0
 40
7.0
 40
7.0
 40
8.0
 40
8.0
 40
8.0
 40
8.0
 10
94.25677894778998
 20
-144.1562309752457
 10
93.99012855723164
 20
-144.1562309752457
 10
93.73622501996873
 20
-144.0187716653842
 10
93.73622501996873
 20
-143.6697834927284
 10
93.73622501996873
 20
-143.4138128981743
 10
93.8778184444125
 20
-143.3183837532329
 10
93.98358287580966
 20
-143.2570610535955
 10
93.85887041924362
 20
-143.1978054112492
 10
93.7827338090196
 20
-143.0837727506874
 10
93.7827338090196
 20
-142.9228867915262
 10
93.7827338090196
 20
-142.6479681718033
 10
93.98151581851852
 20
-142.512575919233
 10
94.25677894778998
 20
-142.512575919233
 10
94.5399657966775
 20
-142.512575919233
 10
94.73047957701183
 20
-142.6562364009679
 10
94.73047957701183
 20
-142.9228867915262
 10
94.73047957701183
 20
-143.0837727506874
 10
94.65227590949665
 20
-143.1978054112492
 10
94.52756345293061
 20
-143.2570610535955
 10
94.61610240690153
 20
-143.3080484667772
 10
94.77492130877155
 20
-143.40313310217
 10
94.77492130877155
 20
-143.6653048685976
 10
94.77492130877155
 20
-144.0397867478442
 10
94.49552406491779
 20
-144.1562309752457
 10
94.25677894778998
 20
-144.1562309752457
 97
        0
 97
        0
 92
        1
 93
        1
 72
     4
 94
        3
 73
     0
 74
     1
 95
       17
 96
       13
 40
0.0
 40
0.0
 40
0.0
 40
0.0
 40
1.0
 40
1.0
 40
1.0
 40
2.0
 40
2.0
 40
2.0
 40
3.0
 40
3.0
 40
3.0
 40
4.0
 40
4.0
 40
4.0
 40
4.0
 10
94.25677894778998
 20
-143.3648925422838
 10
94.11277395650653
 20
-143.3648925422838
 10
93.96050073605849
 20
-143.4517089485121
 10
93.96050073605849
 20
-143.6549695821418
 10
93.96050073605849
 20
-143.8599527635142
 10
94.08728024991568
 20
-143.9615830803291
 10
94.25677894778998
 20
-143.9615830803291
 10
94.44281410399347
 20
-143.9615830803291
 10
94.55271264997293
 20
-143.8389376810541
 10
94.55271264997293
 20
-143.6611707540153
 10
94.55271264997293
 20
-143.4389620952167
 10
94.38975963352063
 20
-143.3648925422838
 10
94.25677894778998
 20
-143.3648925422838
 97
        0
 97
        0
 92
        1
 93
        1
 72
     4
 94
        3
 73
     0
 74
     1
 95
       17
 96
       13
 40
0.0
 40
0.0
 40
0.0
 40
0.0
 40
1.0
 40
1.0
 40
1.0
 40
2.0
 40
2.0
 40
2.0
 40
3.0
 40
3.0
 40
3.0
 40
4.0
 40
4.0
 40
4.0
 40
4.0
 10
94.25677894778998
 20
-142.7048122473099
 10
94.0917588740465
 20
-142.7048122473099
 10
94.00700952510937
 20
-142.8002413922513
 10
94.00700952510937
 20
-142.9356336448216
 10
94.00700952510937
 20
-143.0582790440965
 10
94.07901202075108
 20
-143.1767903287891
 10
94.25677894778998
 20
-143.1767903287891
 10
94.43420136528034
 20
-143.1767903287891
 10
94.50620386092207
 20
-143.0582790440965
 10
94.50620386092207
 20
-142.9356336448216
 10
94.50620386092207
 20
-142.8002413922513
 10
94.41938745469376
 20
-142.7048122473099
 10
94.25677894778998
 20
-142.7048122473099
 97
        0
 97
        0
 75
     2
 76
     1
 98
        0
  0
ENDBLK
  5
124
330
121
100
AcDbEntity
  8
0
100
AcDbBlockEnd
  0
BLOCK
  5
12B
330
129
100
AcDbEntity
  8
0
100
AcDbBlockBegin
  2
block 14
 70
     0
 10
0.0
 20
0.0
 30
0.0
  3
block 14
  1

  0
SPLINE
  5
12D
330
129
100
AcDbEntity
  8
_U+30EC_U+30A4_U+30E4_U+30FC 1
 62
   179
420
  2234388
370
    25
100
AcDbSpline
210
0.0
220
0.0
230
1.0
 70
    11
 71
     3
 72
    17
 73
    13
 74
     0
 42
0.0000000001
 43
0.0000000001
 12
1.0
 22
0.0
 32
0.0
 13
1.0
 23
0.0
 33
0.0
 40
0.0
 40
0.0
 40
0.0
 40
0.0
 40
1.0
 40
1.0
 40
1.0
 40
2.0
 40
2.0
 40
2.0
 40
3.0
 40
3.0
 40
3.0
 40
4.0
 40
4.0
 40
4.0
 40
4.0
 10
90.29216464089941
 20
-140.478580520436
 30
0.0
 10
90.29216464089941
 20
-140.4978774648752
 30
0.0
 10
90.27632491908129
 20
-140.5137171870938
 30
0.0
 10
90.25702797512916
 20
-140.5137171870938
 30
0.0
 10
90.23738053299627
 20
-140.5137171870938
 30
0.0
 10
90.22189130935891
 20
-140.4978774648752
 30
0.0
 10
90.22189130935891
 20
-140.478580520436
 30
0.0
 10
90.22189130935891
 20
-140.4586132982188
 30
0.0
 10
90.23738053299627
 20
-140.4434438537783
 30
0.0
 10
90.25702797512916
 20
-140.4434438537783
 30
0.0
 10
90.27632491908129
 20
-140.4434438537783
 30
0.0
 10
90.29216464089941
 20
-140.4586132982188
 30
0.0
 10
90.29216464089941
 20
-140.478580520436
 30
0.0
  0
ENDBLK
  5
12C
330
129
100
AcDbEntity
  8
0
100
AcDbBlockEnd
  0
BLOCK
  5
130
330
12E
100
AcDbEntity
  8
0
100
AcDbBlockBegin
  2
block 15
 70
     0
 10
0.0
 20
0.0
 30
0.0
  3
block 15
  1

  0
SPLINE
  5
132
330
12E
100
AcDbEntity
  8
_U+30EC_U+30A4_U+30E4_U+30FC 1
 62
   179
420
  2234388
370
    25
100
AcDbSpline
210
0.0
220
0.0
230
1.0
 70
    11
 71
     3
 72
    17
 73
    13
 74
     0
 42
0.0000000001
 43
0.0000000001
 12
1.0
 22
0.0
 32
0.0
 13
1.0
 23
0.0
 33
0.0
 40
0.0
 40
0.0
 40
0.0
 40
0.0
 40
1.0
 40
1.0
 40
1.0
 40
2.0
 40
2.0
 40
2.0
 40
3.0
 40
3.0
 40
3.0
 40
4.0
 40
4.0
 40
4.0
 40
4.0
 10
98.2923555309824
 20
-140.478580520436
 30
0.0
 10
98.2923555309824
 20
-140.4978774648752
 30
0.0
 10
98.2765133260906
 20
-140.5137171870938
 30
0.0
 10
98.25686360436968
 20
-140.5137171870938
 30
0.0
 10
98.23760193819442
 20
-140.5137171870938
 30
0.0
 10
98.22172693859943
 20
-140.4978774648752
 30
0.0
 10
98.22172693859943
 20
-140.478580520436
 30
0.0
 10
98.22172693859943
 20
-140.4586132982188
 30
0.0
 10
98.23760193819442
 20
-140.4434438537783
 30
0.0
 10
98.25686360436968
 20
-140.4434438537783
 30
0.0
 10
98.2765133260906
 20
-140.4434438537783
 30
0.0
 10
98.2923555309824
 20
-140.4586132982188
 30
0.0
 10
98.2923555309824
 20
-140.478580520436
 30
0.0
  0
ENDBLK
  5
131
330
12E
100
AcDbEntity
  8
0
100
AcDbBlockEnd
  0
BLOCK
  5
135
330
133
100
AcDbEntity
  8
0
100
AcDbBlockBegin
  2
block 16
 70
     0
 10
0.0
 20
0.0
 30
0.0
  3
block 16
  1

  0
SPLINE
  5
137
330
133
100
AcDbEntity
  8
_U+30EC_U+30A4_U+30E4_U+30FC 1
 62
   179
420
  2234388
370
     9
100
AcDbSpline
210
0.0
220
0.0
230
1.0
 70
    11
 71
     3
 72
    17
 73
    13
 74
     0
 42
0.0000000001
 43
0.0000000001
 12
1.0
 22
0.0
 32
0.0
 13
1.0
 23
0.0
 33
0.0
 40
0.0
 40
0.0
 40
0.0
 40
0.0
 40
1.0
 40
1.0
 40
1.0
 40
2.0
 40
2.0
 40
2.0
 40
3.0
 40
3.0
 40
3.0
 40
4.0
 40
4.0
 40
4.0
 40
4.0
 10
98.2923555309824
 20
-144.4783396861029
 30
0.0
 10
98.2923555309824
 20
-144.4976366305421
 30
0.0
 10
98.2765133260906
 20
-144.5134763527606
 30
0.0
 10
98.25686360436968
 20
-144.5134763527606
 30
0.0
 10
98.23760193819442
 20
-144.5134763527606
 30
0.0
 10
98.22172693859943
 20
-144.4976366305421
 30
0.0
 10
98.22172693859943
 20
-144.4783396861029
 30
0.0
 10
98.22172693859943
 20
-144.4590427416631
 30
0.0
 10
98.23760193819442
 20
-144.4432030194446
 30
0.0
 10
98.25686360436968
 20
-144.4432030194446
 30
0.0
 10
98.2765133260906
 20
-144.4432030194446
 30
0.0
 10
98.2923555309824
 20
-144.4590427416631
 30
0.0
 10
98.2923555309824
 20
-144.4783396861029
 30
0.0
  0
ENDBLK
  5
136
330
133
100
AcDbEntity
  8
0
100
AcDbBlockEnd
  0
BLOCK
  5
13A
330
138
100
AcDbEntity
  8
0
100
AcDbBlockBegin
  2
block 17
 70
     0
 10
0.0
 20
0.0
 30
0.0
  3
block 17
  1

  0
POLYLINE
  5
13C
330
138
100
AcDbEntity
  8
_U+30EC_U+30A4_U+30E4_U+30FC 1
 62
   179
420
  2234388
370
     9
100
AcDb2dPolyline
 66
     1
 10
0.0
 20
0.0
 30
0.0
  0
VERTEX
  5
13D
330
13C
100
AcDbEntity
  8
_U+30EC_U+30A4_U+30E4_U+30FC 1
 62
   179
420
  2234388
370
     9
100
AcDbVertex
100
AcDb2dVertex
 10
98.25686360436968
 20
-144.4783396861029
 30
0.0
  0
VERTEX
  5
13E
330
13C
100
AcDbEntity
  8
_U+30EC_U+30A4_U+30E4_U+30FC 1
 62
   179
420
  2234388
370
     9
100
AcDbVertex
100
AcDb2dVertex
 10
102.2569754467628
 20
-144.4783396861029
 30
0.0
  0
SEQEND
  5
13F
330
13C
100
AcDbEntity
  8
_U+30EC_U+30A4_U+30E4_U+30FC 1
 62
   179
420
  2234388
370
     9
  0
POLYLINE
  5
140
330
138
100
AcDbEntity
  8
_U+30EC_U+30A4_U+30E4_U+30FC 1
 62
   179
420
  2234388
370
     9
100
AcDb2dPolyline
 66
     1
 10
0.0
 20
0.0
 30
0.0
  0
VERTEX
  5
141
330
140
100
AcDbEntity
  8
_U+30EC_U+30A4_U+30E4_U+30FC 1
 62
   179
420
  2234388
370
     9
100
AcDbVertex
100
AcDb2dVertex
 10
102.2569754467628
 20
-143.0183335753567
 30
0.0
  0
VERTEX
  5
142
330
140
100
AcDbEntity
  8
_U+30EC_U+30A4_U+30E4_U+30FC 1
 62
   179
420
  2234388
370
     9
100
AcDbVertex
100
AcDb2dVertex
 10
102.2569754467628
 20
-145.4781119080748
 30
0.0
  0
SEQEND
  5
143
330
140
100
AcDbEntity
  8
_U+30EC_U+30A4_U+30E4_U+30FC 1
 62
   179
420
  2234388
370
     9
  0
INSERT
  5
145
330
138
100
AcDbEntity
  8
_U+30EC_U+30A4_U+30E4_U+30FC 1
100
AcDbBlockReference
  2
block 18
 10
0.0
 20
0.0
 30
0.0
  0
INSERT
  5
15E
330
138
100
AcDbEntity
  8
_U+30EC_U+30A4_U+30E4_U+30FC 1
100
AcDbBlockReference
  2
block 19
 10
0.0
 20
0.0
 30
0.0
  0
INSERT
  5
163
330
138
100
AcDbEntity
  8
_U+30EC_U+30A4_U+30E4_U+30FC 1
100
AcDbBlockReference
  2
block 20
 10
0.0
 20
0.0
 30
0.0
  0
INSERT
  5
168
330
138
100
AcDbEntity
  8
_U+30EC_U+30A4_U+30E4_U+30FC 1
100
AcDbBlockReference
  2
block 21
 10
0.0
 20
0.0
 30
0.0
  0
ENDBLK
  5
13B
330
138
100
AcDbEntity
  8
0
100
AcDbBlockEnd
  0
BLOCK
  5
146
330
144
100
AcDbEntity
  8
0
100
AcDbBlockBegin
  2
block 18
 70
     0
 10
0.0
 20
0.0
 30
0.0
  3
block 18
  1

  0
POLYLINE
  5
148
330
144
100
AcDbEntity
  8
_U+30EC_U+30A4_U+30E4_U+30FC 1
370
     0
100
AcDb2dPolyline
 66
     1
 10
0.0
 20
0.0
 30
0.0
  0
VERTEX
  5
149
330
148
100
AcDbEntity
  8
_U+30EC_U+30A4_U+30E4_U+30FC 1
370
     0
100
AcDbVertex
100
AcDb2dVertex
 10
100.5888644496792
 20
-143.7586669562479
 30
0.0
  0
VERTEX
  5
14A
330
148
100
AcDbEntity
  8
_U+30EC_U+30A4_U+30E4_U+30FC 1
370
     0
100
AcDbVertex
100
AcDb2dVertex
 10
100.5888644496792
 20
-144.1055880716125
 30
0.0
  0
VERTEX
  5
14B
330
148
100
AcDbEntity
  8
_U+30EC_U+30A4_U+30E4_U+30FC 1
370
     0
100
AcDbVertex
100
AcDb2dVertex
 10
100.3707899054629
 20
-144.1055880716125
 30
0.0
  0
VERTEX
  5
14C
330
148
100
AcDbEntity
  8
_U+30EC_U+30A4_U+30E4_U+30FC 1
370
     0
100
AcDbVertex
100
AcDb2dVertex
 10
100.3707899054629
 20
-143.7586669562479
 30
0.0
  0
VERTEX
  5
14D
330
148
100
AcDbEntity
  8
_U+30EC_U+30A4_U+30E4_U+30FC 1
370
     0
100
AcDbVertex
100
AcDb2dVertex
 10
99.71518823461982
 20
-143.7586669562479
 30
0.0
  0
VERTEX
  5
14E
330
148
100
AcDbEntity
  8
_U+30EC_U+30A4_U+30E4_U+30FC 1
370
     0
100
AcDbVertex
100
AcDb2dVertex
 10
99.71518823461982
 20
-143.5343912401581
 30
0.0
  0
VERTEX
  5
14F
330
148
100
AcDbEntity
  8
_U+30EC_U+30A4_U+30E4_U+30FC 1
370
     0
100
AcDbVertex
100
AcDb2dVertex
 10
100.3942165547626
 20
-142.561151765575
 30
0.0
  0
VERTEX
  5
150
330
148
100
AcDbEntity
  8
_U+30EC_U+30A4_U+30E4_U+30FC 1
370
     0
100
AcDbVertex
100
AcDb2dVertex
 10
100.5888644496792
 20
-142.561151765575
 30
0.0
  0
VERTEX
  5
151
330
148
100
AcDbEntity
  8
_U+30EC_U+30A4_U+30E4_U+30FC 1
370
     0
100
AcDbVertex
100
AcDb2dVertex
 10
100.5888644496792
 20
-143.5595404372004
 30
0.0
  0
VERTEX
  5
152
330
148
100
AcDbEntity
  8
_U+30EC_U+30A4_U+30E4_U+30FC 1
370
     0
100
AcDbVertex
100
AcDb2dVertex
 10
100.7959146883427
 20
-143.5595404372004
 30
0.0
  0
VERTEX
  5
153
330
148
100
AcDbEntity
  8
_U+30EC_U+30A4_U+30E4_U+30FC 1
370
     0
100
AcDbVertex
100
AcDb2dVertex
 10
100.7959146883427
 20
-143.7586669562479
 30
0.0
  0
VERTEX
  5
154
330
148
100
AcDbEntity
  8
_U+30EC_U+30A4_U+30E4_U+30FC 1
370
     0
100
AcDbVertex
100
AcDb2dVertex
 10
100.5888644496792
 20
-143.7586669562479
 30
0.0
  0
SEQEND
  5
155
330
148
100
AcDbEntity
  8
_U+30EC_U+30A4_U+30E4_U+30FC 1
370
     0
  0
POLYLINE
  5
156
330
144
100
AcDbEntity
  8
_U+30EC_U+30A4_U+30E4_U+30FC 1
370
     0
100
AcDb2dPolyline
 66
     1
 10
0.0
 20
0.0
 30
0.0
  0
VERTEX
  5
157
330
156
100
AcDbEntity
  8
_U+30EC_U+30A4_U+30E4_U+30FC 1
370
     0
100
AcDbVertex
100
AcDb2dVertex
 10
100.3707899054629
 20
-142.9039387663574
 30
0.0
  0
VERTEX
  5
158
330
156
100
AcDbEntity
  8
_U+30EC_U+30A4_U+30E4_U+30FC 1
370
     0
100
AcDbVertex
100
AcDb2dVertex
 10
99.91397024411873
 20
-143.5595404372004
 30
0.0
  0
VERTEX
  5
159
330
156
100
AcDbEntity
  8
_U+30EC_U+30A4_U+30E4_U+30FC 1
370
     0
100
AcDbVertex
100
AcDb2dVertex
 10
100.3707899054629
 20
-143.5595404372004
 30
0.0
  0
VERTEX
  5
15A
330
156
100
AcDbEntity
  8
_U+30EC_U+30A4_U+30E4_U+30FC 1
370
     0
100
AcDbVertex
100
AcDb2dVertex
 10
100.3707899054629
 20
-142.9039387663574
 30
0.0
  0
SEQEND
  5
15B
330
156
100
AcDbEntity
  8
_U+30EC_U+30A4_U+30E4_U+30FC 1
370
     0
  0
HATCH
  5
15C
330
144
100
AcDbEntity
  8
_U+30EC_U+30A4_U+30E4_U+30FC 1
 62
   179
420
  2234388
100
AcDbHatch
 10
0.0
 20
0.0
 30
0.0
210
0.0
220
0.0
230
1.0
  2
SOLID
 70
     1
 71
     0
 91
        2
 92
        1
 93
       11
 72
     1
 10
100.5888644496792
 20
-143.7586669562479
 11
100.5888644496792
 21
-144.1055880716125
 72
     1
 10
100.5888644496792
 20
-144.1055880716125
 11
100.3707899054629
 21
-144.1055880716125
 72
     1
 10
100.3707899054629
 20
-144.1055880716125
 11
100.3707899054629
 21
-143.7586669562479
 72
     1
 10
100.3707899054629
 20
-143.7586669562479
 11
99.71518823461982
 21
-143.7586669562479
 72
     1
 10
99.71518823461982
 20
-143.7586669562479
 11
99.71518823461982
 21
-143.5343912401581
 72
     1
 10
99.71518823461982
 20
-143.5343912401581
 11
100.3942165547626
 21
-142.561151765575
 72
     1
 10
100.3942165547626
 20
-142.561151765575
 11
100.5888644496792
 21
-142.561151765575
 72
     1
 10
100.5888644496792
 20
-142.561151765575
 11
100.5888644496792
 21
-143.5595404372004
 72
     1
 10
100.5888644496792
 20
-143.5595404372004
 11
100.7959146883427
 21
-143.5595404372004
 72
     1
 10
100.7959146883427
 20
-143.5595404372004
 11
100.7959146883427
 21
-143.7586669562479
 72
     1
 10
100.7959146883427
 20
-143.7586669562479
 11
100.5888644496792
 21
-143.7586669562479
 97
        0
 92
        1
 93
        3
 72
     1
 10
100.3707899054629
 20
-142.9039387663574
 11
99.91397024411873
 21
-143.5595404372004
 72
     1
 10
99.91397024411873
 20
-143.5595404372004
 11
100.3707899054629
 21
-143.5595404372004
 72
     1
 10
100.3707899054629
 20
-143.5595404372004
 11
100.3707899054629
 21
-142.9039387663574
 97
        0
 75
     2
 76
     1
 98
        0
  0
ENDBLK
  5
147
330
144
100
AcDbEntity
  8
0
100
AcDbBlockEnd
  0
BLOCK
  5
15F
330
15D
100
AcDbEntity
  8
0
100
AcDbBlockBegin
  2
block 19
 70
     0
 10
0.0
 20
0.0
 30
0.0
  3
block 19
  1

  0
SPLINE
  5
161
330
15D
100
AcDbEntity
  8
_U+30EC_U+30A4_U+30E4_U+30FC 1
 62
   179
420
  2234388
370
    25
100
AcDbSpline
210
0.0
220
0.0
230
1.0
 70
    11
 71
     3
 72
    17
 73
    13
 74
     0
 42
0.0000000001
 43
0.0000000001
 12
1.0
 22
0.0
 32
0.0
 13
1.0
 23
0.0
 33
0.0
 40
0.0
 40
0.0
 40
0.0
 40
0.0
 40
1.0
 40
1.0
 40
1.0
 40
2.0
 40
2.0
 40
2.0
 40
3.0
 40
3.0
 40
3.0
 40
4.0
 40
4.0
 40
4.0
 40
4.0
 10
98.2923555309824
 20
-140.478580520436
 30
0.0
 10
98.2923555309824
 20
-140.4978774648752
 30
0.0
 10
98.2765133260906
 20
-140.5137171870938
 30
0.0
 10
98.25686360436968
 20
-140.5137171870938
 30
0.0
 10
98.23760193819442
 20
-140.5137171870938
 30
0.0
 10
98.22172693859943
 20
-140.4978774648752
 30
0.0
 10
98.22172693859943
 20
-140.478580520436
 30
0.0
 10
98.22172693859943
 20
-140.4586132982188
 30
0.0
 10
98.23760193819442
 20
-140.4434438537783
 30
0.0
 10
98.25686360436968
 20
-140.4434438537783
 30
0.0
 10
98.2765133260906
 20
-140.4434438537783
 30
0.0
 10
98.2923555309824
 20
-140.4586132982188
 30
0.0
 10
98.2923555309824
 20
-140.478580520436
 30
0.0
  0
ENDBLK
  5
160
330
15D
100
AcDbEntity
  8
0
100
AcDbBlockEnd
  0
BLOCK
  5
164
330
162
100
AcDbEntity
  8
0
100
AcDbBlockBegin
  2
block 20
 70
     0
 10
0.0
 20
0.0
 30
0.0
  3
block 20
  1

  0
SPLINE
  5
166
330
162
100
AcDbEntity
  8
_U+30EC_U+30A4_U+30E4_U+30FC 1
 62
   179
420
  2234388
370
    25
100
AcDbSpline
210
0.0
220
0.0
230
1.0
 70
    11
 71
     3
 72
    17
 73
    13
 74
     0
 42
0.0000000001
 43
0.0000000001
 12
1.0
 22
0.0
 32
0.0
 13
1.0
 23
0.0
 33
0.0
 40
0.0
 40
0.0
 40
0.0
 40
0.0
 40
1.0
 40
1.0
 40
1.0
 40
2.0
 40
2.0
 40
2.0
 40
3.0
 40
3.0
 40
3.0
 40
4.0
 40
4.0
 40
4.0
 40
4.0
 10
102.292112112533
 20
-140.478580520436
 30
0.0
 10
102.292112112533
 20
-140.4978774648752
 30
0.0
 10
102.2766277522085
 20
-140.5137171870938
 30
0.0
 10
102.2569754467628
 20
-140.5137171870938
 30
0.0
 10
102.2376785028106
 20
-140.5137171870938
 30
0.0
 10
102.2218387809925
 20
-140.4978774648752
 30
0.0
 10
102.2218387809925
 20
-140.478580520436
 30
0.0
 10
102.2218387809925
 20
-140.4586132982188
 30
0.0
 10
102.2376785028106
 20
-140.4434438537783
 30
0.0
 10
102.2569754467628
 20
-140.4434438537783
 30
0.0
 10
102.2766277522085
 20
-140.4434438537783
 30
0.0
 10
102.292112112533
 20
-140.4586132982188
 30
0.0
 10
102.292112112533
 20
-140.478580520436
 30
0.0
  0
ENDBLK
  5
165
330
162
100
AcDbEntity
  8
0
100
AcDbBlockEnd
  0
BLOCK
  5
169
330
167
100
AcDbEntity
  8
0
100
AcDbBlockBegin
  2
block 21
 70
     0
 10
0.0
 20
0.0
 30
0.0
  3
block 21
  1

  0
SPLINE
  5
16B
330
167
100
AcDbEntity
  8
_U+30EC_U+30A4_U+30E4_U+30FC 1
 62
   179
420
  2234388
370
     9
100
AcDbSpline
210
0.0
220
0.0
230
1.0
 70
    11
 71
     3
 72
    17
 73
    13
 74
     0
 42
0.0000000001
 43
0.0000000001
 12
1.0
 22
0.0
 32
0.0
 13
1.0
 23
0.0
 33
0.0
 40
0.0
 40
0.0
 40
0.0
 40
0.0
 40
1.0
 40
1.0
 40
1.0
 40
2.0
 40
2.0
 40
2.0
 40
3.0
 40
3.0
 40
3.0
 40
4.0
 40
4.0
 40
4.0
 40
4.0
 10
102.292112112533
 20
-144.4783396861029
 30
0.0
 10
102.292112112533
 20
-144.4976366305421
 30
0.0
 10
102.2766277522085
 20
-144.5134763527606
 30
0.0
 10
102.2569754467628
 20
-144.5134763527606
 30
0.0
 10
102.2376785028106
 20
-144.5134763527606
 30
0.0
 10
102.2218387809925
 20
-144.4976366305421
 30
0.0
 10
102.2218387809925
 20
-144.4783396861029
 30
0.0
 10
102.2218387809925
 20
-144.4590427416631
 30
0.0
 10
102.2376785028106
 20
-144.4432030194446
 30
0.0
 10
102.2569754467628
 20
-144.4432030194446
 30
0.0
 10
102.2766277522085
 20
-144.4432030194446
 30
0.0
 10
102.292112112533
 20
-144.4590427416631
 30
0.0
 10
102.292112112533
 20
-144.4783396861029
 30
0.0
  0
ENDBLK
  5
16A
330
167
100
AcDbEntity
  8
0
100
AcDbBlockEnd
  0
BLOCK
  5
17B
330
179
100
AcDbEntity
  8
0
100
AcDbBlockBegin
  2
block 22
 70
     0
 10
0.0
 20
0.0
 30
0.0
  3
block 22
  1

  0
SPLINE
  5
17D
330
179
100
AcDbEntity
  8
_U+30EC_U+30A4_U+30E4_U+30FC 1
370
     0
100
AcDbSpline
210
0.0
220
0.0
230
1.0
 70
    11
 71
     3
 72
    26
 73
    22
 74
     0
 42
0.0000000001
 43
0.0000000001
 12
1.0
 22
0.0
 32
0.0
 13
1.0
 23
0.0
 33
0.0
 40
0.0
 40
0.0
 40
0.0
 40
0.0
 40
1.0
 40
1.0
 40
1.0
 40
2.0
 40
2.0
 40
2.0
 40
3.0
 40
3.0
 40
3.0
 40
4.0
 40
4.0
 40
4.0
 40
5.0
 40
5.0
 40
5.0
 40
6.0
 40
6.0
 40
6.0
 40
7.0
 40
7.0
 40
7.0
 40
7.0
 10
91.25678979923441
 20
-114.1053520765084
 30
0.0
 10
91.25678979923441
 20
-114.1053520765084
 30
0.0
 10
91.25678979923441
 20
-113.0010267187116
 30
0.0
 10
91.25678979923441
 20
-113.0010267187116
 30
0.0
 10
91.25678979923441
 20
-113.0010267187116
 30
0.0
 10
90.92674965174749
 20
-113.0010267187116
 30
0.0
 10
90.92674965174749
 20
-113.0010267187116
 30
0.0
 10
90.92674965174749
 20
-113.0010267187116
 30
0.0
 10
90.92674965174749
 20
-112.8530598676201
 30
0.0
 10
90.92674965174749
 20
-112.8530598676201
 30
0.0
 10
91.25902911129982
 20
-112.8382459570335
 30
0.0
 10
91.3055379003507
 20
-112.6752929405812
 30
0.0
 10
91.33516572152385
 20
-112.5610880252452
 30
0.0
 10
91.33516572152385
 20
-112.5610880252452
 30
0.0
 10
91.48106551532418
 20
-112.5610880252452
 30
0.0
 10
91.48106551532418
 20
-112.5610880252452
 30
0.0
 10
91.48106551532418
 20
-112.5610880252452
 30
0.0
 10
91.48106551532418
 20
-114.1053520765084
 30
0.0
 10
91.48106551532418
 20
-114.1053520765084
 30
0.0
 10
91.48106551532418
 20
-114.1053520765084
 30
0.0
 10
91.25678979923441
 20
-114.1053520765084
 30
0.0
 10
91.25678979923441
 20
-114.1053520765084
 30
0.0
  0
HATCH
  5
17E
330
179
100
AcDbEntity
  8
_U+30EC_U+30A4_U+30E4_U+30FC 1
 62
   179
420
  2234388
100
AcDbHatch
 10
0.0
 20
0.0
 30
0.0
210
0.0
220
0.0
230
1.0
  2
SOLID
 70
     1
 71
     0
 91
        1
 92
        1
 93
        1
 72
     4
 94
        3
 73
     0
 74
     1
 95
       26
 96
       22
 40
0.0
 40
0.0
 40
0.0
 40
0.0
 40
1.0
 40
1.0
 40
1.0
 40
2.0
 40
2.0
 40
2.0
 40
3.0
 40
3.0
 40
3.0
 40
4.0
 40
4.0
 40
4.0
 40
5.0
 40
5.0
 40
5.0
 40
6.0
 40
6.0
 40
6.0
 40
7.0
 40
7.0
 40
7.0
 40
7.0
 10
91.25678979923441
 20
-114.1053520765084
 10
91.25678979923441
 20
-114.1053520765084
 10
91.25678979923441
 20
-113.0010267187116
 10
91.25678979923441
 20
-113.0010267187116
 10
91.25678979923441
 20
-113.0010267187116
 10
90.92674965174749
 20
-113.0010267187116
 10
90.92674965174749
 20
-113.0010267187116
 10
90.92674965174749
 20
-113.0010267187116
 10
90.92674965174749
 20
-112.8530598676201
 10
90.92674965174749
 20
-112.8530598676201
 10
91.25902911129982
 20
-112.8382459570335
 10
91.3055379003507
 20
-112.6752929405812
 10
91.33516572152385
 20
-112.5610880252452
 10
91.33516572152385
 20
-112.5610880252452
 10
91.48106551532418
 20
-112.5610880252452
 10
91.48106551532418
 20
-112.5610880252452
 10
91.48106551532418
 20
-112.5610880252452
 10
91.48106551532418
 20
-114.1053520765084
 10
91.48106551532418
 20
-114.1053520765084
 10
91.48106551532418
 20
-114.1053520765084
 10
91.25678979923441
 20
-114.1053520765084
 10
91.25678979923441
 20
-114.1053520765084
 97
        0
 97
        0
 75
     2
 76
     1
 98
        0
  0
SPLINE
  5
17F
330
179
100
AcDbEntity
  8
_U+30EC_U+30A4_U+30E4_U+30FC 1
370
     0
100
AcDbSpline
210
0.0
220
0.0
230
1.0
 70
    11
 71
     3
 72
    44
 73
    40
 74
     0
 42
0.0000000001
 43
0.0000000001
 12
1.0
 22
0.0
 32
0.0
 13
1.0
 23
0.0
 33
0.0
 40
0.0
 40
0.0
 40
0.0
 40
0.0
 40
1.0
 40
1.0
 40
1.0
 40
2.0
 40
2.0
 40
2.0
 40
3.0
 40
3.0
 40
3.0
 40
4.0
 40
4.0
 40
4.0
 40
5.0
 40
5.0
 40
5.0
 40
6.0
 40
6.0
 40
6.0
 40
7.0
 40
7.0
 40
7.0
 40
8.0
 40
8.0
 40
8.0
 40
9.0
 40
9.0
 40
9.0
 40
10.0
 40
10.0
 40
10.0
 40
11.0
 40
11.0
 40
11.0
 40
12.0
 40
12.0
 40
12.0
 40
13.0
 40
13.0
 40
13.0
 40
13.0
 10
92.57557235098805
 20
-113.523647703824
 30
0.0
 10
92.35749780677175
 20
-113.6822943509197
 30
0.0
 10
92.26448022867
 20
-113.7563639038526
 30
0.0
 10
92.21590438232798
 20
-113.9001966403618
 30
0.0
 10
92.21590438232798
 20
-113.9001966403618
 30
0.0
 10
92.9941514524459
 20
-113.9001966403618
 30
0.0
 10
92.9941514524459
 20
-113.9001966403618
 30
0.0
 10
92.9941514524459
 20
-113.9001966403618
 30
0.0
 10
92.9941514524459
 20
-114.1053520765084
 30
0.0
 10
92.9941514524459
 20
-114.1053520765084
 30
0.0
 10
92.9941514524459
 20
-114.1053520765084
 30
0.0
 10
91.96613495964736
 20
-114.1053520765084
 30
0.0
 10
91.96613495964736
 20
-114.1053520765084
 30
0.0
 10
91.99782983811166
 20
-113.7479234199137
 30
0.0
 10
92.06363116187993
 20
-113.6695474976243
 30
0.0
 10
92.44844832758234
 20
-113.3713744833759
 30
0.0
 10
92.7044189221364
 20
-113.1724202191027
 30
0.0
 10
92.77022024590467
 20
-113.1047240928176
 30
0.0
 10
92.77022024590467
 20
-112.9672647829561
 30
0.0
 10
92.77022024590467
 20
-112.8487534982635
 30
0.0
 10
92.69821775026296
 20
-112.7176676150497
 30
0.0
 10
92.50150279805518
 20
-112.7176676150497
 30
0.0
 10
92.2410535793703
 20
-112.7176676150497
 30
0.0
 10
92.2327853502057
 20
-112.948144503013
 30
0.0
 10
92.2286512356234
 20
-113.0645887304144
 30
0.0
 10
92.2286512356234
 20
-113.0645887304144
 30
0.0
 10
92.00437551953364
 20
-113.0645887304144
 30
0.0
 10
92.00437551953364
 20
-113.0645887304144
 30
0.0
 10
92.01264374869824
 20
-112.937636961783
 30
0.0
 10
92.0233235447025
 20
-112.8254991037381
 30
0.0
 10
92.10359426950883
 20
-112.7069878190455
 30
0.0
 10
92.21383732503682
 20
-112.5462741146586
 30
0.0
 10
92.39987248124031
 20
-112.5123399241289
 30
0.0
 10
92.51631670864175
 20
-112.5123399241289
 30
0.0
 10
92.79330238565585
 20
-112.5123399241289
 30
0.0
 10
93.00069713386789
 20
-112.6964802778155
 30
0.0
 10
93.00069713386789
 20
-112.9693318402472
 30
0.0
 10
93.00069713386789
 20
-113.1979139256936
 30
0.0
 10
92.88425290646644
 20
-113.297304930443
 30
0.0
 10
92.57557235098805
 20
-113.523647703824
 30
0.0
  0
HATCH
  5
180
330
179
100
AcDbEntity
  8
_U+30EC_U+30A4_U+30E4_U+30FC 1
 62
   179
420
  2234388
100
AcDbHatch
 10
0.0
 20
0.0
 30
0.0
210
0.0
220
0.0
230
1.0
  2
SOLID
 70
     1
 71
     0
 91
        1
 92
        1
 93
        1
 72
     4
 94
        3
 73
     0
 74
     1
 95
       44
 96
       40
 40
0.0
 40
0.0
 40
0.0
 40
0.0
 40
1.0
 40
1.0
 40
1.0
 40
2.0
 40
2.0
 40
2.0
 40
3.0
 40
3.0
 40
3.0
 40
4.0
 40
4.0
 40
4.0
 40
5.0
 40
5.0
 40
5.0
 40
6.0
 40
6.0
 40
6.0
 40
7.0
 40
7.0
 40
7.0
 40
8.0
 40
8.0
 40
8.0
 40
9.0
 40
9.0
 40
9.0
 40
10.0
 40
10.0
 40
10.0
 40
11.0
 40
11.0
 40
11.0
 40
12.0
 40
12.0
 40
12.0
 40
13.0
 40
13.0
 40
13.0
 40
13.0
 10
92.57557235098805
 20
-113.523647703824
 10
92.35749780677175
 20
-113.6822943509197
 10
92.26448022867
 20
-113.7563639038526
 10
92.21590438232798
 20
-113.9001966403618
 10
92.21590438232798
 20
-113.9001966403618
 10
92.9941514524459
 20
-113.9001966403618
 10
92.9941514524459
 20
-113.9001966403618
 10
92.9941514524459
 20
-113.9001966403618
 10
92.9941514524459
 20
-114.1053520765084
 10
92.9941514524459
 20
-114.1053520765084
 10
92.9941514524459
 20
-114.1053520765084
 10
91.96613495964736
 20
-114.1053520765084
 10
91.96613495964736
 20
-114.1053520765084
 10
91.99782983811166
 20
-113.7479234199137
 10
92.06363116187993
 20
-113.6695474976243
 10
92.44844832758234
 20
-113.3713744833759
 10
92.7044189221364
 20
-113.1724202191027
 10
92.77022024590467
 20
-113.1047240928176
 10
92.77022024590467
 20
-112.9672647829561
 10
92.77022024590467
 20
-112.8487534982635
 10
92.69821775026296
 20
-112.7176676150497
 10
92.50150279805518
 20
-112.7176676150497
 10
92.2410535793703
 20
-112.7176676150497
 10
92.2327853502057
 20
-112.948144503013
 10
92.2286512356234
 20
-113.0645887304144
 10
92.2286512356234
 20
-113.0645887304144
 10
92.00437551953364
 20
-113.0645887304144
 10
92.00437551953364
 20
-113.0645887304144
 10
92.01264374869824
 20
-112.937636961783
 10
92.0233235447025
 20
-112.8254991037381
 10
92.10359426950883
 20
-112.7069878190455
 10
92.21383732503682
 20
-112.5462741146586
 10
92.39987248124031
 20
-112.5123399241289
 10
92.51631670864175
 20
-112.5123399241289
 10
92.79330238565585
 20
-112.5123399241289
 10
93.00069713386789
 20
-112.6964802778155
 10
93.00069713386789
 20
-112.9693318402472
 10
93.00069713386789
 20
-113.1979139256936
 10
92.88425290646644
 20
-113.297304930443
 10
92.57557235098805
 20
-113.523647703824
 97
        0
 97
        0
 75
     2
 76
     1
 98
        0
  0
POLYLINE
  5
181
330
179
100
AcDbEntity
  8
_U+30EC_U+30A4_U+30E4_U+30FC 1
370
     0
100
AcDb2dPolyline
 66
     1
 10
0.0
 20
0.0
 30
0.0
  0
VERTEX
  5
182
330
181
100
AcDbEntity
  8
_U+30EC_U+30A4_U+30E4_U+30FC 1
370
     0
100
AcDbVertex
100
AcDb2dVertex
 10
93.21911618763272
 20
-114.1053520765084
 30
0.0
  0
VERTEX
  5
183
330
181
100
AcDbEntity
  8
_U+30EC_U+30A4_U+30E4_U+30FC 1
370
     0
100
AcDbVertex
100
AcDb2dVertex
 10
93.21911618763272
 20
-113.8536878513109
 30
0.0
  0
VERTEX
  5
184
330
181
100
AcDbEntity
  8
_U+30EC_U+30A4_U+30E4_U+30FC 1
370
     0
100
AcDbVertex
100
AcDb2dVertex
 10
93.4709526676045
 20
-113.8536878513109
 30
0.0
  0
VERTEX
  5
185
330
181
100
AcDbEntity
  8
_U+30EC_U+30A4_U+30E4_U+30FC 1
370
     0
100
AcDbVertex
100
AcDb2dVertex
 10
93.4709526676045
 20
-114.1053520765084
 30
0.0
  0
VERTEX
  5
186
330
181
100
AcDbEntity
  8
_U+30EC_U+30A4_U+30E4_U+30FC 1
370
     0
100
AcDbVertex
100
AcDb2dVertex
 10
93.21911618763272
 20
-114.1053520765084
 30
0.0
  0
SEQEND
  5
187
330
181
100
AcDbEntity
  8
_U+30EC_U+30A4_U+30E4_U+30FC 1
370
     0
  0
HATCH
  5
188
330
179
100
AcDbEntity
  8
_U+30EC_U+30A4_U+30E4_U+30FC 1
 62
   179
420
  2234388
100
AcDbHatch
 10
0.0
 20
0.0
 30
0.0
210
0.0
220
0.0
230
1.0
  2
SOLID
 70
     1
 71
     0
 91
        1
 92
        1
 93
        4
 72
     1
 10
93.21911618763272
 20
-114.1053520765084
 11
93.21911618763272
 21
-113.8536878513109
 72
     1
 10
93.21911618763272
 20
-113.8536878513109
 11
93.4709526676045
 21
-113.8536878513109
 72
     1
 10
93.4709526676045
 20
-113.8536878513109
 11
93.4709526676045
 21
-114.1053520765084
 72
     1
 10
93.4709526676045
 20
-114.1053520765084
 11
93.21911618763272
 21
-114.1053520765084
 97
        0
 75
     2
 76
     1
 98
        0
  0
SPLINE
  5
189
330
179
100
AcDbEntity
  8
_U+30EC_U+30A4_U+30E4_U+30FC 1
370
     0
100
AcDbSpline
210
0.0
220
0.0
230
1.0
 70
    11
 71
     3
 72
    53
 73
    49
 74
     0
 42
0.0000000001
 43
0.0000000001
 12
1.0
 22
0.0
 32
0.0
 13
1.0
 23
0.0
 33
0.0
 40
0.0
 40
0.0
 40
0.0
 40
0.0
 40
1.0
 40
1.0
 40
1.0
 40
2.0
 40
2.0
 40
2.0
 40
3.0
 40
3.0
 40
3.0
 40
4.0
 40
4.0
 40
4.0
 40
5.0
 40
5.0
 40
5.0
 40
6.0
 40
6.0
 40
6.0
 40
7.0
 40
7.0
 40
7.0
 40
8.0
 40
8.0
 40
8.0
 40
9.0
 40
9.0
 40
9.0
 40
10.0
 40
10.0
 40
10.0
 40
11.0
 40
11.0
 40
11.0
 40
12.0
 40
12.0
 40
12.0
 40
13.0
 40
13.0
 40
13.0
 40
14.0
 40
14.0
 40
14.0
 40
15.0
 40
15.0
 40
15.0
 40
16.0
 40
16.0
 40
16.0
 40
16.0
 10
94.1882215476335
 20
-114.1561672349158
 30
0.0
 10
94.11001788011833
 20
-114.1561672349158
 30
0.0
 10
94.00873207285198
 20
-114.1392862670381
 30
0.0
 10
93.90710175603712
 20
-114.0757242553352
 30
0.0
 10
93.73346894358052
 20
-113.9658257093558
 30
0.0
 10
93.71245386112051
 20
-113.8345675713678
 30
0.0
 10
93.69350583595163
 20
-113.7267360826794
 30
0.0
 10
93.69350583595163
 20
-113.7267360826794
 30
0.0
 10
93.91536998520172
 20
-113.7267360826794
 30
0.0
 10
93.91536998520172
 20
-113.7267360826794
 30
0.0
 10
93.97049151296571
 20
-113.9255180921784
 30
0.0
 10
94.09727102682291
 20
-113.9551459133515
 30
0.0
 10
94.19063311447317
 20
-113.9551459133515
 30
0.0
 10
94.3301594816258
 20
-113.9551459133515
 30
0.0
 10
94.48243270207384
 20
-113.855754908602
 30
0.0
 10
94.48243270207384
 20
-113.6230387085734
 30
0.0
 10
94.48243270207384
 20
-113.3670681140193
 30
0.0
 10
94.3025987177438
 20
-113.297304930443
 30
0.0
 10
94.18202037576006
 20
-113.297304930443
 30
0.0
 10
94.15032549729575
 20
-113.297304930443
 30
0.0
 10
94.00873207285198
 20
-113.297304930443
 30
0.0
 10
93.91984860933255
 20
-113.4263237563656
 30
0.0
 10
93.91984860933255
 20
-113.4263237563656
 30
0.0
 10
93.7441487395848
 20
-113.4072034764225
 30
0.0
 10
93.7441487395848
 20
-113.4072034764225
 30
0.0
 10
93.7441487395848
 20
-113.4072034764225
 30
0.0
 10
93.86472708156855
 20
-112.5610880252452
 30
0.0
 10
93.86472708156855
 20
-112.5610880252452
 30
0.0
 10
93.86472708156855
 20
-112.5610880252452
 30
0.0
 10
94.64331866123501
 20
-112.5610880252452
 30
0.0
 10
94.64331866123501
 20
-112.5610880252452
 30
0.0
 10
94.64331866123501
 20
-112.5610880252452
 30
0.0
 10
94.64331866123501
 20
-112.7557359201618
 30
0.0
 10
94.64331866123501
 20
-112.7557359201618
 30
0.0
 10
94.64331866123501
 20
-112.7557359201618
 30
0.0
 10
94.02768009802087
 20
-112.7557359201618
 30
0.0
 10
94.02768009802087
 20
-112.7557359201618
 30
0.0
 10
94.02768009802087
 20
-112.7557359201618
 30
0.0
 10
93.9618787742526
 20
-113.1787936457504
 30
0.0
 10
93.9618787742526
 20
-113.1787936457504
 30
0.0
 10
94.02354598343857
 20
-113.1448594552207
 30
0.0
 10
94.10588376553603
 20
-113.1047240928176
 30
0.0
 10
94.22439505022862
 20
-113.1047240928176
 30
0.0
 10
94.47829858749154
 20
-113.1047240928176
 30
0.0
 10
94.7149766473282
 20
-113.2909315037953
 30
0.0
 10
94.7149766473282
 20
-113.6040906834045
 30
0.0
 10
94.7149766473282
 20
-113.9213839775961
 30
0.0
 10
94.49104544078696
 20
-114.1561672349158
 30
0.0
 10
94.1882215476335
 20
-114.1561672349158
 30
0.0
  0
HATCH
  5
18A
330
179
100
AcDbEntity
  8
_U+30EC_U+30A4_U+30E4_U+30FC 1
 62
   179
420
  2234388
100
AcDbHatch
 10
0.0
 20
0.0
 30
0.0
210
0.0
220
0.0
230
1.0
  2
SOLID
 70
     1
 71
     0
 91
        1
 92
        1
 93
        1
 72
     4
 94
        3
 73
     0
 74
     1
 95
       53
 96
       49
 40
0.0
 40
0.0
 40
0.0
 40
0.0
 40
1.0
 40
1.0
 40
1.0
 40
2.0
 40
2.0
 40
2.0
 40
3.0
 40
3.0
 40
3.0
 40
4.0
 40
4.0
 40
4.0
 40
5.0
 40
5.0
 40
5.0
 40
6.0
 40
6.0
 40
6.0
 40
7.0
 40
7.0
 40
7.0
 40
8.0
 40
8.0
 40
8.0
 40
9.0
 40
9.0
 40
9.0
 40
10.0
 40
10.0
 40
10.0
 40
11.0
 40
11.0
 40
11.0
 40
12.0
 40
12.0
 40
12.0
 40
13.0
 40
13.0
 40
13.0
 40
14.0
 40
14.0
 40
14.0
 40
15.0
 40
15.0
 40
15.0
 40
16.0
 40
16.0
 40
16.0
 40
16.0
 10
94.1882215476335
 20
-114.1561672349158
 10
94.11001788011833
 20
-114.1561672349158
 10
94.00873207285198
 20
-114.1392862670381
 10
93.90710175603712
 20
-114.0757242553352
 10
93.73346894358052
 20
-113.9658257093558
 10
93.71245386112051
 20
-113.8345675713678
 10
93.69350583595163
 20
-113.7267360826794
 10
93.69350583595163
 20
-113.7267360826794
 10
93.91536998520172
 20
-113.7267360826794
 10
93.91536998520172
 20
-113.7267360826794
 10
93.97049151296571
 20
-113.9255180921784
 10
94.09727102682291
 20
-113.9551459133515
 10
94.19063311447317
 20
-113.9551459133515
 10
94.3301594816258
 20
-113.9551459133515
 10
94.48243270207384
 20
-113.855754908602
 10
94.48243270207384
 20
-113.6230387085734
 10
94.48243270207384
 20
-113.3670681140193
 10
94.3025987177438
 20
-113.297304930443
 10
94.18202037576006
 20
-113.297304930443
 10
94.15032549729575
 20
-113.297304930443
 10
94.00873207285198
 20
-113.297304930443
 10
93.91984860933255
 20
-113.4263237563656
 10
93.91984860933255
 20
-113.4263237563656
 10
93.7441487395848
 20
-113.4072034764225
 10
93.7441487395848
 20
-113.4072034764225
 10
93.7441487395848
 20
-113.4072034764225
 10
93.86472708156855
 20
-112.5610880252452
 10
93.86472708156855
 20
-112.5610880252452
 10
93.86472708156855
 20
-112.5610880252452
 10
94.64331866123501
 20
-112.5610880252452
 10
94.64331866123501
 20
-112.5610880252452
 10
94.64331866123501
 20
-112.5610880252452
 10
94.64331866123501
 20
-112.7557359201618
 10
94.64331866123501
 20
-112.7557359201618
 10
94.64331866123501
 20
-112.7557359201618
 10
94.02768009802087
 20
-112.7557359201618
 10
94.02768009802087
 20
-112.7557359201618
 10
94.02768009802087
 20
-112.7557359201618
 10
93.9618787742526
 20
-113.1787936457504
 10
93.9618787742526
 20
-113.1787936457504
 10
94.02354598343857
 20
-113.1448594552207
 10
94.10588376553603
 20
-113.1047240928176
 10
94.22439505022862
 20
-113.1047240928176
 10
94.47829858749154
 20
-113.1047240928176
 10
94.7149766473282
 20
-113.2909315037953
 10
94.7149766473282
 20
-113.6040906834045
 10
94.7149766473282
 20
-113.9213839775961
 10
94.49104544078696
 20
-114.1561672349158
 10
94.1882215476335
 20
-114.1561672349158
 97
        0
 97
        0
 75
     2
 76
     1
 98
        0
  0
ENDBLK
  5
17C
330
179
100
AcDbEntity
  8
0
100
AcDbBlockEnd
  0
BLOCK
  5
18D
330
18B
100
AcDbEntity
  8
0
100
AcDbBlockBegin
  2
block 23
 70
     0
 10
0.0
 20
0.0
 30
0.0
  3
block 23
  1

  0
SPLINE
  5
18F
330
18B
100
AcDbEntity
  8
_U+30EC_U+30A4_U+30E4_U+30FC 1
 62
   179
420
  2234388
370
     9
100
AcDbSpline
210
0.0
220
0.0
230
1.0
 70
    11
 71
     3
 72
    17
 73
    13
 74
     0
 42
0.0000000001
 43
0.0000000001
 12
1.0
 22
0.0
 32
0.0
 13
1.0
 23
0.0
 33
0.0
 40
0.0
 40
0.0
 40
0.0
 40
0.0
 40
1.0
 40
1.0
 40
1.0
 40
2.0
 40
2.0
 40
2.0
 40
3.0
 40
3.0
 40
3.0
 40
4.0
 40
4.0
 40
4.0
 40
4.0
 10
99.29212775295494
 20
-114.4786113602692
 30
0.0
 10
99.29212775295494
 20
-114.4979083047088
 30
0.0
 10
99.27663830057529
 20
-114.5137833047048
 30
0.0
 10
99.25698857885436
 20
-114.5137833047048
 30
0.0
 10
99.23769163490223
 20
-114.5137833047048
 30
0.0
 10
99.22185191308411
 20
-114.4979083047088
 30
0.0
 10
99.22185191308411
 20
-114.4786113602692
 30
0.0
 10
99.22185191308411
 20
-114.4593496936073
 30
0.0
 10
99.23769163490223
 20
-114.4434746936112
 30
0.0
 10
99.25698857885436
 20
-114.4434746936112
 30
0.0
 10
99.27663830057529
 20
-114.4434746936112
 30
0.0
 10
99.29212775295494
 20
-114.4593496936073
 30
0.0
 10
99.29212775295494
 20
-114.4786113602692
 30
0.0
  0
ENDBLK
  5
18E
330
18B
100
AcDbEntity
  8
0
100
AcDbBlockEnd
  0
BLOCK
  5
193
330
191
100
AcDbEntity
  8
0
100
AcDbBlockBegin
  2
block 24
 70
     0
 10
0.0
 20
0.0
 30
0.0
  3
block 24
  1

  0
SPLINE
  5
195
330
191
100
AcDbEntity
  8
_U+30EC_U+30A4_U+30E4_U+30FC 1
 62
   179
420
  2234388
370
    25
100
AcDbSpline
210
0.0
220
0.0
230
1.0
 70
    11
 71
     3
 72
    17
 73
    13
 74
     0
 42
0.0000000001
 43
0.0000000001
 12
1.0
 22
0.0
 32
0.0
 13
1.0
 23
0.0
 33
0.0
 40
0.0
 40
0.0
 40
0.0
 40
0.0
 40
1.0
 40
1.0
 40
1.0
 40
2.0
 40
2.0
 40
2.0
 40
3.0
 40
3.0
 40
3.0
 40
4.0
 40
4.0
 40
4.0
 40
4.0
 10
86.29222918739072
 20
-114.4782938602693
 30
0.0
 10
86.29222918739072
 20
-114.4982610824865
 30
0.0
 10
86.2763916450976
 20
-114.5141008047047
 30
0.0
 10
86.25673974385168
 20
-114.5141008047047
 30
0.0
 10
86.23744279989954
 20
-114.5141008047047
 30
0.0
 10
86.22160307808143
 20
-114.4982610824865
 30
0.0
 10
86.22160307808143
 20
-114.4782938602693
 30
0.0
 10
86.22160307808143
 20
-114.4589969158298
 30
0.0
 10
86.23744279989954
 20
-114.4431571936116
 30
0.0
 10
86.25673974385168
 20
-114.4431571936116
 30
0.0
 10
86.2763916450976
 20
-114.4431571936116
 30
0.0
 10
86.29222918739072
 20
-114.4589969158298
 30
0.0
 10
86.29222918739072
 20
-114.4782938602693
 30
0.0
  0
ENDBLK
  5
194
330
191
100
AcDbEntity
  8
0
100
AcDbBlockEnd
  0
BLOCK
  5
198
330
196
100
AcDbEntity
  8
0
100
AcDbBlockBegin
  2
block 25
 70
     0
 10
0.0
 20
0.0
 30
0.0
  3
block 25
  1

  0
SPLINE
  5
19A
330
196
100
AcDbEntity
  8
_U+30EC_U+30A4_U+30E4_U+30FC 1
 62
   179
420
  2234388
370
    25
100
AcDbSpline
210
0.0
220
0.0
230
1.0
 70
    11
 71
     3
 72
    17
 73
    13
 74
     0
 42
0.0000000001
 43
0.0000000001
 12
1.0
 22
0.0
 32
0.0
 13
1.0
 23
0.0
 33
0.0
 40
0.0
 40
0.0
 40
0.0
 40
0.0
 40
1.0
 40
1.0
 40
1.0
 40
2.0
 40
2.0
 40
2.0
 40
3.0
 40
3.0
 40
3.0
 40
4.0
 40
4.0
 40
4.0
 40
4.0
 10
99.2924805307327
 20
-118.4780530259362
 30
0.0
 10
99.2924805307327
 20
-118.4980202481534
 30
0.0
 10
99.27663830057529
 20
-118.5138599703716
 30
0.0
 10
99.2566358010856
 20
-118.5138599703716
 30
0.0
 10
99.23733885713345
 20
-118.5138599703716
 30
0.0
 10
99.22149913531534
 20
-118.4980202481534
 30
0.0
 10
99.22149913531534
 20
-118.4780530259362
 30
0.0
 10
99.22149913531534
 20
-118.4587560814964
 30
0.0
 10
99.23733885713345
 20
-118.4429163592782
 30
0.0
 10
99.2566358010856
 20
-118.4429163592782
 30
0.0
 10
99.27663830057529
 20
-118.4429163592782
 30
0.0
 10
99.2924805307327
 20
-118.4587560814964
 30
0.0
 10
99.2924805307327
 20
-118.4780530259362
 30
0.0
  0
ENDBLK
  5
199
330
196
100
AcDbEntity
  8
0
100
AcDbBlockEnd
  0
ENDSEC
  0
SECTION
  2
ENTITIES
  0
SPLINE
  5
41
330
1F
100
AcDbEntity
  8
_U+30EC_U+30A4_U+30E4_U+30FC 1
370
     0
100
AcDbSpline
210
0.0
220
0.0
230
1.0
 70
    11
 71
     3
 72
   137
 73
   133
 74
     0
 42
0.0000000001
 43
0.0000000001
 12
1.0
 22
0.0
 32
0.0
 13
1.0
 23
0.0
 33
0.0
 40
0.0
 40
0.0
 40
0.0
 40
0.0
 40
1.0
 40
1.0
 40
1.0
 40
2.0
 40
2.0
 40
2.0
 40
3.0
 40
3.0
 40
3.0
 40
4.0
 40
4.0
 40
4.0
 40
5.0
 40
5.0
 40
5.0
 40
6.0
 40
6.0
 40
6.0
 40
7.0
 40
7.0
 40
7.0
 40
8.0
 40
8.0
 40
8.0
 40
9.0
 40
9.0
 40
9.0
 40
10.0
 40
10.0
 40
10.0
 40
11.0
 40
11.0
 40
11.0
 40
12.0
 40
12.0
 40
12.0
 40
13.0
 40
13.0
 40
13.0
 40
14.0
 40
14.0
 40
14.0
 40
15.0
 40
15.0
 40
15.0
 40
16.0
 40
16.0
 40
16.0
 40
17.0
 40
17.0
 40
17.0
 40
18.0
 40
18.0
 40
18.0
 40
19.0
 40
19.0
 40
19.0
 40
20.0
 40
20.0
 40
20.0
 40
21.0
 40
21.0
 40
21.0
 40
22.0
 40
22.0
 40
22.0
 40
23.0
 40
23.0
 40
23.0
 40
24.0
 40
24.0
 40
24.0
 40
25.0
 40
25.0
 40
25.0
 40
26.0
 40
26.0
 40
26.0
 40
27.0
 40
27.0
 40
27.0
 40
28.0
 40
28.0
 40
28.0
 40
29.0
 40
29.0
 40
29.0
 40
30.0
 40
30.0
 40
30.0
 40
31.0
 40
31.0
 40
31.0
 40
32.0
 40
32.0
 40
32.0
 40
33.0
 40
33.0
 40
33.0
 40
34.0
 40
34.0
 40
34.0
 40
35.0
 40
35.0
 40
35.0
 40
36.0
 40
36.0
 40
36.0
 40
37.0
 40
37.0
 40
37.0
 40
38.0
 40
38.0
 40
38.0
 40
39.0
 40
39.0
 40
39.0
 40
40.0
 40
40.0
 40
40.0
 40
41.0
 40
41.0
 40
41.0
 40
42.0
 40
42.0
 40
42.0
 40
43.0
 40
43.0
 40
43.0
 40
44.0
 40
44.0
 40
44.0
 40
44.0
 10
86.2924055762751
 20
-140.478580520436
 30
0.0
 10
86.2924055762751
 20
-140.478580520436
 30
0.0
 10
90.22189130935891
 20
-140.478580520436
 30
0.0
 10
90.22189130935891
 20
-140.478580520436
 30
0.0
 10
90.22189130935891
 20
-140.4586132982188
 30
0.0
 10
90.23738053299627
 20
-140.4434438537783
 30
0.0
 10
90.25702797512916
 20
-140.4434438537783
 30
0.0
 10
90.25702797512916
 20
-140.4434438537783
 30
0.0
 10
90.25702797512916
 20
-138.4783657987136
 30
0.0
 10
90.25702797512916
 20
-138.4783657987136
 30
0.0
 10
90.25702797512916
 20
-138.4783657987136
 30
0.0
 10
87.7569272055787
 20
-138.4783657987136
 30
0.0
 10
87.7569272055787
 20
-138.4783657987136
 30
0.0
 10
87.7569272055787
 20
-138.4783657987136
 30
0.0
 10
87.7569272055787
 20
-131.4786196893524
 30
0.0
 10
87.7569272055787
 20
-131.4786196893524
 30
0.0
 10
87.7569272055787
 20
-130.9260285783795
 30
0.0
 10
88.20477858304196
 20
-130.4781771896025
 30
0.0
 10
88.75701690228652
 20
-130.4781771896025
 30
0.0
 10
88.75701690228652
 20
-130.4781771896025
 30
0.0
 10
99.75687467721232
 20
-130.4781771896025
 30
0.0
 10
99.75687467721232
 20
-130.4781771896025
 30
0.0
 10
100.3091129964569
 20
-130.4781771896025
 30
0.0
 10
100.756999651697
 20
-130.9260285783795
 30
0.0
 10
100.756999651697
 20
-131.4786196893524
 30
0.0
 10
100.756999651697
 20
-131.4786196893524
 30
0.0
 10
100.756999651697
 20
-138.4783657987136
 30
0.0
 10
100.756999651697
 20
-138.4783657987136
 30
0.0
 10
100.756999651697
 20
-138.4783657987136
 30
0.0
 10
98.25686360436968
 20
-138.4783657987136
 30
0.0
 10
98.25686360436968
 20
-138.4783657987136
 30
0.0
 10
98.25686360436968
 20
-138.4783657987136
 30
0.0
 10
98.25686360436968
 20
-140.4434438537783
 30
0.0
 10
98.25686360436968
 20
-140.4434438537783
 30
0.0
 10
98.2765133260906
 20
-140.4434438537783
 30
0.0
 10
98.2923555309824
 20
-140.4586132982188
 30
0.0
 10
98.2923555309824
 20
-140.478580520436
 30
0.0
 10
98.2923555309824
 20
-140.478580520436
 30
0.0
 10
102.2218387809925
 20
-140.478580520436
 30
0.0
 10
102.2218387809925
 20
-140.478580520436
 30
0.0
 10
102.2218387809925
 20
-140.4586132982188
 30
0.0
 10
102.2376785028106
 20
-140.4434438537783
 30
0.0
 10
102.2569754467628
 20
-140.4434438537783
 30
0.0
 10
102.2569754467628
 20
-140.4434438537783
 30
0.0
 10
102.2569754467628
 20
-129.9786438563943
 30
0.0
 10
102.2569754467628
 20
-129.9786438563943
 30
0.0
 10
102.2569754467628
 20
-129.4260527454214
 30
0.0
 10
101.8091240692995
 20
-128.9781660788668
 30
0.0
 10
101.2568504722781
 20
-128.9781660788668
 30
0.0
 10
101.2568504722781
 20
-128.9781660788668
 30
0.0
 10
95.75711561258801
 20
-128.9781660788668
 30
0.0
 10
95.75711561258801
 20
-128.9781660788668
 30
0.0
 10
95.75711561258801
 20
-128.9781660788668
 30
0.0
 10
95.75711561258801
 20
-129.7285244120121
 30
0.0
 10
95.75711561258801
 20
-129.7285244120121
 30
0.0
 10
95.75711561258801
 20
-129.7285244120121
 30
0.0
 10
94.75699063810332
 20
-129.7285244120121
 30
0.0
 10
94.75699063810332
 20
-129.7285244120121
 30
0.0
 10
94.75699063810332
 20
-129.7285244120121
 30
0.0
 10
93.75690094139551
 20
-128.9781660788668
 30
0.0
 10
93.75690094139551
 20
-128.9781660788668
 30
0.0
 10
93.75690094139551
 20
-128.9781660788668
 30
0.0
 10
89.77643882072334
 20
-128.9781660788668
 30
0.0
 10
89.77643882072334
 20
-128.9781660788668
 30
0.0
 10
89.44637994025496
 20
-128.9781660788668
 30
0.0
 10
89.17251855835285
 20
-128.7240955233746
 30
0.0
 10
89.14803578119968
 20
-128.395447745679
 30
0.0
 10
89.12221244852516
 20
-128.0481733013213
 30
0.0
 10
89.38266827521372
 20
-127.746371912508
 30
0.0
 10
89.72958993302967
 20
-127.7201958014034
 30
0.0
 10
90.66801407575514
 20
-127.650592745865
 30
0.0
 10
91.51894933182375
 20
-127.1448505237694
 30
0.0
 10
92.02881904103812
 20
-126.3538874684115
 30
0.0
 10
92.02881904103812
 20
-126.3538874684115
 30
0.0
 10
90.80616185000848
 20
-125.4788221908526
 30
0.0
 10
90.80616185000848
 20
-125.4788221908526
 30
0.0
 10
90.67422296448562
 20
-125.7068930241288
 30
0.0
 10
90.48509880264392
 20
-125.8956644129705
 30
0.0
 10
90.25702797512916
 20
-126.0279560796041
 30
0.0
 10
89.53940743788162
 20
-126.4420819128338
 30
0.0
 10
88.6223263501672
 20
-126.196089968451
 30
0.0
 10
88.2078830274072
 20
-125.4788221908526
 30
0.0
 10
87.79379248241598
 20
-124.7608488576986
 30
0.0
 10
88.03939636503898
 20
-123.8437677468169
 30
0.0
 10
88.75701690228652
 20
-123.4296771913647
 30
0.0
 10
89.47428466176527
 20
-123.0155866359129
 30
0.0
 10
90.39171852724847
 20
-123.2608730247402
 30
0.0
 10
90.80616185000848
 20
-123.9788110801163
 30
0.0
 10
90.80616185000848
 20
-123.9788110801163
 30
0.0
 10
92.02881904103812
 20
-123.1037810803353
 30
0.0
 10
92.02881904103812
 20
-123.1037810803353
 30
0.0
 10
91.51894933182375
 20
-122.3127827471995
 30
0.0
 10
90.66801407575514
 20
-121.8063349695484
 30
0.0
 10
89.72958993302967
 20
-121.7367671917881
 30
0.0
 10
89.40055410809074
 20
-121.7126371917941
 30
0.0
 10
89.14630717013267
 20
-121.4384230251961
 30
0.0
 10
89.14630717013267
 20
-121.1083641363895
 30
0.0
 10
89.14630717013267
 20
-120.7604194142544
 30
0.0
 10
89.42846108875385
 20
-120.4786205254358
 30
0.0
 10
89.77643882072334
 20
-120.4786205254358
 30
0.0
 10
89.77643882072334
 20
-120.4786205254358
 30
0.0
 10
93.75690094139551
 20
-120.4786205254358
 30
0.0
 10
93.75690094139551
 20
-120.4786205254358
 30
0.0
 10
93.75690094139551
 20
-120.4786205254358
 30
0.0
 10
94.75699063810332
 20
-119.7282621922902
 30
0.0
 10
94.75699063810332
 20
-119.7282621922902
 30
0.0
 10
94.75699063810332
 20
-119.7282621922902
 30
0.0
 10
95.75711561258801
 20
-119.7282621922902
 30
0.0
 10
95.75711561258801
 20
-119.7282621922902
 30
0.0
 10
95.75711561258801
 20
-119.7282621922902
 30
0.0
 10
95.75711561258801
 20
-120.4786205254358
 30
0.0
 10
95.75711561258801
 20
-120.4786205254358
 30
0.0
 10
95.75711561258801
 20
-120.4786205254358
 30
0.0
 10
98.25686360436968
 20
-120.4786205254358
 30
0.0
 10
98.25686360436968
 20
-120.4786205254358
 30
0.0
 10
98.80913720139112
 20
-120.4786205254358
 30
0.0
 10
99.25698857885436
 20
-120.0307338588812
 30
0.0
 10
99.25698857885436
 20
-119.4788483034636
 30
0.0
 10
99.25698857885436
 20
-119.4788483034636
 30
0.0
 10
99.25698857885436
 20
-118.4783705259358
 30
0.0
 10
99.25698857885436
 20
-118.4783705259358
 30
0.0
 10
99.25698857885436
 20
-118.4783705259358
 30
0.0
 10
86.2924055762751
 20
-118.4783705259358
 30
0.0
 10
86.2924055762751
 20
-118.4783705259358
 30
0.0
 10
86.2924055762751
 20
-118.4983730259308
 30
0.0
 10
86.27656585445699
 20
-118.5142127481494
 30
0.0
 10
86.25691613273607
 20
-118.5142127481494
 30
0.0
 10
86.25691613273607
 20
-118.5142127481494
 30
0.0
 10
86.25691613273607
 20
-140.4434438537783
 30
0.0
 10
86.25691613273607
 20
-140.4434438537783
 30
0.0
 10
86.27656585445699
 20
-140.4434438537783
 30
0.0
 10
86.2924055762751
 20
-140.4586132982188
 30
0.0
 10
86.2924055762751
 20
-140.478580520436
 30
0.0
  0
HATCH
  5
42
330
1F
100
AcDbEntity
  8
_U+30EC_U+30A4_U+30E4_U+30FC 1
 62
   253
420
 11711154
100
AcDbHatch
 10
0.0
 20
0.0
 30
0.0
210
0.0
220
0.0
230
1.0
  2
SOLID
 70
     1
 71
     0
 91
        1
 92
        1
 93
        1
 72
     4
 94
        3
 73
     0
 74
     1
 95
      137
 96
      133
 40
0.0
 40
0.0
 40
0.0
 40
0.0
 40
1.0
 40
1.0
 40
1.0
 40
2.0
 40
2.0
 40
2.0
 40
3.0
 40
3.0
 40
3.0
 40
4.0
 40
4.0
 40
4.0
 40
5.0
 40
5.0
 40
5.0
 40
6.0
 40
6.0
 40
6.0
 40
7.0
 40
7.0
 40
7.0
 40
8.0
 40
8.0
 40
8.0
 40
9.0
 40
9.0
 40
9.0
 40
10.0
 40
10.0
 40
10.0
 40
11.0
 40
11.0
 40
11.0
 40
12.0
 40
12.0
 40
12.0
 40
13.0
 40
13.0
 40
13.0
 40
14.0
 40
14.0
 40
14.0
 40
15.0
 40
15.0
 40
15.0
 40
16.0
 40
16.0
 40
16.0
 40
17.0
 40
17.0
 40
17.0
 40
18.0
 40
18.0
 40
18.0
 40
19.0
 40
19.0
 40
19.0
 40
20.0
 40
20.0
 40
20.0
 40
21.0
 40
21.0
 40
21.0
 40
22.0
 40
22.0
 40
22.0
 40
23.0
 40
23.0
 40
23.0
 40
24.0
 40
24.0
 40
24.0
 40
25.0
 40
25.0
 40
25.0
 40
26.0
 40
26.0
 40
26.0
 40
27.0
 40
27.0
 40
27.0
 40
28.0
 40
28.0
 40
28.0
 40
29.0
 40
29.0
 40
29.0
 40
30.0
 40
30.0
 40
30.0
 40
31.0
 40
31.0
 40
31.0
 40
32.0
 40
32.0
 40
32.0
 40
33.0
 40
33.0
 40
33.0
 40
34.0
 40
34.0
 40
34.0
 40
35.0
 40
35.0
 40
35.0
 40
36.0
 40
36.0
 40
36.0
 40
37.0
 40
37.0
 40
37.0
 40
38.0
 40
38.0
 40
38.0
 40
39.0
 40
39.0
 40
39.0
 40
40.0
 40
40.0
 40
40.0
 40
41.0
 40
41.0
 40
41.0
 40
42.0
 40
42.0
 40
42.0
 40
43.0
 40
43.0
 40
43.0
 40
44.0
 40
44.0
 40
44.0
 40
44.0
 10
86.2924055762751
 20
-140.478580520436
 10
86.2924055762751
 20
-140.478580520436
 10
90.22189130935891
 20
-140.478580520436
 10
90.22189130935891
 20
-140.478580520436
 10
90.22189130935891
 20
-140.4586132982188
 10
90.23738053299627
 20
-140.4434438537783
 10
90.25702797512916
 20
-140.4434438537783
 10
90.25702797512916
 20
-140.4434438537783
 10
90.25702797512916
 20
-138.4783657987136
 10
90.25702797512916
 20
-138.4783657987136
 10
90.25702797512916
 20
-138.4783657987136
 10
87.7569272055787
 20
-138.4783657987136
 10
87.7569272055787
 20
-138.4783657987136
 10
87.7569272055787
 20
-138.4783657987136
 10
87.7569272055787
 20
-131.4786196893524
 10
87.7569272055787
 20
-131.4786196893524
 10
87.7569272055787
 20
-130.9260285783795
 10
88.20477858304196
 20
-130.4781771896025
 10
88.75701690228652
 20
-130.4781771896025
 10
88.75701690228652
 20
-130.4781771896025
 10
99.75687467721232
 20
-130.4781771896025
 10
99.75687467721232
 20
-130.4781771896025
 10
100.3091129964569
 20
-130.4781771896025
 10
100.756999651697
 20
-130.9260285783795
 10
100.756999651697
 20
-131.4786196893524
 10
100.756999651697
 20
-131.4786196893524
 10
100.756999651697
 20
-138.4783657987136
 10
100.756999651697
 20
-138.4783657987136
 10
100.756999651697
 20
-138.4783657987136
 10
98.25686360436968
 20
-138.4783657987136
 10
98.25686360436968
 20
-138.4783657987136
 10
98.25686360436968
 20
-138.4783657987136
 10
98.25686360436968
 20
-140.4434438537783
 10
98.25686360436968
 20
-140.4434438537783
 10
98.2765133260906
 20
-140.4434438537783
 10
98.2923555309824
 20
-140.4586132982188
 10
98.2923555309824
 20
-140.478580520436
 10
98.2923555309824
 20
-140.478580520436
 10
102.2218387809925
 20
-140.478580520436
 10
102.2218387809925
 20
-140.478580520436
 10
102.2218387809925
 20
-140.4586132982188
 10
102.2376785028106
 20
-140.4434438537783
 10
102.2569754467628
 20
-140.4434438537783
 10
102.2569754467628
 20
-140.4434438537783
 10
102.2569754467628
 20
-129.9786438563943
 10
102.2569754467628
 20
-129.9786438563943
 10
102.2569754467628
 20
-129.4260527454214
 10
101.8091240692995
 20
-128.9781660788668
 10
101.2568504722781
 20
-128.9781660788668
 10
101.2568504722781
 20
-128.9781660788668
 10
95.75711561258801
 20
-128.9781660788668
 10
95.75711561258801
 20
-128.9781660788668
 10
95.75711561258801
 20
-128.9781660788668
 10
95.75711561258801
 20
-129.7285244120121
 10
95.75711561258801
 20
-129.7285244120121
 10
95.75711561258801
 20
-129.7285244120121
 10
94.75699063810332
 20
-129.7285244120121
 10
94.75699063810332
 20
-129.7285244120121
 10
94.75699063810332
 20
-129.7285244120121
 10
93.75690094139551
 20
-128.9781660788668
 10
93.75690094139551
 20
-128.9781660788668
 10
93.75690094139551
 20
-128.9781660788668
 10
89.77643882072334
 20
-128.9781660788668
 10
89.77643882072334
 20
-128.9781660788668
 10
89.44637994025496
 20
-128.9781660788668
 10
89.17251855835285
 20
-128.7240955233746
 10
89.14803578119968
 20
-128.395447745679
 10
89.12221244852516
 20
-128.0481733013213
 10
89.38266827521372
 20
-127.746371912508
 10
89.72958993302967
 20
-127.7201958014034
 10
90.66801407575514
 20
-127.650592745865
 10
91.51894933182375
 20
-127.1448505237694
 10
92.02881904103812
 20
-126.3538874684115
 10
92.02881904103812
 20
-126.3538874684115
 10
90.80616185000848
 20
-125.4788221908526
 10
90.80616185000848
 20
-125.4788221908526
 10
90.67422296448562
 20
-125.7068930241288
 10
90.48509880264392
 20
-125.8956644129705
 10
90.25702797512916
 20
-126.0279560796041
 10
89.53940743788162
 20
-126.4420819128338
 10
88.6223263501672
 20
-126.196089968451
 10
88.2078830274072
 20
-125.4788221908526
 10
87.79379248241598
 20
-124.7608488576986
 10
88.03939636503898
 20
-123.8437677468169
 10
88.75701690228652
 20
-123.4296771913647
 10
89.47428466176527
 20
-123.0155866359129
 10
90.39171852724847
 20
-123.2608730247402
 10
90.80616185000848
 20
-123.9788110801163
 10
90.80616185000848
 20
-123.9788110801163
 10
92.02881904103812
 20
-123.1037810803353
 10
92.02881904103812
 20
-123.1037810803353
 10
91.51894933182375
 20
-122.3127827471995
 10
90.66801407575514
 20
-121.8063349695484
 10
89.72958993302967
 20
-121.7367671917881
 10
89.40055410809074
 20
-121.7126371917941
 10
89.14630717013267
 20
-121.4384230251961
 10
89.14630717013267
 20
-121.1083641363895
 10
89.14630717013267
 20
-120.7604194142544
 10
89.42846108875385
 20
-120.4786205254358
 10
89.77643882072334
 20
-120.4786205254358
 10
89.77643882072334
 20
-120.4786205254358
 10
93.75690094139551
 20
-120.4786205254358
 10
93.75690094139551
 20
-120.4786205254358
 10
93.75690094139551
 20
-120.4786205254358
 10
94.75699063810332
 20
-119.7282621922902
 10
94.75699063810332
 20
-119.7282621922902
 10
94.75699063810332
 20
-119.7282621922902
 10
95.75711561258801
 20
-119.7282621922902
 10
95.75711561258801
 20
-119.7282621922902
 10
95.75711561258801
 20
-119.7282621922902
 10
95.75711561258801
 20
-120.4786205254358
 10
95.75711561258801
 20
-120.4786205254358
 10
95.75711561258801
 20
-120.4786205254358
 10
98.25686360436968
 20
-120.4786205254358
 10
98.25686360436968
 20
-120.4786205254358
 10
98.80913720139112
 20
-120.4786205254358
 10
99.25698857885436
 20
-120.0307338588812
 10
99.25698857885436
 20
-119.4788483034636
 10
99.25698857885436
 20
-119.4788483034636
 10
99.25698857885436
 20
-118.4783705259358
 10
99.25698857885436
 20
-118.4783705259358
 10
99.25698857885436
 20
-118.4783705259358
 10
86.2924055762751
 20
-118.4783705259358
 10
86.2924055762751
 20
-118.4783705259358
 10
86.2924055762751
 20
-118.4983730259308
 10
86.27656585445699
 20
-118.5142127481494
 10
86.25691613273607
 20
-118.5142127481494
 10
86.25691613273607
 20
-118.5142127481494
 10
86.25691613273607
 20
-140.4434438537783
 10
86.25691613273607
 20
-140.4434438537783
 10
86.27656585445699
 20
-140.4434438537783
 10
86.2924055762751
 20
-140.4586132982188
 10
86.2924055762751
 20
-140.478580520436
 97
        0
 97
        0
 75
     2
 76
     1
 98
        0
  0
POLYLINE
  5
43
330
1F
100
AcDbEntity
  8
_U+30EC_U+30A4_U+30E4_U+30FC 1
 62
   179
420
  2234388
370
    25
100
AcDb2dPolyline
 66
     1
 10
0.0
 20
0.0
 30
0.0
  0
VERTEX
  5
44
330
43
100
AcDbEntity
  8
_U+30EC_U+30A4_U+30E4_U+30FC 1
 62
   179
420
  2234388
370
    25
100
AcDbVertex
100
AcDb2dVertex
 10
86.25691613273607
 20
-140.478580520436
 30
0.0
  0
VERTEX
  5
45
330
43
100
AcDbEntity
  8
_U+30EC_U+30A4_U+30E4_U+30FC 1
 62
   179
420
  2234388
370
    25
100
AcDbVertex
100
AcDb2dVertex
 10
90.25702797512916
 20
-140.478580520436
 30
0.0
  0
SEQEND
  5
46
330
43
100
AcDbEntity
  8
_U+30EC_U+30A4_U+30E4_U+30FC 1
 62
   179
420
  2234388
370
    25
  0
POLYLINE
  5
47
330
1F
100
AcDbEntity
  8
_U+30EC_U+30A4_U+30E4_U+30FC 1
 62
   179
420
  2234388
370
    25
100
AcDb2dPolyline
 66
     1
 10
0.0
 20
0.0
 30
0.0
  0
VERTEX
  5
48
330
47
100
AcDbEntity
  8
_U+30EC_U+30A4_U+30E4_U+30FC 1
 62
   179
420
  2234388
370
    25
100
AcDbVertex
100
AcDb2dVertex
 10
86.25691613273607
 20
-118.4783705259358
 30
0.0
  0
VERTEX
  5
49
330
47
100
AcDbEntity
  8
_U+30EC_U+30A4_U+30E4_U+30FC 1
 62
   179
420
  2234388
370
    25
100
AcDbVertex
100
AcDb2dVertex
 10
99.25698857885436
 20
-118.4783705259358
 30
0.0
  0
SEQEND
  5
4A
330
47
100
AcDbEntity
  8
_U+30EC_U+30A4_U+30E4_U+30FC 1
 62
   179
420
  2234388
370
    25
  0
POLYLINE
  5
4B
330
1F
100
AcDbEntity
  8
_U+30EC_U+30A4_U+30E4_U+30FC 1
 62
   179
420
  2234388
370
    25
100
AcDb2dPolyline
 66
     1
 10
0.0
 20
0.0
 30
0.0
  0
VERTEX
  5
4C
330
4B
100
AcDbEntity
  8
_U+30EC_U+30A4_U+30E4_U+30FC 1
 62
   179
420
  2234388
370
    25
100
AcDbVertex
100
AcDb2dVertex
 10
98.25686360436968
 20
-138.4783657987136
 30
0.0
  0
VERTEX
  5
4D
330
4B
100
AcDbEntity
  8
_U+30EC_U+30A4_U+30E4_U+30FC 1
 62
   179
420
  2234388
370
    25
100
AcDbVertex
100
AcDb2dVertex
 10
98.25686360436968
 20
-140.478580520436
 30
0.0
  0
SEQEND
  5
4E
330
4B
100
AcDbEntity
  8
_U+30EC_U+30A4_U+30E4_U+30FC 1
 62
   179
420
  2234388
370
    25
  0
POLYLINE
  5
4F
330
1F
100
AcDbEntity
  8
_U+30EC_U+30A4_U+30E4_U+30FC 1
 62
   179
420
  2234388
370
    25
100
AcDb2dPolyline
 66
     1
 10
0.0
 20
0.0
 30
0.0
  0
VERTEX
  5
50
330
4F
100
AcDbEntity
  8
_U+30EC_U+30A4_U+30E4_U+30FC 1
 62
   179
420
  2234388
370
    25
100
AcDbVertex
100
AcDb2dVertex
 10
90.25702797512916
 20
-138.4783657987136
 30
0.0
  0
VERTEX
  5
51
330
4F
100
AcDbEntity
  8
_U+30EC_U+30A4_U+30E4_U+30FC 1
 62
   179
420
  2234388
370
    25
100
AcDbVertex
100
AcDb2dVertex
 10
90.25702797512916
 20
-140.478580520436
 30
0.0
  0
SEQEND
  5
52
330
4F
100
AcDbEntity
  8
_U+30EC_U+30A4_U+30E4_U+30FC 1
 62
   179
420
  2234388
370
    25
  0
POLYLINE
  5
53
330
1F
100
AcDbEntity
  8
_U+30EC_U+30A4_U+30E4_U+30FC 1
 62
   179
420
  2234388
370
    25
100
AcDb2dPolyline
 66
     1
 10
0.0
 20
0.0
 30
0.0
  0
VERTEX
  5
54
330
53
100
AcDbEntity
  8
_U+30EC_U+30A4_U+30E4_U+30FC 1
 62
   179
420
  2234388
370
    25
100
AcDbVertex
100
AcDb2dVertex
 10
86.25691613273607
 20
-118.4783705259358
 30
0.0
  0
VERTEX
  5
55
330
53
100
AcDbEntity
  8
_U+30EC_U+30A4_U+30E4_U+30FC 1
 62
   179
420
  2234388
370
    25
100
AcDbVertex
100
AcDb2dVertex
 10
86.25691613273607
 20
-140.478580520436
 30
0.0
  0
SEQEND
  5
56
330
53
100
AcDbEntity
  8
_U+30EC_U+30A4_U+30E4_U+30FC 1
 62
   179
420
  2234388
370
    25
  0
POLYLINE
  5
57
330
1F
100
AcDbEntity
  8
_U+30EC_U+30A4_U+30E4_U+30FC 1
 62
   179
420
  2234388
370
    25
100
AcDb2dPolyline
 66
     1
 10
0.0
 20
0.0
 30
0.0
  0
VERTEX
  5
58
330
57
100
AcDbEntity
  8
_U+30EC_U+30A4_U+30E4_U+30FC 1
 62
   179
420
  2234388
370
    25
100
AcDbVertex
100
AcDb2dVertex
 10
102.2569754467628
 20
-129.9786438563943
 30
0.0
  0
VERTEX
  5
59
330
57
100
AcDbEntity
  8
_U+30EC_U+30A4_U+30E4_U+30FC 1
 62
   179
420
  2234388
370
    25
100
AcDbVertex
100
AcDb2dVertex
 10
102.2569754467628
 20
-140.478580520436
 30
0.0
  0
SEQEND
  5
5A
330
57
100
AcDbEntity
  8
_U+30EC_U+30A4_U+30E4_U+30FC 1
 62
   179
420
  2234388
370
    25
  0
POLYLINE
  5
5B
330
1F
100
AcDbEntity
  8
_U+30EC_U+30A4_U+30E4_U+30FC 1
 62
   179
420
  2234388
370
    25
100
AcDb2dPolyline
 66
     1
 10
0.0
 20
0.0
 30
0.0
  0
VERTEX
  5
5C
330
5B
100
AcDbEntity
  8
_U+30EC_U+30A4_U+30E4_U+30FC 1
 62
   179
420
  2234388
370
    25
100
AcDbVertex
100
AcDb2dVertex
 10
87.7569272055787
 20
-138.4783657987136
 30
0.0
  0
VERTEX
  5
5D
330
5B
100
AcDbEntity
  8
_U+30EC_U+30A4_U+30E4_U+30FC 1
 62
   179
420
  2234388
370
    25
100
AcDbVertex
100
AcDb2dVertex
 10
90.25702797512916
 20
-138.4783657987136
 30
0.0
  0
SEQEND
  5
5E
330
5B
100
AcDbEntity
  8
_U+30EC_U+30A4_U+30E4_U+30FC 1
 62
   179
420
  2234388
370
    25
  0
POLYLINE
  5
5F
330
1F
100
AcDbEntity
  8
_U+30EC_U+30A4_U+30E4_U+30FC 1
 62
   179
420
  2234388
370
    25
100
AcDb2dPolyline
 66
     1
 10
0.0
 20
0.0
 30
0.0
  0
VERTEX
  5
60
330
5F
100
AcDbEntity
  8
_U+30EC_U+30A4_U+30E4_U+30FC 1
 62
   179
420
  2234388
370
    25
100
AcDbVertex
100
AcDb2dVertex
 10
98.25686360436968
 20
-138.4783657987136
 30
0.0
  0
VERTEX
  5
61
330
5F
100
AcDbEntity
  8
_U+30EC_U+30A4_U+30E4_U+30FC 1
 62
   179
420
  2234388
370
    25
100
AcDbVertex
100
AcDb2dVertex
 10
100.756999651697
 20
-138.4783657987136
 30
0.0
  0
SEQEND
  5
62
330
5F
100
AcDbEntity
  8
_U+30EC_U+30A4_U+30E4_U+30FC 1
 62
   179
420
  2234388
370
    25
  0
POLYLINE
  5
63
330
1F
100
AcDbEntity
  8
_U+30EC_U+30A4_U+30E4_U+30FC 1
 62
   179
420
  2234388
370
    25
100
AcDb2dPolyline
 66
     1
 10
0.0
 20
0.0
 30
0.0
  0
VERTEX
  5
64
330
63
100
AcDbEntity
  8
_U+30EC_U+30A4_U+30E4_U+30FC 1
 62
   179
420
  2234388
370
    25
100
AcDbVertex
100
AcDb2dVertex
 10
98.25686360436968
 20
-140.478580520436
 30
0.0
  0
VERTEX
  5
65
330
63
100
AcDbEntity
  8
_U+30EC_U+30A4_U+30E4_U+30FC 1
 62
   179
420
  2234388
370
    25
100
AcDbVertex
100
AcDb2dVertex
 10
102.2569754467628
 20
-140.478580520436
 30
0.0
  0
SEQEND
  5
66
330
63
100
AcDbEntity
  8
_U+30EC_U+30A4_U+30E4_U+30FC 1
 62
   179
420
  2234388
370
    25
  0
POLYLINE
  5
67
330
1F
100
AcDbEntity
  8
_U+30EC_U+30A4_U+30E4_U+30FC 1
 62
   179
420
  2234388
370
    25
100
AcDb2dPolyline
 66
     1
 10
0.0
 20
0.0
 30
0.0
  0
VERTEX
  5
68
330
67
100
AcDbEntity
  8
_U+30EC_U+30A4_U+30E4_U+30FC 1
 62
   179
420
  2234388
370
    25
100
AcDbVertex
100
AcDb2dVertex
 10
100.756999651697
 20
-131.4786196893524
 30
0.0
  0
VERTEX
  5
69
330
67
100
AcDbEntity
  8
_U+30EC_U+30A4_U+30E4_U+30FC 1
 62
   179
420
  2234388
370
    25
100
AcDbVertex
100
AcDb2dVertex
 10
100.756999651697
 20
-138.4783657987136
 30
0.0
  0
SEQEND
  5
6A
330
67
100
AcDbEntity
  8
_U+30EC_U+30A4_U+30E4_U+30FC 1
 62
   179
420
  2234388
370
    25
  0
POLYLINE
  5
6B
330
1F
100
AcDbEntity
  8
_U+30EC_U+30A4_U+30E4_U+30FC 1
 62
   179
420
  2234388
370
    25
100
AcDb2dPolyline
 66
     1
 10
0.0
 20
0.0
 30
0.0
  0
VERTEX
  5
6C
330
6B
100
AcDbEntity
  8
_U+30EC_U+30A4_U+30E4_U+30FC 1
 62
   179
420
  2234388
370
    25
100
AcDbVertex
100
AcDb2dVertex
 10
87.7569272055787
 20
-131.4786196893524
 30
0.0
  0
VERTEX
  5
6D
330
6B
100
AcDbEntity
  8
_U+30EC_U+30A4_U+30E4_U+30FC 1
 62
   179
420
  2234388
370
    25
100
AcDbVertex
100
AcDb2dVertex
 10
87.7569272055787
 20
-138.4783657987136
 30
0.0
  0
SEQEND
  5
6E
330
6B
100
AcDbEntity
  8
_U+30EC_U+30A4_U+30E4_U+30FC 1
 62
   179
420
  2234388
370
    25
  0
POLYLINE
  5
6F
330
1F
100
AcDbEntity
  8
_U+30EC_U+30A4_U+30E4_U+30FC 1
 62
   179
420
  2234388
370
    25
100
AcDb2dPolyline
 66
     1
 10
0.0
 20
0.0
 30
0.0
  0
VERTEX
  5
70
330
6F
100
AcDbEntity
  8
_U+30EC_U+30A4_U+30E4_U+30FC 1
 62
   179
420
  2234388
370
    25
100
AcDbVertex
100
AcDb2dVertex
 10
89.77643882072334
 20
-128.9781660788668
 30
0.0
  0
VERTEX
  5
71
330
6F
100
AcDbEntity
  8
_U+30EC_U+30A4_U+30E4_U+30FC 1
 62
   179
420
  2234388
370
    25
100
AcDbVertex
100
AcDb2dVertex
 10
93.75690094139551
 20
-128.9781660788668
 30
0.0
  0
SEQEND
  5
72
330
6F
100
AcDbEntity
  8
_U+30EC_U+30A4_U+30E4_U+30FC 1
 62
   179
420
  2234388
370
    25
  0
POLYLINE
  5
73
330
1F
100
AcDbEntity
  8
_U+30EC_U+30A4_U+30E4_U+30FC 1
 62
   179
420
  2234388
370
    25
100
AcDb2dPolyline
 66
     1
 10
0.0
 20
0.0
 30
0.0
  0
VERTEX
  5
74
330
73
100
AcDbEntity
  8
_U+30EC_U+30A4_U+30E4_U+30FC 1
 62
   179
420
  2234388
370
    25
100
AcDbVertex
100
AcDb2dVertex
 10
88.75701690228652
 20
-130.4781771896025
 30
0.0
  0
VERTEX
  5
75
330
73
100
AcDbEntity
  8
_U+30EC_U+30A4_U+30E4_U+30FC 1
 62
   179
420
  2234388
370
    25
100
AcDbVertex
100
AcDb2dVertex
 10
99.75687467721232
 20
-130.4781771896025
 30
0.0
  0
SEQEND
  5
76
330
73
100
AcDbEntity
  8
_U+30EC_U+30A4_U+30E4_U+30FC 1
 62
   179
420
  2234388
370
    25
  0
POLYLINE
  5
77
330
1F
100
AcDbEntity
  8
_U+30EC_U+30A4_U+30E4_U+30FC 1
 62
   179
420
  2234388
370
    25
100
AcDb2dPolyline
 66
     1
 10
0.0
 20
0.0
 30
0.0
  0
VERTEX
  5
78
330
77
100
AcDbEntity
  8
_U+30EC_U+30A4_U+30E4_U+30FC 1
 62
   179
420
  2234388
370
    25
100
AcDbVertex
100
AcDb2dVertex
 10
99.25698857885436
 20
-118.4783705259358
 30
0.0
  0
VERTEX
  5
79
330
77
100
AcDbEntity
  8
_U+30EC_U+30A4_U+30E4_U+30FC 1
 62
   179
420
  2234388
370
    25
100
AcDbVertex
100
AcDb2dVertex
 10
99.25698857885436
 20
-119.4788483034636
 30
0.0
  0
SEQEND
  5
7A
330
77
100
AcDbEntity
  8
_U+30EC_U+30A4_U+30E4_U+30FC 1
 62
   179
420
  2234388
370
    25
  0
POLYLINE
  5
7B
330
1F
100
AcDbEntity
  8
_U+30EC_U+30A4_U+30E4_U+30FC 1
 62
   179
420
  2234388
370
    25
100
AcDb2dPolyline
 66
     1
 10
0.0
 20
0.0
 30
0.0
  0
VERTEX
  5
7C
330
7B
100
AcDbEntity
  8
_U+30EC_U+30A4_U+30E4_U+30FC 1
 62
   179
420
  2234388
370
    25
100
AcDbVertex
100
AcDb2dVertex
 10
89.77643882072334
 20
-120.4786205254358
 30
0.0
  0
VERTEX
  5
7D
330
7B
100
AcDbEntity
  8
_U+30EC_U+30A4_U+30E4_U+30FC 1
 62
   179
420
  2234388
370
    25
100
AcDbVertex
100
AcDb2dVertex
 10
93.75690094139551
 20
-120.4786205254358
 30
0.0
  0
SEQEND
  5
7E
330
7B
100
AcDbEntity
  8
_U+30EC_U+30A4_U+30E4_U+30FC 1
 62
   179
420
  2234388
370
    25
  0
POLYLINE
  5
7F
330
1F
100
AcDbEntity
  8
_U+30EC_U+30A4_U+30E4_U+30FC 1
 62
   179
420
  2234388
370
    25
100
AcDb2dPolyline
 66
     1
 10
0.0
 20
0.0
 30
0.0
  0
VERTEX
  5
80
330
7F
100
AcDbEntity
  8
_U+30EC_U+30A4_U+30E4_U+30FC 1
 62
   179
420
  2234388
370
    25
100
AcDbVertex
100
AcDb2dVertex
 10
95.75711561258801
 20
-119.7282621922902
 30
0.0
  0
VERTEX
  5
81
330
7F
100
AcDbEntity
  8
_U+30EC_U+30A4_U+30E4_U+30FC 1
 62
   179
420
  2234388
370
    25
100
AcDbVertex
100
AcDb2dVertex
 10
95.75711561258801
 20
-120.4786205254358
 30
0.0
  0
SEQEND
  5
82
330
7F
100
AcDbEntity
  8
_U+30EC_U+30A4_U+30E4_U+30FC 1
 62
   179
420
  2234388
370
    25
  0
POLYLINE
  5
83
330
1F
100
AcDbEntity
  8
_U+30EC_U+30A4_U+30E4_U+30FC 1
 62
   179
420
  2234388
370
    25
100
AcDb2dPolyline
 66
     1
 10
0.0
 20
0.0
 30
0.0
  0
VERTEX
  5
84
330
83
100
AcDbEntity
  8
_U+30EC_U+30A4_U+30E4_U+30FC 1
 62
   179
420
  2234388
370
    25
100
AcDbVertex
100
AcDb2dVertex
 10
94.75699063810332
 20
-119.7282621922902
 30
0.0
  0
VERTEX
  5
85
330
83
100
AcDbEntity
  8
_U+30EC_U+30A4_U+30E4_U+30FC 1
 62
   179
420
  2234388
370
    25
100
AcDbVertex
100
AcDb2dVertex
 10
95.75711561258801
 20
-119.7282621922902
 30
0.0
  0
SEQEND
  5
86
330
83
100
AcDbEntity
  8
_U+30EC_U+30A4_U+30E4_U+30FC 1
 62
   179
420
  2234388
370
    25
  0
POLYLINE
  5
87
330
1F
100
AcDbEntity
  8
_U+30EC_U+30A4_U+30E4_U+30FC 1
 62
   179
420
  2234388
370
    25
100
AcDb2dPolyline
 66
     1
 10
0.0
 20
0.0
 30
0.0
  0
VERTEX
  5
88
330
87
100
AcDbEntity
  8
_U+30EC_U+30A4_U+30E4_U+30FC 1
 62
   179
420
  2234388
370
    25
100
AcDbVertex
100
AcDb2dVertex
 10
93.75690094139551
 20
-120.4786205254358
 30
0.0
  0
VERTEX
  5
89
330
87
100
AcDbEntity
  8
_U+30EC_U+30A4_U+30E4_U+30FC 1
 62
   179
420
  2234388
370
    25
100
AcDbVertex
100
AcDb2dVertex
 10
94.75699063810332
 20
-119.7282621922902
 30
0.0
  0
SEQEND
  5
8A
330
87
100
AcDbEntity
  8
_U+30EC_U+30A4_U+30E4_U+30FC 1
 62
   179
420
  2234388
370
    25
  0
POLYLINE
  5
8B
330
1F
100
AcDbEntity
  8
_U+30EC_U+30A4_U+30E4_U+30FC 1
 62
   179
420
  2234388
370
    25
100
AcDb2dPolyline
 66
     1
 10
0.0
 20
0.0
 30
0.0
  0
VERTEX
  5
8C
330
8B
100
AcDbEntity
  8
_U+30EC_U+30A4_U+30E4_U+30FC 1
 62
   179
420
  2234388
370
    25
100
AcDbVertex
100
AcDb2dVertex
 10
95.75711561258801
 20
-120.4786205254358
 30
0.0
  0
VERTEX
  5
8D
330
8B
100
AcDbEntity
  8
_U+30EC_U+30A4_U+30E4_U+30FC 1
 62
   179
420
  2234388
370
    25
100
AcDbVertex
100
AcDb2dVertex
 10
98.25686360436968
 20
-120.4786205254358
 30
0.0
  0
SEQEND
  5
8E
330
8B
100
AcDbEntity
  8
_U+30EC_U+30A4_U+30E4_U+30FC 1
 62
   179
420
  2234388
370
    25
  0
POLYLINE
  5
8F
330
1F
100
AcDbEntity
  8
_U+30EC_U+30A4_U+30E4_U+30FC 1
 62
   179
420
  2234388
370
    25
100
AcDb2dPolyline
 66
     1
 10
0.0
 20
0.0
 30
0.0
  0
VERTEX
  5
90
330
8F
100
AcDbEntity
  8
_U+30EC_U+30A4_U+30E4_U+30FC 1
 62
   179
420
  2234388
370
    25
100
AcDbVertex
100
AcDb2dVertex
 10
93.75690094139551
 20
-128.9781660788668
 30
0.0
  0
VERTEX
  5
91
330
8F
100
AcDbEntity
  8
_U+30EC_U+30A4_U+30E4_U+30FC 1
 62
   179
420
  2234388
370
    25
100
AcDbVertex
100
AcDb2dVertex
 10
94.75699063810332
 20
-129.7285244120121
 30
0.0
  0
SEQEND
  5
92
330
8F
100
AcDbEntity
  8
_U+30EC_U+30A4_U+30E4_U+30FC 1
 62
   179
420
  2234388
370
    25
  0
POLYLINE
  5
93
330
1F
100
AcDbEntity
  8
_U+30EC_U+30A4_U+30E4_U+30FC 1
 62
   179
420
  2234388
370
    25
100
AcDb2dPolyline
 66
     1
 10
0.0
 20
0.0
 30
0.0
  0
VERTEX
  5
94
330
93
100
AcDbEntity
  8
_U+30EC_U+30A4_U+30E4_U+30FC 1
 62
   179
420
  2234388
370
    25
100
AcDbVertex
100
AcDb2dVertex
 10
94.75699063810332
 20
-129.7285244120121
 30
0.0
  0
VERTEX
  5
95
330
93
100
AcDbEntity
  8
_U+30EC_U+30A4_U+30E4_U+30FC 1
 62
   179
420
  2234388
370
    25
100
AcDbVertex
100
AcDb2dVertex
 10
95.75711561258801
 20
-129.7285244120121
 30
0.0
  0
SEQEND
  5
96
330
93
100
AcDbEntity
  8
_U+30EC_U+30A4_U+30E4_U+30FC 1
 62
   179
420
  2234388
370
    25
  0
POLYLINE
  5
97
330
1F
100
AcDbEntity
  8
_U+30EC_U+30A4_U+30E4_U+30FC 1
 62
   179
420
  2234388
370
    25
100
AcDb2dPolyline
 66
     1
 10
0.0
 20
0.0
 30
0.0
  0
VERTEX
  5
98
330
97
100
AcDbEntity
  8
_U+30EC_U+30A4_U+30E4_U+30FC 1
 62
   179
420
  2234388
370
    25
100
AcDbVertex
100
AcDb2dVertex
 10
95.75711561258801
 20
-129.7285244120121
 30
0.0
  0
VERTEX
  5
99
330
97
100
AcDbEntity
  8
_U+30EC_U+30A4_U+30E4_U+30FC 1
 62
   179
420
  2234388
370
    25
100
AcDbVertex
100
AcDb2dVertex
 10
95.75711561258801
 20
-128.9781660788668
 30
0.0
  0
SEQEND
  5
9A
330
97
100
AcDbEntity
  8
_U+30EC_U+30A4_U+30E4_U+30FC 1
 62
   179
420
  2234388
370
    25
  0
POLYLINE
  5
9B
330
1F
100
AcDbEntity
  8
_U+30EC_U+30A4_U+30E4_U+30FC 1
 62
   179
420
  2234388
370
    25
100
AcDb2dPolyline
 66
     1
 10
0.0
 20
0.0
 30
0.0
  0
VERTEX
  5
9C
330
9B
100
AcDbEntity
  8
_U+30EC_U+30A4_U+30E4_U+30FC 1
 62
   179
420
  2234388
370
    25
100
AcDbVertex
100
AcDb2dVertex
 10
95.75711561258801
 20
-128.9781660788668
 30
0.0
  0
VERTEX
  5
9D
330
9B
100
AcDbEntity
  8
_U+30EC_U+30A4_U+30E4_U+30FC 1
 62
   179
420
  2234388
370
    25
100
AcDbVertex
100
AcDb2dVertex
 10
101.2568504722781
 20
-128.9781660788668
 30
0.0
  0
SEQEND
  5
9E
330
9B
100
AcDbEntity
  8
_U+30EC_U+30A4_U+30E4_U+30FC 1
 62
   179
420
  2234388
370
    25
  0
POLYLINE
  5
9F
330
1F
100
AcDbEntity
  8
_U+30EC_U+30A4_U+30E4_U+30FC 1
 62
   179
420
  2234388
370
    25
100
AcDb2dPolyline
 66
     1
 10
0.0
 20
0.0
 30
0.0
  0
VERTEX
  5
A0
330
9F
100
AcDbEntity
  8
_U+30EC_U+30A4_U+30E4_U+30FC 1
 62
   179
420
  2234388
370
    25
100
AcDbVertex
100
AcDb2dVertex
 10
90.80616185000848
 20
-123.9788110801163
 30
0.0
  0
VERTEX
  5
A1
330
9F
100
AcDbEntity
  8
_U+30EC_U+30A4_U+30E4_U+30FC 1
 62
   179
420
  2234388
370
    25
100
AcDbVertex
100
AcDb2dVertex
 10
92.02881904103812
 20
-123.1037810803353
 30
0.0
  0
SEQEND
  5
A2
330
9F
100
AcDbEntity
  8
_U+30EC_U+30A4_U+30E4_U+30FC 1
 62
   179
420
  2234388
370
    25
  0
POLYLINE
  5
A3
330
1F
100
AcDbEntity
  8
_U+30EC_U+30A4_U+30E4_U+30FC 1
 62
   179
420
  2234388
370
    25
100
AcDb2dPolyline
 66
     1
 10
0.0
 20
0.0
 30
0.0
  0
VERTEX
  5
A4
330
A3
100
AcDbEntity
  8
_U+30EC_U+30A4_U+30E4_U+30FC 1
 62
   179
420
  2234388
370
    25
100
AcDbVertex
100
AcDb2dVertex
 10
90.80616185000848
 20
-125.4788221908526
 30
0.0
  0
VERTEX
  5
A5
330
A3
100
AcDbEntity
  8
_U+30EC_U+30A4_U+30E4_U+30FC 1
 62
   179
420
  2234388
370
    25
100
AcDbVertex
100
AcDb2dVertex
 10
92.02881904103812
 20
-126.3538874684115
 30
0.0
  0
SEQEND
  5
A6
330
A3
100
AcDbEntity
  8
_U+30EC_U+30A4_U+30E4_U+30FC 1
 62
   179
420
  2234388
370
    25
  0
SPLINE
  5
A7
330
1F
100
AcDbEntity
  8
_U+30EC_U+30A4_U+30E4_U+30FC 1
 62
   179
420
  2234388
370
    25
100
AcDbSpline
210
0.0
220
0.0
230
1.0
 70
     8
 71
     3
 72
     8
 73
     4
 74
     0
 42
0.0000000001
 43
0.0000000001
 12
1.0
 22
0.0
 32
0.0
 13
1.0
 23
0.0
 33
0.0
 40
0.0
 40
0.0
 40
0.0
 40
0.0
 40
1.0
 40
1.0
 40
1.0
 40
1.0
 10
100.756999651697
 20
-131.4786196893524
 30
0.0
 10
100.756999651697
 20
-130.9260285783795
 30
0.0
 10
100.3091129964569
 20
-130.4781771896025
 30
0.0
 10
99.75687467721232
 20
-130.4781771896025
 30
0.0
  0
SPLINE
  5
A8
330
1F
100
AcDbEntity
  8
_U+30EC_U+30A4_U+30E4_U+30FC 1
 62
   179
420
  2234388
370
    25
100
AcDbSpline
210
0.0
220
0.0
230
1.0
 70
     8
 71
     3
 72
     8
 73
     4
 74
     0
 42
0.0000000001
 43
0.0000000001
 12
1.0
 22
0.0
 32
0.0
 13
1.0
 23
0.0
 33
0.0
 40
0.0
 40
0.0
 40
0.0
 40
0.0
 40
1.0
 40
1.0
 40
1.0
 40
1.0
 10
88.75701690228652
 20
-130.4781771896025
 30
0.0
 10
88.20477858304196
 20
-130.4781771896025
 30
0.0
 10
87.7569272055787
 20
-130.9260285783795
 30
0.0
 10
87.7569272055787
 20
-131.4786196893524
 30
0.0
  0
SPLINE
  5
A9
330
1F
100
AcDbEntity
  8
_U+30EC_U+30A4_U+30E4_U+30FC 1
 62
   179
420
  2234388
370
    25
100
AcDbSpline
210
0.0
220
0.0
230
1.0
 70
     8
 71
     3
 72
     8
 73
     4
 74
     0
 42
0.0000000001
 43
0.0000000001
 12
1.0
 22
0.0
 32
0.0
 13
1.0
 23
0.0
 33
0.0
 40
0.0
 40
0.0
 40
0.0
 40
0.0
 40
1.0
 40
1.0
 40
1.0
 40
1.0
 10
102.2569754467628
 20
-129.9786438563943
 30
0.0
 10
102.2569754467628
 20
-129.4260527454214
 30
0.0
 10
101.8091240692995
 20
-128.9781660788668
 30
0.0
 10
101.2568504722781
 20
-128.9781660788668
 30
0.0
  0
SPLINE
  5
AA
330
1F
100
AcDbEntity
  8
_U+30EC_U+30A4_U+30E4_U+30FC 1
 62
   179
420
  2234388
370
    25
100
AcDbSpline
210
0.0
220
0.0
230
1.0
 70
     8
 71
     3
 72
    17
 73
    13
 74
     0
 42
0.0000000001
 43
0.0000000001
 12
1.0
 22
0.0
 32
0.0
 13
1.0
 23
0.0
 33
0.0
 40
0.0
 40
0.0
 40
0.0
 40
0.0
 40
1.0
 40
1.0
 40
1.0
 40
2.0
 40
2.0
 40
2.0
 40
3.0
 40
3.0
 40
3.0
 40
4.0
 40
4.0
 40
4.0
 40
4.0
 10
90.80616185000848
 20
-123.9788110801163
 30
0.0
 10
90.39171852724847
 20
-123.2608730247402
 30
0.0
 10
89.47428466176527
 20
-123.0155866359129
 30
0.0
 10
88.75701690228652
 20
-123.4296771913647
 30
0.0
 10
88.03939636503898
 20
-123.8437677468169
 30
0.0
 10
87.79379248241598
 20
-124.7608488576986
 30
0.0
 10
88.2078830274072
 20
-125.4788221908526
 30
0.0
 10
88.6223263501672
 20
-126.196089968451
 30
0.0
 10
89.53940743788162
 20
-126.4420819128338
 30
0.0
 10
90.25702797512916
 20
-126.0279560796041
 30
0.0
 10
90.48509880264392
 20
-125.8956644129705
 30
0.0
 10
90.67422296448562
 20
-125.7068930241288
 30
0.0
 10
90.80616185000848
 20
-125.4788221908526
 30
0.0
  0
SPLINE
  5
AB
330
1F
100
AcDbEntity
  8
_U+30EC_U+30A4_U+30E4_U+30FC 1
 62
   179
420
  2234388
370
    25
100
AcDbSpline
210
0.0
220
0.0
230
1.0
 70
     8
 71
     3
 72
     8
 73
     4
 74
     0
 42
0.0000000001
 43
0.0000000001
 12
1.0
 22
0.0
 32
0.0
 13
1.0
 23
0.0
 33
0.0
 40
0.0
 40
0.0
 40
0.0
 40
0.0
 40
1.0
 40
1.0
 40
1.0
 40
1.0
 10
98.25686360436968
 20
-120.4786205254358
 30
0.0
 10
98.80913720139112
 20
-120.4786205254358
 30
0.0
 10
99.25698857885436
 20
-120.0307338588812
 30
0.0
 10
99.25698857885436
 20
-119.4788483034636
 30
0.0
  0
SPLINE
  5
AC
330
1F
100
AcDbEntity
  8
_U+30EC_U+30A4_U+30E4_U+30FC 1
 62
   179
420
  2234388
370
    25
100
AcDbSpline
210
0.0
220
0.0
230
1.0
 70
     8
 71
     3
 72
     8
 73
     4
 74
     0
 42
0.0000000001
 43
0.0000000001
 12
1.0
 22
0.0
 32
0.0
 13
1.0
 23
0.0
 33
0.0
 40
0.0
 40
0.0
 40
0.0
 40
0.0
 40
1.0
 40
1.0
 40
1.0
 40
1.0
 10
89.72958993302967
 20
-127.7201958014034
 30
0.0
 10
90.66801407575514
 20
-127.650592745865
 30
0.0
 10
91.51894933182375
 20
-127.1448505237694
 30
0.0
 10
92.02881904103812
 20
-126.3538874684115
 30
0.0
  0
SPLINE
  5
AD
330
1F
100
AcDbEntity
  8
_U+30EC_U+30A4_U+30E4_U+30FC 1
 62
   179
420
  2234388
370
    25
100
AcDbSpline
210
0.0
220
0.0
230
1.0
 70
     8
 71
     3
 72
    11
 73
     7
 74
     0
 42
0.0000000001
 43
0.0000000001
 12
1.0
 22
0.0
 32
0.0
 13
1.0
 23
0.0
 33
0.0
 40
0.0
 40
0.0
 40
0.0
 40
0.0
 40
1.0
 40
1.0
 40
1.0
 40
2.0
 40
2.0
 40
2.0
 40
2.0
 10
89.72958993302967
 20
-127.7201958014034
 30
0.0
 10
89.38266827521372
 20
-127.746371912508
 30
0.0
 10
89.12221244852516
 20
-128.0481733013213
 30
0.0
 10
89.14803578119968
 20
-128.395447745679
 30
0.0
 10
89.17251855835285
 20
-128.7240955233746
 30
0.0
 10
89.44637994025496
 20
-128.9781660788668
 30
0.0
 10
89.77643882072334
 20
-128.9781660788668
 30
0.0
  0
SPLINE
  5
AE
330
1F
100
AcDbEntity
  8
_U+30EC_U+30A4_U+30E4_U+30FC 1
 62
   179
420
  2234388
370
    25
100
AcDbSpline
210
0.0
220
0.0
230
1.0
 70
     8
 71
     3
 72
    11
 73
     7
 74
     0
 42
0.0000000001
 43
0.0000000001
 12
1.0
 22
0.0
 32
0.0
 13
1.0
 23
0.0
 33
0.0
 40
0.0
 40
0.0
 40
0.0
 40
0.0
 40
1.0
 40
1.0
 40
1.0
 40
2.0
 40
2.0
 40
2.0
 40
2.0
 10
89.77643882072334
 20
-120.4786205254358
 30
0.0
 10
89.42846108875385
 20
-120.4786205254358
 30
0.0
 10
89.14630717013267
 20
-120.7604194142544
 30
0.0
 10
89.14630717013267
 20
-121.1083641363895
 30
0.0
 10
89.14630717013267
 20
-121.4384230251961
 30
0.0
 10
89.40055410809074
 20
-121.7126371917941
 30
0.0
 10
89.72958993302967
 20
-121.7367671917881
 30
0.0
  0
SPLINE
  5
AF
330
1F
100
AcDbEntity
  8
_U+30EC_U+30A4_U+30E4_U+30FC 1
 62
   179
420
  2234388
370
    25
100
AcDbSpline
210
0.0
220
0.0
230
1.0
 70
     8
 71
     3
 72
     8
 73
     4
 74
     0
 42
0.0000000001
 43
0.0000000001
 12
1.0
 22
0.0
 32
0.0
 13
1.0
 23
0.0
 33
0.0
 40
0.0
 40
0.0
 40
0.0
 40
0.0
 40
1.0
 40
1.0
 40
1.0
 40
1.0
 10
92.02881904103812
 20
-123.1037810803353
 30
0.0
 10
91.51894933182375
 20
-122.3127827471995
 30
0.0
 10
90.66801407575514
 20
-121.8063349695484
 30
0.0
 10
89.72958993302967
 20
-121.7367671917881
 30
0.0
  0
SPLINE
  5
B0
330
1F
100
AcDbEntity
  8
_U+30EC_U+30A4_U+30E4_U+30FC 1
 62
   179
420
  2234388
370
     9
100
AcDbSpline
210
0.0
220
0.0
230
1.0
 70
    11
 71
     3
 72
    17
 73
    13
 74
     0
 42
0.0000000001
 43
0.0000000001
 12
1.0
 22
0.0
 32
0.0
 13
1.0
 23
0.0
 33
0.0
 40
0.0
 40
0.0
 40
0.0
 40
0.0
 40
1.0
 40
1.0
 40
1.0
 40
2.0
 40
2.0
 40
2.0
 40
3.0
 40
3.0
 40
3.0
 40
4.0
 40
4.0
 40
4.0
 40
4.0
 10
102.3568821108806
 20
-144.4783396861029
 30
0.0
 10
102.3568821108806
 20
-144.4232357972274
 30
0.0
 10
102.3121146120227
 20
-144.3784330194606
 30
0.0
 10
102.2569754467628
 20
-144.3784330194606
 30
0.0
 10
102.2018715592797
 20
-144.3784330194606
 30
0.0
 10
102.1570687826449
 20
-144.4232357972274
 30
0.0
 10
102.1570687826449
 20
-144.4783396861029
 30
0.0
 10
102.1570687826449
 20
-144.5334788527554
 30
0.0
 10
102.2018715592797
 20
-144.5782463527445
 30
0.0
 10
102.2569754467628
 20
-144.5782463527445
 30
0.0
 10
102.3121146120227
 20
-144.5782463527445
 30
0.0
 10
102.3568821108806
 20
-144.5334788527554
 30
0.0
 10
102.3568821108806
 20
-144.4783396861029
 30
0.0
  0
SPLINE
  5
B1
330
1F
100
AcDbEntity
  8
_U+30EC_U+30A4_U+30E4_U+30FC 1
 62
   179
420
  2234388
370
     9
100
AcDbSpline
210
0.0
220
0.0
230
1.0
 70
    11
 71
     3
 72
    17
 73
    13
 74
     0
 42
0.0000000001
 43
0.0000000001
 12
1.0
 22
0.0
 32
0.0
 13
1.0
 23
0.0
 33
0.0
 40
0.0
 40
0.0
 40
0.0
 40
0.0
 40
1.0
 40
1.0
 40
1.0
 40
2.0
 40
2.0
 40
2.0
 40
3.0
 40
3.0
 40
3.0
 40
4.0
 40
4.0
 40
4.0
 40
4.0
 10
98.35712304625629
 20
-144.4783396861029
 30
0.0
 10
98.35712304625629
 20
-144.4232357972274
 30
0.0
 10
98.31235554739841
 20
-144.3784330194606
 30
0.0
 10
98.25686360436968
 20
-144.3784330194606
 30
0.0
 10
98.20175971688661
 20
-144.3784330194606
 30
0.0
 10
98.15695694025185
 20
-144.4232357972274
 30
0.0
 10
98.15695694025185
 20
-144.4783396861029
 30
0.0
 10
98.15695694025185
 20
-144.5334788527554
 30
0.0
 10
98.20175971688661
 20
-144.5782463527445
 30
0.0
 10
98.25686360436968
 20
-144.5782463527445
 30
0.0
 10
98.31235554739841
 20
-144.5782463527445
 30
0.0
 10
98.35712304625629
 20
-144.5334788527554
 30
0.0
 10
98.35712304625629
 20
-144.4783396861029
 30
0.0
  0
SPLINE
  5
B2
330
1F
100
AcDbEntity
  8
_U+30EC_U+30A4_U+30E4_U+30FC 1
 62
   179
420
  2234388
370
     9
100
AcDbSpline
210
0.0
220
0.0
230
1.0
 70
    11
 71
     3
 72
    17
 73
    13
 74
     0
 42
0.0000000001
 43
0.0000000001
 12
1.0
 22
0.0
 32
0.0
 13
1.0
 23
0.0
 33
0.0
 40
0.0
 40
0.0
 40
0.0
 40
0.0
 40
1.0
 40
1.0
 40
1.0
 40
2.0
 40
2.0
 40
2.0
 40
3.0
 40
3.0
 40
3.0
 40
4.0
 40
4.0
 40
4.0
 40
4.0
 10
90.356934639247
 20
-144.4783396861029
 30
0.0
 10
90.356934639247
 20
-144.4232357972274
 30
0.0
 10
90.31213186261223
 20
-144.3784330194606
 30
0.0
 10
90.25702797512916
 20
-144.3784330194606
 30
0.0
 10
90.2018888098692
 20
-144.3784330194606
 30
0.0
 10
90.15712131101132
 20
-144.4232357972274
 30
0.0
 10
90.15712131101132
 20
-144.4783396861029
 30
0.0
 10
90.15712131101132
 20
-144.5334788527554
 30
0.0
 10
90.2018888098692
 20
-144.5782463527445
 30
0.0
 10
90.25702797512916
 20
-144.5782463527445
 30
0.0
 10
90.31213186261223
 20
-144.5782463527445
 30
0.0
 10
90.356934639247
 20
-144.5334788527554
 30
0.0
 10
90.356934639247
 20
-144.4783396861029
 30
0.0
  0
SPLINE
  5
B3
330
1F
100
AcDbEntity
  8
_U+30EC_U+30A4_U+30E4_U+30FC 1
 62
   179
420
  2234388
370
     9
100
AcDbSpline
210
0.0
220
0.0
230
1.0
 70
    11
 71
     3
 72
    17
 73
    13
 74
     0
 42
0.0000000001
 43
0.0000000001
 12
1.0
 22
0.0
 32
0.0
 13
1.0
 23
0.0
 33
0.0
 40
0.0
 40
0.0
 40
0.0
 40
0.0
 40
1.0
 40
1.0
 40
1.0
 40
2.0
 40
2.0
 40
2.0
 40
3.0
 40
3.0
 40
3.0
 40
4.0
 40
4.0
 40
4.0
 40
4.0
 10
86.35682497841086
 20
-144.4783396861029
 30
0.0
 10
86.35682497841086
 20
-144.4232357972274
 30
0.0
 10
86.3123749784219
 20
-144.3784330194606
 30
0.0
 10
86.25691613273607
 20
-144.3784330194606
 30
0.0
 10
86.201812245253
 20
-144.3784330194606
 30
0.0
 10
86.15700946861823
 20
-144.4232357972274
 30
0.0
 10
86.15700946861823
 20
-144.4783396861029
 30
0.0
 10
86.15700946861823
 20
-144.5334788527554
 30
0.0
 10
86.201812245253
 20
-144.5782463527445
 30
0.0
 10
86.25691613273607
 20
-144.5782463527445
 30
0.0
 10
86.3123749784219
 20
-144.5782463527445
 30
0.0
 10
86.35682497841086
 20
-144.5334788527554
 30
0.0
 10
86.35682497841086
 20
-144.4783396861029
 30
0.0
  0
SPLINE
  5
B4
330
1F
100
AcDbEntity
  8
_U+30EC_U+30A4_U+30E4_U+30FC 1
 62
   179
420
  2234388
370
     9
100
AcDbSpline
210
0.0
220
0.0
230
1.0
 70
    11
 71
     3
 72
    17
 73
    13
 74
     0
 42
0.0000000001
 43
0.0000000001
 12
1.0
 22
0.0
 32
0.0
 13
1.0
 23
0.0
 33
0.0
 40
0.0
 40
0.0
 40
0.0
 40
0.0
 40
1.0
 40
1.0
 40
1.0
 40
2.0
 40
2.0
 40
2.0
 40
3.0
 40
3.0
 40
3.0
 40
4.0
 40
4.0
 40
4.0
 40
4.0
 10
82.35706373222959
 20
-140.478580520436
 30
0.0
 10
82.35706373222959
 20
-140.4234766315611
 30
0.0
 10
82.31229623337171
 20
-140.3786738537944
 30
0.0
 10
82.25715706811175
 20
-140.3786738537944
 30
0.0
 10
82.20170040285991
 20
-140.3786738537944
 30
0.0
 10
82.15689762622515
 20
-140.4234766315611
 30
0.0
 10
82.15689762622515
 20
-140.478580520436
 30
0.0
 10
82.15689762622515
 20
-140.5337196870891
 30
0.0
 10
82.20170040285991
 20
-140.5784871870777
 30
0.0
 10
82.25715706811175
 20
-140.5784871870777
 30
0.0
 10
82.31229623337171
 20
-140.5784871870777
 30
0.0
 10
82.35706373222959
 20
-140.5337196870891
 30
0.0
 10
82.35706373222959
 20
-140.478580520436
 30
0.0
  0
SPLINE
  5
B5
330
1F
100
AcDbEntity
  8
_U+30EC_U+30A4_U+30E4_U+30FC 1
 62
   179
420
  2234388
370
     9
100
AcDbSpline
210
0.0
220
0.0
230
1.0
 70
    11
 71
     3
 72
    17
 73
    13
 74
     0
 42
0.0000000001
 43
0.0000000001
 12
1.0
 22
0.0
 32
0.0
 13
1.0
 23
0.0
 33
0.0
 40
0.0
 40
0.0
 40
0.0
 40
0.0
 40
1.0
 40
1.0
 40
1.0
 40
2.0
 40
2.0
 40
2.0
 40
3.0
 40
3.0
 40
3.0
 40
4.0
 40
4.0
 40
4.0
 40
4.0
 10
82.35706373222959
 20
-118.4783705259358
 30
0.0
 10
82.35706373222959
 20
-118.4232666370609
 30
0.0
 10
82.31229623337171
 20
-118.3784638592942
 30
0.0
 10
82.25715706811175
 20
-118.3784638592942
 30
0.0
 10
82.20170040285991
 20
-118.3784638592942
 30
0.0
 10
82.15689762622515
 20
-118.4232666370609
 30
0.0
 10
82.15689762622515
 20
-118.4783705259358
 30
0.0
 10
82.15689762622515
 20
-118.5335096925889
 30
0.0
 10
82.20170040285991
 20
-118.5782771925778
 30
0.0
 10
82.25715706811175
 20
-118.5782771925778
 30
0.0
 10
82.31229623337171
 20
-118.5782771925778
 30
0.0
 10
82.35706373222959
 20
-118.5335096925889
 30
0.0
 10
82.35706373222959
 20
-118.4783705259358
 30
0.0
  0
INSERT
  5
B7
330
1F
100
AcDbEntity
  8
_U+30EC_U+30A4_U+30E4_U+30FC 1
100
AcDbBlockReference
  2
block 2
 10
0.0
 20
0.0
 30
0.0
  0
INSERT
  5
DE
330
1F
100
AcDbEntity
  8
_U+30EC_U+30A4_U+30E4_U+30FC 1
100
AcDbBlockReference
  2
block 7
 10
0.0
 20
0.0
 30
0.0
  0
INSERT
  5
116
330
1F
100
AcDbEntity
  8
_U+30EC_U+30A4_U+30E4_U+30FC 1
100
AcDbBlockReference
  2
block 12
 10
0.0
 20
0.0
 30
0.0
  0
INSERT
  5
139
330
1F
100
AcDbEntity
  8
_U+30EC_U+30A4_U+30E4_U+30FC 1
100
AcDbBlockReference
  2
block 17
 10
0.0
 20
0.0
 30
0.0
  0
SPLINE
  5
16C
330
1F
100
AcDbEntity
  8
_U+30EC_U+30A4_U+30E4_U+30FC 1
 62
   179
420
  2234388
370
     9
100
AcDbSpline
210
0.0
220
0.0
230
1.0
 70
    11
 71
     3
 72
    17
 73
    13
 74
     0
 42
0.0000000001
 43
0.0000000001
 12
1.0
 22
0.0
 32
0.0
 13
1.0
 23
0.0
 33
0.0
 40
0.0
 40
0.0
 40
0.0
 40
0.0
 40
1.0
 40
1.0
 40
1.0
 40
2.0
 40
2.0
 40
2.0
 40
3.0
 40
3.0
 40
3.0
 40
4.0
 40
4.0
 40
4.0
 40
4.0
 10
99.3568952429722
 20
-114.4786113602692
 30
0.0
 10
99.3568952429722
 20
-114.423507471394
 30
0.0
 10
99.31209246633745
 20
-114.3787046936276
 30
0.0
 10
99.25698857885436
 20
-114.3787046936276
 30
0.0
 10
99.20184941359442
 20
-114.3787046936276
 30
0.0
 10
99.15708191473654
 20
-114.423507471394
 30
0.0
 10
99.15708191473654
 20
-114.4786113602692
 30
0.0
 10
99.15708191473654
 20
-114.533750526922
 30
0.0
 10
99.20184941359442
 20
-114.5785533046887
 30
0.0
 10
99.25698857885436
 20
-114.5785533046887
 30
0.0
 10
99.31209246633745
 20
-114.5785533046887
 30
0.0
 10
99.3568952429722
 20
-114.533750526922
 30
0.0
 10
99.3568952429722
 20
-114.4786113602692
 30
0.0
  0
POLYLINE
  5
16D
330
1F
100
AcDbEntity
  8
_U+30EC_U+30A4_U+30E4_U+30FC 1
 62
   179
420
  2234388
370
     9
100
AcDb2dPolyline
 66
     1
 10
0.0
 20
0.0
 30
0.0
  0
VERTEX
  5
16E
330
16D
100
AcDbEntity
  8
_U+30EC_U+30A4_U+30E4_U+30FC 1
 62
   179
420
  2234388
370
     9
100
AcDbVertex
100
AcDb2dVertex
 10
86.25691613273607
 20
-114.4786113602692
 30
0.0
  0
VERTEX
  5
16F
330
16D
100
AcDbEntity
  8
_U+30EC_U+30A4_U+30E4_U+30FC 1
 62
   179
420
  2234388
370
     9
100
AcDbVertex
100
AcDb2dVertex
 10
99.25698857885436
 20
-114.4786113602692
 30
0.0
  0
SEQEND
  5
170
330
16D
100
AcDbEntity
  8
_U+30EC_U+30A4_U+30E4_U+30FC 1
 62
   179
420
  2234388
370
     9
  0
POLYLINE
  5
171
330
1F
100
AcDbEntity
  8
_U+30EC_U+30A4_U+30E4_U+30FC 1
 62
   179
420
  2234388
370
     9
100
AcDb2dPolyline
 66
     1
 10
0.0
 20
0.0
 30
0.0
  0
VERTEX
  5
172
330
171
100
AcDbEntity
  8
_U+30EC_U+30A4_U+30E4_U+30FC 1
 62
   179
420
  2234388
370
     9
100
AcDbVertex
100
AcDb2dVertex
 10
86.25691613273607
 20
-115.9386527487933
 30
0.0
  0
VERTEX
  5
173
330
171
100
AcDbEntity
  8
_U+30EC_U+30A4_U+30E4_U+30FC 1
 62
   179
420
  2234388
370
     9
100
AcDbVertex
100
AcDb2dVertex
 10
86.25691613273607
 20
-113.4788744160749
 30
0.0
  0
SEQEND
  5
174
330
171
100
AcDbEntity
  8
_U+30EC_U+30A4_U+30E4_U+30FC 1
 62
   179
420
  2234388
370
     9
  0
POLYLINE
  5
175
330
1F
100
AcDbEntity
  8
_U+30EC_U+30A4_U+30E4_U+30FC 1
 62
   179
420
  2234388
370
     9
100
AcDb2dPolyline
 66
     1
 10
0.0
 20
0.0
 30
0.0
  0
VERTEX
  5
176
330
175
100
AcDbEntity
  8
_U+30EC_U+30A4_U+30E4_U+30FC 1
 62
   179
420
  2234388
370
     9
100
AcDbVertex
100
AcDb2dVertex
 10
99.25698857885436
 20
-115.9386527487933
 30
0.0
  0
VERTEX
  5
177
330
175
100
AcDbEntity
  8
_U+30EC_U+30A4_U+30E4_U+30FC 1
 62
   179
420
  2234388
370
     9
100
AcDbVertex
100
AcDb2dVertex
 10
99.25698857885436
 20
-113.4788744160749
 30
0.0
  0
SEQEND
  5
178
330
175
100
AcDbEntity
  8
_U+30EC_U+30A4_U+30E4_U+30FC 1
 62
   179
420
  2234388
370
     9
  0
INSERT
  5
17A
330
1F
100
AcDbEntity
  8
_U+30EC_U+30A4_U+30E4_U+30FC 1
100
AcDbBlockReference
  2
block 22
 10
0.0
 20
0.0
 30
0.0
  0
INSERT
  5
18C
330
1F
100
AcDbEntity
  8
_U+30EC_U+30A4_U+30E4_U+30FC 1
100
AcDbBlockReference
  2
block 23
 10
0.0
 20
0.0
 30
0.0
  0
SPLINE
  5
190
330
1F
100
AcDbEntity
  8
_U+30EC_U+30A4_U+30E4_U+30FC 1
 62
   179
420
  2234388
370
     9
100
AcDbSpline
210
0.0
220
0.0
230
1.0
 70
    11
 71
     3
 72
    17
 73
    13
 74
     0
 42
0.0000000001
 43
0.0000000001
 12
1.0
 22
0.0
 32
0.0
 13
1.0
 23
0.0
 33
0.0
 40
0.0
 40
0.0
 40
0.0
 40
0.0
 40
1.0
 40
1.0
 40
1.0
 40
2.0
 40
2.0
 40
2.0
 40
3.0
 40
3.0
 40
3.0
 40
4.0
 40
4.0
 40
4.0
 40
4.0
 10
86.35682497841086
 20
-114.4786113602692
 30
0.0
 10
86.35682497841086
 20
-114.423507471394
 30
0.0
 10
86.3123749784219
 20
-114.3787046936276
 30
0.0
 10
86.25691613273607
 20
-114.3787046936276
 30
0.0
 10
86.201812245253
 20
-114.3787046936276
 30
0.0
 10
86.15700946861823
 20
-114.423507471394
 30
0.0
 10
86.15700946861823
 20
-114.4786113602692
 30
0.0
 10
86.15700946861823
 20
-114.533750526922
 30
0.0
 10
86.201812245253
 20
-114.5785533046887
 30
0.0
 10
86.25691613273607
 20
-114.5785533046887
 30
0.0
 10
86.3123749784219
 20
-114.5785533046887
 30
0.0
 10
86.35682497841086
 20
-114.533750526922
 30
0.0
 10
86.35682497841086
 20
-114.4786113602692
 30
0.0
  0
INSERT
  5
192
330
1F
100
AcDbEntity
  8
_U+30EC_U+30A4_U+30E4_U+30FC 1
100
AcDbBlockReference
  2
block 24
 10
0.0
 20
0.0
 30
0.0
  0
INSERT
  5
197
330
1F
100
AcDbEntity
  8
_U+30EC_U+30A4_U+30E4_U+30FC 1
100
AcDbBlockReference
  2
block 25
 10
0.0
 20
0.0
 30
0.0
  0
ENDSEC
  0
SECTION
  2
OBJECTS
  0
DICTIONARY
  5
C
330
0
100
AcDbDictionary
281
     1
  3
ACAD_GROUP
350
D
  3
ACAD_LAYOUT
350
1A
  3
ACAD_MATERIAL
350
3B
  3
ACAD_MLEADERSTYLE
350
19C
  3
ACAD_MLINESTYLE
350
17
  3
ACAD_PLOTSETTINGS
350
19
  3
ACAD_PLOTSTYLENAME
350
E
  3
ACAD_TABLESTYLE
350
19B
  3
ACAD_VISUALSTYLE
350
2A
  0
SUN
  5
3F
330
29
100
AcDbSun
 90
        1
290
     0
 63
     7
421
 16777215
 40
1.0
291
     1
 91
  2455826
 92
 54000000
292
     0
 70
     2
 71
   256
280
     1
  0
DICTIONARY
  5
D
102
{ACAD_REACTORS
330
C
102
}
330
C
100
AcDbDictionary
281
     1
  0
DICTIONARY
  5
1A
102
{ACAD_REACTORS
330
C
102
}
330
C
100
AcDbDictionary
281
     1
  3
Layout1
350
1E
  3
Layout2
350
26
  3
Model
350
22
  0
DICTIONARY
  5
3B
102
{ACAD_REACTORS
330
C
102
}
330
C
100
AcDbDictionary
281
     1
  3
ByBlock
350
3D
  3
ByLayer
350
3C
  3
Global
350
3E
  0
DICTIONARY
  5
19C
102
{ACAD_REACTORS
330
C
102
}
330
C
100
AcDbDictionary
281
     1
  0
DICTIONARY
  5
17
102
{ACAD_REACTORS
330
C
102
}
330
C
100
AcDbDictionary
281
     1
  3
Standard
350
18
  0
DICTIONARY
  5
19
102
{ACAD_REACTORS
330
C
102
}
330
C
100
AcDbDictionary
281
     1
  0
ACDBDICTIONARYWDFLT
  5
E
102
{ACAD_REACTORS
330
C
102
}
330
C
100
AcDbDictionary
281
     1
  3
Normal
350
F
100
AcDbDictionaryWithDefault
340
F
  0
DICTIONARY
  5
19B
102
{ACAD_REACTORS
330
C
102
}
330
C
100
AcDbDictionary
281
     1
  0
DICTIONARY
  5
2A
102
{ACAD_REACTORS
330
C
102
}
330
C
100
AcDbDictionary
281
     1
  3
2dWireframe
350
2F
  3
3D Hidden
350
31
  3
3dWireframe
350
30
  3
Basic
350
32
  3
Brighten
350
36
  3
ColorChange
350
3A
  3
Conceptual
350
34
  3
Dim
350
35
  3
Facepattern
350
39
  3
Flat
350
2B
  3
FlatWithEdges
350
2C
  3
Gouraud
350
2D
  3
GouraudWithEdges
350
2E
  3
Linepattern
350
38
  3
Realistic
350
33
  3
Thicken
350
37
  0
LAYOUT
  5
1E
102
{ACAD_REACTORS
330
1A
102
}
330
1A
100
AcDbPlotSettings
  1

  2
none_device
  4

  6

 40
0.0
 41
0.0
 42
0.0
 43
0.0
 44
0.0
 45
0.0
 46
0.0
 47
0.0
 48
0.0
 49
0.0
140
0.0
141
0.0
142
1.0
143
1.0
 70
   688
 72
     0
 73
     0
 74
     5
  7

 75
    16
 76
     0
 77
     2
 78
   300
147
1.0
148
0.0
149
0.0
100
AcDbLayout
  1
Layout1
 70
     1
 71
     1
 10
0.0
 20
0.0
 11
12.0
 21
9.0
 12
0.0
 22
0.0
 32
0.0
 14
1.000000000000000E+20
 24
1.000000000000000E+20
 34
1.000000000000000E+20
 15
-1.000000000000000E+20
 25
-1.000000000000000E+20
 35
-1.000000000000000E+20
146
0.0
 13
0.0
 23
0.0
 33
0.0
 16
1.0
 26
0.0
 36
0.0
 17
0.0
 27
1.0
 37
0.0
 76
     0
330
1B
  0
LAYOUT
  5
26
102
{ACAD_REACTORS
330
1A
102
}
330
1A
100
AcDbPlotSettings
  1

  2
none_device
  4

  6

 40
0.0
 41
0.0
 42
0.0
 43
0.0
 44
0.0
 45
0.0
 46
0.0
 47
0.0
 48
0.0
 49
0.0
140
0.0
141
0.0
142
1.0
143
1.0
 70
   688
 72
     0
 73
     0
 74
     5
  7

 75
    16
 76
     0
 77
     2
 78
   300
147
1.0
148
0.0
149
0.0
100
AcDbLayout
  1
Layout2
 70
     1
 71
     2
 10
0.0
 20
0.0
 11
0.0
 21
0.0
 12
0.0
 22
0.0
 32
0.0
 14
0.0
 24
0.0
 34
0.0
 15
0.0
 25
0.0
 35
0.0
146
0.0
 13
0.0
 23
0.0
 33
0.0
 16
1.0
 26
0.0
 36
0.0
 17
0.0
 27
1.0
 37
0.0
 76
     0
330
23
  0
LAYOUT
  5
22
102
{ACAD_REACTORS
330
1A
102
}
330
1A
100
AcDbPlotSettings
  1

  2
none_device
  4

  6

 40
0.0
 41
0.0
 42
0.0
 43
0.0
 44
0.0
 45
0.0
 46
0.0
 47
0.0
 48
0.0
 49
0.0
140
0.0
141
0.0
142
1.0
143
1.0
 70
  1712
 72
     0
 73
     0
 74
     0
  7

 75
     0
 76
     0
 77
     2
 78
   300
147
1.0
148
0.0
149
0.0
100
AcDbLayout
  1
Model
 70
     1
 71
     0
 10
0.0
 20
0.0
 11
12.0
 21
9.0
 12
0.0
 22
0.0
 32
0.0
 14
1.000000000000000E+20
 24
1.000000000000000E+20
 34
1.000000000000000E+20
 15
-1.000000000000000E+20
 25
-1.000000000000000E+20
 35
-1.000000000000000E+20
146
0.0
 13
0.0
 23
0.0
 33
0.0
 16
1.0
 26
0.0
 36
0.0
 17
0.0
 27
1.0
 37
0.0
 76
     0
330
1F
331
29
  0
MATERIAL
  5
3D
102
{ACAD_REACTORS
330
3B
102
}
330
3B
100
AcDbMaterial
  1
ByBlock
 72
     1
 94
      127
  0
MATERIAL
  5
3C
102
{ACAD_REACTORS
330
3B
102
}
330
3B
100
AcDbMaterial
  1
ByLayer
 72
     1
 94
      127
  0
MATERIAL
  5
3E
102
{ACAD_REACTORS
330
3B
102
}
330
3B
100
AcDbMaterial
  1
Global
 72
     1
 94
      127
  0
MLINESTYLE
  5
18
102
{ACAD_REACTORS
330
17
102
}
330
17
100
AcDbMlineStyle
  2
Standard
 70
     0
  3

 62
   256
 51
90.0
 52
90.0
 71
     2
 49
0.5
 62
   256
  6
BYLAYER
 49
-0.5
 62
   256
  6
BYLAYER
  0
ACDBPLACEHOLDER
  5
F
102
{ACAD_REACTORS
330
E
102
}
330
E
  0
VISUALSTYLE
  5
2F
102
{ACAD_REACTORS
330
2A
102
}
330
2A
100
AcDbVisualStyle
  2
2dWireframe
 70
     4
177
     2
291
     0
 71
     0
176
     1
 72
     2
176
     1
 73
     0
176
     1
 90
        0
176
     1
 40
-0.6
176
     1
 41
-30.0
176
     1
 62
     5
 63
     7
421
 16777215
176
     1
 74
     1
176
     1
 91
        4
176
     1
 64
     7
176
     1
 65
   257
176
     1
 75
     1
176
     1
175
     1
176
     1
 42
1.0
176
     1
 92
        0
176
     1
 66
   257
176
     1
 43
1.0
176
     1
 76
     1
176
     1
 77
     6
176
     1
 78
     2
176
     1
 67
     7
176
     1
 79
     5
176
     1
170
     0
176
     1
171
     0
176
     1
290
     0
176
     1
 93
        1
176
     1
 44
0.0
176
     1
173
     0
176
     1
  0
VISUALSTYLE
  5
31
102
{ACAD_REACTORS
330
2A
102
}
330
2A
100
AcDbVisualStyle
  2
3D Hidden
 70
     6
177
     2
291
     0
 71
     1
176
     1
 72
     2
176
     1
 73
     2
176
     1
 90
        0
176
     1
 40
-0.6
176
     1
 41
-30.0
176
     1
 62
     5
 63
     7
421
 16777215
176
     1
 74
     2
176
     1
 91
        2
176
     1
 64
     7
176
     1
 65
   257
176
     1
 75
     2
176
     1
175
     1
176
     1
 42
40.0
176
     1
 92
        0
176
     1
 66
   257
176
     1
 43
1.0
176
     1
 76
     1
176
     1
 77
     6
176
     1
 78
     2
176
     1
 67
     7
176
     1
 79
     3
176
     1
170
     0
176
     1
171
     0
176
     1
290
     0
176
     1
 93
        1
176
     1
 44
0.0
176
     1
173
     0
176
     1
  0
VISUALSTYLE
  5
30
102
{ACAD_REACTORS
330
2A
102
}
330
2A
100
AcDbVisualStyle
  2
3dWireframe
 70
     5
177
     2
291
     0
 71
     0
176
     1
 72
     2
176
     1
 73
     0
176
     1
 90
        0
176
     1
 40
-0.6
176
     1
 41
-30.0
176
     1
 62
     5
 63
     7
421
 16777215
176
     1
 74
     1
176
     1
 91
        4
176
     1
 64
     7
176
     1
 65
   257
176
     1
 75
     1
176
     1
175
     1
176
     1
 42
1.0
176
     1
 92
        0
176
     1
 66
   257
176
     1
 43
1.0
176
     1
 76
     1
176
     1
 77
     6
176
     1
 78
     2
176
     1
 67
     7
176
     1
 79
     5
176
     1
170
     0
176
     1
171
     0
176
     1
290
     0
176
     1
 93
        1
176
     1
 44
0.0
176
     1
173
     0
176
     1
  0
VISUALSTYLE
  5
32
102
{ACAD_REACTORS
330
2A
102
}
330
2A
100
AcDbVisualStyle
  2
Basic
 70
     7
177
     2
291
     1
 71
     1
176
     1
 72
     0
176
     1
 73
     1
176
     1
 90
        0
176
     1
 40
-0.6
176
     1
 41
-30.0
176
     1
 62
     5
 63
     7
421
 16777215
176
     1
 74
     0
176
     1
 91
        4
176
     1
 64
     7
176
     1
 65
   257
176
     1
 75
     1
176
     1
175
     1
176
     1
 42
1.0
176
     1
 92
        8
176
     1
 66
     7
176
     1
 43
1.0
176
     1
 76
     1
176
     1
 77
     6
176
     1
 78
     2
176
     1
 67
     7
176
     1
 79
     5
176
     1
170
     0
176
     1
171
     0
176
     1
290
     0
176
     1
 93
        1
176
     1
 44
0.0
176
     1
173
     0
176
     1
  0
VISUALSTYLE
  5
36
102
{ACAD_REACTORS
330
2A
102
}
330
2A
100
AcDbVisualStyle
  2
Brighten
 70
    12
177
     2
291
     1
 71
     2
176
     1
 72
     2
176
     1
 73
     0
176
     1
 90
        0
176
     1
 40
-0.6
176
     1
 41
-30.0
176
     1
 62
     5
 63
     7
421
 16777215
176
     1
 74
     1
176
     1
 91
        4
176
     1
 64
     7
176
     1
 65
   257
176
     1
 75
     1
176
     1
175
     1
176
     1
 42
1.0
176
     1
 92
        8
176
     1
 66
     7
176
     1
 43
1.0
176
     1
 76
     1
176
     1
 77
     6
176
     1
 78
     2
176
     1
 67
     7
176
     1
 79
     5
176
     1
170
     0
176
     1
171
     0
176
     1
290
     0
176
     1
 93
        1
176
     1
 44
50.0
176
     1
173
     0
176
     1
  0
VISUALSTYLE
  5
3A
102
{ACAD_REACTORS
330
2A
102
}
330
2A
100
AcDbVisualStyle
  2
ColorChange
 70
    16
177
     2
291
     1
 71
     2
176
     1
 72
     2
176
     1
 73
     3
176
     1
 90
        0
176
     1
 40
-0.6
176
     1
 41
-30.0
176
     1
 62
     5
 63
     8
421
  8421504
176
     1
 74
     1
176
     1
 91
        4
176
     1
 64
     7
176
     1
 65
   257
176
     1
 75
     1
176
     1
175
     1
176
     1
 42
1.0
176
     1
 92
        8
176
     1
 66
     8
424
  8421504
176
     1
 43
1.0
176
     1
 76
     1
176
     1
 77
     6
176
     1
 78
     2
176
     1
 67
     7
176
     1
 79
     5
176
     1
170
     0
176
     1
171
     0
176
     1
290
     0
176
     1
 93
        1
176
     1
 44
0.0
176
     1
173
     0
176
     1
  0
VISUALSTYLE
  5
34
102
{ACAD_REACTORS
330
2A
102
}
330
2A
100
AcDbVisualStyle
  2
Conceptual
 70
     9
177
     2
291
     0
 71
     3
176
     1
 72
     2
176
     1
 73
     0
176
     1
 90
        0
176
     1
 40
-0.6
176
     1
 41
-30.0
176
     1
 62
     5
 63
     7
421
 16777215
176
     1
 74
     2
176
     1
 91
        2
176
     1
 64
     7
176
     1
 65
   257
176
     1
 75
     1
176
     1
175
     1
176
     1
 42
40.0
176
     1
 92
        8
176
     1
 66
     7
176
     1
 43
1.0
176
     1
 76
     1
176
     1
 77
     6
176
     1
 78
     2
176
     1
 67
     7
176
     1
 79
     3
176
     1
170
     0
176
     1
171
     0
176
     1
290
     0
176
     1
 93
        1
176
     1
 44
0.0
176
     1
173
     0
176
     1
  0
VISUALSTYLE
  5
35
102
{ACAD_REACTORS
330
2A
102
}
330
2A
100
AcDbVisualStyle
  2
Dim
 70
    11
177
     2
291
     1
 71
     2
176
     1
 72
     2
176
     1
 73
     0
176
     1
 90
        0
176
     1
 40
-0.6
176
     1
 41
-30.0
176
     1
 62
     5
 63
     7
421
 16777215
176
     1
 74
     1
176
     1
 91
        4
176
     1
 64
     7
176
     1
 65
   257
176
     1
 75
     1
176
     1
175
     1
176
     1
 42
1.0
176
     1
 92
        8
176
     1
 66
     7
176
     1
 43
1.0
176
     1
 76
     1
176
     1
 77
     6
176
     1
 78
     2
176
     1
 67
     7
176
     1
 79
     5
176
     1
170
     0
176
     1
171
     0
176
     1
290
     0
176
     1
 93
        1
176
     1
 44
-50.0
176
     1
173
     0
176
     1
  0
VISUALSTYLE
  5
39
102
{ACAD_REACTORS
330
2A
102
}
330
2A
100
AcDbVisualStyle
  2
Facepattern
 70
    15
177
     2
291
     1
 71
     2
176
     1
 72
     2
176
     1
 73
     0
176
     1
 90
        0
176
     1
 40
-0.6
176
     1
 41
-30.0
176
     1
 62
     5
 63
     7
421
 16777215
176
     1
 74
     1
176
     1
 91
        4
176
     1
 64
     7
176
     1
 65
   257
176
     1
 75
     1
176
     1
175
     1
176
     1
 42
1.0
176
     1
 92
        8
176
     1
 66
     7
176
     1
 43
1.0
176
     1
 76
     1
176
     1
 77
     6
176
     1
 78
     2
176
     1
 67
     7
176
     1
 79
     5
176
     1
170
     0
176
     1
171
     0
176
     1
290
     0
176
     1
 93
        1
176
     1
 44
0.0
176
     1
173
     0
176
     1
  0
VISUALSTYLE
  5
2B
102
{ACAD_REACTORS
330
2A
102
}
330
2A
100
AcDbVisualStyle
  2
Flat
 70
     0
177
     2
291
     1
 71
     2
176
     1
 72
     1
176
     1
 73
     1
176
     1
 90
        2
176
     1
 40
-0.6
176
     1
 41
30.0
176
     1
 62
     5
 63
     7
421
 16777215
176
     1
 74
     0
176
     1
 91
        4
176
     1
 64
     7
176
     1
 65
   257
176
     1
 75
     1
176
     1
175
     1
176
     1
 42
1.0
176
     1
 92
        8
176
     1
 66
     7
176
     1
 43
1.0
176
     1
 76
     1
176
     1
 77
     6
176
     1
 78
     2
176
     1
 67
     7
176
     1
 79
     5
176
     1
170
     0
176
     1
171
     0
176
     1
290
     0
176
     1
 93
       13
176
     1
 44
0.0
176
     1
173
     0
176
     1
  0
VISUALSTYLE
  5
2C
102
{ACAD_REACTORS
330
2A
102
}
330
2A
100
AcDbVisualStyle
  2
FlatWithEdges
 70
     1
177
     2
291
     1
 71
     2
176
     1
 72
     1
176
     1
 73
     1
176
     1
 90
        2
176
     1
 40
-0.6
176
     1
 41
30.0
176
     1
 62
     5
 63
     7
421
 16777215
176
     1
 74
     1
176
     1
 91
        4
176
     1
 64
     7
176
     1
 65
   257
176
     1
 75
     1
176
     1
175
     1
176
     1
 42
1.0
176
     1
 92
        0
176
     1
 66
   257
176
     1
 43
1.0
176
     1
 76
     1
176
     1
 77
     6
176
     1
 78
     2
176
     1
 67
     7
176
     1
 79
     5
176
     1
170
     0
176
     1
171
     0
176
     1
290
     0
176
     1
 93
       13
176
     1
 44
0.0
176
     1
173
     0
176
     1
  0
VISUALSTYLE
  5
2D
102
{ACAD_REACTORS
330
2A
102
}
330
2A
100
AcDbVisualStyle
  2
Gouraud
 70
     2
177
     2
291
     1
 71
     2
176
     1
 72
     2
176
     1
 73
     1
176
     1
 90
        2
176
     1
 40
-0.6
176
     1
 41
30.0
176
     1
 62
     5
 63
     7
421
 16777215
176
     1
 74
     0
176
     1
 91
        4
176
     1
 64
     7
176
     1
 65
   257
176
     1
 75
     1
176
     1
175
     1
176
     1
 42
1.0
176
     1
 92
        0
176
     1
 66
     7
176
     1
 43
1.0
176
     1
 76
     1
176
     1
 77
     6
176
     1
 78
     2
176
     1
 67
     7
176
     1
 79
     5
176
     1
170
     0
176
     1
171
     0
176
     1
290
     0
176
     1
 93
       13
176
     1
 44
0.0
176
     1
173
     0
176
     1
  0
VISUALSTYLE
  5
2E
102
{ACAD_REACTORS
330
2A
102
}
330
2A
100
AcDbVisualStyle
  2
GouraudWithEdges
 70
     3
177
     2
291
     1
 71
     2
176
     1
 72
     2
176
     1
 73
     1
176
     1
 90
        2
176
     1
 40
-0.6
176
     1
 41
30.0
176
     1
 62
     5
 63
     7
421
 16777215
176
     1
 74
     1
176
     1
 91
        4
176
     1
 64
     7
176
     1
 65
   257
176
     1
 75
     1
176
     1
175
     1
176
     1
 42
1.0
176
     1
 92
        0
176
     1
 66
   257
176
     1
 43
1.0
176
     1
 76
     1
176
     1
 77
     6
176
     1
 78
     2
176
     1
 67
     7
176
     1
 79
     5
176
     1
170
     0
176
     1
171
     0
176
     1
290
     0
176
     1
 93
       13
176
     1
 44
0.0
176
     1
173
     0
176
     1
  0
VISUALSTYLE
  5
38
102
{ACAD_REACTORS
330
2A
102
}
330
2A
100
AcDbVisualStyle
  2
Linepattern
 70
    14
177
     2
291
     1
 71
     2
176
     1
 72
     2
176
     1
 73
     0
176
     1
 90
        0
176
     1
 40
-0.6
176
     1
 41
-30.0
176
     1
 62
     5
 63
     7
421
 16777215
176
     1
 74
     1
176
     1
 91
        4
176
     1
 64
     7
176
     1
 65
   257
176
     1
 75
     7
176
     1
175
     7
176
     1
 42
1.0
176
     1
 92
        8
176
     1
 66
     7
176
     1
 43
1.0
176
     1
 76
     1
176
     1
 77
     6
176
     1
 78
     2
176
     1
 67
     7
176
     1
 79
     5
176
     1
170
     0
176
     1
171
     0
176
     1
290
     0
176
     1
 93
        1
176
     1
 44
0.0
176
     1
173
     0
176
     1
  0
VISUALSTYLE
  5
33
102
{ACAD_REACTORS
330
2A
102
}
330
2A
100
AcDbVisualStyle
  2
Realistic
 70
     8
177
     2
291
     0
 71
     2
176
     1
 72
     2
176
     1
 73
     0
176
     1
 90
        0
176
     1
 40
-0.6
176
     1
 41
-30.0
176
     1
 62
     5
 63
     7
421
 16777215
176
     1
 74
     1
176
     1
 91
        0
176
     1
 64
     7
176
     1
 65
   257
176
     1
 75
     1
176
     1
175
     1
176
     1
 42
1.0
176
     1
 92
        8
176
     1
 66
     8
424
  7895160
176
     1
 43
1.0
176
     1
 76
     1
176
     1
 77
     6
176
     1
 78
     2
176
     1
 67
     7
176
     1
 79
     5
176
     1
170
     0
176
     1
171
     0
176
     1
290
     0
176
     1
 93
       13
176
     1
 44
0.0
176
     1
173
     0
176
     1
  0
VISUALSTYLE
  5
37
102
{ACAD_REACTORS
330
2A
102
}
330
2A
100
AcDbVisualStyle
  2
Thicken
 70
    13
177
     2
291
     1
 71
     2
176
     1
 72
     2
176
     1
 73
     0
176
     1
 90
        0
176
     1
 40
-0.6
176
     1
 41
-30.0
176
     1
 62
     5
 63
     7
421
 16777215
176
     1
 74
     1
176
     1
 91
        4
176
     1
 64
     7
176
     1
 65
   257
176
     1
 75
     1
176
     1
175
     1
176
     1
 42
1.0
176
     1
 92
       12
176
     1
 66
     7
176
     1
 43
1.0
176
     1
 76
     1
176
     1
 77
     6
176
     1
 78
     2
176
     1
 67
     7
176
     1
 79
     5
176
     1
170
     0
176
     1
171
     0
176
     1
290
     0
176
     1
 93
        1
176
     1
 44
0.0
176
     1
173
     0
176
     1
  0
ENDSEC
  0
EOF
