  0
SECTION
  2
HEADER
  9
$ACADVER
  1
AC1024
  9
$ACADMAINTVER
 70
     6
  9
$DWGCODEPAGE
  3
UNDEFINED
  9
$INSBASE
 10
0.0
 20
0.0
 30
0.0
  9
$EXTMIN
 10
1.000000000000000E+20
 20
1.000000000000000E+20
 30
1.000000000000000E+20
  9
$EXTMAX
 10
-1.000000000000000E+20
 20
-1.000000000000000E+20
 30
-1.000000000000000E+20
  9
$LIMMIN
 10
0.0
 20
0.0
  9
$LIMMAX
 10
12.0
 20
9.0
  9
$ORTHOMODE
 70
     0
  9
$REGENMODE
 70
     1
  9
$FILLMODE
 70
     1
  9
$QTEXTMODE
 70
     0
  9
$MIRRTEXT
 70
     1
  9
$LTSCALE
 40
1.0
  9
$ATTMODE
 70
     1
  9
$TEXTSIZE
 40
0.2
  9
$TRACEWID
 40
0.05
  9
$TEXTSTYLE
  7
Standard
  9
$CLAYER
  8
0
  9
$CELTYPE
  6
ByLayer
  9
$CECOLOR
 62
   256
  9
$CELTSCALE
 40
1.0
  9
$DISPSILH
 70
     0
  9
$DIMSCALE
 40
1.0
  9
$DIMASZ
 40
0.18
  9
$DIMEXO
 40
0.0625
  9
$DIMDLI
 40
0.38
  9
$DIMRND
 40
0.0
  9
$DIMDLE
 40
0.0
  9
$DIMEXE
 40
0.18
  9
$DIMTP
 40
0.0
  9
$DIMTM
 40
0.0
  9
$DIMTXT
 40
0.18
  9
$DIMCEN
 40
0.09
  9
$DIMTSZ
 40
0.0
  9
$DIMTOL
 70
     0
  9
$DIMLIM
 70
     0
  9
$DIMTIH
 70
     1
  9
$DIMTOH
 70
     1
  9
$DIMSE1
 70
     0
  9
$DIMSE2
 70
     0
  9
$DIMTAD
 70
     0
  9
$DIMZIN
 70
     0
  9
$DIMBLK
  1

  9
$DIMASO
 70
     1
  9
$DIMSHO
 70
     1
  9
$DIMPOST
  1

  9
$DIMAPOST
  1

  9
$DIMALT
 70
     0
  9
$DIMALTD
 70
     2
  9
$DIMALTF
 40
25.4
  9
$DIMLFAC
 40
1.0
  9
$DIMTOFL
 70
     0
  9
$DIMTVP
 40
0.0
  9
$DIMTIX
 70
     0
  9
$DIMSOXD
 70
     0
  9
$DIMSAH
 70
     0
  9
$DIMBLK1
  1

  9
$DIMBLK2
  1

  9
$DIMSTYLE
  2
Standard
  9
$DIMCLRD
 70
     0
  9
$DIMCLRE
 70
     0
  9
$DIMCLRT
 70
     0
  9
$DIMTFAC
 40
1.0
  9
$DIMGAP
 40
0.09
  9
$DIMJUST
 70
     0
  9
$DIMSD1
 70
     0
  9
$DIMSD2
 70
     0
  9
$DIMTOLJ
 70
     1
  9
$DIMTZIN
 70
     0
  9
$DIMALTZ
 70
     0
  9
$DIMALTTZ
 70
     0
  9
$DIMUPT
 70
     0
  9
$DIMDEC
 70
     4
  9
$DIMTDEC
 70
     4
  9
$DIMALTU
 70
     2
  9
$DIMALTTD
 70
     2
  9
$DIMTXSTY
  7
Standard
  9
$DIMAUNIT
 70
     0
  9
$DIMADEC
 70
     0
  9
$DIMALTRND
 40
0.0
  9
$DIMAZIN
 70
     0
  9
$DIMDSEP
 70
    46
  9
$DIMATFIT
 70
     3
  9
$DIMFRAC
 70
     0
  9
$DIMLDRBLK
  1

  9
$DIMLUNIT
 70
     2
  9
$DIMLWD
 70
    -2
  9
$DIMLWE
 70
    -2
  9
$DIMTMOVE
 70
     0
  9
$DIMFXL
 40
1.0
  9
$DIMFXLON
 70
     0
  9
$DIMJOGANG
 40
0.7853981633974483
  9
$DIMTFILL
 70
     0
  9
$DIMTFILLCLR
 70
     0
  9
$DIMARCSYM
 70
     0
  9
$DIMLTYPE
  6

  9
$DIMLTEX1
  6

  9
$DIMLTEX2
  6

  9
$DIMTXTDIRECTION
 70
     0
  9
$LUNITS
 70
     2
  9
$LUPREC
 70
     4
  9
$SKETCHINC
 40
0.1
  9
$FILLETRAD
 40
0.5
  9
$AUNITS
 70
     0
  9
$AUPREC
 70
     0
  9
$MENU
  1
.
  9
$ELEVATION
 40
0.0
  9
$PELEVATION
 40
0.0
  9
$THICKNESS
 40
0.0
  9
$LIMCHECK
 70
     0
  9
$CHAMFERA
 40
0.5
  9
$CHAMFERB
 40
0.5
  9
$CHAMFERC
 40
1.0
  9
$CHAMFERD
 40
0.0
  9
$SKPOLY
 70
     0
  9
$TDCREATE
 40
2457917.63125
  9
$TDUCREATE
 40
2457917.25625
  9
$TDUPDATE
 40
2457917.63125
  9
$TDUUPDATE
 40
2457917.25625
  9
$TDINDWG
 40
0.0000000116
  9
$TDUSRTIMER
 40
0.0000000116
  9
$USRTIMER
 70
     1
  9
$ANGBASE
 50
0.0
  9
$ANGDIR
 70
     0
  9
$PDMODE
 70
     0
  9
$PDSIZE
 40
0.0
  9
$PLINEWID
 40
0.0
  9
$SPLFRAME
 70
     0
  9
$SPLINETYPE
 70
     6
  9
$SPLINESEGS
 70
     8
  9
$HANDSEED
  5
E2
  9
$SURFTAB1
 70
     6
  9
$SURFTAB2
 70
     6
  9
$SURFTYPE
 70
     6
  9
$SURFU
 70
     6
  9
$SURFV
 70
     6
  9
$UCSBASE
  2

  9
$UCSNAME
  2

  9
$UCSORG
 10
0.0
 20
0.0
 30
0.0
  9
$UCSXDIR
 10
1.0
 20
0.0
 30
0.0
  9
$UCSYDIR
 10
0.0
 20
1.0
 30
0.0
  9
$UCSORTHOREF
  2

  9
$UCSORTHOVIEW
 70
     0
  9
$UCSORGTOP
 10
0.0
 20
0.0
 30
0.0
  9
$UCSORGBOTTOM
 10
0.0
 20
0.0
 30
0.0
  9
$UCSORGLEFT
 10
0.0
 20
0.0
 30
0.0
  9
$UCSORGRIGHT
 10
0.0
 20
0.0
 30
0.0
  9
$UCSORGFRONT
 10
0.0
 20
0.0
 30
0.0
  9
$UCSORGBACK
 10
0.0
 20
0.0
 30
0.0
  9
$PUCSBASE
  2

  9
$PUCSNAME
  2

  9
$PUCSORG
 10
0.0
 20
0.0
 30
0.0
  9
$PUCSXDIR
 10
1.0
 20
0.0
 30
0.0
  9
$PUCSYDIR
 10
0.0
 20
1.0
 30
0.0
  9
$PUCSORTHOREF
  2

  9
$PUCSORTHOVIEW
 70
     0
  9
$PUCSORGTOP
 10
0.0
 20
0.0
 30
0.0
  9
$PUCSORGBOTTOM
 10
0.0
 20
0.0
 30
0.0
  9
$PUCSORGLEFT
 10
0.0
 20
0.0
 30
0.0
  9
$PUCSORGRIGHT
 10
0.0
 20
0.0
 30
0.0
  9
$PUCSORGFRONT
 10
0.0
 20
0.0
 30
0.0
  9
$PUCSORGBACK
 10
0.0
 20
0.0
 30
0.0
  9
$USERI1
 70
     0
  9
$USERI2
 70
     0
  9
$USERI3
 70
     0
  9
$USERI4
 70
     0
  9
$USERI5
 70
     0
  9
$USERR1
 40
0.0
  9
$USERR2
 40
0.0
  9
$USERR3
 40
0.0
  9
$USERR4
 40
0.0
  9
$USERR5
 40
0.0
  9
$WORLDVIEW
 70
     1
  9
$SHADEDGE
 70
     3
  9
$SHADEDIF
 70
    70
  9
$TILEMODE
 70
     1
  9
$MAXACTVP
 70
    64
  9
$PINSBASE
 10
0.0
 20
0.0
 30
0.0
  9
$PLIMCHECK
 70
     0
  9
$PEXTMIN
 10
1.000000000000000E+20
 20
1.000000000000000E+20
 30
1.000000000000000E+20
  9
$PEXTMAX
 10
-1.000000000000000E+20
 20
-1.000000000000000E+20
 30
-1.000000000000000E+20
  9
$PLIMMIN
 10
0.0
 20
0.0
  9
$PLIMMAX
 10
12.0
 20
9.0
  9
$UNITMODE
 70
     0
  9
$VISRETAIN
 70
     1
  9
$PLINEGEN
 70
     0
  9
$PSLTSCALE
 70
     1
  9
$TREEDEPTH
 70
  3020
  9
$CMLSTYLE
  2
Standard
  9
$CMLJUST
 70
     0
  9
$CMLSCALE
 40
1.0
  9
$PROXYGRAPHICS
 70
     1
  9
$MEASUREMENT
 70
     0
  9
$CELWEIGHT
370
    -1
  9
$ENDCAPS
280
     0
  9
$JOINSTYLE
280
     0
  9
$LWDISPLAY
290
     1
  9
$INSUNITS
 70
     1
  9
$HYPERLINKBASE
  1

  9
$STYLESHEET
  1

  9
$XEDIT
290
     1
  9
$CEPSNTYPE
380
     0
  9
$PSTYLEMODE
290
     1
  9
$FINGERPRINTGUID
  2
{2A5128DA-5481-D4D5-36D8-8528FF22DCD3}
  9
$VERSIONGUID
  2
{FAEB1C32-E019-11D5-929B-00C0DF256EC4}
  9
$EXTNAMES
290
     1
  9
$PSVPSCALE
 40
0.0
  9
$OLESTARTUP
290
     0
  9
$SORTENTS
280
   127
  9
$INDEXCTL
280
     0
  9
$HIDETEXT
280
     1
  9
$XCLIPFRAME
280
     2
  9
$HALOGAP
280
     0
  9
$OBSCOLOR
 70
   257
  9
$OBSLTYPE
280
     0
  9
$INTERSECTIONDISPLAY
280
     0
  9
$INTERSECTIONCOLOR
 70
   257
  9
$DIMASSOC
280
     2
  9
$PROJECTNAME
  1

  9
$CAMERADISPLAY
290
     0
  9
$LENSLENGTH
 40
50.0
  9
$CAMERAHEIGHT
 40
0.0
  9
$STEPSPERSEC
 40
2.0
  9
$STEPSIZE
 40
6.0
  9
$3DDWFPREC
 40
2.0
  9
$PSOLWIDTH
 40
0.25
  9
$PSOLHEIGHT
 40
4.0
  9
$LOFTANG1
 40
1.570796326794897
  9
$LOFTANG2
 40
1.570796326794897
  9
$LOFTMAG1
 40
0.0
  9
$LOFTMAG2
 40
0.0
  9
$LOFTPARAM
 70
     7
  9
$LOFTNORMALS
280
     1
  9
$LATITUDE
 40
37.795
  9
$LONGITUDE
 40
-122.394
  9
$NORTHDIRECTION
 40
0.0
  9
$TIMEZONE
 70
 -8000
  9
$LIGHTGLYPHDISPLAY
280
     1
  9
$TILEMODELIGHTSYNCH
280
     1
  9
$CMATERIAL
347
3C
  9
$SOLIDHIST
280
     1
  9
$SHOWHIST
280
     1
  9
$DWFFRAME
280
     2
  9
$DGNFRAME
280
     2
  9
$REALWORLDSCALE
290
     1
  9
$INTERFERECOLOR
 62
   256
  9
$CSHADOW
280
     0
  9
$SHADOWPLANELOCATION
 40
0.0
  0
ENDSEC
  0
SECTION
  2
CLASSES
  0
CLASS
  1
ACDBDICTIONARYWDFLT
  2
AcDbDictionaryWithDefault
  3
ObjectDBX Classes
 90
        0
 91
        4
280
     0
281
     0
  0
CLASS
  1
VISUALSTYLE
  2
AcDbVisualStyle
  3
ObjectDBX Classes
 90
     4095
 91
        4
280
     0
281
     0
  0
CLASS
  1
MATERIAL
  2
AcDbMaterial
  3
ObjectDBX Classes
 90
     1153
 91
        4
280
     0
281
     0
  0
CLASS
  1
SUN
  2
AcDbSun
  3
SCENEOE
 90
     1024
 91
        4
280
     0
281
     0
  0
ENDSEC
  0
SECTION
  2
TABLES
  0
TABLE
  2
VPORT
  5
8
330
0
100
AcDbSymbolTable
 70
     1
  0
VPORT
  5
29
330
8
100
AcDbSymbolTableRecord
100
AcDbViewportTableRecord
  2
*Active
 70
     0
 10
0.0
 20
0.0
 11
1.0
 21
1.0
 12
0.0
 22
0.0
 13
0.0
 23
0.0
 14
0.5
 24
0.5
 15
0.5
 25
0.5
 16
0.0
 26
0.0
 36
1.0
 17
91.00082462281999
 27
-128.4993055234307
 37
0.0
 40
256.9986110468615
 41
0.7081814508812795
 42
50.0
 43
0.0
 44
0.0
 50
0.0
 51
0.0
 71
     0
 72
   100
 73
     1
 74
     3
 75
     0
 76
     0
 77
     0
 78
     0
281
     0
 65
     1
110
0.0
120
0.0
130
0.0
111
1.0
121
0.0
131
0.0
112
0.0
122
1.0
132
0.0
 79
     0
146
0.0
 60
     3
 61
     5
292
     1
282
     1
141
0.0
142
0.0
 63
   250
361
3F
  0
ENDTAB
  0
TABLE
  2
LTYPE
  5
5
330
0
100
AcDbSymbolTable
 70
     1
  0
LTYPE
  5
14
330
5
100
AcDbSymbolTableRecord
100
AcDbLinetypeTableRecord
  2
ByBlock
 70
     0
  3

 72
    65
 73
     0
 40
0.0
  0
LTYPE
  5
15
330
5
100
AcDbSymbolTableRecord
100
AcDbLinetypeTableRecord
  2
ByLayer
 70
     0
  3

 72
    65
 73
     0
 40
0.0
  0
LTYPE
  5
16
330
5
100
AcDbSymbolTableRecord
100
AcDbLinetypeTableRecord
  2
Continuous
 70
     0
  3
Solid line
 72
    65
 73
     0
 40
0.0
  0
ENDTAB
  0
TABLE
  2
LAYER
  5
2
330
0
100
AcDbSymbolTable
 70
     2
  0
LAYER
  5
10
330
2
100
AcDbSymbolTableRecord
100
AcDbLayerTableRecord
  2
0
 70
     0
 62
     7
  6
Continuous
370
    -3
390
F
347
3E
  0
LAYER
  5
40
330
2
100
AcDbSymbolTableRecord
100
AcDbLayerTableRecord
  2
_U+30EC_U+30A4_U+30E4_U+30FC 1
 70
     0
 62
     7
  6
Continuous
370
    -3
390
F
347
3E
  0
ENDTAB
  0
TABLE
  2
STYLE
  5
3
330
0
100
AcDbSymbolTable
 70
     1
  0
STYLE
  5
11
330
3
100
AcDbSymbolTableRecord
100
AcDbTextStyleTableRecord
  2
Standard
 70
     0
 40
0.0
 41
1.0
 50
0.0
 71
     0
 42
0.2
  3
txt
  4

  0
ENDTAB
  0
TABLE
  2
VIEW
  5
6
330
0
100
AcDbSymbolTable
 70
     0
  0
ENDTAB
  0
TABLE
  2
UCS
  5
7
330
0
100
AcDbSymbolTable
 70
     0
  0
ENDTAB
  0
TABLE
  2
APPID
  5
9
330
0
100
AcDbSymbolTable
 70
     1
  0
APPID
  5
12
330
9
100
AcDbSymbolTableRecord
100
AcDbRegAppTableRecord
  2
ACAD
 70
     0
  0
ENDTAB
  0
TABLE
  2
DIMSTYLE
  5
A
330
0
100
AcDbSymbolTable
 70
     1
100
AcDbDimStyleTable
  0
DIMSTYLE
105
27
330
A
100
AcDbSymbolTableRecord
100
AcDbDimStyleTableRecord
  2
Standard
 70
     0
178
     0
340
11
  0
ENDTAB
  0
TABLE
  2
BLOCK_RECORD
  5
1
330
0
100
AcDbSymbolTable
 70
     5
  0
BLOCK_RECORD
  5
1F
330
1
100
AcDbSymbolTableRecord
100
AcDbBlockTableRecord
  2
*Model_Space
340
22
 70
     0
280
     1
281
     0
  0
BLOCK_RECORD
  5
1B
330
1
100
AcDbSymbolTableRecord
100
AcDbBlockTableRecord
  2
*Paper_Space
340
1E
 70
     0
280
     1
281
     0
  0
BLOCK_RECORD
  5
23
330
1
100
AcDbSymbolTableRecord
100
AcDbBlockTableRecord
  2
*Paper_Space0
340
26
 70
     0
280
     1
281
     0
  0
BLOCK_RECORD
  5
8A
330
1
100
AcDbSymbolTableRecord
100
AcDbBlockTableRecord
  2
block 2
340
0
102
{BLKREFS
331
8B
102
}
 70
     0
280
     1
281
     0
  0
BLOCK_RECORD
  5
9F
330
1
100
AcDbSymbolTableRecord
100
AcDbBlockTableRecord
  2
block 3
340
0
102
{BLKREFS
331
A0
102
}
 70
     0
280
     1
281
     0
  0
BLOCK_RECORD
  5
BA
330
1
100
AcDbSymbolTableRecord
100
AcDbBlockTableRecord
  2
block 4
340
0
102
{BLKREFS
331
BB
102
}
 70
     0
280
     1
281
     0
  0
BLOCK_RECORD
  5
C2
330
1
100
AcDbSymbolTableRecord
100
AcDbBlockTableRecord
  2
block 5
340
0
102
{BLKREFS
331
C3
102
}
 70
     0
280
     1
281
     0
  0
ENDTAB
  0
ENDSEC
  0
SECTION
  2
BLOCKS
  0
BLOCK
  5
20
330
1F
100
AcDbEntity
  8
0
100
AcDbBlockBegin
  2
*Model_Space
 70
     0
 10
0.0
 20
0.0
 30
0.0
  3
*Model_Space
  1

  0
ENDBLK
  5
21
330
1F
100
AcDbEntity
  8
0
100
AcDbBlockEnd
  0
BLOCK
  5
1C
330
1B
100
AcDbEntity
 67
     1
  8
0
100
AcDbBlockBegin
  2
*Paper_Space
 70
     0
 10
0.0
 20
0.0
 30
0.0
  3
*Paper_Space
  1

  0
ENDBLK
  5
1D
330
1B
100
AcDbEntity
 67
     1
  8
0
100
AcDbBlockEnd
  0
BLOCK
  5
24
330
23
100
AcDbEntity
  8
0
100
AcDbBlockBegin
  2
*Paper_Space0
 70
     0
 10
0.0
 20
0.0
 30
0.0
  3
*Paper_Space0
  1

  0
ENDBLK
  5
25
330
23
100
AcDbEntity
  8
0
100
AcDbBlockEnd
  0
BLOCK
  5
8C
330
8A
100
AcDbEntity
  8
0
100
AcDbBlockBegin
  2
block 2
 70
     0
 10
0.0
 20
0.0
 30
0.0
  3
block 2
  1

  0
SPLINE
  5
8E
330
8A
100
AcDbEntity
  8
_U+30EC_U+30A4_U+30E4_U+30FC 1
370
     0
100
AcDbSpline
210
0.0
220
0.0
230
1.0
 70
    11
 71
     3
 72
    35
 73
    31
 74
     0
 42
0.0000000001
 43
0.0000000001
 12
1.0
 22
0.0
 32
0.0
 13
1.0
 23
0.0
 33
0.0
 40
0.0
 40
0.0
 40
0.0
 40
0.0
 40
1.0
 40
1.0
 40
1.0
 40
2.0
 40
2.0
 40
2.0
 40
3.0
 40
3.0
 40
3.0
 40
4.0
 40
4.0
 40
4.0
 40
5.0
 40
5.0
 40
5.0
 40
6.0
 40
6.0
 40
6.0
 40
7.0
 40
7.0
 40
7.0
 40
8.0
 40
8.0
 40
8.0
 40
9.0
 40
9.0
 40
9.0
 40
10.0
 40
10.0
 40
10.0
 40
10.0
 10
98.0022867593536
 20
-126.4925374032727
 30
0.0
 10
98.0022867593536
 20
-126.4925374032727
 30
0.0
 10
97.95164385572043
 20
-126.7569484817656
 30
0.0
 10
97.95164385572043
 20
-126.7569484817656
 30
0.0
 10
98.09117022287305
 20
-126.7696953350611
 30
0.0
 10
98.41914331306883
 20
-126.8606458558717
 30
0.0
 10
98.41914331306883
 20
-127.252008702996
 30
0.0
 10
98.41914331306883
 20
-127.7300157015744
 30
0.0
 10
98.01296655535788
 20
-127.8549004129148
 30
0.0
 10
97.73804793563494
 20
-127.8549004129148
 30
0.0
 10
97.73804793563494
 20
-127.8549004129148
 30
0.0
 10
97.67017955457551
 20
-128.2081949549271
 30
0.0
 10
97.67017955457551
 20
-128.2081949549271
 30
0.0
 10
97.67017955457551
 20
-128.2081949549271
 30
0.0
 10
97.46278480636347
 20
-128.2081949549271
 30
0.0
 10
97.46278480636347
 20
-128.2081949549271
 30
0.0
 10
97.46278480636347
 20
-128.2081949549271
 30
0.0
 10
97.5347873020052
 20
-127.8400865023282
 30
0.0
 10
97.5347873020052
 20
-127.8400865023282
 30
0.0
 10
97.42695581331688
 20
-127.820966222385
 30
0.0
 10
97.07590058336991
 20
-127.7596435227476
 30
0.0
 10
97.07590058336991
 20
-127.3429592238066
 30
0.0
 10
97.07590058336991
 20
-126.8944077916271
 30
0.0
 10
97.43108992789918
 20
-126.7442016284702
 30
0.0
 10
97.74631616479954
 20
-126.7442016284702
 30
0.0
 10
97.74631616479954
 20
-126.7442016284702
 30
0.0
 10
97.79489201114156
 20
-126.4925374032727
 30
0.0
 10
97.79489201114156
 20
-126.4925374032727
 30
0.0
 10
97.79489201114156
 20
-126.4925374032727
 30
0.0
 10
98.0022867593536
 20
-126.4925374032727
 30
0.0
 10
98.0022867593536
 20
-126.4925374032727
 30
0.0
  0
SPLINE
  5
8F
330
8A
100
AcDbEntity
  8
_U+30EC_U+30A4_U+30E4_U+30FC 1
370
     0
100
AcDbSpline
210
0.0
220
0.0
230
1.0
 70
    11
 71
     3
 72
    14
 73
    10
 74
     0
 42
0.0000000001
 43
0.0000000001
 12
1.0
 22
0.0
 32
0.0
 13
1.0
 23
0.0
 33
0.0
 40
0.0
 40
0.0
 40
0.0
 40
0.0
 40
1.0
 40
1.0
 40
1.0
 40
2.0
 40
2.0
 40
2.0
 40
3.0
 40
3.0
 40
3.0
 40
3.0
 10
97.71255422904409
 20
-126.9176621861525
 30
0.0
 10
97.59197588706034
 20
-126.9261026700914
 30
0.0
 10
97.29776473262001
 20
-126.9493570646168
 30
0.0
 10
97.29776473262001
 20
-127.3470933383889
 30
0.0
 10
97.29776473262001
 20
-127.4106553500918
 30
0.0
 10
97.29776473262001
 20
-127.6242512701773
 30
0.0
 10
97.56648218046949
 20
-127.668693001937
 30
0.0
 10
97.56648218046949
 20
-127.668693001937
 30
0.0
 10
97.71255422904409
 20
-126.9176621861525
 30
0.0
 10
97.71255422904409
 20
-126.9176621861525
 30
0.0
  0
SPLINE
  5
90
330
8A
100
AcDbEntity
  8
_U+30EC_U+30A4_U+30E4_U+30FC 1
370
     0
100
AcDbSpline
210
0.0
220
0.0
230
1.0
 70
    11
 71
     3
 72
    14
 73
    10
 74
     0
 42
0.0000000001
 43
0.0000000001
 12
1.0
 22
0.0
 32
0.0
 13
1.0
 23
0.0
 33
0.0
 40
0.0
 40
0.0
 40
0.0
 40
0.0
 40
1.0
 40
1.0
 40
1.0
 40
2.0
 40
2.0
 40
2.0
 40
3.0
 40
3.0
 40
3.0
 40
3.0
 10
97.77387692868153
 20
-127.6771334858759
 30
0.0
 10
97.95577797030273
 20
-127.6729993712936
 30
0.0
 10
98.19900171156137
 20
-127.592556391713
 30
0.0
 10
98.19900171156137
 20
-127.2371947924095
 30
0.0
 10
98.19900171156137
 20
-127.1440049595334
 30
0.0
 10
98.18625485826594
 20
-126.9557304912645
 30
0.0
 10
97.9154703531253
 20
-126.9283419821568
 30
0.0
 10
97.9154703531253
 20
-126.9283419821568
 30
0.0
 10
97.77387692868153
 20
-127.6771334858759
 30
0.0
 10
97.77387692868153
 20
-127.6771334858759
 30
0.0
  0
HATCH
  5
91
330
8A
100
AcDbEntity
  8
_U+30EC_U+30A4_U+30E4_U+30FC 1
 62
   179
420
  2234388
100
AcDbHatch
 10
0.0
 20
0.0
 30
0.0
210
0.0
220
0.0
230
1.0
  2
SOLID
 70
     1
 71
     0
 91
        3
 92
        1
 93
        1
 72
     4
 94
        3
 73
     0
 74
     1
 95
       35
 96
       31
 40
0.0
 40
0.0
 40
0.0
 40
0.0
 40
1.0
 40
1.0
 40
1.0
 40
2.0
 40
2.0
 40
2.0
 40
3.0
 40
3.0
 40
3.0
 40
4.0
 40
4.0
 40
4.0
 40
5.0
 40
5.0
 40
5.0
 40
6.0
 40
6.0
 40
6.0
 40
7.0
 40
7.0
 40
7.0
 40
8.0
 40
8.0
 40
8.0
 40
9.0
 40
9.0
 40
9.0
 40
10.0
 40
10.0
 40
10.0
 40
10.0
 10
98.0022867593536
 20
-126.4925374032727
 10
98.0022867593536
 20
-126.4925374032727
 10
97.95164385572043
 20
-126.7569484817656
 10
97.95164385572043
 20
-126.7569484817656
 10
98.09117022287305
 20
-126.7696953350611
 10
98.41914331306883
 20
-126.8606458558717
 10
98.41914331306883
 20
-127.252008702996
 10
98.41914331306883
 20
-127.7300157015744
 10
98.01296655535788
 20
-127.8549004129148
 10
97.73804793563494
 20
-127.8549004129148
 10
97.73804793563494
 20
-127.8549004129148
 10
97.67017955457551
 20
-128.2081949549271
 10
97.67017955457551
 20
-128.2081949549271
 10
97.67017955457551
 20
-128.2081949549271
 10
97.46278480636347
 20
-128.2081949549271
 10
97.46278480636347
 20
-128.2081949549271
 10
97.46278480636347
 20
-128.2081949549271
 10
97.5347873020052
 20
-127.8400865023282
 10
97.5347873020052
 20
-127.8400865023282
 10
97.42695581331688
 20
-127.820966222385
 10
97.07590058336991
 20
-127.7596435227476
 10
97.07590058336991
 20
-127.3429592238066
 10
97.07590058336991
 20
-126.8944077916271
 10
97.43108992789918
 20
-126.7442016284702
 10
97.74631616479954
 20
-126.7442016284702
 10
97.74631616479954
 20
-126.7442016284702
 10
97.79489201114156
 20
-126.4925374032727
 10
97.79489201114156
 20
-126.4925374032727
 10
97.79489201114156
 20
-126.4925374032727
 10
98.0022867593536
 20
-126.4925374032727
 10
98.0022867593536
 20
-126.4925374032727
 97
        0
 97
        0
 92
        1
 93
        1
 72
     4
 94
        3
 73
     0
 74
     1
 95
       14
 96
       10
 40
0.0
 40
0.0
 40
0.0
 40
0.0
 40
1.0
 40
1.0
 40
1.0
 40
2.0
 40
2.0
 40
2.0
 40
3.0
 40
3.0
 40
3.0
 40
3.0
 10
97.71255422904409
 20
-126.9176621861525
 10
97.59197588706034
 20
-126.9261026700914
 10
97.29776473262001
 20
-126.9493570646168
 10
97.29776473262001
 20
-127.3470933383889
 10
97.29776473262001
 20
-127.4106553500918
 10
97.29776473262001
 20
-127.6242512701773
 10
97.56648218046949
 20
-127.668693001937
 10
97.56648218046949
 20
-127.668693001937
 10
97.71255422904409
 20
-126.9176621861525
 10
97.71255422904409
 20
-126.9176621861525
 97
        0
 97
        0
 92
        1
 93
        1
 72
     4
 94
        3
 73
     0
 74
     1
 95
       14
 96
       10
 40
0.0
 40
0.0
 40
0.0
 40
0.0
 40
1.0
 40
1.0
 40
1.0
 40
2.0
 40
2.0
 40
2.0
 40
3.0
 40
3.0
 40
3.0
 40
3.0
 10
97.77387692868153
 20
-127.6771334858759
 10
97.95577797030273
 20
-127.6729993712936
 10
98.19900171156137
 20
-127.592556391713
 10
98.19900171156137
 20
-127.2371947924095
 10
98.19900171156137
 20
-127.1440049595334
 10
98.18625485826594
 20
-126.9557304912645
 10
97.9154703531253
 20
-126.9283419821568
 10
97.9154703531253
 20
-126.9283419821568
 10
97.77387692868153
 20
-127.6771334858759
 10
97.77387692868153
 20
-127.6771334858759
 97
        0
 97
        0
 75
     2
 76
     1
 98
        0
  0
SPLINE
  5
92
330
8A
100
AcDbEntity
  8
_U+30EC_U+30A4_U+30E4_U+30FC 1
370
     0
100
AcDbSpline
210
0.0
220
0.0
230
1.0
 70
    11
 71
     3
 72
    44
 73
    40
 74
     0
 42
0.0000000001
 43
0.0000000001
 12
1.0
 22
0.0
 32
0.0
 13
1.0
 23
0.0
 33
0.0
 40
0.0
 40
0.0
 40
0.0
 40
0.0
 40
1.0
 40
1.0
 40
1.0
 40
2.0
 40
2.0
 40
2.0
 40
3.0
 40
3.0
 40
3.0
 40
4.0
 40
4.0
 40
4.0
 40
5.0
 40
5.0
 40
5.0
 40
6.0
 40
6.0
 40
6.0
 40
7.0
 40
7.0
 40
7.0
 40
8.0
 40
8.0
 40
8.0
 40
9.0
 40
9.0
 40
9.0
 40
10.0
 40
10.0
 40
10.0
 40
11.0
 40
11.0
 40
11.0
 40
12.0
 40
12.0
 40
12.0
 40
13.0
 40
13.0
 40
13.0
 40
13.0
 10
99.22391761842319
 20
-127.2816365241692
 30
0.0
 10
99.0061875837554
 20
-127.4402831712649
 30
0.0
 10
98.91317000565365
 20
-127.5143527241978
 30
0.0
 10
98.86424964976311
 20
-127.658185460707
 30
0.0
 10
98.86424964976311
 20
-127.658185460707
 30
0.0
 10
99.64284122942958
 20
-127.658185460707
 30
0.0
 10
99.64284122942958
 20
-127.658185460707
 30
0.0
 10
99.64284122942958
 20
-127.658185460707
 30
0.0
 10
99.64284122942958
 20
-127.8633408968536
 30
0.0
 10
99.64284122942958
 20
-127.8633408968536
 30
0.0
 10
99.64284122942958
 20
-127.8633408968536
 30
0.0
 10
98.61482473663102
 20
-127.8633408968536
 30
0.0
 10
98.61482473663102
 20
-127.8633408968536
 30
0.0
 10
98.64651961509531
 20
-127.5057399854847
 30
0.0
 10
98.71197642931507
 20
-127.4275363179695
 30
0.0
 10
99.097138104566
 20
-127.1291910489469
 30
0.0
 10
99.35310869912006
 20
-126.930409039448
 30
0.0
 10
99.41856551333981
 20
-126.8627129131628
 30
0.0
 10
99.41856551333981
 20
-126.7252536033013
 30
0.0
 10
99.41856551333981
 20
-126.6067423186087
 30
0.0
 10
99.34656301769809
 20
-126.475656435395
 30
0.0
 10
99.14984806549032
 20
-126.475656435395
 30
0.0
 10
98.88974335635396
 20
-126.475656435395
 30
0.0
 10
98.88113061764084
 20
-126.7061333233582
 30
0.0
 10
98.87699650305854
 20
-126.8225775507596
 30
0.0
 10
98.87699650305854
 20
-126.8225775507596
 30
0.0
 10
98.65272078696877
 20
-126.8225775507596
 30
0.0
 10
98.65272078696877
 20
-126.8225775507596
 30
0.0
 10
98.6613335256819
 20
-126.6956257821282
 30
0.0
 10
98.67201332168617
 20
-126.5834879240833
 30
0.0
 10
98.75228404649249
 20
-126.4649766393907
 30
0.0
 10
98.86218259247195
 20
-126.3042629350038
 30
0.0
 10
99.04856225822398
 20
-126.2703287444741
 30
0.0
 10
99.1646619760769
 20
-126.2703287444741
 30
0.0
 10
99.44199216263951
 20
-126.2703287444741
 30
0.0
 10
99.64938691085155
 20
-126.4544690981607
 30
0.0
 10
99.64938691085155
 20
-126.7273206605925
 30
0.0
 10
99.64938691085155
 20
-126.9557304912645
 30
0.0
 10
99.5329426834501
 20
-127.0552937507883
 30
0.0
 10
99.22391761842319
 20
-127.2816365241692
 30
0.0
  0
HATCH
  5
93
330
8A
100
AcDbEntity
  8
_U+30EC_U+30A4_U+30E4_U+30FC 1
 62
   179
420
  2234388
100
AcDbHatch
 10
0.0
 20
0.0
 30
0.0
210
0.0
220
0.0
230
1.0
  2
SOLID
 70
     1
 71
     0
 91
        1
 92
        1
 93
        1
 72
     4
 94
        3
 73
     0
 74
     1
 95
       44
 96
       40
 40
0.0
 40
0.0
 40
0.0
 40
0.0
 40
1.0
 40
1.0
 40
1.0
 40
2.0
 40
2.0
 40
2.0
 40
3.0
 40
3.0
 40
3.0
 40
4.0
 40
4.0
 40
4.0
 40
5.0
 40
5.0
 40
5.0
 40
6.0
 40
6.0
 40
6.0
 40
7.0
 40
7.0
 40
7.0
 40
8.0
 40
8.0
 40
8.0
 40
9.0
 40
9.0
 40
9.0
 40
10.0
 40
10.0
 40
10.0
 40
11.0
 40
11.0
 40
11.0
 40
12.0
 40
12.0
 40
12.0
 40
13.0
 40
13.0
 40
13.0
 40
13.0
 10
99.22391761842319
 20
-127.2816365241692
 10
99.0061875837554
 20
-127.4402831712649
 10
98.91317000565365
 20
-127.5143527241978
 10
98.86424964976311
 20
-127.658185460707
 10
98.86424964976311
 20
-127.658185460707
 10
99.64284122942958
 20
-127.658185460707
 10
99.64284122942958
 20
-127.658185460707
 10
99.64284122942958
 20
-127.658185460707
 10
99.64284122942958
 20
-127.8633408968536
 10
99.64284122942958
 20
-127.8633408968536
 10
99.64284122942958
 20
-127.8633408968536
 10
98.61482473663102
 20
-127.8633408968536
 10
98.61482473663102
 20
-127.8633408968536
 10
98.64651961509531
 20
-127.5057399854847
 10
98.71197642931507
 20
-127.4275363179695
 10
99.097138104566
 20
-127.1291910489469
 10
99.35310869912006
 20
-126.930409039448
 10
99.41856551333981
 20
-126.8627129131628
 10
99.41856551333981
 20
-126.7252536033013
 10
99.41856551333981
 20
-126.6067423186087
 10
99.34656301769809
 20
-126.475656435395
 10
99.14984806549032
 20
-126.475656435395
 10
98.88974335635396
 20
-126.475656435395
 10
98.88113061764084
 20
-126.7061333233582
 10
98.87699650305854
 20
-126.8225775507596
 10
98.87699650305854
 20
-126.8225775507596
 10
98.65272078696877
 20
-126.8225775507596
 10
98.65272078696877
 20
-126.8225775507596
 10
98.6613335256819
 20
-126.6956257821282
 10
98.67201332168617
 20
-126.5834879240833
 10
98.75228404649249
 20
-126.4649766393907
 10
98.86218259247195
 20
-126.3042629350038
 10
99.04856225822398
 20
-126.2703287444741
 10
99.1646619760769
 20
-126.2703287444741
 10
99.44199216263951
 20
-126.2703287444741
 10
99.64938691085155
 20
-126.4544690981607
 10
99.64938691085155
 20
-126.7273206605925
 10
99.64938691085155
 20
-126.9557304912645
 10
99.5329426834501
 20
-127.0552937507883
 10
99.22391761842319
 20
-127.2816365241692
 97
        0
 97
        0
 75
     2
 76
     1
 98
        0
  0
POLYLINE
  5
94
330
8A
100
AcDbEntity
  8
_U+30EC_U+30A4_U+30E4_U+30FC 1
370
     0
100
AcDb2dPolyline
 66
     1
 10
0.0
 20
0.0
 30
0.0
  0
VERTEX
  5
95
330
94
100
AcDbEntity
  8
_U+30EC_U+30A4_U+30E4_U+30FC 1
370
     0
100
AcDbVertex
100
AcDb2dVertex
 10
99.86780596461638
 20
-127.8633408968536
 30
0.0
  0
VERTEX
  5
96
330
94
100
AcDbEntity
  8
_U+30EC_U+30A4_U+30E4_U+30FC 1
370
     0
100
AcDbVertex
100
AcDb2dVertex
 10
99.86780596461638
 20
-127.6116766716561
 30
0.0
  0
VERTEX
  5
97
330
94
100
AcDbEntity
  8
_U+30EC_U+30A4_U+30E4_U+30FC 1
370
     0
100
AcDbVertex
100
AcDb2dVertex
 10
100.1196424445882
 20
-127.6116766716561
 30
0.0
  0
VERTEX
  5
98
330
94
100
AcDbEntity
  8
_U+30EC_U+30A4_U+30E4_U+30FC 1
370
     0
100
AcDbVertex
100
AcDb2dVertex
 10
100.1196424445882
 20
-127.8633408968536
 30
0.0
  0
VERTEX
  5
99
330
94
100
AcDbEntity
  8
_U+30EC_U+30A4_U+30E4_U+30FC 1
370
     0
100
AcDbVertex
100
AcDb2dVertex
 10
99.86780596461638
 20
-127.8633408968536
 30
0.0
  0
SEQEND
  5
9A
330
94
100
AcDbEntity
  8
_U+30EC_U+30A4_U+30E4_U+30FC 1
370
     0
  0
HATCH
  5
9B
330
8A
100
AcDbEntity
  8
_U+30EC_U+30A4_U+30E4_U+30FC 1
 62
   179
420
  2234388
100
AcDbHatch
 10
0.0
 20
0.0
 30
0.0
210
0.0
220
0.0
230
1.0
  2
SOLID
 70
     1
 71
     0
 91
        1
 92
        1
 93
        4
 72
     1
 10
99.86780596461638
 20
-127.8633408968536
 11
99.86780596461638
 21
-127.6116766716561
 72
     1
 10
99.86780596461638
 20
-127.6116766716561
 11
100.1196424445882
 21
-127.6116766716561
 72
     1
 10
100.1196424445882
 20
-127.6116766716561
 11
100.1196424445882
 21
-127.8633408968536
 72
     1
 10
100.1196424445882
 20
-127.8633408968536
 11
99.86780596461638
 21
-127.8633408968536
 97
        0
 75
     2
 76
     1
 98
        0
  0
SPLINE
  5
9C
330
8A
100
AcDbEntity
  8
_U+30EC_U+30A4_U+30E4_U+30FC 1
370
     0
100
AcDbSpline
210
0.0
220
0.0
230
1.0
 70
    11
 71
     3
 72
    32
 73
    28
 74
     0
 42
0.0000000001
 43
0.0000000001
 12
1.0
 22
0.0
 32
0.0
 13
1.0
 23
0.0
 33
0.0
 40
0.0
 40
0.0
 40
0.0
 40
0.0
 40
1.0
 40
1.0
 40
1.0
 40
2.0
 40
2.0
 40
2.0
 40
3.0
 40
3.0
 40
3.0
 40
4.0
 40
4.0
 40
4.0
 40
5.0
 40
5.0
 40
5.0
 40
6.0
 40
6.0
 40
6.0
 40
7.0
 40
7.0
 40
7.0
 40
8.0
 40
8.0
 40
8.0
 40
9.0
 40
9.0
 40
9.0
 40
9.0
 10
100.8603379739169
 20
-127.914156055261
 30
0.0
 10
100.3439181606779
 20
-127.914156055261
 30
0.0
 10
100.3356499315133
 20
-127.3598401916844
 30
0.0
 10
100.3356499315133
 20
-127.1462442715989
 30
0.0
 10
100.3356499315133
 20
-126.9155951288614
 30
0.0
 10
100.3545979566822
 20
-126.2682616871829
 30
0.0
 10
100.8982340242546
 20
-126.2682616871829
 30
0.0
 10
101.0718668367112
 20
-126.2682616871829
 30
0.0
 10
101.317157635261
 20
-126.3380248707593
 30
0.0
 10
101.3553981951473
 20
-126.6701320755373
 30
0.0
 10
101.3553981951473
 20
-126.6701320755373
 30
0.0
 10
101.1414577655133
 20
-126.6701320755373
 30
0.0
 10
101.1414577655133
 20
-126.6701320755373
 30
0.0
 10
101.1311224790575
 20
-126.6131157452565
 30
0.0
 10
101.0994276005932
 20
-126.4649766393907
 30
0.0
 10
100.8961669669635
 20
-126.4649766393907
 30
0.0
 10
100.6043673793628
 20
-126.4649766393907
 30
0.0
 10
100.5640597621854
 20
-126.7929497295865
 30
0.0
 10
100.55131290889
 20
-126.9981051657331
 30
0.0
 10
100.6443304869917
 20
-126.919901498218
 30
0.0
 10
100.7121988680511
 20
-126.8606458558717
 30
0.0
 10
100.8940999096723
 20
-126.8606458558717
 30
0.0
 10
101.0739338940024
 20
-126.8606458558717
 30
0.0
 10
101.3764132776073
 20
-126.96847734456
 30
0.0
 10
101.3764132776073
 20
-127.3746541022709
 30
0.0
 10
101.3764132776073
 20
-127.6941867085279
 30
0.0
 10
101.1776312681084
 20
-127.914156055261
 30
0.0
 10
100.8603379739169
 20
-127.914156055261
 30
0.0
  0
SPLINE
  5
9D
330
8A
100
AcDbEntity
  8
_U+30EC_U+30A4_U+30E4_U+30FC 1
370
     0
100
AcDbSpline
210
0.0
220
0.0
230
1.0
 70
    11
 71
     3
 72
    17
 73
    13
 74
     0
 42
0.0000000001
 43
0.0000000001
 12
1.0
 22
0.0
 32
0.0
 13
1.0
 23
0.0
 33
0.0
 40
0.0
 40
0.0
 40
0.0
 40
0.0
 40
1.0
 40
1.0
 40
1.0
 40
2.0
 40
2.0
 40
2.0
 40
3.0
 40
3.0
 40
3.0
 40
4.0
 40
4.0
 40
4.0
 40
4.0
 10
100.8772189417946
 20
-127.0552937507883
 30
0.0
 10
100.6147026658186
 20
-127.0552937507883
 30
0.0
 10
100.5768066154808
 20
-127.2668226135826
 30
0.0
 10
100.5768066154808
 20
-127.3830945862098
 30
0.0
 10
100.5768066154808
 20
-127.5587944559575
 30
0.0
 10
100.6718912508737
 20
-127.7215752176356
 30
0.0
 10
100.855859349786
 20
-127.7215752176356
 30
0.0
 10
100.9764376917698
 20
-127.7215752176356
 30
0.0
 10
101.1521375615175
 20
-127.6623195752893
 30
0.0
 10
101.1521375615175
 20
-127.3767211595621
 30
0.0
 10
101.1521375615175
 20
-127.1526176982466
 30
0.0
 10
101.0126111943649
 20
-127.0552937507883
 30
0.0
 10
100.8772189417946
 20
-127.0552937507883
 30
0.0
  0
HATCH
  5
9E
330
8A
100
AcDbEntity
  8
_U+30EC_U+30A4_U+30E4_U+30FC 1
 62
   179
420
  2234388
100
AcDbHatch
 10
0.0
 20
0.0
 30
0.0
210
0.0
220
0.0
230
1.0
  2
SOLID
 70
     1
 71
     0
 91
        2
 92
        1
 93
        1
 72
     4
 94
        3
 73
     0
 74
     1
 95
       32
 96
       28
 40
0.0
 40
0.0
 40
0.0
 40
0.0
 40
1.0
 40
1.0
 40
1.0
 40
2.0
 40
2.0
 40
2.0
 40
3.0
 40
3.0
 40
3.0
 40
4.0
 40
4.0
 40
4.0
 40
5.0
 40
5.0
 40
5.0
 40
6.0
 40
6.0
 40
6.0
 40
7.0
 40
7.0
 40
7.0
 40
8.0
 40
8.0
 40
8.0
 40
9.0
 40
9.0
 40
9.0
 40
9.0
 10
100.8603379739169
 20
-127.914156055261
 10
100.3439181606779
 20
-127.914156055261
 10
100.3356499315133
 20
-127.3598401916844
 10
100.3356499315133
 20
-127.1462442715989
 10
100.3356499315133
 20
-126.9155951288614
 10
100.3545979566822
 20
-126.2682616871829
 10
100.8982340242546
 20
-126.2682616871829
 10
101.0718668367112
 20
-126.2682616871829
 10
101.317157635261
 20
-126.3380248707593
 10
101.3553981951473
 20
-126.6701320755373
 10
101.3553981951473
 20
-126.6701320755373
 10
101.1414577655133
 20
-126.6701320755373
 10
101.1414577655133
 20
-126.6701320755373
 10
101.1311224790575
 20
-126.6131157452565
 10
101.0994276005932
 20
-126.4649766393907
 10
100.8961669669635
 20
-126.4649766393907
 10
100.6043673793628
 20
-126.4649766393907
 10
100.5640597621854
 20
-126.7929497295865
 10
100.55131290889
 20
-126.9981051657331
 10
100.6443304869917
 20
-126.919901498218
 10
100.7121988680511
 20
-126.8606458558717
 10
100.8940999096723
 20
-126.8606458558717
 10
101.0739338940024
 20
-126.8606458558717
 10
101.3764132776073
 20
-126.96847734456
 10
101.3764132776073
 20
-127.3746541022709
 10
101.3764132776073
 20
-127.6941867085279
 10
101.1776312681084
 20
-127.914156055261
 10
100.8603379739169
 20
-127.914156055261
 97
        0
 97
        0
 92
        1
 93
        1
 72
     4
 94
        3
 73
     0
 74
     1
 95
       17
 96
       13
 40
0.0
 40
0.0
 40
0.0
 40
0.0
 40
1.0
 40
1.0
 40
1.0
 40
2.0
 40
2.0
 40
2.0
 40
3.0
 40
3.0
 40
3.0
 40
4.0
 40
4.0
 40
4.0
 40
4.0
 10
100.8772189417946
 20
-127.0552937507883
 10
100.6147026658186
 20
-127.0552937507883
 10
100.5768066154808
 20
-127.2668226135826
 10
100.5768066154808
 20
-127.3830945862098
 10
100.5768066154808
 20
-127.5587944559575
 10
100.6718912508737
 20
-127.7215752176356
 10
100.855859349786
 20
-127.7215752176356
 10
100.9764376917698
 20
-127.7215752176356
 10
101.1521375615175
 20
-127.6623195752893
 10
101.1521375615175
 20
-127.3767211595621
 10
101.1521375615175
 20
-127.1526176982466
 10
101.0126111943649
 20
-127.0552937507883
 10
100.8772189417946
 20
-127.0552937507883
 97
        0
 97
        0
 75
     2
 76
     1
 98
        0
  0
ENDBLK
  5
8D
330
8A
100
AcDbEntity
  8
0
100
AcDbBlockEnd
  0
BLOCK
  5
A1
330
9F
100
AcDbEntity
  8
0
100
AcDbBlockBegin
  2
block 3
 70
     0
 10
0.0
 20
0.0
 30
0.0
  3
block 3
  1

  0
SPLINE
  5
A3
330
9F
100
AcDbEntity
  8
_U+30EC_U+30A4_U+30E4_U+30FC 1
370
     0
100
AcDbSpline
210
0.0
220
0.0
230
1.0
 70
    11
 71
     3
 72
    26
 73
    22
 74
     0
 42
0.0000000001
 43
0.0000000001
 12
1.0
 22
0.0
 32
0.0
 13
1.0
 23
0.0
 33
0.0
 40
0.0
 40
0.0
 40
0.0
 40
0.0
 40
1.0
 40
1.0
 40
1.0
 40
2.0
 40
2.0
 40
2.0
 40
3.0
 40
3.0
 40
3.0
 40
4.0
 40
4.0
 40
4.0
 40
5.0
 40
5.0
 40
5.0
 40
6.0
 40
6.0
 40
6.0
 40
7.0
 40
7.0
 40
7.0
 40
7.0
 10
95.4663519726612
 20
-140.4751464492562
 30
0.0
 10
95.4663519726612
 20
-140.4751464492562
 30
0.0
 10
95.4663519726612
 20
-139.3709933462337
 30
0.0
 10
95.4663519726612
 20
-139.3709933462337
 30
0.0
 10
95.4663519726612
 20
-139.3709933462337
 30
0.0
 10
95.13631182517426
 20
-139.3709933462337
 30
0.0
 10
95.13631182517426
 20
-139.3709933462337
 30
0.0
 10
95.13631182517426
 20
-139.3709933462337
 30
0.0
 10
95.13631182517426
 20
-139.2228542403679
 30
0.0
 10
95.13631182517426
 20
-139.2228542403679
 30
0.0
 10
95.46841902995234
 20
-139.2080403297813
 30
0.0
 10
95.51492781900322
 20
-139.045087313329
 30
0.0
 10
95.54455564017637
 20
-138.9307101432187
 30
0.0
 10
95.54455564017637
 20
-138.9307101432187
 30
0.0
 10
95.69062768875096
 20
-138.9307101432187
 30
0.0
 10
95.69062768875096
 20
-138.9307101432187
 30
0.0
 10
95.69062768875096
 20
-138.9307101432187
 30
0.0
 10
95.69062768875096
 20
-140.4751464492562
 30
0.0
 10
95.69062768875096
 20
-140.4751464492562
 30
0.0
 10
95.69062768875096
 20
-140.4751464492562
 30
0.0
 10
95.4663519726612
 20
-140.4751464492562
 30
0.0
 10
95.4663519726612
 20
-140.4751464492562
 30
0.0
  0
HATCH
  5
A4
330
9F
100
AcDbEntity
  8
_U+30EC_U+30A4_U+30E4_U+30FC 1
 62
   179
420
  2234388
100
AcDbHatch
 10
0.0
 20
0.0
 30
0.0
210
0.0
220
0.0
230
1.0
  2
SOLID
 70
     1
 71
     0
 91
        1
 92
        1
 93
        1
 72
     4
 94
        3
 73
     0
 74
     1
 95
       26
 96
       22
 40
0.0
 40
0.0
 40
0.0
 40
0.0
 40
1.0
 40
1.0
 40
1.0
 40
2.0
 40
2.0
 40
2.0
 40
3.0
 40
3.0
 40
3.0
 40
4.0
 40
4.0
 40
4.0
 40
5.0
 40
5.0
 40
5.0
 40
6.0
 40
6.0
 40
6.0
 40
7.0
 40
7.0
 40
7.0
 40
7.0
 10
95.4663519726612
 20
-140.4751464492562
 10
95.4663519726612
 20
-140.4751464492562
 10
95.4663519726612
 20
-139.3709933462337
 10
95.4663519726612
 20
-139.3709933462337
 10
95.4663519726612
 20
-139.3709933462337
 10
95.13631182517426
 20
-139.3709933462337
 10
95.13631182517426
 20
-139.3709933462337
 10
95.13631182517426
 20
-139.3709933462337
 10
95.13631182517426
 20
-139.2228542403679
 10
95.13631182517426
 20
-139.2228542403679
 10
95.46841902995234
 20
-139.2080403297813
 10
95.51492781900322
 20
-139.045087313329
 10
95.54455564017637
 20
-138.9307101432187
 10
95.54455564017637
 20
-138.9307101432187
 10
95.69062768875096
 20
-138.9307101432187
 10
95.69062768875096
 20
-138.9307101432187
 10
95.69062768875096
 20
-138.9307101432187
 10
95.69062768875096
 20
-140.4751464492562
 10
95.69062768875096
 20
-140.4751464492562
 10
95.69062768875096
 20
-140.4751464492562
 10
95.4663519726612
 20
-140.4751464492562
 10
95.4663519726612
 20
-140.4751464492562
 97
        0
 97
        0
 75
     2
 76
     1
 98
        0
  0
POLYLINE
  5
A5
330
9F
100
AcDbEntity
  8
_U+30EC_U+30A4_U+30E4_U+30FC 1
370
     0
100
AcDb2dPolyline
 66
     1
 10
0.0
 20
0.0
 30
0.0
  0
VERTEX
  5
A6
330
A5
100
AcDbEntity
  8
_U+30EC_U+30A4_U+30E4_U+30FC 1
370
     0
100
AcDbVertex
100
AcDb2dVertex
 10
97.02387964154265
 20
-140.1282253338915
 30
0.0
  0
VERTEX
  5
A7
330
A5
100
AcDbEntity
  8
_U+30EC_U+30A4_U+30E4_U+30FC 1
370
     0
100
AcDbVertex
100
AcDb2dVertex
 10
97.02387964154265
 20
-140.4751464492562
 30
0.0
  0
VERTEX
  5
A8
330
A5
100
AcDbEntity
  8
_U+30EC_U+30A4_U+30E4_U+30FC 1
370
     0
100
AcDbVertex
100
AcDb2dVertex
 10
96.80614960687485
 20
-140.4751464492562
 30
0.0
  0
VERTEX
  5
A9
330
A5
100
AcDbEntity
  8
_U+30EC_U+30A4_U+30E4_U+30FC 1
370
     0
100
AcDbVertex
100
AcDb2dVertex
 10
96.80614960687485
 20
-140.1282253338915
 30
0.0
  0
VERTEX
  5
AA
330
A5
100
AcDbEntity
  8
_U+30EC_U+30A4_U+30E4_U+30FC 1
370
     0
100
AcDbVertex
100
AcDb2dVertex
 10
96.15020342648329
 20
-140.1282253338915
 30
0.0
  0
VERTEX
  5
AB
330
A5
100
AcDbEntity
  8
_U+30EC_U+30A4_U+30E4_U+30FC 1
370
     0
100
AcDbVertex
100
AcDb2dVertex
 10
96.15020342648329
 20
-139.9039496178018
 30
0.0
  0
VERTEX
  5
AC
330
A5
100
AcDbEntity
  8
_U+30EC_U+30A4_U+30E4_U+30FC 1
370
     0
100
AcDbVertex
100
AcDb2dVertex
 10
96.82923174662604
 20
-138.9307101432187
 30
0.0
  0
VERTEX
  5
AD
330
A5
100
AcDbEntity
  8
_U+30EC_U+30A4_U+30E4_U+30FC 1
370
     0
100
AcDbVertex
100
AcDb2dVertex
 10
97.02387964154265
 20
-138.9307101432187
 30
0.0
  0
VERTEX
  5
AE
330
A5
100
AcDbEntity
  8
_U+30EC_U+30A4_U+30E4_U+30FC 1
370
     0
100
AcDbVertex
100
AcDb2dVertex
 10
97.02387964154265
 20
-139.9294433243927
 30
0.0
  0
VERTEX
  5
AF
330
A5
100
AcDbEntity
  8
_U+30EC_U+30A4_U+30E4_U+30FC 1
370
     0
100
AcDbVertex
100
AcDb2dVertex
 10
97.23127438975469
 20
-139.9294433243927
 30
0.0
  0
VERTEX
  5
B0
330
A5
100
AcDbEntity
  8
_U+30EC_U+30A4_U+30E4_U+30FC 1
370
     0
100
AcDbVertex
100
AcDb2dVertex
 10
97.23127438975469
 20
-140.1282253338915
 30
0.0
  0
VERTEX
  5
B1
330
A5
100
AcDbEntity
  8
_U+30EC_U+30A4_U+30E4_U+30FC 1
370
     0
100
AcDbVertex
100
AcDb2dVertex
 10
97.02387964154265
 20
-140.1282253338915
 30
0.0
  0
SEQEND
  5
B2
330
A5
100
AcDbEntity
  8
_U+30EC_U+30A4_U+30E4_U+30FC 1
370
     0
  0
POLYLINE
  5
B3
330
9F
100
AcDbEntity
  8
_U+30EC_U+30A4_U+30E4_U+30FC 1
370
     0
100
AcDb2dPolyline
 66
     1
 10
0.0
 20
0.0
 30
0.0
  0
VERTEX
  5
B4
330
B3
100
AcDbEntity
  8
_U+30EC_U+30A4_U+30E4_U+30FC 1
370
     0
100
AcDbVertex
100
AcDb2dVertex
 10
96.80614960687485
 20
-139.2734971440011
 30
0.0
  0
VERTEX
  5
B5
330
B3
100
AcDbEntity
  8
_U+30EC_U+30A4_U+30E4_U+30FC 1
370
     0
100
AcDbVertex
100
AcDb2dVertex
 10
96.3489854359822
 20
-139.9294433243927
 30
0.0
  0
VERTEX
  5
B6
330
B3
100
AcDbEntity
  8
_U+30EC_U+30A4_U+30E4_U+30FC 1
370
     0
100
AcDbVertex
100
AcDb2dVertex
 10
96.80614960687485
 20
-139.9294433243927
 30
0.0
  0
VERTEX
  5
B7
330
B3
100
AcDbEntity
  8
_U+30EC_U+30A4_U+30E4_U+30FC 1
370
     0
100
AcDbVertex
100
AcDb2dVertex
 10
96.80614960687485
 20
-139.2734971440011
 30
0.0
  0
SEQEND
  5
B8
330
B3
100
AcDbEntity
  8
_U+30EC_U+30A4_U+30E4_U+30FC 1
370
     0
  0
HATCH
  5
B9
330
9F
100
AcDbEntity
  8
_U+30EC_U+30A4_U+30E4_U+30FC 1
 62
   179
420
  2234388
100
AcDbHatch
 10
0.0
 20
0.0
 30
0.0
210
0.0
220
0.0
230
1.0
  2
SOLID
 70
     1
 71
     0
 91
        2
 92
        1
 93
       11
 72
     1
 10
97.02387964154265
 20
-140.1282253338915
 11
97.02387964154265
 21
-140.4751464492562
 72
     1
 10
97.02387964154265
 20
-140.4751464492562
 11
96.80614960687485
 21
-140.4751464492562
 72
     1
 10
96.80614960687485
 20
-140.4751464492562
 11
96.80614960687485
 21
-140.1282253338915
 72
     1
 10
96.80614960687485
 20
-140.1282253338915
 11
96.15020342648329
 21
-140.1282253338915
 72
     1
 10
96.15020342648329
 20
-140.1282253338915
 11
96.15020342648329
 21
-139.9039496178018
 72
     1
 10
96.15020342648329
 20
-139.9039496178018
 11
96.82923174662604
 21
-138.9307101432187
 72
     1
 10
96.82923174662604
 20
-138.9307101432187
 11
97.02387964154265
 21
-138.9307101432187
 72
     1
 10
97.02387964154265
 20
-138.9307101432187
 11
97.02387964154265
 21
-139.9294433243927
 72
     1
 10
97.02387964154265
 20
-139.9294433243927
 11
97.23127438975469
 21
-139.9294433243927
 72
     1
 10
97.23127438975469
 20
-139.9294433243927
 11
97.23127438975469
 21
-140.1282253338915
 72
     1
 10
97.23127438975469
 20
-140.1282253338915
 11
97.02387964154265
 21
-140.1282253338915
 97
        0
 92
        1
 93
        3
 72
     1
 10
96.80614960687485
 20
-139.2734971440011
 11
96.3489854359822
 21
-139.9294433243927
 72
     1
 10
96.3489854359822
 20
-139.9294433243927
 11
96.80614960687485
 21
-139.9294433243927
 72
     1
 10
96.80614960687485
 20
-139.9294433243927
 11
96.80614960687485
 21
-139.2734971440011
 97
        0
 75
     2
 76
     1
 98
        0
  0
ENDBLK
  5
A2
330
9F
100
AcDbEntity
  8
0
100
AcDbBlockEnd
  0
BLOCK
  5
BC
330
BA
100
AcDbEntity
  8
0
100
AcDbBlockBegin
  2
block 4
 70
     0
 10
0.0
 20
0.0
 30
0.0
  3
block 4
  1

  0
SPLINE
  5
BE
330
BA
100
AcDbEntity
  8
_U+30EC_U+30A4_U+30E4_U+30FC 1
370
     0
100
AcDbSpline
210
0.0
220
0.0
230
1.0
 70
    11
 71
     3
 72
    26
 73
    22
 74
     0
 42
0.0000000001
 43
0.0000000001
 12
1.0
 22
0.0
 32
0.0
 13
1.0
 23
0.0
 33
0.0
 40
0.0
 40
0.0
 40
0.0
 40
0.0
 40
1.0
 40
1.0
 40
1.0
 40
2.0
 40
2.0
 40
2.0
 40
3.0
 40
3.0
 40
3.0
 40
4.0
 40
4.0
 40
4.0
 40
5.0
 40
5.0
 40
5.0
 40
6.0
 40
6.0
 40
6.0
 40
7.0
 40
7.0
 40
7.0
 40
7.0
 10
81.88423527683797
 20
-116.0893825664638
 30
0.0
 10
81.88423527683797
 20
-116.0893825664638
 30
0.0
 10
81.88423527683797
 20
-114.9850572086669
 30
0.0
 10
81.88423527683797
 20
-114.9850572086669
 30
0.0
 10
81.88423527683797
 20
-114.9850572086669
 30
0.0
 10
81.55419512935104
 20
-114.9850572086669
 30
0.0
 10
81.55419512935104
 20
-114.9850572086669
 30
0.0
 10
81.55419512935104
 20
-114.9850572086669
 30
0.0
 10
81.55419512935104
 20
-114.8370903575754
 30
0.0
 10
81.55419512935104
 20
-114.8370903575754
 30
0.0
 10
81.88630233412913
 20
-114.8222764469889
 30
0.0
 10
81.93281112318
 20
-114.6593234305366
 30
0.0
 10
81.96243894435314
 20
-114.5451185152005
 30
0.0
 10
81.96243894435314
 20
-114.5451185152005
 30
0.0
 10
82.10851099292773
 20
-114.5451185152005
 30
0.0
 10
82.10851099292773
 20
-114.5451185152005
 30
0.0
 10
82.10851099292773
 20
-114.5451185152005
 30
0.0
 10
82.10851099292773
 20
-116.0893825664638
 30
0.0
 10
82.10851099292773
 20
-116.0893825664638
 30
0.0
 10
82.10851099292773
 20
-116.0893825664638
 30
0.0
 10
81.88423527683797
 20
-116.0893825664638
 30
0.0
 10
81.88423527683797
 20
-116.0893825664638
 30
0.0
  0
HATCH
  5
BF
330
BA
100
AcDbEntity
  8
_U+30EC_U+30A4_U+30E4_U+30FC 1
 62
   179
420
  2234388
100
AcDbHatch
 10
0.0
 20
0.0
 30
0.0
210
0.0
220
0.0
230
1.0
  2
SOLID
 70
     1
 71
     0
 91
        1
 92
        1
 93
        1
 72
     4
 94
        3
 73
     0
 74
     1
 95
       26
 96
       22
 40
0.0
 40
0.0
 40
0.0
 40
0.0
 40
1.0
 40
1.0
 40
1.0
 40
2.0
 40
2.0
 40
2.0
 40
3.0
 40
3.0
 40
3.0
 40
4.0
 40
4.0
 40
4.0
 40
5.0
 40
5.0
 40
5.0
 40
6.0
 40
6.0
 40
6.0
 40
7.0
 40
7.0
 40
7.0
 40
7.0
 10
81.88423527683797
 20
-116.0893825664638
 10
81.88423527683797
 20
-116.0893825664638
 10
81.88423527683797
 20
-114.9850572086669
 10
81.88423527683797
 20
-114.9850572086669
 10
81.88423527683797
 20
-114.9850572086669
 10
81.55419512935104
 20
-114.9850572086669
 10
81.55419512935104
 20
-114.9850572086669
 10
81.55419512935104
 20
-114.9850572086669
 10
81.55419512935104
 20
-114.8370903575754
 10
81.55419512935104
 20
-114.8370903575754
 10
81.88630233412913
 20
-114.8222764469889
 10
81.93281112318
 20
-114.6593234305366
 10
81.96243894435314
 20
-114.5451185152005
 10
81.96243894435314
 20
-114.5451185152005
 10
82.10851099292773
 20
-114.5451185152005
 10
82.10851099292773
 20
-114.5451185152005
 10
82.10851099292773
 20
-114.5451185152005
 10
82.10851099292773
 20
-116.0893825664638
 10
82.10851099292773
 20
-116.0893825664638
 10
82.10851099292773
 20
-116.0893825664638
 10
81.88423527683797
 20
-116.0893825664638
 10
81.88423527683797
 20
-116.0893825664638
 97
        0
 97
        0
 75
     2
 76
     1
 98
        0
  0
SPLINE
  5
C0
330
BA
100
AcDbEntity
  8
_U+30EC_U+30A4_U+30E4_U+30FC 1
370
     0
100
AcDbSpline
210
0.0
220
0.0
230
1.0
 70
    11
 71
     3
 72
    26
 73
    22
 74
     0
 42
0.0000000001
 43
0.0000000001
 12
1.0
 22
0.0
 32
0.0
 13
1.0
 23
0.0
 33
0.0
 40
0.0
 40
0.0
 40
0.0
 40
0.0
 40
1.0
 40
1.0
 40
1.0
 40
2.0
 40
2.0
 40
2.0
 40
3.0
 40
3.0
 40
3.0
 40
4.0
 40
4.0
 40
4.0
 40
5.0
 40
5.0
 40
5.0
 40
6.0
 40
6.0
 40
6.0
 40
7.0
 40
7.0
 40
7.0
 40
7.0
 10
83.06107989459932
 20
-116.0893825664638
 30
0.0
 10
83.06107989459932
 20
-116.0893825664638
 30
0.0
 10
83.06107989459932
 20
-114.9850572086669
 30
0.0
 10
83.06107989459932
 20
-114.9850572086669
 30
0.0
 10
83.06107989459932
 20
-114.9850572086669
 30
0.0
 10
82.73103974711238
 20
-114.9850572086669
 30
0.0
 10
82.73103974711238
 20
-114.9850572086669
 30
0.0
 10
82.73103974711238
 20
-114.9850572086669
 30
0.0
 10
82.73103974711238
 20
-114.8370903575754
 30
0.0
 10
82.73103974711238
 20
-114.8370903575754
 30
0.0
 10
83.06314695189047
 20
-114.8222764469889
 30
0.0
 10
83.10965574094134
 20
-114.6593234305366
 30
0.0
 10
83.13928356211449
 20
-114.5451185152005
 30
0.0
 10
83.13928356211449
 20
-114.5451185152005
 30
0.0
 10
83.28535561068908
 20
-114.5451185152005
 30
0.0
 10
83.28535561068908
 20
-114.5451185152005
 30
0.0
 10
83.28535561068908
 20
-114.5451185152005
 30
0.0
 10
83.28535561068908
 20
-116.0893825664638
 30
0.0
 10
83.28535561068908
 20
-116.0893825664638
 30
0.0
 10
83.28535561068908
 20
-116.0893825664638
 30
0.0
 10
83.06107989459932
 20
-116.0893825664638
 30
0.0
 10
83.06107989459932
 20
-116.0893825664638
 30
0.0
  0
HATCH
  5
C1
330
BA
100
AcDbEntity
  8
_U+30EC_U+30A4_U+30E4_U+30FC 1
 62
   179
420
  2234388
100
AcDbHatch
 10
0.0
 20
0.0
 30
0.0
210
0.0
220
0.0
230
1.0
  2
SOLID
 70
     1
 71
     0
 91
        1
 92
        1
 93
        1
 72
     4
 94
        3
 73
     0
 74
     1
 95
       26
 96
       22
 40
0.0
 40
0.0
 40
0.0
 40
0.0
 40
1.0
 40
1.0
 40
1.0
 40
2.0
 40
2.0
 40
2.0
 40
3.0
 40
3.0
 40
3.0
 40
4.0
 40
4.0
 40
4.0
 40
5.0
 40
5.0
 40
5.0
 40
6.0
 40
6.0
 40
6.0
 40
7.0
 40
7.0
 40
7.0
 40
7.0
 10
83.06107989459932
 20
-116.0893825664638
 10
83.06107989459932
 20
-116.0893825664638
 10
83.06107989459932
 20
-114.9850572086669
 10
83.06107989459932
 20
-114.9850572086669
 10
83.06107989459932
 20
-114.9850572086669
 10
82.73103974711238
 20
-114.9850572086669
 10
82.73103974711238
 20
-114.9850572086669
 10
82.73103974711238
 20
-114.9850572086669
 10
82.73103974711238
 20
-114.8370903575754
 10
82.73103974711238
 20
-114.8370903575754
 10
83.06314695189047
 20
-114.8222764469889
 10
83.10965574094134
 20
-114.6593234305366
 10
83.13928356211449
 20
-114.5451185152005
 10
83.13928356211449
 20
-114.5451185152005
 10
83.28535561068908
 20
-114.5451185152005
 10
83.28535561068908
 20
-114.5451185152005
 10
83.28535561068908
 20
-114.5451185152005
 10
83.28535561068908
 20
-116.0893825664638
 10
83.28535561068908
 20
-116.0893825664638
 10
83.28535561068908
 20
-116.0893825664638
 10
83.06107989459932
 20
-116.0893825664638
 10
83.06107989459932
 20
-116.0893825664638
 97
        0
 97
        0
 75
     2
 76
     1
 98
        0
  0
ENDBLK
  5
BD
330
BA
100
AcDbEntity
  8
0
100
AcDbBlockEnd
  0
BLOCK
  5
C4
330
C2
100
AcDbEntity
  8
0
100
AcDbBlockBegin
  2
block 5
 70
     0
 10
0.0
 20
0.0
 30
0.0
  3
block 5
  1

  0
SPLINE
  5
C6
330
C2
100
AcDbEntity
  8
_U+30EC_U+30A4_U+30E4_U+30FC 1
370
     0
100
AcDbSpline
210
0.0
220
0.0
230
1.0
 70
    11
 71
     3
 72
    62
 73
    58
 74
     0
 42
0.0000000001
 43
0.0000000001
 12
1.0
 22
0.0
 32
0.0
 13
1.0
 23
0.0
 33
0.0
 40
0.0
 40
0.0
 40
0.0
 40
0.0
 40
1.0
 40
1.0
 40
1.0
 40
2.0
 40
2.0
 40
2.0
 40
3.0
 40
3.0
 40
3.0
 40
4.0
 40
4.0
 40
4.0
 40
5.0
 40
5.0
 40
5.0
 40
6.0
 40
6.0
 40
6.0
 40
7.0
 40
7.0
 40
7.0
 40
8.0
 40
8.0
 40
8.0
 40
9.0
 40
9.0
 40
9.0
 40
10.0
 40
10.0
 40
10.0
 40
11.0
 40
11.0
 40
11.0
 40
12.0
 40
12.0
 40
12.0
 40
13.0
 40
13.0
 40
13.0
 40
14.0
 40
14.0
 40
14.0
 40
15.0
 40
15.0
 40
15.0
 40
16.0
 40
16.0
 40
16.0
 40
17.0
 40
17.0
 40
17.0
 40
18.0
 40
18.0
 40
18.0
 40
19.0
 40
19.0
 40
19.0
 40
19.0
 10
81.88061792657847
 20
-133.6335313250986
 30
0.0
 10
81.88061792657847
 20
-133.72896047004
 30
0.0
 10
81.85943058934417
 20
-133.9466905047078
 30
0.0
 10
81.67322317836641
 20
-134.0717474708223
 30
0.0
 10
81.56108532032154
 20
-134.1458170237552
 30
0.0
 10
81.46169431557207
 20
-134.1499511383375
 30
0.0
 10
81.3771172214092
 20
-134.1540852529198
 30
0.0
 10
81.3771172214092
 20
-134.1540852529198
 30
0.0
 10
81.3771172214092
 20
-133.9339436514124
 30
0.0
 10
81.3771172214092
 20
-133.9339436514124
 30
0.0
 10
81.45118677434206
 20
-133.9318765941212
 30
0.0
 10
81.68597003166184
 20
-133.9215413076654
 30
0.0
 10
81.68597003166184
 20
-133.6380099492294
 30
0.0
 10
81.68597003166184
 20
-133.5005506393679
 30
0.0
 10
81.61620684808554
 20
-133.3479329093714
 30
0.0
 10
81.3876247626392
 20
-133.3479329093714
 30
0.0
 10
81.27135279001203
 20
-133.3479329093714
 30
0.0
 10
81.22260468889574
 20
-133.3861734692576
 30
0.0
 10
81.19090981043145
 20
-133.4178683477219
 30
0.0
 10
81.11684025749857
 20
-133.4919379006548
 30
0.0
 10
81.10426565897741
 20
-133.6083821280562
 30
0.0
 10
81.10426565897741
 20
-133.6631591462717
 30
0.0
 10
81.10426565897741
 20
-133.6824516809891
 30
0.0
 10
81.10633271626855
 20
-133.7182806740357
 30
0.0
 10
81.11046683085085
 20
-133.7458414379177
 30
0.0
 10
81.11046683085085
 20
-133.7458414379177
 30
0.0
 10
80.91599119070851
 20
-133.7458414379177
 30
0.0
 10
80.91599119070851
 20
-133.7458414379177
 30
0.0
 10
80.92219236258195
 20
-133.7076008780314
 30
0.0
 10
80.92443167464737
 20
-133.6655707131114
 30
0.0
 10
80.92443167464737
 20
-133.6590250316894
 30
0.0
 10
80.92443167464737
 20
-133.5935682174697
 30
0.0
 10
80.90324433741308
 20
-133.3947862079708
 30
0.0
 10
80.6662217680279
 20
-133.3947862079708
 30
0.0
 10
80.48862709576326
 20
-133.3947862079708
 30
0.0
 10
80.43350556799926
 20
-133.5256998364102
 30
0.0
 10
80.43350556799926
 20
-133.6359428919382
 30
0.0
 10
80.43350556799926
 20
-133.9001817156569
 30
0.0
 10
80.6662217680279
 20
-133.90879445437
 30
0.0
 10
80.73822426366961
 20
-133.9129285689523
 30
0.0
 10
80.73822426366961
 20
-133.9129285689523
 30
0.0
 10
80.73822426366961
 20
-134.1161892025821
 30
0.0
 10
80.73822426366961
 20
-134.1161892025821
 30
0.0
 10
80.61333955232931
 20
-134.107576463869
 30
0.0
 10
80.2367906157915
 20
-134.0800156999869
 30
0.0
 10
80.2367906157915
 20
-133.6231960386428
 30
0.0
 10
80.2367906157915
 20
-133.3989203225531
 30
0.0
 10
80.36374238442296
 20
-133.1577636385856
 30
0.0
 10
80.65984834138018
 20
-133.1577636385856
 30
0.0
 10
80.84605575235794
 20
-133.1577636385856
 30
0.0
 10
80.92856578922967
 20
-133.2528482739785
 30
0.0
 10
80.98988848886711
 20
-133.3524115335022
 30
0.0
 10
81.01744925274912
 20
-133.2910888338647
 30
0.0
 10
81.0978922323297
 20
-133.1091877922435
 30
0.0
 10
81.37505016411805
 20
-133.1091877922435
 30
0.0
 10
81.71353079554385
 20
-133.1091877922435
 30
0.0
 10
81.88061792657847
 20
-133.3565456480845
 30
0.0
 10
81.88061792657847
 20
-133.6335313250986
 30
0.0
  0
HATCH
  5
C7
330
C2
100
AcDbEntity
  8
_U+30EC_U+30A4_U+30E4_U+30FC 1
 62
   179
420
  2234388
100
AcDbHatch
 10
0.0
 20
0.0
 30
0.0
210
0.0
220
0.0
230
1.0
  2
SOLID
 70
     1
 71
     0
 91
        1
 92
        1
 93
        1
 72
     4
 94
        3
 73
     0
 74
     1
 95
       62
 96
       58
 40
0.0
 40
0.0
 40
0.0
 40
0.0
 40
1.0
 40
1.0
 40
1.0
 40
2.0
 40
2.0
 40
2.0
 40
3.0
 40
3.0
 40
3.0
 40
4.0
 40
4.0
 40
4.0
 40
5.0
 40
5.0
 40
5.0
 40
6.0
 40
6.0
 40
6.0
 40
7.0
 40
7.0
 40
7.0
 40
8.0
 40
8.0
 40
8.0
 40
9.0
 40
9.0
 40
9.0
 40
10.0
 40
10.0
 40
10.0
 40
11.0
 40
11.0
 40
11.0
 40
12.0
 40
12.0
 40
12.0
 40
13.0
 40
13.0
 40
13.0
 40
14.0
 40
14.0
 40
14.0
 40
15.0
 40
15.0
 40
15.0
 40
16.0
 40
16.0
 40
16.0
 40
17.0
 40
17.0
 40
17.0
 40
18.0
 40
18.0
 40
18.0
 40
19.0
 40
19.0
 40
19.0
 40
19.0
 10
81.88061792657847
 20
-133.6335313250986
 10
81.88061792657847
 20
-133.72896047004
 10
81.85943058934417
 20
-133.9466905047078
 10
81.67322317836641
 20
-134.0717474708223
 10
81.56108532032154
 20
-134.1458170237552
 10
81.46169431557207
 20
-134.1499511383375
 10
81.3771172214092
 20
-134.1540852529198
 10
81.3771172214092
 20
-134.1540852529198
 10
81.3771172214092
 20
-133.9339436514124
 10
81.3771172214092
 20
-133.9339436514124
 10
81.45118677434206
 20
-133.9318765941212
 10
81.68597003166184
 20
-133.9215413076654
 10
81.68597003166184
 20
-133.6380099492294
 10
81.68597003166184
 20
-133.5005506393679
 10
81.61620684808554
 20
-133.3479329093714
 10
81.3876247626392
 20
-133.3479329093714
 10
81.27135279001203
 20
-133.3479329093714
 10
81.22260468889574
 20
-133.3861734692576
 10
81.19090981043145
 20
-133.4178683477219
 10
81.11684025749857
 20
-133.4919379006548
 10
81.10426565897741
 20
-133.6083821280562
 10
81.10426565897741
 20
-133.6631591462717
 10
81.10426565897741
 20
-133.6824516809891
 10
81.10633271626855
 20
-133.7182806740357
 10
81.11046683085085
 20
-133.7458414379177
 10
81.11046683085085
 20
-133.7458414379177
 10
80.91599119070851
 20
-133.7458414379177
 10
80.91599119070851
 20
-133.7458414379177
 10
80.92219236258195
 20
-133.7076008780314
 10
80.92443167464737
 20
-133.6655707131114
 10
80.92443167464737
 20
-133.6590250316894
 10
80.92443167464737
 20
-133.5935682174697
 10
80.90324433741308
 20
-133.3947862079708
 10
80.6662217680279
 20
-133.3947862079708
 10
80.48862709576326
 20
-133.3947862079708
 10
80.43350556799926
 20
-133.5256998364102
 10
80.43350556799926
 20
-133.6359428919382
 10
80.43350556799926
 20
-133.9001817156569
 10
80.6662217680279
 20
-133.90879445437
 10
80.73822426366961
 20
-133.9129285689523
 10
80.73822426366961
 20
-133.9129285689523
 10
80.73822426366961
 20
-134.1161892025821
 10
80.73822426366961
 20
-134.1161892025821
 10
80.61333955232931
 20
-134.107576463869
 10
80.2367906157915
 20
-134.0800156999869
 10
80.2367906157915
 20
-133.6231960386428
 10
80.2367906157915
 20
-133.3989203225531
 10
80.36374238442296
 20
-133.1577636385856
 10
80.65984834138018
 20
-133.1577636385856
 10
80.84605575235794
 20
-133.1577636385856
 10
80.92856578922967
 20
-133.2528482739785
 10
80.98988848886711
 20
-133.3524115335022
 10
81.01744925274912
 20
-133.2910888338647
 10
81.0978922323297
 20
-133.1091877922435
 10
81.37505016411805
 20
-133.1091877922435
 10
81.71353079554385
 20
-133.1091877922435
 10
81.88061792657847
 20
-133.3565456480845
 10
81.88061792657847
 20
-133.6335313250986
 97
        0
 97
        0
 75
     2
 76
     1
 98
        0
  0
SPLINE
  5
C8
330
C2
100
AcDbEntity
  8
_U+30EC_U+30A4_U+30E4_U+30FC 1
370
     0
100
AcDbSpline
210
0.0
220
0.0
230
1.0
 70
    11
 71
     3
 72
    44
 73
    40
 74
     0
 42
0.0000000001
 43
0.0000000001
 12
1.0
 22
0.0
 32
0.0
 13
1.0
 23
0.0
 33
0.0
 40
0.0
 40
0.0
 40
0.0
 40
0.0
 40
1.0
 40
1.0
 40
1.0
 40
2.0
 40
2.0
 40
2.0
 40
3.0
 40
3.0
 40
3.0
 40
4.0
 40
4.0
 40
4.0
 40
5.0
 40
5.0
 40
5.0
 40
6.0
 40
6.0
 40
6.0
 40
7.0
 40
7.0
 40
7.0
 40
8.0
 40
8.0
 40
8.0
 40
9.0
 40
9.0
 40
9.0
 40
10.0
 40
10.0
 40
10.0
 40
11.0
 40
11.0
 40
11.0
 40
12.0
 40
12.0
 40
12.0
 40
13.0
 40
13.0
 40
13.0
 40
13.0
 10
81.2480983954866
 20
-132.3554009000709
 30
0.0
 10
81.40674504258234
 20
-132.5731309347387
 30
0.0
 10
81.48081459551521
 20
-132.6661485128404
 30
0.0
 10
81.6246473320244
 20
-132.715068868731
 30
0.0
 10
81.6246473320244
 20
-132.715068868731
 30
0.0
 10
81.6246473320244
 20
-131.9364772890645
 30
0.0
 10
81.6246473320244
 20
-131.9364772890645
 30
0.0
 10
81.6246473320244
 20
-131.9364772890645
 30
0.0
 10
81.82980276817102
 20
-131.9364772890645
 30
0.0
 10
81.82980276817102
 20
-131.9364772890645
 30
0.0
 10
81.82980276817102
 20
-131.9364772890645
 30
0.0
 10
81.82980276817102
 20
-132.964493781863
 30
0.0
 10
81.82980276817102
 20
-132.964493781863
 30
0.0
 10
81.47220185680209
 20
-132.9327989033987
 30
0.0
 10
81.39399818928692
 20
-132.867342089179
 30
0.0
 10
81.09565292026429
 20
-132.4821804139281
 30
0.0
 10
80.89687091076537
 20
-132.226209819374
 30
0.0
 10
80.82917478448022
 20
-132.1607530051542
 30
0.0
 10
80.69171547461875
 20
-132.1607530051542
 30
0.0
 10
80.57320418992614
 20
-132.1607530051542
 30
0.0
 10
80.44194605193813
 20
-132.2324109912475
 30
0.0
 10
80.44194605193813
 20
-132.4294704530037
 30
0.0
 10
80.44194605193813
 20
-132.6895751621401
 30
0.0
 10
80.67259519467561
 20
-132.6978433913047
 30
0.0
 10
80.78903942207705
 20
-132.7023220154355
 30
0.0
 10
80.78903942207705
 20
-132.7023220154355
 30
0.0
 10
80.78903942207705
 20
-132.9265977315253
 30
0.0
 10
80.78903942207705
 20
-132.9265977315253
 30
0.0
 10
80.6620876534456
 20
-132.9179849928122
 30
0.0
 10
80.5499497954007
 20
-132.9073051968079
 30
0.0
 10
80.43143851070812
 20
-132.8270344720016
 30
0.0
 10
80.27072480632121
 20
-132.7171359260221
 30
0.0
 10
80.2367906157915
 20
-132.5307562602701
 30
0.0
 10
80.2367906157915
 20
-132.4146565424172
 30
0.0
 10
80.2367906157915
 20
-132.1373263558546
 30
0.0
 10
80.4209309694781
 20
-131.9299316076425
 30
0.0
 10
80.69378253190989
 20
-131.9299316076425
 30
0.0
 10
80.92219236258195
 20
-131.9299316076425
 30
0.0
 10
81.02175562210567
 20
-132.046375835044
 30
0.0
 10
81.2480983954866
 20
-132.3554009000709
 30
0.0
  0
HATCH
  5
C9
330
C2
100
AcDbEntity
  8
_U+30EC_U+30A4_U+30E4_U+30FC 1
 62
   179
420
  2234388
100
AcDbHatch
 10
0.0
 20
0.0
 30
0.0
210
0.0
220
0.0
230
1.0
  2
SOLID
 70
     1
 71
     0
 91
        1
 92
        1
 93
        1
 72
     4
 94
        3
 73
     0
 74
     1
 95
       44
 96
       40
 40
0.0
 40
0.0
 40
0.0
 40
0.0
 40
1.0
 40
1.0
 40
1.0
 40
2.0
 40
2.0
 40
2.0
 40
3.0
 40
3.0
 40
3.0
 40
4.0
 40
4.0
 40
4.0
 40
5.0
 40
5.0
 40
5.0
 40
6.0
 40
6.0
 40
6.0
 40
7.0
 40
7.0
 40
7.0
 40
8.0
 40
8.0
 40
8.0
 40
9.0
 40
9.0
 40
9.0
 40
10.0
 40
10.0
 40
10.0
 40
11.0
 40
11.0
 40
11.0
 40
12.0
 40
12.0
 40
12.0
 40
13.0
 40
13.0
 40
13.0
 40
13.0
 10
81.2480983954866
 20
-132.3554009000709
 10
81.40674504258234
 20
-132.5731309347387
 10
81.48081459551521
 20
-132.6661485128404
 10
81.6246473320244
 20
-132.715068868731
 10
81.6246473320244
 20
-132.715068868731
 10
81.6246473320244
 20
-131.9364772890645
 10
81.6246473320244
 20
-131.9364772890645
 10
81.6246473320244
 20
-131.9364772890645
 10
81.82980276817102
 20
-131.9364772890645
 10
81.82980276817102
 20
-131.9364772890645
 10
81.82980276817102
 20
-131.9364772890645
 10
81.82980276817102
 20
-132.964493781863
 10
81.82980276817102
 20
-132.964493781863
 10
81.47220185680209
 20
-132.9327989033987
 10
81.39399818928692
 20
-132.867342089179
 10
81.09565292026429
 20
-132.4821804139281
 10
80.89687091076537
 20
-132.226209819374
 10
80.82917478448022
 20
-132.1607530051542
 10
80.69171547461875
 20
-132.1607530051542
 10
80.57320418992614
 20
-132.1607530051542
 10
80.44194605193813
 20
-132.2324109912475
 10
80.44194605193813
 20
-132.4294704530037
 10
80.44194605193813
 20
-132.6895751621401
 10
80.67259519467561
 20
-132.6978433913047
 10
80.78903942207705
 20
-132.7023220154355
 10
80.78903942207705
 20
-132.7023220154355
 10
80.78903942207705
 20
-132.9265977315253
 10
80.78903942207705
 20
-132.9265977315253
 10
80.6620876534456
 20
-132.9179849928122
 10
80.5499497954007
 20
-132.9073051968079
 10
80.43143851070812
 20
-132.8270344720016
 10
80.27072480632121
 20
-132.7171359260221
 10
80.2367906157915
 20
-132.5307562602701
 10
80.2367906157915
 20
-132.4146565424172
 10
80.2367906157915
 20
-132.1373263558546
 10
80.4209309694781
 20
-131.9299316076425
 10
80.69378253190989
 20
-131.9299316076425
 10
80.92219236258195
 20
-131.9299316076425
 10
81.02175562210567
 20
-132.046375835044
 10
81.2480983954866
 20
-132.3554009000709
 97
        0
 97
        0
 75
     2
 76
     1
 98
        0
  0
POLYLINE
  5
CA
330
C2
100
AcDbEntity
  8
_U+30EC_U+30A4_U+30E4_U+30FC 1
370
     0
100
AcDb2dPolyline
 66
     1
 10
0.0
 20
0.0
 30
0.0
  0
VERTEX
  5
CB
330
CA
100
AcDbEntity
  8
_U+30EC_U+30A4_U+30E4_U+30FC 1
370
     0
100
AcDbVertex
100
AcDb2dVertex
 10
81.82980276817102
 20
-131.7115125538777
 30
0.0
  0
VERTEX
  5
CC
330
CA
100
AcDbEntity
  8
_U+30EC_U+30A4_U+30E4_U+30FC 1
370
     0
100
AcDbVertex
100
AcDb2dVertex
 10
81.57813854297352
 20
-131.7115125538777
 30
0.0
  0
VERTEX
  5
CD
330
CA
100
AcDbEntity
  8
_U+30EC_U+30A4_U+30E4_U+30FC 1
370
     0
100
AcDbVertex
100
AcDb2dVertex
 10
81.57813854297352
 20
-131.4596760739059
 30
0.0
  0
VERTEX
  5
CE
330
CA
100
AcDbEntity
  8
_U+30EC_U+30A4_U+30E4_U+30FC 1
370
     0
100
AcDbVertex
100
AcDb2dVertex
 10
81.82980276817102
 20
-131.4596760739059
 30
0.0
  0
VERTEX
  5
CF
330
CA
100
AcDbEntity
  8
_U+30EC_U+30A4_U+30E4_U+30FC 1
370
     0
100
AcDbVertex
100
AcDb2dVertex
 10
81.82980276817102
 20
-131.7115125538777
 30
0.0
  0
SEQEND
  5
D0
330
CA
100
AcDbEntity
  8
_U+30EC_U+30A4_U+30E4_U+30FC 1
370
     0
  0
HATCH
  5
D1
330
C2
100
AcDbEntity
  8
_U+30EC_U+30A4_U+30E4_U+30FC 1
 62
   179
420
  2234388
100
AcDbHatch
 10
0.0
 20
0.0
 30
0.0
210
0.0
220
0.0
230
1.0
  2
SOLID
 70
     1
 71
     0
 91
        1
 92
        1
 93
        4
 72
     1
 10
81.82980276817102
 20
-131.7115125538777
 11
81.57813854297352
 21
-131.7115125538777
 72
     1
 10
81.57813854297352
 20
-131.7115125538777
 11
81.57813854297352
 21
-131.4596760739059
 72
     1
 10
81.57813854297352
 20
-131.4596760739059
 11
81.82980276817102
 21
-131.4596760739059
 72
     1
 10
81.82980276817102
 20
-131.4596760739059
 11
81.82980276817102
 21
-131.7115125538777
 97
        0
 75
     2
 76
     1
 98
        0
  0
SPLINE
  5
D2
330
C2
100
AcDbEntity
  8
_U+30EC_U+30A4_U+30E4_U+30FC 1
370
     0
100
AcDbSpline
210
0.0
220
0.0
230
1.0
 70
    11
 71
     3
 72
    53
 73
    49
 74
     0
 42
0.0000000001
 43
0.0000000001
 12
1.0
 22
0.0
 32
0.0
 13
1.0
 23
0.0
 33
0.0
 40
0.0
 40
0.0
 40
0.0
 40
0.0
 40
1.0
 40
1.0
 40
1.0
 40
2.0
 40
2.0
 40
2.0
 40
3.0
 40
3.0
 40
3.0
 40
4.0
 40
4.0
 40
4.0
 40
5.0
 40
5.0
 40
5.0
 40
6.0
 40
6.0
 40
6.0
 40
7.0
 40
7.0
 40
7.0
 40
8.0
 40
8.0
 40
8.0
 40
9.0
 40
9.0
 40
9.0
 40
10.0
 40
10.0
 40
10.0
 40
11.0
 40
11.0
 40
11.0
 40
12.0
 40
12.0
 40
12.0
 40
13.0
 40
13.0
 40
13.0
 40
14.0
 40
14.0
 40
14.0
 40
15.0
 40
15.0
 40
15.0
 40
16.0
 40
16.0
 40
16.0
 40
16.0
 10
81.88061792657847
 20
-130.7424071938769
 30
0.0
 10
81.88061792657847
 20
-130.8206108613921
 30
0.0
 10
81.86373695870074
 20
-130.9222411782069
 30
0.0
 10
81.80017494699787
 20
-131.0238714950218
 30
0.0
 10
81.69010414624414
 20
-131.1971597979299
 30
0.0
 10
81.55901826303038
 20
-131.2181748803899
 30
0.0
 10
81.45118677434206
 20
-131.2374674151073
 30
0.0
 10
81.45118677434206
 20
-131.2374674151073
 30
0.0
 10
81.45118677434206
 20
-131.0152587563087
 30
0.0
 10
81.45118677434206
 20
-131.0152587563087
 30
0.0
 10
81.64996878384099
 20
-130.9601372285447
 30
0.0
 10
81.67959660501413
 20
-130.8333577146875
 30
0.0
 10
81.67959660501413
 20
-130.7403401365858
 30
0.0
 10
81.67959660501413
 20
-130.6004692598846
 30
0.0
 10
81.58020560026468
 20
-130.4481960394366
 30
0.0
 10
81.34748940023604
 20
-130.4481960394366
 30
0.0
 10
81.09151880568199
 20
-130.4481960394366
 30
0.0
 10
81.02175562210567
 20
-130.6280300237666
 30
0.0
 10
81.02175562210567
 20
-130.7486083657504
 30
0.0
 10
81.02175562210567
 20
-130.7803032442147
 30
0.0
 10
81.02175562210567
 20
-130.9222411782069
 30
0.0
 10
81.15077444802829
 20
-131.0111246417264
 30
0.0
 10
81.15077444802829
 20
-131.0111246417264
 30
0.0
 10
81.13165416808515
 20
-131.1864800019256
 30
0.0
 10
81.13165416808515
 20
-131.1864800019256
 30
0.0
 10
81.13165416808515
 20
-131.1864800019256
 30
0.0
 10
80.28553871690778
 20
-131.0659016599419
 30
0.0
 10
80.28553871690778
 20
-131.0659016599419
 30
0.0
 10
80.28553871690778
 20
-131.0659016599419
 30
0.0
 10
80.28553871690778
 20
-130.2876545898239
 30
0.0
 10
80.28553871690778
 20
-130.2876545898239
 30
0.0
 10
80.28553871690778
 20
-130.2876545898239
 30
0.0
 10
80.48018661182441
 20
-130.2876545898239
 30
0.0
 10
80.48018661182441
 20
-130.2876545898239
 30
0.0
 10
80.48018661182441
 20
-130.2876545898239
 30
0.0
 10
80.48018661182441
 20
-130.9032931530381
 30
0.0
 10
80.48018661182441
 20
-130.9032931530381
 30
0.0
 10
80.48018661182441
 20
-130.9032931530381
 30
0.0
 10
80.90324433741308
 20
-130.9687499672578
 30
0.0
 10
80.90324433741308
 20
-130.9687499672578
 30
0.0
 10
80.86931014688336
 20
-130.9074272676204
 30
0.0
 10
80.82917478448022
 20
-130.8247449759744
 30
0.0
 10
80.82917478448022
 20
-130.7062336912818
 30
0.0
 10
80.82917478448022
 20
-130.4526746635674
 30
0.0
 10
81.01538219545796
 20
-130.2156520941822
 30
0.0
 10
81.3283691202929
 20
-130.2156520941822
 30
0.0
 10
81.64583466925869
 20
-130.2156520941822
 30
0.0
 10
81.88061792657847
 20
-130.439927810272
 30
0.0
 10
81.88061792657847
 20
-130.7424071938769
 30
0.0
  0
HATCH
  5
D3
330
C2
100
AcDbEntity
  8
_U+30EC_U+30A4_U+30E4_U+30FC 1
 62
   179
420
  2234388
100
AcDbHatch
 10
0.0
 20
0.0
 30
0.0
210
0.0
220
0.0
230
1.0
  2
SOLID
 70
     1
 71
     0
 91
        1
 92
        1
 93
        1
 72
     4
 94
        3
 73
     0
 74
     1
 95
       53
 96
       49
 40
0.0
 40
0.0
 40
0.0
 40
0.0
 40
1.0
 40
1.0
 40
1.0
 40
2.0
 40
2.0
 40
2.0
 40
3.0
 40
3.0
 40
3.0
 40
4.0
 40
4.0
 40
4.0
 40
5.0
 40
5.0
 40
5.0
 40
6.0
 40
6.0
 40
6.0
 40
7.0
 40
7.0
 40
7.0
 40
8.0
 40
8.0
 40
8.0
 40
9.0
 40
9.0
 40
9.0
 40
10.0
 40
10.0
 40
10.0
 40
11.0
 40
11.0
 40
11.0
 40
12.0
 40
12.0
 40
12.0
 40
13.0
 40
13.0
 40
13.0
 40
14.0
 40
14.0
 40
14.0
 40
15.0
 40
15.0
 40
15.0
 40
16.0
 40
16.0
 40
16.0
 40
16.0
 10
81.88061792657847
 20
-130.7424071938769
 10
81.88061792657847
 20
-130.8206108613921
 10
81.86373695870074
 20
-130.9222411782069
 10
81.80017494699787
 20
-131.0238714950218
 10
81.69010414624414
 20
-131.1971597979299
 10
81.55901826303038
 20
-131.2181748803899
 10
81.45118677434206
 20
-131.2374674151073
 10
81.45118677434206
 20
-131.2374674151073
 10
81.45118677434206
 20
-131.0152587563087
 10
81.45118677434206
 20
-131.0152587563087
 10
81.64996878384099
 20
-130.9601372285447
 10
81.67959660501413
 20
-130.8333577146875
 10
81.67959660501413
 20
-130.7403401365858
 10
81.67959660501413
 20
-130.6004692598846
 10
81.58020560026468
 20
-130.4481960394366
 10
81.34748940023604
 20
-130.4481960394366
 10
81.09151880568199
 20
-130.4481960394366
 10
81.02175562210567
 20
-130.6280300237666
 10
81.02175562210567
 20
-130.7486083657504
 10
81.02175562210567
 20
-130.7803032442147
 10
81.02175562210567
 20
-130.9222411782069
 10
81.15077444802829
 20
-131.0111246417264
 10
81.15077444802829
 20
-131.0111246417264
 10
81.13165416808515
 20
-131.1864800019256
 10
81.13165416808515
 20
-131.1864800019256
 10
81.13165416808515
 20
-131.1864800019256
 10
80.28553871690778
 20
-131.0659016599419
 10
80.28553871690778
 20
-131.0659016599419
 10
80.28553871690778
 20
-131.0659016599419
 10
80.28553871690778
 20
-130.2876545898239
 10
80.28553871690778
 20
-130.2876545898239
 10
80.28553871690778
 20
-130.2876545898239
 10
80.48018661182441
 20
-130.2876545898239
 10
80.48018661182441
 20
-130.2876545898239
 10
80.48018661182441
 20
-130.2876545898239
 10
80.48018661182441
 20
-130.9032931530381
 10
80.48018661182441
 20
-130.9032931530381
 10
80.48018661182441
 20
-130.9032931530381
 10
80.90324433741308
 20
-130.9687499672578
 10
80.90324433741308
 20
-130.9687499672578
 10
80.86931014688336
 20
-130.9074272676204
 10
80.82917478448022
 20
-130.8247449759744
 10
80.82917478448022
 20
-130.7062336912818
 10
80.82917478448022
 20
-130.4526746635674
 10
81.01538219545796
 20
-130.2156520941822
 10
81.3283691202929
 20
-130.2156520941822
 10
81.64583466925869
 20
-130.2156520941822
 10
81.88061792657847
 20
-130.439927810272
 10
81.88061792657847
 20
-130.7424071938769
 97
        0
 97
        0
 75
     2
 76
     1
 98
        0
  0
ENDBLK
  5
C5
330
C2
100
AcDbEntity
  8
0
100
AcDbBlockEnd
  0
ENDSEC
  0
SECTION
  2
ENTITIES
  0
SPLINE
  5
41
330
1F
100
AcDbEntity
  8
_U+30EC_U+30A4_U+30E4_U+30FC 1
 62
     7
420
 16777215
370
     9
100
AcDbSpline
210
0.0
220
0.0
230
1.0
 70
    11
 71
     3
 72
    17
 73
    13
 74
     0
 42
0.0000000001
 43
0.0000000001
 12
1.0
 22
0.0
 32
0.0
 13
1.0
 23
0.0
 33
0.0
 40
0.0
 40
0.0
 40
0.0
 40
0.0
 40
1.0
 40
1.0
 40
1.0
 40
2.0
 40
2.0
 40
2.0
 40
3.0
 40
3.0
 40
3.0
 40
4.0
 40
4.0
 40
4.0
 40
4.0
 10
94.79456386519051
 20
-119.7274155256236
 30
0.0
 10
94.79456386519051
 20
-121.0303296919646
 30
0.0
 10
92.85943429762513
 20
-122.0866169139227
 30
0.0
 10
90.47285741406733
 20
-122.0866169139227
 30
0.0
 10
88.08628053050954
 20
-122.0866169139227
 30
0.0
 10
86.15132974654091
 20
-121.0303296919646
 30
0.0
 10
86.15132974654091
 20
-119.7274155256236
 30
0.0
 10
86.15132974654091
 20
-118.4244660815049
 30
0.0
 10
88.08628053050954
 20
-117.3682141373246
 30
0.0
 10
90.47285741406733
 20
-117.3682141373246
 30
0.0
 10
92.85943429762513
 20
-117.3682141373246
 30
0.0
 10
94.79456386519051
 20
-118.4244660815049
 30
0.0
 10
94.79456386519051
 20
-119.7274155256236
 30
0.0
  0
SPLINE
  5
42
330
1F
100
AcDbEntity
  8
_U+30EC_U+30A4_U+30E4_U+30FC 1
 62
     7
420
 16777215
370
     9
100
AcDbSpline
210
0.0
220
0.0
230
1.0
 70
    11
 71
     3
 72
    17
 73
    13
 74
     0
 42
0.0000000001
 43
0.0000000001
 12
1.0
 22
0.0
 32
0.0
 13
1.0
 23
0.0
 33
0.0
 40
0.0
 40
0.0
 40
0.0
 40
0.0
 40
1.0
 40
1.0
 40
1.0
 40
2.0
 40
2.0
 40
2.0
 40
3.0
 40
3.0
 40
3.0
 40
4.0
 40
4.0
 40
4.0
 40
4.0
 10
94.17720275423375
 20
-119.4187349701453
 30
0.0
 10
94.17720275423375
 20
-120.551116358751
 30
0.0
 10
92.49875430682684
 20
-121.469255802966
 30
0.0
 10
90.42876019297013
 20
-121.469255802966
 30
0.0
 10
88.35876607911341
 20
-121.469255802966
 30
0.0
 10
86.68049639970741
 20
-120.551116358751
 30
0.0
 10
86.68049639970741
 20
-119.4187349701453
 30
0.0
 10
86.68049639970741
 20
-118.2863183037617
 30
0.0
 10
88.35876607911341
 20
-117.3682141373246
 30
0.0
 10
90.42876019297013
 20
-117.3682141373246
 30
0.0
 10
92.49875430682684
 20
-117.3682141373246
 30
0.0
 10
94.17720275423375
 20
-118.2863183037617
 30
0.0
 10
94.17720275423375
 20
-119.4187349701453
 30
0.0
  0
SPLINE
  5
43
330
1F
100
AcDbEntity
  8
_U+30EC_U+30A4_U+30E4_U+30FC 1
 62
     7
420
 16777215
370
     9
100
AcDbSpline
210
0.0
220
0.0
230
1.0
 70
     8
 71
     3
 72
    17
 73
    13
 74
     0
 42
0.0000000001
 43
0.0000000001
 12
1.0
 22
0.0
 32
0.0
 13
1.0
 23
0.0
 33
0.0
 40
0.0
 40
0.0
 40
0.0
 40
0.0
 40
1.0
 40
1.0
 40
1.0
 40
2.0
 40
2.0
 40
2.0
 40
3.0
 40
3.0
 40
3.0
 40
4.0
 40
4.0
 40
4.0
 40
4.0
 10
86.1072325254437
 20
-120.1022419144188
 30
0.0
 10
86.1072325254437
 20
-120.1022419144188
 30
0.0
 10
86.1072325254437
 20
-122.7039780248795
 30
0.0
 10
86.1072325254437
 20
-122.7039780248795
 30
0.0
 10
86.1072325254437
 20
-122.7039780248795
 30
0.0
 10
86.90098250519345
 20
-124.820644691017
 30
0.0
 10
90.86973240394221
 20
-124.6883530243834
 30
0.0
 10
90.86973240394221
 20
-124.6883530243834
 30
0.0
 10
93.91261942096655
 20
-124.7324502465946
 30
0.0
 10
94.70636942076811
 20
-122.6157835804571
 30
0.0
 10
94.70636942076811
 20
-122.6157835804571
 30
0.0
 10
94.70636942076811
 20
-120.1022419144188
 30
0.0
 10
94.70636942076811
 20
-120.1022419144188
 30
0.0
  0
SPLINE
  5
44
330
1F
100
AcDbEntity
  8
_U+30EC_U+30A4_U+30E4_U+30FC 1
 62
     7
420
 16777215
370
     9
100
AcDbSpline
210
0.0
220
0.0
230
1.0
 70
     8
 71
     3
 72
     8
 73
     4
 74
     0
 42
0.0000000001
 43
0.0000000001
 12
1.0
 22
0.0
 32
0.0
 13
1.0
 23
0.0
 33
0.0
 40
0.0
 40
0.0
 40
0.0
 40
0.0
 40
1.0
 40
1.0
 40
1.0
 40
1.0
 10
88.1798019170125
 20
-124.4237696911162
 30
0.0
 10
88.1798019170125
 20
-124.4237696911162
 30
0.0
 10
90.12007964528966
 20
-126.2317558017753
 30
0.0
 10
92.7660916434754
 20
-124.3355752466938
 30
0.0
  0
SPLINE
  5
45
330
1F
100
AcDbEntity
  8
_U+30EC_U+30A4_U+30E4_U+30FC 1
 62
     7
420
 16777215
370
     9
100
AcDbSpline
210
0.0
220
0.0
230
1.0
 70
     8
 71
     3
 72
    17
 73
    13
 74
     0
 42
0.0000000001
 43
0.0000000001
 12
1.0
 22
0.0
 32
0.0
 13
1.0
 23
0.0
 33
0.0
 40
0.0
 40
0.0
 40
0.0
 40
0.0
 40
1.0
 40
1.0
 40
1.0
 40
2.0
 40
2.0
 40
2.0
 40
3.0
 40
3.0
 40
3.0
 40
4.0
 40
4.0
 40
4.0
 40
4.0
 10
86.32771863092975
 20
-123.0567558025691
 30
0.0
 10
86.32771863092975
 20
-123.0567558025691
 30
0.0
 10
86.0631353043465
 20
-123.3654363580475
 30
0.0
 10
86.0631353043465
 20
-123.7623113579482
 30
0.0
 10
86.0631353043465
 20
-123.7623113579482
 30
0.0
 10
86.76869084190183
 20
-126.3640474684089
 30
0.0
 10
90.91382962503943
 20
-125.9671724685082
 30
0.0
 10
90.91382962503943
 20
-125.9671724685082
 30
0.0
 10
94.26539719865615
 20
-126.0553669129305
 30
0.0
 10
94.75046664297932
 20
-123.8064085801595
 30
0.0
 10
94.75046664297932
 20
-123.8064085801595
 30
0.0
 10
94.88275830961291
 20
-123.1449502469915
 30
0.0
 10
94.52998053192333
 20
-123.1008530247803
 30
0.0
  0
SPLINE
  5
46
330
1F
100
AcDbEntity
  8
_U+30EC_U+30A4_U+30E4_U+30FC 1
 62
     7
420
 16777215
370
     9
100
AcDbSpline
210
0.0
220
0.0
230
1.0
 70
     8
 71
     3
 72
    17
 73
    13
 74
     0
 42
0.0000000001
 43
0.0000000001
 12
1.0
 22
0.0
 32
0.0
 13
1.0
 23
0.0
 33
0.0
 40
0.0
 40
0.0
 40
0.0
 40
0.0
 40
1.0
 40
1.0
 40
1.0
 40
2.0
 40
2.0
 40
2.0
 40
3.0
 40
3.0
 40
3.0
 40
4.0
 40
4.0
 40
4.0
 40
4.0
 10
86.1072325254437
 20
-124.159186357849
 30
0.0
 10
86.1072325254437
 20
-124.159186357849
 30
0.0
 10
86.1072325254437
 20
-125.7466863574522
 30
0.0
 10
86.1072325254437
 20
-125.7466863574522
 30
0.0
 10
86.1072325254437
 20
-125.7466863574522
 30
0.0
 10
86.94507972629066
 20
-127.9956446902232
 30
0.0
 10
91.3548018360115
 20
-127.5546724681113
 30
0.0
 10
91.3548018360115
 20
-127.5546724681113
 30
0.0
 10
93.47164719885458
 20
-127.7751585791673
 30
0.0
 10
94.70636942076811
 20
-125.4380058019738
 30
0.0
 10
94.70636942076811
 20
-125.4380058019738
 30
0.0
 10
94.70636942076811
 20
-124.0709919134266
 30
0.0
 10
94.70636942076811
 20
-124.0709919134266
 30
0.0
  0
SPLINE
  5
47
330
1F
100
AcDbEntity
  8
_U+30EC_U+30A4_U+30E4_U+30FC 1
 62
     7
420
 16777215
370
     9
100
AcDbSpline
210
0.0
220
0.0
230
1.0
 70
     8
 71
     3
 72
    14
 73
    10
 74
     0
 42
0.0000000001
 43
0.0000000001
 12
1.0
 22
0.0
 32
0.0
 13
1.0
 23
0.0
 33
0.0
 40
0.0
 40
0.0
 40
0.0
 40
0.0
 40
1.0
 40
1.0
 40
1.0
 40
2.0
 40
2.0
 40
2.0
 40
3.0
 40
3.0
 40
3.0
 40
3.0
 10
86.94507972629066
 20
-126.7609224683097
 30
0.0
 10
86.94507972629066
 20
-126.7609224683097
 30
0.0
 10
88.31209358030412
 20
-128.5689085789688
 30
0.0
 10
88.31209358030412
 20
-128.5689085789688
 30
0.0
 10
88.31209358030412
 20
-128.5689085789688
 30
0.0
 10
89.81139909760921
 20
-129.6272419120376
 30
0.0
 10
92.28102219915223
 20
-128.7012002456024
 30
0.0
 10
92.28102219915223
 20
-128.7012002456024
 30
0.0
 10
94.70636942076811
 20
-125.5702974686074
 30
0.0
 10
94.70636942076811
 20
-125.5702974686074
 30
0.0
  0
SPLINE
  5
48
330
1F
100
AcDbEntity
  8
_U+30EC_U+30A4_U+30E4_U+30FC 1
 62
     7
420
 16777215
370
     9
100
AcDbSpline
210
0.0
220
0.0
230
1.0
 70
    11
 71
     3
 72
    17
 73
    13
 74
     0
 42
0.0000000001
 43
0.0000000001
 12
1.0
 22
0.0
 32
0.0
 13
1.0
 23
0.0
 33
0.0
 40
0.0
 40
0.0
 40
0.0
 40
0.0
 40
1.0
 40
1.0
 40
1.0
 40
2.0
 40
2.0
 40
2.0
 40
3.0
 40
3.0
 40
3.0
 40
4.0
 40
4.0
 40
4.0
 40
4.0
 10
87.62805748664422
 20
-133.6176877443732
 30
0.0
 10
87.69198081834674
 20
-133.8781435776418
 30
0.0
 10
87.29062775595516
 20
-134.20026496645
 30
0.0
 10
86.73147497831715
 20
-134.3373544108603
 30
0.0
 10
86.17235530156006
 20
-134.4748319108258
 30
0.0
 10
85.66745975888547
 20
-134.3752780219619
 30
0.0
 10
85.60357170495983
 20
-134.1151396886937
 30
0.0
 10
85.53964837325732
 20
-133.8547191332033
 30
0.0
 10
85.94100364079567
 20
-133.5325977443944
 30
0.0
 10
86.49998001542389
 20
-133.3954730222066
 30
0.0
 10
87.059273890044
 20
-133.2580308000186
 30
0.0
 10
87.56416943271859
 20
-133.3575846888831
 30
0.0
 10
87.62805748664422
 20
-133.6176877443732
 30
0.0
  0
SPLINE
  5
49
330
1F
100
AcDbEntity
  8
_U+30EC_U+30A4_U+30E4_U+30FC 1
 62
     7
420
 16777215
370
     9
100
AcDbSpline
210
0.0
220
0.0
230
1.0
 70
    11
 71
     3
 72
    17
 73
    13
 74
     0
 42
0.0000000001
 43
0.0000000001
 12
1.0
 22
0.0
 32
0.0
 13
1.0
 23
0.0
 33
0.0
 40
0.0
 40
0.0
 40
0.0
 40
0.0
 40
1.0
 40
1.0
 40
1.0
 40
2.0
 40
2.0
 40
2.0
 40
3.0
 40
3.0
 40
3.0
 40
4.0
 40
4.0
 40
4.0
 40
4.0
 10
87.3007855505492
 20
-133.5894302443806
 30
0.0
 10
87.35056249372371
 20
-133.7923480221074
 30
0.0
 10
87.03793083503295
 20
-134.0431377442669
 30
0.0
 10
86.60228556836941
 20
-134.1503116331289
 30
0.0
 10
86.16649919059836
 20
-134.2574502442133
 30
0.0
 10
85.77304614508063
 20
-134.1795921886773
 30
0.0
 10
85.72326920190609
 20
-133.9769919109501
 30
0.0
 10
85.67349442302617
 20
-133.7740741332233
 30
0.0
 10
85.98630030630672
 20
-133.522931633286
 30
0.0
 10
86.42176918408587
 20
-133.4161457999793
 30
0.0
 10
86.85755556185693
 20
-133.3090071888948
 30
0.0
 10
87.25100860737466
 20
-133.3868652444309
 30
0.0
 10
87.3007855505492
 20
-133.5894302443806
 30
0.0
  0
SPLINE
  5
4A
330
1F
100
AcDbEntity
  8
_U+30EC_U+30A4_U+30E4_U+30FC 1
 62
     7
420
 16777215
370
     9
100
AcDbSpline
210
0.0
220
0.0
230
1.0
 70
     8
 71
     3
 72
    17
 73
    13
 74
     0
 42
0.0000000001
 43
0.0000000001
 12
1.0
 22
0.0
 32
0.0
 13
1.0
 23
0.0
 33
0.0
 40
0.0
 40
0.0
 40
0.0
 40
0.0
 40
1.0
 40
1.0
 40
1.0
 40
2.0
 40
2.0
 40
2.0
 40
3.0
 40
3.0
 40
3.0
 40
4.0
 40
4.0
 40
4.0
 40
4.0
 10
89.32632966553992
 20
-129.053978023292
 30
0.0
 10
89.32632966553992
 20
-129.053978023292
 30
0.0
 10
89.37042688663712
 20
-129.9800196897272
 30
0.0
 10
89.37042688663712
 20
-129.9800196897272
 30
0.0
 10
89.37042688663712
 20
-129.9800196897272
 30
0.0
 10
90.86973240394221
 20
-131.1706446894295
 30
0.0
 10
91.39907775492827
 20
-131.5675196893303
 30
0.0
 10
91.39907775492827
 20
-131.5675196893303
 30
0.0
 10
92.32511942136342
 20
-133.287311355567
 30
0.0
 10
90.38466297187291
 20
-135.0071030218037
 30
0.0
 10
90.38466297187291
 20
-135.0071030218037
 30
0.0
 10
89.54681577102596
 20
-136.1095335770837
 30
0.0
 10
88.26799635920692
 20
-136.1536307992949
 30
0.0
  0
SPLINE
  5
4B
330
1F
100
AcDbEntity
  8
_U+30EC_U+30A4_U+30E4_U+30FC 1
 62
     7
420
 16777215
370
     9
100
AcDbSpline
210
0.0
220
0.0
230
1.0
 70
     8
 71
     3
 72
    11
 73
     7
 74
     0
 42
0.0000000001
 43
0.0000000001
 12
1.0
 22
0.0
 32
0.0
 13
1.0
 23
0.0
 33
0.0
 40
0.0
 40
0.0
 40
0.0
 40
0.0
 40
1.0
 40
1.0
 40
1.0
 40
2.0
 40
2.0
 40
2.0
 40
2.0
 10
87.62805748664422
 20
-133.6176877443732
 30
0.0
 10
87.62805748664422
 20
-133.6176877443732
 30
0.0
 10
88.00341303262367
 20
-135.4480752439157
 30
0.0
 10
88.00341303262367
 20
-135.4480752439157
 30
0.0
 10
88.00341303262367
 20
-135.4480752439157
 30
0.0
 10
88.26799635920692
 20
-136.4623113547732
 30
0.0
 10
88.66487134908179
 20
-136.4623113547732
 30
0.0
  0
SPLINE
  5
4C
330
1F
100
AcDbEntity
  8
_U+30EC_U+30A4_U+30E4_U+30FC 1
 62
     7
420
 16777215
370
     9
100
AcDbSpline
210
0.0
220
0.0
230
1.0
 70
     8
 71
     3
 72
    20
 73
    16
 74
     0
 42
0.0000000001
 43
0.0000000001
 12
1.0
 22
0.0
 32
0.0
 13
1.0
 23
0.0
 33
0.0
 40
0.0
 40
0.0
 40
0.0
 40
0.0
 40
1.0
 40
1.0
 40
1.0
 40
2.0
 40
2.0
 40
2.0
 40
3.0
 40
3.0
 40
3.0
 40
4.0
 40
4.0
 40
4.0
 40
5.0
 40
5.0
 40
5.0
 40
5.0
 10
91.61956386598426
 20
-128.9216863566584
 30
0.0
 10
91.61956386598426
 20
-128.9216863566584
 30
0.0
 10
91.61956386598426
 20
-129.1862696899256
 30
0.0
 10
91.61956386598426
 20
-129.1862696899256
 30
0.0
 10
91.61956386598426
 20
-129.1862696899256
 30
0.0
 10
94.13310553202254
 20
-130.2446030229943
 30
0.0
 10
93.60393886548817
 20
-132.625853022399
 30
0.0
 10
93.60393886548817
 20
-132.625853022399
 30
0.0
 10
92.7660916434754
 20
-137.3442557989972
 30
0.0
 10
88.92945467566504
 20
-138.2262002432212
 30
0.0
 10
88.92945467566504
 20
-138.2262002432212
 30
0.0
 10
86.85688528409625
 20
-138.3584919098548
 30
0.0
 10
86.46001029422138
 20
-136.9473807990964
 30
0.0
 10
86.46001029422138
 20
-136.9473807990964
 30
0.0
 10
85.60357170495983
 20
-134.1151396886937
 30
0.0
 10
85.60357170495983
 20
-134.1151396886937
 30
0.0
  0
POLYLINE
  5
4D
330
1F
100
AcDbEntity
  8
_U+30EC_U+30A4_U+30E4_U+30FC 1
 62
     7
420
 16777215
370
     9
100
AcDb2dPolyline
 66
     1
 10
0.0
 20
0.0
 30
0.0
  0
VERTEX
  5
4E
330
4D
100
AcDbEntity
  8
_U+30EC_U+30A4_U+30E4_U+30FC 1
 62
     7
420
 16777215
370
     9
100
AcDbVertex
100
AcDb2dVertex
 10
79.7572326874457
 20
-116.9272419152126
 30
0.0
  0
VERTEX
  5
4F
330
4D
100
AcDbEntity
  8
_U+30EC_U+30A4_U+30E4_U+30FC 1
 62
     7
420
 16777215
370
     9
100
AcDbVertex
100
AcDb2dVertex
 10
84.60792700813862
 20
-119.3084919146173
 30
0.0
  0
SEQEND
  5
50
330
4D
100
AcDbEntity
  8
_U+30EC_U+30A4_U+30E4_U+30FC 1
 62
     7
420
 16777215
370
     9
  0
POLYLINE
  5
51
330
1F
100
AcDbEntity
  8
_U+30EC_U+30A4_U+30E4_U+30FC 1
 62
     7
420
 16777215
370
     9
100
AcDb2dPolyline
 66
     1
 10
0.0
 20
0.0
 30
0.0
  0
VERTEX
  5
52
330
51
100
AcDbEntity
  8
_U+30EC_U+30A4_U+30E4_U+30FC 1
 62
     7
420
 16777215
370
     9
100
AcDbVertex
100
AcDb2dVertex
 10
80.72737155158428
 20
-117.3682141373246
 30
0.0
  0
VERTEX
  5
53
330
51
100
AcDbEntity
  8
_U+30EC_U+30A4_U+30E4_U+30FC 1
 62
     7
420
 16777215
370
     9
100
AcDbVertex
100
AcDb2dVertex
 10
81.52112153133403
 20
-116.8390474707902
 30
0.0
  0
SEQEND
  5
54
330
51
100
AcDbEntity
  8
_U+30EC_U+30A4_U+30E4_U+30FC 1
 62
     7
420
 16777215
370
     9
  0
POLYLINE
  5
55
330
1F
100
AcDbEntity
  8
_U+30EC_U+30A4_U+30E4_U+30FC 1
 62
     7
420
 16777215
370
     9
100
AcDb2dPolyline
 66
     1
 10
0.0
 20
0.0
 30
0.0
  0
VERTEX
  5
56
330
55
100
AcDbEntity
  8
_U+30EC_U+30A4_U+30E4_U+30FC 1
 62
     7
420
 16777215
370
     9
100
AcDbVertex
100
AcDb2dVertex
 10
83.85827424948607
 20
-115.0310613601311
 30
0.0
  0
VERTEX
  5
57
330
55
100
AcDbEntity
  8
_U+30EC_U+30A4_U+30E4_U+30FC 1
 62
     7
420
 16777215
370
     9
100
AcDbVertex
100
AcDb2dVertex
 10
84.78431589252746
 20
-114.3255058047519
 30
0.0
  0
SEQEND
  5
58
330
55
100
AcDbEntity
  8
_U+30EC_U+30A4_U+30E4_U+30FC 1
 62
     7
420
 16777215
370
     9
  0
POLYLINE
  5
59
330
1F
100
AcDbEntity
  8
_U+30EC_U+30A4_U+30E4_U+30FC 1
 62
     7
420
 16777215
370
     9
100
AcDb2dPolyline
 66
     1
 10
0.0
 20
0.0
 30
0.0
  0
VERTEX
  5
5A
330
59
100
AcDbEntity
  8
_U+30EC_U+30A4_U+30E4_U+30FC 1
 62
     7
420
 16777215
370
     9
100
AcDbVertex
100
AcDb2dVertex
 10
83.68188536509724
 20
-113.7963391382175
 30
0.0
  0
VERTEX
  5
5B
330
59
100
AcDbEntity
  8
_U+30EC_U+30A4_U+30E4_U+30FC 1
 62
     7
420
 16777215
370
     9
100
AcDbVertex
100
AcDb2dVertex
 10
88.79716301237342
 20
-116.3098808042558
 30
0.0
  0
SEQEND
  5
5C
330
59
100
AcDbEntity
  8
_U+30EC_U+30A4_U+30E4_U+30FC 1
 62
     7
420
 16777215
370
     9
  0
POLYLINE
  5
5D
330
1F
100
AcDbEntity
  8
_U+30EC_U+30A4_U+30E4_U+30FC 1
 62
     7
420
 16777215
370
     9
100
AcDb2dPolyline
 66
     1
 10
0.0
 20
0.0
 30
0.0
  0
VERTEX
  5
5E
330
5D
100
AcDbEntity
  8
_U+30EC_U+30A4_U+30E4_U+30FC 1
 62
     7
420
 16777215
370
     9
100
AcDbVertex
100
AcDb2dVertex
 10
80.41869100390382
 20
-123.4095335802587
 30
0.0
  0
VERTEX
  5
5F
330
5D
100
AcDbEntity
  8
_U+30EC_U+30A4_U+30E4_U+30FC 1
 62
     7
420
 16777215
370
     9
100
AcDbVertex
100
AcDb2dVertex
 10
84.03466313387491
 20
-121.24876969191
 30
0.0
  0
SEQEND
  5
60
330
5D
100
AcDbEntity
  8
_U+30EC_U+30A4_U+30E4_U+30FC 1
 62
     7
420
 16777215
370
     9
  0
POLYLINE
  5
61
330
1F
100
AcDbEntity
  8
_U+30EC_U+30A4_U+30E4_U+30FC 1
 62
     7
420
 16777215
370
     9
100
AcDb2dPolyline
 66
     1
 10
0.0
 20
0.0
 30
0.0
  0
VERTEX
  5
62
330
61
100
AcDbEntity
  8
_U+30EC_U+30A4_U+30E4_U+30FC 1
 62
     7
420
 16777215
370
     9
100
AcDbVertex
100
AcDb2dVertex
 10
81.38882986804241
 20
-122.7921724693019
 30
0.0
  0
VERTEX
  5
63
330
61
100
AcDbEntity
  8
_U+30EC_U+30A4_U+30E4_U+30FC 1
 62
     7
420
 16777215
370
     9
100
AcDbVertex
100
AcDb2dVertex
 10
81.38882986804241
 20
-129.6272419120376
 30
0.0
  0
SEQEND
  5
64
330
61
100
AcDbEntity
  8
_U+30EC_U+30A4_U+30E4_U+30FC 1
 62
     7
420
 16777215
370
     9
  0
POLYLINE
  5
65
330
1F
100
AcDbEntity
  8
_U+30EC_U+30A4_U+30E4_U+30FC 1
 62
     7
420
 16777215
370
     9
100
AcDb2dPolyline
 66
     1
 10
0.0
 20
0.0
 30
0.0
  0
VERTEX
  5
66
330
65
100
AcDbEntity
  8
_U+30EC_U+30A4_U+30E4_U+30FC 1
 62
     7
420
 16777215
370
     9
100
AcDbVertex
100
AcDb2dVertex
 10
81.30063542584799
 20
-134.2133530220022
 30
0.0
  0
VERTEX
  5
67
330
65
100
AcDbEntity
  8
_U+30EC_U+30A4_U+30E4_U+30FC 1
 62
     7
420
 16777215
370
     9
100
AcDbVertex
100
AcDb2dVertex
 10
81.30063542584799
 20
-141.4452974646386
 30
0.0
  0
SEQEND
  5
68
330
65
100
AcDbEntity
  8
_U+30EC_U+30A4_U+30E4_U+30FC 1
 62
     7
420
 16777215
370
     9
  0
POLYLINE
  5
69
330
1F
100
AcDbEntity
  8
_U+30EC_U+30A4_U+30E4_U+30FC 1
 62
     7
420
 16777215
370
     9
100
AcDb2dPolyline
 66
     1
 10
0.0
 20
0.0
 30
0.0
  0
VERTEX
  5
6A
330
69
100
AcDbEntity
  8
_U+30EC_U+30A4_U+30E4_U+30FC 1
 62
     7
420
 16777215
370
     9
100
AcDbVertex
100
AcDb2dVertex
 10
80.24230211951499
 20
-141.8862696867506
 30
0.0
  0
VERTEX
  5
6B
330
69
100
AcDbEntity
  8
_U+30EC_U+30A4_U+30E4_U+30FC 1
 62
     7
420
 16777215
370
     9
100
AcDbVertex
100
AcDb2dVertex
 10
83.81417702838887
 20
-140.3869641315699
 30
0.0
  0
SEQEND
  5
6C
330
69
100
AcDbEntity
  8
_U+30EC_U+30A4_U+30E4_U+30FC 1
 62
     7
420
 16777215
370
     9
  0
POLYLINE
  5
6D
330
1F
100
AcDbEntity
  8
_U+30EC_U+30A4_U+30E4_U+30FC 1
 62
     7
420
 16777215
370
     9
100
AcDb2dPolyline
 66
     1
 10
0.0
 20
0.0
 30
0.0
  0
VERTEX
  5
6E
330
6D
100
AcDbEntity
  8
_U+30EC_U+30A4_U+30E4_U+30FC 1
 62
     7
420
 16777215
370
     9
100
AcDbVertex
100
AcDb2dVertex
 10
89.85549631870641
 20
-140.6515474648371
 30
0.0
  0
VERTEX
  5
6F
330
6D
100
AcDbEntity
  8
_U+30EC_U+30A4_U+30E4_U+30FC 1
 62
     7
420
 16777215
370
     9
100
AcDbVertex
100
AcDb2dVertex
 10
94.75046664297932
 20
-143.1209919086641
 30
0.0
  0
SEQEND
  5
70
330
6D
100
AcDbEntity
  8
_U+30EC_U+30A4_U+30E4_U+30FC 1
 62
     7
420
 16777215
370
     9
  0
POLYLINE
  5
71
330
1F
100
AcDbEntity
  8
_U+30EC_U+30A4_U+30E4_U+30FC 1
 62
     7
420
 16777215
370
     9
100
AcDb2dPolyline
 66
     1
 10
0.0
 20
0.0
 30
0.0
  0
VERTEX
  5
72
330
71
100
AcDbEntity
  8
_U+30EC_U+30A4_U+30E4_U+30FC 1
 62
     7
420
 16777215
370
     9
100
AcDbVertex
100
AcDb2dVertex
 10
93.0306749767426
 20
-142.2390474644402
 30
0.0
  0
VERTEX
  5
73
330
71
100
AcDbEntity
  8
_U+30EC_U+30A4_U+30E4_U+30FC 1
 62
     7
420
 16777215
370
     9
100
AcDbVertex
100
AcDb2dVertex
 10
94.61817497634573
 20
-140.8720335758931
 30
0.0
  0
SEQEND
  5
74
330
71
100
AcDbEntity
  8
_U+30EC_U+30A4_U+30E4_U+30FC 1
 62
     7
420
 16777215
370
     9
  0
POLYLINE
  5
75
330
1F
100
AcDbEntity
  8
_U+30EC_U+30A4_U+30E4_U+30FC 1
 62
     7
420
 16777215
370
     9
100
AcDb2dPolyline
 66
     1
 10
0.0
 20
0.0
 30
0.0
  0
VERTEX
  5
76
330
75
100
AcDbEntity
  8
_U+30EC_U+30A4_U+30E4_U+30FC 1
 62
     7
420
 16777215
370
     9
100
AcDbVertex
100
AcDb2dVertex
 10
95.41192497614729
 20
-135.8449502438165
 30
0.0
  0
VERTEX
  5
77
330
75
100
AcDbEntity
  8
_U+30EC_U+30A4_U+30E4_U+30FC 1
 62
     7
420
 16777215
370
     9
100
AcDbVertex
100
AcDb2dVertex
 10
100.2185221971679
 20
-138.1380057987988
 30
0.0
  0
SEQEND
  5
78
330
75
100
AcDbEntity
  8
_U+30EC_U+30A4_U+30E4_U+30FC 1
 62
     7
420
 16777215
370
     9
  0
POLYLINE
  5
79
330
1F
100
AcDbEntity
  8
_U+30EC_U+30A4_U+30E4_U+30FC 1
 62
     7
420
 16777215
370
     9
100
AcDb2dPolyline
 66
     1
 10
0.0
 20
0.0
 30
0.0
  0
VERTEX
  5
7A
330
79
100
AcDbEntity
  8
_U+30EC_U+30A4_U+30E4_U+30FC 1
 62
     7
420
 16777215
370
     9
100
AcDbVertex
100
AcDb2dVertex
 10
97.57268886449599
 20
-138.843561354178
 30
0.0
  0
VERTEX
  5
7B
330
79
100
AcDbEntity
  8
_U+30EC_U+30A4_U+30E4_U+30FC 1
 62
     7
420
 16777215
370
     9
100
AcDbVertex
100
AcDb2dVertex
 10
99.16018886409911
 20
-137.6088391322644
 30
0.0
  0
SEQEND
  5
7C
330
79
100
AcDbEntity
  8
_U+30EC_U+30A4_U+30E4_U+30FC 1
 62
     7
420
 16777215
370
     9
  0
POLYLINE
  5
7D
330
1F
100
AcDbEntity
  8
_U+30EC_U+30A4_U+30E4_U+30FC 1
 62
     7
420
 16777215
370
     9
100
AcDb2dPolyline
 66
     1
 10
0.0
 20
0.0
 30
0.0
  0
VERTEX
  5
7E
330
7D
100
AcDbEntity
  8
_U+30EC_U+30A4_U+30E4_U+30FC 1
 62
     7
420
 16777215
370
     9
100
AcDbVertex
100
AcDb2dVertex
 10
94.70636942076811
 20
-131.0383530227959
 30
0.0
  0
VERTEX
  5
7F
330
7D
100
AcDbEntity
  8
_U+30EC_U+30A4_U+30E4_U+30FC 1
 62
     7
420
 16777215
370
     9
100
AcDbVertex
100
AcDb2dVertex
 10
94.44178608750093
 20
-130.5532835784727
 30
0.0
  0
VERTEX
  5
80
330
7D
100
AcDbEntity
  8
_U+30EC_U+30A4_U+30E4_U+30FC 1
 62
     7
420
 16777215
370
     9
100
AcDbVertex
100
AcDb2dVertex
 10
94.17720275423375
 20
-131.6116169115415
 30
0.0
  0
VERTEX
  5
81
330
7D
100
AcDbEntity
  8
_U+30EC_U+30A4_U+30E4_U+30FC 1
 62
     7
420
 16777215
370
     9
100
AcDbVertex
100
AcDb2dVertex
 10
95.32373053172489
 20
-131.1706446894295
 30
0.0
  0
VERTEX
  5
82
330
7D
100
AcDbEntity
  8
_U+30EC_U+30A4_U+30E4_U+30FC 1
 62
     7
420
 16777215
370
     9
100
AcDbVertex
100
AcDb2dVertex
 10
94.70636942076811
 20
-131.0383530227959
 30
0.0
  0
SEQEND
  5
84
330
7D
100
AcDbEntity
  8
_U+30EC_U+30A4_U+30E4_U+30FC 1
 62
     7
420
 16777215
370
     9
  0
HATCH
  5
83
330
1F
100
AcDbEntity
  8
_U+30EC_U+30A4_U+30E4_U+30FC 1
 62
   179
420
  2234388
100
AcDbHatch
 10
0.0
 20
0.0
 30
0.0
210
0.0
220
0.0
230
1.0
  2
SOLID
 70
     1
 71
     0
 91
        1
 92
        1
 93
        4
 72
     1
 10
94.70636942076811
 20
-131.0383530227959
 11
94.44178608750093
 21
-130.5532835784727
 72
     1
 10
94.44178608750093
 20
-130.5532835784727
 11
94.17720275423375
 21
-131.6116169115415
 72
     1
 10
94.17720275423375
 20
-131.6116169115415
 11
95.32373053172489
 21
-131.1706446894295
 72
     1
 10
95.32373053172489
 20
-131.1706446894295
 11
94.70636942076811
 21
-131.0383530227959
 97
        0
 75
     2
 76
     1
 98
        0
  0
POLYLINE
  5
85
330
1F
100
AcDbEntity
  8
_U+30EC_U+30A4_U+30E4_U+30FC 1
 62
     7
420
 16777215
370
     9
100
AcDb2dPolyline
 66
     1
 10
0.0
 20
0.0
 30
0.0
  0
VERTEX
  5
86
330
85
100
AcDbEntity
  8
_U+30EC_U+30A4_U+30E4_U+30FC 1
 62
     7
420
 16777215
370
     9
100
AcDbVertex
100
AcDb2dVertex
 10
94.70636942076811
 20
-131.0383530227959
 30
0.0
  0
VERTEX
  5
87
330
85
100
AcDbEntity
  8
_U+30EC_U+30A4_U+30E4_U+30FC 1
 62
     7
420
 16777215
370
     9
100
AcDbVertex
100
AcDb2dVertex
 10
96.91123053132802
 20
-128.5689085789688
 30
0.0
  0
VERTEX
  5
88
330
85
100
AcDbEntity
  8
_U+30EC_U+30A4_U+30E4_U+30FC 1
 62
     7
420
 16777215
370
     9
100
AcDbVertex
100
AcDb2dVertex
 10
102.5115777521501
 20
-128.61300580118
 30
0.0
  0
SEQEND
  5
89
330
85
100
AcDbEntity
  8
_U+30EC_U+30A4_U+30E4_U+30FC 1
 62
     7
420
 16777215
370
     9
  0
INSERT
  5
8B
330
1F
100
AcDbEntity
  8
_U+30EC_U+30A4_U+30E4_U+30FC 1
100
AcDbBlockReference
  2
block 2
 10
0.0
 20
0.0
 30
0.0
  0
INSERT
  5
A0
330
1F
100
AcDbEntity
  8
_U+30EC_U+30A4_U+30E4_U+30FC 1
100
AcDbBlockReference
  2
block 3
 10
0.0
 20
0.0
 30
0.0
  0
INSERT
  5
BB
330
1F
100
AcDbEntity
  8
_U+30EC_U+30A4_U+30E4_U+30FC 1
100
AcDbBlockReference
  2
block 4
 10
0.0
 20
0.0
 30
0.0
  0
INSERT
  5
C3
330
1F
100
AcDbEntity
  8
_U+30EC_U+30A4_U+30E4_U+30FC 1
100
AcDbBlockReference
  2
block 5
 10
0.0
 20
0.0
 30
0.0
  0
SPLINE
  5
D4
330
1F
100
AcDbEntity
  8
_U+30EC_U+30A4_U+30E4_U+30FC 1
370
     0
100
AcDbSpline
210
0.0
220
0.0
230
1.0
 70
     8
 71
     3
 72
    11
 73
     7
 74
     0
 42
0.0000000001
 43
0.0000000001
 12
1.0
 22
0.0
 32
0.0
 13
1.0
 23
0.0
 33
0.0
 40
0.0
 40
0.0
 40
0.0
 40
0.0
 40
1.0
 40
1.0
 40
1.0
 40
2.0
 40
2.0
 40
2.0
 40
2.0
 10
84.99601783157094
 20
-114.3430741380808
 30
0.0
 10
84.99601783157094
 20
-114.4746602491592
 30
0.0
 10
84.88937311206945
 20
-114.5811285824659
 30
0.0
 10
84.75778700431538
 20
-114.5811285824659
 30
0.0
 10
84.62634200766881
 20
-114.5811285824659
 30
0.0
 10
84.51973256594421
 20
-114.4746602491592
 30
0.0
 10
84.51973256594421
 20
-114.3430741380808
 30
0.0
  0
HATCH
  5
D5
330
1F
100
AcDbEntity
  8
_U+30EC_U+30A4_U+30E4_U+30FC 1
 62
   179
420
  2234388
100
AcDbHatch
 10
0.0
 20
0.0
 30
0.0
210
0.0
220
0.0
230
1.0
  2
SOLID
 70
     1
 71
     0
 91
        1
 92
        1
 93
        2
 72
     4
 94
        3
 73
     0
 74
     0
 95
       11
 96
        7
 40
0.0
 40
0.0
 40
0.0
 40
0.0
 40
0.3527777776895833
 40
0.3527777776895833
 40
0.3527777776895833
 40
0.7055555553791667
 40
0.7055555553791667
 40
0.7055555553791667
 40
0.7055555553791667
 10
84.99601783157094
 20
-114.3430741380808
 10
84.99601783157094
 20
-114.4746602491592
 10
84.88937311206945
 20
-114.5811285824659
 10
84.75778700431538
 20
-114.5811285824659
 10
84.62634200766881
 20
-114.5811285824659
 10
84.51973256594421
 20
-114.4746602491592
 10
84.51973256594421
 20
-114.3430741380808
 97
        0
 72
     1
 10
84.51973256594421
 20
-114.3430741380808
 11
84.99601783157094
 21
-114.3430741380808
 97
        0
 75
     2
 76
     1
 98
        0
  0
SPLINE
  5
D6
330
1F
100
AcDbEntity
  8
_U+30EC_U+30A4_U+30E4_U+30FC 1
370
     0
100
AcDbSpline
210
0.0
220
0.0
230
1.0
 70
    11
 71
     3
 72
    17
 73
    13
 74
     0
 42
0.0000000001
 43
0.0000000001
 12
1.0
 22
0.0
 32
0.0
 13
1.0
 23
0.0
 33
0.0
 40
0.0
 40
0.0
 40
0.0
 40
0.0
 40
1.0
 40
1.0
 40
1.0
 40
2.0
 40
2.0
 40
2.0
 40
3.0
 40
3.0
 40
3.0
 40
4.0
 40
4.0
 40
4.0
 40
4.0
 10
80.85087904843334
 20
-117.3857824706534
 30
0.0
 10
80.85087904843334
 20
-117.5173685817318
 30
0.0
 10
80.74423432893185
 20
-117.6238369150386
 30
0.0
 10
80.61264822117778
 20
-117.6238369150386
 30
0.0
 10
80.48120322453123
 20
-117.6238369150386
 30
0.0
 10
80.37459378280661
 20
-117.5173685817318
 30
0.0
 10
80.37459378280661
 20
-117.3857824706534
 30
0.0
 10
80.37459378280661
 20
-117.2541610817975
 30
0.0
 10
80.48120322453123
 20
-117.1477280262686
 30
0.0
 10
80.61264822117778
 20
-117.1477280262686
 30
0.0
 10
80.74423432893185
 20
-117.1477280262686
 30
0.0
 10
80.85087904843334
 20
-117.2541610817975
 30
0.0
 10
80.85087904843334
 20
-117.3857824706534
 30
0.0
  0
HATCH
  5
D7
330
1F
100
AcDbEntity
  8
_U+30EC_U+30A4_U+30E4_U+30FC 1
 62
   179
420
  2234388
100
AcDbHatch
 10
0.0
 20
0.0
 30
0.0
210
0.0
220
0.0
230
1.0
  2
SOLID
 70
     1
 71
     0
 91
        1
 92
        1
 93
        1
 72
     4
 94
        3
 73
     0
 74
     1
 95
       17
 96
       13
 40
0.0
 40
0.0
 40
0.0
 40
0.0
 40
1.0
 40
1.0
 40
1.0
 40
2.0
 40
2.0
 40
2.0
 40
3.0
 40
3.0
 40
3.0
 40
4.0
 40
4.0
 40
4.0
 40
4.0
 10
80.85087904843334
 20
-117.3857824706534
 10
80.85087904843334
 20
-117.5173685817318
 10
80.74423432893185
 20
-117.6238369150386
 10
80.61264822117778
 20
-117.6238369150386
 10
80.48120322453123
 20
-117.6238369150386
 10
80.37459378280661
 20
-117.5173685817318
 10
80.37459378280661
 20
-117.3857824706534
 10
80.37459378280661
 20
-117.2541610817975
 10
80.48120322453123
 20
-117.1477280262686
 10
80.61264822117778
 20
-117.1477280262686
 10
80.74423432893185
 20
-117.1477280262686
 10
80.85087904843334
 20
-117.2541610817975
 10
80.85087904843334
 20
-117.3857824706534
 97
        0
 97
        0
 75
     2
 76
     1
 98
        0
  0
SPLINE
  5
D8
330
1F
100
AcDbEntity
  8
_U+30EC_U+30A4_U+30E4_U+30FC 1
370
     0
100
AcDbSpline
210
0.0
220
0.0
230
1.0
 70
    11
 71
     3
 72
    17
 73
    13
 74
     0
 42
0.0000000001
 43
0.0000000001
 12
1.0
 22
0.0
 32
0.0
 13
1.0
 23
0.0
 33
0.0
 40
0.0
 40
0.0
 40
0.0
 40
0.0
 40
1.0
 40
1.0
 40
1.0
 40
2.0
 40
2.0
 40
2.0
 40
3.0
 40
3.0
 40
3.0
 40
4.0
 40
4.0
 40
4.0
 40
4.0
 10
81.55643458598868
 20
-122.853838024842
 30
0.0
 10
81.55643458598868
 20
-122.9854241359204
 30
0.0
 10
81.4497898664872
 20
-123.0918924692271
 30
0.0
 10
81.31820375873312
 20
-123.0918924692271
 30
0.0
 10
81.18675876208655
 20
-123.0918924692271
 30
0.0
 10
81.08014932036195
 20
-122.9854241359204
 30
0.0
 10
81.08014932036195
 20
-122.853838024842
 30
0.0
 10
81.08014932036195
 20
-122.722216635986
 30
0.0
 10
81.18675876208655
 20
-122.6157835804571
 30
0.0
 10
81.31820375873312
 20
-122.6157835804571
 30
0.0
 10
81.4497898664872
 20
-122.6157835804571
 30
0.0
 10
81.55643458598868
 20
-122.722216635986
 30
0.0
 10
81.55643458598868
 20
-122.853838024842
 30
0.0
  0
HATCH
  5
D9
330
1F
100
AcDbEntity
  8
_U+30EC_U+30A4_U+30E4_U+30FC 1
 62
   179
420
  2234388
100
AcDbHatch
 10
0.0
 20
0.0
 30
0.0
210
0.0
220
0.0
230
1.0
  2
SOLID
 70
     1
 71
     0
 91
        1
 92
        1
 93
        1
 72
     4
 94
        3
 73
     0
 74
     1
 95
       17
 96
       13
 40
0.0
 40
0.0
 40
0.0
 40
0.0
 40
1.0
 40
1.0
 40
1.0
 40
2.0
 40
2.0
 40
2.0
 40
3.0
 40
3.0
 40
3.0
 40
4.0
 40
4.0
 40
4.0
 40
4.0
 10
81.55643458598868
 20
-122.853838024842
 10
81.55643458598868
 20
-122.9854241359204
 10
81.4497898664872
 20
-123.0918924692271
 10
81.31820375873312
 20
-123.0918924692271
 10
81.18675876208655
 20
-123.0918924692271
 10
81.08014932036195
 20
-122.9854241359204
 10
81.08014932036195
 20
-122.853838024842
 10
81.08014932036195
 20
-122.722216635986
 10
81.18675876208655
 20
-122.6157835804571
 10
81.31820375873312
 20
-122.6157835804571
 10
81.4497898664872
 20
-122.6157835804571
 10
81.55643458598868
 20
-122.722216635986
 10
81.55643458598868
 20
-122.853838024842
 97
        0
 97
        0
 75
     2
 76
     1
 98
        0
  0
SPLINE
  5
DA
330
1F
100
AcDbEntity
  8
_U+30EC_U+30A4_U+30E4_U+30FC 1
370
     0
100
AcDbSpline
210
0.0
220
0.0
230
1.0
 70
    11
 71
     3
 72
    17
 73
    13
 74
     0
 42
0.0000000001
 43
0.0000000001
 12
1.0
 22
0.0
 32
0.0
 13
1.0
 23
0.0
 33
0.0
 40
0.0
 40
0.0
 40
0.0
 40
0.0
 40
1.0
 40
1.0
 40
1.0
 40
2.0
 40
2.0
 40
2.0
 40
3.0
 40
3.0
 40
3.0
 40
4.0
 40
4.0
 40
4.0
 40
4.0
 10
81.55643458598868
 20
-141.4628657979678
 30
0.0
 10
81.55643458598868
 20
-141.5944519090459
 30
0.0
 10
81.4497898664872
 20
-141.7009202423523
 30
0.0
 10
81.31820375873312
 20
-141.7009202423523
 30
0.0
 10
81.18675876208655
 20
-141.7009202423523
 30
0.0
 10
81.08014932036195
 20
-141.5944519090459
 30
0.0
 10
81.08014932036195
 20
-141.4628657979678
 30
0.0
 10
81.08014932036195
 20
-141.3312444091116
 30
0.0
 10
81.18675876208655
 20
-141.2248113535826
 30
0.0
 10
81.31820375873312
 20
-141.2248113535826
 30
0.0
 10
81.4497898664872
 20
-141.2248113535826
 30
0.0
 10
81.55643458598868
 20
-141.3312444091116
 30
0.0
 10
81.55643458598868
 20
-141.4628657979678
 30
0.0
  0
HATCH
  5
DB
330
1F
100
AcDbEntity
  8
_U+30EC_U+30A4_U+30E4_U+30FC 1
 62
   179
420
  2234388
100
AcDbHatch
 10
0.0
 20
0.0
 30
0.0
210
0.0
220
0.0
230
1.0
  2
SOLID
 70
     1
 71
     0
 91
        1
 92
        1
 93
        1
 72
     4
 94
        3
 73
     0
 74
     1
 95
       17
 96
       13
 40
0.0
 40
0.0
 40
0.0
 40
0.0
 40
1.0
 40
1.0
 40
1.0
 40
2.0
 40
2.0
 40
2.0
 40
3.0
 40
3.0
 40
3.0
 40
4.0
 40
4.0
 40
4.0
 40
4.0
 10
81.55643458598868
 20
-141.4628657979678
 10
81.55643458598868
 20
-141.5944519090459
 10
81.4497898664872
 20
-141.7009202423523
 10
81.31820375873312
 20
-141.7009202423523
 10
81.18675876208655
 20
-141.7009202423523
 10
81.08014932036195
 20
-141.5944519090459
 10
81.08014932036195
 20
-141.4628657979678
 10
81.08014932036195
 20
-141.3312444091116
 10
81.18675876208655
 20
-141.2248113535826
 10
81.31820375873312
 20
-141.2248113535826
 10
81.4497898664872
 20
-141.2248113535826
 10
81.55643458598868
 20
-141.3312444091116
 10
81.55643458598868
 20
-141.4628657979678
 97
        0
 97
        0
 75
     2
 76
     1
 98
        0
  0
SPLINE
  5
DC
330
1F
100
AcDbEntity
  8
_U+30EC_U+30A4_U+30E4_U+30FC 1
370
     0
100
AcDbSpline
210
0.0
220
0.0
230
1.0
 70
    11
 71
     3
 72
    17
 73
    13
 74
     0
 42
0.0000000001
 43
0.0000000001
 12
1.0
 22
0.0
 32
0.0
 13
1.0
 23
0.0
 33
0.0
 40
0.0
 40
0.0
 40
0.0
 40
0.0
 40
1.0
 40
1.0
 40
1.0
 40
2.0
 40
2.0
 40
2.0
 40
3.0
 40
3.0
 40
3.0
 40
4.0
 40
4.0
 40
4.0
 40
4.0
 10
92.77092235543881
 20
-142.3007130199805
 30
0.0
 10
92.77092235543881
 20
-142.4322991310586
 30
0.0
 10
92.66445402482171
 20
-142.5387674643651
 30
0.0
 10
92.53286791706765
 20
-142.5387674643651
 30
0.0
 10
92.40159930930548
 20
-142.5387674643651
 30
0.0
 10
92.29478053248172
 20
-142.4322991310586
 30
0.0
 10
92.29478053248172
 20
-142.3007130199805
 30
0.0
 10
92.29478053248172
 20
-142.1690916311243
 30
0.0
 10
92.40159930930548
 20
-142.0626585755954
 30
0.0
 10
92.53286791706765
 20
-142.0626585755954
 30
0.0
 10
92.66445402482171
 20
-142.0626585755954
 30
0.0
 10
92.77092235543881
 20
-142.1690916311243
 30
0.0
 10
92.77092235543881
 20
-142.3007130199805
 30
0.0
  0
HATCH
  5
DD
330
1F
100
AcDbEntity
  8
_U+30EC_U+30A4_U+30E4_U+30FC 1
 62
   179
420
  2234388
100
AcDbHatch
 10
0.0
 20
0.0
 30
0.0
210
0.0
220
0.0
230
1.0
  2
SOLID
 70
     1
 71
     0
 91
        1
 92
        1
 93
        1
 72
     4
 94
        3
 73
     0
 74
     1
 95
       17
 96
       13
 40
0.0
 40
0.0
 40
0.0
 40
0.0
 40
1.0
 40
1.0
 40
1.0
 40
2.0
 40
2.0
 40
2.0
 40
3.0
 40
3.0
 40
3.0
 40
4.0
 40
4.0
 40
4.0
 40
4.0
 10
92.77092235543881
 20
-142.3007130199805
 10
92.77092235543881
 20
-142.4322991310586
 10
92.66445402482171
 20
-142.5387674643651
 10
92.53286791706765
 20
-142.5387674643651
 10
92.40159930930548
 20
-142.5387674643651
 10
92.29478053248172
 20
-142.4322991310586
 10
92.29478053248172
 20
-142.3007130199805
 10
92.29478053248172
 20
-142.1690916311243
 10
92.40159930930548
 20
-142.0626585755954
 10
92.53286791706765
 20
-142.0626585755954
 10
92.66445402482171
 20
-142.0626585755954
 10
92.77092235543881
 20
-142.1690916311243
 10
92.77092235543881
 20
-142.3007130199805
 97
        0
 97
        0
 75
     2
 76
     1
 98
        0
  0
SPLINE
  5
DE
330
1F
100
AcDbEntity
  8
_U+30EC_U+30A4_U+30E4_U+30FC 1
370
     0
100
AcDbSpline
210
0.0
220
0.0
230
1.0
 70
    11
 71
     3
 72
    17
 73
    13
 74
     0
 42
0.0000000001
 43
0.0000000001
 12
1.0
 22
0.0
 32
0.0
 13
1.0
 23
0.0
 33
0.0
 40
0.0
 40
0.0
 40
0.0
 40
0.0
 40
1.0
 40
1.0
 40
1.0
 40
2.0
 40
2.0
 40
2.0
 40
3.0
 40
3.0
 40
3.0
 40
4.0
 40
4.0
 40
4.0
 40
4.0
 10
99.32761468816366
 20
-137.6264074655936
 30
0.0
 10
99.32761468816366
 20
-137.7579935766717
 30
0.0
 10
99.22082885755465
 20
-137.8644619099781
 30
0.0
 10
99.08920747202372
 20
-137.8644619099781
 30
0.0
 10
98.95793886426154
 20
-137.8644619099781
 30
0.0
 10
98.85150830862072
 20
-137.7579935766717
 30
0.0
 10
98.85150830862072
 20
-137.6264074655936
 30
0.0
 10
98.85150830862072
 20
-137.4947860767373
 30
0.0
 10
98.95793886426154
 20
-137.3883530212084
 30
0.0
 10
99.08920747202372
 20
-137.3883530212084
 30
0.0
 10
99.22082885755465
 20
-137.3883530212084
 30
0.0
 10
99.32761468816366
 20
-137.4947860767373
 30
0.0
 10
99.32761468816366
 20
-137.6264074655936
 30
0.0
  0
HATCH
  5
DF
330
1F
100
AcDbEntity
  8
_U+30EC_U+30A4_U+30E4_U+30FC 1
 62
   179
420
  2234388
100
AcDbHatch
 10
0.0
 20
0.0
 30
0.0
210
0.0
220
0.0
230
1.0
  2
SOLID
 70
     1
 71
     0
 91
        1
 92
        1
 93
        1
 72
     4
 94
        3
 73
     0
 74
     1
 95
       17
 96
       13
 40
0.0
 40
0.0
 40
0.0
 40
0.0
 40
1.0
 40
1.0
 40
1.0
 40
2.0
 40
2.0
 40
2.0
 40
3.0
 40
3.0
 40
3.0
 40
4.0
 40
4.0
 40
4.0
 40
4.0
 10
99.32761468816366
 20
-137.6264074655936
 10
99.32761468816366
 20
-137.7579935766717
 10
99.22082885755465
 20
-137.8644619099781
 10
99.08920747202372
 20
-137.8644619099781
 10
98.95793886426154
 20
-137.8644619099781
 10
98.85150830862072
 20
-137.7579935766717
 10
98.85150830862072
 20
-137.6264074655936
 10
98.85150830862072
 20
-137.4947860767373
 10
98.95793886426154
 20
-137.3883530212084
 10
99.08920747202372
 20
-137.3883530212084
 10
99.22082885755465
 20
-137.3883530212084
 10
99.32761468816366
 20
-137.4947860767373
 10
99.32761468816366
 20
-137.6264074655936
 97
        0
 97
        0
 75
     2
 76
     1
 98
        0
  0
ENDSEC
  0
SECTION
  2
OBJECTS
  0
DICTIONARY
  5
C
330
0
100
AcDbDictionary
281
     1
  3
ACAD_GROUP
350
D
  3
ACAD_LAYOUT
350
1A
  3
ACAD_MATERIAL
350
3B
  3
ACAD_MLEADERSTYLE
350
E1
  3
ACAD_MLINESTYLE
350
17
  3
ACAD_PLOTSETTINGS
350
19
  3
ACAD_PLOTSTYLENAME
350
E
  3
ACAD_TABLESTYLE
350
E0
  3
ACAD_VISUALSTYLE
350
2A
  0
SUN
  5
3F
330
29
100
AcDbSun
 90
        1
290
     0
 63
     7
421
 16777215
 40
1.0
291
     1
 91
  2455826
 92
 54000000
292
     0
 70
     2
 71
   256
280
     1
  0
DICTIONARY
  5
D
102
{ACAD_REACTORS
330
C
102
}
330
C
100
AcDbDictionary
281
     1
  0
DICTIONARY
  5
1A
102
{ACAD_REACTORS
330
C
102
}
330
C
100
AcDbDictionary
281
     1
  3
Layout1
350
1E
  3
Layout2
350
26
  3
Model
350
22
  0
DICTIONARY
  5
3B
102
{ACAD_REACTORS
330
C
102
}
330
C
100
AcDbDictionary
281
     1
  3
ByBlock
350
3D
  3
ByLayer
350
3C
  3
Global
350
3E
  0
DICTIONARY
  5
E1
102
{ACAD_REACTORS
330
C
102
}
330
C
100
AcDbDictionary
281
     1
  0
DICTIONARY
  5
17
102
{ACAD_REACTORS
330
C
102
}
330
C
100
AcDbDictionary
281
     1
  3
Standard
350
18
  0
DICTIONARY
  5
19
102
{ACAD_REACTORS
330
C
102
}
330
C
100
AcDbDictionary
281
     1
  0
ACDBDICTIONARYWDFLT
  5
E
102
{ACAD_REACTORS
330
C
102
}
330
C
100
AcDbDictionary
281
     1
  3
Normal
350
F
100
AcDbDictionaryWithDefault
340
F
  0
DICTIONARY
  5
E0
102
{ACAD_REACTORS
330
C
102
}
330
C
100
AcDbDictionary
281
     1
  0
DICTIONARY
  5
2A
102
{ACAD_REACTORS
330
C
102
}
330
C
100
AcDbDictionary
281
     1
  3
2dWireframe
350
2F
  3
3D Hidden
350
31
  3
3dWireframe
350
30
  3
Basic
350
32
  3
Brighten
350
36
  3
ColorChange
350
3A
  3
Conceptual
350
34
  3
Dim
350
35
  3
Facepattern
350
39
  3
Flat
350
2B
  3
FlatWithEdges
350
2C
  3
Gouraud
350
2D
  3
GouraudWithEdges
350
2E
  3
Linepattern
350
38
  3
Realistic
350
33
  3
Thicken
350
37
  0
LAYOUT
  5
1E
102
{ACAD_REACTORS
330
1A
102
}
330
1A
100
AcDbPlotSettings
  1

  2
none_device
  4

  6

 40
0.0
 41
0.0
 42
0.0
 43
0.0
 44
0.0
 45
0.0
 46
0.0
 47
0.0
 48
0.0
 49
0.0
140
0.0
141
0.0
142
1.0
143
1.0
 70
   688
 72
     0
 73
     0
 74
     5
  7

 75
    16
 76
     0
 77
     2
 78
   300
147
1.0
148
0.0
149
0.0
100
AcDbLayout
  1
Layout1
 70
     1
 71
     1
 10
0.0
 20
0.0
 11
12.0
 21
9.0
 12
0.0
 22
0.0
 32
0.0
 14
1.000000000000000E+20
 24
1.000000000000000E+20
 34
1.000000000000000E+20
 15
-1.000000000000000E+20
 25
-1.000000000000000E+20
 35
-1.000000000000000E+20
146
0.0
 13
0.0
 23
0.0
 33
0.0
 16
1.0
 26
0.0
 36
0.0
 17
0.0
 27
1.0
 37
0.0
 76
     0
330
1B
  0
LAYOUT
  5
26
102
{ACAD_REACTORS
330
1A
102
}
330
1A
100
AcDbPlotSettings
  1

  2
none_device
  4

  6

 40
0.0
 41
0.0
 42
0.0
 43
0.0
 44
0.0
 45
0.0
 46
0.0
 47
0.0
 48
0.0
 49
0.0
140
0.0
141
0.0
142
1.0
143
1.0
 70
   688
 72
     0
 73
     0
 74
     5
  7

 75
    16
 76
     0
 77
     2
 78
   300
147
1.0
148
0.0
149
0.0
100
AcDbLayout
  1
Layout2
 70
     1
 71
     2
 10
0.0
 20
0.0
 11
0.0
 21
0.0
 12
0.0
 22
0.0
 32
0.0
 14
0.0
 24
0.0
 34
0.0
 15
0.0
 25
0.0
 35
0.0
146
0.0
 13
0.0
 23
0.0
 33
0.0
 16
1.0
 26
0.0
 36
0.0
 17
0.0
 27
1.0
 37
0.0
 76
     0
330
23
  0
LAYOUT
  5
22
102
{ACAD_REACTORS
330
1A
102
}
330
1A
100
AcDbPlotSettings
  1

  2
none_device
  4

  6

 40
0.0
 41
0.0
 42
0.0
 43
0.0
 44
0.0
 45
0.0
 46
0.0
 47
0.0
 48
0.0
 49
0.0
140
0.0
141
0.0
142
1.0
143
1.0
 70
  1712
 72
     0
 73
     0
 74
     0
  7

 75
     0
 76
     0
 77
     2
 78
   300
147
1.0
148
0.0
149
0.0
100
AcDbLayout
  1
Model
 70
     1
 71
     0
 10
0.0
 20
0.0
 11
12.0
 21
9.0
 12
0.0
 22
0.0
 32
0.0
 14
1.000000000000000E+20
 24
1.000000000000000E+20
 34
1.000000000000000E+20
 15
-1.000000000000000E+20
 25
-1.000000000000000E+20
 35
-1.000000000000000E+20
146
0.0
 13
0.0
 23
0.0
 33
0.0
 16
1.0
 26
0.0
 36
0.0
 17
0.0
 27
1.0
 37
0.0
 76
     0
330
1F
331
29
  0
MATERIAL
  5
3D
102
{ACAD_REACTORS
330
3B
102
}
330
3B
100
AcDbMaterial
  1
ByBlock
 72
     1
 94
      127
  0
MATERIAL
  5
3C
102
{ACAD_REACTORS
330
3B
102
}
330
3B
100
AcDbMaterial
  1
ByLayer
 72
     1
 94
      127
  0
MATERIAL
  5
3E
102
{ACAD_REACTORS
330
3B
102
}
330
3B
100
AcDbMaterial
  1
Global
 72
     1
 94
      127
  0
MLINESTYLE
  5
18
102
{ACAD_REACTORS
330
17
102
}
330
17
100
AcDbMlineStyle
  2
Standard
 70
     0
  3

 62
   256
 51
90.0
 52
90.0
 71
     2
 49
0.5
 62
   256
  6
BYLAYER
 49
-0.5
 62
   256
  6
BYLAYER
  0
ACDBPLACEHOLDER
  5
F
102
{ACAD_REACTORS
330
E
102
}
330
E
  0
VISUALSTYLE
  5
2F
102
{ACAD_REACTORS
330
2A
102
}
330
2A
100
AcDbVisualStyle
  2
2dWireframe
 70
     4
177
     2
291
     0
 71
     0
176
     1
 72
     2
176
     1
 73
     0
176
     1
 90
        0
176
     1
 40
-0.6
176
     1
 41
-30.0
176
     1
 62
     5
 63
     7
421
 16777215
176
     1
 74
     1
176
     1
 91
        4
176
     1
 64
     7
176
     1
 65
   257
176
     1
 75
     1
176
     1
175
     1
176
     1
 42
1.0
176
     1
 92
        0
176
     1
 66
   257
176
     1
 43
1.0
176
     1
 76
     1
176
     1
 77
     6
176
     1
 78
     2
176
     1
 67
     7
176
     1
 79
     5
176
     1
170
     0
176
     1
171
     0
176
     1
290
     0
176
     1
 93
        1
176
     1
 44
0.0
176
     1
173
     0
176
     1
  0
VISUALSTYLE
  5
31
102
{ACAD_REACTORS
330
2A
102
}
330
2A
100
AcDbVisualStyle
  2
3D Hidden
 70
     6
177
     2
291
     0
 71
     1
176
     1
 72
     2
176
     1
 73
     2
176
     1
 90
        0
176
     1
 40
-0.6
176
     1
 41
-30.0
176
     1
 62
     5
 63
     7
421
 16777215
176
     1
 74
     2
176
     1
 91
        2
176
     1
 64
     7
176
     1
 65
   257
176
     1
 75
     2
176
     1
175
     1
176
     1
 42
40.0
176
     1
 92
        0
176
     1
 66
   257
176
     1
 43
1.0
176
     1
 76
     1
176
     1
 77
     6
176
     1
 78
     2
176
     1
 67
     7
176
     1
 79
     3
176
     1
170
     0
176
     1
171
     0
176
     1
290
     0
176
     1
 93
        1
176
     1
 44
0.0
176
     1
173
     0
176
     1
  0
VISUALSTYLE
  5
30
102
{ACAD_REACTORS
330
2A
102
}
330
2A
100
AcDbVisualStyle
  2
3dWireframe
 70
     5
177
     2
291
     0
 71
     0
176
     1
 72
     2
176
     1
 73
     0
176
     1
 90
        0
176
     1
 40
-0.6
176
     1
 41
-30.0
176
     1
 62
     5
 63
     7
421
 16777215
176
     1
 74
     1
176
     1
 91
        4
176
     1
 64
     7
176
     1
 65
   257
176
     1
 75
     1
176
     1
175
     1
176
     1
 42
1.0
176
     1
 92
        0
176
     1
 66
   257
176
     1
 43
1.0
176
     1
 76
     1
176
     1
 77
     6
176
     1
 78
     2
176
     1
 67
     7
176
     1
 79
     5
176
     1
170
     0
176
     1
171
     0
176
     1
290
     0
176
     1
 93
        1
176
     1
 44
0.0
176
     1
173
     0
176
     1
  0
VISUALSTYLE
  5
32
102
{ACAD_REACTORS
330
2A
102
}
330
2A
100
AcDbVisualStyle
  2
Basic
 70
     7
177
     2
291
     1
 71
     1
176
     1
 72
     0
176
     1
 73
     1
176
     1
 90
        0
176
     1
 40
-0.6
176
     1
 41
-30.0
176
     1
 62
     5
 63
     7
421
 16777215
176
     1
 74
     0
176
     1
 91
        4
176
     1
 64
     7
176
     1
 65
   257
176
     1
 75
     1
176
     1
175
     1
176
     1
 42
1.0
176
     1
 92
        8
176
     1
 66
     7
176
     1
 43
1.0
176
     1
 76
     1
176
     1
 77
     6
176
     1
 78
     2
176
     1
 67
     7
176
     1
 79
     5
176
     1
170
     0
176
     1
171
     0
176
     1
290
     0
176
     1
 93
        1
176
     1
 44
0.0
176
     1
173
     0
176
     1
  0
VISUALSTYLE
  5
36
102
{ACAD_REACTORS
330
2A
102
}
330
2A
100
AcDbVisualStyle
  2
Brighten
 70
    12
177
     2
291
     1
 71
     2
176
     1
 72
     2
176
     1
 73
     0
176
     1
 90
        0
176
     1
 40
-0.6
176
     1
 41
-30.0
176
     1
 62
     5
 63
     7
421
 16777215
176
     1
 74
     1
176
     1
 91
        4
176
     1
 64
     7
176
     1
 65
   257
176
     1
 75
     1
176
     1
175
     1
176
     1
 42
1.0
176
     1
 92
        8
176
     1
 66
     7
176
     1
 43
1.0
176
     1
 76
     1
176
     1
 77
     6
176
     1
 78
     2
176
     1
 67
     7
176
     1
 79
     5
176
     1
170
     0
176
     1
171
     0
176
     1
290
     0
176
     1
 93
        1
176
     1
 44
50.0
176
     1
173
     0
176
     1
  0
VISUALSTYLE
  5
3A
102
{ACAD_REACTORS
330
2A
102
}
330
2A
100
AcDbVisualStyle
  2
ColorChange
 70
    16
177
     2
291
     1
 71
     2
176
     1
 72
     2
176
     1
 73
     3
176
     1
 90
        0
176
     1
 40
-0.6
176
     1
 41
-30.0
176
     1
 62
     5
 63
     8
421
  8421504
176
     1
 74
     1
176
     1
 91
        4
176
     1
 64
     7
176
     1
 65
   257
176
     1
 75
     1
176
     1
175
     1
176
     1
 42
1.0
176
     1
 92
        8
176
     1
 66
     8
424
  8421504
176
     1
 43
1.0
176
     1
 76
     1
176
     1
 77
     6
176
     1
 78
     2
176
     1
 67
     7
176
     1
 79
     5
176
     1
170
     0
176
     1
171
     0
176
     1
290
     0
176
     1
 93
        1
176
     1
 44
0.0
176
     1
173
     0
176
     1
  0
VISUALSTYLE
  5
34
102
{ACAD_REACTORS
330
2A
102
}
330
2A
100
AcDbVisualStyle
  2
Conceptual
 70
     9
177
     2
291
     0
 71
     3
176
     1
 72
     2
176
     1
 73
     0
176
     1
 90
        0
176
     1
 40
-0.6
176
     1
 41
-30.0
176
     1
 62
     5
 63
     7
421
 16777215
176
     1
 74
     2
176
     1
 91
        2
176
     1
 64
     7
176
     1
 65
   257
176
     1
 75
     1
176
     1
175
     1
176
     1
 42
40.0
176
     1
 92
        8
176
     1
 66
     7
176
     1
 43
1.0
176
     1
 76
     1
176
     1
 77
     6
176
     1
 78
     2
176
     1
 67
     7
176
     1
 79
     3
176
     1
170
     0
176
     1
171
     0
176
     1
290
     0
176
     1
 93
        1
176
     1
 44
0.0
176
     1
173
     0
176
     1
  0
VISUALSTYLE
  5
35
102
{ACAD_REACTORS
330
2A
102
}
330
2A
100
AcDbVisualStyle
  2
Dim
 70
    11
177
     2
291
     1
 71
     2
176
     1
 72
     2
176
     1
 73
     0
176
     1
 90
        0
176
     1
 40
-0.6
176
     1
 41
-30.0
176
     1
 62
     5
 63
     7
421
 16777215
176
     1
 74
     1
176
     1
 91
        4
176
     1
 64
     7
176
     1
 65
   257
176
     1
 75
     1
176
     1
175
     1
176
     1
 42
1.0
176
     1
 92
        8
176
     1
 66
     7
176
     1
 43
1.0
176
     1
 76
     1
176
     1
 77
     6
176
     1
 78
     2
176
     1
 67
     7
176
     1
 79
     5
176
     1
170
     0
176
     1
171
     0
176
     1
290
     0
176
     1
 93
        1
176
     1
 44
-50.0
176
     1
173
     0
176
     1
  0
VISUALSTYLE
  5
39
102
{ACAD_REACTORS
330
2A
102
}
330
2A
100
AcDbVisualStyle
  2
Facepattern
 70
    15
177
     2
291
     1
 71
     2
176
     1
 72
     2
176
     1
 73
     0
176
     1
 90
        0
176
     1
 40
-0.6
176
     1
 41
-30.0
176
     1
 62
     5
 63
     7
421
 16777215
176
     1
 74
     1
176
     1
 91
        4
176
     1
 64
     7
176
     1
 65
   257
176
     1
 75
     1
176
     1
175
     1
176
     1
 42
1.0
176
     1
 92
        8
176
     1
 66
     7
176
     1
 43
1.0
176
     1
 76
     1
176
     1
 77
     6
176
     1
 78
     2
176
     1
 67
     7
176
     1
 79
     5
176
     1
170
     0
176
     1
171
     0
176
     1
290
     0
176
     1
 93
        1
176
     1
 44
0.0
176
     1
173
     0
176
     1
  0
VISUALSTYLE
  5
2B
102
{ACAD_REACTORS
330
2A
102
}
330
2A
100
AcDbVisualStyle
  2
Flat
 70
     0
177
     2
291
     1
 71
     2
176
     1
 72
     1
176
     1
 73
     1
176
     1
 90
        2
176
     1
 40
-0.6
176
     1
 41
30.0
176
     1
 62
     5
 63
     7
421
 16777215
176
     1
 74
     0
176
     1
 91
        4
176
     1
 64
     7
176
     1
 65
   257
176
     1
 75
     1
176
     1
175
     1
176
     1
 42
1.0
176
     1
 92
        8
176
     1
 66
     7
176
     1
 43
1.0
176
     1
 76
     1
176
     1
 77
     6
176
     1
 78
     2
176
     1
 67
     7
176
     1
 79
     5
176
     1
170
     0
176
     1
171
     0
176
     1
290
     0
176
     1
 93
       13
176
     1
 44
0.0
176
     1
173
     0
176
     1
  0
VISUALSTYLE
  5
2C
102
{ACAD_REACTORS
330
2A
102
}
330
2A
100
AcDbVisualStyle
  2
FlatWithEdges
 70
     1
177
     2
291
     1
 71
     2
176
     1
 72
     1
176
     1
 73
     1
176
     1
 90
        2
176
     1
 40
-0.6
176
     1
 41
30.0
176
     1
 62
     5
 63
     7
421
 16777215
176
     1
 74
     1
176
     1
 91
        4
176
     1
 64
     7
176
     1
 65
   257
176
     1
 75
     1
176
     1
175
     1
176
     1
 42
1.0
176
     1
 92
        0
176
     1
 66
   257
176
     1
 43
1.0
176
     1
 76
     1
176
     1
 77
     6
176
     1
 78
     2
176
     1
 67
     7
176
     1
 79
     5
176
     1
170
     0
176
     1
171
     0
176
     1
290
     0
176
     1
 93
       13
176
     1
 44
0.0
176
     1
173
     0
176
     1
  0
VISUALSTYLE
  5
2D
102
{ACAD_REACTORS
330
2A
102
}
330
2A
100
AcDbVisualStyle
  2
Gouraud
 70
     2
177
     2
291
     1
 71
     2
176
     1
 72
     2
176
     1
 73
     1
176
     1
 90
        2
176
     1
 40
-0.6
176
     1
 41
30.0
176
     1
 62
     5
 63
     7
421
 16777215
176
     1
 74
     0
176
     1
 91
        4
176
     1
 64
     7
176
     1
 65
   257
176
     1
 75
     1
176
     1
175
     1
176
     1
 42
1.0
176
     1
 92
        0
176
     1
 66
     7
176
     1
 43
1.0
176
     1
 76
     1
176
     1
 77
     6
176
     1
 78
     2
176
     1
 67
     7
176
     1
 79
     5
176
     1
170
     0
176
     1
171
     0
176
     1
290
     0
176
     1
 93
       13
176
     1
 44
0.0
176
     1
173
     0
176
     1
  0
VISUALSTYLE
  5
2E
102
{ACAD_REACTORS
330
2A
102
}
330
2A
100
AcDbVisualStyle
  2
GouraudWithEdges
 70
     3
177
     2
291
     1
 71
     2
176
     1
 72
     2
176
     1
 73
     1
176
     1
 90
        2
176
     1
 40
-0.6
176
     1
 41
30.0
176
     1
 62
     5
 63
     7
421
 16777215
176
     1
 74
     1
176
     1
 91
        4
176
     1
 64
     7
176
     1
 65
   257
176
     1
 75
     1
176
     1
175
     1
176
     1
 42
1.0
176
     1
 92
        0
176
     1
 66
   257
176
     1
 43
1.0
176
     1
 76
     1
176
     1
 77
     6
176
     1
 78
     2
176
     1
 67
     7
176
     1
 79
     5
176
     1
170
     0
176
     1
171
     0
176
     1
290
     0
176
     1
 93
       13
176
     1
 44
0.0
176
     1
173
     0
176
     1
  0
VISUALSTYLE
  5
38
102
{ACAD_REACTORS
330
2A
102
}
330
2A
100
AcDbVisualStyle
  2
Linepattern
 70
    14
177
     2
291
     1
 71
     2
176
     1
 72
     2
176
     1
 73
     0
176
     1
 90
        0
176
     1
 40
-0.6
176
     1
 41
-30.0
176
     1
 62
     5
 63
     7
421
 16777215
176
     1
 74
     1
176
     1
 91
        4
176
     1
 64
     7
176
     1
 65
   257
176
     1
 75
     7
176
     1
175
     7
176
     1
 42
1.0
176
     1
 92
        8
176
     1
 66
     7
176
     1
 43
1.0
176
     1
 76
     1
176
     1
 77
     6
176
     1
 78
     2
176
     1
 67
     7
176
     1
 79
     5
176
     1
170
     0
176
     1
171
     0
176
     1
290
     0
176
     1
 93
        1
176
     1
 44
0.0
176
     1
173
     0
176
     1
  0
VISUALSTYLE
  5
33
102
{ACAD_REACTORS
330
2A
102
}
330
2A
100
AcDbVisualStyle
  2
Realistic
 70
     8
177
     2
291
     0
 71
     2
176
     1
 72
     2
176
     1
 73
     0
176
     1
 90
        0
176
     1
 40
-0.6
176
     1
 41
-30.0
176
     1
 62
     5
 63
     7
421
 16777215
176
     1
 74
     1
176
     1
 91
        0
176
     1
 64
     7
176
     1
 65
   257
176
     1
 75
     1
176
     1
175
     1
176
     1
 42
1.0
176
     1
 92
        8
176
     1
 66
     8
424
  7895160
176
     1
 43
1.0
176
     1
 76
     1
176
     1
 77
     6
176
     1
 78
     2
176
     1
 67
     7
176
     1
 79
     5
176
     1
170
     0
176
     1
171
     0
176
     1
290
     0
176
     1
 93
       13
176
     1
 44
0.0
176
     1
173
     0
176
     1
  0
VISUALSTYLE
  5
37
102
{ACAD_REACTORS
330
2A
102
}
330
2A
100
AcDbVisualStyle
  2
Thicken
 70
    13
177
     2
291
     1
 71
     2
176
     1
 72
     2
176
     1
 73
     0
176
     1
 90
        0
176
     1
 40
-0.6
176
     1
 41
-30.0
176
     1
 62
     5
 63
     7
421
 16777215
176
     1
 74
     1
176
     1
 91
        4
176
     1
 64
     7
176
     1
 65
   257
176
     1
 75
     1
176
     1
175
     1
176
     1
 42
1.0
176
     1
 92
       12
176
     1
 66
     7
176
     1
 43
1.0
176
     1
 76
     1
176
     1
 77
     6
176
     1
 78
     2
176
     1
 67
     7
176
     1
 79
     5
176
     1
170
     0
176
     1
171
     0
176
     1
290
     0
176
     1
 93
        1
176
     1
 44
0.0
176
     1
173
     0
176
     1
  0
ENDSEC
  0
EOF
