  0
SECTION
  2
HEADER
  9
$ACADVER
  1
AC1024
  9
$ACADMAINTVER
 70
     6
  9
$DWGCODEPAGE
  3
UNDEFINED
  9
$INSBASE
 10
0.0
 20
0.0
 30
0.0
  9
$EXTMIN
 10
1.000000000000000E+20
 20
1.000000000000000E+20
 30
1.000000000000000E+20
  9
$EXTMAX
 10
-1.000000000000000E+20
 20
-1.000000000000000E+20
 30
-1.000000000000000E+20
  9
$LIMMIN
 10
0.0
 20
0.0
  9
$LIMMAX
 10
12.0
 20
9.0
  9
$ORTHOMODE
 70
     0
  9
$REGENMODE
 70
     1
  9
$FILLMODE
 70
     1
  9
$QTEXTMODE
 70
     0
  9
$MIRRTEXT
 70
     1
  9
$LTSCALE
 40
1.0
  9
$ATTMODE
 70
     1
  9
$TEXTSIZE
 40
0.2
  9
$TRACEWID
 40
0.05
  9
$TEXTSTYLE
  7
Standard
  9
$CLAYER
  8
0
  9
$CELTYPE
  6
ByLayer
  9
$CECOLOR
 62
   256
  9
$CELTSCALE
 40
1.0
  9
$DISPSILH
 70
     0
  9
$DIMSCALE
 40
1.0
  9
$DIMASZ
 40
0.18
  9
$DIMEXO
 40
0.0625
  9
$DIMDLI
 40
0.38
  9
$DIMRND
 40
0.0
  9
$DIMDLE
 40
0.0
  9
$DIMEXE
 40
0.18
  9
$DIMTP
 40
0.0
  9
$DIMTM
 40
0.0
  9
$DIMTXT
 40
0.18
  9
$DIMCEN
 40
0.09
  9
$DIMTSZ
 40
0.0
  9
$DIMTOL
 70
     0
  9
$DIMLIM
 70
     0
  9
$DIMTIH
 70
     1
  9
$DIMTOH
 70
     1
  9
$DIMSE1
 70
     0
  9
$DIMSE2
 70
     0
  9
$DIMTAD
 70
     0
  9
$DIMZIN
 70
     0
  9
$DIMBLK
  1

  9
$DIMASO
 70
     1
  9
$DIMSHO
 70
     1
  9
$DIMPOST
  1

  9
$DIMAPOST
  1

  9
$DIMALT
 70
     0
  9
$DIMALTD
 70
     2
  9
$DIMALTF
 40
25.4
  9
$DIMLFAC
 40
1.0
  9
$DIMTOFL
 70
     0
  9
$DIMTVP
 40
0.0
  9
$DIMTIX
 70
     0
  9
$DIMSOXD
 70
     0
  9
$DIMSAH
 70
     0
  9
$DIMBLK1
  1

  9
$DIMBLK2
  1

  9
$DIMSTYLE
  2
Standard
  9
$DIMCLRD
 70
     0
  9
$DIMCLRE
 70
     0
  9
$DIMCLRT
 70
     0
  9
$DIMTFAC
 40
1.0
  9
$DIMGAP
 40
0.09
  9
$DIMJUST
 70
     0
  9
$DIMSD1
 70
     0
  9
$DIMSD2
 70
     0
  9
$DIMTOLJ
 70
     1
  9
$DIMTZIN
 70
     0
  9
$DIMALTZ
 70
     0
  9
$DIMALTTZ
 70
     0
  9
$DIMUPT
 70
     0
  9
$DIMDEC
 70
     4
  9
$DIMTDEC
 70
     4
  9
$DIMALTU
 70
     2
  9
$DIMALTTD
 70
     2
  9
$DIMTXSTY
  7
Standard
  9
$DIMAUNIT
 70
     0
  9
$DIMADEC
 70
     0
  9
$DIMALTRND
 40
0.0
  9
$DIMAZIN
 70
     0
  9
$DIMDSEP
 70
    46
  9
$DIMATFIT
 70
     3
  9
$DIMFRAC
 70
     0
  9
$DIMLDRBLK
  1

  9
$DIMLUNIT
 70
     2
  9
$DIMLWD
 70
    -2
  9
$DIMLWE
 70
    -2
  9
$DIMTMOVE
 70
     0
  9
$DIMFXL
 40
1.0
  9
$DIMFXLON
 70
     0
  9
$DIMJOGANG
 40
0.7853981633974483
  9
$DIMTFILL
 70
     0
  9
$DIMTFILLCLR
 70
     0
  9
$DIMARCSYM
 70
     0
  9
$DIMLTYPE
  6

  9
$DIMLTEX1
  6

  9
$DIMLTEX2
  6

  9
$DIMTXTDIRECTION
 70
     0
  9
$LUNITS
 70
     2
  9
$LUPREC
 70
     4
  9
$SKETCHINC
 40
0.1
  9
$FILLETRAD
 40
0.5
  9
$AUNITS
 70
     0
  9
$AUPREC
 70
     0
  9
$MENU
  1
.
  9
$ELEVATION
 40
0.0
  9
$PELEVATION
 40
0.0
  9
$THICKNESS
 40
0.0
  9
$LIMCHECK
 70
     0
  9
$CHAMFERA
 40
0.5
  9
$CHAMFERB
 40
0.5
  9
$CHAMFERC
 40
1.0
  9
$CHAMFERD
 40
0.0
  9
$SKPOLY
 70
     0
  9
$TDCREATE
 40
2457917.631192118
  9
$TDUCREATE
 40
2457917.25619213
  9
$TDUPDATE
 40
2457917.631192118
  9
$TDUUPDATE
 40
2457917.25619213
  9
$TDINDWG
 40
0.0000000116
  9
$TDUSRTIMER
 40
0.0000000116
  9
$USRTIMER
 70
     1
  9
$ANGBASE
 50
0.0
  9
$ANGDIR
 70
     0
  9
$PDMODE
 70
     0
  9
$PDSIZE
 40
0.0
  9
$PLINEWID
 40
0.0
  9
$SPLFRAME
 70
     0
  9
$SPLINETYPE
 70
     6
  9
$SPLINESEGS
 70
     8
  9
$HANDSEED
  5
134
  9
$SURFTAB1
 70
     6
  9
$SURFTAB2
 70
     6
  9
$SURFTYPE
 70
     6
  9
$SURFU
 70
     6
  9
$SURFV
 70
     6
  9
$UCSBASE
  2

  9
$UCSNAME
  2

  9
$UCSORG
 10
0.0
 20
0.0
 30
0.0
  9
$UCSXDIR
 10
1.0
 20
0.0
 30
0.0
  9
$UCSYDIR
 10
0.0
 20
1.0
 30
0.0
  9
$UCSORTHOREF
  2

  9
$UCSORTHOVIEW
 70
     0
  9
$UCSORGTOP
 10
0.0
 20
0.0
 30
0.0
  9
$UCSORGBOTTOM
 10
0.0
 20
0.0
 30
0.0
  9
$UCSORGLEFT
 10
0.0
 20
0.0
 30
0.0
  9
$UCSORGRIGHT
 10
0.0
 20
0.0
 30
0.0
  9
$UCSORGFRONT
 10
0.0
 20
0.0
 30
0.0
  9
$UCSORGBACK
 10
0.0
 20
0.0
 30
0.0
  9
$PUCSBASE
  2

  9
$PUCSNAME
  2

  9
$PUCSORG
 10
0.0
 20
0.0
 30
0.0
  9
$PUCSXDIR
 10
1.0
 20
0.0
 30
0.0
  9
$PUCSYDIR
 10
0.0
 20
1.0
 30
0.0
  9
$PUCSORTHOREF
  2

  9
$PUCSORTHOVIEW
 70
     0
  9
$PUCSORGTOP
 10
0.0
 20
0.0
 30
0.0
  9
$PUCSORGBOTTOM
 10
0.0
 20
0.0
 30
0.0
  9
$PUCSORGLEFT
 10
0.0
 20
0.0
 30
0.0
  9
$PUCSORGRIGHT
 10
0.0
 20
0.0
 30
0.0
  9
$PUCSORGFRONT
 10
0.0
 20
0.0
 30
0.0
  9
$PUCSORGBACK
 10
0.0
 20
0.0
 30
0.0
  9
$USERI1
 70
     0
  9
$USERI2
 70
     0
  9
$USERI3
 70
     0
  9
$USERI4
 70
     0
  9
$USERI5
 70
     0
  9
$USERR1
 40
0.0
  9
$USERR2
 40
0.0
  9
$USERR3
 40
0.0
  9
$USERR4
 40
0.0
  9
$USERR5
 40
0.0
  9
$WORLDVIEW
 70
     1
  9
$SHADEDGE
 70
     3
  9
$SHADEDIF
 70
    70
  9
$TILEMODE
 70
     1
  9
$MAXACTVP
 70
    64
  9
$PINSBASE
 10
0.0
 20
0.0
 30
0.0
  9
$PLIMCHECK
 70
     0
  9
$PEXTMIN
 10
1.000000000000000E+20
 20
1.000000000000000E+20
 30
1.000000000000000E+20
  9
$PEXTMAX
 10
-1.000000000000000E+20
 20
-1.000000000000000E+20
 30
-1.000000000000000E+20
  9
$PLIMMIN
 10
0.0
 20
0.0
  9
$PLIMMAX
 10
12.0
 20
9.0
  9
$UNITMODE
 70
     0
  9
$VISRETAIN
 70
     1
  9
$PLINEGEN
 70
     0
  9
$PSLTSCALE
 70
     1
  9
$TREEDEPTH
 70
  3020
  9
$CMLSTYLE
  2
Standard
  9
$CMLJUST
 70
     0
  9
$CMLSCALE
 40
1.0
  9
$PROXYGRAPHICS
 70
     1
  9
$MEASUREMENT
 70
     0
  9
$CELWEIGHT
370
    -1
  9
$ENDCAPS
280
     0
  9
$JOINSTYLE
280
     0
  9
$LWDISPLAY
290
     1
  9
$INSUNITS
 70
     1
  9
$HYPERLINKBASE
  1

  9
$STYLESHEET
  1

  9
$XEDIT
290
     1
  9
$CEPSNTYPE
380
     0
  9
$PSTYLEMODE
290
     1
  9
$FINGERPRINTGUID
  2
{6F1B88FF-73B8-D038-F07C-B64E0CF99661}
  9
$VERSIONGUID
  2
{FAEB1C32-E019-11D5-929B-00C0DF256EC4}
  9
$EXTNAMES
290
     1
  9
$PSVPSCALE
 40
0.0
  9
$OLESTARTUP
290
     0
  9
$SORTENTS
280
   127
  9
$INDEXCTL
280
     0
  9
$HIDETEXT
280
     1
  9
$XCLIPFRAME
280
     2
  9
$HALOGAP
280
     0
  9
$OBSCOLOR
 70
   257
  9
$OBSLTYPE
280
     0
  9
$INTERSECTIONDISPLAY
280
     0
  9
$INTERSECTIONCOLOR
 70
   257
  9
$DIMASSOC
280
     2
  9
$PROJECTNAME
  1

  9
$CAMERADISPLAY
290
     0
  9
$LENSLENGTH
 40
50.0
  9
$CAMERAHEIGHT
 40
0.0
  9
$STEPSPERSEC
 40
2.0
  9
$STEPSIZE
 40
6.0
  9
$3DDWFPREC
 40
2.0
  9
$PSOLWIDTH
 40
0.25
  9
$PSOLHEIGHT
 40
4.0
  9
$LOFTANG1
 40
1.570796326794897
  9
$LOFTANG2
 40
1.570796326794897
  9
$LOFTMAG1
 40
0.0
  9
$LOFTMAG2
 40
0.0
  9
$LOFTPARAM
 70
     7
  9
$LOFTNORMALS
280
     1
  9
$LATITUDE
 40
37.795
  9
$LONGITUDE
 40
-122.394
  9
$NORTHDIRECTION
 40
0.0
  9
$TIMEZONE
 70
 -8000
  9
$LIGHTGLYPHDISPLAY
280
     1
  9
$TILEMODELIGHTSYNCH
280
     1
  9
$CMATERIAL
347
3C
  9
$SOLIDHIST
280
     1
  9
$SHOWHIST
280
     1
  9
$DWFFRAME
280
     2
  9
$DGNFRAME
280
     2
  9
$REALWORLDSCALE
290
     1
  9
$INTERFERECOLOR
 62
   256
  9
$CSHADOW
280
     0
  9
$SHADOWPLANELOCATION
 40
0.0
  0
ENDSEC
  0
SECTION
  2
CLASSES
  0
CLASS
  1
ACDBDICTIONARYWDFLT
  2
AcDbDictionaryWithDefault
  3
ObjectDBX Classes
 90
        0
 91
        4
280
     0
281
     0
  0
CLASS
  1
VISUALSTYLE
  2
AcDbVisualStyle
  3
ObjectDBX Classes
 90
     4095
 91
        4
280
     0
281
     0
  0
CLASS
  1
MATERIAL
  2
AcDbMaterial
  3
ObjectDBX Classes
 90
     1153
 91
        4
280
     0
281
     0
  0
CLASS
  1
SUN
  2
AcDbSun
  3
SCENEOE
 90
     1024
 91
        4
280
     0
281
     0
  0
ENDSEC
  0
SECTION
  2
TABLES
  0
TABLE
  2
VPORT
  5
8
330
0
100
AcDbSymbolTable
 70
     1
  0
VPORT
  5
29
330
8
100
AcDbSymbolTableRecord
100
AcDbViewportTableRecord
  2
*Active
 70
     0
 10
0.0
 20
0.0
 11
1.0
 21
1.0
 12
0.0
 22
0.0
 13
0.0
 23
0.0
 14
0.5
 24
0.5
 15
0.5
 25
0.5
 16
0.0
 26
0.0
 36
1.0
 17
91.00082462281999
 27
-128.4993055234307
 37
0.0
 40
256.9986110468615
 41
0.7081814508812795
 42
50.0
 43
0.0
 44
0.0
 50
0.0
 51
0.0
 71
     0
 72
   100
 73
     1
 74
     3
 75
     0
 76
     0
 77
     0
 78
     0
281
     0
 65
     1
110
0.0
120
0.0
130
0.0
111
1.0
121
0.0
131
0.0
112
0.0
122
1.0
132
0.0
 79
     0
146
0.0
 60
     3
 61
     5
292
     1
282
     1
141
0.0
142
0.0
 63
   250
361
3F
  0
ENDTAB
  0
TABLE
  2
LTYPE
  5
5
330
0
100
AcDbSymbolTable
 70
     1
  0
LTYPE
  5
14
330
5
100
AcDbSymbolTableRecord
100
AcDbLinetypeTableRecord
  2
ByBlock
 70
     0
  3

 72
    65
 73
     0
 40
0.0
  0
LTYPE
  5
15
330
5
100
AcDbSymbolTableRecord
100
AcDbLinetypeTableRecord
  2
ByLayer
 70
     0
  3

 72
    65
 73
     0
 40
0.0
  0
LTYPE
  5
16
330
5
100
AcDbSymbolTableRecord
100
AcDbLinetypeTableRecord
  2
Continuous
 70
     0
  3
Solid line
 72
    65
 73
     0
 40
0.0
  0
ENDTAB
  0
TABLE
  2
LAYER
  5
2
330
0
100
AcDbSymbolTable
 70
     2
  0
LAYER
  5
10
330
2
100
AcDbSymbolTableRecord
100
AcDbLayerTableRecord
  2
0
 70
     0
 62
     7
  6
Continuous
370
    -3
390
F
347
3E
  0
LAYER
  5
40
330
2
100
AcDbSymbolTableRecord
100
AcDbLayerTableRecord
  2
_U+30EC_U+30A4_U+30E4_U+30FC 1
 70
     0
 62
     7
  6
Continuous
370
    -3
390
F
347
3E
  0
ENDTAB
  0
TABLE
  2
STYLE
  5
3
330
0
100
AcDbSymbolTable
 70
     1
  0
STYLE
  5
11
330
3
100
AcDbSymbolTableRecord
100
AcDbTextStyleTableRecord
  2
Standard
 70
     0
 40
0.0
 41
1.0
 50
0.0
 71
     0
 42
0.2
  3
txt
  4

  0
ENDTAB
  0
TABLE
  2
VIEW
  5
6
330
0
100
AcDbSymbolTable
 70
     0
  0
ENDTAB
  0
TABLE
  2
UCS
  5
7
330
0
100
AcDbSymbolTable
 70
     0
  0
ENDTAB
  0
TABLE
  2
APPID
  5
9
330
0
100
AcDbSymbolTable
 70
     1
  0
APPID
  5
12
330
9
100
AcDbSymbolTableRecord
100
AcDbRegAppTableRecord
  2
ACAD
 70
     0
  0
ENDTAB
  0
TABLE
  2
DIMSTYLE
  5
A
330
0
100
AcDbSymbolTable
 70
     1
100
AcDbDimStyleTable
  0
DIMSTYLE
105
27
330
A
100
AcDbSymbolTableRecord
100
AcDbDimStyleTableRecord
  2
Standard
 70
     0
178
     0
340
11
  0
ENDTAB
  0
TABLE
  2
BLOCK_RECORD
  5
1
330
0
100
AcDbSymbolTable
 70
     6
  0
BLOCK_RECORD
  5
1F
330
1
100
AcDbSymbolTableRecord
100
AcDbBlockTableRecord
  2
*Model_Space
340
22
 70
     0
280
     1
281
     0
  0
BLOCK_RECORD
  5
1B
330
1
100
AcDbSymbolTableRecord
100
AcDbBlockTableRecord
  2
*Paper_Space
340
1E
 70
     0
280
     1
281
     0
  0
BLOCK_RECORD
  5
23
330
1
100
AcDbSymbolTableRecord
100
AcDbBlockTableRecord
  2
*Paper_Space0
340
26
 70
     0
280
     1
281
     0
  0
BLOCK_RECORD
  5
41
330
1
100
AcDbSymbolTableRecord
100
AcDbBlockTableRecord
  2
block 2
340
0
102
{BLKREFS
331
42
102
}
 70
     0
280
     1
281
     0
  0
BLOCK_RECORD
  5
B1
330
1
100
AcDbSymbolTableRecord
100
AcDbBlockTableRecord
  2
block 3
340
0
102
{BLKREFS
331
B2
102
}
 70
     0
280
     1
281
     0
  0
BLOCK_RECORD
  5
D4
330
1
100
AcDbSymbolTableRecord
100
AcDbBlockTableRecord
  2
block 4
340
0
102
{BLKREFS
331
D5
102
}
 70
     0
280
     1
281
     0
  0
BLOCK_RECORD
  5
F8
330
1
100
AcDbSymbolTableRecord
100
AcDbBlockTableRecord
  2
block 5
340
0
102
{BLKREFS
331
F9
102
}
 70
     0
280
     1
281
     0
  0
BLOCK_RECORD
  5
117
330
1
100
AcDbSymbolTableRecord
100
AcDbBlockTableRecord
  2
block 6
340
0
102
{BLKREFS
331
118
102
}
 70
     0
280
     1
281
     0
  0
ENDTAB
  0
ENDSEC
  0
SECTION
  2
BLOCKS
  0
BLOCK
  5
20
330
1F
100
AcDbEntity
  8
0
100
AcDbBlockBegin
  2
*Model_Space
 70
     0
 10
0.0
 20
0.0
 30
0.0
  3
*Model_Space
  1

  0
ENDBLK
  5
21
330
1F
100
AcDbEntity
  8
0
100
AcDbBlockEnd
  0
BLOCK
  5
1C
330
1B
100
AcDbEntity
 67
     1
  8
0
100
AcDbBlockBegin
  2
*Paper_Space
 70
     0
 10
0.0
 20
0.0
 30
0.0
  3
*Paper_Space
  1

  0
ENDBLK
  5
1D
330
1B
100
AcDbEntity
 67
     1
  8
0
100
AcDbBlockEnd
  0
BLOCK
  5
24
330
23
100
AcDbEntity
  8
0
100
AcDbBlockBegin
  2
*Paper_Space0
 70
     0
 10
0.0
 20
0.0
 30
0.0
  3
*Paper_Space0
  1

  0
ENDBLK
  5
25
330
23
100
AcDbEntity
  8
0
100
AcDbBlockEnd
  0
BLOCK
  5
43
330
41
100
AcDbEntity
  8
0
100
AcDbBlockBegin
  2
block 2
 70
     0
 10
0.0
 20
0.0
 30
0.0
  3
block 2
  1

  0
SPLINE
  5
45
330
41
100
AcDbEntity
  8
_U+30EC_U+30A4_U+30E4_U+30FC 1
370
     0
100
AcDbSpline
210
0.0
220
0.0
230
1.0
 70
    11
 71
     3
 72
    23
 73
    19
 74
     0
 42
0.0000000001
 43
0.0000000001
 12
1.0
 22
0.0
 32
0.0
 13
1.0
 23
0.0
 33
0.0
 40
0.0
 40
0.0
 40
0.0
 40
0.0
 40
1.0
 40
1.0
 40
1.0
 40
2.0
 40
2.0
 40
2.0
 40
3.0
 40
3.0
 40
3.0
 40
4.0
 40
4.0
 40
4.0
 40
5.0
 40
5.0
 40
5.0
 40
6.0
 40
6.0
 40
6.0
 40
6.0
 10
78.28979490230256
 20
-138.5527831684868
 30
0.0
 10
78.12477482855908
 20
-138.3605468404099
 30
0.0
 10
77.89205862853046
 20
-138.0852837111384
 30
0.0
 10
77.89205862853046
 20
-137.5375135289837
 30
0.0
 10
77.89205862853046
 20
-136.9893988372804
 30
0.0
 10
78.12477482855908
 20
-136.7144802175575
 30
0.0
 10
78.28979490230256
 20
-136.521899379932
 30
0.0
 10
78.28979490230256
 20
-136.521899379932
 30
0.0
 10
78.40193276034744
 20
-136.6214626394558
 30
0.0
 10
78.40193276034744
 20
-136.6214626394558
 30
0.0
 10
78.26223413842055
 20
-136.7885497704904
 30
0.0
 10
78.05070527562621
 20
-137.0445203650444
 30
0.0
 10
78.05070527562621
 20
-137.5375135289837
 30
0.0
 10
78.05070527562621
 20
-138.0305066929229
 30
0.0
 10
78.26223413842055
 20
-138.286477287477
 30
0.0
 10
78.40193276034744
 20
-138.4535644185116
 30
0.0
 10
78.40193276034744
 20
-138.4535644185116
 30
0.0
 10
78.28979490230256
 20
-138.5527831684868
 30
0.0
 10
78.28979490230256
 20
-138.5527831684868
 30
0.0
  0
HATCH
  5
46
330
41
100
AcDbEntity
  8
_U+30EC_U+30A4_U+30E4_U+30FC 1
 62
   179
420
  2234388
100
AcDbHatch
 10
0.0
 20
0.0
 30
0.0
210
0.0
220
0.0
230
1.0
  2
SOLID
 70
     1
 71
     0
 91
        1
 92
        1
 93
        1
 72
     4
 94
        3
 73
     0
 74
     1
 95
       23
 96
       19
 40
0.0
 40
0.0
 40
0.0
 40
0.0
 40
1.0
 40
1.0
 40
1.0
 40
2.0
 40
2.0
 40
2.0
 40
3.0
 40
3.0
 40
3.0
 40
4.0
 40
4.0
 40
4.0
 40
5.0
 40
5.0
 40
5.0
 40
6.0
 40
6.0
 40
6.0
 40
6.0
 10
78.28979490230256
 20
-138.5527831684868
 10
78.12477482855908
 20
-138.3605468404099
 10
77.89205862853046
 20
-138.0852837111384
 10
77.89205862853046
 20
-137.5375135289837
 10
77.89205862853046
 20
-136.9893988372804
 10
78.12477482855908
 20
-136.7144802175575
 10
78.28979490230256
 20
-136.521899379932
 10
78.28979490230256
 20
-136.521899379932
 10
78.40193276034744
 20
-136.6214626394558
 10
78.40193276034744
 20
-136.6214626394558
 10
78.26223413842055
 20
-136.7885497704904
 10
78.05070527562621
 20
-137.0445203650444
 10
78.05070527562621
 20
-137.5375135289837
 10
78.05070527562621
 20
-138.0305066929229
 10
78.26223413842055
 20
-138.286477287477
 10
78.40193276034744
 20
-138.4535644185116
 10
78.40193276034744
 20
-138.4535644185116
 10
78.28979490230256
 20
-138.5527831684868
 10
78.28979490230256
 20
-138.5527831684868
 97
        0
 97
        0
 75
     2
 76
     1
 98
        0
  0
SPLINE
  5
47
330
41
100
AcDbEntity
  8
_U+30EC_U+30A4_U+30E4_U+30FC 1
370
     0
100
AcDbSpline
210
0.0
220
0.0
230
1.0
 70
    11
 71
     3
 72
    83
 73
    79
 74
     0
 42
0.0000000001
 43
0.0000000001
 12
1.0
 22
0.0
 32
0.0
 13
1.0
 23
0.0
 33
0.0
 40
0.0
 40
0.0
 40
0.0
 40
0.0
 40
1.0
 40
1.0
 40
1.0
 40
2.0
 40
2.0
 40
2.0
 40
3.0
 40
3.0
 40
3.0
 40
4.0
 40
4.0
 40
4.0
 40
5.0
 40
5.0
 40
5.0
 40
6.0
 40
6.0
 40
6.0
 40
7.0
 40
7.0
 40
7.0
 40
8.0
 40
8.0
 40
8.0
 40
9.0
 40
9.0
 40
9.0
 40
10.0
 40
10.0
 40
10.0
 40
11.0
 40
11.0
 40
11.0
 40
12.0
 40
12.0
 40
12.0
 40
13.0
 40
13.0
 40
13.0
 40
14.0
 40
14.0
 40
14.0
 40
15.0
 40
15.0
 40
15.0
 40
16.0
 40
16.0
 40
16.0
 40
17.0
 40
17.0
 40
17.0
 40
18.0
 40
18.0
 40
18.0
 40
19.0
 40
19.0
 40
19.0
 40
20.0
 40
20.0
 40
20.0
 40
21.0
 40
21.0
 40
21.0
 40
22.0
 40
22.0
 40
22.0
 40
23.0
 40
23.0
 40
23.0
 40
24.0
 40
24.0
 40
24.0
 40
25.0
 40
25.0
 40
25.0
 40
26.0
 40
26.0
 40
26.0
 40
26.0
 10
80.4614108414298
 20
-138.4280707119208
 30
0.0
 10
80.27313637316088
 20
-138.3371201911102
 30
0.0
 10
80.09967581547856
 20
-138.1362711243201
 30
0.0
 10
80.03611380377569
 20
-138.0622015713872
 30
0.0
 10
79.96635062019939
 20
-138.1572862067801
 30
0.0
 10
79.88177352603651
 20
-138.2651176954685
 30
0.0
 10
79.68505857382874
 20
-138.411189744043
 30
0.0
 10
79.68505857382874
 20
-138.411189744043
 30
0.0
 10
79.53485241067185
 20
-138.3012911980636
 30
0.0
 10
79.53485241067185
 20
-138.3012911980636
 30
0.0
 10
79.53485241067185
 20
-138.3012911980636
 30
0.0
 10
79.53485241067185
 20
-138.4873263542671
 30
0.0
 10
79.53485241067185
 20
-138.4873263542671
 30
0.0
 10
79.53485241067185
 20
-138.4873263542671
 30
0.0
 10
79.31901717852094
 20
-138.4873263542671
 30
0.0
 10
79.31901717852094
 20
-138.4873263542671
 30
0.0
 10
79.32539060516865
 20
-138.4428846225073
 30
0.0
 10
79.34020451575523
 20
-138.0408419793787
 30
0.0
 10
79.34020451575523
 20
-138.0112141582055
 30
0.0
 10
79.20274520589376
 20
-138.0684027432607
 30
0.0
 10
78.79226207882624
 20
-138.182779913371
 30
0.0
 10
78.73937986312765
 20
-138.1931151998267
 30
0.0
 10
78.72663300983224
 20
-138.2354898742953
 30
0.0
 10
78.72025958318453
 20
-138.2544378994642
 30
0.0
 10
78.6992445007245
 20
-138.2544378994642
 30
0.0
 10
78.68219127807251
 20
-138.2544378994642
 30
0.0
 10
78.66961667955135
 20
-138.2399684984261
 30
0.0
 10
78.66324325290364
 20
-138.2079291104133
 30
0.0
 10
78.66324325290364
 20
-138.2079291104133
 30
0.0
 10
78.62310789050048
 20
-137.9943331903278
 30
0.0
 10
78.62310789050048
 20
-137.9943331903278
 30
0.0
 10
78.67375079413365
 20
-137.9922661330367
 30
0.0
 10
78.81344941606054
 20
-137.9753851651589
 30
0.0
 10
78.84945066388138
 20
-137.9647053691547
 30
0.0
 10
78.84945066388138
 20
-137.9647053691547
 30
0.0
 10
78.84945066388138
 20
-136.8181775916635
 30
0.0
 10
78.84945066388138
 20
-136.8181775916635
 30
0.0
 10
78.83463675329482
 20
-136.8181775916635
 30
0.0
 10
78.68443059013792
 20
-136.824378763537
 30
0.0
 10
78.64842934231706
 20
-136.830924444959
 30
0.0
 10
78.64842934231706
 20
-136.830924444959
 30
0.0
 10
78.64842934231706
 20
-136.6342094927512
 30
0.0
 10
78.64842934231706
 20
-136.6342094927512
 30
0.0
 10
78.73731280583651
 20
-136.6424777219158
 30
0.0
 10
78.92765433139657
 20
-136.6593586897935
 30
0.0
 10
79.01447073762486
 20
-136.6593586897935
 30
0.0
 10
79.01447073762486
 20
-136.6593586897935
 30
0.0
 10
79.31901717852094
 20
-136.6593586897935
 30
0.0
 10
79.31901717852094
 20
-136.6593586897935
 30
0.0
 10
79.34020451575523
 20
-136.6593586897935
 30
0.0
 10
79.57498777307501
 20
-136.6490234033377
 30
0.0
 10
79.68712563111988
 20
-136.6383436073335
 30
0.0
 10
79.68712563111988
 20
-136.6383436073335
 30
0.0
 10
79.68712563111988
 20
-136.7947509423638
 30
0.0
 10
79.68712563111988
 20
-136.7947509423638
 30
0.0
 10
79.68712563111988
 20
-136.7947509423638
 30
0.0
 10
79.92190888843966
 20
-136.7947509423638
 30
0.0
 10
79.92190888843966
 20
-136.7947509423638
 30
0.0
 10
79.92190888843966
 20
-136.7947509423638
 30
0.0
 10
80.03197968919339
 20
-136.7947509423638
 30
0.0
 10
80.03197968919339
 20
-136.7947509423638
 30
0.0
 10
80.09123533153969
 20
-136.7947509423638
 30
0.0
 10
80.13137069394286
 20
-136.7947509423638
 30
0.0
 10
80.31757810492061
 20
-136.7799370317773
 30
0.0
 10
80.31757810492061
 20
-136.7799370317773
 30
0.0
 10
80.41696910967006
 20
-136.8605522661321
 30
0.0
 10
80.41696910967006
 20
-136.8605522661321
 30
0.0
 10
80.40852862573121
 20
-137.0889620968042
 30
0.0
 10
80.39371471514463
 20
-137.2054063242056
 30
0.0
 10
80.32171221950291
 20
-137.4506971227554
 30
0.0
 10
80.26245657715661
 20
-137.6539577563851
 30
0.0
 10
80.22869464140116
 20
-137.7300943666091
 30
0.0
 10
80.14411754723828
 20
-137.8823675870572
 30
0.0
 10
80.24144149469659
 20
-138.0050129863321
 30
0.0
 10
80.4021551990835
 20
-138.182779913371
 30
0.0
 10
80.60731063523012
 20
-138.2671847527596
 30
0.0
 10
80.60731063523012
 20
-138.2671847527596
 30
0.0
 10
80.4614108414298
 20
-138.4280707119208
 30
0.0
 10
80.4614108414298
 20
-138.4280707119208
 30
0.0
  0
POLYLINE
  5
48
330
41
100
AcDbEntity
  8
_U+30EC_U+30A4_U+30E4_U+30FC 1
370
     0
100
AcDb2dPolyline
 66
     1
 10
0.0
 20
0.0
 30
0.0
  0
VERTEX
  5
49
330
48
100
AcDbEntity
  8
_U+30EC_U+30A4_U+30E4_U+30FC 1
370
     0
100
AcDbVertex
100
AcDb2dVertex
 10
79.34020451575523
 20
-136.8181775916635
 30
0.0
  0
VERTEX
  5
4A
330
48
100
AcDbEntity
  8
_U+30EC_U+30A4_U+30E4_U+30FC 1
370
     0
100
AcDbVertex
100
AcDb2dVertex
 10
79.02928464821143
 20
-136.8181775916635
 30
0.0
  0
VERTEX
  5
4B
330
48
100
AcDbEntity
  8
_U+30EC_U+30A4_U+30E4_U+30FC 1
370
     0
100
AcDbVertex
100
AcDb2dVertex
 10
79.02928464821143
 20
-137.0700140716353
 30
0.0
  0
VERTEX
  5
4C
330
48
100
AcDbEntity
  8
_U+30EC_U+30A4_U+30E4_U+30FC 1
370
     0
100
AcDbVertex
100
AcDb2dVertex
 10
79.34020451575523
 20
-137.0700140716353
 30
0.0
  0
VERTEX
  5
4D
330
48
100
AcDbEntity
  8
_U+30EC_U+30A4_U+30E4_U+30FC 1
370
     0
100
AcDbVertex
100
AcDb2dVertex
 10
79.34020451575523
 20
-136.8181775916635
 30
0.0
  0
SEQEND
  5
4E
330
48
100
AcDbEntity
  8
_U+30EC_U+30A4_U+30E4_U+30FC 1
370
     0
  0
POLYLINE
  5
4F
330
41
100
AcDbEntity
  8
_U+30EC_U+30A4_U+30E4_U+30FC 1
370
     0
100
AcDb2dPolyline
 66
     1
 10
0.0
 20
0.0
 30
0.0
  0
VERTEX
  5
50
330
4F
100
AcDbEntity
  8
_U+30EC_U+30A4_U+30E4_U+30FC 1
370
     0
100
AcDbVertex
100
AcDb2dVertex
 10
79.34020451575523
 20
-137.2329670880876
 30
0.0
  0
VERTEX
  5
51
330
4F
100
AcDbEntity
  8
_U+30EC_U+30A4_U+30E4_U+30FC 1
370
     0
100
AcDbVertex
100
AcDb2dVertex
 10
79.02928464821143
 20
-137.2329670880876
 30
0.0
  0
VERTEX
  5
52
330
4F
100
AcDbEntity
  8
_U+30EC_U+30A4_U+30E4_U+30FC 1
370
     0
100
AcDbVertex
100
AcDb2dVertex
 10
79.02928464821143
 20
-137.4910047399328
 30
0.0
  0
VERTEX
  5
53
330
4F
100
AcDbEntity
  8
_U+30EC_U+30A4_U+30E4_U+30FC 1
370
     0
100
AcDbVertex
100
AcDb2dVertex
 10
79.34020451575523
 20
-137.4910047399328
 30
0.0
  0
VERTEX
  5
54
330
4F
100
AcDbEntity
  8
_U+30EC_U+30A4_U+30E4_U+30FC 1
370
     0
100
AcDbVertex
100
AcDb2dVertex
 10
79.34020451575523
 20
-137.2329670880876
 30
0.0
  0
SEQEND
  5
55
330
4F
100
AcDbEntity
  8
_U+30EC_U+30A4_U+30E4_U+30FC 1
370
     0
  0
SPLINE
  5
56
330
41
100
AcDbEntity
  8
_U+30EC_U+30A4_U+30E4_U+30FC 1
370
     0
100
AcDbSpline
210
0.0
220
0.0
230
1.0
 70
    11
 71
     3
 72
    17
 73
    13
 74
     0
 42
0.0000000001
 43
0.0000000001
 12
1.0
 22
0.0
 32
0.0
 13
1.0
 23
0.0
 33
0.0
 40
0.0
 40
0.0
 40
0.0
 40
0.0
 40
1.0
 40
1.0
 40
1.0
 40
2.0
 40
2.0
 40
2.0
 40
3.0
 40
3.0
 40
3.0
 40
4.0
 40
4.0
 40
4.0
 40
4.0
 10
79.34020451575523
 20
-137.6515461895455
 30
0.0
 10
79.34020451575523
 20
-137.6515461895455
 30
0.0
 10
79.02928464821143
 20
-137.6515461895455
 30
0.0
 10
79.02928464821143
 20
-137.6515461895455
 30
0.0
 10
79.02928464821143
 20
-137.6515461895455
 30
0.0
 10
79.02928464821143
 20
-137.9247422615258
 30
0.0
 10
79.02928464821143
 20
-137.9247422615258
 30
0.0
 10
79.09060734784887
 20
-137.9181965801038
 30
0.0
 10
79.27044133217892
 20
-137.8778889629264
 30
0.0
 10
79.34020451575523
 20
-137.8630750523398
 30
0.0
 10
79.34020451575523
 20
-137.8630750523398
 30
0.0
 10
79.34020451575523
 20
-137.6515461895455
 30
0.0
 10
79.34020451575523
 20
-137.6515461895455
 30
0.0
  0
SPLINE
  5
57
330
41
100
AcDbEntity
  8
_U+30EC_U+30A4_U+30E4_U+30FC 1
370
     0
100
AcDbSpline
210
0.0
220
0.0
230
1.0
 70
    11
 71
     3
 72
    44
 73
    40
 74
     0
 42
0.0000000001
 43
0.0000000001
 12
1.0
 22
0.0
 32
0.0
 13
1.0
 23
0.0
 33
0.0
 40
0.0
 40
0.0
 40
0.0
 40
0.0
 40
1.0
 40
1.0
 40
1.0
 40
2.0
 40
2.0
 40
2.0
 40
3.0
 40
3.0
 40
3.0
 40
4.0
 40
4.0
 40
4.0
 40
5.0
 40
5.0
 40
5.0
 40
6.0
 40
6.0
 40
6.0
 40
7.0
 40
7.0
 40
7.0
 40
8.0
 40
8.0
 40
8.0
 40
9.0
 40
9.0
 40
9.0
 40
10.0
 40
10.0
 40
10.0
 40
11.0
 40
11.0
 40
11.0
 40
12.0
 40
12.0
 40
12.0
 40
13.0
 40
13.0
 40
13.0
 40
13.0
 10
79.8500786475722
 20
-136.9725178694027
 30
0.0
 10
79.80563691581249
 20
-136.9725178694027
 30
0.0
 10
79.64475095665132
 20
-136.9769964935335
 30
0.0
 10
79.602548536957
 20
-136.9790635508247
 30
0.0
 10
79.602548536957
 20
-136.9790635508247
 30
0.0
 10
79.602548536957
 20
-136.8202446489547
 30
0.0
 10
79.602548536957
 20
-136.8202446489547
 30
0.0
 10
79.58773462637043
 20
-136.8202446489547
 30
0.0
 10
79.58342825701386
 20
-136.8202446489547
 30
0.0
 10
79.52847898402413
 20
-136.8181775916635
 30
0.0
 10
79.52847898402413
 20
-136.8181775916635
 30
0.0
 10
79.52847898402413
 20
-137.6856526348494
 30
0.0
 10
79.52847898402413
 20
-137.6856526348494
 30
0.0
 10
79.52847898402413
 20
-137.6856526348494
 30
0.0
 10
79.52847898402413
 20
-137.749042391778
 30
0.0
 10
79.52847898402413
 20
-137.749042391778
 30
0.0
 10
79.52847898402413
 20
-137.749042391778
 30
0.0
 10
79.53261309860643
 20
-138.0704698005518
 30
0.0
 10
79.53261309860643
 20
-138.0704698005518
 30
0.0
 10
79.53261309860643
 20
-138.0704698005518
 30
0.0
 10
79.53261309860643
 20
-138.2461696702996
 30
0.0
 10
79.53261309860643
 20
-138.2461696702996
 30
0.0
 10
79.54966632125841
 20
-138.2375569315865
 30
0.0
 10
79.74844833075734
 20
-138.1383381816113
 30
0.0
 10
79.9134684045008
 20
-137.8971814976438
 30
0.0
 10
79.74638127346618
 20
-137.6367322789589
 30
0.0
 10
79.68075220447217
 20
-137.43795026946
 30
0.0
 10
79.61942950483473
 20
-137.0762152435087
 30
0.0
 10
79.61942950483473
 20
-137.0762152435087
 30
0.0
 10
79.7949571198082
 20
-137.0128254865801
 30
0.0
 10
79.7949571198082
 20
-137.0128254865801
 30
0.0
 10
79.83302542492022
 20
-137.2560492278388
 30
0.0
 10
79.90072155120538
 20
-137.493071797224
 30
0.0
 10
80.02560626254568
 20
-137.7066677173094
 30
0.0
 10
80.150490973886
 20
-137.4486300654642
 30
0.0
 10
80.20113387751917
 20
-137.1440836245681
 30
0.0
 10
80.2138807308146
 20
-136.9725178694027
 30
0.0
 10
80.2138807308146
 20
-136.9725178694027
 30
0.0
 10
79.8500786475722
 20
-136.9725178694027
 30
0.0
 10
79.8500786475722
 20
-136.9725178694027
 30
0.0
  0
HATCH
  5
58
330
41
100
AcDbEntity
  8
_U+30EC_U+30A4_U+30E4_U+30FC 1
 62
   179
420
  2234388
100
AcDbHatch
 10
0.0
 20
0.0
 30
0.0
210
0.0
220
0.0
230
1.0
  2
SOLID
 70
     1
 71
     0
 91
        5
 92
        1
 93
        1
 72
     4
 94
        3
 73
     0
 74
     1
 95
       83
 96
       79
 40
0.0
 40
0.0
 40
0.0
 40
0.0
 40
1.0
 40
1.0
 40
1.0
 40
2.0
 40
2.0
 40
2.0
 40
3.0
 40
3.0
 40
3.0
 40
4.0
 40
4.0
 40
4.0
 40
5.0
 40
5.0
 40
5.0
 40
6.0
 40
6.0
 40
6.0
 40
7.0
 40
7.0
 40
7.0
 40
8.0
 40
8.0
 40
8.0
 40
9.0
 40
9.0
 40
9.0
 40
10.0
 40
10.0
 40
10.0
 40
11.0
 40
11.0
 40
11.0
 40
12.0
 40
12.0
 40
12.0
 40
13.0
 40
13.0
 40
13.0
 40
14.0
 40
14.0
 40
14.0
 40
15.0
 40
15.0
 40
15.0
 40
16.0
 40
16.0
 40
16.0
 40
17.0
 40
17.0
 40
17.0
 40
18.0
 40
18.0
 40
18.0
 40
19.0
 40
19.0
 40
19.0
 40
20.0
 40
20.0
 40
20.0
 40
21.0
 40
21.0
 40
21.0
 40
22.0
 40
22.0
 40
22.0
 40
23.0
 40
23.0
 40
23.0
 40
24.0
 40
24.0
 40
24.0
 40
25.0
 40
25.0
 40
25.0
 40
26.0
 40
26.0
 40
26.0
 40
26.0
 10
80.4614108414298
 20
-138.4280707119208
 10
80.27313637316088
 20
-138.3371201911102
 10
80.09967581547856
 20
-138.1362711243201
 10
80.03611380377569
 20
-138.0622015713872
 10
79.96635062019939
 20
-138.1572862067801
 10
79.88177352603651
 20
-138.2651176954685
 10
79.68505857382874
 20
-138.411189744043
 10
79.68505857382874
 20
-138.411189744043
 10
79.53485241067185
 20
-138.3012911980636
 10
79.53485241067185
 20
-138.3012911980636
 10
79.53485241067185
 20
-138.3012911980636
 10
79.53485241067185
 20
-138.4873263542671
 10
79.53485241067185
 20
-138.4873263542671
 10
79.53485241067185
 20
-138.4873263542671
 10
79.31901717852094
 20
-138.4873263542671
 10
79.31901717852094
 20
-138.4873263542671
 10
79.32539060516865
 20
-138.4428846225073
 10
79.34020451575523
 20
-138.0408419793787
 10
79.34020451575523
 20
-138.0112141582055
 10
79.20274520589376
 20
-138.0684027432607
 10
78.79226207882624
 20
-138.182779913371
 10
78.73937986312765
 20
-138.1931151998267
 10
78.72663300983224
 20
-138.2354898742953
 10
78.72025958318453
 20
-138.2544378994642
 10
78.6992445007245
 20
-138.2544378994642
 10
78.68219127807251
 20
-138.2544378994642
 10
78.66961667955135
 20
-138.2399684984261
 10
78.66324325290364
 20
-138.2079291104133
 10
78.66324325290364
 20
-138.2079291104133
 10
78.62310789050048
 20
-137.9943331903278
 10
78.62310789050048
 20
-137.9943331903278
 10
78.67375079413365
 20
-137.9922661330367
 10
78.81344941606054
 20
-137.9753851651589
 10
78.84945066388138
 20
-137.9647053691547
 10
78.84945066388138
 20
-137.9647053691547
 10
78.84945066388138
 20
-136.8181775916635
 10
78.84945066388138
 20
-136.8181775916635
 10
78.83463675329482
 20
-136.8181775916635
 10
78.68443059013792
 20
-136.824378763537
 10
78.64842934231706
 20
-136.830924444959
 10
78.64842934231706
 20
-136.830924444959
 10
78.64842934231706
 20
-136.6342094927512
 10
78.64842934231706
 20
-136.6342094927512
 10
78.73731280583651
 20
-136.6424777219158
 10
78.92765433139657
 20
-136.6593586897935
 10
79.01447073762486
 20
-136.6593586897935
 10
79.01447073762486
 20
-136.6593586897935
 10
79.31901717852094
 20
-136.6593586897935
 10
79.31901717852094
 20
-136.6593586897935
 10
79.34020451575523
 20
-136.6593586897935
 10
79.57498777307501
 20
-136.6490234033377
 10
79.68712563111988
 20
-136.6383436073335
 10
79.68712563111988
 20
-136.6383436073335
 10
79.68712563111988
 20
-136.7947509423638
 10
79.68712563111988
 20
-136.7947509423638
 10
79.68712563111988
 20
-136.7947509423638
 10
79.92190888843966
 20
-136.7947509423638
 10
79.92190888843966
 20
-136.7947509423638
 10
79.92190888843966
 20
-136.7947509423638
 10
80.03197968919339
 20
-136.7947509423638
 10
80.03197968919339
 20
-136.7947509423638
 10
80.09123533153969
 20
-136.7947509423638
 10
80.13137069394286
 20
-136.7947509423638
 10
80.31757810492061
 20
-136.7799370317773
 10
80.31757810492061
 20
-136.7799370317773
 10
80.41696910967006
 20
-136.8605522661321
 10
80.41696910967006
 20
-136.8605522661321
 10
80.40852862573121
 20
-137.0889620968042
 10
80.39371471514463
 20
-137.2054063242056
 10
80.32171221950291
 20
-137.4506971227554
 10
80.26245657715661
 20
-137.6539577563851
 10
80.22869464140116
 20
-137.7300943666091
 10
80.14411754723828
 20
-137.8823675870572
 10
80.24144149469659
 20
-138.0050129863321
 10
80.4021551990835
 20
-138.182779913371
 10
80.60731063523012
 20
-138.2671847527596
 10
80.60731063523012
 20
-138.2671847527596
 10
80.4614108414298
 20
-138.4280707119208
 10
80.4614108414298
 20
-138.4280707119208
 97
        0
 97
        0
 92
        1
 93
        4
 72
     1
 10
79.34020451575523
 20
-136.8181775916635
 11
79.02928464821143
 21
-136.8181775916635
 72
     1
 10
79.02928464821143
 20
-136.8181775916635
 11
79.02928464821143
 21
-137.0700140716353
 72
     1
 10
79.02928464821143
 20
-137.0700140716353
 11
79.34020451575523
 21
-137.0700140716353
 72
     1
 10
79.34020451575523
 20
-137.0700140716353
 11
79.34020451575523
 21
-136.8181775916635
 97
        0
 92
        1
 93
        4
 72
     1
 10
79.34020451575523
 20
-137.2329670880876
 11
79.02928464821143
 21
-137.2329670880876
 72
     1
 10
79.02928464821143
 20
-137.2329670880876
 11
79.02928464821143
 21
-137.4910047399328
 72
     1
 10
79.02928464821143
 20
-137.4910047399328
 11
79.34020451575523
 21
-137.4910047399328
 72
     1
 10
79.34020451575523
 20
-137.4910047399328
 11
79.34020451575523
 21
-137.2329670880876
 97
        0
 92
        1
 93
        1
 72
     4
 94
        3
 73
     0
 74
     1
 95
       17
 96
       13
 40
0.0
 40
0.0
 40
0.0
 40
0.0
 40
1.0
 40
1.0
 40
1.0
 40
2.0
 40
2.0
 40
2.0
 40
3.0
 40
3.0
 40
3.0
 40
4.0
 40
4.0
 40
4.0
 40
4.0
 10
79.34020451575523
 20
-137.6515461895455
 10
79.34020451575523
 20
-137.6515461895455
 10
79.02928464821143
 20
-137.6515461895455
 10
79.02928464821143
 20
-137.6515461895455
 10
79.02928464821143
 20
-137.6515461895455
 10
79.02928464821143
 20
-137.9247422615258
 10
79.02928464821143
 20
-137.9247422615258
 10
79.09060734784887
 20
-137.9181965801038
 10
79.27044133217892
 20
-137.8778889629264
 10
79.34020451575523
 20
-137.8630750523398
 10
79.34020451575523
 20
-137.8630750523398
 10
79.34020451575523
 20
-137.6515461895455
 10
79.34020451575523
 20
-137.6515461895455
 97
        0
 97
        0
 92
        1
 93
        1
 72
     4
 94
        3
 73
     0
 74
     1
 95
       44
 96
       40
 40
0.0
 40
0.0
 40
0.0
 40
0.0
 40
1.0
 40
1.0
 40
1.0
 40
2.0
 40
2.0
 40
2.0
 40
3.0
 40
3.0
 40
3.0
 40
4.0
 40
4.0
 40
4.0
 40
5.0
 40
5.0
 40
5.0
 40
6.0
 40
6.0
 40
6.0
 40
7.0
 40
7.0
 40
7.0
 40
8.0
 40
8.0
 40
8.0
 40
9.0
 40
9.0
 40
9.0
 40
10.0
 40
10.0
 40
10.0
 40
11.0
 40
11.0
 40
11.0
 40
12.0
 40
12.0
 40
12.0
 40
13.0
 40
13.0
 40
13.0
 40
13.0
 10
79.8500786475722
 20
-136.9725178694027
 10
79.80563691581249
 20
-136.9725178694027
 10
79.64475095665132
 20
-136.9769964935335
 10
79.602548536957
 20
-136.9790635508247
 10
79.602548536957
 20
-136.9790635508247
 10
79.602548536957
 20
-136.8202446489547
 10
79.602548536957
 20
-136.8202446489547
 10
79.58773462637043
 20
-136.8202446489547
 10
79.58342825701386
 20
-136.8202446489547
 10
79.52847898402413
 20
-136.8181775916635
 10
79.52847898402413
 20
-136.8181775916635
 10
79.52847898402413
 20
-137.6856526348494
 10
79.52847898402413
 20
-137.6856526348494
 10
79.52847898402413
 20
-137.6856526348494
 10
79.52847898402413
 20
-137.749042391778
 10
79.52847898402413
 20
-137.749042391778
 10
79.52847898402413
 20
-137.749042391778
 10
79.53261309860643
 20
-138.0704698005518
 10
79.53261309860643
 20
-138.0704698005518
 10
79.53261309860643
 20
-138.0704698005518
 10
79.53261309860643
 20
-138.2461696702996
 10
79.53261309860643
 20
-138.2461696702996
 10
79.54966632125841
 20
-138.2375569315865
 10
79.74844833075734
 20
-138.1383381816113
 10
79.9134684045008
 20
-137.8971814976438
 10
79.74638127346618
 20
-137.6367322789589
 10
79.68075220447217
 20
-137.43795026946
 10
79.61942950483473
 20
-137.0762152435087
 10
79.61942950483473
 20
-137.0762152435087
 10
79.7949571198082
 20
-137.0128254865801
 10
79.7949571198082
 20
-137.0128254865801
 10
79.83302542492022
 20
-137.2560492278388
 10
79.90072155120538
 20
-137.493071797224
 10
80.02560626254568
 20
-137.7066677173094
 10
80.150490973886
 20
-137.4486300654642
 10
80.20113387751917
 20
-137.1440836245681
 10
80.2138807308146
 20
-136.9725178694027
 10
80.2138807308146
 20
-136.9725178694027
 10
79.8500786475722
 20
-136.9725178694027
 10
79.8500786475722
 20
-136.9725178694027
 97
        0
 97
        0
 75
     2
 76
     1
 98
        0
  0
SPLINE
  5
59
330
41
100
AcDbEntity
  8
_U+30EC_U+30A4_U+30E4_U+30FC 1
370
     0
100
AcDbSpline
210
0.0
220
0.0
230
1.0
 70
    11
 71
     3
 72
    53
 73
    49
 74
     0
 42
0.0000000001
 43
0.0000000001
 12
1.0
 22
0.0
 32
0.0
 13
1.0
 23
0.0
 33
0.0
 40
0.0
 40
0.0
 40
0.0
 40
0.0
 40
1.0
 40
1.0
 40
1.0
 40
2.0
 40
2.0
 40
2.0
 40
3.0
 40
3.0
 40
3.0
 40
4.0
 40
4.0
 40
4.0
 40
5.0
 40
5.0
 40
5.0
 40
6.0
 40
6.0
 40
6.0
 40
7.0
 40
7.0
 40
7.0
 40
8.0
 40
8.0
 40
8.0
 40
9.0
 40
9.0
 40
9.0
 40
10.0
 40
10.0
 40
10.0
 40
11.0
 40
11.0
 40
11.0
 40
12.0
 40
12.0
 40
12.0
 40
13.0
 40
13.0
 40
13.0
 40
14.0
 40
14.0
 40
14.0
 40
15.0
 40
15.0
 40
15.0
 40
16.0
 40
16.0
 40
16.0
 40
16.0
 10
81.37642820231214
 20
-136.7527207774438
 30
0.0
 10
81.30873207602698
 20
-136.9049939978918
 30
0.0
 10
81.26652965633268
 20
-136.983197665407
 30
0.0
 10
81.2282890964464
 20
-137.0507215369179
 30
0.0
 10
81.27066377091498
 20
-137.0720811289264
 30
0.0
 10
81.27497014027153
 20
-137.0741481862176
 30
0.0
 10
81.27497014027153
 20
-137.0889620968042
 30
0.0
 10
81.27497014027153
 20
-137.1017089500996
 30
0.0
 10
81.24103594974183
 20
-137.135470885855
 30
0.0
 10
81.23052840851182
 20
-137.1440836245681
 30
0.0
 10
81.2282890964464
 20
-137.3407985767759
 30
0.0
 10
81.2282890964464
 20
-137.3618136592359
 30
0.0
 10
81.2282890964464
 20
-137.4951388545151
 30
0.0
 10
81.22622203915526
 20
-137.5078857078105
 30
0.0
 10
81.22622203915526
 20
-137.5226996183971
 30
0.0
 10
81.22622203915526
 20
-137.5375135289837
 30
0.0
 10
81.22622203915526
 20
-137.5375135289837
 30
0.0
 10
81.22622203915526
 20
-138.072536857843
 30
0.0
 10
81.22622203915526
 20
-138.072536857843
 30
0.0
 10
81.22622203915526
 20
-138.1445393534847
 30
0.0
 10
81.23052840851182
 20
-138.3794948655787
 30
0.0
 10
81.23896889245067
 20
-138.4893934115582
 30
0.0
 10
81.23896889245067
 20
-138.4893934115582
 30
0.0
 10
80.99574515119204
 20
-138.4893934115582
 30
0.0
 10
80.99574515119204
 20
-138.4893934115582
 30
0.0
 10
81.01899954571748
 20
-138.3309190192367
 30
0.0
 10
81.02520071759092
 20
-138.0897623352692
 30
0.0
 10
81.02520071759092
 20
-138.0684027432607
 30
0.0
 10
81.02520071759092
 20
-138.0684027432607
 30
0.0
 10
81.02520071759092
 20
-137.3511338632317
 30
0.0
 10
81.02520071759092
 20
-137.3511338632317
 30
0.0
 10
80.93425019678033
 20
-137.465511033342
 30
0.0
 10
80.87292749714288
 20
-137.5247666756883
 30
0.0
 10
80.83072507744858
 20
-137.5671413501568
 30
0.0
 10
80.83072507744858
 20
-137.5671413501568
 30
0.0
 10
80.64021129711426
 20
-137.4296820402954
 30
0.0
 10
80.64021129711426
 20
-137.4296820402954
 30
0.0
 10
80.92167559825917
 20
-137.2136745533702
 30
0.0
 10
81.11408418111037
 20
-136.9049939978918
 30
0.0
 10
81.22622203915526
 20
-136.5684081689829
 30
0.0
 10
81.22622203915526
 20
-136.5684081689829
 30
0.0
 10
81.44619138588845
 20
-136.6827853390932
 30
0.0
 10
81.44619138588845
 20
-136.6827853390932
 30
0.0
 10
81.45893823918388
 20
-136.6889865109667
 30
0.0
 10
81.46737872312275
 20
-136.6934651350975
 30
0.0
 10
81.46737872312275
 20
-136.708279045684
 30
0.0
 10
81.46737872312275
 20
-136.7334282427264
 30
0.0
 10
81.45049775524502
 20
-136.7379068668572
 30
0.0
 10
81.37642820231214
 20
-136.7527207774438
 30
0.0
  0
SPLINE
  5
5A
330
41
100
AcDbEntity
  8
_U+30EC_U+30A4_U+30E4_U+30FC 1
370
     0
100
AcDbSpline
210
0.0
220
0.0
230
1.0
 70
    11
 71
     3
 72
    77
 73
    73
 74
     0
 42
0.0000000001
 43
0.0000000001
 12
1.0
 22
0.0
 32
0.0
 13
1.0
 23
0.0
 33
0.0
 40
0.0
 40
0.0
 40
0.0
 40
0.0
 40
1.0
 40
1.0
 40
1.0
 40
2.0
 40
2.0
 40
2.0
 40
3.0
 40
3.0
 40
3.0
 40
4.0
 40
4.0
 40
4.0
 40
5.0
 40
5.0
 40
5.0
 40
6.0
 40
6.0
 40
6.0
 40
7.0
 40
7.0
 40
7.0
 40
8.0
 40
8.0
 40
8.0
 40
9.0
 40
9.0
 40
9.0
 40
10.0
 40
10.0
 40
10.0
 40
11.0
 40
11.0
 40
11.0
 40
12.0
 40
12.0
 40
12.0
 40
13.0
 40
13.0
 40
13.0
 40
14.0
 40
14.0
 40
14.0
 40
15.0
 40
15.0
 40
15.0
 40
16.0
 40
16.0
 40
16.0
 40
17.0
 40
17.0
 40
17.0
 40
18.0
 40
18.0
 40
18.0
 40
19.0
 40
19.0
 40
19.0
 40
20.0
 40
20.0
 40
20.0
 40
21.0
 40
21.0
 40
21.0
 40
22.0
 40
22.0
 40
22.0
 40
23.0
 40
23.0
 40
23.0
 40
24.0
 40
24.0
 40
24.0
 40
24.0
 10
82.52726234915986
 20
-137.2519151132565
 30
0.0
 10
82.45749916558354
 20
-137.2477809986742
 30
0.0
 10
82.38980303929839
 20
-137.2477809986742
 30
0.0
 10
82.32210691301323
 20
-137.2477809986742
 30
0.0
 10
82.32210691301323
 20
-137.2477809986742
 30
0.0
 10
82.32210691301323
 20
-138.0218939542098
 30
0.0
 10
82.32210691301323
 20
-138.0218939542098
 30
0.0
 10
82.32210691301323
 20
-138.286477287477
 30
0.0
 10
82.32003985572207
 20
-138.3161051086501
 30
0.0
 10
82.31366642907436
 20
-138.3457329298233
 30
0.0
 10
82.27973223854465
 20
-138.4787136155539
 30
0.0
 10
82.17827417650405
 20
-138.4873263542671
 30
0.0
 10
82.0025743067563
 20
-138.4873263542671
 30
0.0
 10
81.96243894435314
 20
-138.4873263542671
 30
0.0
 10
81.94555797647541
 20
-138.4873263542671
 30
0.0
 10
81.905250359298
 20
-138.4831922396848
 30
0.0
 10
81.905250359298
 20
-138.4831922396848
 30
0.0
 10
81.78053790273195
 20
-138.2420355557173
 30
0.0
 10
81.78053790273195
 20
-138.2420355557173
 30
0.0
 10
81.89680987535914
 20
-138.2737304341816
 30
0.0
 10
81.97931991223086
 20
-138.2737304341816
 30
0.0
 10
82.0025743067563
 20
-138.2737304341816
 30
0.0
 10
82.07250974510687
 20
-138.2737304341816
 30
0.0
 10
82.10627168086232
 20
-138.2568494663039
 30
0.0
 10
82.11057805021889
 20
-138.1996608812487
 30
0.0
 10
82.11057805021889
 20
-138.1869140279533
 30
0.0
 10
82.11264510751003
 20
-138.0897623352692
 30
0.0
 10
82.11264510751003
 20
-138.0325737502141
 30
0.0
 10
82.11264510751003
 20
-138.0325737502141
 30
0.0
 10
82.11264510751003
 20
-137.2453694318345
 30
0.0
 10
82.11264510751003
 20
-137.2453694318345
 30
0.0
 10
82.11264510751003
 20
-137.2453694318345
 30
0.0
 10
81.81860620784396
 20
-137.2453694318345
 30
0.0
 10
81.81860620784396
 20
-137.2453694318345
 30
0.0
 10
81.67270641404363
 20
-137.2453694318345
 30
0.0
 10
81.52663436546904
 20
-137.2519151132565
 30
0.0
 10
81.38280162895985
 20
-137.2646619665519
 30
0.0
 10
81.38280162895985
 20
-137.2646619665519
 30
0.0
 10
81.38280162895985
 20
-137.0572672183399
 30
0.0
 10
81.38280162895985
 20
-137.0572672183399
 30
0.0
 10
81.53300779211675
 20
-137.0700140716353
 30
0.0
 10
81.7509100815588
 20
-137.0741481862176
 30
0.0
 10
81.81860620784396
 20
-137.0741481862176
 30
0.0
 10
81.81860620784396
 20
-137.0741481862176
 30
0.0
 10
82.11264510751003
 20
-137.0741481862176
 30
0.0
 10
82.11264510751003
 20
-137.0741481862176
 30
0.0
 10
82.11057805021889
 20
-136.8054307383681
 30
0.0
 10
82.11057805021889
 20
-136.7292941281441
 30
0.0
 10
82.10213756628002
 20
-136.5811550222783
 30
0.0
 10
82.10213756628002
 20
-136.5811550222783
 30
0.0
 10
82.36017521812524
 20
-136.6193955821646
 30
0.0
 10
82.36017521812524
 20
-136.6193955821646
 30
0.0
 10
82.37498912871182
 20
-136.6214626394558
 30
0.0
 10
82.38980303929839
 20
-136.6276638113292
 30
0.0
 10
82.38980303929839
 20
-136.6490234033377
 30
0.0
 10
82.38980303929839
 20
-136.6679714285066
 30
0.0
 10
82.38342961265067
 20
-136.6700384857978
 30
0.0
 10
82.32624102759553
 20
-136.7038004215532
 30
0.0
 10
82.32210691301323
 20
-136.7823485986169
 30
0.0
 10
82.32210691301323
 20
-136.7971625092035
 30
0.0
 10
82.32210691301323
 20
-137.0741481862176
 30
0.0
 10
82.49987384005212
 20
-137.0700140716353
 30
0.0
 10
82.518821865221
 20
-137.0700140716353
 30
0.0
 10
82.5527560557507
 20
-137.0655354475045
 30
0.0
 10
82.60339895938388
 20
-137.0614013329221
 30
0.0
 10
82.60770532874044
 20
-137.059334275631
 30
0.0
 10
82.65214706050016
 20
-137.0572672183399
 30
0.0
 10
82.65214706050016
 20
-137.0572672183399
 30
0.0
 10
82.65214706050016
 20
-137.2646619665519
 30
0.0
 10
82.65214706050016
 20
-137.2646619665519
 30
0.0
 10
82.62251923932702
 20
-137.2625949092607
 30
0.0
 10
82.56739771156302
 20
-137.2539821705476
 30
0.0
 10
82.52726234915986
 20
-137.2519151132565
 30
0.0
  0
SPLINE
  5
5B
330
41
100
AcDbEntity
  8
_U+30EC_U+30A4_U+30E4_U+30FC 1
370
     0
100
AcDbSpline
210
0.0
220
0.0
230
1.0
 70
    11
 71
     3
 72
    20
 73
    16
 74
     0
 42
0.0000000001
 43
0.0000000001
 12
1.0
 22
0.0
 32
0.0
 13
1.0
 23
0.0
 33
0.0
 40
0.0
 40
0.0
 40
0.0
 40
0.0
 40
1.0
 40
1.0
 40
1.0
 40
2.0
 40
2.0
 40
2.0
 40
3.0
 40
3.0
 40
3.0
 40
4.0
 40
4.0
 40
4.0
 40
5.0
 40
5.0
 40
5.0
 40
5.0
 10
81.75728350820651
 20
-137.9774522224501
 30
0.0
 10
81.71077471915564
 20
-137.7996852954112
 30
0.0
 10
81.61345077169733
 20
-137.6580918709674
 30
0.0
 10
81.47375214977045
 20
-137.5481933249879
 30
0.0
 10
81.47375214977045
 20
-137.5481933249879
 30
0.0
 10
81.63446585415736
 20
-137.4338161548777
 30
0.0
 10
81.63446585415736
 20
-137.4338161548777
 30
0.0
 10
81.69596080856907
 20
-137.4761908293462
 30
0.0
 10
81.73609617097223
 20
-137.5099527651017
 30
0.0
 10
81.81223278119626
 20
-137.61778425379
 30
0.0
 10
81.89267576077684
 20
-137.7342284811915
 30
0.0
 10
81.91386309801112
 20
-137.7869384421158
 30
0.0
 10
81.9391845498277
 20
-137.8527397658841
 30
0.0
 10
81.9391845498277
 20
-137.8527397658841
 30
0.0
 10
81.75728350820651
 20
-137.9774522224501
 30
0.0
 10
81.75728350820651
 20
-137.9774522224501
 30
0.0
  0
HATCH
  5
5C
330
41
100
AcDbEntity
  8
_U+30EC_U+30A4_U+30E4_U+30FC 1
 62
   179
420
  2234388
100
AcDbHatch
 10
0.0
 20
0.0
 30
0.0
210
0.0
220
0.0
230
1.0
  2
SOLID
 70
     1
 71
     0
 91
        3
 92
        1
 93
        1
 72
     4
 94
        3
 73
     0
 74
     1
 95
       53
 96
       49
 40
0.0
 40
0.0
 40
0.0
 40
0.0
 40
1.0
 40
1.0
 40
1.0
 40
2.0
 40
2.0
 40
2.0
 40
3.0
 40
3.0
 40
3.0
 40
4.0
 40
4.0
 40
4.0
 40
5.0
 40
5.0
 40
5.0
 40
6.0
 40
6.0
 40
6.0
 40
7.0
 40
7.0
 40
7.0
 40
8.0
 40
8.0
 40
8.0
 40
9.0
 40
9.0
 40
9.0
 40
10.0
 40
10.0
 40
10.0
 40
11.0
 40
11.0
 40
11.0
 40
12.0
 40
12.0
 40
12.0
 40
13.0
 40
13.0
 40
13.0
 40
14.0
 40
14.0
 40
14.0
 40
15.0
 40
15.0
 40
15.0
 40
16.0
 40
16.0
 40
16.0
 40
16.0
 10
81.37642820231214
 20
-136.7527207774438
 10
81.30873207602698
 20
-136.9049939978918
 10
81.26652965633268
 20
-136.983197665407
 10
81.2282890964464
 20
-137.0507215369179
 10
81.27066377091498
 20
-137.0720811289264
 10
81.27497014027153
 20
-137.0741481862176
 10
81.27497014027153
 20
-137.0889620968042
 10
81.27497014027153
 20
-137.1017089500996
 10
81.24103594974183
 20
-137.135470885855
 10
81.23052840851182
 20
-137.1440836245681
 10
81.2282890964464
 20
-137.3407985767759
 10
81.2282890964464
 20
-137.3618136592359
 10
81.2282890964464
 20
-137.4951388545151
 10
81.22622203915526
 20
-137.5078857078105
 10
81.22622203915526
 20
-137.5226996183971
 10
81.22622203915526
 20
-137.5375135289837
 10
81.22622203915526
 20
-137.5375135289837
 10
81.22622203915526
 20
-138.072536857843
 10
81.22622203915526
 20
-138.072536857843
 10
81.22622203915526
 20
-138.1445393534847
 10
81.23052840851182
 20
-138.3794948655787
 10
81.23896889245067
 20
-138.4893934115582
 10
81.23896889245067
 20
-138.4893934115582
 10
80.99574515119204
 20
-138.4893934115582
 10
80.99574515119204
 20
-138.4893934115582
 10
81.01899954571748
 20
-138.3309190192367
 10
81.02520071759092
 20
-138.0897623352692
 10
81.02520071759092
 20
-138.0684027432607
 10
81.02520071759092
 20
-138.0684027432607
 10
81.02520071759092
 20
-137.3511338632317
 10
81.02520071759092
 20
-137.3511338632317
 10
80.93425019678033
 20
-137.465511033342
 10
80.87292749714288
 20
-137.5247666756883
 10
80.83072507744858
 20
-137.5671413501568
 10
80.83072507744858
 20
-137.5671413501568
 10
80.64021129711426
 20
-137.4296820402954
 10
80.64021129711426
 20
-137.4296820402954
 10
80.92167559825917
 20
-137.2136745533702
 10
81.11408418111037
 20
-136.9049939978918
 10
81.22622203915526
 20
-136.5684081689829
 10
81.22622203915526
 20
-136.5684081689829
 10
81.44619138588845
 20
-136.6827853390932
 10
81.44619138588845
 20
-136.6827853390932
 10
81.45893823918388
 20
-136.6889865109667
 10
81.46737872312275
 20
-136.6934651350975
 10
81.46737872312275
 20
-136.708279045684
 10
81.46737872312275
 20
-136.7334282427264
 10
81.45049775524502
 20
-136.7379068668572
 10
81.37642820231214
 20
-136.7527207774438
 97
        0
 97
        0
 92
        1
 93
        1
 72
     4
 94
        3
 73
     0
 74
     1
 95
       77
 96
       73
 40
0.0
 40
0.0
 40
0.0
 40
0.0
 40
1.0
 40
1.0
 40
1.0
 40
2.0
 40
2.0
 40
2.0
 40
3.0
 40
3.0
 40
3.0
 40
4.0
 40
4.0
 40
4.0
 40
5.0
 40
5.0
 40
5.0
 40
6.0
 40
6.0
 40
6.0
 40
7.0
 40
7.0
 40
7.0
 40
8.0
 40
8.0
 40
8.0
 40
9.0
 40
9.0
 40
9.0
 40
10.0
 40
10.0
 40
10.0
 40
11.0
 40
11.0
 40
11.0
 40
12.0
 40
12.0
 40
12.0
 40
13.0
 40
13.0
 40
13.0
 40
14.0
 40
14.0
 40
14.0
 40
15.0
 40
15.0
 40
15.0
 40
16.0
 40
16.0
 40
16.0
 40
17.0
 40
17.0
 40
17.0
 40
18.0
 40
18.0
 40
18.0
 40
19.0
 40
19.0
 40
19.0
 40
20.0
 40
20.0
 40
20.0
 40
21.0
 40
21.0
 40
21.0
 40
22.0
 40
22.0
 40
22.0
 40
23.0
 40
23.0
 40
23.0
 40
24.0
 40
24.0
 40
24.0
 40
24.0
 10
82.52726234915986
 20
-137.2519151132565
 10
82.45749916558354
 20
-137.2477809986742
 10
82.38980303929839
 20
-137.2477809986742
 10
82.32210691301323
 20
-137.2477809986742
 10
82.32210691301323
 20
-137.2477809986742
 10
82.32210691301323
 20
-138.0218939542098
 10
82.32210691301323
 20
-138.0218939542098
 10
82.32210691301323
 20
-138.286477287477
 10
82.32003985572207
 20
-138.3161051086501
 10
82.31366642907436
 20
-138.3457329298233
 10
82.27973223854465
 20
-138.4787136155539
 10
82.17827417650405
 20
-138.4873263542671
 10
82.0025743067563
 20
-138.4873263542671
 10
81.96243894435314
 20
-138.4873263542671
 10
81.94555797647541
 20
-138.4873263542671
 10
81.905250359298
 20
-138.4831922396848
 10
81.905250359298
 20
-138.4831922396848
 10
81.78053790273195
 20
-138.2420355557173
 10
81.78053790273195
 20
-138.2420355557173
 10
81.89680987535914
 20
-138.2737304341816
 10
81.97931991223086
 20
-138.2737304341816
 10
82.0025743067563
 20
-138.2737304341816
 10
82.07250974510687
 20
-138.2737304341816
 10
82.10627168086232
 20
-138.2568494663039
 10
82.11057805021889
 20
-138.1996608812487
 10
82.11057805021889
 20
-138.1869140279533
 10
82.11264510751003
 20
-138.0897623352692
 10
82.11264510751003
 20
-138.0325737502141
 10
82.11264510751003
 20
-138.0325737502141
 10
82.11264510751003
 20
-137.2453694318345
 10
82.11264510751003
 20
-137.2453694318345
 10
82.11264510751003
 20
-137.2453694318345
 10
81.81860620784396
 20
-137.2453694318345
 10
81.81860620784396
 20
-137.2453694318345
 10
81.67270641404363
 20
-137.2453694318345
 10
81.52663436546904
 20
-137.2519151132565
 10
81.38280162895985
 20
-137.2646619665519
 10
81.38280162895985
 20
-137.2646619665519
 10
81.38280162895985
 20
-137.0572672183399
 10
81.38280162895985
 20
-137.0572672183399
 10
81.53300779211675
 20
-137.0700140716353
 10
81.7509100815588
 20
-137.0741481862176
 10
81.81860620784396
 20
-137.0741481862176
 10
81.81860620784396
 20
-137.0741481862176
 10
82.11264510751003
 20
-137.0741481862176
 10
82.11264510751003
 20
-137.0741481862176
 10
82.11057805021889
 20
-136.8054307383681
 10
82.11057805021889
 20
-136.7292941281441
 10
82.10213756628002
 20
-136.5811550222783
 10
82.10213756628002
 20
-136.5811550222783
 10
82.36017521812524
 20
-136.6193955821646
 10
82.36017521812524
 20
-136.6193955821646
 10
82.37498912871182
 20
-136.6214626394558
 10
82.38980303929839
 20
-136.6276638113292
 10
82.38980303929839
 20
-136.6490234033377
 10
82.38980303929839
 20
-136.6679714285066
 10
82.38342961265067
 20
-136.6700384857978
 10
82.32624102759553
 20
-136.7038004215532
 10
82.32210691301323
 20
-136.7823485986169
 10
82.32210691301323
 20
-136.7971625092035
 10
82.32210691301323
 20
-137.0741481862176
 10
82.49987384005212
 20
-137.0700140716353
 10
82.518821865221
 20
-137.0700140716353
 10
82.5527560557507
 20
-137.0655354475045
 10
82.60339895938388
 20
-137.0614013329221
 10
82.60770532874044
 20
-137.059334275631
 10
82.65214706050016
 20
-137.0572672183399
 10
82.65214706050016
 20
-137.0572672183399
 10
82.65214706050016
 20
-137.2646619665519
 10
82.65214706050016
 20
-137.2646619665519
 10
82.62251923932702
 20
-137.2625949092607
 10
82.56739771156302
 20
-137.2539821705476
 10
82.52726234915986
 20
-137.2519151132565
 97
        0
 97
        0
 92
        1
 93
        1
 72
     4
 94
        3
 73
     0
 74
     1
 95
       20
 96
       16
 40
0.0
 40
0.0
 40
0.0
 40
0.0
 40
1.0
 40
1.0
 40
1.0
 40
2.0
 40
2.0
 40
2.0
 40
3.0
 40
3.0
 40
3.0
 40
4.0
 40
4.0
 40
4.0
 40
5.0
 40
5.0
 40
5.0
 40
5.0
 10
81.75728350820651
 20
-137.9774522224501
 10
81.71077471915564
 20
-137.7996852954112
 10
81.61345077169733
 20
-137.6580918709674
 10
81.47375214977045
 20
-137.5481933249879
 10
81.47375214977045
 20
-137.5481933249879
 10
81.63446585415736
 20
-137.4338161548777
 10
81.63446585415736
 20
-137.4338161548777
 10
81.69596080856907
 20
-137.4761908293462
 10
81.73609617097223
 20
-137.5099527651017
 10
81.81223278119626
 20
-137.61778425379
 10
81.89267576077684
 20
-137.7342284811915
 10
81.91386309801112
 20
-137.7869384421158
 10
81.9391845498277
 20
-137.8527397658841
 10
81.9391845498277
 20
-137.8527397658841
 10
81.75728350820651
 20
-137.9774522224501
 10
81.75728350820651
 20
-137.9774522224501
 97
        0
 97
        0
 75
     2
 76
     1
 98
        0
  0
SPLINE
  5
5D
330
41
100
AcDbEntity
  8
_U+30EC_U+30A4_U+30E4_U+30FC 1
370
     0
100
AcDbSpline
210
0.0
220
0.0
230
1.0
 70
    11
 71
     3
 72
    56
 73
    52
 74
     0
 42
0.0000000001
 43
0.0000000001
 12
1.0
 22
0.0
 32
0.0
 13
1.0
 23
0.0
 33
0.0
 40
0.0
 40
0.0
 40
0.0
 40
0.0
 40
1.0
 40
1.0
 40
1.0
 40
2.0
 40
2.0
 40
2.0
 40
3.0
 40
3.0
 40
3.0
 40
4.0
 40
4.0
 40
4.0
 40
5.0
 40
5.0
 40
5.0
 40
6.0
 40
6.0
 40
6.0
 40
7.0
 40
7.0
 40
7.0
 40
8.0
 40
8.0
 40
8.0
 40
9.0
 40
9.0
 40
9.0
 40
10.0
 40
10.0
 40
10.0
 40
11.0
 40
11.0
 40
11.0
 40
12.0
 40
12.0
 40
12.0
 40
13.0
 40
13.0
 40
13.0
 40
14.0
 40
14.0
 40
14.0
 40
15.0
 40
15.0
 40
15.0
 40
16.0
 40
16.0
 40
16.0
 40
17.0
 40
17.0
 40
17.0
 40
17.0
 10
83.99452851632776
 20
-137.4844590585108
 30
0.0
 10
83.88876408493059
 20
-137.6029703432034
 30
0.0
 10
83.79144013747228
 20
-137.672905781554
 30
0.0
 10
83.75113252029486
 20
-137.7025336027272
 30
0.0
 10
83.75113252029486
 20
-137.7025336027272
 30
0.0
 10
83.75113252029486
 20
-137.9922661330367
 30
0.0
 10
83.75113252029486
 20
-137.9922661330367
 30
0.0
 10
83.75113252029486
 20
-138.0387749220875
 30
0.0
 10
83.75113252029486
 20
-138.4070556294607
 30
0.0
 10
83.76387937359029
 20
-138.5148871181491
 30
0.0
 10
83.76387937359029
 20
-138.5148871181491
 30
0.0
 10
83.53960365750052
 20
-138.5148871181491
 30
0.0
 10
83.53960365750052
 20
-138.5148871181491
 30
0.0
 10
83.55235051079595
 20
-138.3412543056925
 30
0.0
 10
83.5607909947348
 20
-138.1679660027844
 30
0.0
 10
83.5607909947348
 20
-137.9943331903278
 30
0.0
 10
83.5607909947348
 20
-137.9943331903278
 30
0.0
 10
83.5607909947348
 20
-137.825179002002
 30
0.0
 10
83.5607909947348
 20
-137.825179002002
 30
0.0
 10
83.37044946917476
 20
-137.9350775479815
 30
0.0
 10
83.17149520490157
 20
-138.0260280687921
 30
0.0
 10
82.96427271146379
 20
-138.0980305644338
 30
0.0
 10
82.96427271146379
 20
-138.0980305644338
 30
0.0
 10
82.82664114682807
 20
-137.9119954082304
 30
0.0
 10
82.82664114682807
 20
-137.9119954082304
 30
0.0
 10
83.146173753085
 20
-137.8441270271709
 30
0.0
 10
83.6793022794274
 20
-137.6346652216677
 30
0.0
 10
83.94371335792033
 20
-137.2625949092607
 30
0.0
 10
83.94371335792033
 20
-137.2625949092607
 30
0.0
 10
83.57560490532138
 20
-137.2625949092607
 30
0.0
 10
83.57560490532138
 20
-137.2625949092607
 30
0.0
 10
83.56285805202596
 20
-137.2625949092607
 30
0.0
 10
83.20749645272244
 20
-137.2646619665519
 30
0.0
 10
83.04454343627012
 20
-137.2836099917208
 30
0.0
 10
83.04454343627012
 20
-137.2836099917208
 30
0.0
 10
83.04454343627012
 20
-137.0655354475045
 30
0.0
 10
83.04454343627012
 20
-137.0655354475045
 30
0.0
 10
83.156681294315
 20
-137.0827609249307
 30
0.0
 10
83.40851777428676
 20
-137.0848279822219
 30
0.0
 10
83.5268568042051
 20
-137.0848279822219
 30
0.0
 10
83.5268568042051
 20
-137.0848279822219
 30
0.0
 10
83.81676158928887
 20
-137.0848279822219
 30
0.0
 10
83.81676158928887
 20
-137.0848279822219
 30
0.0
 10
84.0219170254355
 20
-137.0848279822219
 30
0.0
 10
84.07066512655179
 20
-137.0827609249307
 30
0.0
 10
84.15954859007122
 20
-137.0338405690402
 30
0.0
 10
84.15954859007122
 20
-137.0338405690402
 30
0.0
 10
84.30975475322812
 20
-137.2074733814968
 30
0.0
 10
84.30975475322812
 20
-137.2074733814968
 30
0.0
 10
84.2101914937044
 20
-137.2539821705476
 30
0.0
 10
84.20175100976554
 20
-137.2581162851299
 30
0.0
 10
83.99452851632776
 20
-137.4844590585108
 30
0.0
  0
SPLINE
  5
5E
330
41
100
AcDbEntity
  8
_U+30EC_U+30A4_U+30E4_U+30FC 1
370
     0
100
AcDbSpline
210
0.0
220
0.0
230
1.0
 70
    11
 71
     3
 72
    17
 73
    13
 74
     0
 42
0.0000000001
 43
0.0000000001
 12
1.0
 22
0.0
 32
0.0
 13
1.0
 23
0.0
 33
0.0
 40
0.0
 40
0.0
 40
0.0
 40
0.0
 40
1.0
 40
1.0
 40
1.0
 40
2.0
 40
2.0
 40
2.0
 40
3.0
 40
3.0
 40
3.0
 40
4.0
 40
4.0
 40
4.0
 40
4.0
 10
83.87601723163516
 20
-136.9893988372804
 30
0.0
 10
83.7490654630037
 20
-136.8901800873052
 30
0.0
 10
83.4951619257408
 20
-136.7926838850727
 30
0.0
 10
83.35132918923162
 20
-136.7609890066084
 30
0.0
 10
83.35132918923162
 20
-136.7609890066084
 30
0.0
 10
83.4317721688122
 20
-136.577020907696
 30
0.0
 10
83.4317721688122
 20
-136.577020907696
 30
0.0
 10
83.5819783319691
 20
-136.6193955821646
 30
0.0
 10
83.79144013747228
 20
-136.6955321923886
 30
0.0
 10
83.96903480973691
 20
-136.8074977956592
 30
0.0
 10
83.96903480973691
 20
-136.8074977956592
 30
0.0
 10
83.87601723163516
 20
-136.9893988372804
 30
0.0
 10
83.87601723163516
 20
-136.9893988372804
 30
0.0
  0
SPLINE
  5
5F
330
41
100
AcDbEntity
  8
_U+30EC_U+30A4_U+30E4_U+30FC 1
370
     0
100
AcDbSpline
210
0.0
220
0.0
230
1.0
 70
    11
 71
     3
 72
    17
 73
    13
 74
     0
 42
0.0000000001
 43
0.0000000001
 12
1.0
 22
0.0
 32
0.0
 13
1.0
 23
0.0
 33
0.0
 40
0.0
 40
0.0
 40
0.0
 40
0.0
 40
1.0
 40
1.0
 40
1.0
 40
2.0
 40
2.0
 40
2.0
 40
3.0
 40
3.0
 40
3.0
 40
4.0
 40
4.0
 40
4.0
 40
4.0
 10
84.31182181051928
 20
-138.1445393534847
 30
0.0
 10
84.1151068583115
 20
-137.9350775479815
 30
0.0
 10
83.95422089915034
 20
-137.8568738804663
 30
0.0
 10
83.85689695169204
 20
-137.8082980341243
 30
0.0
 10
83.85689695169204
 20
-137.8082980341243
 30
0.0
 10
83.97971460574118
 20
-137.6580918709674
 30
0.0
 10
83.97971460574118
 20
-137.6580918709674
 30
0.0
 10
84.10029294772492
 20
-137.7235486851872
 30
0.0
 10
84.28012693205497
 20
-137.8272460592932
 30
0.0
 10
84.45565454702844
 20
-137.9860649611632
 30
0.0
 10
84.45565454702844
 20
-137.9860649611632
 30
0.0
 10
84.31182181051928
 20
-138.1445393534847
 30
0.0
 10
84.31182181051928
 20
-138.1445393534847
 30
0.0
  0
HATCH
  5
60
330
41
100
AcDbEntity
  8
_U+30EC_U+30A4_U+30E4_U+30FC 1
 62
   179
420
  2234388
100
AcDbHatch
 10
0.0
 20
0.0
 30
0.0
210
0.0
220
0.0
230
1.0
  2
SOLID
 70
     1
 71
     0
 91
        3
 92
        1
 93
        1
 72
     4
 94
        3
 73
     0
 74
     1
 95
       56
 96
       52
 40
0.0
 40
0.0
 40
0.0
 40
0.0
 40
1.0
 40
1.0
 40
1.0
 40
2.0
 40
2.0
 40
2.0
 40
3.0
 40
3.0
 40
3.0
 40
4.0
 40
4.0
 40
4.0
 40
5.0
 40
5.0
 40
5.0
 40
6.0
 40
6.0
 40
6.0
 40
7.0
 40
7.0
 40
7.0
 40
8.0
 40
8.0
 40
8.0
 40
9.0
 40
9.0
 40
9.0
 40
10.0
 40
10.0
 40
10.0
 40
11.0
 40
11.0
 40
11.0
 40
12.0
 40
12.0
 40
12.0
 40
13.0
 40
13.0
 40
13.0
 40
14.0
 40
14.0
 40
14.0
 40
15.0
 40
15.0
 40
15.0
 40
16.0
 40
16.0
 40
16.0
 40
17.0
 40
17.0
 40
17.0
 40
17.0
 10
83.99452851632776
 20
-137.4844590585108
 10
83.88876408493059
 20
-137.6029703432034
 10
83.79144013747228
 20
-137.672905781554
 10
83.75113252029486
 20
-137.7025336027272
 10
83.75113252029486
 20
-137.7025336027272
 10
83.75113252029486
 20
-137.9922661330367
 10
83.75113252029486
 20
-137.9922661330367
 10
83.75113252029486
 20
-138.0387749220875
 10
83.75113252029486
 20
-138.4070556294607
 10
83.76387937359029
 20
-138.5148871181491
 10
83.76387937359029
 20
-138.5148871181491
 10
83.53960365750052
 20
-138.5148871181491
 10
83.53960365750052
 20
-138.5148871181491
 10
83.55235051079595
 20
-138.3412543056925
 10
83.5607909947348
 20
-138.1679660027844
 10
83.5607909947348
 20
-137.9943331903278
 10
83.5607909947348
 20
-137.9943331903278
 10
83.5607909947348
 20
-137.825179002002
 10
83.5607909947348
 20
-137.825179002002
 10
83.37044946917476
 20
-137.9350775479815
 10
83.17149520490157
 20
-138.0260280687921
 10
82.96427271146379
 20
-138.0980305644338
 10
82.96427271146379
 20
-138.0980305644338
 10
82.82664114682807
 20
-137.9119954082304
 10
82.82664114682807
 20
-137.9119954082304
 10
83.146173753085
 20
-137.8441270271709
 10
83.6793022794274
 20
-137.6346652216677
 10
83.94371335792033
 20
-137.2625949092607
 10
83.94371335792033
 20
-137.2625949092607
 10
83.57560490532138
 20
-137.2625949092607
 10
83.57560490532138
 20
-137.2625949092607
 10
83.56285805202596
 20
-137.2625949092607
 10
83.20749645272244
 20
-137.2646619665519
 10
83.04454343627012
 20
-137.2836099917208
 10
83.04454343627012
 20
-137.2836099917208
 10
83.04454343627012
 20
-137.0655354475045
 10
83.04454343627012
 20
-137.0655354475045
 10
83.156681294315
 20
-137.0827609249307
 10
83.40851777428676
 20
-137.0848279822219
 10
83.5268568042051
 20
-137.0848279822219
 10
83.5268568042051
 20
-137.0848279822219
 10
83.81676158928887
 20
-137.0848279822219
 10
83.81676158928887
 20
-137.0848279822219
 10
84.0219170254355
 20
-137.0848279822219
 10
84.07066512655179
 20
-137.0827609249307
 10
84.15954859007122
 20
-137.0338405690402
 10
84.15954859007122
 20
-137.0338405690402
 10
84.30975475322812
 20
-137.2074733814968
 10
84.30975475322812
 20
-137.2074733814968
 10
84.2101914937044
 20
-137.2539821705476
 10
84.20175100976554
 20
-137.2581162851299
 10
83.99452851632776
 20
-137.4844590585108
 97
        0
 97
        0
 92
        1
 93
        1
 72
     4
 94
        3
 73
     0
 74
     1
 95
       17
 96
       13
 40
0.0
 40
0.0
 40
0.0
 40
0.0
 40
1.0
 40
1.0
 40
1.0
 40
2.0
 40
2.0
 40
2.0
 40
3.0
 40
3.0
 40
3.0
 40
4.0
 40
4.0
 40
4.0
 40
4.0
 10
83.87601723163516
 20
-136.9893988372804
 10
83.7490654630037
 20
-136.8901800873052
 10
83.4951619257408
 20
-136.7926838850727
 10
83.35132918923162
 20
-136.7609890066084
 10
83.35132918923162
 20
-136.7609890066084
 10
83.4317721688122
 20
-136.577020907696
 10
83.4317721688122
 20
-136.577020907696
 10
83.5819783319691
 20
-136.6193955821646
 10
83.79144013747228
 20
-136.6955321923886
 10
83.96903480973691
 20
-136.8074977956592
 10
83.96903480973691
 20
-136.8074977956592
 10
83.87601723163516
 20
-136.9893988372804
 10
83.87601723163516
 20
-136.9893988372804
 97
        0
 97
        0
 92
        1
 93
        1
 72
     4
 94
        3
 73
     0
 74
     1
 95
       17
 96
       13
 40
0.0
 40
0.0
 40
0.0
 40
0.0
 40
1.0
 40
1.0
 40
1.0
 40
2.0
 40
2.0
 40
2.0
 40
3.0
 40
3.0
 40
3.0
 40
4.0
 40
4.0
 40
4.0
 40
4.0
 10
84.31182181051928
 20
-138.1445393534847
 10
84.1151068583115
 20
-137.9350775479815
 10
83.95422089915034
 20
-137.8568738804663
 10
83.85689695169204
 20
-137.8082980341243
 10
83.85689695169204
 20
-137.8082980341243
 10
83.97971460574118
 20
-137.6580918709674
 10
83.97971460574118
 20
-137.6580918709674
 10
84.10029294772492
 20
-137.7235486851872
 10
84.28012693205497
 20
-137.8272460592932
 10
84.45565454702844
 20
-137.9860649611632
 10
84.45565454702844
 20
-137.9860649611632
 10
84.31182181051928
 20
-138.1445393534847
 10
84.31182181051928
 20
-138.1445393534847
 97
        0
 97
        0
 75
     2
 76
     1
 98
        0
  0
SPLINE
  5
61
330
41
100
AcDbEntity
  8
_U+30EC_U+30A4_U+30E4_U+30FC 1
370
     0
100
AcDbSpline
210
0.0
220
0.0
230
1.0
 70
    11
 71
     3
 72
    20
 73
    16
 74
     0
 42
0.0000000001
 43
0.0000000001
 12
1.0
 22
0.0
 32
0.0
 13
1.0
 23
0.0
 33
0.0
 40
0.0
 40
0.0
 40
0.0
 40
0.0
 40
1.0
 40
1.0
 40
1.0
 40
2.0
 40
2.0
 40
2.0
 40
3.0
 40
3.0
 40
3.0
 40
4.0
 40
4.0
 40
4.0
 40
5.0
 40
5.0
 40
5.0
 40
5.0
 10
85.13985051039907
 20
-137.5099527651017
 30
0.0
 10
85.07628849869621
 20
-137.465511033342
 30
0.0
 10
85.04459362023191
 20
-137.4444959508819
 30
0.0
 10
84.90713431037044
 20
-137.3852403085356
 30
0.0
 10
84.7548610899224
 20
-137.3194389847674
 30
0.0
 10
84.71248641545382
 20
-137.3046250741808
 30
0.0
 10
84.6639105691118
 20
-137.2877441063031
 30
0.0
 10
84.6639105691118
 20
-137.2877441063031
 30
0.0
 10
84.7548610899224
 20
-137.107910121973
 30
0.0
 10
84.7548610899224
 20
-137.107910121973
 30
0.0
 10
84.81187742020329
 20
-137.1313367712727
 30
0.0
 10
85.07852781076163
 20
-137.239168259961
 30
0.0
 10
85.23286808850081
 20
-137.3469997486494
 30
0.0
 10
85.23286808850081
 20
-137.3469997486494
 30
0.0
 10
85.13985051039907
 20
-137.5099527651017
 30
0.0
 10
85.13985051039907
 20
-137.5099527651017
 30
0.0
  0
SPLINE
  5
62
330
41
100
AcDbEntity
  8
_U+30EC_U+30A4_U+30E4_U+30FC 1
370
     0
100
AcDbSpline
210
0.0
220
0.0
230
1.0
 70
    11
 71
     3
 72
    26
 73
    22
 74
     0
 42
0.0000000001
 43
0.0000000001
 12
1.0
 22
0.0
 32
0.0
 13
1.0
 23
0.0
 33
0.0
 40
0.0
 40
0.0
 40
0.0
 40
0.0
 40
1.0
 40
1.0
 40
1.0
 40
2.0
 40
2.0
 40
2.0
 40
3.0
 40
3.0
 40
3.0
 40
4.0
 40
4.0
 40
4.0
 40
5.0
 40
5.0
 40
5.0
 40
6.0
 40
6.0
 40
6.0
 40
7.0
 40
7.0
 40
7.0
 40
7.0
 10
85.01289874176761
 20
-138.3646809549922
 30
0.0
 10
85.01083168447646
 20
-138.3898301520345
 30
0.0
 10
85.0065253151199
 20
-138.4408175652162
 30
0.0
 10
84.9684570100079
 20
-138.4408175652162
 30
0.0
 10
84.96208358336018
 20
-138.4408175652162
 30
0.0
 10
84.94520261548246
 20
-138.4342718837942
 30
0.0
 10
84.93245576218703
 20
-138.4194579732076
 30
0.0
 10
84.93245576218703
 20
-138.4194579732076
 30
0.0
 10
84.77380911509127
 20
-138.2124077345441
 30
0.0
 10
84.77380911509127
 20
-138.2124077345441
 30
0.0
 10
84.8880140304273
 20
-138.1807128560798
 30
0.0
 10
85.11659611587363
 20
-138.1169785896027
 30
0.0
 10
85.49951847905915
 20
-137.8103650914155
 30
0.0
 10
85.81043834660295
 20
-137.5630072355745
 30
0.0
 10
85.96701793640756
 20
-137.3638807165271
 30
0.0
 10
86.11291773020788
 20
-137.1440836245681
 30
0.0
 10
86.11291773020788
 20
-137.1440836245681
 30
0.0
 10
86.2419365561305
 20
-137.3194389847674
 30
0.0
 10
86.2419365561305
 20
-137.3194389847674
 30
0.0
 10
85.93739011523441
 20
-137.8062309768332
 30
0.0
 10
85.29643010020368
 20
-138.2482367275907
 30
0.0
 10
85.01289874176761
 20
-138.3646809549922
 30
0.0
  0
SPLINE
  5
63
330
41
100
AcDbEntity
  8
_U+30EC_U+30A4_U+30E4_U+30FC 1
370
     0
100
AcDbSpline
210
0.0
220
0.0
230
1.0
 70
    11
 71
     3
 72
    17
 73
    13
 74
     0
 42
0.0000000001
 43
0.0000000001
 12
1.0
 22
0.0
 32
0.0
 13
1.0
 23
0.0
 33
0.0
 40
0.0
 40
0.0
 40
0.0
 40
0.0
 40
1.0
 40
1.0
 40
1.0
 40
2.0
 40
2.0
 40
2.0
 40
3.0
 40
3.0
 40
3.0
 40
4.0
 40
4.0
 40
4.0
 40
4.0
 10
85.3789401370754
 20
-137.0086913719978
 30
0.0
 10
85.23717445785738
 20
-136.8943142018875
 30
0.0
 10
85.02340628299763
 20
-136.8095648529504
 30
0.0
 10
84.89438745707501
 20
-136.7716688026127
 30
0.0
 10
84.89438745707501
 20
-136.7716688026127
 30
0.0
 10
84.98120386330332
 20
-136.5959689328649
 30
0.0
 10
84.98120386330332
 20
-136.5959689328649
 30
0.0
 10
85.16741127428106
 20
-136.6700384857978
 30
0.0
 10
85.33449840531568
 20
-136.7568548920261
 30
0.0
 10
85.469890657886
 20
-136.8391926741236
 30
0.0
 10
85.469890657886
 20
-136.8391926741236
 30
0.0
 10
85.3789401370754
 20
-137.0086913719978
 30
0.0
 10
85.3789401370754
 20
-137.0086913719978
 30
0.0
  0
SPLINE
  5
64
330
41
100
AcDbEntity
  8
_U+30EC_U+30A4_U+30E4_U+30FC 1
370
     0
100
AcDbSpline
210
0.0
220
0.0
230
1.0
 70
    11
 71
     3
 72
    17
 73
    13
 74
     0
 42
0.0000000001
 43
0.0000000001
 12
1.0
 22
0.0
 32
0.0
 13
1.0
 23
0.0
 33
0.0
 40
0.0
 40
0.0
 40
0.0
 40
0.0
 40
1.0
 40
1.0
 40
1.0
 40
2.0
 40
2.0
 40
2.0
 40
3.0
 40
3.0
 40
3.0
 40
4.0
 40
4.0
 40
4.0
 40
4.0
 10
86.03471406269271
 20
-136.934621819065
 30
0.0
 10
85.97976478970298
 20
-136.8774332340098
 30
0.0
 10
85.91826983529127
 20
-136.8181775916635
 30
0.0
 10
85.80406491995524
 20
-136.7461750960218
 30
0.0
 10
85.80406491995524
 20
-136.7461750960218
 30
0.0
 10
85.8993218101224
 20
-136.6424777219158
 30
0.0
 10
85.8993218101224
 20
-136.6424777219158
 30
0.0
 10
85.97752547763757
 20
-136.6848523963843
 30
0.0
 10
86.08122285174359
 20
-136.7441080387306
 30
0.0
 10
86.14047849408989
 20
-136.8267903303766
 30
0.0
 10
86.14047849408989
 20
-136.8267903303766
 30
0.0
 10
86.03471406269271
 20
-136.934621819065
 30
0.0
 10
86.03471406269271
 20
-136.934621819065
 30
0.0
  0
SPLINE
  5
65
330
41
100
AcDbEntity
  8
_U+30EC_U+30A4_U+30E4_U+30FC 1
370
     0
100
AcDbSpline
210
0.0
220
0.0
230
1.0
 70
    11
 71
     3
 72
    17
 73
    13
 74
     0
 42
0.0000000001
 43
0.0000000001
 12
1.0
 22
0.0
 32
0.0
 13
1.0
 23
0.0
 33
0.0
 40
0.0
 40
0.0
 40
0.0
 40
0.0
 40
1.0
 40
1.0
 40
1.0
 40
2.0
 40
2.0
 40
2.0
 40
3.0
 40
3.0
 40
3.0
 40
4.0
 40
4.0
 40
4.0
 40
4.0
 10
86.26105683607364
 20
-136.7799370317773
 30
0.0
 10
86.2419365561305
 20
-136.7630560638995
 30
0.0
 10
86.03678111998387
 20
-136.6066487288692
 30
0.0
 10
86.00939261087613
 20
-136.5877007037003
 30
0.0
 10
86.00939261087613
 20
-136.5877007037003
 30
0.0
 10
86.11722409956445
 20
-136.4774576481723
 30
0.0
 10
86.11722409956445
 20
-136.4774576481723
 30
0.0
 10
86.22712264554391
 20
-136.5535942583963
 30
0.0
 10
86.23986949883934
 20
-136.5642740544006
 30
0.0
 10
86.3668212674708
 20
-136.6700384857978
 30
0.0
 10
86.3668212674708
 20
-136.6700384857978
 30
0.0
 10
86.26105683607364
 20
-136.7799370317773
 30
0.0
 10
86.26105683607364
 20
-136.7799370317773
 30
0.0
  0
HATCH
  5
66
330
41
100
AcDbEntity
  8
_U+30EC_U+30A4_U+30E4_U+30FC 1
 62
   179
420
  2234388
100
AcDbHatch
 10
0.0
 20
0.0
 30
0.0
210
0.0
220
0.0
230
1.0
  2
SOLID
 70
     1
 71
     0
 91
        5
 92
        1
 93
        1
 72
     4
 94
        3
 73
     0
 74
     1
 95
       20
 96
       16
 40
0.0
 40
0.0
 40
0.0
 40
0.0
 40
1.0
 40
1.0
 40
1.0
 40
2.0
 40
2.0
 40
2.0
 40
3.0
 40
3.0
 40
3.0
 40
4.0
 40
4.0
 40
4.0
 40
5.0
 40
5.0
 40
5.0
 40
5.0
 10
85.13985051039907
 20
-137.5099527651017
 10
85.07628849869621
 20
-137.465511033342
 10
85.04459362023191
 20
-137.4444959508819
 10
84.90713431037044
 20
-137.3852403085356
 10
84.7548610899224
 20
-137.3194389847674
 10
84.71248641545382
 20
-137.3046250741808
 10
84.6639105691118
 20
-137.2877441063031
 10
84.6639105691118
 20
-137.2877441063031
 10
84.7548610899224
 20
-137.107910121973
 10
84.7548610899224
 20
-137.107910121973
 10
84.81187742020329
 20
-137.1313367712727
 10
85.07852781076163
 20
-137.239168259961
 10
85.23286808850081
 20
-137.3469997486494
 10
85.23286808850081
 20
-137.3469997486494
 10
85.13985051039907
 20
-137.5099527651017
 10
85.13985051039907
 20
-137.5099527651017
 97
        0
 97
        0
 92
        1
 93
        1
 72
     4
 94
        3
 73
     0
 74
     1
 95
       26
 96
       22
 40
0.0
 40
0.0
 40
0.0
 40
0.0
 40
1.0
 40
1.0
 40
1.0
 40
2.0
 40
2.0
 40
2.0
 40
3.0
 40
3.0
 40
3.0
 40
4.0
 40
4.0
 40
4.0
 40
5.0
 40
5.0
 40
5.0
 40
6.0
 40
6.0
 40
6.0
 40
7.0
 40
7.0
 40
7.0
 40
7.0
 10
85.01289874176761
 20
-138.3646809549922
 10
85.01083168447646
 20
-138.3898301520345
 10
85.0065253151199
 20
-138.4408175652162
 10
84.9684570100079
 20
-138.4408175652162
 10
84.96208358336018
 20
-138.4408175652162
 10
84.94520261548246
 20
-138.4342718837942
 10
84.93245576218703
 20
-138.4194579732076
 10
84.93245576218703
 20
-138.4194579732076
 10
84.77380911509127
 20
-138.2124077345441
 10
84.77380911509127
 20
-138.2124077345441
 10
84.8880140304273
 20
-138.1807128560798
 10
85.11659611587363
 20
-138.1169785896027
 10
85.49951847905915
 20
-137.8103650914155
 10
85.81043834660295
 20
-137.5630072355745
 10
85.96701793640756
 20
-137.3638807165271
 10
86.11291773020788
 20
-137.1440836245681
 10
86.11291773020788
 20
-137.1440836245681
 10
86.2419365561305
 20
-137.3194389847674
 10
86.2419365561305
 20
-137.3194389847674
 10
85.93739011523441
 20
-137.8062309768332
 10
85.29643010020368
 20
-138.2482367275907
 10
85.01289874176761
 20
-138.3646809549922
 97
        0
 97
        0
 92
        1
 93
        1
 72
     4
 94
        3
 73
     0
 74
     1
 95
       17
 96
       13
 40
0.0
 40
0.0
 40
0.0
 40
0.0
 40
1.0
 40
1.0
 40
1.0
 40
2.0
 40
2.0
 40
2.0
 40
3.0
 40
3.0
 40
3.0
 40
4.0
 40
4.0
 40
4.0
 40
4.0
 10
85.3789401370754
 20
-137.0086913719978
 10
85.23717445785738
 20
-136.8943142018875
 10
85.02340628299763
 20
-136.8095648529504
 10
84.89438745707501
 20
-136.7716688026127
 10
84.89438745707501
 20
-136.7716688026127
 10
84.98120386330332
 20
-136.5959689328649
 10
84.98120386330332
 20
-136.5959689328649
 10
85.16741127428106
 20
-136.6700384857978
 10
85.33449840531568
 20
-136.7568548920261
 10
85.469890657886
 20
-136.8391926741236
 10
85.469890657886
 20
-136.8391926741236
 10
85.3789401370754
 20
-137.0086913719978
 10
85.3789401370754
 20
-137.0086913719978
 97
        0
 97
        0
 92
        1
 93
        1
 72
     4
 94
        3
 73
     0
 74
     1
 95
       17
 96
       13
 40
0.0
 40
0.0
 40
0.0
 40
0.0
 40
1.0
 40
1.0
 40
1.0
 40
2.0
 40
2.0
 40
2.0
 40
3.0
 40
3.0
 40
3.0
 40
4.0
 40
4.0
 40
4.0
 40
4.0
 10
86.03471406269271
 20
-136.934621819065
 10
85.97976478970298
 20
-136.8774332340098
 10
85.91826983529127
 20
-136.8181775916635
 10
85.80406491995524
 20
-136.7461750960218
 10
85.80406491995524
 20
-136.7461750960218
 10
85.8993218101224
 20
-136.6424777219158
 10
85.8993218101224
 20
-136.6424777219158
 10
85.97752547763757
 20
-136.6848523963843
 10
86.08122285174359
 20
-136.7441080387306
 10
86.14047849408989
 20
-136.8267903303766
 10
86.14047849408989
 20
-136.8267903303766
 10
86.03471406269271
 20
-136.934621819065
 10
86.03471406269271
 20
-136.934621819065
 97
        0
 97
        0
 92
        1
 93
        1
 72
     4
 94
        3
 73
     0
 74
     1
 95
       17
 96
       13
 40
0.0
 40
0.0
 40
0.0
 40
0.0
 40
1.0
 40
1.0
 40
1.0
 40
2.0
 40
2.0
 40
2.0
 40
3.0
 40
3.0
 40
3.0
 40
4.0
 40
4.0
 40
4.0
 40
4.0
 10
86.26105683607364
 20
-136.7799370317773
 10
86.2419365561305
 20
-136.7630560638995
 10
86.03678111998387
 20
-136.6066487288692
 10
86.00939261087613
 20
-136.5877007037003
 10
86.00939261087613
 20
-136.5877007037003
 10
86.11722409956445
 20
-136.4774576481723
 10
86.11722409956445
 20
-136.4774576481723
 10
86.22712264554391
 20
-136.5535942583963
 10
86.23986949883934
 20
-136.5642740544006
 10
86.3668212674708
 20
-136.6700384857978
 10
86.3668212674708
 20
-136.6700384857978
 10
86.26105683607364
 20
-136.7799370317773
 10
86.26105683607364
 20
-136.7799370317773
 97
        0
 97
        0
 75
     2
 76
     1
 98
        0
  0
SPLINE
  5
67
330
41
100
AcDbEntity
  8
_U+30EC_U+30A4_U+30E4_U+30FC 1
370
     0
100
AcDbSpline
210
0.0
220
0.0
230
1.0
 70
    11
 71
     3
 72
    53
 73
    49
 74
     0
 42
0.0000000001
 43
0.0000000001
 12
1.0
 22
0.0
 32
0.0
 13
1.0
 23
0.0
 33
0.0
 40
0.0
 40
0.0
 40
0.0
 40
0.0
 40
1.0
 40
1.0
 40
1.0
 40
2.0
 40
2.0
 40
2.0
 40
3.0
 40
3.0
 40
3.0
 40
4.0
 40
4.0
 40
4.0
 40
5.0
 40
5.0
 40
5.0
 40
6.0
 40
6.0
 40
6.0
 40
7.0
 40
7.0
 40
7.0
 40
8.0
 40
8.0
 40
8.0
 40
9.0
 40
9.0
 40
9.0
 40
10.0
 40
10.0
 40
10.0
 40
11.0
 40
11.0
 40
11.0
 40
12.0
 40
12.0
 40
12.0
 40
13.0
 40
13.0
 40
13.0
 40
14.0
 40
14.0
 40
14.0
 40
15.0
 40
15.0
 40
15.0
 40
16.0
 40
16.0
 40
16.0
 40
16.0
 10
87.10631101337968
 20
-136.7527207774438
 30
0.0
 10
87.03861488709451
 20
-136.9049939978918
 30
0.0
 10
86.9964124674002
 20
-136.983197665407
 30
0.0
 10
86.95817190751393
 20
-137.0507215369179
 30
0.0
 10
87.0005465819825
 20
-137.0720811289264
 30
0.0
 10
87.00485295133907
 20
-137.0741481862176
 30
0.0
 10
87.00485295133907
 20
-137.0889620968042
 30
0.0
 10
87.00485295133907
 20
-137.1017089500996
 30
0.0
 10
86.97091876080935
 20
-137.135470885855
 30
0.0
 10
86.96041121957934
 20
-137.1440836245681
 30
0.0
 10
86.95817190751393
 20
-137.3407985767759
 30
0.0
 10
86.95817190751393
 20
-137.3618136592359
 30
0.0
 10
86.95817190751393
 20
-137.4951388545151
 30
0.0
 10
86.95610485022279
 20
-137.5078857078105
 30
0.0
 10
86.95610485022279
 20
-137.5226996183971
 30
0.0
 10
86.95610485022279
 20
-137.5375135289837
 30
0.0
 10
86.95610485022279
 20
-137.5375135289837
 30
0.0
 10
86.95610485022279
 20
-138.072536857843
 30
0.0
 10
86.95610485022279
 20
-138.072536857843
 30
0.0
 10
86.95610485022279
 20
-138.1445393534847
 30
0.0
 10
86.96041121957934
 20
-138.3794948655787
 30
0.0
 10
86.96885170351821
 20
-138.4893934115582
 30
0.0
 10
86.96885170351821
 20
-138.4893934115582
 30
0.0
 10
86.72562796225957
 20
-138.4893934115582
 30
0.0
 10
86.72562796225957
 20
-138.4893934115582
 30
0.0
 10
86.748882356785
 20
-138.3309190192367
 30
0.0
 10
86.75508352865846
 20
-138.0897623352692
 30
0.0
 10
86.75508352865846
 20
-138.0684027432607
 30
0.0
 10
86.75508352865846
 20
-138.0684027432607
 30
0.0
 10
86.75508352865846
 20
-137.3511338632317
 30
0.0
 10
86.75508352865846
 20
-137.3511338632317
 30
0.0
 10
86.66413300784787
 20
-137.465511033342
 30
0.0
 10
86.60281030821041
 20
-137.5247666756883
 30
0.0
 10
86.5606078885161
 20
-137.5671413501568
 30
0.0
 10
86.5606078885161
 20
-137.5671413501568
 30
0.0
 10
86.37009410818179
 20
-137.4296820402954
 30
0.0
 10
86.37009410818179
 20
-137.4296820402954
 30
0.0
 10
86.6515584093267
 20
-137.2136745533702
 30
0.0
 10
86.8439669921779
 20
-136.9049939978918
 30
0.0
 10
86.95610485022279
 20
-136.5684081689829
 30
0.0
 10
86.95610485022279
 20
-136.5684081689829
 30
0.0
 10
87.17607419695598
 20
-136.6827853390932
 30
0.0
 10
87.17607419695598
 20
-136.6827853390932
 30
0.0
 10
87.1888210502514
 20
-136.6889865109667
 30
0.0
 10
87.19726153419028
 20
-136.6934651350975
 30
0.0
 10
87.19726153419028
 20
-136.708279045684
 30
0.0
 10
87.19726153419028
 20
-136.7334282427264
 30
0.0
 10
87.18038056631255
 20
-136.7379068668572
 30
0.0
 10
87.10631101337968
 20
-136.7527207774438
 30
0.0
  0
SPLINE
  5
68
330
41
100
AcDbEntity
  8
_U+30EC_U+30A4_U+30E4_U+30FC 1
370
     0
100
AcDbSpline
210
0.0
220
0.0
230
1.0
 70
    11
 71
     3
 72
    77
 73
    73
 74
     0
 42
0.0000000001
 43
0.0000000001
 12
1.0
 22
0.0
 32
0.0
 13
1.0
 23
0.0
 33
0.0
 40
0.0
 40
0.0
 40
0.0
 40
0.0
 40
1.0
 40
1.0
 40
1.0
 40
2.0
 40
2.0
 40
2.0
 40
3.0
 40
3.0
 40
3.0
 40
4.0
 40
4.0
 40
4.0
 40
5.0
 40
5.0
 40
5.0
 40
6.0
 40
6.0
 40
6.0
 40
7.0
 40
7.0
 40
7.0
 40
8.0
 40
8.0
 40
8.0
 40
9.0
 40
9.0
 40
9.0
 40
10.0
 40
10.0
 40
10.0
 40
11.0
 40
11.0
 40
11.0
 40
12.0
 40
12.0
 40
12.0
 40
13.0
 40
13.0
 40
13.0
 40
14.0
 40
14.0
 40
14.0
 40
15.0
 40
15.0
 40
15.0
 40
16.0
 40
16.0
 40
16.0
 40
17.0
 40
17.0
 40
17.0
 40
18.0
 40
18.0
 40
18.0
 40
19.0
 40
19.0
 40
19.0
 40
20.0
 40
20.0
 40
20.0
 40
21.0
 40
21.0
 40
21.0
 40
22.0
 40
22.0
 40
22.0
 40
23.0
 40
23.0
 40
23.0
 40
24.0
 40
24.0
 40
24.0
 40
24.0
 10
88.25714516022738
 20
-137.2519151132565
 30
0.0
 10
88.18738197665108
 20
-137.2477809986742
 30
0.0
 10
88.11968585036591
 20
-137.2477809986742
 30
0.0
 10
88.05198972408076
 20
-137.2477809986742
 30
0.0
 10
88.05198972408076
 20
-137.2477809986742
 30
0.0
 10
88.05198972408076
 20
-138.0218939542098
 30
0.0
 10
88.05198972408076
 20
-138.0218939542098
 30
0.0
 10
88.05198972408076
 20
-138.286477287477
 30
0.0
 10
88.04992266678961
 20
-138.3161051086501
 30
0.0
 10
88.0435492401419
 20
-138.3457329298233
 30
0.0
 10
88.00961504961218
 20
-138.4787136155539
 30
0.0
 10
87.90815698757157
 20
-138.4873263542671
 30
0.0
 10
87.73245711782383
 20
-138.4873263542671
 30
0.0
 10
87.69232175542068
 20
-138.4873263542671
 30
0.0
 10
87.67544078754295
 20
-138.4873263542671
 30
0.0
 10
87.63513317036552
 20
-138.4831922396848
 30
0.0
 10
87.63513317036552
 20
-138.4831922396848
 30
0.0
 10
87.51042071379948
 20
-138.2420355557173
 30
0.0
 10
87.51042071379948
 20
-138.2420355557173
 30
0.0
 10
87.62669268642667
 20
-138.2737304341816
 30
0.0
 10
87.7092027232984
 20
-138.2737304341816
 30
0.0
 10
87.73245711782383
 20
-138.2737304341816
 30
0.0
 10
87.80239255617441
 20
-138.2737304341816
 30
0.0
 10
87.83615449192986
 20
-138.2568494663039
 30
0.0
 10
87.84046086128642
 20
-138.1996608812487
 30
0.0
 10
87.84046086128642
 20
-138.1869140279533
 30
0.0
 10
87.84252791857756
 20
-138.0897623352692
 30
0.0
 10
87.84252791857756
 20
-138.0325737502141
 30
0.0
 10
87.84252791857756
 20
-138.0325737502141
 30
0.0
 10
87.84252791857756
 20
-137.2453694318345
 30
0.0
 10
87.84252791857756
 20
-137.2453694318345
 30
0.0
 10
87.84252791857756
 20
-137.2453694318345
 30
0.0
 10
87.5484890189115
 20
-137.2453694318345
 30
0.0
 10
87.5484890189115
 20
-137.2453694318345
 30
0.0
 10
87.40258922511116
 20
-137.2453694318345
 30
0.0
 10
87.25651717653658
 20
-137.2519151132565
 30
0.0
 10
87.1126844400274
 20
-137.2646619665519
 30
0.0
 10
87.1126844400274
 20
-137.2646619665519
 30
0.0
 10
87.1126844400274
 20
-137.0572672183399
 30
0.0
 10
87.1126844400274
 20
-137.0572672183399
 30
0.0
 10
87.26289060318427
 20
-137.0700140716353
 30
0.0
 10
87.48079289262634
 20
-137.0741481862176
 30
0.0
 10
87.5484890189115
 20
-137.0741481862176
 30
0.0
 10
87.5484890189115
 20
-137.0741481862176
 30
0.0
 10
87.84252791857756
 20
-137.0741481862176
 30
0.0
 10
87.84252791857756
 20
-137.0741481862176
 30
0.0
 10
87.84046086128642
 20
-136.8054307383681
 30
0.0
 10
87.84046086128642
 20
-136.7292941281441
 30
0.0
 10
87.83202037734756
 20
-136.5811550222783
 30
0.0
 10
87.83202037734756
 20
-136.5811550222783
 30
0.0
 10
88.09005802919276
 20
-136.6193955821646
 30
0.0
 10
88.09005802919276
 20
-136.6193955821646
 30
0.0
 10
88.10487193977934
 20
-136.6214626394558
 30
0.0
 10
88.11968585036591
 20
-136.6276638113292
 30
0.0
 10
88.11968585036591
 20
-136.6490234033377
 30
0.0
 10
88.11968585036591
 20
-136.6679714285066
 30
0.0
 10
88.1133124237182
 20
-136.6700384857978
 30
0.0
 10
88.05612383866305
 20
-136.7038004215532
 30
0.0
 10
88.05198972408076
 20
-136.7823485986169
 30
0.0
 10
88.05198972408076
 20
-136.7971625092035
 30
0.0
 10
88.05198972408076
 20
-137.0741481862176
 30
0.0
 10
88.22975665111964
 20
-137.0700140716353
 30
0.0
 10
88.24870467628853
 20
-137.0700140716353
 30
0.0
 10
88.28263886681823
 20
-137.0655354475045
 30
0.0
 10
88.3332817704514
 20
-137.0614013329221
 30
0.0
 10
88.33758813980796
 20
-137.059334275631
 30
0.0
 10
88.3820298715677
 20
-137.0572672183399
 30
0.0
 10
88.3820298715677
 20
-137.0572672183399
 30
0.0
 10
88.3820298715677
 20
-137.2646619665519
 30
0.0
 10
88.3820298715677
 20
-137.2646619665519
 30
0.0
 10
88.35240205039455
 20
-137.2625949092607
 30
0.0
 10
88.29728052263054
 20
-137.2539821705476
 30
0.0
 10
88.25714516022738
 20
-137.2519151132565
 30
0.0
  0
SPLINE
  5
69
330
41
100
AcDbEntity
  8
_U+30EC_U+30A4_U+30E4_U+30FC 1
370
     0
100
AcDbSpline
210
0.0
220
0.0
230
1.0
 70
    11
 71
     3
 72
    20
 73
    16
 74
     0
 42
0.0000000001
 43
0.0000000001
 12
1.0
 22
0.0
 32
0.0
 13
1.0
 23
0.0
 33
0.0
 40
0.0
 40
0.0
 40
0.0
 40
0.0
 40
1.0
 40
1.0
 40
1.0
 40
2.0
 40
2.0
 40
2.0
 40
3.0
 40
3.0
 40
3.0
 40
4.0
 40
4.0
 40
4.0
 40
5.0
 40
5.0
 40
5.0
 40
5.0
 10
87.48716631927405
 20
-137.9774522224501
 30
0.0
 10
87.44065753022318
 20
-137.7996852954112
 30
0.0
 10
87.34333358276487
 20
-137.6580918709674
 30
0.0
 10
87.20363496083799
 20
-137.5481933249879
 30
0.0
 10
87.20363496083799
 20
-137.5481933249879
 30
0.0
 10
87.3643486652249
 20
-137.4338161548777
 30
0.0
 10
87.3643486652249
 20
-137.4338161548777
 30
0.0
 10
87.4258436196366
 20
-137.4761908293462
 30
0.0
 10
87.46597898203976
 20
-137.5099527651017
 30
0.0
 10
87.54211559226378
 20
-137.61778425379
 30
0.0
 10
87.62255857184437
 20
-137.7342284811915
 30
0.0
 10
87.64374590907865
 20
-137.7869384421158
 30
0.0
 10
87.66906736089524
 20
-137.8527397658841
 30
0.0
 10
87.66906736089524
 20
-137.8527397658841
 30
0.0
 10
87.48716631927405
 20
-137.9774522224501
 30
0.0
 10
87.48716631927405
 20
-137.9774522224501
 30
0.0
  0
HATCH
  5
6A
330
41
100
AcDbEntity
  8
_U+30EC_U+30A4_U+30E4_U+30FC 1
 62
   179
420
  2234388
100
AcDbHatch
 10
0.0
 20
0.0
 30
0.0
210
0.0
220
0.0
230
1.0
  2
SOLID
 70
     1
 71
     0
 91
        3
 92
        1
 93
        1
 72
     4
 94
        3
 73
     0
 74
     1
 95
       53
 96
       49
 40
0.0
 40
0.0
 40
0.0
 40
0.0
 40
1.0
 40
1.0
 40
1.0
 40
2.0
 40
2.0
 40
2.0
 40
3.0
 40
3.0
 40
3.0
 40
4.0
 40
4.0
 40
4.0
 40
5.0
 40
5.0
 40
5.0
 40
6.0
 40
6.0
 40
6.0
 40
7.0
 40
7.0
 40
7.0
 40
8.0
 40
8.0
 40
8.0
 40
9.0
 40
9.0
 40
9.0
 40
10.0
 40
10.0
 40
10.0
 40
11.0
 40
11.0
 40
11.0
 40
12.0
 40
12.0
 40
12.0
 40
13.0
 40
13.0
 40
13.0
 40
14.0
 40
14.0
 40
14.0
 40
15.0
 40
15.0
 40
15.0
 40
16.0
 40
16.0
 40
16.0
 40
16.0
 10
87.10631101337968
 20
-136.7527207774438
 10
87.03861488709451
 20
-136.9049939978918
 10
86.9964124674002
 20
-136.983197665407
 10
86.95817190751393
 20
-137.0507215369179
 10
87.0005465819825
 20
-137.0720811289264
 10
87.00485295133907
 20
-137.0741481862176
 10
87.00485295133907
 20
-137.0889620968042
 10
87.00485295133907
 20
-137.1017089500996
 10
86.97091876080935
 20
-137.135470885855
 10
86.96041121957934
 20
-137.1440836245681
 10
86.95817190751393
 20
-137.3407985767759
 10
86.95817190751393
 20
-137.3618136592359
 10
86.95817190751393
 20
-137.4951388545151
 10
86.95610485022279
 20
-137.5078857078105
 10
86.95610485022279
 20
-137.5226996183971
 10
86.95610485022279
 20
-137.5375135289837
 10
86.95610485022279
 20
-137.5375135289837
 10
86.95610485022279
 20
-138.072536857843
 10
86.95610485022279
 20
-138.072536857843
 10
86.95610485022279
 20
-138.1445393534847
 10
86.96041121957934
 20
-138.3794948655787
 10
86.96885170351821
 20
-138.4893934115582
 10
86.96885170351821
 20
-138.4893934115582
 10
86.72562796225957
 20
-138.4893934115582
 10
86.72562796225957
 20
-138.4893934115582
 10
86.748882356785
 20
-138.3309190192367
 10
86.75508352865846
 20
-138.0897623352692
 10
86.75508352865846
 20
-138.0684027432607
 10
86.75508352865846
 20
-138.0684027432607
 10
86.75508352865846
 20
-137.3511338632317
 10
86.75508352865846
 20
-137.3511338632317
 10
86.66413300784787
 20
-137.465511033342
 10
86.60281030821041
 20
-137.5247666756883
 10
86.5606078885161
 20
-137.5671413501568
 10
86.5606078885161
 20
-137.5671413501568
 10
86.37009410818179
 20
-137.4296820402954
 10
86.37009410818179
 20
-137.4296820402954
 10
86.6515584093267
 20
-137.2136745533702
 10
86.8439669921779
 20
-136.9049939978918
 10
86.95610485022279
 20
-136.5684081689829
 10
86.95610485022279
 20
-136.5684081689829
 10
87.17607419695598
 20
-136.6827853390932
 10
87.17607419695598
 20
-136.6827853390932
 10
87.1888210502514
 20
-136.6889865109667
 10
87.19726153419028
 20
-136.6934651350975
 10
87.19726153419028
 20
-136.708279045684
 10
87.19726153419028
 20
-136.7334282427264
 10
87.18038056631255
 20
-136.7379068668572
 10
87.10631101337968
 20
-136.7527207774438
 97
        0
 97
        0
 92
        1
 93
        1
 72
     4
 94
        3
 73
     0
 74
     1
 95
       77
 96
       73
 40
0.0
 40
0.0
 40
0.0
 40
0.0
 40
1.0
 40
1.0
 40
1.0
 40
2.0
 40
2.0
 40
2.0
 40
3.0
 40
3.0
 40
3.0
 40
4.0
 40
4.0
 40
4.0
 40
5.0
 40
5.0
 40
5.0
 40
6.0
 40
6.0
 40
6.0
 40
7.0
 40
7.0
 40
7.0
 40
8.0
 40
8.0
 40
8.0
 40
9.0
 40
9.0
 40
9.0
 40
10.0
 40
10.0
 40
10.0
 40
11.0
 40
11.0
 40
11.0
 40
12.0
 40
12.0
 40
12.0
 40
13.0
 40
13.0
 40
13.0
 40
14.0
 40
14.0
 40
14.0
 40
15.0
 40
15.0
 40
15.0
 40
16.0
 40
16.0
 40
16.0
 40
17.0
 40
17.0
 40
17.0
 40
18.0
 40
18.0
 40
18.0
 40
19.0
 40
19.0
 40
19.0
 40
20.0
 40
20.0
 40
20.0
 40
21.0
 40
21.0
 40
21.0
 40
22.0
 40
22.0
 40
22.0
 40
23.0
 40
23.0
 40
23.0
 40
24.0
 40
24.0
 40
24.0
 40
24.0
 10
88.25714516022738
 20
-137.2519151132565
 10
88.18738197665108
 20
-137.2477809986742
 10
88.11968585036591
 20
-137.2477809986742
 10
88.05198972408076
 20
-137.2477809986742
 10
88.05198972408076
 20
-137.2477809986742
 10
88.05198972408076
 20
-138.0218939542098
 10
88.05198972408076
 20
-138.0218939542098
 10
88.05198972408076
 20
-138.286477287477
 10
88.04992266678961
 20
-138.3161051086501
 10
88.0435492401419
 20
-138.3457329298233
 10
88.00961504961218
 20
-138.4787136155539
 10
87.90815698757157
 20
-138.4873263542671
 10
87.73245711782383
 20
-138.4873263542671
 10
87.69232175542068
 20
-138.4873263542671
 10
87.67544078754295
 20
-138.4873263542671
 10
87.63513317036552
 20
-138.4831922396848
 10
87.63513317036552
 20
-138.4831922396848
 10
87.51042071379948
 20
-138.2420355557173
 10
87.51042071379948
 20
-138.2420355557173
 10
87.62669268642667
 20
-138.2737304341816
 10
87.7092027232984
 20
-138.2737304341816
 10
87.73245711782383
 20
-138.2737304341816
 10
87.80239255617441
 20
-138.2737304341816
 10
87.83615449192986
 20
-138.2568494663039
 10
87.84046086128642
 20
-138.1996608812487
 10
87.84046086128642
 20
-138.1869140279533
 10
87.84252791857756
 20
-138.0897623352692
 10
87.84252791857756
 20
-138.0325737502141
 10
87.84252791857756
 20
-138.0325737502141
 10
87.84252791857756
 20
-137.2453694318345
 10
87.84252791857756
 20
-137.2453694318345
 10
87.84252791857756
 20
-137.2453694318345
 10
87.5484890189115
 20
-137.2453694318345
 10
87.5484890189115
 20
-137.2453694318345
 10
87.40258922511116
 20
-137.2453694318345
 10
87.25651717653658
 20
-137.2519151132565
 10
87.1126844400274
 20
-137.2646619665519
 10
87.1126844400274
 20
-137.2646619665519
 10
87.1126844400274
 20
-137.0572672183399
 10
87.1126844400274
 20
-137.0572672183399
 10
87.26289060318427
 20
-137.0700140716353
 10
87.48079289262634
 20
-137.0741481862176
 10
87.5484890189115
 20
-137.0741481862176
 10
87.5484890189115
 20
-137.0741481862176
 10
87.84252791857756
 20
-137.0741481862176
 10
87.84252791857756
 20
-137.0741481862176
 10
87.84046086128642
 20
-136.8054307383681
 10
87.84046086128642
 20
-136.7292941281441
 10
87.83202037734756
 20
-136.5811550222783
 10
87.83202037734756
 20
-136.5811550222783
 10
88.09005802919276
 20
-136.6193955821646
 10
88.09005802919276
 20
-136.6193955821646
 10
88.10487193977934
 20
-136.6214626394558
 10
88.11968585036591
 20
-136.6276638113292
 10
88.11968585036591
 20
-136.6490234033377
 10
88.11968585036591
 20
-136.6679714285066
 10
88.1133124237182
 20
-136.6700384857978
 10
88.05612383866305
 20
-136.7038004215532
 10
88.05198972408076
 20
-136.7823485986169
 10
88.05198972408076
 20
-136.7971625092035
 10
88.05198972408076
 20
-137.0741481862176
 10
88.22975665111964
 20
-137.0700140716353
 10
88.24870467628853
 20
-137.0700140716353
 10
88.28263886681823
 20
-137.0655354475045
 10
88.3332817704514
 20
-137.0614013329221
 10
88.33758813980796
 20
-137.059334275631
 10
88.3820298715677
 20
-137.0572672183399
 10
88.3820298715677
 20
-137.0572672183399
 10
88.3820298715677
 20
-137.2646619665519
 10
88.3820298715677
 20
-137.2646619665519
 10
88.35240205039455
 20
-137.2625949092607
 10
88.29728052263054
 20
-137.2539821705476
 10
88.25714516022738
 20
-137.2519151132565
 97
        0
 97
        0
 92
        1
 93
        1
 72
     4
 94
        3
 73
     0
 74
     1
 95
       20
 96
       16
 40
0.0
 40
0.0
 40
0.0
 40
0.0
 40
1.0
 40
1.0
 40
1.0
 40
2.0
 40
2.0
 40
2.0
 40
3.0
 40
3.0
 40
3.0
 40
4.0
 40
4.0
 40
4.0
 40
5.0
 40
5.0
 40
5.0
 40
5.0
 10
87.48716631927405
 20
-137.9774522224501
 10
87.44065753022318
 20
-137.7996852954112
 10
87.34333358276487
 20
-137.6580918709674
 10
87.20363496083799
 20
-137.5481933249879
 10
87.20363496083799
 20
-137.5481933249879
 10
87.3643486652249
 20
-137.4338161548777
 10
87.3643486652249
 20
-137.4338161548777
 10
87.4258436196366
 20
-137.4761908293462
 10
87.46597898203976
 20
-137.5099527651017
 10
87.54211559226378
 20
-137.61778425379
 10
87.62255857184437
 20
-137.7342284811915
 10
87.64374590907865
 20
-137.7869384421158
 10
87.66906736089524
 20
-137.8527397658841
 10
87.66906736089524
 20
-137.8527397658841
 10
87.48716631927405
 20
-137.9774522224501
 10
87.48716631927405
 20
-137.9774522224501
 97
        0
 97
        0
 75
     2
 76
     1
 98
        0
  0
SPLINE
  5
6B
330
41
100
AcDbEntity
  8
_U+30EC_U+30A4_U+30E4_U+30FC 1
370
     0
100
AcDbSpline
210
0.0
220
0.0
230
1.0
 70
    11
 71
     3
 72
    23
 73
    19
 74
     0
 42
0.0000000001
 43
0.0000000001
 12
1.0
 22
0.0
 32
0.0
 13
1.0
 23
0.0
 33
0.0
 40
0.0
 40
0.0
 40
0.0
 40
0.0
 40
1.0
 40
1.0
 40
1.0
 40
2.0
 40
2.0
 40
2.0
 40
3.0
 40
3.0
 40
3.0
 40
4.0
 40
4.0
 40
4.0
 40
5.0
 40
5.0
 40
5.0
 40
6.0
 40
6.0
 40
6.0
 40
6.0
 10
88.60320500172072
 20
-138.4535644185116
 30
0.0
 10
88.74273136887335
 20
-138.286477287477
 30
0.0
 10
88.95426023166769
 20
-138.0305066929229
 30
0.0
 10
88.95426023166769
 20
-137.5375135289837
 30
0.0
 10
88.95426023166769
 20
-137.0445203650444
 30
0.0
 10
88.74273136887335
 20
-136.7885497704904
 30
0.0
 10
88.60320500172072
 20
-136.6214626394558
 30
0.0
 10
88.60320500172072
 20
-136.6214626394558
 30
0.0
 10
88.71534285976561
 20
-136.521899379932
 30
0.0
 10
88.71534285976561
 20
-136.521899379932
 30
0.0
 10
88.87812362144366
 20
-136.7144802175575
 30
0.0
 10
89.11307913353771
 20
-136.9893988372804
 30
0.0
 10
89.11307913353771
 20
-137.5375135289837
 30
0.0
 10
89.11307913353771
 20
-138.0852837111384
 30
0.0
 10
88.87812362144366
 20
-138.3605468404099
 30
0.0
 10
88.71534285976561
 20
-138.5527831684868
 30
0.0
 10
88.71534285976561
 20
-138.5527831684868
 30
0.0
 10
88.60320500172072
 20
-138.4535644185116
 30
0.0
 10
88.60320500172072
 20
-138.4535644185116
 30
0.0
  0
HATCH
  5
6C
330
41
100
AcDbEntity
  8
_U+30EC_U+30A4_U+30E4_U+30FC 1
 62
   179
420
  2234388
100
AcDbHatch
 10
0.0
 20
0.0
 30
0.0
210
0.0
220
0.0
230
1.0
  2
SOLID
 70
     1
 71
     0
 91
        1
 92
        1
 93
        1
 72
     4
 94
        3
 73
     0
 74
     1
 95
       23
 96
       19
 40
0.0
 40
0.0
 40
0.0
 40
0.0
 40
1.0
 40
1.0
 40
1.0
 40
2.0
 40
2.0
 40
2.0
 40
3.0
 40
3.0
 40
3.0
 40
4.0
 40
4.0
 40
4.0
 40
5.0
 40
5.0
 40
5.0
 40
6.0
 40
6.0
 40
6.0
 40
6.0
 10
88.60320500172072
 20
-138.4535644185116
 10
88.74273136887335
 20
-138.286477287477
 10
88.95426023166769
 20
-138.0305066929229
 10
88.95426023166769
 20
-137.5375135289837
 10
88.95426023166769
 20
-137.0445203650444
 10
88.74273136887335
 20
-136.7885497704904
 10
88.60320500172072
 20
-136.6214626394558
 10
88.60320500172072
 20
-136.6214626394558
 10
88.71534285976561
 20
-136.521899379932
 10
88.71534285976561
 20
-136.521899379932
 10
88.87812362144366
 20
-136.7144802175575
 10
89.11307913353771
 20
-136.9893988372804
 10
89.11307913353771
 20
-137.5375135289837
 10
89.11307913353771
 20
-138.0852837111384
 10
88.87812362144366
 20
-138.3605468404099
 10
88.71534285976561
 20
-138.5527831684868
 10
88.71534285976561
 20
-138.5527831684868
 10
88.60320500172072
 20
-138.4535644185116
 10
88.60320500172072
 20
-138.4535644185116
 97
        0
 97
        0
 75
     2
 76
     1
 98
        0
  0
ENDBLK
  5
44
330
41
100
AcDbEntity
  8
0
100
AcDbBlockEnd
  0
BLOCK
  5
B3
330
B1
100
AcDbEntity
  8
0
100
AcDbBlockBegin
  2
block 3
 70
     0
 10
0.0
 20
0.0
 30
0.0
  3
block 3
  1

  0
POLYLINE
  5
B5
330
B1
100
AcDbEntity
  8
_U+30EC_U+30A4_U+30E4_U+30FC 1
370
     0
100
AcDb2dPolyline
 66
     1
 10
0.0
 20
0.0
 30
0.0
  0
VERTEX
  5
B6
330
B5
100
AcDbEntity
  8
_U+30EC_U+30A4_U+30E4_U+30FC 1
370
     0
100
AcDbVertex
100
AcDb2dVertex
 10
94.09727102682291
 20
-130.5343234265678
 30
0.0
  0
VERTEX
  5
B7
330
B5
100
AcDbEntity
  8
_U+30EC_U+30A4_U+30E4_U+30FC 1
370
     0
100
AcDbVertex
100
AcDb2dVertex
 10
93.39274900008931
 20
-130.5343234265678
 30
0.0
  0
VERTEX
  5
B8
330
B5
100
AcDbEntity
  8
_U+30EC_U+30A4_U+30E4_U+30FC 1
370
     0
100
AcDbVertex
100
AcDb2dVertex
 10
93.39274900008931
 20
-131.2832871850611
 30
0.0
  0
VERTEX
  5
B9
330
B5
100
AcDbEntity
  8
_U+30EC_U+30A4_U+30E4_U+30FC 1
370
     0
100
AcDbVertex
100
AcDb2dVertex
 10
94.09727102682291
 20
-131.2832871850611
 30
0.0
  0
VERTEX
  5
BA
330
B5
100
AcDbEntity
  8
_U+30EC_U+30A4_U+30E4_U+30FC 1
370
     0
100
AcDbVertex
100
AcDb2dVertex
 10
94.09727102682291
 20
-131.5178981876066
 30
0.0
  0
VERTEX
  5
BB
330
B5
100
AcDbEntity
  8
_U+30EC_U+30A4_U+30E4_U+30FC 1
370
     0
100
AcDbVertex
100
AcDb2dVertex
 10
92.55283472078541
 20
-131.5178981876066
 30
0.0
  0
VERTEX
  5
BC
330
B5
100
AcDbEntity
  8
_U+30EC_U+30A4_U+30E4_U+30FC 1
370
     0
100
AcDbVertex
100
AcDb2dVertex
 10
92.55283472078541
 20
-131.2832871850611
 30
0.0
  0
VERTEX
  5
BD
330
B5
100
AcDbEntity
  8
_U+30EC_U+30A4_U+30E4_U+30FC 1
370
     0
100
AcDbVertex
100
AcDb2dVertex
 10
93.18122013729497
 20
-131.2832871850611
 30
0.0
  0
VERTEX
  5
BE
330
B5
100
AcDbEntity
  8
_U+30EC_U+30A4_U+30E4_U+30FC 1
370
     0
100
AcDbVertex
100
AcDb2dVertex
 10
93.18122013729497
 20
-130.5343234265678
 30
0.0
  0
VERTEX
  5
BF
330
B5
100
AcDbEntity
  8
_U+30EC_U+30A4_U+30E4_U+30FC 1
370
     0
100
AcDbVertex
100
AcDb2dVertex
 10
92.55283472078541
 20
-130.5343234265678
 30
0.0
  0
VERTEX
  5
C0
330
B5
100
AcDbEntity
  8
_U+30EC_U+30A4_U+30E4_U+30FC 1
370
     0
100
AcDbVertex
100
AcDb2dVertex
 10
92.55283472078541
 20
-130.2993679144738
 30
0.0
  0
VERTEX
  5
C1
330
B5
100
AcDbEntity
  8
_U+30EC_U+30A4_U+30E4_U+30FC 1
370
     0
100
AcDbVertex
100
AcDb2dVertex
 10
94.09727102682291
 20
-130.2993679144738
 30
0.0
  0
VERTEX
  5
C2
330
B5
100
AcDbEntity
  8
_U+30EC_U+30A4_U+30E4_U+30FC 1
370
     0
100
AcDbVertex
100
AcDb2dVertex
 10
94.09727102682291
 20
-130.5343234265678
 30
0.0
  0
SEQEND
  5
C3
330
B5
100
AcDbEntity
  8
_U+30EC_U+30A4_U+30E4_U+30FC 1
370
     0
  0
HATCH
  5
C4
330
B1
100
AcDbEntity
  8
_U+30EC_U+30A4_U+30E4_U+30FC 1
 62
   179
420
  2234388
100
AcDbHatch
 10
0.0
 20
0.0
 30
0.0
210
0.0
220
0.0
230
1.0
  2
SOLID
 70
     1
 71
     0
 91
        1
 92
        1
 93
       12
 72
     1
 10
94.09727102682291
 20
-130.5343234265678
 11
93.39274900008931
 21
-130.5343234265678
 72
     1
 10
93.39274900008931
 20
-130.5343234265678
 11
93.39274900008931
 21
-131.2832871850611
 72
     1
 10
93.39274900008931
 20
-131.2832871850611
 11
94.09727102682291
 21
-131.2832871850611
 72
     1
 10
94.09727102682291
 20
-131.2832871850611
 11
94.09727102682291
 21
-131.5178981876066
 72
     1
 10
94.09727102682291
 20
-131.5178981876066
 11
92.55283472078541
 21
-131.5178981876066
 72
     1
 10
92.55283472078541
 20
-131.5178981876066
 11
92.55283472078541
 21
-131.2832871850611
 72
     1
 10
92.55283472078541
 20
-131.2832871850611
 11
93.18122013729497
 21
-131.2832871850611
 72
     1
 10
93.18122013729497
 20
-131.2832871850611
 11
93.18122013729497
 21
-130.5343234265678
 72
     1
 10
93.18122013729497
 20
-130.5343234265678
 11
92.55283472078541
 21
-130.5343234265678
 72
     1
 10
92.55283472078541
 20
-130.5343234265678
 11
92.55283472078541
 21
-130.2993679144738
 72
     1
 10
92.55283472078541
 20
-130.2993679144738
 11
94.09727102682291
 21
-130.2993679144738
 72
     1
 10
94.09727102682291
 20
-130.2993679144738
 11
94.09727102682291
 21
-130.5343234265678
 97
        0
 75
     2
 76
     1
 98
        0
  0
ENDBLK
  5
B4
330
B1
100
AcDbEntity
  8
0
100
AcDbBlockEnd
  0
BLOCK
  5
D6
330
D4
100
AcDbEntity
  8
0
100
AcDbBlockBegin
  2
block 4
 70
     0
 10
0.0
 20
0.0
 30
0.0
  3
block 4
  1

  0
POLYLINE
  5
D8
330
D4
100
AcDbEntity
  8
_U+30EC_U+30A4_U+30E4_U+30FC 1
370
     0
100
AcDb2dPolyline
 66
     1
 10
0.0
 20
0.0
 30
0.0
  0
VERTEX
  5
D9
330
D8
100
AcDbEntity
  8
_U+30EC_U+30A4_U+30E4_U+30FC 1
370
     0
100
AcDbVertex
100
AcDb2dVertex
 10
84.02587888524353
 20
-122.0364786478763
 30
0.0
  0
VERTEX
  5
DA
330
D8
100
AcDbEntity
  8
_U+30EC_U+30A4_U+30E4_U+30FC 1
370
     0
100
AcDbVertex
100
AcDb2dVertex
 10
83.7550943801029
 20
-122.0364786478763
 30
0.0
  0
VERTEX
  5
DB
330
D8
100
AcDbEntity
  8
_U+30EC_U+30A4_U+30E4_U+30FC 1
370
     0
100
AcDbVertex
100
AcDb2dVertex
 10
83.46949596437568
 20
-120.7629991017537
 30
0.0
  0
VERTEX
  5
DC
330
D8
100
AcDbEntity
  8
_U+30EC_U+30A4_U+30E4_U+30FC 1
370
     0
100
AcDbVertex
100
AcDb2dVertex
 10
83.18596460593962
 20
-122.0364786478763
 30
0.0
  0
VERTEX
  5
DD
330
D8
100
AcDbEntity
  8
_U+30EC_U+30A4_U+30E4_U+30FC 1
370
     0
100
AcDbVertex
100
AcDb2dVertex
 10
82.91518010079899
 20
-122.0364786478763
 30
0.0
  0
VERTEX
  5
DE
330
D8
100
AcDbEntity
  8
_U+30EC_U+30A4_U+30E4_U+30FC 1
370
     0
100
AcDbVertex
100
AcDb2dVertex
 10
82.53225773761346
 20
-120.4922145966131
 30
0.0
  0
VERTEX
  5
DF
330
D8
100
AcDbEntity
  8
_U+30EC_U+30A4_U+30E4_U+30FC 1
370
     0
100
AcDbVertex
100
AcDb2dVertex
 10
82.7649739376421
 20
-120.4922145966131
 30
0.0
  0
VERTEX
  5
E0
330
D8
100
AcDbEntity
  8
_U+30EC_U+30A4_U+30E4_U+30FC 1
370
     0
100
AcDbVertex
100
AcDb2dVertex
 10
83.0505723533693
 20
-121.7424397482102
 30
0.0
  0
VERTEX
  5
E1
330
D8
100
AcDbEntity
  8
_U+30EC_U+30A4_U+30E4_U+30FC 1
370
     0
100
AcDbVertex
100
AcDb2dVertex
 10
83.3297973424488
 20
-120.4922145966131
 30
0.0
  0
VERTEX
  5
E2
330
D8
100
AcDbEntity
  8
_U+30EC_U+30A4_U+30E4_U+30FC 1
370
     0
100
AcDbVertex
100
AcDb2dVertex
 10
83.60902233152831
 20
-120.4922145966131
 30
0.0
  0
VERTEX
  5
E3
330
D8
100
AcDbEntity
  8
_U+30EC_U+30A4_U+30E4_U+30FC 1
370
     0
100
AcDbVertex
100
AcDb2dVertex
 10
83.88841957538206
 20
-121.7424397482102
 30
0.0
  0
VERTEX
  5
E4
330
D8
100
AcDbEntity
  8
_U+30EC_U+30A4_U+30E4_U+30FC 1
370
     0
100
AcDbVertex
100
AcDb2dVertex
 10
84.17608504840042
 20
-120.4922145966131
 30
0.0
  0
VERTEX
  5
E5
330
D8
100
AcDbEntity
  8
_U+30EC_U+30A4_U+30E4_U+30FC 1
370
     0
100
AcDbVertex
100
AcDb2dVertex
 10
84.40880124842906
 20
-120.4922145966131
 30
0.0
  0
VERTEX
  5
E6
330
D8
100
AcDbEntity
  8
_U+30EC_U+30A4_U+30E4_U+30FC 1
370
     0
100
AcDbVertex
100
AcDb2dVertex
 10
84.02587888524353
 20
-122.0364786478763
 30
0.0
  0
SEQEND
  5
E7
330
D8
100
AcDbEntity
  8
_U+30EC_U+30A4_U+30E4_U+30FC 1
370
     0
  0
HATCH
  5
E8
330
D4
100
AcDbEntity
  8
_U+30EC_U+30A4_U+30E4_U+30FC 1
 62
   179
420
  2234388
100
AcDbHatch
 10
0.0
 20
0.0
 30
0.0
210
0.0
220
0.0
230
1.0
  2
SOLID
 70
     1
 71
     0
 91
        1
 92
        1
 93
       13
 72
     1
 10
84.02587888524353
 20
-122.0364786478763
 11
83.7550943801029
 21
-122.0364786478763
 72
     1
 10
83.7550943801029
 20
-122.0364786478763
 11
83.46949596437568
 21
-120.7629991017537
 72
     1
 10
83.46949596437568
 20
-120.7629991017537
 11
83.18596460593962
 21
-122.0364786478763
 72
     1
 10
83.18596460593962
 20
-122.0364786478763
 11
82.91518010079899
 21
-122.0364786478763
 72
     1
 10
82.91518010079899
 20
-122.0364786478763
 11
82.53225773761346
 21
-120.4922145966131
 72
     1
 10
82.53225773761346
 20
-120.4922145966131
 11
82.7649739376421
 21
-120.4922145966131
 72
     1
 10
82.7649739376421
 20
-120.4922145966131
 11
83.0505723533693
 21
-121.7424397482102
 72
     1
 10
83.0505723533693
 20
-121.7424397482102
 11
83.3297973424488
 21
-120.4922145966131
 72
     1
 10
83.3297973424488
 20
-120.4922145966131
 11
83.60902233152831
 21
-120.4922145966131
 72
     1
 10
83.60902233152831
 20
-120.4922145966131
 11
83.88841957538206
 21
-121.7424397482102
 72
     1
 10
83.88841957538206
 20
-121.7424397482102
 11
84.17608504840042
 21
-120.4922145966131
 72
     1
 10
84.17608504840042
 20
-120.4922145966131
 11
84.40880124842906
 21
-120.4922145966131
 72
     1
 10
84.40880124842906
 20
-120.4922145966131
 11
84.02587888524353
 21
-122.0364786478763
 97
        0
 75
     2
 76
     1
 98
        0
  0
ENDBLK
  5
D7
330
D4
100
AcDbEntity
  8
0
100
AcDbBlockEnd
  0
BLOCK
  5
FA
330
F8
100
AcDbEntity
  8
0
100
AcDbBlockBegin
  2
block 5
 70
     0
 10
0.0
 20
0.0
 30
0.0
  3
block 5
  1

  0
POLYLINE
  5
FC
330
F8
100
AcDbEntity
  8
_U+30EC_U+30A4_U+30E4_U+30FC 1
370
     0
100
AcDb2dPolyline
 66
     1
 10
0.0
 20
0.0
 30
0.0
  0
VERTEX
  5
FD
330
FC
100
AcDbEntity
  8
_U+30EC_U+30A4_U+30E4_U+30FC 1
370
     0
100
AcDbVertex
100
AcDb2dVertex
 10
99.0861137990132
 20
-120.7037434594074
 30
0.0
  0
VERTEX
  5
FE
330
FC
100
AcDbEntity
  8
_U+30EC_U+30A4_U+30E4_U+30FC 1
370
     0
100
AcDbVertex
100
AcDb2dVertex
 10
99.0861137990132
 20
-122.0364786478763
 30
0.0
  0
VERTEX
  5
FF
330
FC
100
AcDbEntity
  8
_U+30EC_U+30A4_U+30E4_U+30FC 1
370
     0
100
AcDbVertex
100
AcDb2dVertex
 10
98.85150279646768
 20
-122.0364786478763
 30
0.0
  0
VERTEX
  5
100
330
FC
100
AcDbEntity
  8
_U+30EC_U+30A4_U+30E4_U+30FC 1
370
     0
100
AcDbVertex
100
AcDb2dVertex
 10
98.85150279646768
 20
-120.7037434594074
 30
0.0
  0
VERTEX
  5
101
330
FC
100
AcDbEntity
  8
_U+30EC_U+30A4_U+30E4_U+30FC 1
370
     0
100
AcDbVertex
100
AcDb2dVertex
 10
98.34782983652416
 20
-120.7037434594074
 30
0.0
  0
VERTEX
  5
102
330
FC
100
AcDbEntity
  8
_U+30EC_U+30A4_U+30E4_U+30FC 1
370
     0
100
AcDbVertex
100
AcDb2dVertex
 10
98.34782983652416
 20
-120.4922145966131
 30
0.0
  0
VERTEX
  5
103
330
FC
100
AcDbEntity
  8
_U+30EC_U+30A4_U+30E4_U+30FC 1
370
     0
100
AcDbVertex
100
AcDb2dVertex
 10
99.59185381624788
 20
-120.4922145966131
 30
0.0
  0
VERTEX
  5
104
330
FC
100
AcDbEntity
  8
_U+30EC_U+30A4_U+30E4_U+30FC 1
370
     0
100
AcDbVertex
100
AcDb2dVertex
 10
99.59185381624788
 20
-120.7037434594074
 30
0.0
  0
VERTEX
  5
105
330
FC
100
AcDbEntity
  8
_U+30EC_U+30A4_U+30E4_U+30FC 1
370
     0
100
AcDbVertex
100
AcDb2dVertex
 10
99.0861137990132
 20
-120.7037434594074
 30
0.0
  0
SEQEND
  5
106
330
FC
100
AcDbEntity
  8
_U+30EC_U+30A4_U+30E4_U+30FC 1
370
     0
  0
HATCH
  5
107
330
F8
100
AcDbEntity
  8
_U+30EC_U+30A4_U+30E4_U+30FC 1
 62
   179
420
  2234388
100
AcDbHatch
 10
0.0
 20
0.0
 30
0.0
210
0.0
220
0.0
230
1.0
  2
SOLID
 70
     1
 71
     0
 91
        1
 92
        1
 93
        8
 72
     1
 10
99.0861137990132
 20
-120.7037434594074
 11
99.0861137990132
 21
-122.0364786478763
 72
     1
 10
99.0861137990132
 20
-122.0364786478763
 11
98.85150279646768
 21
-122.0364786478763
 72
     1
 10
98.85150279646768
 20
-122.0364786478763
 11
98.85150279646768
 21
-120.7037434594074
 72
     1
 10
98.85150279646768
 20
-120.7037434594074
 11
98.34782983652416
 21
-120.7037434594074
 72
     1
 10
98.34782983652416
 20
-120.7037434594074
 11
98.34782983652416
 21
-120.4922145966131
 72
     1
 10
98.34782983652416
 20
-120.4922145966131
 11
99.59185381624788
 21
-120.4922145966131
 72
     1
 10
99.59185381624788
 20
-120.4922145966131
 11
99.59185381624788
 21
-120.7037434594074
 72
     1
 10
99.59185381624788
 20
-120.7037434594074
 11
99.0861137990132
 21
-120.7037434594074
 97
        0
 75
     2
 76
     1
 98
        0
  0
ENDBLK
  5
FB
330
F8
100
AcDbEntity
  8
0
100
AcDbBlockEnd
  0
BLOCK
  5
119
330
117
100
AcDbEntity
  8
0
100
AcDbBlockBegin
  2
block 6
 70
     0
 10
0.0
 20
0.0
 30
0.0
  3
block 6
  1

  0
POLYLINE
  5
11B
330
117
100
AcDbEntity
  8
_U+30EC_U+30A4_U+30E4_U+30FC 1
370
     0
100
AcDb2dPolyline
 66
     1
 10
0.0
 20
0.0
 30
0.0
  0
VERTEX
  5
11C
330
11B
100
AcDbEntity
  8
_U+30EC_U+30A4_U+30E4_U+30FC 1
370
     0
100
AcDbVertex
100
AcDb2dVertex
 10
103.0972384724896
 20
-130.5343234265678
 30
0.0
  0
VERTEX
  5
11D
330
11B
100
AcDbEntity
  8
_U+30EC_U+30A4_U+30E4_U+30FC 1
370
     0
100
AcDbVertex
100
AcDb2dVertex
 10
102.392716445756
 20
-130.5343234265678
 30
0.0
  0
VERTEX
  5
11E
330
11B
100
AcDbEntity
  8
_U+30EC_U+30A4_U+30E4_U+30FC 1
370
     0
100
AcDbVertex
100
AcDb2dVertex
 10
102.392716445756
 20
-131.2832871850611
 30
0.0
  0
VERTEX
  5
11F
330
11B
100
AcDbEntity
  8
_U+30EC_U+30A4_U+30E4_U+30FC 1
370
     0
100
AcDbVertex
100
AcDb2dVertex
 10
103.0972384724896
 20
-131.2832871850611
 30
0.0
  0
VERTEX
  5
120
330
11B
100
AcDbEntity
  8
_U+30EC_U+30A4_U+30E4_U+30FC 1
370
     0
100
AcDbVertex
100
AcDb2dVertex
 10
103.0972384724896
 20
-131.5178981876066
 30
0.0
  0
VERTEX
  5
121
330
11B
100
AcDbEntity
  8
_U+30EC_U+30A4_U+30E4_U+30FC 1
370
     0
100
AcDbVertex
100
AcDb2dVertex
 10
101.5528021664521
 20
-131.5178981876066
 30
0.0
  0
VERTEX
  5
122
330
11B
100
AcDbEntity
  8
_U+30EC_U+30A4_U+30E4_U+30FC 1
370
     0
100
AcDbVertex
100
AcDb2dVertex
 10
101.5528021664521
 20
-131.2832871850611
 30
0.0
  0
VERTEX
  5
123
330
11B
100
AcDbEntity
  8
_U+30EC_U+30A4_U+30E4_U+30FC 1
370
     0
100
AcDbVertex
100
AcDb2dVertex
 10
102.1811875829617
 20
-131.2832871850611
 30
0.0
  0
VERTEX
  5
124
330
11B
100
AcDbEntity
  8
_U+30EC_U+30A4_U+30E4_U+30FC 1
370
     0
100
AcDbVertex
100
AcDb2dVertex
 10
102.1811875829617
 20
-130.5343234265678
 30
0.0
  0
VERTEX
  5
125
330
11B
100
AcDbEntity
  8
_U+30EC_U+30A4_U+30E4_U+30FC 1
370
     0
100
AcDbVertex
100
AcDb2dVertex
 10
101.5528021664521
 20
-130.5343234265678
 30
0.0
  0
VERTEX
  5
126
330
11B
100
AcDbEntity
  8
_U+30EC_U+30A4_U+30E4_U+30FC 1
370
     0
100
AcDbVertex
100
AcDb2dVertex
 10
101.5528021664521
 20
-130.2993679144738
 30
0.0
  0
VERTEX
  5
127
330
11B
100
AcDbEntity
  8
_U+30EC_U+30A4_U+30E4_U+30FC 1
370
     0
100
AcDbVertex
100
AcDb2dVertex
 10
103.0972384724896
 20
-130.2993679144738
 30
0.0
  0
VERTEX
  5
128
330
11B
100
AcDbEntity
  8
_U+30EC_U+30A4_U+30E4_U+30FC 1
370
     0
100
AcDbVertex
100
AcDb2dVertex
 10
103.0972384724896
 20
-130.5343234265678
 30
0.0
  0
SEQEND
  5
129
330
11B
100
AcDbEntity
  8
_U+30EC_U+30A4_U+30E4_U+30FC 1
370
     0
  0
HATCH
  5
12A
330
117
100
AcDbEntity
  8
_U+30EC_U+30A4_U+30E4_U+30FC 1
 62
   179
420
  2234388
100
AcDbHatch
 10
0.0
 20
0.0
 30
0.0
210
0.0
220
0.0
230
1.0
  2
SOLID
 70
     1
 71
     0
 91
        1
 92
        1
 93
       12
 72
     1
 10
103.0972384724896
 20
-130.5343234265678
 11
102.392716445756
 21
-130.5343234265678
 72
     1
 10
102.392716445756
 20
-130.5343234265678
 11
102.392716445756
 21
-131.2832871850611
 72
     1
 10
102.392716445756
 20
-131.2832871850611
 11
103.0972384724896
 21
-131.2832871850611
 72
     1
 10
103.0972384724896
 20
-131.2832871850611
 11
103.0972384724896
 21
-131.5178981876066
 72
     1
 10
103.0972384724896
 20
-131.5178981876066
 11
101.5528021664521
 21
-131.5178981876066
 72
     1
 10
101.5528021664521
 20
-131.5178981876066
 11
101.5528021664521
 21
-131.2832871850611
 72
     1
 10
101.5528021664521
 20
-131.2832871850611
 11
102.1811875829617
 21
-131.2832871850611
 72
     1
 10
102.1811875829617
 20
-131.2832871850611
 11
102.1811875829617
 21
-130.5343234265678
 72
     1
 10
102.1811875829617
 20
-130.5343234265678
 11
101.5528021664521
 21
-130.5343234265678
 72
     1
 10
101.5528021664521
 20
-130.5343234265678
 11
101.5528021664521
 21
-130.2993679144738
 72
     1
 10
101.5528021664521
 20
-130.2993679144738
 11
103.0972384724896
 21
-130.2993679144738
 72
     1
 10
103.0972384724896
 20
-130.2993679144738
 11
103.0972384724896
 21
-130.5343234265678
 97
        0
 75
     2
 76
     1
 98
        0
  0
ENDBLK
  5
11A
330
117
100
AcDbEntity
  8
0
100
AcDbBlockEnd
  0
ENDSEC
  0
SECTION
  2
ENTITIES
  0
INSERT
  5
42
330
1F
100
AcDbEntity
  8
_U+30EC_U+30A4_U+30E4_U+30FC 1
100
AcDbBlockReference
  2
block 2
 10
0.0
 20
0.0
 30
0.0
  0
POLYLINE
  5
6D
330
1F
100
AcDbEntity
  8
_U+30EC_U+30A4_U+30E4_U+30FC 1
370
     0
100
AcDb2dPolyline
 66
     1
 10
0.0
 20
0.0
 30
0.0
  0
VERTEX
  5
6E
330
6D
100
AcDbEntity
  8
_U+30EC_U+30A4_U+30E4_U+30FC 1
370
     0
100
AcDbVertex
100
AcDb2dVertex
 10
76.47008471575228
 20
-135.4091285772589
 30
0.0
  0
VERTEX
  5
6F
330
6D
100
AcDbEntity
  8
_U+30EC_U+30A4_U+30E4_U+30FC 1
370
     0
100
AcDbVertex
100
AcDb2dVertex
 10
90.46992935858648
 20
-135.4091285772589
 30
0.0
  0
VERTEX
  5
70
330
6D
100
AcDbEntity
  8
_U+30EC_U+30A4_U+30E4_U+30FC 1
370
     0
100
AcDbVertex
100
AcDb2dVertex
 10
90.46992935858648
 20
-126.4091677461756
 30
0.0
  0
VERTEX
  5
71
330
6D
100
AcDbEntity
  8
_U+30EC_U+30A4_U+30E4_U+30FC 1
370
     0
100
AcDbVertex
100
AcDb2dVertex
 10
76.47008471575228
 20
-126.4091677461756
 30
0.0
  0
VERTEX
  5
72
330
6D
100
AcDbEntity
  8
_U+30EC_U+30A4_U+30E4_U+30FC 1
370
     0
100
AcDbVertex
100
AcDb2dVertex
 10
76.47008471575228
 20
-135.4091285772589
 30
0.0
  0
SEQEND
  5
73
330
6D
100
AcDbEntity
  8
_U+30EC_U+30A4_U+30E4_U+30FC 1
370
     0
  0
HATCH
  5
74
330
1F
100
AcDbEntity
  8
_U+30EC_U+30A4_U+30E4_U+30FC 1
 62
   253
420
 11711154
100
AcDbHatch
 10
0.0
 20
0.0
 30
0.0
210
0.0
220
0.0
230
1.0
  2
SOLID
 70
     1
 71
     0
 91
        1
 92
        1
 93
        4
 72
     1
 10
76.47008471575228
 20
-135.4091285772589
 11
90.46992935858648
 21
-135.4091285772589
 72
     1
 10
90.46992935858648
 20
-135.4091285772589
 11
90.46992935858648
 21
-126.4091677461756
 72
     1
 10
90.46992935858648
 20
-126.4091677461756
 11
76.47008471575228
 21
-126.4091677461756
 72
     1
 10
76.47008471575228
 20
-126.4091677461756
 11
76.47008471575228
 21
-135.4091285772589
 97
        0
 75
     2
 76
     1
 98
        0
  0
POLYLINE
  5
75
330
1F
100
AcDbEntity
  8
_U+30EC_U+30A4_U+30E4_U+30FC 1
370
     0
100
AcDb2dPolyline
 66
     1
 10
0.0
 20
0.0
 30
0.0
  0
VERTEX
  5
76
330
75
100
AcDbEntity
  8
_U+30EC_U+30A4_U+30E4_U+30FC 1
370
     0
100
AcDbVertex
100
AcDb2dVertex
 10
98.47011776559579
 20
-135.4091285772589
 30
0.0
  0
VERTEX
  5
77
330
75
100
AcDbEntity
  8
_U+30EC_U+30A4_U+30E4_U+30FC 1
370
     0
100
AcDbVertex
100
AcDb2dVertex
 10
99.4698899623117
 20
-135.4091285772589
 30
0.0
  0
VERTEX
  5
78
330
75
100
AcDbEntity
  8
_U+30EC_U+30A4_U+30E4_U+30FC 1
370
     0
100
AcDbVertex
100
AcDb2dVertex
 10
99.4698899623117
 20
-126.4091677461756
 30
0.0
  0
VERTEX
  5
79
330
75
100
AcDbEntity
  8
_U+30EC_U+30A4_U+30E4_U+30FC 1
370
     0
100
AcDbVertex
100
AcDb2dVertex
 10
98.47011776559579
 20
-126.4091677461756
 30
0.0
  0
VERTEX
  5
7A
330
75
100
AcDbEntity
  8
_U+30EC_U+30A4_U+30E4_U+30FC 1
370
     0
100
AcDbVertex
100
AcDb2dVertex
 10
98.47011776559579
 20
-135.4091285772589
 30
0.0
  0
SEQEND
  5
7C
330
75
100
AcDbEntity
  8
_U+30EC_U+30A4_U+30E4_U+30FC 1
370
     0
  0
HATCH
  5
7B
330
1F
100
AcDbEntity
  8
_U+30EC_U+30A4_U+30E4_U+30FC 1
 62
   253
420
 11711154
100
AcDbHatch
 10
0.0
 20
0.0
 30
0.0
210
0.0
220
0.0
230
1.0
  2
SOLID
 70
     1
 71
     0
 91
        1
 92
        1
 93
        4
 72
     1
 10
98.47011776559579
 20
-135.4091285772589
 11
99.4698899623117
 21
-135.4091285772589
 72
     1
 10
99.4698899623117
 20
-135.4091285772589
 11
99.4698899623117
 21
-126.4091677461756
 72
     1
 10
99.4698899623117
 20
-126.4091677461756
 11
98.47011776559579
 21
-126.4091677461756
 72
     1
 10
98.47011776559579
 20
-126.4091677461756
 11
98.47011776559579
 21
-135.4091285772589
 97
        0
 75
     2
 76
     1
 98
        0
  0
POLYLINE
  5
7D
330
1F
100
AcDbEntity
  8
_U+30EC_U+30A4_U+30E4_U+30FC 1
 62
   179
420
  2234388
370
    25
100
AcDb2dPolyline
 66
     1
 10
0.0
 20
0.0
 30
0.0
  0
VERTEX
  5
7E
330
7D
100
AcDbEntity
  8
_U+30EC_U+30A4_U+30E4_U+30FC 1
 62
   179
420
  2234388
370
    25
100
AcDbVertex
100
AcDb2dVertex
 10
76.47008471575228
 20
-126.4091677461756
 30
0.0
  0
VERTEX
  5
7F
330
7D
100
AcDbEntity
  8
_U+30EC_U+30A4_U+30E4_U+30FC 1
 62
   179
420
  2234388
370
    25
100
AcDbVertex
100
AcDb2dVertex
 10
76.47008471575228
 20
-135.4091285772589
 30
0.0
  0
SEQEND
  5
80
330
7D
100
AcDbEntity
  8
_U+30EC_U+30A4_U+30E4_U+30FC 1
 62
   179
420
  2234388
370
    25
  0
POLYLINE
  5
81
330
1F
100
AcDbEntity
  8
_U+30EC_U+30A4_U+30E4_U+30FC 1
 62
   179
420
  2234388
370
    25
100
AcDb2dPolyline
 66
     1
 10
0.0
 20
0.0
 30
0.0
  0
VERTEX
  5
82
330
81
100
AcDbEntity
  8
_U+30EC_U+30A4_U+30E4_U+30FC 1
 62
   179
420
  2234388
370
    25
100
AcDbVertex
100
AcDb2dVertex
 10
90.46992935858648
 20
-126.4091677461756
 30
0.0
  0
VERTEX
  5
83
330
81
100
AcDbEntity
  8
_U+30EC_U+30A4_U+30E4_U+30FC 1
 62
   179
420
  2234388
370
    25
100
AcDbVertex
100
AcDb2dVertex
 10
90.46992935858648
 20
-135.4091285772589
 30
0.0
  0
SEQEND
  5
84
330
81
100
AcDbEntity
  8
_U+30EC_U+30A4_U+30E4_U+30FC 1
 62
   179
420
  2234388
370
    25
  0
POLYLINE
  5
85
330
1F
100
AcDbEntity
  8
_U+30EC_U+30A4_U+30E4_U+30FC 1
 62
   179
420
  2234388
370
    25
100
AcDb2dPolyline
 66
     1
 10
0.0
 20
0.0
 30
0.0
  0
VERTEX
  5
86
330
85
100
AcDbEntity
  8
_U+30EC_U+30A4_U+30E4_U+30FC 1
 62
   179
420
  2234388
370
    25
100
AcDbVertex
100
AcDb2dVertex
 10
76.47008471575228
 20
-126.4091677461756
 30
0.0
  0
VERTEX
  5
87
330
85
100
AcDbEntity
  8
_U+30EC_U+30A4_U+30E4_U+30FC 1
 62
   179
420
  2234388
370
    25
100
AcDbVertex
100
AcDb2dVertex
 10
90.46992935858648
 20
-126.4091677461756
 30
0.0
  0
SEQEND
  5
88
330
85
100
AcDbEntity
  8
_U+30EC_U+30A4_U+30E4_U+30FC 1
 62
   179
420
  2234388
370
    25
  0
POLYLINE
  5
89
330
1F
100
AcDbEntity
  8
_U+30EC_U+30A4_U+30E4_U+30FC 1
 62
   179
420
  2234388
370
    25
100
AcDb2dPolyline
 66
     1
 10
0.0
 20
0.0
 30
0.0
  0
VERTEX
  5
8A
330
89
100
AcDbEntity
  8
_U+30EC_U+30A4_U+30E4_U+30FC 1
 62
   179
420
  2234388
370
    25
100
AcDbVertex
100
AcDb2dVertex
 10
76.47008471575228
 20
-135.4091285772589
 30
0.0
  0
VERTEX
  5
8B
330
89
100
AcDbEntity
  8
_U+30EC_U+30A4_U+30E4_U+30FC 1
 62
   179
420
  2234388
370
    25
100
AcDbVertex
100
AcDb2dVertex
 10
90.46992935858648
 20
-135.4091285772589
 30
0.0
  0
SEQEND
  5
8C
330
89
100
AcDbEntity
  8
_U+30EC_U+30A4_U+30E4_U+30FC 1
 62
   179
420
  2234388
370
    25
  0
POLYLINE
  5
8D
330
1F
100
AcDbEntity
  8
_U+30EC_U+30A4_U+30E4_U+30FC 1
 62
   179
420
  2234388
370
    25
100
AcDb2dPolyline
 66
     1
 10
0.0
 20
0.0
 30
0.0
  0
VERTEX
  5
8E
330
8D
100
AcDbEntity
  8
_U+30EC_U+30A4_U+30E4_U+30FC 1
 62
   179
420
  2234388
370
    25
100
AcDbVertex
100
AcDb2dVertex
 10
99.4698899623117
 20
-126.4091677461756
 30
0.0
  0
VERTEX
  5
8F
330
8D
100
AcDbEntity
  8
_U+30EC_U+30A4_U+30E4_U+30FC 1
 62
   179
420
  2234388
370
    25
100
AcDbVertex
100
AcDb2dVertex
 10
99.4698899623117
 20
-135.4091285772589
 30
0.0
  0
SEQEND
  5
90
330
8D
100
AcDbEntity
  8
_U+30EC_U+30A4_U+30E4_U+30FC 1
 62
   179
420
  2234388
370
    25
  0
POLYLINE
  5
91
330
1F
100
AcDbEntity
  8
_U+30EC_U+30A4_U+30E4_U+30FC 1
 62
   179
420
  2234388
370
    25
100
AcDb2dPolyline
 66
     1
 10
0.0
 20
0.0
 30
0.0
  0
VERTEX
  5
92
330
91
100
AcDbEntity
  8
_U+30EC_U+30A4_U+30E4_U+30FC 1
 62
   179
420
  2234388
370
    25
100
AcDbVertex
100
AcDb2dVertex
 10
98.47011776559579
 20
-126.4091677461756
 30
0.0
  0
VERTEX
  5
93
330
91
100
AcDbEntity
  8
_U+30EC_U+30A4_U+30E4_U+30FC 1
 62
   179
420
  2234388
370
    25
100
AcDbVertex
100
AcDb2dVertex
 10
98.47011776559579
 20
-135.4091285772589
 30
0.0
  0
SEQEND
  5
94
330
91
100
AcDbEntity
  8
_U+30EC_U+30A4_U+30E4_U+30FC 1
 62
   179
420
  2234388
370
    25
  0
POLYLINE
  5
95
330
1F
100
AcDbEntity
  8
_U+30EC_U+30A4_U+30E4_U+30FC 1
 62
   179
420
  2234388
370
    25
100
AcDb2dPolyline
 66
     1
 10
0.0
 20
0.0
 30
0.0
  0
VERTEX
  5
96
330
95
100
AcDbEntity
  8
_U+30EC_U+30A4_U+30E4_U+30FC 1
 62
   179
420
  2234388
370
    25
100
AcDbVertex
100
AcDb2dVertex
 10
98.47011776559579
 20
-126.4091677461756
 30
0.0
  0
VERTEX
  5
97
330
95
100
AcDbEntity
  8
_U+30EC_U+30A4_U+30E4_U+30FC 1
 62
   179
420
  2234388
370
    25
100
AcDbVertex
100
AcDb2dVertex
 10
99.4698899623117
 20
-126.4091677461756
 30
0.0
  0
SEQEND
  5
98
330
95
100
AcDbEntity
  8
_U+30EC_U+30A4_U+30E4_U+30FC 1
 62
   179
420
  2234388
370
    25
  0
POLYLINE
  5
99
330
1F
100
AcDbEntity
  8
_U+30EC_U+30A4_U+30E4_U+30FC 1
 62
   179
420
  2234388
370
    25
100
AcDb2dPolyline
 66
     1
 10
0.0
 20
0.0
 30
0.0
  0
VERTEX
  5
9A
330
99
100
AcDbEntity
  8
_U+30EC_U+30A4_U+30E4_U+30FC 1
 62
   179
420
  2234388
370
    25
100
AcDbVertex
100
AcDb2dVertex
 10
98.47011776559579
 20
-135.4091285772589
 30
0.0
  0
VERTEX
  5
9B
330
99
100
AcDbEntity
  8
_U+30EC_U+30A4_U+30E4_U+30FC 1
 62
   179
420
  2234388
370
    25
100
AcDbVertex
100
AcDb2dVertex
 10
99.4698899623117
 20
-135.4091285772589
 30
0.0
  0
SEQEND
  5
9C
330
99
100
AcDbEntity
  8
_U+30EC_U+30A4_U+30E4_U+30FC 1
 62
   179
420
  2234388
370
    25
  0
SPLINE
  5
9D
330
1F
100
AcDbEntity
  8
_U+30EC_U+30A4_U+30E4_U+30FC 1
 62
   179
420
  2234388
370
     9
100
AcDbSpline
210
0.0
220
0.0
230
1.0
 70
    11
 71
     3
 72
    17
 73
    13
 74
     0
 42
0.0000000001
 43
0.0000000001
 12
1.0
 22
0.0
 32
0.0
 13
1.0
 23
0.0
 33
0.0
 40
0.0
 40
0.0
 40
0.0
 40
0.0
 40
1.0
 40
1.0
 40
1.0
 40
2.0
 40
2.0
 40
2.0
 40
3.0
 40
3.0
 40
3.0
 40
4.0
 40
4.0
 40
4.0
 40
4.0
 10
94.5699478650974
 20
-135.4091285772589
 30
0.0
 10
94.5699478650974
 20
-135.354024688384
 30
0.0
 10
94.52514508846264
 20
-135.3092219106173
 30
0.0
 10
94.47004120097957
 20
-135.3092219106173
 30
0.0
 10
94.41490203571962
 20
-135.3092219106173
 30
0.0
 10
94.37013453686174
 20
-135.354024688384
 30
0.0
 10
94.37013453686174
 20
-135.4091285772589
 30
0.0
 10
94.37013453686174
 20
-135.464267743912
 30
0.0
 10
94.41490203571962
 20
-135.5090352439006
 30
0.0
 10
94.47004120097957
 20
-135.5090352439006
 30
0.0
 10
94.52514508846264
 20
-135.5090352439006
 30
0.0
 10
94.5699478650974
 20
-135.464267743912
 30
0.0
 10
94.5699478650974
 20
-135.4091285772589
 30
0.0
  0
SPLINE
  5
9E
330
1F
100
AcDbEntity
  8
_U+30EC_U+30A4_U+30E4_U+30FC 1
 62
   179
420
  2234388
370
     9
100
AcDbSpline
210
0.0
220
0.0
230
1.0
 70
    11
 71
     3
 72
    17
 73
    13
 74
     0
 42
0.0000000001
 43
0.0000000001
 12
1.0
 22
0.0
 32
0.0
 13
1.0
 23
0.0
 33
0.0
 40
0.0
 40
0.0
 40
0.0
 40
0.0
 40
1.0
 40
1.0
 40
1.0
 40
2.0
 40
2.0
 40
2.0
 40
3.0
 40
3.0
 40
3.0
 40
4.0
 40
4.0
 40
4.0
 40
4.0
 10
94.5699478650974
 20
-126.4091677461756
 30
0.0
 10
94.5699478650974
 20
-126.3540285795225
 30
0.0
 10
94.52514508846264
 20
-126.3092610795339
 30
0.0
 10
94.47004120097957
 20
-126.3092610795339
 30
0.0
 10
94.41490203571962
 20
-126.3092610795339
 30
0.0
 10
94.37013453686174
 20
-126.3540285795225
 30
0.0
 10
94.37013453686174
 20
-126.4091677461756
 30
0.0
 10
94.37013453686174
 20
-126.4642716350505
 30
0.0
 10
94.41490203571962
 20
-126.5090744128172
 30
0.0
 10
94.47004120097957
 20
-126.5090744128172
 30
0.0
 10
94.52514508846264
 20
-126.5090744128172
 30
0.0
 10
94.5699478650974
 20
-126.4642716350505
 30
0.0
 10
94.5699478650974
 20
-126.4091677461756
 30
0.0
  0
SPLINE
  5
9F
330
1F
100
AcDbEntity
  8
_U+30EC_U+30A4_U+30E4_U+30FC 1
 62
   179
420
  2234388
370
     9
100
AcDbSpline
210
0.0
220
0.0
230
1.0
 70
    11
 71
     3
 72
    17
 73
    13
 74
     0
 42
0.0000000001
 43
0.0000000001
 12
1.0
 22
0.0
 32
0.0
 13
1.0
 23
0.0
 33
0.0
 40
0.0
 40
0.0
 40
0.0
 40
0.0
 40
1.0
 40
1.0
 40
1.0
 40
2.0
 40
2.0
 40
2.0
 40
3.0
 40
3.0
 40
3.0
 40
4.0
 40
4.0
 40
4.0
 40
4.0
 10
90.57018880047309
 20
-122.4094085805087
 30
0.0
 10
90.57018880047309
 20
-122.3535991360782
 30
0.0
 10
90.52538602383834
 20
-122.3095019138671
 30
0.0
 10
90.46992935858648
 20
-122.3095019138671
 30
0.0
 10
90.41479019332652
 20
-122.3095019138671
 30
0.0
 10
90.37002497740762
 20
-122.3535991360782
 30
0.0
 10
90.37002497740762
 20
-122.4094085805087
 30
0.0
 10
90.37002497740762
 20
-122.4645477471618
 30
0.0
 10
90.41479019332652
 20
-122.5093152471503
 30
0.0
 10
90.46992935858648
 20
-122.5093152471503
 30
0.0
 10
90.52538602383834
 20
-122.5093152471503
 30
0.0
 10
90.57018880047309
 20
-122.4645477471618
 30
0.0
 10
90.57018880047309
 20
-122.4094085805087
 30
0.0
  0
SPLINE
  5
A0
330
1F
100
AcDbEntity
  8
_U+30EC_U+30A4_U+30E4_U+30FC 1
 62
   179
420
  2234388
370
     9
100
AcDbSpline
210
0.0
220
0.0
230
1.0
 70
    11
 71
     3
 72
    17
 73
    13
 74
     0
 42
0.0000000001
 43
0.0000000001
 12
1.0
 22
0.0
 32
0.0
 13
1.0
 23
0.0
 33
0.0
 40
0.0
 40
0.0
 40
0.0
 40
0.0
 40
1.0
 40
1.0
 40
1.0
 40
2.0
 40
2.0
 40
2.0
 40
3.0
 40
3.0
 40
3.0
 40
4.0
 40
4.0
 40
4.0
 40
4.0
 10
76.5699913798701
 20
-122.4094085805087
 30
0.0
 10
76.5699913798701
 20
-122.3535991360782
 30
0.0
 10
76.52522388101222
 20
-122.3095019138671
 30
0.0
 10
76.47008471575228
 20
-122.3095019138671
 30
0.0
 10
76.41498082826921
 20
-122.3095019138671
 30
0.0
 10
76.37017805163444
 20
-122.3535991360782
 30
0.0
 10
76.37017805163444
 20
-122.4094085805087
 30
0.0
 10
76.37017805163444
 20
-122.4645477471618
 30
0.0
 10
76.41498082826921
 20
-122.5093152471503
 30
0.0
 10
76.47008471575228
 20
-122.5093152471503
 30
0.0
 10
76.52522388101222
 20
-122.5093152471503
 30
0.0
 10
76.5699913798701
 20
-122.4645477471618
 30
0.0
 10
76.5699913798701
 20
-122.4094085805087
 30
0.0
  0
SPLINE
  5
A1
330
1F
100
AcDbEntity
  8
_U+30EC_U+30A4_U+30E4_U+30FC 1
 62
   179
420
  2234388
370
     9
100
AcDbSpline
210
0.0
220
0.0
230
1.0
 70
    11
 71
     3
 72
    17
 73
    13
 74
     0
 42
0.0000000001
 43
0.0000000001
 12
1.0
 22
0.0
 32
0.0
 13
1.0
 23
0.0
 33
0.0
 40
0.0
 40
0.0
 40
0.0
 40
0.0
 40
1.0
 40
1.0
 40
1.0
 40
2.0
 40
2.0
 40
2.0
 40
3.0
 40
3.0
 40
3.0
 40
4.0
 40
4.0
 40
4.0
 40
4.0
 10
99.5701494041983
 20
-122.4094085805087
 30
0.0
 10
99.5701494041983
 20
-122.3535991360782
 30
0.0
 10
99.52534662756354
 20
-122.3095019138671
 30
0.0
 10
99.4698899623117
 20
-122.3095019138671
 30
0.0
 10
99.41478607482861
 20
-122.3095019138671
 30
0.0
 10
99.36998329819386
 20
-122.3535991360782
 30
0.0
 10
99.36998329819386
 20
-122.4094085805087
 30
0.0
 10
99.36998329819386
 20
-122.4645477471618
 30
0.0
 10
99.41478607482861
 20
-122.5093152471503
 30
0.0
 10
99.4698899623117
 20
-122.5093152471503
 30
0.0
 10
99.52534662756354
 20
-122.5093152471503
 30
0.0
 10
99.5701494041983
 20
-122.4645477471618
 30
0.0
 10
99.5701494041983
 20
-122.4094085805087
 30
0.0
  0
SPLINE
  5
A2
330
1F
100
AcDbEntity
  8
_U+30EC_U+30A4_U+30E4_U+30FC 1
 62
   179
420
  2234388
370
     9
100
AcDbSpline
210
0.0
220
0.0
230
1.0
 70
    11
 71
     3
 72
    17
 73
    13
 74
     0
 42
0.0000000001
 43
0.0000000001
 12
1.0
 22
0.0
 32
0.0
 13
1.0
 23
0.0
 33
0.0
 40
0.0
 40
0.0
 40
0.0
 40
0.0
 40
1.0
 40
1.0
 40
1.0
 40
2.0
 40
2.0
 40
2.0
 40
3.0
 40
3.0
 40
3.0
 40
4.0
 40
4.0
 40
4.0
 40
4.0
 10
98.57002442971361
 20
-122.4094085805087
 30
0.0
 10
98.57002442971361
 20
-122.3535991360782
 30
0.0
 10
98.52525693085573
 20
-122.3095019138671
 30
0.0
 10
98.47011776559579
 20
-122.3095019138671
 30
0.0
 10
98.41466110034393
 20
-122.3095019138671
 30
0.0
 10
98.37021110147795
 20
-122.3535991360782
 30
0.0
 10
98.37021110147795
 20
-122.4094085805087
 30
0.0
 10
98.37021110147795
 20
-122.4645477471618
 30
0.0
 10
98.41466110034393
 20
-122.5093152471503
 30
0.0
 10
98.47011776559579
 20
-122.5093152471503
 30
0.0
 10
98.52525693085573
 20
-122.5093152471503
 30
0.0
 10
98.57002442971361
 20
-122.4645477471618
 30
0.0
 10
98.57002442971361
 20
-122.4094085805087
 30
0.0
  0
SPLINE
  5
A3
330
1F
100
AcDbEntity
  8
_U+30EC_U+30A4_U+30E4_U+30FC 1
 62
   179
420
  2234388
370
     9
100
AcDbSpline
210
0.0
220
0.0
230
1.0
 70
    11
 71
     3
 72
    17
 73
    13
 74
     0
 42
0.0000000001
 43
0.0000000001
 12
1.0
 22
0.0
 32
0.0
 13
1.0
 23
0.0
 33
0.0
 40
0.0
 40
0.0
 40
0.0
 40
0.0
 40
1.0
 40
1.0
 40
1.0
 40
2.0
 40
2.0
 40
2.0
 40
3.0
 40
3.0
 40
3.0
 40
4.0
 40
4.0
 40
4.0
 40
4.0
 10
103.5699110852189
 20
-126.4091677461756
 30
0.0
 10
103.5699110852189
 20
-126.3540285795225
 30
0.0
 10
103.5254610852299
 20
-126.3092610795339
 30
0.0
 10
103.4700018047048
 20
-126.3092610795339
 30
0.0
 10
103.4148626394448
 20
-126.3092610795339
 30
0.0
 10
103.3700951405869
 20
-126.3540285795225
 30
0.0
 10
103.3700951405869
 20
-126.4091677461756
 30
0.0
 10
103.3700951405869
 20
-126.4642716350505
 30
0.0
 10
103.4148626394448
 20
-126.5090744128172
 30
0.0
 10
103.4700018047048
 20
-126.5090744128172
 30
0.0
 10
103.5254610852299
 20
-126.5090744128172
 30
0.0
 10
103.5699110852189
 20
-126.4642716350505
 30
0.0
 10
103.5699110852189
 20
-126.4091677461756
 30
0.0
  0
SPLINE
  5
A4
330
1F
100
AcDbEntity
  8
_U+30EC_U+30A4_U+30E4_U+30FC 1
 62
   179
420
  2234388
370
     9
100
AcDbSpline
210
0.0
220
0.0
230
1.0
 70
    11
 71
     3
 72
    17
 73
    13
 74
     0
 42
0.0000000001
 43
0.0000000001
 12
1.0
 22
0.0
 32
0.0
 13
1.0
 23
0.0
 33
0.0
 40
0.0
 40
0.0
 40
0.0
 40
0.0
 40
1.0
 40
1.0
 40
1.0
 40
2.0
 40
2.0
 40
2.0
 40
3.0
 40
3.0
 40
3.0
 40
4.0
 40
4.0
 40
4.0
 40
4.0
 10
103.5699110852189
 20
-135.4091285772589
 30
0.0
 10
103.5699110852189
 20
-135.354024688384
 30
0.0
 10
103.5254610852299
 20
-135.3092219106173
 30
0.0
 10
103.4700018047048
 20
-135.3092219106173
 30
0.0
 10
103.4148626394448
 20
-135.3092219106173
 30
0.0
 10
103.3700951405869
 20
-135.354024688384
 30
0.0
 10
103.3700951405869
 20
-135.4091285772589
 30
0.0
 10
103.3700951405869
 20
-135.464267743912
 30
0.0
 10
103.4148626394448
 20
-135.5090352439006
 30
0.0
 10
103.4700018047048
 20
-135.5090352439006
 30
0.0
 10
103.5254610852299
 20
-135.5090352439006
 30
0.0
 10
103.5699110852189
 20
-135.464267743912
 30
0.0
 10
103.5699110852189
 20
-135.4091285772589
 30
0.0
  0
POLYLINE
  5
A5
330
1F
100
AcDbEntity
  8
_U+30EC_U+30A4_U+30E4_U+30FC 1
 62
   179
420
  2234388
370
     9
100
AcDb2dPolyline
 66
     1
 10
0.0
 20
0.0
 30
0.0
  0
VERTEX
  5
A6
330
A5
100
AcDbEntity
  8
_U+30EC_U+30A4_U+30E4_U+30FC 1
 62
   179
420
  2234388
370
     9
100
AcDbVertex
100
AcDb2dVertex
 10
94.47004120097957
 20
-126.4091677461756
 30
0.0
  0
VERTEX
  5
A7
330
A5
100
AcDbEntity
  8
_U+30EC_U+30A4_U+30E4_U+30FC 1
 62
   179
420
  2234388
370
     9
100
AcDbVertex
100
AcDb2dVertex
 10
94.47004120097957
 20
-135.4091285772589
 30
0.0
  0
SEQEND
  5
A8
330
A5
100
AcDbEntity
  8
_U+30EC_U+30A4_U+30E4_U+30FC 1
 62
   179
420
  2234388
370
     9
  0
POLYLINE
  5
A9
330
1F
100
AcDbEntity
  8
_U+30EC_U+30A4_U+30E4_U+30FC 1
 62
   179
420
  2234388
370
     9
100
AcDb2dPolyline
 66
     1
 10
0.0
 20
0.0
 30
0.0
  0
VERTEX
  5
AA
330
A9
100
AcDbEntity
  8
_U+30EC_U+30A4_U+30E4_U+30FC 1
 62
   179
420
  2234388
370
     9
100
AcDbVertex
100
AcDb2dVertex
 10
93.00999984933944
 20
-126.4091677461756
 30
0.0
  0
VERTEX
  5
AB
330
A9
100
AcDbEntity
  8
_U+30EC_U+30A4_U+30E4_U+30FC 1
 62
   179
420
  2234388
370
     9
100
AcDbVertex
100
AcDb2dVertex
 10
95.47013330946574
 20
-126.4091677461756
 30
0.0
  0
SEQEND
  5
AC
330
A9
100
AcDbEntity
  8
_U+30EC_U+30A4_U+30E4_U+30FC 1
 62
   179
420
  2234388
370
     9
  0
POLYLINE
  5
AD
330
1F
100
AcDbEntity
  8
_U+30EC_U+30A4_U+30E4_U+30FC 1
 62
   179
420
  2234388
370
     9
100
AcDb2dPolyline
 66
     1
 10
0.0
 20
0.0
 30
0.0
  0
VERTEX
  5
AE
330
AD
100
AcDbEntity
  8
_U+30EC_U+30A4_U+30E4_U+30FC 1
 62
   179
420
  2234388
370
     9
100
AcDbVertex
100
AcDb2dVertex
 10
93.00999984933944
 20
-135.4091285772589
 30
0.0
  0
VERTEX
  5
AF
330
AD
100
AcDbEntity
  8
_U+30EC_U+30A4_U+30E4_U+30FC 1
 62
   179
420
  2234388
370
     9
100
AcDbVertex
100
AcDb2dVertex
 10
95.47013330946574
 20
-135.4091285772589
 30
0.0
  0
SEQEND
  5
B0
330
AD
100
AcDbEntity
  8
_U+30EC_U+30A4_U+30E4_U+30FC 1
 62
   179
420
  2234388
370
     9
  0
INSERT
  5
B2
330
1F
100
AcDbEntity
  8
_U+30EC_U+30A4_U+30E4_U+30FC 1
100
AcDbBlockReference
  2
block 3
 10
0.0
 20
0.0
 30
0.0
  0
SPLINE
  5
C5
330
1F
100
AcDbEntity
  8
_U+30EC_U+30A4_U+30E4_U+30FC 1
 62
   179
420
  2234388
370
    25
100
AcDbSpline
210
0.0
220
0.0
230
1.0
 70
    11
 71
     3
 72
    17
 73
    13
 74
     0
 42
0.0000000001
 43
0.0000000001
 12
1.0
 22
0.0
 32
0.0
 13
1.0
 23
0.0
 33
0.0
 40
0.0
 40
0.0
 40
0.0
 40
0.0
 40
1.0
 40
1.0
 40
1.0
 40
2.0
 40
2.0
 40
2.0
 40
3.0
 40
3.0
 40
3.0
 40
4.0
 40
4.0
 40
4.0
 40
4.0
 10
90.50541880212552
 20
-126.4091677461756
 30
0.0
 10
90.50541880212552
 20
-126.4284646906151
 30
0.0
 10
90.4895790803074
 20
-126.4443044128333
 30
0.0
 10
90.46992935858648
 20
-126.4443044128333
 30
0.0
 10
90.45063241463434
 20
-126.4443044128333
 30
0.0
 10
90.43479269281623
 20
-126.4284646906151
 30
0.0
 10
90.43479269281623
 20
-126.4091677461756
 30
0.0
 10
90.43479269281623
 20
-126.3898708017357
 30
0.0
 10
90.45063241463434
 20
-126.3740310795175
 30
0.0
 10
90.46992935858648
 20
-126.3740310795175
 30
0.0
 10
90.4895790803074
 20
-126.3740310795175
 30
0.0
 10
90.50541880212552
 20
-126.3898708017357
 30
0.0
 10
90.50541880212552
 20
-126.4091677461756
 30
0.0
  0
SPLINE
  5
C6
330
1F
100
AcDbEntity
  8
_U+30EC_U+30A4_U+30E4_U+30FC 1
 62
   179
420
  2234388
370
    25
100
AcDbSpline
210
0.0
220
0.0
230
1.0
 70
    11
 71
     3
 72
    17
 73
    13
 74
     0
 42
0.0000000001
 43
0.0000000001
 12
1.0
 22
0.0
 32
0.0
 13
1.0
 23
0.0
 33
0.0
 40
0.0
 40
0.0
 40
0.0
 40
0.0
 40
1.0
 40
1.0
 40
1.0
 40
2.0
 40
2.0
 40
2.0
 40
3.0
 40
3.0
 40
3.0
 40
4.0
 40
4.0
 40
4.0
 40
4.0
 10
90.50541880212552
 20
-135.4091285772589
 30
0.0
 10
90.50541880212552
 20
-135.4284255216988
 30
0.0
 10
90.4895790803074
 20
-135.4442652439166
 30
0.0
 10
90.46992935858648
 20
-135.4442652439166
 30
0.0
 10
90.45063241463434
 20
-135.4442652439166
 30
0.0
 10
90.43479269281623
 20
-135.4284255216988
 30
0.0
 10
90.43479269281623
 20
-135.4091285772589
 30
0.0
 10
90.43479269281623
 20
-135.3898316328191
 30
0.0
 10
90.45063241463434
 20
-135.3739919106012
 30
0.0
 10
90.46992935858648
 20
-135.3739919106012
 30
0.0
 10
90.4895790803074
 20
-135.3739919106012
 30
0.0
 10
90.50541880212552
 20
-135.3898316328191
 30
0.0
 10
90.50541880212552
 20
-135.4091285772589
 30
0.0
  0
SPLINE
  5
C7
330
1F
100
AcDbEntity
  8
_U+30EC_U+30A4_U+30E4_U+30FC 1
 62
   179
420
  2234388
370
     9
100
AcDbSpline
210
0.0
220
0.0
230
1.0
 70
    11
 71
     3
 72
    17
 73
    13
 74
     0
 42
0.0000000001
 43
0.0000000001
 12
1.0
 22
0.0
 32
0.0
 13
1.0
 23
0.0
 33
0.0
 40
0.0
 40
0.0
 40
0.0
 40
0.0
 40
1.0
 40
1.0
 40
1.0
 40
2.0
 40
2.0
 40
2.0
 40
3.0
 40
3.0
 40
3.0
 40
4.0
 40
4.0
 40
4.0
 40
4.0
 10
94.50517786674983
 20
-135.4091285772589
 30
0.0
 10
94.50517786674983
 20
-135.4284255216988
 30
0.0
 10
94.4896556449236
 20
-135.4442652439166
 30
0.0
 10
94.47004120097957
 20
-135.4442652439166
 30
0.0
 10
94.45074425702744
 20
-135.4442652439166
 30
0.0
 10
94.43490453520931
 20
-135.4284255216988
 30
0.0
 10
94.43490453520931
 20
-135.4091285772589
 30
0.0
 10
94.43490453520931
 20
-135.3898316328191
 30
0.0
 10
94.45074425702744
 20
-135.3739919106012
 30
0.0
 10
94.47004120097957
 20
-135.3739919106012
 30
0.0
 10
94.4896556449236
 20
-135.3739919106012
 30
0.0
 10
94.50517786674983
 20
-135.3898316328191
 30
0.0
 10
94.50517786674983
 20
-135.4091285772589
 30
0.0
  0
POLYLINE
  5
C8
330
1F
100
AcDbEntity
  8
_U+30EC_U+30A4_U+30E4_U+30FC 1
 62
   179
420
  2234388
370
     9
100
AcDb2dPolyline
 66
     1
 10
0.0
 20
0.0
 30
0.0
  0
VERTEX
  5
C9
330
C8
100
AcDbEntity
  8
_U+30EC_U+30A4_U+30E4_U+30FC 1
 62
   179
420
  2234388
370
     9
100
AcDbVertex
100
AcDb2dVertex
 10
76.47008471575228
 20
-122.4094085805087
 30
0.0
  0
VERTEX
  5
CA
330
C8
100
AcDbEntity
  8
_U+30EC_U+30A4_U+30E4_U+30FC 1
 62
   179
420
  2234388
370
     9
100
AcDbVertex
100
AcDb2dVertex
 10
90.46992935858648
 20
-122.4094085805087
 30
0.0
  0
SEQEND
  5
CB
330
C8
100
AcDbEntity
  8
_U+30EC_U+30A4_U+30E4_U+30FC 1
 62
   179
420
  2234388
370
     9
  0
POLYLINE
  5
CC
330
1F
100
AcDbEntity
  8
_U+30EC_U+30A4_U+30E4_U+30FC 1
 62
   179
420
  2234388
370
     9
100
AcDb2dPolyline
 66
     1
 10
0.0
 20
0.0
 30
0.0
  0
VERTEX
  5
CD
330
CC
100
AcDbEntity
  8
_U+30EC_U+30A4_U+30E4_U+30FC 1
 62
   179
420
  2234388
370
     9
100
AcDbVertex
100
AcDb2dVertex
 10
76.47008471575228
 20
-123.8694499690327
 30
0.0
  0
VERTEX
  5
CE
330
CC
100
AcDbEntity
  8
_U+30EC_U+30A4_U+30E4_U+30FC 1
 62
   179
420
  2234388
370
     9
100
AcDbVertex
100
AcDb2dVertex
 10
76.47008471575228
 20
-121.4089660807588
 30
0.0
  0
SEQEND
  5
CF
330
CC
100
AcDbEntity
  8
_U+30EC_U+30A4_U+30E4_U+30FC 1
 62
   179
420
  2234388
370
     9
  0
POLYLINE
  5
D0
330
1F
100
AcDbEntity
  8
_U+30EC_U+30A4_U+30E4_U+30FC 1
 62
   179
420
  2234388
370
     9
100
AcDb2dPolyline
 66
     1
 10
0.0
 20
0.0
 30
0.0
  0
VERTEX
  5
D1
330
D0
100
AcDbEntity
  8
_U+30EC_U+30A4_U+30E4_U+30FC 1
 62
   179
420
  2234388
370
     9
100
AcDbVertex
100
AcDb2dVertex
 10
90.46992935858648
 20
-123.8694499690327
 30
0.0
  0
VERTEX
  5
D2
330
D0
100
AcDbEntity
  8
_U+30EC_U+30A4_U+30E4_U+30FC 1
 62
   179
420
  2234388
370
     9
100
AcDbVertex
100
AcDb2dVertex
 10
90.46992935858648
 20
-121.4089660807588
 30
0.0
  0
SEQEND
  5
D3
330
D0
100
AcDbEntity
  8
_U+30EC_U+30A4_U+30E4_U+30FC 1
 62
   179
420
  2234388
370
     9
  0
INSERT
  5
D5
330
1F
100
AcDbEntity
  8
_U+30EC_U+30A4_U+30E4_U+30FC 1
100
AcDbBlockReference
  2
block 4
 10
0.0
 20
0.0
 30
0.0
  0
SPLINE
  5
E9
330
1F
100
AcDbEntity
  8
_U+30EC_U+30A4_U+30E4_U+30FC 1
 62
   179
420
  2234388
370
    25
100
AcDbSpline
210
0.0
220
0.0
230
1.0
 70
    11
 71
     3
 72
    17
 73
    13
 74
     0
 42
0.0000000001
 43
0.0000000001
 12
1.0
 22
0.0
 32
0.0
 13
1.0
 23
0.0
 33
0.0
 40
0.0
 40
0.0
 40
0.0
 40
0.0
 40
1.0
 40
1.0
 40
1.0
 40
2.0
 40
2.0
 40
2.0
 40
3.0
 40
3.0
 40
3.0
 40
4.0
 40
4.0
 40
4.0
 40
4.0
 10
76.50522138152253
 20
-126.4091677461756
 30
0.0
 10
76.50522138152253
 20
-126.4284646906151
 30
0.0
 10
76.4893816597044
 20
-126.4443044128333
 30
0.0
 10
76.47008471575228
 20
-126.4443044128333
 30
0.0
 10
76.45047220310963
 20
-126.4443044128333
 30
0.0
 10
76.43494998089132
 20
-126.4284646906151
 30
0.0
 10
76.43494998089132
 20
-126.4091677461756
 30
0.0
 10
76.43494998089132
 20
-126.3898708017357
 30
0.0
 10
76.45047220310963
 20
-126.3740310795175
 30
0.0
 10
76.47008471575228
 20
-126.3740310795175
 30
0.0
 10
76.4893816597044
 20
-126.3740310795175
 30
0.0
 10
76.50522138152253
 20
-126.3898708017357
 30
0.0
 10
76.50522138152253
 20
-126.4091677461756
 30
0.0
  0
SPLINE
  5
EA
330
1F
100
AcDbEntity
  8
_U+30EC_U+30A4_U+30E4_U+30FC 1
 62
   179
420
  2234388
370
    25
100
AcDbSpline
210
0.0
220
0.0
230
1.0
 70
    11
 71
     3
 72
    17
 73
    13
 74
     0
 42
0.0000000001
 43
0.0000000001
 12
1.0
 22
0.0
 32
0.0
 13
1.0
 23
0.0
 33
0.0
 40
0.0
 40
0.0
 40
0.0
 40
0.0
 40
1.0
 40
1.0
 40
1.0
 40
2.0
 40
2.0
 40
2.0
 40
3.0
 40
3.0
 40
3.0
 40
4.0
 40
4.0
 40
4.0
 40
4.0
 10
90.50541880212552
 20
-126.4091677461756
 30
0.0
 10
90.50541880212552
 20
-126.4284646906151
 30
0.0
 10
90.4895790803074
 20
-126.4443044128333
 30
0.0
 10
90.46992935858648
 20
-126.4443044128333
 30
0.0
 10
90.45063241463434
 20
-126.4443044128333
 30
0.0
 10
90.43479269281623
 20
-126.4284646906151
 30
0.0
 10
90.43479269281623
 20
-126.4091677461756
 30
0.0
 10
90.43479269281623
 20
-126.3898708017357
 30
0.0
 10
90.45063241463434
 20
-126.3740310795175
 30
0.0
 10
90.46992935858648
 20
-126.3740310795175
 30
0.0
 10
90.4895790803074
 20
-126.3740310795175
 30
0.0
 10
90.50541880212552
 20
-126.3898708017357
 30
0.0
 10
90.50541880212552
 20
-126.4091677461756
 30
0.0
  0
SPLINE
  5
EB
330
1F
100
AcDbEntity
  8
_U+30EC_U+30A4_U+30E4_U+30FC 1
 62
   179
420
  2234388
370
     9
100
AcDbSpline
210
0.0
220
0.0
230
1.0
 70
    11
 71
     3
 72
    17
 73
    13
 74
     0
 42
0.0000000001
 43
0.0000000001
 12
1.0
 22
0.0
 32
0.0
 13
1.0
 23
0.0
 33
0.0
 40
0.0
 40
0.0
 40
0.0
 40
0.0
 40
1.0
 40
1.0
 40
1.0
 40
2.0
 40
2.0
 40
2.0
 40
3.0
 40
3.0
 40
3.0
 40
4.0
 40
4.0
 40
4.0
 40
4.0
 10
90.50541880212552
 20
-122.4094085805087
 30
0.0
 10
90.50541880212552
 20
-122.4287055249485
 30
0.0
 10
90.4895790803074
 20
-122.4445452471667
 30
0.0
 10
90.46992935858648
 20
-122.4445452471667
 30
0.0
 10
90.45063241463434
 20
-122.4445452471667
 30
0.0
 10
90.43479269281623
 20
-122.4287055249485
 30
0.0
 10
90.43479269281623
 20
-122.4094085805087
 30
0.0
 10
90.43479269281623
 20
-122.3894413582915
 30
0.0
 10
90.45063241463434
 20
-122.3735663582954
 30
0.0
 10
90.46992935858648
 20
-122.3735663582954
 30
0.0
 10
90.4895790803074
 20
-122.3735663582954
 30
0.0
 10
90.50541880212552
 20
-122.3894413582915
 30
0.0
 10
90.50541880212552
 20
-122.4094085805087
 30
0.0
  0
POLYLINE
  5
EC
330
1F
100
AcDbEntity
  8
_U+30EC_U+30A4_U+30E4_U+30FC 1
 62
   179
420
  2234388
370
     9
100
AcDb2dPolyline
 66
     1
 10
0.0
 20
0.0
 30
0.0
  0
VERTEX
  5
ED
330
EC
100
AcDbEntity
  8
_U+30EC_U+30A4_U+30E4_U+30FC 1
 62
   179
420
  2234388
370
     9
100
AcDbVertex
100
AcDb2dVertex
 10
97.47003053118793
 20
-122.4094085805087
 30
0.0
  0
VERTEX
  5
EE
330
EC
100
AcDbEntity
  8
_U+30EC_U+30A4_U+30E4_U+30FC 1
 62
   179
420
  2234388
370
     9
100
AcDbVertex
100
AcDb2dVertex
 10
100.4700149367964
 20
-122.4094085805087
 30
0.0
  0
SEQEND
  5
EF
330
EC
100
AcDbEntity
  8
_U+30EC_U+30A4_U+30E4_U+30FC 1
 62
   179
420
  2234388
370
     9
  0
POLYLINE
  5
F0
330
1F
100
AcDbEntity
  8
_U+30EC_U+30A4_U+30E4_U+30FC 1
 62
   179
420
  2234388
370
     9
100
AcDb2dPolyline
 66
     1
 10
0.0
 20
0.0
 30
0.0
  0
VERTEX
  5
F1
330
F0
100
AcDbEntity
  8
_U+30EC_U+30A4_U+30E4_U+30FC 1
 62
   179
420
  2234388
370
     9
100
AcDbVertex
100
AcDb2dVertex
 10
98.47011776559579
 20
-123.8694499690327
 30
0.0
  0
VERTEX
  5
F2
330
F0
100
AcDbEntity
  8
_U+30EC_U+30A4_U+30E4_U+30FC 1
 62
   179
420
  2234388
370
     9
100
AcDbVertex
100
AcDb2dVertex
 10
98.47011776559579
 20
-121.4089660807588
 30
0.0
  0
SEQEND
  5
F3
330
F0
100
AcDbEntity
  8
_U+30EC_U+30A4_U+30E4_U+30FC 1
 62
   179
420
  2234388
370
     9
  0
POLYLINE
  5
F4
330
1F
100
AcDbEntity
  8
_U+30EC_U+30A4_U+30E4_U+30FC 1
 62
   179
420
  2234388
370
     9
100
AcDb2dPolyline
 66
     1
 10
0.0
 20
0.0
 30
0.0
  0
VERTEX
  5
F5
330
F4
100
AcDbEntity
  8
_U+30EC_U+30A4_U+30E4_U+30FC 1
 62
   179
420
  2234388
370
     9
100
AcDbVertex
100
AcDb2dVertex
 10
99.4698899623117
 20
-123.8694499690327
 30
0.0
  0
VERTEX
  5
F6
330
F4
100
AcDbEntity
  8
_U+30EC_U+30A4_U+30E4_U+30FC 1
 62
   179
420
  2234388
370
     9
100
AcDbVertex
100
AcDb2dVertex
 10
99.4698899623117
 20
-121.4089660807588
 30
0.0
  0
SEQEND
  5
F7
330
F4
100
AcDbEntity
  8
_U+30EC_U+30A4_U+30E4_U+30FC 1
 62
   179
420
  2234388
370
     9
  0
INSERT
  5
F9
330
1F
100
AcDbEntity
  8
_U+30EC_U+30A4_U+30E4_U+30FC 1
100
AcDbBlockReference
  2
block 5
 10
0.0
 20
0.0
 30
0.0
  0
SPLINE
  5
108
330
1F
100
AcDbEntity
  8
_U+30EC_U+30A4_U+30E4_U+30FC 1
 62
   179
420
  2234388
370
    25
100
AcDbSpline
210
0.0
220
0.0
230
1.0
 70
    11
 71
     3
 72
    17
 73
    13
 74
     0
 42
0.0000000001
 43
0.0000000001
 12
1.0
 22
0.0
 32
0.0
 13
1.0
 23
0.0
 33
0.0
 40
0.0
 40
0.0
 40
0.0
 40
0.0
 40
1.0
 40
1.0
 40
1.0
 40
2.0
 40
2.0
 40
2.0
 40
3.0
 40
3.0
 40
3.0
 40
4.0
 40
4.0
 40
4.0
 40
4.0
 10
98.50525443136604
 20
-126.4091677461756
 30
0.0
 10
98.50525443136604
 20
-126.4284646906151
 30
0.0
 10
98.48941470954792
 20
-126.4443044128333
 30
0.0
 10
98.47011776559579
 20
-126.4443044128333
 30
0.0
 10
98.45050332165174
 20
-126.4443044128333
 30
0.0
 10
98.43462832205675
 20
-126.4284646906151
 30
0.0
 10
98.43462832205675
 20
-126.4091677461756
 30
0.0
 10
98.43462832205675
 20
-126.3898708017357
 30
0.0
 10
98.45050332165174
 20
-126.3740310795175
 30
0.0
 10
98.47011776559579
 20
-126.3740310795175
 30
0.0
 10
98.48941470954792
 20
-126.3740310795175
 30
0.0
 10
98.50525443136604
 20
-126.3898708017357
 30
0.0
 10
98.50525443136604
 20
-126.4091677461756
 30
0.0
  0
SPLINE
  5
109
330
1F
100
AcDbEntity
  8
_U+30EC_U+30A4_U+30E4_U+30FC 1
 62
   179
420
  2234388
370
    25
100
AcDbSpline
210
0.0
220
0.0
230
1.0
 70
    11
 71
     3
 72
    17
 73
    13
 74
     0
 42
0.0000000001
 43
0.0000000001
 12
1.0
 22
0.0
 32
0.0
 13
1.0
 23
0.0
 33
0.0
 40
0.0
 40
0.0
 40
0.0
 40
0.0
 40
1.0
 40
1.0
 40
1.0
 40
2.0
 40
2.0
 40
2.0
 40
3.0
 40
3.0
 40
3.0
 40
4.0
 40
4.0
 40
4.0
 40
4.0
 10
99.50537940585072
 20
-126.4091677461756
 30
0.0
 10
99.50537940585072
 20
-126.4284646906151
 30
0.0
 10
99.48953968403261
 20
-126.4443044128333
 30
0.0
 10
99.4698899623117
 20
-126.4443044128333
 30
0.0
 10
99.45059301835956
 20
-126.4443044128333
 30
0.0
 10
99.43475329654143
 20
-126.4284646906151
 30
0.0
 10
99.43475329654143
 20
-126.4091677461756
 30
0.0
 10
99.43475329654143
 20
-126.3898708017357
 30
0.0
 10
99.45059301835956
 20
-126.3740310795175
 30
0.0
 10
99.4698899623117
 20
-126.3740310795175
 30
0.0
 10
99.48953968403261
 20
-126.3740310795175
 30
0.0
 10
99.50537940585072
 20
-126.3898708017357
 30
0.0
 10
99.50537940585072
 20
-126.4091677461756
 30
0.0
  0
SPLINE
  5
10A
330
1F
100
AcDbEntity
  8
_U+30EC_U+30A4_U+30E4_U+30FC 1
 62
   179
420
  2234388
370
     9
100
AcDbSpline
210
0.0
220
0.0
230
1.0
 70
    11
 71
     3
 72
    17
 73
    13
 74
     0
 42
0.0000000001
 43
0.0000000001
 12
1.0
 22
0.0
 32
0.0
 13
1.0
 23
0.0
 33
0.0
 40
0.0
 40
0.0
 40
0.0
 40
0.0
 40
1.0
 40
1.0
 40
1.0
 40
2.0
 40
2.0
 40
2.0
 40
3.0
 40
3.0
 40
3.0
 40
4.0
 40
4.0
 40
4.0
 40
4.0
 10
100.5055043803354
 20
-122.4094085805087
 30
0.0
 10
100.5055043803354
 20
-122.4287055249485
 30
0.0
 10
100.4896293807404
 20
-122.4445452471667
 30
0.0
 10
100.4700149367964
 20
-122.4445452471667
 30
0.0
 10
100.4507179928442
 20
-122.4445452471667
 30
0.0
 10
100.4348782710261
 20
-122.4287055249485
 30
0.0
 10
100.4348782710261
 20
-122.4094085805087
 30
0.0
 10
100.4348782710261
 20
-122.3894413582915
 30
0.0
 10
100.4507179928442
 20
-122.3735663582954
 30
0.0
 10
100.4700149367964
 20
-122.3735663582954
 30
0.0
 10
100.4896293807404
 20
-122.3735663582954
 30
0.0
 10
100.5055043803354
 20
-122.3894413582915
 30
0.0
 10
100.5055043803354
 20
-122.4094085805087
 30
0.0
  0
POLYLINE
  5
10B
330
1F
100
AcDbEntity
  8
_U+30EC_U+30A4_U+30E4_U+30FC 1
 62
   179
420
  2234388
370
     9
100
AcDb2dPolyline
 66
     1
 10
0.0
 20
0.0
 30
0.0
  0
VERTEX
  5
10C
330
10B
100
AcDbEntity
  8
_U+30EC_U+30A4_U+30E4_U+30FC 1
 62
   179
420
  2234388
370
     9
100
AcDbVertex
100
AcDb2dVertex
 10
103.4700018047048
 20
-126.4091677461756
 30
0.0
  0
VERTEX
  5
10D
330
10B
100
AcDbEntity
  8
_U+30EC_U+30A4_U+30E4_U+30FC 1
 62
   179
420
  2234388
370
     9
100
AcDbVertex
100
AcDb2dVertex
 10
103.4700018047048
 20
-135.4091285772589
 30
0.0
  0
SEQEND
  5
10E
330
10B
100
AcDbEntity
  8
_U+30EC_U+30A4_U+30E4_U+30FC 1
 62
   179
420
  2234388
370
     9
  0
POLYLINE
  5
10F
330
1F
100
AcDbEntity
  8
_U+30EC_U+30A4_U+30E4_U+30FC 1
 62
   179
420
  2234388
370
     9
100
AcDb2dPolyline
 66
     1
 10
0.0
 20
0.0
 30
0.0
  0
VERTEX
  5
110
330
10F
100
AcDbEntity
  8
_U+30EC_U+30A4_U+30E4_U+30FC 1
 62
   179
420
  2234388
370
     9
100
AcDbVertex
100
AcDb2dVertex
 10
102.0099604530647
 20
-126.4091677461756
 30
0.0
  0
VERTEX
  5
111
330
10F
100
AcDbEntity
  8
_U+30EC_U+30A4_U+30E4_U+30FC 1
 62
   179
420
  2234388
370
     9
100
AcDbVertex
100
AcDb2dVertex
 10
104.4700915014126
 20
-126.4091677461756
 30
0.0
  0
SEQEND
  5
112
330
10F
100
AcDbEntity
  8
_U+30EC_U+30A4_U+30E4_U+30FC 1
 62
   179
420
  2234388
370
     9
  0
POLYLINE
  5
113
330
1F
100
AcDbEntity
  8
_U+30EC_U+30A4_U+30E4_U+30FC 1
 62
   179
420
  2234388
370
     9
100
AcDb2dPolyline
 66
     1
 10
0.0
 20
0.0
 30
0.0
  0
VERTEX
  5
114
330
113
100
AcDbEntity
  8
_U+30EC_U+30A4_U+30E4_U+30FC 1
 62
   179
420
  2234388
370
     9
100
AcDbVertex
100
AcDb2dVertex
 10
102.0099604530647
 20
-135.4091285772589
 30
0.0
  0
VERTEX
  5
115
330
113
100
AcDbEntity
  8
_U+30EC_U+30A4_U+30E4_U+30FC 1
 62
   179
420
  2234388
370
     9
100
AcDbVertex
100
AcDb2dVertex
 10
104.4700915014126
 20
-135.4091285772589
 30
0.0
  0
SEQEND
  5
116
330
113
100
AcDbEntity
  8
_U+30EC_U+30A4_U+30E4_U+30FC 1
 62
   179
420
  2234388
370
     9
  0
INSERT
  5
118
330
1F
100
AcDbEntity
  8
_U+30EC_U+30A4_U+30E4_U+30FC 1
100
AcDbBlockReference
  2
block 6
 10
0.0
 20
0.0
 30
0.0
  0
SPLINE
  5
12B
330
1F
100
AcDbEntity
  8
_U+30EC_U+30A4_U+30E4_U+30FC 1
 62
   179
420
  2234388
370
    25
100
AcDbSpline
210
0.0
220
0.0
230
1.0
 70
    11
 71
     3
 72
    17
 73
    13
 74
     0
 42
0.0000000001
 43
0.0000000001
 12
1.0
 22
0.0
 32
0.0
 13
1.0
 23
0.0
 33
0.0
 40
0.0
 40
0.0
 40
0.0
 40
0.0
 40
1.0
 40
1.0
 40
1.0
 40
2.0
 40
2.0
 40
2.0
 40
3.0
 40
3.0
 40
3.0
 40
4.0
 40
4.0
 40
4.0
 40
4.0
 10
99.50537940585072
 20
-126.4091677461756
 30
0.0
 10
99.50537940585072
 20
-126.4284646906151
 30
0.0
 10
99.48953968403261
 20
-126.4443044128333
 30
0.0
 10
99.4698899623117
 20
-126.4443044128333
 30
0.0
 10
99.45059301835956
 20
-126.4443044128333
 30
0.0
 10
99.43475329654143
 20
-126.4284646906151
 30
0.0
 10
99.43475329654143
 20
-126.4091677461756
 30
0.0
 10
99.43475329654143
 20
-126.3898708017357
 30
0.0
 10
99.45059301835956
 20
-126.3740310795175
 30
0.0
 10
99.4698899623117
 20
-126.3740310795175
 30
0.0
 10
99.48953968403261
 20
-126.3740310795175
 30
0.0
 10
99.50537940585072
 20
-126.3898708017357
 30
0.0
 10
99.50537940585072
 20
-126.4091677461756
 30
0.0
  0
SPLINE
  5
12C
330
1F
100
AcDbEntity
  8
_U+30EC_U+30A4_U+30E4_U+30FC 1
 62
   179
420
  2234388
370
    25
100
AcDbSpline
210
0.0
220
0.0
230
1.0
 70
    11
 71
     3
 72
    17
 73
    13
 74
     0
 42
0.0000000001
 43
0.0000000001
 12
1.0
 22
0.0
 32
0.0
 13
1.0
 23
0.0
 33
0.0
 40
0.0
 40
0.0
 40
0.0
 40
0.0
 40
1.0
 40
1.0
 40
1.0
 40
2.0
 40
2.0
 40
2.0
 40
3.0
 40
3.0
 40
3.0
 40
4.0
 40
4.0
 40
4.0
 40
4.0
 10
99.50537940585072
 20
-135.4091285772589
 30
0.0
 10
99.50537940585072
 20
-135.4284255216988
 30
0.0
 10
99.48953968403261
 20
-135.4442652439166
 30
0.0
 10
99.4698899623117
 20
-135.4442652439166
 30
0.0
 10
99.45059301835956
 20
-135.4442652439166
 30
0.0
 10
99.43475329654143
 20
-135.4284255216988
 30
0.0
 10
99.43475329654143
 20
-135.4091285772589
 30
0.0
 10
99.43475329654143
 20
-135.3898316328191
 30
0.0
 10
99.45059301835956
 20
-135.3739919106012
 30
0.0
 10
99.4698899623117
 20
-135.3739919106012
 30
0.0
 10
99.48953968403261
 20
-135.3739919106012
 30
0.0
 10
99.50537940585072
 20
-135.3898316328191
 30
0.0
 10
99.50537940585072
 20
-135.4091285772589
 30
0.0
  0
SPLINE
  5
12D
330
1F
100
AcDbEntity
  8
_U+30EC_U+30A4_U+30E4_U+30FC 1
 62
   179
420
  2234388
370
     9
100
AcDbSpline
210
0.0
220
0.0
230
1.0
 70
    11
 71
     3
 72
    17
 73
    13
 74
     0
 42
0.0000000001
 43
0.0000000001
 12
1.0
 22
0.0
 32
0.0
 13
1.0
 23
0.0
 33
0.0
 40
0.0
 40
0.0
 40
0.0
 40
0.0
 40
1.0
 40
1.0
 40
1.0
 40
2.0
 40
2.0
 40
2.0
 40
3.0
 40
3.0
 40
3.0
 40
4.0
 40
4.0
 40
4.0
 40
4.0
 10
103.5054912482438
 20
-135.4091285772589
 30
0.0
 10
103.5054912482438
 20
-135.4284255216988
 30
0.0
 10
103.4896162486488
 20
-135.4442652439166
 30
0.0
 10
103.4700018047048
 20
-135.4442652439166
 30
0.0
 10
103.4507048607526
 20
-135.4442652439166
 30
0.0
 10
103.4348651389345
 20
-135.4284255216988
 30
0.0
 10
103.4348651389345
 20
-135.4091285772589
 30
0.0
 10
103.4348651389345
 20
-135.3898316328191
 30
0.0
 10
103.4507048607526
 20
-135.3739919106012
 30
0.0
 10
103.4700018047048
 20
-135.3739919106012
 30
0.0
 10
103.4896162486488
 20
-135.3739919106012
 30
0.0
 10
103.5054912482438
 20
-135.3898316328191
 30
0.0
 10
103.5054912482438
 20
-135.4091285772589
 30
0.0
  0
SPLINE
  5
12E
330
1F
100
AcDbEntity
  8
_U+30EC_U+30A4_U+30E4_U+30FC 1
 62
   179
420
  2234388
370
    18
100
AcDbSpline
210
0.0
220
0.0
230
1.0
 70
    11
 71
     3
 72
    17
 73
    13
 74
     0
 42
0.0000000001
 43
0.0000000001
 12
1.0
 22
0.0
 32
0.0
 13
1.0
 23
0.0
 33
0.0
 40
0.0
 40
0.0
 40
0.0
 40
0.0
 40
1.0
 40
1.0
 40
1.0
 40
2.0
 40
2.0
 40
2.0
 40
3.0
 40
3.0
 40
3.0
 40
4.0
 40
4.0
 40
4.0
 40
4.0
 10
80.46984378037658
 20
-130.9088130228281
 30
0.0
 10
80.46984378037658
 20
-131.3229035782803
 30
0.0
 10
80.13428156671527
 20
-131.6588185781962
 30
0.0
 10
79.71983824395527
 20
-131.6588185781962
 30
0.0
 10
79.30539492119526
 20
-131.6588185781962
 30
0.0
 10
78.96986798531083
 20
-131.3229035782803
 30
0.0
 10
78.96986798531083
 20
-130.9088130228281
 30
0.0
 10
78.96986798531083
 20
-130.4947224673765
 30
0.0
 10
79.30539492119526
 20
-130.1588074674606
 30
0.0
 10
79.71983824395527
 20
-130.1588074674606
 30
0.0
 10
80.13428156671527
 20
-130.1588074674606
 30
0.0
 10
80.46984378037658
 20
-130.4947224673765
 30
0.0
 10
80.46984378037658
 20
-130.9088130228281
 30
0.0
  0
SPLINE
  5
12F
330
1F
100
AcDbEntity
  8
_U+30EC_U+30A4_U+30E4_U+30FC 1
 62
   179
420
  2234388
370
    18
100
AcDbSpline
210
0.0
220
0.0
230
1.0
 70
    11
 71
     3
 72
    17
 73
    13
 74
     0
 42
0.0000000001
 43
0.0000000001
 12
1.0
 22
0.0
 32
0.0
 13
1.0
 23
0.0
 33
0.0
 40
0.0
 40
0.0
 40
0.0
 40
0.0
 40
1.0
 40
1.0
 40
1.0
 40
2.0
 40
2.0
 40
2.0
 40
3.0
 40
3.0
 40
3.0
 40
4.0
 40
4.0
 40
4.0
 40
4.0
 10
81.22020209456669
 20
-130.9091658006058
 30
0.0
 10
81.22020209456669
 20
-131.737699689288
 30
0.0
 10
80.54840738948337
 20
-132.4091416335646
 30
0.0
 10
79.71983824395527
 20
-132.4091416335646
 30
0.0
 10
78.89130437620403
 20
-132.4091416335646
 30
0.0
 10
78.2198624488895
 20
-131.737699689288
 30
0.0
 10
78.2198624488895
 20
-130.9091658006058
 30
0.0
 10
78.2198624488895
 20
-130.0809494119239
 30
0.0
 10
78.89130437620403
 20
-129.4088019120925
 30
0.0
 10
79.71983824395527
 20
-129.4088019120925
 30
0.0
 10
80.54840738948337
 20
-129.4088019120925
 30
0.0
 10
81.22020209456669
 20
-130.0809494119239
 30
0.0
 10
81.22020209456669
 20
-130.9091658006058
 30
0.0
  0
SPLINE
  5
130
330
1F
100
AcDbEntity
  8
_U+30EC_U+30A4_U+30E4_U+30FC 1
 62
   179
420
  2234388
370
    18
100
AcDbSpline
210
0.0
220
0.0
230
1.0
 70
    11
 71
     3
 72
    17
 73
    13
 74
     0
 42
0.0000000001
 43
0.0000000001
 12
1.0
 22
0.0
 32
0.0
 13
1.0
 23
0.0
 33
0.0
 40
0.0
 40
0.0
 40
0.0
 40
0.0
 40
1.0
 40
1.0
 40
1.0
 40
2.0
 40
2.0
 40
2.0
 40
3.0
 40
3.0
 40
3.0
 40
4.0
 40
4.0
 40
4.0
 40
4.0
 10
84.96984172112762
 20
-130.9088130228281
 30
0.0
 10
84.96984172112762
 20
-131.3229035782803
 30
0.0
 10
84.63427950746632
 20
-131.6588185781962
 30
0.0
 10
84.22018896247509
 20
-131.6588185781962
 30
0.0
 10
83.80574563971508
 20
-131.6588185781962
 30
0.0
 10
83.46983064828498
 20
-131.3229035782803
 30
0.0
 10
83.46983064828498
 20
-130.9088130228281
 30
0.0
 10
83.46983064828498
 20
-130.4947224673765
 30
0.0
 10
83.80574563971508
 20
-130.1588074674606
 30
0.0
 10
84.22018896247509
 20
-130.1588074674606
 30
0.0
 10
84.63427950746632
 20
-130.1588074674606
 30
0.0
 10
84.96984172112762
 20
-130.4947224673765
 30
0.0
 10
84.96984172112762
 20
-130.9088130228281
 30
0.0
  0
SPLINE
  5
131
330
1F
100
AcDbEntity
  8
_U+30EC_U+30A4_U+30E4_U+30FC 1
 62
   179
420
  2234388
370
    18
100
AcDbSpline
210
0.0
220
0.0
230
1.0
 70
    11
 71
     3
 72
    17
 73
    13
 74
     0
 42
0.0000000001
 43
0.0000000001
 12
1.0
 22
0.0
 32
0.0
 13
1.0
 23
0.0
 33
0.0
 40
0.0
 40
0.0
 40
0.0
 40
0.0
 40
1.0
 40
1.0
 40
1.0
 40
2.0
 40
2.0
 40
2.0
 40
3.0
 40
3.0
 40
3.0
 40
4.0
 40
4.0
 40
4.0
 40
4.0
 10
85.72016475754084
 20
-130.9091658006058
 30
0.0
 10
85.72016475754084
 20
-131.737699689288
 30
0.0
 10
85.04837220096024
 20
-132.4091416335646
 30
0.0
 10
84.22018896247509
 20
-132.4091416335646
 30
0.0
 10
83.39161981694699
 20
-132.4091416335646
 30
0.0
 10
82.72017788963245
 20
-131.737699689288
 30
0.0
 10
82.72017788963245
 20
-130.9091658006058
 30
0.0
 10
82.72017788963245
 20
-130.0809494119239
 30
0.0
 10
83.39161981694699
 20
-129.4088019120925
 30
0.0
 10
84.22018896247509
 20
-129.4088019120925
 30
0.0
 10
85.04837220096024
 20
-129.4088019120925
 30
0.0
 10
85.72016475754084
 20
-130.0809494119239
 30
0.0
 10
85.72016475754084
 20
-130.9091658006058
 30
0.0
  0
ENDSEC
  0
SECTION
  2
OBJECTS
  0
DICTIONARY
  5
C
330
0
100
AcDbDictionary
281
     1
  3
ACAD_GROUP
350
D
  3
ACAD_LAYOUT
350
1A
  3
ACAD_MATERIAL
350
3B
  3
ACAD_MLEADERSTYLE
350
133
  3
ACAD_MLINESTYLE
350
17
  3
ACAD_PLOTSETTINGS
350
19
  3
ACAD_PLOTSTYLENAME
350
E
  3
ACAD_TABLESTYLE
350
132
  3
ACAD_VISUALSTYLE
350
2A
  0
SUN
  5
3F
330
29
100
AcDbSun
 90
        1
290
     0
 63
     7
421
 16777215
 40
1.0
291
     1
 91
  2455826
 92
 54000000
292
     0
 70
     2
 71
   256
280
     1
  0
DICTIONARY
  5
D
102
{ACAD_REACTORS
330
C
102
}
330
C
100
AcDbDictionary
281
     1
  0
DICTIONARY
  5
1A
102
{ACAD_REACTORS
330
C
102
}
330
C
100
AcDbDictionary
281
     1
  3
Layout1
350
1E
  3
Layout2
350
26
  3
Model
350
22
  0
DICTIONARY
  5
3B
102
{ACAD_REACTORS
330
C
102
}
330
C
100
AcDbDictionary
281
     1
  3
ByBlock
350
3D
  3
ByLayer
350
3C
  3
Global
350
3E
  0
DICTIONARY
  5
133
102
{ACAD_REACTORS
330
C
102
}
330
C
100
AcDbDictionary
281
     1
  0
DICTIONARY
  5
17
102
{ACAD_REACTORS
330
C
102
}
330
C
100
AcDbDictionary
281
     1
  3
Standard
350
18
  0
DICTIONARY
  5
19
102
{ACAD_REACTORS
330
C
102
}
330
C
100
AcDbDictionary
281
     1
  0
ACDBDICTIONARYWDFLT
  5
E
102
{ACAD_REACTORS
330
C
102
}
330
C
100
AcDbDictionary
281
     1
  3
Normal
350
F
100
AcDbDictionaryWithDefault
340
F
  0
DICTIONARY
  5
132
102
{ACAD_REACTORS
330
C
102
}
330
C
100
AcDbDictionary
281
     1
  0
DICTIONARY
  5
2A
102
{ACAD_REACTORS
330
C
102
}
330
C
100
AcDbDictionary
281
     1
  3
2dWireframe
350
2F
  3
3D Hidden
350
31
  3
3dWireframe
350
30
  3
Basic
350
32
  3
Brighten
350
36
  3
ColorChange
350
3A
  3
Conceptual
350
34
  3
Dim
350
35
  3
Facepattern
350
39
  3
Flat
350
2B
  3
FlatWithEdges
350
2C
  3
Gouraud
350
2D
  3
GouraudWithEdges
350
2E
  3
Linepattern
350
38
  3
Realistic
350
33
  3
Thicken
350
37
  0
LAYOUT
  5
1E
102
{ACAD_REACTORS
330
1A
102
}
330
1A
100
AcDbPlotSettings
  1

  2
none_device
  4

  6

 40
0.0
 41
0.0
 42
0.0
 43
0.0
 44
0.0
 45
0.0
 46
0.0
 47
0.0
 48
0.0
 49
0.0
140
0.0
141
0.0
142
1.0
143
1.0
 70
   688
 72
     0
 73
     0
 74
     5
  7

 75
    16
 76
     0
 77
     2
 78
   300
147
1.0
148
0.0
149
0.0
100
AcDbLayout
  1
Layout1
 70
     1
 71
     1
 10
0.0
 20
0.0
 11
12.0
 21
9.0
 12
0.0
 22
0.0
 32
0.0
 14
1.000000000000000E+20
 24
1.000000000000000E+20
 34
1.000000000000000E+20
 15
-1.000000000000000E+20
 25
-1.000000000000000E+20
 35
-1.000000000000000E+20
146
0.0
 13
0.0
 23
0.0
 33
0.0
 16
1.0
 26
0.0
 36
0.0
 17
0.0
 27
1.0
 37
0.0
 76
     0
330
1B
  0
LAYOUT
  5
26
102
{ACAD_REACTORS
330
1A
102
}
330
1A
100
AcDbPlotSettings
  1

  2
none_device
  4

  6

 40
0.0
 41
0.0
 42
0.0
 43
0.0
 44
0.0
 45
0.0
 46
0.0
 47
0.0
 48
0.0
 49
0.0
140
0.0
141
0.0
142
1.0
143
1.0
 70
   688
 72
     0
 73
     0
 74
     5
  7

 75
    16
 76
     0
 77
     2
 78
   300
147
1.0
148
0.0
149
0.0
100
AcDbLayout
  1
Layout2
 70
     1
 71
     2
 10
0.0
 20
0.0
 11
0.0
 21
0.0
 12
0.0
 22
0.0
 32
0.0
 14
0.0
 24
0.0
 34
0.0
 15
0.0
 25
0.0
 35
0.0
146
0.0
 13
0.0
 23
0.0
 33
0.0
 16
1.0
 26
0.0
 36
0.0
 17
0.0
 27
1.0
 37
0.0
 76
     0
330
23
  0
LAYOUT
  5
22
102
{ACAD_REACTORS
330
1A
102
}
330
1A
100
AcDbPlotSettings
  1

  2
none_device
  4

  6

 40
0.0
 41
0.0
 42
0.0
 43
0.0
 44
0.0
 45
0.0
 46
0.0
 47
0.0
 48
0.0
 49
0.0
140
0.0
141
0.0
142
1.0
143
1.0
 70
  1712
 72
     0
 73
     0
 74
     0
  7

 75
     0
 76
     0
 77
     2
 78
   300
147
1.0
148
0.0
149
0.0
100
AcDbLayout
  1
Model
 70
     1
 71
     0
 10
0.0
 20
0.0
 11
12.0
 21
9.0
 12
0.0
 22
0.0
 32
0.0
 14
1.000000000000000E+20
 24
1.000000000000000E+20
 34
1.000000000000000E+20
 15
-1.000000000000000E+20
 25
-1.000000000000000E+20
 35
-1.000000000000000E+20
146
0.0
 13
0.0
 23
0.0
 33
0.0
 16
1.0
 26
0.0
 36
0.0
 17
0.0
 27
1.0
 37
0.0
 76
     0
330
1F
331
29
  0
MATERIAL
  5
3D
102
{ACAD_REACTORS
330
3B
102
}
330
3B
100
AcDbMaterial
  1
ByBlock
 72
     1
 94
      127
  0
MATERIAL
  5
3C
102
{ACAD_REACTORS
330
3B
102
}
330
3B
100
AcDbMaterial
  1
ByLayer
 72
     1
 94
      127
  0
MATERIAL
  5
3E
102
{ACAD_REACTORS
330
3B
102
}
330
3B
100
AcDbMaterial
  1
Global
 72
     1
 94
      127
  0
MLINESTYLE
  5
18
102
{ACAD_REACTORS
330
17
102
}
330
17
100
AcDbMlineStyle
  2
Standard
 70
     0
  3

 62
   256
 51
90.0
 52
90.0
 71
     2
 49
0.5
 62
   256
  6
BYLAYER
 49
-0.5
 62
   256
  6
BYLAYER
  0
ACDBPLACEHOLDER
  5
F
102
{ACAD_REACTORS
330
E
102
}
330
E
  0
VISUALSTYLE
  5
2F
102
{ACAD_REACTORS
330
2A
102
}
330
2A
100
AcDbVisualStyle
  2
2dWireframe
 70
     4
177
     2
291
     0
 71
     0
176
     1
 72
     2
176
     1
 73
     0
176
     1
 90
        0
176
     1
 40
-0.6
176
     1
 41
-30.0
176
     1
 62
     5
 63
     7
421
 16777215
176
     1
 74
     1
176
     1
 91
        4
176
     1
 64
     7
176
     1
 65
   257
176
     1
 75
     1
176
     1
175
     1
176
     1
 42
1.0
176
     1
 92
        0
176
     1
 66
   257
176
     1
 43
1.0
176
     1
 76
     1
176
     1
 77
     6
176
     1
 78
     2
176
     1
 67
     7
176
     1
 79
     5
176
     1
170
     0
176
     1
171
     0
176
     1
290
     0
176
     1
 93
        1
176
     1
 44
0.0
176
     1
173
     0
176
     1
  0
VISUALSTYLE
  5
31
102
{ACAD_REACTORS
330
2A
102
}
330
2A
100
AcDbVisualStyle
  2
3D Hidden
 70
     6
177
     2
291
     0
 71
     1
176
     1
 72
     2
176
     1
 73
     2
176
     1
 90
        0
176
     1
 40
-0.6
176
     1
 41
-30.0
176
     1
 62
     5
 63
     7
421
 16777215
176
     1
 74
     2
176
     1
 91
        2
176
     1
 64
     7
176
     1
 65
   257
176
     1
 75
     2
176
     1
175
     1
176
     1
 42
40.0
176
     1
 92
        0
176
     1
 66
   257
176
     1
 43
1.0
176
     1
 76
     1
176
     1
 77
     6
176
     1
 78
     2
176
     1
 67
     7
176
     1
 79
     3
176
     1
170
     0
176
     1
171
     0
176
     1
290
     0
176
     1
 93
        1
176
     1
 44
0.0
176
     1
173
     0
176
     1
  0
VISUALSTYLE
  5
30
102
{ACAD_REACTORS
330
2A
102
}
330
2A
100
AcDbVisualStyle
  2
3dWireframe
 70
     5
177
     2
291
     0
 71
     0
176
     1
 72
     2
176
     1
 73
     0
176
     1
 90
        0
176
     1
 40
-0.6
176
     1
 41
-30.0
176
     1
 62
     5
 63
     7
421
 16777215
176
     1
 74
     1
176
     1
 91
        4
176
     1
 64
     7
176
     1
 65
   257
176
     1
 75
     1
176
     1
175
     1
176
     1
 42
1.0
176
     1
 92
        0
176
     1
 66
   257
176
     1
 43
1.0
176
     1
 76
     1
176
     1
 77
     6
176
     1
 78
     2
176
     1
 67
     7
176
     1
 79
     5
176
     1
170
     0
176
     1
171
     0
176
     1
290
     0
176
     1
 93
        1
176
     1
 44
0.0
176
     1
173
     0
176
     1
  0
VISUALSTYLE
  5
32
102
{ACAD_REACTORS
330
2A
102
}
330
2A
100
AcDbVisualStyle
  2
Basic
 70
     7
177
     2
291
     1
 71
     1
176
     1
 72
     0
176
     1
 73
     1
176
     1
 90
        0
176
     1
 40
-0.6
176
     1
 41
-30.0
176
     1
 62
     5
 63
     7
421
 16777215
176
     1
 74
     0
176
     1
 91
        4
176
     1
 64
     7
176
     1
 65
   257
176
     1
 75
     1
176
     1
175
     1
176
     1
 42
1.0
176
     1
 92
        8
176
     1
 66
     7
176
     1
 43
1.0
176
     1
 76
     1
176
     1
 77
     6
176
     1
 78
     2
176
     1
 67
     7
176
     1
 79
     5
176
     1
170
     0
176
     1
171
     0
176
     1
290
     0
176
     1
 93
        1
176
     1
 44
0.0
176
     1
173
     0
176
     1
  0
VISUALSTYLE
  5
36
102
{ACAD_REACTORS
330
2A
102
}
330
2A
100
AcDbVisualStyle
  2
Brighten
 70
    12
177
     2
291
     1
 71
     2
176
     1
 72
     2
176
     1
 73
     0
176
     1
 90
        0
176
     1
 40
-0.6
176
     1
 41
-30.0
176
     1
 62
     5
 63
     7
421
 16777215
176
     1
 74
     1
176
     1
 91
        4
176
     1
 64
     7
176
     1
 65
   257
176
     1
 75
     1
176
     1
175
     1
176
     1
 42
1.0
176
     1
 92
        8
176
     1
 66
     7
176
     1
 43
1.0
176
     1
 76
     1
176
     1
 77
     6
176
     1
 78
     2
176
     1
 67
     7
176
     1
 79
     5
176
     1
170
     0
176
     1
171
     0
176
     1
290
     0
176
     1
 93
        1
176
     1
 44
50.0
176
     1
173
     0
176
     1
  0
VISUALSTYLE
  5
3A
102
{ACAD_REACTORS
330
2A
102
}
330
2A
100
AcDbVisualStyle
  2
ColorChange
 70
    16
177
     2
291
     1
 71
     2
176
     1
 72
     2
176
     1
 73
     3
176
     1
 90
        0
176
     1
 40
-0.6
176
     1
 41
-30.0
176
     1
 62
     5
 63
     8
421
  8421504
176
     1
 74
     1
176
     1
 91
        4
176
     1
 64
     7
176
     1
 65
   257
176
     1
 75
     1
176
     1
175
     1
176
     1
 42
1.0
176
     1
 92
        8
176
     1
 66
     8
424
  8421504
176
     1
 43
1.0
176
     1
 76
     1
176
     1
 77
     6
176
     1
 78
     2
176
     1
 67
     7
176
     1
 79
     5
176
     1
170
     0
176
     1
171
     0
176
     1
290
     0
176
     1
 93
        1
176
     1
 44
0.0
176
     1
173
     0
176
     1
  0
VISUALSTYLE
  5
34
102
{ACAD_REACTORS
330
2A
102
}
330
2A
100
AcDbVisualStyle
  2
Conceptual
 70
     9
177
     2
291
     0
 71
     3
176
     1
 72
     2
176
     1
 73
     0
176
     1
 90
        0
176
     1
 40
-0.6
176
     1
 41
-30.0
176
     1
 62
     5
 63
     7
421
 16777215
176
     1
 74
     2
176
     1
 91
        2
176
     1
 64
     7
176
     1
 65
   257
176
     1
 75
     1
176
     1
175
     1
176
     1
 42
40.0
176
     1
 92
        8
176
     1
 66
     7
176
     1
 43
1.0
176
     1
 76
     1
176
     1
 77
     6
176
     1
 78
     2
176
     1
 67
     7
176
     1
 79
     3
176
     1
170
     0
176
     1
171
     0
176
     1
290
     0
176
     1
 93
        1
176
     1
 44
0.0
176
     1
173
     0
176
     1
  0
VISUALSTYLE
  5
35
102
{ACAD_REACTORS
330
2A
102
}
330
2A
100
AcDbVisualStyle
  2
Dim
 70
    11
177
     2
291
     1
 71
     2
176
     1
 72
     2
176
     1
 73
     0
176
     1
 90
        0
176
     1
 40
-0.6
176
     1
 41
-30.0
176
     1
 62
     5
 63
     7
421
 16777215
176
     1
 74
     1
176
     1
 91
        4
176
     1
 64
     7
176
     1
 65
   257
176
     1
 75
     1
176
     1
175
     1
176
     1
 42
1.0
176
     1
 92
        8
176
     1
 66
     7
176
     1
 43
1.0
176
     1
 76
     1
176
     1
 77
     6
176
     1
 78
     2
176
     1
 67
     7
176
     1
 79
     5
176
     1
170
     0
176
     1
171
     0
176
     1
290
     0
176
     1
 93
        1
176
     1
 44
-50.0
176
     1
173
     0
176
     1
  0
VISUALSTYLE
  5
39
102
{ACAD_REACTORS
330
2A
102
}
330
2A
100
AcDbVisualStyle
  2
Facepattern
 70
    15
177
     2
291
     1
 71
     2
176
     1
 72
     2
176
     1
 73
     0
176
     1
 90
        0
176
     1
 40
-0.6
176
     1
 41
-30.0
176
     1
 62
     5
 63
     7
421
 16777215
176
     1
 74
     1
176
     1
 91
        4
176
     1
 64
     7
176
     1
 65
   257
176
     1
 75
     1
176
     1
175
     1
176
     1
 42
1.0
176
     1
 92
        8
176
     1
 66
     7
176
     1
 43
1.0
176
     1
 76
     1
176
     1
 77
     6
176
     1
 78
     2
176
     1
 67
     7
176
     1
 79
     5
176
     1
170
     0
176
     1
171
     0
176
     1
290
     0
176
     1
 93
        1
176
     1
 44
0.0
176
     1
173
     0
176
     1
  0
VISUALSTYLE
  5
2B
102
{ACAD_REACTORS
330
2A
102
}
330
2A
100
AcDbVisualStyle
  2
Flat
 70
     0
177
     2
291
     1
 71
     2
176
     1
 72
     1
176
     1
 73
     1
176
     1
 90
        2
176
     1
 40
-0.6
176
     1
 41
30.0
176
     1
 62
     5
 63
     7
421
 16777215
176
     1
 74
     0
176
     1
 91
        4
176
     1
 64
     7
176
     1
 65
   257
176
     1
 75
     1
176
     1
175
     1
176
     1
 42
1.0
176
     1
 92
        8
176
     1
 66
     7
176
     1
 43
1.0
176
     1
 76
     1
176
     1
 77
     6
176
     1
 78
     2
176
     1
 67
     7
176
     1
 79
     5
176
     1
170
     0
176
     1
171
     0
176
     1
290
     0
176
     1
 93
       13
176
     1
 44
0.0
176
     1
173
     0
176
     1
  0
VISUALSTYLE
  5
2C
102
{ACAD_REACTORS
330
2A
102
}
330
2A
100
AcDbVisualStyle
  2
FlatWithEdges
 70
     1
177
     2
291
     1
 71
     2
176
     1
 72
     1
176
     1
 73
     1
176
     1
 90
        2
176
     1
 40
-0.6
176
     1
 41
30.0
176
     1
 62
     5
 63
     7
421
 16777215
176
     1
 74
     1
176
     1
 91
        4
176
     1
 64
     7
176
     1
 65
   257
176
     1
 75
     1
176
     1
175
     1
176
     1
 42
1.0
176
     1
 92
        0
176
     1
 66
   257
176
     1
 43
1.0
176
     1
 76
     1
176
     1
 77
     6
176
     1
 78
     2
176
     1
 67
     7
176
     1
 79
     5
176
     1
170
     0
176
     1
171
     0
176
     1
290
     0
176
     1
 93
       13
176
     1
 44
0.0
176
     1
173
     0
176
     1
  0
VISUALSTYLE
  5
2D
102
{ACAD_REACTORS
330
2A
102
}
330
2A
100
AcDbVisualStyle
  2
Gouraud
 70
     2
177
     2
291
     1
 71
     2
176
     1
 72
     2
176
     1
 73
     1
176
     1
 90
        2
176
     1
 40
-0.6
176
     1
 41
30.0
176
     1
 62
     5
 63
     7
421
 16777215
176
     1
 74
     0
176
     1
 91
        4
176
     1
 64
     7
176
     1
 65
   257
176
     1
 75
     1
176
     1
175
     1
176
     1
 42
1.0
176
     1
 92
        0
176
     1
 66
     7
176
     1
 43
1.0
176
     1
 76
     1
176
     1
 77
     6
176
     1
 78
     2
176
     1
 67
     7
176
     1
 79
     5
176
     1
170
     0
176
     1
171
     0
176
     1
290
     0
176
     1
 93
       13
176
     1
 44
0.0
176
     1
173
     0
176
     1
  0
VISUALSTYLE
  5
2E
102
{ACAD_REACTORS
330
2A
102
}
330
2A
100
AcDbVisualStyle
  2
GouraudWithEdges
 70
     3
177
     2
291
     1
 71
     2
176
     1
 72
     2
176
     1
 73
     1
176
     1
 90
        2
176
     1
 40
-0.6
176
     1
 41
30.0
176
     1
 62
     5
 63
     7
421
 16777215
176
     1
 74
     1
176
     1
 91
        4
176
     1
 64
     7
176
     1
 65
   257
176
     1
 75
     1
176
     1
175
     1
176
     1
 42
1.0
176
     1
 92
        0
176
     1
 66
   257
176
     1
 43
1.0
176
     1
 76
     1
176
     1
 77
     6
176
     1
 78
     2
176
     1
 67
     7
176
     1
 79
     5
176
     1
170
     0
176
     1
171
     0
176
     1
290
     0
176
     1
 93
       13
176
     1
 44
0.0
176
     1
173
     0
176
     1
  0
VISUALSTYLE
  5
38
102
{ACAD_REACTORS
330
2A
102
}
330
2A
100
AcDbVisualStyle
  2
Linepattern
 70
    14
177
     2
291
     1
 71
     2
176
     1
 72
     2
176
     1
 73
     0
176
     1
 90
        0
176
     1
 40
-0.6
176
     1
 41
-30.0
176
     1
 62
     5
 63
     7
421
 16777215
176
     1
 74
     1
176
     1
 91
        4
176
     1
 64
     7
176
     1
 65
   257
176
     1
 75
     7
176
     1
175
     7
176
     1
 42
1.0
176
     1
 92
        8
176
     1
 66
     7
176
     1
 43
1.0
176
     1
 76
     1
176
     1
 77
     6
176
     1
 78
     2
176
     1
 67
     7
176
     1
 79
     5
176
     1
170
     0
176
     1
171
     0
176
     1
290
     0
176
     1
 93
        1
176
     1
 44
0.0
176
     1
173
     0
176
     1
  0
VISUALSTYLE
  5
33
102
{ACAD_REACTORS
330
2A
102
}
330
2A
100
AcDbVisualStyle
  2
Realistic
 70
     8
177
     2
291
     0
 71
     2
176
     1
 72
     2
176
     1
 73
     0
176
     1
 90
        0
176
     1
 40
-0.6
176
     1
 41
-30.0
176
     1
 62
     5
 63
     7
421
 16777215
176
     1
 74
     1
176
     1
 91
        0
176
     1
 64
     7
176
     1
 65
   257
176
     1
 75
     1
176
     1
175
     1
176
     1
 42
1.0
176
     1
 92
        8
176
     1
 66
     8
424
  7895160
176
     1
 43
1.0
176
     1
 76
     1
176
     1
 77
     6
176
     1
 78
     2
176
     1
 67
     7
176
     1
 79
     5
176
     1
170
     0
176
     1
171
     0
176
     1
290
     0
176
     1
 93
       13
176
     1
 44
0.0
176
     1
173
     0
176
     1
  0
VISUALSTYLE
  5
37
102
{ACAD_REACTORS
330
2A
102
}
330
2A
100
AcDbVisualStyle
  2
Thicken
 70
    13
177
     2
291
     1
 71
     2
176
     1
 72
     2
176
     1
 73
     0
176
     1
 90
        0
176
     1
 40
-0.6
176
     1
 41
-30.0
176
     1
 62
     5
 63
     7
421
 16777215
176
     1
 74
     1
176
     1
 91
        4
176
     1
 64
     7
176
     1
 65
   257
176
     1
 75
     1
176
     1
175
     1
176
     1
 42
1.0
176
     1
 92
       12
176
     1
 66
     7
176
     1
 43
1.0
176
     1
 76
     1
176
     1
 77
     6
176
     1
 78
     2
176
     1
 67
     7
176
     1
 79
     5
176
     1
170
     0
176
     1
171
     0
176
     1
290
     0
176
     1
 93
        1
176
     1
 44
0.0
176
     1
173
     0
176
     1
  0
ENDSEC
  0
EOF
