  0
SECTION
  2
HEADER
  9
$ACADVER
  1
AC1024
  9
$ACADMAINTVER
 70
     6
  9
$DWGCODEPAGE
  3
UNDEFINED
  9
$INSBASE
 10
0.0
 20
0.0
 30
0.0
  9
$EXTMIN
 10
1.000000000000000E+20
 20
1.000000000000000E+20
 30
1.000000000000000E+20
  9
$EXTMAX
 10
-1.000000000000000E+20
 20
-1.000000000000000E+20
 30
-1.000000000000000E+20
  9
$LIMMIN
 10
0.0
 20
0.0
  9
$LIMMAX
 10
12.0
 20
9.0
  9
$ORTHOMODE
 70
     0
  9
$REGENMODE
 70
     1
  9
$FILLMODE
 70
     1
  9
$QTEXTMODE
 70
     0
  9
$MIRRTEXT
 70
     1
  9
$LTSCALE
 40
1.0
  9
$ATTMODE
 70
     1
  9
$TEXTSIZE
 40
0.2
  9
$TRACEWID
 40
0.05
  9
$TEXTSTYLE
  7
Standard
  9
$CLAYER
  8
0
  9
$CELTYPE
  6
ByLayer
  9
$CECOLOR
 62
   256
  9
$CELTSCALE
 40
1.0
  9
$DISPSILH
 70
     0
  9
$DIMSCALE
 40
1.0
  9
$DIMASZ
 40
0.18
  9
$DIMEXO
 40
0.0625
  9
$DIMDLI
 40
0.38
  9
$DIMRND
 40
0.0
  9
$DIMDLE
 40
0.0
  9
$DIMEXE
 40
0.18
  9
$DIMTP
 40
0.0
  9
$DIMTM
 40
0.0
  9
$DIMTXT
 40
0.18
  9
$DIMCEN
 40
0.09
  9
$DIMTSZ
 40
0.0
  9
$DIMTOL
 70
     0
  9
$DIMLIM
 70
     0
  9
$DIMTIH
 70
     1
  9
$DIMTOH
 70
     1
  9
$DIMSE1
 70
     0
  9
$DIMSE2
 70
     0
  9
$DIMTAD
 70
     0
  9
$DIMZIN
 70
     0
  9
$DIMBLK
  1

  9
$DIMASO
 70
     1
  9
$DIMSHO
 70
     1
  9
$DIMPOST
  1

  9
$DIMAPOST
  1

  9
$DIMALT
 70
     0
  9
$DIMALTD
 70
     2
  9
$DIMALTF
 40
25.4
  9
$DIMLFAC
 40
1.0
  9
$DIMTOFL
 70
     0
  9
$DIMTVP
 40
0.0
  9
$DIMTIX
 70
     0
  9
$DIMSOXD
 70
     0
  9
$DIMSAH
 70
     0
  9
$DIMBLK1
  1

  9
$DIMBLK2
  1

  9
$DIMSTYLE
  2
Standard
  9
$DIMCLRD
 70
     0
  9
$DIMCLRE
 70
     0
  9
$DIMCLRT
 70
     0
  9
$DIMTFAC
 40
1.0
  9
$DIMGAP
 40
0.09
  9
$DIMJUST
 70
     0
  9
$DIMSD1
 70
     0
  9
$DIMSD2
 70
     0
  9
$DIMTOLJ
 70
     1
  9
$DIMTZIN
 70
     0
  9
$DIMALTZ
 70
     0
  9
$DIMALTTZ
 70
     0
  9
$DIMUPT
 70
     0
  9
$DIMDEC
 70
     4
  9
$DIMTDEC
 70
     4
  9
$DIMALTU
 70
     2
  9
$DIMALTTD
 70
     2
  9
$DIMTXSTY
  7
Standard
  9
$DIMAUNIT
 70
     0
  9
$DIMADEC
 70
     0
  9
$DIMALTRND
 40
0.0
  9
$DIMAZIN
 70
     0
  9
$DIMDSEP
 70
    46
  9
$DIMATFIT
 70
     3
  9
$DIMFRAC
 70
     0
  9
$DIMLDRBLK
  1

  9
$DIMLUNIT
 70
     2
  9
$DIMLWD
 70
    -2
  9
$DIMLWE
 70
    -2
  9
$DIMTMOVE
 70
     0
  9
$DIMFXL
 40
1.0
  9
$DIMFXLON
 70
     0
  9
$DIMJOGANG
 40
0.7853981633974483
  9
$DIMTFILL
 70
     0
  9
$DIMTFILLCLR
 70
     0
  9
$DIMARCSYM
 70
     0
  9
$DIMLTYPE
  6

  9
$DIMLTEX1
  6

  9
$DIMLTEX2
  6

  9
$DIMTXTDIRECTION
 70
     0
  9
$LUNITS
 70
     2
  9
$LUPREC
 70
     4
  9
$SKETCHINC
 40
0.1
  9
$FILLETRAD
 40
0.5
  9
$AUNITS
 70
     0
  9
$AUPREC
 70
     0
  9
$MENU
  1
.
  9
$ELEVATION
 40
0.0
  9
$PELEVATION
 40
0.0
  9
$THICKNESS
 40
0.0
  9
$LIMCHECK
 70
     0
  9
$CHAMFERA
 40
0.5
  9
$CHAMFERB
 40
0.5
  9
$CHAMFERC
 40
1.0
  9
$CHAMFERD
 40
0.0
  9
$SKPOLY
 70
     0
  9
$TDCREATE
 40
2457917.631111099
  9
$TDUCREATE
 40
2457917.256111111
  9
$TDUPDATE
 40
2457917.631111099
  9
$TDUUPDATE
 40
2457917.256111111
  9
$TDINDWG
 40
0.0000000116
  9
$TDUSRTIMER
 40
0.0000000116
  9
$USRTIMER
 70
     1
  9
$ANGBASE
 50
0.0
  9
$ANGDIR
 70
     0
  9
$PDMODE
 70
     0
  9
$PDSIZE
 40
0.0
  9
$PLINEWID
 40
0.0
  9
$SPLFRAME
 70
     0
  9
$SPLINETYPE
 70
     6
  9
$SPLINESEGS
 70
     8
  9
$HANDSEED
  5
15C
  9
$SURFTAB1
 70
     6
  9
$SURFTAB2
 70
     6
  9
$SURFTYPE
 70
     6
  9
$SURFU
 70
     6
  9
$SURFV
 70
     6
  9
$UCSBASE
  2

  9
$UCSNAME
  2

  9
$UCSORG
 10
0.0
 20
0.0
 30
0.0
  9
$UCSXDIR
 10
1.0
 20
0.0
 30
0.0
  9
$UCSYDIR
 10
0.0
 20
1.0
 30
0.0
  9
$UCSORTHOREF
  2

  9
$UCSORTHOVIEW
 70
     0
  9
$UCSORGTOP
 10
0.0
 20
0.0
 30
0.0
  9
$UCSORGBOTTOM
 10
0.0
 20
0.0
 30
0.0
  9
$UCSORGLEFT
 10
0.0
 20
0.0
 30
0.0
  9
$UCSORGRIGHT
 10
0.0
 20
0.0
 30
0.0
  9
$UCSORGFRONT
 10
0.0
 20
0.0
 30
0.0
  9
$UCSORGBACK
 10
0.0
 20
0.0
 30
0.0
  9
$PUCSBASE
  2

  9
$PUCSNAME
  2

  9
$PUCSORG
 10
0.0
 20
0.0
 30
0.0
  9
$PUCSXDIR
 10
1.0
 20
0.0
 30
0.0
  9
$PUCSYDIR
 10
0.0
 20
1.0
 30
0.0
  9
$PUCSORTHOREF
  2

  9
$PUCSORTHOVIEW
 70
     0
  9
$PUCSORGTOP
 10
0.0
 20
0.0
 30
0.0
  9
$PUCSORGBOTTOM
 10
0.0
 20
0.0
 30
0.0
  9
$PUCSORGLEFT
 10
0.0
 20
0.0
 30
0.0
  9
$PUCSORGRIGHT
 10
0.0
 20
0.0
 30
0.0
  9
$PUCSORGFRONT
 10
0.0
 20
0.0
 30
0.0
  9
$PUCSORGBACK
 10
0.0
 20
0.0
 30
0.0
  9
$USERI1
 70
     0
  9
$USERI2
 70
     0
  9
$USERI3
 70
     0
  9
$USERI4
 70
     0
  9
$USERI5
 70
     0
  9
$USERR1
 40
0.0
  9
$USERR2
 40
0.0
  9
$USERR3
 40
0.0
  9
$USERR4
 40
0.0
  9
$USERR5
 40
0.0
  9
$WORLDVIEW
 70
     1
  9
$SHADEDGE
 70
     3
  9
$SHADEDIF
 70
    70
  9
$TILEMODE
 70
     1
  9
$MAXACTVP
 70
    64
  9
$PINSBASE
 10
0.0
 20
0.0
 30
0.0
  9
$PLIMCHECK
 70
     0
  9
$PEXTMIN
 10
1.000000000000000E+20
 20
1.000000000000000E+20
 30
1.000000000000000E+20
  9
$PEXTMAX
 10
-1.000000000000000E+20
 20
-1.000000000000000E+20
 30
-1.000000000000000E+20
  9
$PLIMMIN
 10
0.0
 20
0.0
  9
$PLIMMAX
 10
12.0
 20
9.0
  9
$UNITMODE
 70
     0
  9
$VISRETAIN
 70
     1
  9
$PLINEGEN
 70
     0
  9
$PSLTSCALE
 70
     1
  9
$TREEDEPTH
 70
  3020
  9
$CMLSTYLE
  2
Standard
  9
$CMLJUST
 70
     0
  9
$CMLSCALE
 40
1.0
  9
$PROXYGRAPHICS
 70
     1
  9
$MEASUREMENT
 70
     0
  9
$CELWEIGHT
370
    -1
  9
$ENDCAPS
280
     0
  9
$JOINSTYLE
280
     0
  9
$LWDISPLAY
290
     1
  9
$INSUNITS
 70
     1
  9
$HYPERLINKBASE
  1

  9
$STYLESHEET
  1

  9
$XEDIT
290
     1
  9
$CEPSNTYPE
380
     0
  9
$PSTYLEMODE
290
     1
  9
$FINGERPRINTGUID
  2
{AAB8D521-2D01-C83C-4E2A-32D8308FB614}
  9
$VERSIONGUID
  2
{FAEB1C32-E019-11D5-929B-00C0DF256EC4}
  9
$EXTNAMES
290
     1
  9
$PSVPSCALE
 40
0.0
  9
$OLESTARTUP
290
     0
  9
$SORTENTS
280
   127
  9
$INDEXCTL
280
     0
  9
$HIDETEXT
280
     1
  9
$XCLIPFRAME
280
     2
  9
$HALOGAP
280
     0
  9
$OBSCOLOR
 70
   257
  9
$OBSLTYPE
280
     0
  9
$INTERSECTIONDISPLAY
280
     0
  9
$INTERSECTIONCOLOR
 70
   257
  9
$DIMASSOC
280
     2
  9
$PROJECTNAME
  1

  9
$CAMERADISPLAY
290
     0
  9
$LENSLENGTH
 40
50.0
  9
$CAMERAHEIGHT
 40
0.0
  9
$STEPSPERSEC
 40
2.0
  9
$STEPSIZE
 40
6.0
  9
$3DDWFPREC
 40
2.0
  9
$PSOLWIDTH
 40
0.25
  9
$PSOLHEIGHT
 40
4.0
  9
$LOFTANG1
 40
1.570796326794897
  9
$LOFTANG2
 40
1.570796326794897
  9
$LOFTMAG1
 40
0.0
  9
$LOFTMAG2
 40
0.0
  9
$LOFTPARAM
 70
     7
  9
$LOFTNORMALS
280
     1
  9
$LATITUDE
 40
37.795
  9
$LONGITUDE
 40
-122.394
  9
$NORTHDIRECTION
 40
0.0
  9
$TIMEZONE
 70
 -8000
  9
$LIGHTGLYPHDISPLAY
280
     1
  9
$TILEMODELIGHTSYNCH
280
     1
  9
$CMATERIAL
347
3C
  9
$SOLIDHIST
280
     1
  9
$SHOWHIST
280
     1
  9
$DWFFRAME
280
     2
  9
$DGNFRAME
280
     2
  9
$REALWORLDSCALE
290
     1
  9
$INTERFERECOLOR
 62
   256
  9
$CSHADOW
280
     0
  9
$SHADOWPLANELOCATION
 40
0.0
  0
ENDSEC
  0
SECTION
  2
CLASSES
  0
CLASS
  1
ACDBDICTIONARYWDFLT
  2
AcDbDictionaryWithDefault
  3
ObjectDBX Classes
 90
        0
 91
        4
280
     0
281
     0
  0
CLASS
  1
VISUALSTYLE
  2
AcDbVisualStyle
  3
ObjectDBX Classes
 90
     4095
 91
        4
280
     0
281
     0
  0
CLASS
  1
MATERIAL
  2
AcDbMaterial
  3
ObjectDBX Classes
 90
     1153
 91
        4
280
     0
281
     0
  0
CLASS
  1
SUN
  2
AcDbSun
  3
SCENEOE
 90
     1024
 91
        4
280
     0
281
     0
  0
ENDSEC
  0
SECTION
  2
TABLES
  0
TABLE
  2
VPORT
  5
8
330
0
100
AcDbSymbolTable
 70
     1
  0
VPORT
  5
29
330
8
100
AcDbSymbolTableRecord
100
AcDbViewportTableRecord
  2
*Active
 70
     0
 10
0.0
 20
0.0
 11
1.0
 21
1.0
 12
0.0
 22
0.0
 13
0.0
 23
0.0
 14
0.5
 24
0.5
 15
0.5
 25
0.5
 16
0.0
 26
0.0
 36
1.0
 17
91.00082462281999
 27
-128.4993055234307
 37
0.0
 40
256.9986110468615
 41
0.7081814508812795
 42
50.0
 43
0.0
 44
0.0
 50
0.0
 51
0.0
 71
     0
 72
   100
 73
     1
 74
     3
 75
     0
 76
     0
 77
     0
 78
     0
281
     0
 65
     1
110
0.0
120
0.0
130
0.0
111
1.0
121
0.0
131
0.0
112
0.0
122
1.0
132
0.0
 79
     0
146
0.0
 60
     3
 61
     5
292
     1
282
     1
141
0.0
142
0.0
 63
   250
361
3F
  0
ENDTAB
  0
TABLE
  2
LTYPE
  5
5
330
0
100
AcDbSymbolTable
 70
     1
  0
LTYPE
  5
14
330
5
100
AcDbSymbolTableRecord
100
AcDbLinetypeTableRecord
  2
ByBlock
 70
     0
  3

 72
    65
 73
     0
 40
0.0
  0
LTYPE
  5
15
330
5
100
AcDbSymbolTableRecord
100
AcDbLinetypeTableRecord
  2
ByLayer
 70
     0
  3

 72
    65
 73
     0
 40
0.0
  0
LTYPE
  5
16
330
5
100
AcDbSymbolTableRecord
100
AcDbLinetypeTableRecord
  2
Continuous
 70
     0
  3
Solid line
 72
    65
 73
     0
 40
0.0
  0
ENDTAB
  0
TABLE
  2
LAYER
  5
2
330
0
100
AcDbSymbolTable
 70
     2
  0
LAYER
  5
10
330
2
100
AcDbSymbolTableRecord
100
AcDbLayerTableRecord
  2
0
 70
     0
 62
     7
  6
Continuous
370
    -3
390
F
347
3E
  0
LAYER
  5
40
330
2
100
AcDbSymbolTableRecord
100
AcDbLayerTableRecord
  2
_U+30EC_U+30A4_U+30E4_U+30FC 1
 70
     0
 62
     7
  6
Continuous
370
    -3
390
F
347
3E
  0
ENDTAB
  0
TABLE
  2
STYLE
  5
3
330
0
100
AcDbSymbolTable
 70
     1
  0
STYLE
  5
11
330
3
100
AcDbSymbolTableRecord
100
AcDbTextStyleTableRecord
  2
Standard
 70
     0
 40
0.0
 41
1.0
 50
0.0
 71
     0
 42
0.2
  3
txt
  4

  0
ENDTAB
  0
TABLE
  2
VIEW
  5
6
330
0
100
AcDbSymbolTable
 70
     0
  0
ENDTAB
  0
TABLE
  2
UCS
  5
7
330
0
100
AcDbSymbolTable
 70
     0
  0
ENDTAB
  0
TABLE
  2
APPID
  5
9
330
0
100
AcDbSymbolTable
 70
     1
  0
APPID
  5
12
330
9
100
AcDbSymbolTableRecord
100
AcDbRegAppTableRecord
  2
ACAD
 70
     0
  0
ENDTAB
  0
TABLE
  2
DIMSTYLE
  5
A
330
0
100
AcDbSymbolTable
 70
     1
100
AcDbDimStyleTable
  0
DIMSTYLE
105
27
330
A
100
AcDbSymbolTableRecord
100
AcDbDimStyleTableRecord
  2
Standard
 70
     0
178
     0
340
11
  0
ENDTAB
  0
TABLE
  2
BLOCK_RECORD
  5
1
330
0
100
AcDbSymbolTable
 70
     8
  0
BLOCK_RECORD
  5
1F
330
1
100
AcDbSymbolTableRecord
100
AcDbBlockTableRecord
  2
*Model_Space
340
22
 70
     0
280
     1
281
     0
  0
BLOCK_RECORD
  5
1B
330
1
100
AcDbSymbolTableRecord
100
AcDbBlockTableRecord
  2
*Paper_Space
340
1E
 70
     0
280
     1
281
     0
  0
BLOCK_RECORD
  5
23
330
1
100
AcDbSymbolTableRecord
100
AcDbBlockTableRecord
  2
*Paper_Space0
340
26
 70
     0
280
     1
281
     0
  0
BLOCK_RECORD
  5
41
330
1
100
AcDbSymbolTableRecord
100
AcDbBlockTableRecord
  2
block 2
340
0
102
{BLKREFS
331
42
102
}
 70
     0
280
     1
281
     0
  0
BLOCK_RECORD
  5
6C
330
1
100
AcDbSymbolTableRecord
100
AcDbBlockTableRecord
  2
block 3
340
0
102
{BLKREFS
331
6D
102
}
 70
     0
280
     1
281
     0
  0
BLOCK_RECORD
  5
7C
330
1
100
AcDbSymbolTableRecord
100
AcDbBlockTableRecord
  2
block 4
340
0
102
{BLKREFS
331
7D
102
}
 70
     0
280
     1
281
     0
  0
BLOCK_RECORD
  5
DD
330
1
100
AcDbSymbolTableRecord
100
AcDbBlockTableRecord
  2
block 5
340
0
102
{BLKREFS
331
DE
102
}
 70
     0
280
     1
281
     0
  0
BLOCK_RECORD
  5
100
330
1
100
AcDbSymbolTableRecord
100
AcDbBlockTableRecord
  2
block 6
340
0
102
{BLKREFS
331
101
102
}
 70
     0
280
     1
281
     0
  0
BLOCK_RECORD
  5
123
330
1
100
AcDbSymbolTableRecord
100
AcDbBlockTableRecord
  2
block 7
340
0
102
{BLKREFS
331
124
102
}
 70
     0
280
     1
281
     0
  0
BLOCK_RECORD
  5
147
330
1
100
AcDbSymbolTableRecord
100
AcDbBlockTableRecord
  2
block 8
340
0
102
{BLKREFS
331
148
102
}
 70
     0
280
     1
281
     0
  0
ENDTAB
  0
ENDSEC
  0
SECTION
  2
BLOCKS
  0
BLOCK
  5
20
330
1F
100
AcDbEntity
  8
0
100
AcDbBlockBegin
  2
*Model_Space
 70
     0
 10
0.0
 20
0.0
 30
0.0
  3
*Model_Space
  1

  0
ENDBLK
  5
21
330
1F
100
AcDbEntity
  8
0
100
AcDbBlockEnd
  0
BLOCK
  5
1C
330
1B
100
AcDbEntity
 67
     1
  8
0
100
AcDbBlockBegin
  2
*Paper_Space
 70
     0
 10
0.0
 20
0.0
 30
0.0
  3
*Paper_Space
  1

  0
ENDBLK
  5
1D
330
1B
100
AcDbEntity
 67
     1
  8
0
100
AcDbBlockEnd
  0
BLOCK
  5
24
330
23
100
AcDbEntity
  8
0
100
AcDbBlockBegin
  2
*Paper_Space0
 70
     0
 10
0.0
 20
0.0
 30
0.0
  3
*Paper_Space0
  1

  0
ENDBLK
  5
25
330
23
100
AcDbEntity
  8
0
100
AcDbBlockEnd
  0
BLOCK
  5
43
330
41
100
AcDbEntity
  8
0
100
AcDbBlockBegin
  2
block 2
 70
     0
 10
0.0
 20
0.0
 30
0.0
  3
block 2
  1

  0
SPLINE
  5
45
330
41
100
AcDbEntity
  8
_U+30EC_U+30A4_U+30E4_U+30FC 1
370
     0
100
AcDbSpline
210
0.0
220
0.0
230
1.0
 70
    11
 71
     3
 72
    23
 73
    19
 74
     0
 42
0.0000000001
 43
0.0000000001
 12
1.0
 22
0.0
 32
0.0
 13
1.0
 23
0.0
 33
0.0
 40
0.0
 40
0.0
 40
0.0
 40
0.0
 40
1.0
 40
1.0
 40
1.0
 40
2.0
 40
2.0
 40
2.0
 40
3.0
 40
3.0
 40
3.0
 40
4.0
 40
4.0
 40
4.0
 40
5.0
 40
5.0
 40
5.0
 40
6.0
 40
6.0
 40
6.0
 40
6.0
 10
78.3635199456869
 20
-137.8300021356814
 30
0.0
 10
78.1173678732658
 20
-138.0429090366698
 30
0.0
 10
77.92547605473739
 20
-138.3026692362577
 30
0.0
 10
77.92547605473739
 20
-138.748464592049
 30
0.0
 10
77.92547605473739
 20
-139.1942599478403
 30
0.0
 10
78.1173678732658
 20
-139.4540201474282
 30
0.0
 10
78.3635199456869
 20
-139.6669270484166
 30
0.0
 10
78.3635199456869
 20
-139.6669270484166
 30
0.0
 10
78.2413913107348
 20
-139.6669270484166
 30
0.0
 10
78.2413913107348
 20
-139.6669270484166
 30
0.0
 10
77.87311060336158
 20
-139.3492892446766
 30
0.0
 10
77.81506074443513
 20
-139.0023681293119
 30
0.0
 10
77.81506074443513
 20
-138.748464592049
 30
0.0
 10
77.81506074443513
 20
-138.4945610547861
 30
0.0
 10
77.87311060336158
 20
-138.1476399394214
 30
0.0
 10
78.2413913107348
 20
-137.8300021356814
 30
0.0
 10
78.2413913107348
 20
-137.8300021356814
 30
0.0
 10
78.3635199456869
 20
-137.8300021356814
 30
0.0
 10
78.3635199456869
 20
-137.8300021356814
 30
0.0
  0
HATCH
  5
46
330
41
100
AcDbEntity
  8
_U+30EC_U+30A4_U+30E4_U+30FC 1
 62
   179
420
  2234388
100
AcDbHatch
 10
0.0
 20
0.0
 30
0.0
210
0.0
220
0.0
230
1.0
  2
SOLID
 70
     1
 71
     0
 91
        1
 92
        1
 93
        1
 72
     4
 94
        3
 73
     0
 74
     1
 95
       23
 96
       19
 40
0.0
 40
0.0
 40
0.0
 40
0.0
 40
1.0
 40
1.0
 40
1.0
 40
2.0
 40
2.0
 40
2.0
 40
3.0
 40
3.0
 40
3.0
 40
4.0
 40
4.0
 40
4.0
 40
5.0
 40
5.0
 40
5.0
 40
6.0
 40
6.0
 40
6.0
 40
6.0
 10
78.3635199456869
 20
-137.8300021356814
 10
78.1173678732658
 20
-138.0429090366698
 10
77.92547605473739
 20
-138.3026692362577
 10
77.92547605473739
 20
-138.748464592049
 10
77.92547605473739
 20
-139.1942599478403
 10
78.1173678732658
 20
-139.4540201474282
 10
78.3635199456869
 20
-139.6669270484166
 10
78.3635199456869
 20
-139.6669270484166
 10
78.2413913107348
 20
-139.6669270484166
 10
78.2413913107348
 20
-139.6669270484166
 10
77.87311060336158
 20
-139.3492892446766
 10
77.81506074443513
 20
-139.0023681293119
 10
77.81506074443513
 20
-138.748464592049
 10
77.81506074443513
 20
-138.4945610547861
 10
77.87311060336158
 20
-138.1476399394214
 10
78.2413913107348
 20
-137.8300021356814
 10
78.2413913107348
 20
-137.8300021356814
 10
78.3635199456869
 20
-137.8300021356814
 10
78.3635199456869
 20
-137.8300021356814
 97
        0
 97
        0
 75
     2
 76
     1
 98
        0
  0
SPLINE
  5
47
330
41
100
AcDbEntity
  8
_U+30EC_U+30A4_U+30E4_U+30FC 1
370
     0
100
AcDbSpline
210
0.0
220
0.0
230
1.0
 70
    11
 71
     3
 72
    41
 73
    37
 74
     0
 42
0.0000000001
 43
0.0000000001
 12
1.0
 22
0.0
 32
0.0
 13
1.0
 23
0.0
 33
0.0
 40
0.0
 40
0.0
 40
0.0
 40
0.0
 40
1.0
 40
1.0
 40
1.0
 40
2.0
 40
2.0
 40
2.0
 40
3.0
 40
3.0
 40
3.0
 40
4.0
 40
4.0
 40
4.0
 40
5.0
 40
5.0
 40
5.0
 40
6.0
 40
6.0
 40
6.0
 40
7.0
 40
7.0
 40
7.0
 40
8.0
 40
8.0
 40
8.0
 40
9.0
 40
9.0
 40
9.0
 40
10.0
 40
10.0
 40
10.0
 40
11.0
 40
11.0
 40
11.0
 40
12.0
 40
12.0
 40
12.0
 40
12.0
 10
78.52871227420464
 20
-139.2638508766424
 30
0.0
 10
78.59658065526405
 20
-139.2562716665748
 30
0.0
 10
78.62948131714819
 20
-139.2521375519925
 30
0.0
 10
78.67788490871595
 20
-139.244558341925
 30
0.0
 10
78.67788490871595
 20
-139.244558341925
 30
0.0
 10
78.67788490871595
 20
-138.004323967235
 30
0.0
 10
78.67788490871595
 20
-138.004323967235
 30
0.0
 10
78.67788490871595
 20
-138.004323967235
 30
0.0
 10
78.53250187923841
 20
-138.004323967235
 30
0.0
 10
78.53250187923841
 20
-138.004323967235
 30
0.0
 10
78.53250187923841
 20
-138.004323967235
 30
0.0
 10
78.53250187923841
 20
-137.9054497268084
 30
0.0
 10
78.53250187923841
 20
-137.9054497268084
 30
0.0
 10
78.53250187923841
 20
-137.9054497268084
 30
0.0
 10
79.43752846321354
 20
-137.9054497268084
 30
0.0
 10
79.43752846321354
 20
-137.9054497268084
 30
0.0
 10
79.43752846321354
 20
-137.9054497268084
 30
0.0
 10
79.43752846321354
 20
-138.004323967235
 30
0.0
 10
79.43752846321354
 20
-138.004323967235
 30
0.0
 10
79.43752846321354
 20
-138.004323967235
 30
0.0
 10
79.33675942026998
 20
-138.004323967235
 30
0.0
 10
79.33675942026998
 20
-138.004323967235
 30
0.0
 10
79.33675942026998
 20
-138.004323967235
 30
0.0
 10
79.33675942026998
 20
-139.6338541317582
 30
0.0
 10
79.33675942026998
 20
-139.6338541317582
 30
0.0
 10
79.33675942026998
 20
-139.6338541317582
 30
0.0
 10
79.23220077229264
 20
-139.6338541317582
 30
0.0
 10
79.23220077229264
 20
-139.6338541317582
 30
0.0
 10
79.23220077229264
 20
-139.6338541317582
 30
0.0
 10
79.23220077229264
 20
-139.2349120745663
 30
0.0
 10
79.23220077229264
 20
-139.2349120745663
 30
0.0
 10
79.1488294615496
 20
-139.2600612716086
 30
0.0
 10
78.76711288178392
 20
-139.354801397453
 30
0.0
 10
78.53835854156333
 20
-139.3723713844277
 30
0.0
 10
78.53835854156333
 20
-139.3723713844277
 30
0.0
 10
78.52871227420464
 20
-139.2638508766424
 30
0.0
 10
78.52871227420464
 20
-139.2638508766424
 30
0.0
  0
POLYLINE
  5
48
330
41
100
AcDbEntity
  8
_U+30EC_U+30A4_U+30E4_U+30FC 1
370
     0
100
AcDb2dPolyline
 66
     1
 10
0.0
 20
0.0
 30
0.0
  0
VERTEX
  5
49
330
48
100
AcDbEntity
  8
_U+30EC_U+30A4_U+30E4_U+30FC 1
370
     0
100
AcDbVertex
100
AcDb2dVertex
 10
79.23220077229264
 20
-138.004323967235
 30
0.0
  0
VERTEX
  5
4A
330
48
100
AcDbEntity
  8
_U+30EC_U+30A4_U+30E4_U+30FC 1
370
     0
100
AcDbVertex
100
AcDb2dVertex
 10
78.78261581146755
 20
-138.004323967235
 30
0.0
  0
VERTEX
  5
4B
330
48
100
AcDbEntity
  8
_U+30EC_U+30A4_U+30E4_U+30FC 1
370
     0
100
AcDbVertex
100
AcDb2dVertex
 10
78.78261581146755
 20
-138.3298854905912
 30
0.0
  0
VERTEX
  5
4C
330
48
100
AcDbEntity
  8
_U+30EC_U+30A4_U+30E4_U+30FC 1
370
     0
100
AcDbVertex
100
AcDb2dVertex
 10
79.23220077229264
 20
-138.3298854905912
 30
0.0
  0
VERTEX
  5
4D
330
48
100
AcDbEntity
  8
_U+30EC_U+30A4_U+30E4_U+30FC 1
370
     0
100
AcDbVertex
100
AcDb2dVertex
 10
79.23220077229264
 20
-138.004323967235
 30
0.0
  0
SEQEND
  5
4E
330
48
100
AcDbEntity
  8
_U+30EC_U+30A4_U+30E4_U+30FC 1
370
     0
  0
POLYLINE
  5
4F
330
41
100
AcDbEntity
  8
_U+30EC_U+30A4_U+30E4_U+30FC 1
370
     0
100
AcDb2dPolyline
 66
     1
 10
0.0
 20
0.0
 30
0.0
  0
VERTEX
  5
50
330
4F
100
AcDbEntity
  8
_U+30EC_U+30A4_U+30E4_U+30FC 1
370
     0
100
AcDbVertex
100
AcDb2dVertex
 10
79.23220077229264
 20
-138.4211805209503
 30
0.0
  0
VERTEX
  5
51
330
4F
100
AcDbEntity
  8
_U+30EC_U+30A4_U+30E4_U+30FC 1
370
     0
100
AcDbVertex
100
AcDb2dVertex
 10
78.78261581146755
 20
-138.4211805209503
 30
0.0
  0
VERTEX
  5
52
330
4F
100
AcDbEntity
  8
_U+30EC_U+30A4_U+30E4_U+30FC 1
370
     0
100
AcDbVertex
100
AcDb2dVertex
 10
78.78261581146755
 20
-138.7463975347578
 30
0.0
  0
VERTEX
  5
53
330
4F
100
AcDbEntity
  8
_U+30EC_U+30A4_U+30E4_U+30FC 1
370
     0
100
AcDbVertex
100
AcDb2dVertex
 10
79.23220077229264
 20
-138.7463975347578
 30
0.0
  0
VERTEX
  5
54
330
4F
100
AcDbEntity
  8
_U+30EC_U+30A4_U+30E4_U+30FC 1
370
     0
100
AcDbVertex
100
AcDb2dVertex
 10
79.23220077229264
 20
-138.4211805209503
 30
0.0
  0
SEQEND
  5
55
330
4F
100
AcDbEntity
  8
_U+30EC_U+30A4_U+30E4_U+30FC 1
370
     0
  0
SPLINE
  5
56
330
41
100
AcDbEntity
  8
_U+30EC_U+30A4_U+30E4_U+30FC 1
370
     0
100
AcDbSpline
210
0.0
220
0.0
230
1.0
 70
    11
 71
     3
 72
    17
 73
    13
 74
     0
 42
0.0000000001
 43
0.0000000001
 12
1.0
 22
0.0
 32
0.0
 13
1.0
 23
0.0
 33
0.0
 40
0.0
 40
0.0
 40
0.0
 40
0.0
 40
1.0
 40
1.0
 40
1.0
 40
2.0
 40
2.0
 40
2.0
 40
3.0
 40
3.0
 40
3.0
 40
4.0
 40
4.0
 40
4.0
 40
4.0
 10
78.78261581146755
 20
-139.2273328644987
 30
0.0
 10
78.79415688134313
 20
-139.2252658072076
 30
0.0
 10
79.07320961564837
 20
-139.1766899608656
 30
0.0
 10
79.23220077229264
 20
-139.1301811718147
 30
0.0
 10
79.23220077229264
 20
-139.1301811718147
 30
0.0
 10
79.23220077229264
 20
-138.837692565117
 30
0.0
 10
79.23220077229264
 20
-138.837692565117
 30
0.0
 10
79.23220077229264
 20
-138.837692565117
 30
0.0
 10
78.78261581146755
 20
-138.837692565117
 30
0.0
 10
78.78261581146755
 20
-138.837692565117
 30
0.0
 10
78.78261581146755
 20
-138.837692565117
 30
0.0
 10
78.78261581146755
 20
-139.2273328644987
 30
0.0
 10
78.78261581146755
 20
-139.2273328644987
 30
0.0
  0
SPLINE
  5
57
330
41
100
AcDbEntity
  8
_U+30EC_U+30A4_U+30E4_U+30FC 1
370
     0
100
AcDbSpline
210
0.0
220
0.0
230
1.0
 70
    11
 71
     3
 72
    47
 73
    43
 74
     0
 42
0.0000000001
 43
0.0000000001
 12
1.0
 22
0.0
 32
0.0
 13
1.0
 23
0.0
 33
0.0
 40
0.0
 40
0.0
 40
0.0
 40
0.0
 40
1.0
 40
1.0
 40
1.0
 40
2.0
 40
2.0
 40
2.0
 40
3.0
 40
3.0
 40
3.0
 40
4.0
 40
4.0
 40
4.0
 40
5.0
 40
5.0
 40
5.0
 40
6.0
 40
6.0
 40
6.0
 40
7.0
 40
7.0
 40
7.0
 40
8.0
 40
8.0
 40
8.0
 40
9.0
 40
9.0
 40
9.0
 40
10.0
 40
10.0
 40
10.0
 40
11.0
 40
11.0
 40
11.0
 40
12.0
 40
12.0
 40
12.0
 40
13.0
 40
13.0
 40
13.0
 40
14.0
 40
14.0
 40
14.0
 40
14.0
 10
79.3638034198292
 20
-139.5311902862978
 30
0.0
 10
79.46853432258078
 20
-139.4653889625295
 30
0.0
 10
79.63717174658376
 20
-139.3568684547441
 30
0.0
 10
79.79220104342001
 20
-139.1515407638232
 30
0.0
 10
79.64681801394246
 20
-138.9324326909613
 30
0.0
 10
79.54019230867398
 20
-138.610660772639
 30
0.0
 10
79.49178871710622
 20
-138.2330783074556
 30
0.0
 10
79.49178871710622
 20
-138.2330783074556
 30
0.0
 10
79.59634736508356
 20
-138.217575377772
 30
0.0
 10
79.59634736508356
 20
-138.217575377772
 30
0.0
 10
79.63131508425884
 20
-138.6030815625714
 30
0.0
 10
79.73794078952733
 20
-138.872488029518
 30
0.0
 10
79.85610756467139
 20
-139.0564561284303
 30
0.0
 10
79.91432967837211
 20
-138.9655056076197
 30
0.0
 10
80.08865150992575
 20
-138.6554470139473
 30
0.0
 10
80.12551403161793
 20
-138.142127786645
 30
0.0
 10
80.12551403161793
 20
-138.142127786645
 30
0.0
 10
79.43752846321354
 20
-138.142127786645
 30
0.0
 10
79.43752846321354
 20
-138.142127786645
 30
0.0
 10
79.43752846321354
 20
-138.142127786645
 30
0.0
 10
79.43752846321354
 20
-138.0391194316361
 30
0.0
 10
79.43752846321354
 20
-138.0391194316361
 30
0.0
 10
79.43752846321354
 20
-138.0391194316361
 30
0.0
 10
80.243680806762
 20
-138.0391194316361
 30
0.0
 10
80.243680806762
 20
-138.0391194316361
 30
0.0
 10
80.20888534236097
 20
-138.554850225778
 30
0.0
 10
80.0672919179172
 20
-138.9344997482525
 30
0.0
 10
79.9258707482477
 20
-139.155330368857
 30
0.0
 10
80.07504338275902
 20
-139.3472221873854
 30
0.0
 10
80.23592934192018
 20
-139.4595323002046
 30
0.0
 10
80.323090257697
 20
-139.5177544139053
 30
0.0
 10
80.323090257697
 20
-139.5177544139053
 30
0.0
 10
80.25728893392873
 20
-139.6283419789818
 30
0.0
 10
80.25728893392873
 20
-139.6283419789818
 30
0.0
 10
80.12344697432678
 20
-139.5256781335214
 30
0.0
 10
79.9878824669822
 20
-139.4113009634111
 30
0.0
 10
79.86196422699632
 20
-139.2483479469587
 30
0.0
 10
79.69522160551023
 20
-139.4691785675633
 30
0.0
 10
79.52279457647347
 20
-139.5818331899309
 30
0.0
 10
79.44717473057224
 20
-139.6321315840156
 30
0.0
 10
79.44717473057224
 20
-139.6321315840156
 30
0.0
 10
79.3638034198292
 20
-139.5311902862978
 30
0.0
 10
79.3638034198292
 20
-139.5311902862978
 30
0.0
  0
HATCH
  5
58
330
41
100
AcDbEntity
  8
_U+30EC_U+30A4_U+30E4_U+30FC 1
 62
   179
420
  2234388
100
AcDbHatch
 10
0.0
 20
0.0
 30
0.0
210
0.0
220
0.0
230
1.0
  2
SOLID
 70
     1
 71
     0
 91
        5
 92
        1
 93
        1
 72
     4
 94
        3
 73
     0
 74
     1
 95
       41
 96
       37
 40
0.0
 40
0.0
 40
0.0
 40
0.0
 40
1.0
 40
1.0
 40
1.0
 40
2.0
 40
2.0
 40
2.0
 40
3.0
 40
3.0
 40
3.0
 40
4.0
 40
4.0
 40
4.0
 40
5.0
 40
5.0
 40
5.0
 40
6.0
 40
6.0
 40
6.0
 40
7.0
 40
7.0
 40
7.0
 40
8.0
 40
8.0
 40
8.0
 40
9.0
 40
9.0
 40
9.0
 40
10.0
 40
10.0
 40
10.0
 40
11.0
 40
11.0
 40
11.0
 40
12.0
 40
12.0
 40
12.0
 40
12.0
 10
78.52871227420464
 20
-139.2638508766424
 10
78.59658065526405
 20
-139.2562716665748
 10
78.62948131714819
 20
-139.2521375519925
 10
78.67788490871595
 20
-139.244558341925
 10
78.67788490871595
 20
-139.244558341925
 10
78.67788490871595
 20
-138.004323967235
 10
78.67788490871595
 20
-138.004323967235
 10
78.67788490871595
 20
-138.004323967235
 10
78.53250187923841
 20
-138.004323967235
 10
78.53250187923841
 20
-138.004323967235
 10
78.53250187923841
 20
-138.004323967235
 10
78.53250187923841
 20
-137.9054497268084
 10
78.53250187923841
 20
-137.9054497268084
 10
78.53250187923841
 20
-137.9054497268084
 10
79.43752846321354
 20
-137.9054497268084
 10
79.43752846321354
 20
-137.9054497268084
 10
79.43752846321354
 20
-137.9054497268084
 10
79.43752846321354
 20
-138.004323967235
 10
79.43752846321354
 20
-138.004323967235
 10
79.43752846321354
 20
-138.004323967235
 10
79.33675942026998
 20
-138.004323967235
 10
79.33675942026998
 20
-138.004323967235
 10
79.33675942026998
 20
-138.004323967235
 10
79.33675942026998
 20
-139.6338541317582
 10
79.33675942026998
 20
-139.6338541317582
 10
79.33675942026998
 20
-139.6338541317582
 10
79.23220077229264
 20
-139.6338541317582
 10
79.23220077229264
 20
-139.6338541317582
 10
79.23220077229264
 20
-139.6338541317582
 10
79.23220077229264
 20
-139.2349120745663
 10
79.23220077229264
 20
-139.2349120745663
 10
79.1488294615496
 20
-139.2600612716086
 10
78.76711288178392
 20
-139.354801397453
 10
78.53835854156333
 20
-139.3723713844277
 10
78.53835854156333
 20
-139.3723713844277
 10
78.52871227420464
 20
-139.2638508766424
 10
78.52871227420464
 20
-139.2638508766424
 97
        0
 97
        0
 92
        1
 93
        4
 72
     1
 10
79.23220077229264
 20
-138.004323967235
 11
78.78261581146755
 21
-138.004323967235
 72
     1
 10
78.78261581146755
 20
-138.004323967235
 11
78.78261581146755
 21
-138.3298854905912
 72
     1
 10
78.78261581146755
 20
-138.3298854905912
 11
79.23220077229264
 21
-138.3298854905912
 72
     1
 10
79.23220077229264
 20
-138.3298854905912
 11
79.23220077229264
 21
-138.004323967235
 97
        0
 92
        1
 93
        4
 72
     1
 10
79.23220077229264
 20
-138.4211805209503
 11
78.78261581146755
 21
-138.4211805209503
 72
     1
 10
78.78261581146755
 20
-138.4211805209503
 11
78.78261581146755
 21
-138.7463975347578
 72
     1
 10
78.78261581146755
 20
-138.7463975347578
 11
79.23220077229264
 21
-138.7463975347578
 72
     1
 10
79.23220077229264
 20
-138.7463975347578
 11
79.23220077229264
 21
-138.4211805209503
 97
        0
 92
        1
 93
        1
 72
     4
 94
        3
 73
     0
 74
     1
 95
       17
 96
       13
 40
0.0
 40
0.0
 40
0.0
 40
0.0
 40
1.0
 40
1.0
 40
1.0
 40
2.0
 40
2.0
 40
2.0
 40
3.0
 40
3.0
 40
3.0
 40
4.0
 40
4.0
 40
4.0
 40
4.0
 10
78.78261581146755
 20
-139.2273328644987
 10
78.79415688134313
 20
-139.2252658072076
 10
79.07320961564837
 20
-139.1766899608656
 10
79.23220077229264
 20
-139.1301811718147
 10
79.23220077229264
 20
-139.1301811718147
 10
79.23220077229264
 20
-138.837692565117
 10
79.23220077229264
 20
-138.837692565117
 10
79.23220077229264
 20
-138.837692565117
 10
78.78261581146755
 20
-138.837692565117
 10
78.78261581146755
 20
-138.837692565117
 10
78.78261581146755
 20
-138.837692565117
 10
78.78261581146755
 20
-139.2273328644987
 10
78.78261581146755
 20
-139.2273328644987
 97
        0
 97
        0
 92
        1
 93
        1
 72
     4
 94
        3
 73
     0
 74
     1
 95
       47
 96
       43
 40
0.0
 40
0.0
 40
0.0
 40
0.0
 40
1.0
 40
1.0
 40
1.0
 40
2.0
 40
2.0
 40
2.0
 40
3.0
 40
3.0
 40
3.0
 40
4.0
 40
4.0
 40
4.0
 40
5.0
 40
5.0
 40
5.0
 40
6.0
 40
6.0
 40
6.0
 40
7.0
 40
7.0
 40
7.0
 40
8.0
 40
8.0
 40
8.0
 40
9.0
 40
9.0
 40
9.0
 40
10.0
 40
10.0
 40
10.0
 40
11.0
 40
11.0
 40
11.0
 40
12.0
 40
12.0
 40
12.0
 40
13.0
 40
13.0
 40
13.0
 40
14.0
 40
14.0
 40
14.0
 40
14.0
 10
79.3638034198292
 20
-139.5311902862978
 10
79.46853432258078
 20
-139.4653889625295
 10
79.63717174658376
 20
-139.3568684547441
 10
79.79220104342001
 20
-139.1515407638232
 10
79.64681801394246
 20
-138.9324326909613
 10
79.54019230867398
 20
-138.610660772639
 10
79.49178871710622
 20
-138.2330783074556
 10
79.49178871710622
 20
-138.2330783074556
 10
79.59634736508356
 20
-138.217575377772
 10
79.59634736508356
 20
-138.217575377772
 10
79.63131508425884
 20
-138.6030815625714
 10
79.73794078952733
 20
-138.872488029518
 10
79.85610756467139
 20
-139.0564561284303
 10
79.91432967837211
 20
-138.9655056076197
 10
80.08865150992575
 20
-138.6554470139473
 10
80.12551403161793
 20
-138.142127786645
 10
80.12551403161793
 20
-138.142127786645
 10
79.43752846321354
 20
-138.142127786645
 10
79.43752846321354
 20
-138.142127786645
 10
79.43752846321354
 20
-138.142127786645
 10
79.43752846321354
 20
-138.0391194316361
 10
79.43752846321354
 20
-138.0391194316361
 10
79.43752846321354
 20
-138.0391194316361
 10
80.243680806762
 20
-138.0391194316361
 10
80.243680806762
 20
-138.0391194316361
 10
80.20888534236097
 20
-138.554850225778
 10
80.0672919179172
 20
-138.9344997482525
 10
79.9258707482477
 20
-139.155330368857
 10
80.07504338275902
 20
-139.3472221873854
 10
80.23592934192018
 20
-139.4595323002046
 10
80.323090257697
 20
-139.5177544139053
 10
80.323090257697
 20
-139.5177544139053
 10
80.25728893392873
 20
-139.6283419789818
 10
80.25728893392873
 20
-139.6283419789818
 10
80.12344697432678
 20
-139.5256781335214
 10
79.9878824669822
 20
-139.4113009634111
 10
79.86196422699632
 20
-139.2483479469587
 10
79.69522160551023
 20
-139.4691785675633
 10
79.52279457647347
 20
-139.5818331899309
 10
79.44717473057224
 20
-139.6321315840156
 10
79.44717473057224
 20
-139.6321315840156
 10
79.3638034198292
 20
-139.5311902862978
 10
79.3638034198292
 20
-139.5311902862978
 97
        0
 97
        0
 75
     2
 76
     1
 98
        0
  0
SPLINE
  5
59
330
41
100
AcDbEntity
  8
_U+30EC_U+30A4_U+30E4_U+30FC 1
370
     0
100
AcDbSpline
210
0.0
220
0.0
230
1.0
 70
    11
 71
     3
 72
    29
 73
    25
 74
     0
 42
0.0000000001
 43
0.0000000001
 12
1.0
 22
0.0
 32
0.0
 13
1.0
 23
0.0
 33
0.0
 40
0.0
 40
0.0
 40
0.0
 40
0.0
 40
1.0
 40
1.0
 40
1.0
 40
2.0
 40
2.0
 40
2.0
 40
3.0
 40
3.0
 40
3.0
 40
4.0
 40
4.0
 40
4.0
 40
5.0
 40
5.0
 40
5.0
 40
6.0
 40
6.0
 40
6.0
 40
7.0
 40
7.0
 40
7.0
 40
8.0
 40
8.0
 40
8.0
 40
8.0
 10
80.85656329358794
 20
-139.6359211890494
 30
0.0
 10
80.85656329358794
 20
-139.6359211890494
 30
0.0
 10
80.75183239083636
 20
-139.6359211890494
 30
0.0
 10
80.75183239083636
 20
-139.6359211890494
 30
0.0
 10
80.75183239083636
 20
-139.6359211890494
 30
0.0
 10
80.75183239083636
 20
-138.5079969271786
 30
0.0
 10
80.75183239083636
 20
-138.5079969271786
 30
0.0
 10
80.64727374285901
 20
-138.6747395486647
 30
0.0
 10
80.5697590944409
 20
-138.7522541970828
 30
0.0
 10
80.53289657274873
 20
-138.7911837760661
 30
0.0
 10
80.53289657274873
 20
-138.7911837760661
 30
0.0
 10
80.46123858665553
 20
-138.694032083382
 30
0.0
 10
80.46123858665553
 20
-138.694032083382
 30
0.0
 10
80.62401934833358
 20
-138.5314235764783
 30
0.0
 10
80.85845809610484
 20
-138.1555636590375
 30
0.0
 10
80.93011608219803
 20
-137.8530842754326
 30
0.0
 10
80.93011608219803
 20
-137.8530842754326
 30
0.0
 10
81.03484698494962
 20
-137.8823675870572
 30
0.0
 10
81.03484698494962
 20
-137.8823675870572
 30
0.0
 10
81.01159259042419
 20
-137.961604783218
 30
0.0
 10
80.96887340640708
 20
-138.1111219272778
 30
0.0
 10
80.85656329358794
 20
-138.3260958855574
 30
0.0
 10
80.85656329358794
 20
-138.3260958855574
 30
0.0
 10
80.85656329358794
 20
-139.6359211890494
 30
0.0
 10
80.85656329358794
 20
-139.6359211890494
 30
0.0
  0
SPLINE
  5
5A
330
41
100
AcDbEntity
  8
_U+30EC_U+30A4_U+30E4_U+30FC 1
370
     0
100
AcDbSpline
210
0.0
220
0.0
230
1.0
 70
    11
 71
     3
 72
    53
 73
    49
 74
     0
 42
0.0000000001
 43
0.0000000001
 12
1.0
 22
0.0
 32
0.0
 13
1.0
 23
0.0
 33
0.0
 40
0.0
 40
0.0
 40
0.0
 40
0.0
 40
1.0
 40
1.0
 40
1.0
 40
2.0
 40
2.0
 40
2.0
 40
3.0
 40
3.0
 40
3.0
 40
4.0
 40
4.0
 40
4.0
 40
5.0
 40
5.0
 40
5.0
 40
6.0
 40
6.0
 40
6.0
 40
7.0
 40
7.0
 40
7.0
 40
8.0
 40
8.0
 40
8.0
 40
9.0
 40
9.0
 40
9.0
 40
10.0
 40
10.0
 40
10.0
 40
11.0
 40
11.0
 40
11.0
 40
12.0
 40
12.0
 40
12.0
 40
13.0
 40
13.0
 40
13.0
 40
14.0
 40
14.0
 40
14.0
 40
15.0
 40
15.0
 40
15.0
 40
16.0
 40
16.0
 40
16.0
 40
16.0
 10
81.97070717351774
 20
-137.8630750523398
 30
0.0
 10
81.97070717351774
 20
-137.8630750523398
 30
0.0
 10
81.97070717351774
 20
-138.2795870965065
 30
0.0
 10
81.97070717351774
 20
-138.2795870965065
 30
0.0
 10
81.97070717351774
 20
-138.2795870965065
 30
0.0
 10
82.25182696511413
 20
-138.2795870965065
 30
0.0
 10
82.25182696511413
 20
-138.2795870965065
 30
0.0
 10
82.25182696511413
 20
-138.2795870965065
 30
0.0
 10
82.25182696511413
 20
-138.3784613369332
 30
0.0
 10
82.25182696511413
 20
-138.3784613369332
 30
0.0
 10
82.25182696511413
 20
-138.3784613369332
 30
0.0
 10
81.97070717351774
 20
-138.3784613369332
 30
0.0
 10
81.97070717351774
 20
-138.3784613369332
 30
0.0
 10
81.97070717351774
 20
-138.3784613369332
 30
0.0
 10
81.97070717351774
 20
-139.492605216863
 30
0.0
 10
81.97070717351774
 20
-139.492605216863
 30
0.0
 10
81.97070717351774
 20
-139.5508273305637
 30
0.0
 10
81.96691756848396
 20
-139.6359211890494
 30
0.0
 10
81.84099932849809
 20
-139.6359211890494
 30
0.0
 10
81.84099932849809
 20
-139.6359211890494
 30
0.0
 10
81.49407821313343
 20
-139.6359211890494
 30
0.0
 10
81.49407821313343
 20
-139.6359211890494
 30
0.0
 10
81.49407821313343
 20
-139.6359211890494
 30
0.0
 10
81.47668048093291
 20
-139.5177544139053
 30
0.0
 10
81.47668048093291
 20
-139.5177544139053
 30
0.0
 10
81.47668048093291
 20
-139.5177544139053
 30
0.0
 10
81.80809866661396
 20
-139.5215440189391
 30
0.0
 10
81.80809866661396
 20
-139.5215440189391
 30
0.0
 10
81.8391045259812
 20
-139.5215440189391
 30
0.0
 10
81.86029186321548
 20
-139.5215440189391
 30
0.0
 10
81.86029186321548
 20
-139.4691785675633
 30
0.0
 10
81.86029186321548
 20
-139.4691785675633
 30
0.0
 10
81.86029186321548
 20
-138.3784613369332
 30
0.0
 10
81.86029186321548
 20
-138.3784613369332
 30
0.0
 10
81.86029186321548
 20
-138.3784613369332
 30
0.0
 10
81.00384112558238
 20
-138.3784613369332
 30
0.0
 10
81.00384112558238
 20
-138.3784613369332
 30
0.0
 10
81.00384112558238
 20
-138.3784613369332
 30
0.0
 10
81.00384112558238
 20
-138.2795870965065
 30
0.0
 10
81.00384112558238
 20
-138.2795870965065
 30
0.0
 10
81.00384112558238
 20
-138.2795870965065
 30
0.0
 10
81.86029186321548
 20
-138.2795870965065
 30
0.0
 10
81.86029186321548
 20
-138.2795870965065
 30
0.0
 10
81.86029186321548
 20
-138.2795870965065
 30
0.0
 10
81.86029186321548
 20
-137.8630750523398
 30
0.0
 10
81.86029186321548
 20
-137.8630750523398
 30
0.0
 10
81.86029186321548
 20
-137.8630750523398
 30
0.0
 10
81.97070717351774
 20
-137.8630750523398
 30
0.0
 10
81.97070717351774
 20
-137.8630750523398
 30
0.0
  0
SPLINE
  5
5B
330
41
100
AcDbEntity
  8
_U+30EC_U+30A4_U+30E4_U+30FC 1
370
     0
100
AcDbSpline
210
0.0
220
0.0
230
1.0
 70
    11
 71
     3
 72
    17
 73
    13
 74
     0
 42
0.0000000001
 43
0.0000000001
 12
1.0
 22
0.0
 32
0.0
 13
1.0
 23
0.0
 33
0.0
 40
0.0
 40
0.0
 40
0.0
 40
0.0
 40
1.0
 40
1.0
 40
1.0
 40
2.0
 40
2.0
 40
2.0
 40
3.0
 40
3.0
 40
3.0
 40
4.0
 40
4.0
 40
4.0
 40
4.0
 10
81.2150254788282
 20
-138.5913682379216
 30
0.0
 10
81.30218639460502
 20
-138.6960991406732
 30
0.0
 10
81.41466876219842
 20
-138.8473388324757
 30
0.0
 10
81.52904593230872
 20
-139.0585231857215
 30
0.0
 10
81.52904593230872
 20
-139.0585231857215
 30
0.0
 10
81.43602835420697
 20
-139.120534904456
 30
0.0
 10
81.43602835420697
 20
-139.120534904456
 30
0.0
 10
81.30993785944682
 20
-138.9014268315941
 30
0.0
 10
81.2654961276871
 20
-138.8297688455009
 30
0.0
 10
81.12786456305138
 20
-138.6516574089135
 30
0.0
 10
81.12786456305138
 20
-138.6516574089135
 30
0.0
 10
81.2150254788282
 20
-138.5913682379216
 30
0.0
 10
81.2150254788282
 20
-138.5913682379216
 30
0.0
  0
HATCH
  5
5C
330
41
100
AcDbEntity
  8
_U+30EC_U+30A4_U+30E4_U+30FC 1
 62
   179
420
  2234388
100
AcDbHatch
 10
0.0
 20
0.0
 30
0.0
210
0.0
220
0.0
230
1.0
  2
SOLID
 70
     1
 71
     0
 91
        3
 92
        1
 93
        1
 72
     4
 94
        3
 73
     0
 74
     1
 95
       29
 96
       25
 40
0.0
 40
0.0
 40
0.0
 40
0.0
 40
1.0
 40
1.0
 40
1.0
 40
2.0
 40
2.0
 40
2.0
 40
3.0
 40
3.0
 40
3.0
 40
4.0
 40
4.0
 40
4.0
 40
5.0
 40
5.0
 40
5.0
 40
6.0
 40
6.0
 40
6.0
 40
7.0
 40
7.0
 40
7.0
 40
8.0
 40
8.0
 40
8.0
 40
8.0
 10
80.85656329358794
 20
-139.6359211890494
 10
80.85656329358794
 20
-139.6359211890494
 10
80.75183239083636
 20
-139.6359211890494
 10
80.75183239083636
 20
-139.6359211890494
 10
80.75183239083636
 20
-139.6359211890494
 10
80.75183239083636
 20
-138.5079969271786
 10
80.75183239083636
 20
-138.5079969271786
 10
80.64727374285901
 20
-138.6747395486647
 10
80.5697590944409
 20
-138.7522541970828
 10
80.53289657274873
 20
-138.7911837760661
 10
80.53289657274873
 20
-138.7911837760661
 10
80.46123858665553
 20
-138.694032083382
 10
80.46123858665553
 20
-138.694032083382
 10
80.62401934833358
 20
-138.5314235764783
 10
80.85845809610484
 20
-138.1555636590375
 10
80.93011608219803
 20
-137.8530842754326
 10
80.93011608219803
 20
-137.8530842754326
 10
81.03484698494962
 20
-137.8823675870572
 10
81.03484698494962
 20
-137.8823675870572
 10
81.01159259042419
 20
-137.961604783218
 10
80.96887340640708
 20
-138.1111219272778
 10
80.85656329358794
 20
-138.3260958855574
 10
80.85656329358794
 20
-138.3260958855574
 10
80.85656329358794
 20
-139.6359211890494
 10
80.85656329358794
 20
-139.6359211890494
 97
        0
 97
        0
 92
        1
 93
        1
 72
     4
 94
        3
 73
     0
 74
     1
 95
       53
 96
       49
 40
0.0
 40
0.0
 40
0.0
 40
0.0
 40
1.0
 40
1.0
 40
1.0
 40
2.0
 40
2.0
 40
2.0
 40
3.0
 40
3.0
 40
3.0
 40
4.0
 40
4.0
 40
4.0
 40
5.0
 40
5.0
 40
5.0
 40
6.0
 40
6.0
 40
6.0
 40
7.0
 40
7.0
 40
7.0
 40
8.0
 40
8.0
 40
8.0
 40
9.0
 40
9.0
 40
9.0
 40
10.0
 40
10.0
 40
10.0
 40
11.0
 40
11.0
 40
11.0
 40
12.0
 40
12.0
 40
12.0
 40
13.0
 40
13.0
 40
13.0
 40
14.0
 40
14.0
 40
14.0
 40
15.0
 40
15.0
 40
15.0
 40
16.0
 40
16.0
 40
16.0
 40
16.0
 10
81.97070717351774
 20
-137.8630750523398
 10
81.97070717351774
 20
-137.8630750523398
 10
81.97070717351774
 20
-138.2795870965065
 10
81.97070717351774
 20
-138.2795870965065
 10
81.97070717351774
 20
-138.2795870965065
 10
82.25182696511413
 20
-138.2795870965065
 10
82.25182696511413
 20
-138.2795870965065
 10
82.25182696511413
 20
-138.2795870965065
 10
82.25182696511413
 20
-138.3784613369332
 10
82.25182696511413
 20
-138.3784613369332
 10
82.25182696511413
 20
-138.3784613369332
 10
81.97070717351774
 20
-138.3784613369332
 10
81.97070717351774
 20
-138.3784613369332
 10
81.97070717351774
 20
-138.3784613369332
 10
81.97070717351774
 20
-139.492605216863
 10
81.97070717351774
 20
-139.492605216863
 10
81.97070717351774
 20
-139.5508273305637
 10
81.96691756848396
 20
-139.6359211890494
 10
81.84099932849809
 20
-139.6359211890494
 10
81.84099932849809
 20
-139.6359211890494
 10
81.49407821313343
 20
-139.6359211890494
 10
81.49407821313343
 20
-139.6359211890494
 10
81.49407821313343
 20
-139.6359211890494
 10
81.47668048093291
 20
-139.5177544139053
 10
81.47668048093291
 20
-139.5177544139053
 10
81.47668048093291
 20
-139.5177544139053
 10
81.80809866661396
 20
-139.5215440189391
 10
81.80809866661396
 20
-139.5215440189391
 10
81.8391045259812
 20
-139.5215440189391
 10
81.86029186321548
 20
-139.5215440189391
 10
81.86029186321548
 20
-139.4691785675633
 10
81.86029186321548
 20
-139.4691785675633
 10
81.86029186321548
 20
-138.3784613369332
 10
81.86029186321548
 20
-138.3784613369332
 10
81.86029186321548
 20
-138.3784613369332
 10
81.00384112558238
 20
-138.3784613369332
 10
81.00384112558238
 20
-138.3784613369332
 10
81.00384112558238
 20
-138.3784613369332
 10
81.00384112558238
 20
-138.2795870965065
 10
81.00384112558238
 20
-138.2795870965065
 10
81.00384112558238
 20
-138.2795870965065
 10
81.86029186321548
 20
-138.2795870965065
 10
81.86029186321548
 20
-138.2795870965065
 10
81.86029186321548
 20
-138.2795870965065
 10
81.86029186321548
 20
-137.8630750523398
 10
81.86029186321548
 20
-137.8630750523398
 10
81.86029186321548
 20
-137.8630750523398
 10
81.97070717351774
 20
-137.8630750523398
 10
81.97070717351774
 20
-137.8630750523398
 97
        0
 97
        0
 92
        1
 93
        1
 72
     4
 94
        3
 73
     0
 74
     1
 95
       17
 96
       13
 40
0.0
 40
0.0
 40
0.0
 40
0.0
 40
1.0
 40
1.0
 40
1.0
 40
2.0
 40
2.0
 40
2.0
 40
3.0
 40
3.0
 40
3.0
 40
4.0
 40
4.0
 40
4.0
 40
4.0
 10
81.2150254788282
 20
-138.5913682379216
 10
81.30218639460502
 20
-138.6960991406732
 10
81.41466876219842
 20
-138.8473388324757
 10
81.52904593230872
 20
-139.0585231857215
 10
81.52904593230872
 20
-139.0585231857215
 10
81.43602835420697
 20
-139.120534904456
 10
81.43602835420697
 20
-139.120534904456
 10
81.30993785944682
 20
-138.9014268315941
 10
81.2654961276871
 20
-138.8297688455009
 10
81.12786456305138
 20
-138.6516574089135
 10
81.12786456305138
 20
-138.6516574089135
 10
81.2150254788282
 20
-138.5913682379216
 10
81.2150254788282
 20
-138.5913682379216
 97
        0
 97
        0
 75
     2
 76
     1
 98
        0
  0
SPLINE
  5
5D
330
41
100
AcDbEntity
  8
_U+30EC_U+30A4_U+30E4_U+30FC 1
370
     0
100
AcDbSpline
210
0.0
220
0.0
230
1.0
 70
    11
 71
     3
 72
    50
 73
    46
 74
     0
 42
0.0000000001
 43
0.0000000001
 12
1.0
 22
0.0
 32
0.0
 13
1.0
 23
0.0
 33
0.0
 40
0.0
 40
0.0
 40
0.0
 40
0.0
 40
1.0
 40
1.0
 40
1.0
 40
2.0
 40
2.0
 40
2.0
 40
3.0
 40
3.0
 40
3.0
 40
4.0
 40
4.0
 40
4.0
 40
5.0
 40
5.0
 40
5.0
 40
6.0
 40
6.0
 40
6.0
 40
7.0
 40
7.0
 40
7.0
 40
8.0
 40
8.0
 40
8.0
 40
9.0
 40
9.0
 40
9.0
 40
10.0
 40
10.0
 40
10.0
 40
11.0
 40
11.0
 40
11.0
 40
12.0
 40
12.0
 40
12.0
 40
13.0
 40
13.0
 40
13.0
 40
14.0
 40
14.0
 40
14.0
 40
15.0
 40
15.0
 40
15.0
 40
15.0
 10
83.31808401779895
 20
-139.5994031769057
 30
0.0
 10
83.31808401779895
 20
-139.5994031769057
 30
0.0
 10
83.20370684768866
 20
-139.5994031769057
 30
0.0
 10
83.20370684768866
 20
-139.5994031769057
 30
0.0
 10
83.20370684768866
 20
-139.5994031769057
 30
0.0
 10
83.20370684768866
 20
-138.8997042838515
 30
0.0
 10
83.20370684768866
 20
-138.8997042838515
 30
0.0
 10
82.85092906999908
 20
-139.1243245094898
 30
0.0
 10
82.57187633569384
 20
-139.2059732724902
 30
0.0
 10
82.449919955516
 20
-139.2407687368912
 30
0.0
 10
82.449919955516
 20
-139.2407687368912
 30
0.0
 10
82.40341116646512
 20
-139.1322482291058
 30
0.0
 10
82.40341116646512
 20
-139.1322482291058
 30
0.0
 10
82.91673039376735
 20
-138.9985785242781
 30
0.0
 10
83.44589706030172
 20
-138.6671603385971
 30
0.0
 10
83.7366631192568
 20
-138.293022968899
 30
0.0
 10
83.7366631192568
 20
-138.293022968899
 30
0.0
 10
82.53501381400167
 20
-138.293022968899
 30
0.0
 10
82.53501381400167
 20
-138.293022968899
 30
0.0
 10
82.53501381400167
 20
-138.293022968899
 30
0.0
 10
82.53501381400167
 20
-138.1845024611136
 30
0.0
 10
82.53501381400167
 20
-138.1845024611136
 30
0.0
 10
82.53501381400167
 20
-138.1845024611136
 30
0.0
 10
83.20370684768866
 20
-138.1845024611136
 30
0.0
 10
83.20370684768866
 20
-138.1845024611136
 30
0.0
 10
83.20370684768866
 20
-138.1845024611136
 30
0.0
 10
83.20370684768866
 20
-137.8878797398336
 30
0.0
 10
83.20370684768866
 20
-137.8878797398336
 30
0.0
 10
83.20370684768866
 20
-137.8878797398336
 30
0.0
 10
83.31808401779895
 20
-137.8878797398336
 30
0.0
 10
83.31808401779895
 20
-137.8878797398336
 30
0.0
 10
83.31808401779895
 20
-137.8878797398336
 30
0.0
 10
83.31808401779895
 20
-138.1845024611136
 30
0.0
 10
83.31808401779895
 20
-138.1845024611136
 30
0.0
 10
83.31808401779895
 20
-138.1845024611136
 30
0.0
 10
83.88962535880191
 20
-138.1845024611136
 30
0.0
 10
83.88962535880191
 20
-138.1845024611136
 30
0.0
 10
83.88962535880191
 20
-138.1845024611136
 30
0.0
 10
83.88962535880191
 20
-138.2871663065741
 30
0.0
 10
83.88962535880191
 20
-138.2871663065741
 30
0.0
 10
83.81417776767493
 20
-138.3822509419669
 30
0.0
 10
83.64950220347998
 20
-138.5875786328878
 30
0.0
 10
83.31808401779895
 20
-138.8242566927245
 30
0.0
 10
83.31808401779895
 20
-138.8242566927245
 30
0.0
 10
83.31808401779895
 20
-139.5994031769057
 30
0.0
 10
83.31808401779895
 20
-139.5994031769057
 30
0.0
  0
SPLINE
  5
5E
330
41
100
AcDbEntity
  8
_U+30EC_U+30A4_U+30E4_U+30FC 1
370
     0
100
AcDbSpline
210
0.0
220
0.0
230
1.0
 70
    11
 71
     3
 72
    17
 73
    13
 74
     0
 42
0.0000000001
 43
0.0000000001
 12
1.0
 22
0.0
 32
0.0
 13
1.0
 23
0.0
 33
0.0
 40
0.0
 40
0.0
 40
0.0
 40
0.0
 40
1.0
 40
1.0
 40
1.0
 40
2.0
 40
2.0
 40
2.0
 40
3.0
 40
3.0
 40
3.0
 40
4.0
 40
4.0
 40
4.0
 40
4.0
 10
84.06222464261292
 20
-139.2252658072076
 30
0.0
 10
83.86447616175958
 20
-139.0836723827638
 30
0.0
 10
83.6398559361213
 20
-138.9596489452948
 30
0.0
 10
83.43246118790925
 20
-138.8686984244842
 30
0.0
 10
83.43246118790925
 20
-138.8686984244842
 30
0.0
 10
83.49447290664375
 20
-138.78326005645
 30
0.0
 10
83.49447290664375
 20
-138.78326005645
 30
0.0
 10
83.65329180851377
 20
-138.8490613802183
 30
0.0
 10
83.97678627457873
 20
-139.0178710589955
 30
0.0
 10
84.12216930405627
 20
-139.1167452994222
 30
0.0
 10
84.12216930405627
 20
-139.1167452994222
 30
0.0
 10
84.06222464261292
 20
-139.2252658072076
 30
0.0
 10
84.06222464261292
 20
-139.2252658072076
 30
0.0
  0
HATCH
  5
5F
330
41
100
AcDbEntity
  8
_U+30EC_U+30A4_U+30E4_U+30FC 1
 62
   179
420
  2234388
100
AcDbHatch
 10
0.0
 20
0.0
 30
0.0
210
0.0
220
0.0
230
1.0
  2
SOLID
 70
     1
 71
     0
 91
        2
 92
        1
 93
        1
 72
     4
 94
        3
 73
     0
 74
     1
 95
       50
 96
       46
 40
0.0
 40
0.0
 40
0.0
 40
0.0
 40
1.0
 40
1.0
 40
1.0
 40
2.0
 40
2.0
 40
2.0
 40
3.0
 40
3.0
 40
3.0
 40
4.0
 40
4.0
 40
4.0
 40
5.0
 40
5.0
 40
5.0
 40
6.0
 40
6.0
 40
6.0
 40
7.0
 40
7.0
 40
7.0
 40
8.0
 40
8.0
 40
8.0
 40
9.0
 40
9.0
 40
9.0
 40
10.0
 40
10.0
 40
10.0
 40
11.0
 40
11.0
 40
11.0
 40
12.0
 40
12.0
 40
12.0
 40
13.0
 40
13.0
 40
13.0
 40
14.0
 40
14.0
 40
14.0
 40
15.0
 40
15.0
 40
15.0
 40
15.0
 10
83.31808401779895
 20
-139.5994031769057
 10
83.31808401779895
 20
-139.5994031769057
 10
83.20370684768866
 20
-139.5994031769057
 10
83.20370684768866
 20
-139.5994031769057
 10
83.20370684768866
 20
-139.5994031769057
 10
83.20370684768866
 20
-138.8997042838515
 10
83.20370684768866
 20
-138.8997042838515
 10
82.85092906999908
 20
-139.1243245094898
 10
82.57187633569384
 20
-139.2059732724902
 10
82.449919955516
 20
-139.2407687368912
 10
82.449919955516
 20
-139.2407687368912
 10
82.40341116646512
 20
-139.1322482291058
 10
82.40341116646512
 20
-139.1322482291058
 10
82.91673039376735
 20
-138.9985785242781
 10
83.44589706030172
 20
-138.6671603385971
 10
83.7366631192568
 20
-138.293022968899
 10
83.7366631192568
 20
-138.293022968899
 10
82.53501381400167
 20
-138.293022968899
 10
82.53501381400167
 20
-138.293022968899
 10
82.53501381400167
 20
-138.293022968899
 10
82.53501381400167
 20
-138.1845024611136
 10
82.53501381400167
 20
-138.1845024611136
 10
82.53501381400167
 20
-138.1845024611136
 10
83.20370684768866
 20
-138.1845024611136
 10
83.20370684768866
 20
-138.1845024611136
 10
83.20370684768866
 20
-138.1845024611136
 10
83.20370684768866
 20
-137.8878797398336
 10
83.20370684768866
 20
-137.8878797398336
 10
83.20370684768866
 20
-137.8878797398336
 10
83.31808401779895
 20
-137.8878797398336
 10
83.31808401779895
 20
-137.8878797398336
 10
83.31808401779895
 20
-137.8878797398336
 10
83.31808401779895
 20
-138.1845024611136
 10
83.31808401779895
 20
-138.1845024611136
 10
83.31808401779895
 20
-138.1845024611136
 10
83.88962535880191
 20
-138.1845024611136
 10
83.88962535880191
 20
-138.1845024611136
 10
83.88962535880191
 20
-138.1845024611136
 10
83.88962535880191
 20
-138.2871663065741
 10
83.88962535880191
 20
-138.2871663065741
 10
83.81417776767493
 20
-138.3822509419669
 10
83.64950220347998
 20
-138.5875786328878
 10
83.31808401779895
 20
-138.8242566927245
 10
83.31808401779895
 20
-138.8242566927245
 10
83.31808401779895
 20
-139.5994031769057
 10
83.31808401779895
 20
-139.5994031769057
 97
        0
 97
        0
 92
        1
 93
        1
 72
     4
 94
        3
 73
     0
 74
     1
 95
       17
 96
       13
 40
0.0
 40
0.0
 40
0.0
 40
0.0
 40
1.0
 40
1.0
 40
1.0
 40
2.0
 40
2.0
 40
2.0
 40
3.0
 40
3.0
 40
3.0
 40
4.0
 40
4.0
 40
4.0
 40
4.0
 10
84.06222464261292
 20
-139.2252658072076
 10
83.86447616175958
 20
-139.0836723827638
 10
83.6398559361213
 20
-138.9596489452948
 10
83.43246118790925
 20
-138.8686984244842
 10
83.43246118790925
 20
-138.8686984244842
 10
83.49447290664375
 20
-138.78326005645
 10
83.49447290664375
 20
-138.78326005645
 10
83.65329180851377
 20
-138.8490613802183
 10
83.97678627457873
 20
-139.0178710589955
 10
84.12216930405627
 20
-139.1167452994222
 10
84.12216930405627
 20
-139.1167452994222
 10
84.06222464261292
 20
-139.2252658072076
 10
84.06222464261292
 20
-139.2252658072076
 97
        0
 97
        0
 75
     2
 76
     1
 98
        0
  0
SPLINE
  5
60
330
41
100
AcDbEntity
  8
_U+30EC_U+30A4_U+30E4_U+30FC 1
370
     0
100
AcDbSpline
210
0.0
220
0.0
230
1.0
 70
    11
 71
     3
 72
    17
 73
    13
 74
     0
 42
0.0000000001
 43
0.0000000001
 12
1.0
 22
0.0
 32
0.0
 13
1.0
 23
0.0
 33
0.0
 40
0.0
 40
0.0
 40
0.0
 40
0.0
 40
1.0
 40
1.0
 40
1.0
 40
2.0
 40
2.0
 40
2.0
 40
3.0
 40
3.0
 40
3.0
 40
4.0
 40
4.0
 40
4.0
 40
4.0
 10
84.88629148268468
 20
-138.7601779166989
 30
0.0
 10
84.7002563264812
 20
-138.659236618981
 30
0.0
 10
84.52007783260262
 20
-138.5837890278541
 30
0.0
 10
84.32026229445813
 20
-138.5255669141533
 30
0.0
 10
84.32026229445813
 20
-138.5255669141533
 30
0.0
 10
84.37090519809131
 20
-138.4191134636591
 30
0.0
 10
84.37090519809131
 20
-138.4191134636591
 30
0.0
 10
84.58966876140467
 20
-138.4714789150349
 30
0.0
 10
84.84150524137644
 20
-138.5875786328878
 30
0.0
 10
84.93865693406048
 20
-138.6437336892974
 30
0.0
 10
84.93865693406048
 20
-138.6437336892974
 30
0.0
 10
84.88629148268468
 20
-138.7601779166989
 30
0.0
 10
84.88629148268468
 20
-138.7601779166989
 30
0.0
  0
SPLINE
  5
61
330
41
100
AcDbEntity
  8
_U+30EC_U+30A4_U+30E4_U+30FC 1
370
     0
100
AcDbSpline
210
0.0
220
0.0
230
1.0
 70
    11
 71
     3
 72
    17
 73
    13
 74
     0
 42
0.0000000001
 43
0.0000000001
 12
1.0
 22
0.0
 32
0.0
 13
1.0
 23
0.0
 33
0.0
 40
0.0
 40
0.0
 40
0.0
 40
0.0
 40
1.0
 40
1.0
 40
1.0
 40
2.0
 40
2.0
 40
2.0
 40
3.0
 40
3.0
 40
3.0
 40
4.0
 40
4.0
 40
4.0
 40
4.0
 10
84.4191365348848
 20
-139.3920084286937
 30
0.0
 10
85.36309269784326
 20
-139.3027804556257
 30
0.0
 10
85.63043210749865
 20
-138.8318359027921
 30
0.0
 10
85.8106106013772
 20
-138.2695963195993
 30
0.0
 10
85.8106106013772
 20
-138.2695963195993
 30
0.0
 10
85.92119816645373
 20
-138.3181721659413
 30
0.0
 10
85.92119816645373
 20
-138.3181721659413
 30
0.0
 10
85.67866344429214
 20
-139.0564561284303
 30
0.0
 10
85.30659313188517
 20
-139.4113009634111
 30
0.0
 10
84.45014239425205
 20
-139.5198214711965
 30
0.0
 10
84.45014239425205
 20
-139.5198214711965
 30
0.0
 10
84.4191365348848
 20
-139.3920084286937
 30
0.0
 10
84.4191365348848
 20
-139.3920084286937
 30
0.0
  0
SPLINE
  5
62
330
41
100
AcDbEntity
  8
_U+30EC_U+30A4_U+30E4_U+30FC 1
370
     0
100
AcDbSpline
210
0.0
220
0.0
230
1.0
 70
    11
 71
     3
 72
    17
 73
    13
 74
     0
 42
0.0000000001
 43
0.0000000001
 12
1.0
 22
0.0
 32
0.0
 13
1.0
 23
0.0
 33
0.0
 40
0.0
 40
0.0
 40
0.0
 40
0.0
 40
1.0
 40
1.0
 40
1.0
 40
2.0
 40
2.0
 40
2.0
 40
3.0
 40
3.0
 40
3.0
 40
4.0
 40
4.0
 40
4.0
 40
4.0
 10
85.04304332726355
 20
-138.293022968899
 30
0.0
 10
84.87836776306861
 20
-138.2041395053795
 30
0.0
 10
84.69818926919004
 20
-138.1245577996702
 30
0.0
 10
84.4715019862606
 20
-138.0604790236446
 30
0.0
 10
84.4715019862606
 20
-138.0604790236446
 30
0.0
 10
84.5238674376364
 20
-137.9578151781842
 30
0.0
 10
84.5238674376364
 20
-137.9578151781842
 30
0.0
 10
84.61102835341322
 20
-137.9791747701927
 30
0.0
 10
84.76020098792453
 20
-138.0139702345937
 30
0.0
 10
85.09368623089672
 20
-138.1786457987887
 30
0.0
 10
85.09368623089672
 20
-138.1786457987887
 30
0.0
 10
85.04304332726355
 20
-138.293022968899
 30
0.0
 10
85.04304332726355
 20
-138.293022968899
 30
0.0
  0
SPLINE
  5
63
330
41
100
AcDbEntity
  8
_U+30EC_U+30A4_U+30E4_U+30FC 1
370
     0
100
AcDbSpline
210
0.0
220
0.0
230
1.0
 70
    11
 71
     3
 72
    17
 73
    13
 74
     0
 42
0.0000000001
 43
0.0000000001
 12
1.0
 22
0.0
 32
0.0
 13
1.0
 23
0.0
 33
0.0
 40
0.0
 40
0.0
 40
0.0
 40
0.0
 40
1.0
 40
1.0
 40
1.0
 40
2.0
 40
2.0
 40
2.0
 40
3.0
 40
3.0
 40
3.0
 40
4.0
 40
4.0
 40
4.0
 40
4.0
 10
85.68452010661707
 20
-138.2192979255146
 30
0.0
 10
85.62629799291635
 20
-138.1011311503705
 30
0.0
 10
85.5897799807727
 20
-138.0391194316361
 30
0.0
 10
85.51984454242212
 20
-137.9461018535343
 30
0.0
 10
85.51984454242212
 20
-137.9461018535343
 30
0.0
 10
85.61286212052387
 20
-137.8995930644834
 30
0.0
 10
85.61286212052387
 20
-137.8995930644834
 30
0.0
 10
85.7096693036594
 20
-138.0063910245262
 30
0.0
 10
85.76031220729257
 20
-138.1224907423791
 30
0.0
 10
85.78132728975258
 20
-138.1669324741388
 30
0.0
 10
85.78132728975258
 20
-138.1669324741388
 30
0.0
 10
85.68452010661707
 20
-138.2192979255146
 30
0.0
 10
85.68452010661707
 20
-138.2192979255146
 30
0.0
  0
SPLINE
  5
64
330
41
100
AcDbEntity
  8
_U+30EC_U+30A4_U+30E4_U+30FC 1
370
     0
100
AcDbSpline
210
0.0
220
0.0
230
1.0
 70
    11
 71
     3
 72
    17
 73
    13
 74
     0
 42
0.0000000001
 43
0.0000000001
 12
1.0
 22
0.0
 32
0.0
 13
1.0
 23
0.0
 33
0.0
 40
0.0
 40
0.0
 40
0.0
 40
0.0
 40
1.0
 40
1.0
 40
1.0
 40
2.0
 40
2.0
 40
2.0
 40
3.0
 40
3.0
 40
3.0
 40
4.0
 40
4.0
 40
4.0
 40
4.0
 10
85.90535072722159
 20
-138.1262803474129
 30
0.0
 10
85.86883271507793
 20
-138.0525553040285
 30
0.0
 10
85.81646726370214
 20
-137.961604783218
 30
0.0
 10
85.73688555799286
 20
-137.8610079950487
 30
0.0
 10
85.73688555799286
 20
-137.8610079950487
 30
0.0
 10
85.82818058835198
 20
-137.8144992059978
 30
0.0
 10
85.82818058835198
 20
-137.8144992059978
 30
0.0
 10
85.9153415041288
 20
-137.9092393318421
 30
0.0
 10
85.973219108281
 20
-138.018104349176
 30
0.0
 10
85.99836830532332
 20
-138.0684027432607
 30
0.0
 10
85.99836830532332
 20
-138.0684027432607
 30
0.0
 10
85.90535072722159
 20
-138.1262803474129
 30
0.0
 10
85.90535072722159
 20
-138.1262803474129
 30
0.0
  0
HATCH
  5
65
330
41
100
AcDbEntity
  8
_U+30EC_U+30A4_U+30E4_U+30FC 1
 62
   179
420
  2234388
100
AcDbHatch
 10
0.0
 20
0.0
 30
0.0
210
0.0
220
0.0
230
1.0
  2
SOLID
 70
     1
 71
     0
 91
        5
 92
        1
 93
        1
 72
     4
 94
        3
 73
     0
 74
     1
 95
       17
 96
       13
 40
0.0
 40
0.0
 40
0.0
 40
0.0
 40
1.0
 40
1.0
 40
1.0
 40
2.0
 40
2.0
 40
2.0
 40
3.0
 40
3.0
 40
3.0
 40
4.0
 40
4.0
 40
4.0
 40
4.0
 10
84.88629148268468
 20
-138.7601779166989
 10
84.7002563264812
 20
-138.659236618981
 10
84.52007783260262
 20
-138.5837890278541
 10
84.32026229445813
 20
-138.5255669141533
 10
84.32026229445813
 20
-138.5255669141533
 10
84.37090519809131
 20
-138.4191134636591
 10
84.37090519809131
 20
-138.4191134636591
 10
84.58966876140467
 20
-138.4714789150349
 10
84.84150524137644
 20
-138.5875786328878
 10
84.93865693406048
 20
-138.6437336892974
 10
84.93865693406048
 20
-138.6437336892974
 10
84.88629148268468
 20
-138.7601779166989
 10
84.88629148268468
 20
-138.7601779166989
 97
        0
 97
        0
 92
        1
 93
        1
 72
     4
 94
        3
 73
     0
 74
     1
 95
       17
 96
       13
 40
0.0
 40
0.0
 40
0.0
 40
0.0
 40
1.0
 40
1.0
 40
1.0
 40
2.0
 40
2.0
 40
2.0
 40
3.0
 40
3.0
 40
3.0
 40
4.0
 40
4.0
 40
4.0
 40
4.0
 10
84.4191365348848
 20
-139.3920084286937
 10
85.36309269784326
 20
-139.3027804556257
 10
85.63043210749865
 20
-138.8318359027921
 10
85.8106106013772
 20
-138.2695963195993
 10
85.8106106013772
 20
-138.2695963195993
 10
85.92119816645373
 20
-138.3181721659413
 10
85.92119816645373
 20
-138.3181721659413
 10
85.67866344429214
 20
-139.0564561284303
 10
85.30659313188517
 20
-139.4113009634111
 10
84.45014239425205
 20
-139.5198214711965
 10
84.45014239425205
 20
-139.5198214711965
 10
84.4191365348848
 20
-139.3920084286937
 10
84.4191365348848
 20
-139.3920084286937
 97
        0
 97
        0
 92
        1
 93
        1
 72
     4
 94
        3
 73
     0
 74
     1
 95
       17
 96
       13
 40
0.0
 40
0.0
 40
0.0
 40
0.0
 40
1.0
 40
1.0
 40
1.0
 40
2.0
 40
2.0
 40
2.0
 40
3.0
 40
3.0
 40
3.0
 40
4.0
 40
4.0
 40
4.0
 40
4.0
 10
85.04304332726355
 20
-138.293022968899
 10
84.87836776306861
 20
-138.2041395053795
 10
84.69818926919004
 20
-138.1245577996702
 10
84.4715019862606
 20
-138.0604790236446
 10
84.4715019862606
 20
-138.0604790236446
 10
84.5238674376364
 20
-137.9578151781842
 10
84.5238674376364
 20
-137.9578151781842
 10
84.61102835341322
 20
-137.9791747701927
 10
84.76020098792453
 20
-138.0139702345937
 10
85.09368623089672
 20
-138.1786457987887
 10
85.09368623089672
 20
-138.1786457987887
 10
85.04304332726355
 20
-138.293022968899
 10
85.04304332726355
 20
-138.293022968899
 97
        0
 97
        0
 92
        1
 93
        1
 72
     4
 94
        3
 73
     0
 74
     1
 95
       17
 96
       13
 40
0.0
 40
0.0
 40
0.0
 40
0.0
 40
1.0
 40
1.0
 40
1.0
 40
2.0
 40
2.0
 40
2.0
 40
3.0
 40
3.0
 40
3.0
 40
4.0
 40
4.0
 40
4.0
 40
4.0
 10
85.68452010661707
 20
-138.2192979255146
 10
85.62629799291635
 20
-138.1011311503705
 10
85.5897799807727
 20
-138.0391194316361
 10
85.51984454242212
 20
-137.9461018535343
 10
85.51984454242212
 20
-137.9461018535343
 10
85.61286212052387
 20
-137.8995930644834
 10
85.61286212052387
 20
-137.8995930644834
 10
85.7096693036594
 20
-138.0063910245262
 10
85.76031220729257
 20
-138.1224907423791
 10
85.78132728975258
 20
-138.1669324741388
 10
85.78132728975258
 20
-138.1669324741388
 10
85.68452010661707
 20
-138.2192979255146
 10
85.68452010661707
 20
-138.2192979255146
 97
        0
 97
        0
 92
        1
 93
        1
 72
     4
 94
        3
 73
     0
 74
     1
 95
       17
 96
       13
 40
0.0
 40
0.0
 40
0.0
 40
0.0
 40
1.0
 40
1.0
 40
1.0
 40
2.0
 40
2.0
 40
2.0
 40
3.0
 40
3.0
 40
3.0
 40
4.0
 40
4.0
 40
4.0
 40
4.0
 10
85.90535072722159
 20
-138.1262803474129
 10
85.86883271507793
 20
-138.0525553040285
 10
85.81646726370214
 20
-137.961604783218
 10
85.73688555799286
 20
-137.8610079950487
 10
85.73688555799286
 20
-137.8610079950487
 10
85.82818058835198
 20
-137.8144992059978
 10
85.82818058835198
 20
-137.8144992059978
 10
85.9153415041288
 20
-137.9092393318421
 10
85.973219108281
 20
-138.018104349176
 10
85.99836830532332
 20
-138.0684027432607
 10
85.99836830532332
 20
-138.0684027432607
 10
85.90535072722159
 20
-138.1262803474129
 10
85.90535072722159
 20
-138.1262803474129
 97
        0
 97
        0
 75
     2
 76
     1
 98
        0
  0
SPLINE
  5
66
330
41
100
AcDbEntity
  8
_U+30EC_U+30A4_U+30E4_U+30FC 1
370
     0
100
AcDbSpline
210
0.0
220
0.0
230
1.0
 70
    11
 71
     3
 72
    29
 73
    25
 74
     0
 42
0.0000000001
 43
0.0000000001
 12
1.0
 22
0.0
 32
0.0
 13
1.0
 23
0.0
 33
0.0
 40
0.0
 40
0.0
 40
0.0
 40
0.0
 40
1.0
 40
1.0
 40
1.0
 40
2.0
 40
2.0
 40
2.0
 40
3.0
 40
3.0
 40
3.0
 40
4.0
 40
4.0
 40
4.0
 40
5.0
 40
5.0
 40
5.0
 40
6.0
 40
6.0
 40
6.0
 40
7.0
 40
7.0
 40
7.0
 40
8.0
 40
8.0
 40
8.0
 40
8.0
 10
86.46380070538058
 20
-139.6359211890494
 30
0.0
 10
86.46380070538058
 20
-139.6359211890494
 30
0.0
 10
86.3594143121775
 20
-139.6359211890494
 30
0.0
 10
86.3594143121775
 20
-139.6359211890494
 30
0.0
 10
86.3594143121775
 20
-139.6359211890494
 30
0.0
 10
86.3594143121775
 20
-138.5079969271786
 30
0.0
 10
86.3594143121775
 20
-138.5079969271786
 30
0.0
 10
86.25468340942592
 20
-138.6747395486647
 30
0.0
 10
86.17716876100779
 20
-138.7522541970828
 30
0.0
 10
86.14030623931562
 20
-138.7911837760661
 30
0.0
 10
86.14030623931562
 20
-138.7911837760661
 30
0.0
 10
86.06864825322242
 20
-138.694032083382
 30
0.0
 10
86.06864825322242
 20
-138.694032083382
 30
0.0
 10
86.23125676012621
 20
-138.5314235764783
 30
0.0
 10
86.46586776267173
 20
-138.1555636590375
 30
0.0
 10
86.53752574876493
 20
-137.8530842754326
 30
0.0
 10
86.53752574876493
 20
-137.8530842754326
 30
0.0
 10
86.64225665151652
 20
-137.8823675870572
 30
0.0
 10
86.64225665151652
 20
-137.8823675870572
 30
0.0
 10
86.61883000221682
 20
-137.961604783218
 30
0.0
 10
86.57645532774825
 20
-138.1111219272778
 30
0.0
 10
86.46380070538058
 20
-138.3260958855574
 30
0.0
 10
86.46380070538058
 20
-138.3260958855574
 30
0.0
 10
86.46380070538058
 20
-139.6359211890494
 30
0.0
 10
86.46380070538058
 20
-139.6359211890494
 30
0.0
  0
SPLINE
  5
67
330
41
100
AcDbEntity
  8
_U+30EC_U+30A4_U+30E4_U+30FC 1
370
     0
100
AcDbSpline
210
0.0
220
0.0
230
1.0
 70
    11
 71
     3
 72
    53
 73
    49
 74
     0
 42
0.0000000001
 43
0.0000000001
 12
1.0
 22
0.0
 32
0.0
 13
1.0
 23
0.0
 33
0.0
 40
0.0
 40
0.0
 40
0.0
 40
0.0
 40
1.0
 40
1.0
 40
1.0
 40
2.0
 40
2.0
 40
2.0
 40
3.0
 40
3.0
 40
3.0
 40
4.0
 40
4.0
 40
4.0
 40
5.0
 40
5.0
 40
5.0
 40
6.0
 40
6.0
 40
6.0
 40
7.0
 40
7.0
 40
7.0
 40
8.0
 40
8.0
 40
8.0
 40
9.0
 40
9.0
 40
9.0
 40
10.0
 40
10.0
 40
10.0
 40
11.0
 40
11.0
 40
11.0
 40
12.0
 40
12.0
 40
12.0
 40
13.0
 40
13.0
 40
13.0
 40
14.0
 40
14.0
 40
14.0
 40
15.0
 40
15.0
 40
15.0
 40
16.0
 40
16.0
 40
16.0
 40
16.0
 10
87.5782890948589
 20
-137.8630750523398
 30
0.0
 10
87.5782890948589
 20
-137.8630750523398
 30
0.0
 10
87.5782890948589
 20
-138.2795870965065
 30
0.0
 10
87.5782890948589
 20
-138.2795870965065
 30
0.0
 10
87.5782890948589
 20
-138.2795870965065
 30
0.0
 10
87.85906437690677
 20
-138.2795870965065
 30
0.0
 10
87.85906437690677
 20
-138.2795870965065
 30
0.0
 10
87.85906437690677
 20
-138.2795870965065
 30
0.0
 10
87.85906437690677
 20
-138.3784613369332
 30
0.0
 10
87.85906437690677
 20
-138.3784613369332
 30
0.0
 10
87.85906437690677
 20
-138.3784613369332
 30
0.0
 10
87.5782890948589
 20
-138.3784613369332
 30
0.0
 10
87.5782890948589
 20
-138.3784613369332
 30
0.0
 10
87.5782890948589
 20
-138.3784613369332
 30
0.0
 10
87.5782890948589
 20
-139.492605216863
 30
0.0
 10
87.5782890948589
 20
-139.492605216863
 30
0.0
 10
87.5782890948589
 20
-139.5508273305637
 30
0.0
 10
87.5741549802766
 20
-139.6359211890494
 30
0.0
 10
87.44840899506498
 20
-139.6359211890494
 30
0.0
 10
87.44840899506498
 20
-139.6359211890494
 30
0.0
 10
87.10148787970033
 20
-139.6359211890494
 30
0.0
 10
87.10148787970033
 20
-139.6359211890494
 30
0.0
 10
87.10148787970033
 20
-139.6359211890494
 30
0.0
 10
87.08391789272555
 20
-139.5177544139053
 30
0.0
 10
87.08391789272555
 20
-139.5177544139053
 30
0.0
 10
87.08391789272555
 20
-139.5177544139053
 30
0.0
 10
87.41533607840658
 20
-139.5215440189391
 30
0.0
 10
87.41533607840658
 20
-139.5215440189391
 30
0.0
 10
87.44634193777384
 20
-139.5215440189391
 30
0.0
 10
87.46770152978239
 20
-139.5215440189391
 30
0.0
 10
87.46770152978239
 20
-139.4691785675633
 30
0.0
 10
87.46770152978239
 20
-139.4691785675633
 30
0.0
 10
87.46770152978239
 20
-138.3784613369332
 30
0.0
 10
87.46770152978239
 20
-138.3784613369332
 30
0.0
 10
87.46770152978239
 20
-138.3784613369332
 30
0.0
 10
86.61125079214928
 20
-138.3784613369332
 30
0.0
 10
86.61125079214928
 20
-138.3784613369332
 30
0.0
 10
86.61125079214928
 20
-138.3784613369332
 30
0.0
 10
86.61125079214928
 20
-138.2795870965065
 30
0.0
 10
86.61125079214928
 20
-138.2795870965065
 30
0.0
 10
86.61125079214928
 20
-138.2795870965065
 30
0.0
 10
87.46770152978239
 20
-138.2795870965065
 30
0.0
 10
87.46770152978239
 20
-138.2795870965065
 30
0.0
 10
87.46770152978239
 20
-138.2795870965065
 30
0.0
 10
87.46770152978239
 20
-137.8630750523398
 30
0.0
 10
87.46770152978239
 20
-137.8630750523398
 30
0.0
 10
87.46770152978239
 20
-137.8630750523398
 30
0.0
 10
87.5782890948589
 20
-137.8630750523398
 30
0.0
 10
87.5782890948589
 20
-137.8630750523398
 30
0.0
  0
SPLINE
  5
68
330
41
100
AcDbEntity
  8
_U+30EC_U+30A4_U+30E4_U+30FC 1
370
     0
100
AcDbSpline
210
0.0
220
0.0
230
1.0
 70
    11
 71
     3
 72
    17
 73
    13
 74
     0
 42
0.0000000001
 43
0.0000000001
 12
1.0
 22
0.0
 32
0.0
 13
1.0
 23
0.0
 33
0.0
 40
0.0
 40
0.0
 40
0.0
 40
0.0
 40
1.0
 40
1.0
 40
1.0
 40
2.0
 40
2.0
 40
2.0
 40
3.0
 40
3.0
 40
3.0
 40
4.0
 40
4.0
 40
4.0
 40
4.0
 10
86.82243514539509
 20
-138.5913682379216
 30
0.0
 10
86.90959606117191
 20
-138.6960991406732
 30
0.0
 10
87.02190617399106
 20
-138.8473388324757
 30
0.0
 10
87.13628334410134
 20
-139.0585231857215
 30
0.0
 10
87.13628334410134
 20
-139.0585231857215
 30
0.0
 10
87.0432657659996
 20
-139.120534904456
 30
0.0
 10
87.0432657659996
 20
-139.120534904456
 30
0.0
 10
86.91751978078798
 20
-138.9014268315941
 30
0.0
 10
86.87273353947974
 20
-138.8297688455009
 30
0.0
 10
86.73527422961827
 20
-138.6516574089135
 30
0.0
 10
86.73527422961827
 20
-138.6516574089135
 30
0.0
 10
86.82243514539509
 20
-138.5913682379216
 30
0.0
 10
86.82243514539509
 20
-138.5913682379216
 30
0.0
  0
HATCH
  5
69
330
41
100
AcDbEntity
  8
_U+30EC_U+30A4_U+30E4_U+30FC 1
 62
   179
420
  2234388
100
AcDbHatch
 10
0.0
 20
0.0
 30
0.0
210
0.0
220
0.0
230
1.0
  2
SOLID
 70
     1
 71
     0
 91
        3
 92
        1
 93
        1
 72
     4
 94
        3
 73
     0
 74
     1
 95
       29
 96
       25
 40
0.0
 40
0.0
 40
0.0
 40
0.0
 40
1.0
 40
1.0
 40
1.0
 40
2.0
 40
2.0
 40
2.0
 40
3.0
 40
3.0
 40
3.0
 40
4.0
 40
4.0
 40
4.0
 40
5.0
 40
5.0
 40
5.0
 40
6.0
 40
6.0
 40
6.0
 40
7.0
 40
7.0
 40
7.0
 40
8.0
 40
8.0
 40
8.0
 40
8.0
 10
86.46380070538058
 20
-139.6359211890494
 10
86.46380070538058
 20
-139.6359211890494
 10
86.3594143121775
 20
-139.6359211890494
 10
86.3594143121775
 20
-139.6359211890494
 10
86.3594143121775
 20
-139.6359211890494
 10
86.3594143121775
 20
-138.5079969271786
 10
86.3594143121775
 20
-138.5079969271786
 10
86.25468340942592
 20
-138.6747395486647
 10
86.17716876100779
 20
-138.7522541970828
 10
86.14030623931562
 20
-138.7911837760661
 10
86.14030623931562
 20
-138.7911837760661
 10
86.06864825322242
 20
-138.694032083382
 10
86.06864825322242
 20
-138.694032083382
 10
86.23125676012621
 20
-138.5314235764783
 10
86.46586776267173
 20
-138.1555636590375
 10
86.53752574876493
 20
-137.8530842754326
 10
86.53752574876493
 20
-137.8530842754326
 10
86.64225665151652
 20
-137.8823675870572
 10
86.64225665151652
 20
-137.8823675870572
 10
86.61883000221682
 20
-137.961604783218
 10
86.57645532774825
 20
-138.1111219272778
 10
86.46380070538058
 20
-138.3260958855574
 10
86.46380070538058
 20
-138.3260958855574
 10
86.46380070538058
 20
-139.6359211890494
 10
86.46380070538058
 20
-139.6359211890494
 97
        0
 97
        0
 92
        1
 93
        1
 72
     4
 94
        3
 73
     0
 74
     1
 95
       53
 96
       49
 40
0.0
 40
0.0
 40
0.0
 40
0.0
 40
1.0
 40
1.0
 40
1.0
 40
2.0
 40
2.0
 40
2.0
 40
3.0
 40
3.0
 40
3.0
 40
4.0
 40
4.0
 40
4.0
 40
5.0
 40
5.0
 40
5.0
 40
6.0
 40
6.0
 40
6.0
 40
7.0
 40
7.0
 40
7.0
 40
8.0
 40
8.0
 40
8.0
 40
9.0
 40
9.0
 40
9.0
 40
10.0
 40
10.0
 40
10.0
 40
11.0
 40
11.0
 40
11.0
 40
12.0
 40
12.0
 40
12.0
 40
13.0
 40
13.0
 40
13.0
 40
14.0
 40
14.0
 40
14.0
 40
15.0
 40
15.0
 40
15.0
 40
16.0
 40
16.0
 40
16.0
 40
16.0
 10
87.5782890948589
 20
-137.8630750523398
 10
87.5782890948589
 20
-137.8630750523398
 10
87.5782890948589
 20
-138.2795870965065
 10
87.5782890948589
 20
-138.2795870965065
 10
87.5782890948589
 20
-138.2795870965065
 10
87.85906437690677
 20
-138.2795870965065
 10
87.85906437690677
 20
-138.2795870965065
 10
87.85906437690677
 20
-138.2795870965065
 10
87.85906437690677
 20
-138.3784613369332
 10
87.85906437690677
 20
-138.3784613369332
 10
87.85906437690677
 20
-138.3784613369332
 10
87.5782890948589
 20
-138.3784613369332
 10
87.5782890948589
 20
-138.3784613369332
 10
87.5782890948589
 20
-138.3784613369332
 10
87.5782890948589
 20
-139.492605216863
 10
87.5782890948589
 20
-139.492605216863
 10
87.5782890948589
 20
-139.5508273305637
 10
87.5741549802766
 20
-139.6359211890494
 10
87.44840899506498
 20
-139.6359211890494
 10
87.44840899506498
 20
-139.6359211890494
 10
87.10148787970033
 20
-139.6359211890494
 10
87.10148787970033
 20
-139.6359211890494
 10
87.10148787970033
 20
-139.6359211890494
 10
87.08391789272555
 20
-139.5177544139053
 10
87.08391789272555
 20
-139.5177544139053
 10
87.08391789272555
 20
-139.5177544139053
 10
87.41533607840658
 20
-139.5215440189391
 10
87.41533607840658
 20
-139.5215440189391
 10
87.44634193777384
 20
-139.5215440189391
 10
87.46770152978239
 20
-139.5215440189391
 10
87.46770152978239
 20
-139.4691785675633
 10
87.46770152978239
 20
-139.4691785675633
 10
87.46770152978239
 20
-138.3784613369332
 10
87.46770152978239
 20
-138.3784613369332
 10
87.46770152978239
 20
-138.3784613369332
 10
86.61125079214928
 20
-138.3784613369332
 10
86.61125079214928
 20
-138.3784613369332
 10
86.61125079214928
 20
-138.3784613369332
 10
86.61125079214928
 20
-138.2795870965065
 10
86.61125079214928
 20
-138.2795870965065
 10
86.61125079214928
 20
-138.2795870965065
 10
87.46770152978239
 20
-138.2795870965065
 10
87.46770152978239
 20
-138.2795870965065
 10
87.46770152978239
 20
-138.2795870965065
 10
87.46770152978239
 20
-137.8630750523398
 10
87.46770152978239
 20
-137.8630750523398
 10
87.46770152978239
 20
-137.8630750523398
 10
87.5782890948589
 20
-137.8630750523398
 10
87.5782890948589
 20
-137.8630750523398
 97
        0
 97
        0
 92
        1
 93
        1
 72
     4
 94
        3
 73
     0
 74
     1
 95
       17
 96
       13
 40
0.0
 40
0.0
 40
0.0
 40
0.0
 40
1.0
 40
1.0
 40
1.0
 40
2.0
 40
2.0
 40
2.0
 40
3.0
 40
3.0
 40
3.0
 40
4.0
 40
4.0
 40
4.0
 40
4.0
 10
86.82243514539509
 20
-138.5913682379216
 10
86.90959606117191
 20
-138.6960991406732
 10
87.02190617399106
 20
-138.8473388324757
 10
87.13628334410134
 20
-139.0585231857215
 10
87.13628334410134
 20
-139.0585231857215
 10
87.0432657659996
 20
-139.120534904456
 10
87.0432657659996
 20
-139.120534904456
 10
86.91751978078798
 20
-138.9014268315941
 10
86.87273353947974
 20
-138.8297688455009
 10
86.73527422961827
 20
-138.6516574089135
 10
86.73527422961827
 20
-138.6516574089135
 10
86.82243514539509
 20
-138.5913682379216
 10
86.82243514539509
 20
-138.5913682379216
 97
        0
 97
        0
 75
     2
 76
     1
 98
        0
  0
SPLINE
  5
6A
330
41
100
AcDbEntity
  8
_U+30EC_U+30A4_U+30E4_U+30FC 1
370
     0
100
AcDbSpline
210
0.0
220
0.0
230
1.0
 70
    11
 71
     3
 72
    23
 73
    19
 74
     0
 42
0.0000000001
 43
0.0000000001
 12
1.0
 22
0.0
 32
0.0
 13
1.0
 23
0.0
 33
0.0
 40
0.0
 40
0.0
 40
0.0
 40
0.0
 40
1.0
 40
1.0
 40
1.0
 40
2.0
 40
2.0
 40
2.0
 40
3.0
 40
3.0
 40
3.0
 40
4.0
 40
4.0
 40
4.0
 40
5.0
 40
5.0
 40
5.0
 40
6.0
 40
6.0
 40
6.0
 40
6.0
 10
88.15017494541037
 20
-137.8300021356814
 30
0.0
 10
88.51845565278359
 20
-138.1476399394214
 30
0.0
 10
88.57667776648431
 20
-138.4945610547861
 30
0.0
 10
88.57667776648431
 20
-138.748464592049
 30
0.0
 10
88.57667776648431
 20
-139.0023681293119
 30
0.0
 10
88.51845565278359
 20
-139.3492892446766
 30
0.0
 10
88.15017494541037
 20
-139.6669270484166
 30
0.0
 10
88.15017494541037
 20
-139.6669270484166
 30
0.0
 10
88.02821856523254
 20
-139.6669270484166
 30
0.0
 10
88.02821856523254
 20
-139.6669270484166
 30
0.0
 10
88.27419838287938
 20
-139.4540201474282
 30
0.0
 10
88.46609020140778
 20
-139.1942599478403
 30
0.0
 10
88.46609020140778
 20
-138.748464592049
 30
0.0
 10
88.46609020140778
 20
-138.3026692362577
 30
0.0
 10
88.27419838287938
 20
-138.0429090366698
 30
0.0
 10
88.02821856523254
 20
-137.8300021356814
 30
0.0
 10
88.02821856523254
 20
-137.8300021356814
 30
0.0
 10
88.15017494541037
 20
-137.8300021356814
 30
0.0
 10
88.15017494541037
 20
-137.8300021356814
 30
0.0
  0
HATCH
  5
6B
330
41
100
AcDbEntity
  8
_U+30EC_U+30A4_U+30E4_U+30FC 1
 62
   179
420
  2234388
100
AcDbHatch
 10
0.0
 20
0.0
 30
0.0
210
0.0
220
0.0
230
1.0
  2
SOLID
 70
     1
 71
     0
 91
        1
 92
        1
 93
        1
 72
     4
 94
        3
 73
     0
 74
     1
 95
       23
 96
       19
 40
0.0
 40
0.0
 40
0.0
 40
0.0
 40
1.0
 40
1.0
 40
1.0
 40
2.0
 40
2.0
 40
2.0
 40
3.0
 40
3.0
 40
3.0
 40
4.0
 40
4.0
 40
4.0
 40
5.0
 40
5.0
 40
5.0
 40
6.0
 40
6.0
 40
6.0
 40
6.0
 10
88.15017494541037
 20
-137.8300021356814
 10
88.51845565278359
 20
-138.1476399394214
 10
88.57667776648431
 20
-138.4945610547861
 10
88.57667776648431
 20
-138.748464592049
 10
88.57667776648431
 20
-139.0023681293119
 10
88.51845565278359
 20
-139.3492892446766
 10
88.15017494541037
 20
-139.6669270484166
 10
88.15017494541037
 20
-139.6669270484166
 10
88.02821856523254
 20
-139.6669270484166
 10
88.02821856523254
 20
-139.6669270484166
 10
88.27419838287938
 20
-139.4540201474282
 10
88.46609020140778
 20
-139.1942599478403
 10
88.46609020140778
 20
-138.748464592049
 10
88.46609020140778
 20
-138.3026692362577
 10
88.27419838287938
 20
-138.0429090366698
 10
88.02821856523254
 20
-137.8300021356814
 10
88.02821856523254
 20
-137.8300021356814
 10
88.15017494541037
 20
-137.8300021356814
 10
88.15017494541037
 20
-137.8300021356814
 97
        0
 97
        0
 75
     2
 76
     1
 98
        0
  0
ENDBLK
  5
44
330
41
100
AcDbEntity
  8
0
100
AcDbBlockEnd
  0
BLOCK
  5
6E
330
6C
100
AcDbEntity
  8
0
100
AcDbBlockBegin
  2
block 3
 70
     0
 10
0.0
 20
0.0
 30
0.0
  3
block 3
  1

  0
SPLINE
  5
70
330
6C
100
AcDbEntity
  8
_U+30EC_U+30A4_U+30E4_U+30FC 1
370
     0
100
AcDbSpline
210
0.0
220
0.0
230
1.0
 70
    11
 71
     3
 72
    47
 73
    43
 74
     0
 42
0.0000000001
 43
0.0000000001
 12
1.0
 22
0.0
 32
0.0
 13
1.0
 23
0.0
 33
0.0
 40
0.0
 40
0.0
 40
0.0
 40
0.0
 40
1.0
 40
1.0
 40
1.0
 40
2.0
 40
2.0
 40
2.0
 40
3.0
 40
3.0
 40
3.0
 40
4.0
 40
4.0
 40
4.0
 40
5.0
 40
5.0
 40
5.0
 40
6.0
 40
6.0
 40
6.0
 40
7.0
 40
7.0
 40
7.0
 40
8.0
 40
8.0
 40
8.0
 40
9.0
 40
9.0
 40
9.0
 40
10.0
 40
10.0
 40
10.0
 40
11.0
 40
11.0
 40
11.0
 40
12.0
 40
12.0
 40
12.0
 40
13.0
 40
13.0
 40
13.0
 40
14.0
 40
14.0
 40
14.0
 40
14.0
 10
76.43219941665585
 20
-117.6000569367458
 30
0.0
 10
76.43219941665585
 20
-117.6000569367458
 30
0.0
 10
76.43219941665585
 20
-117.1502997211465
 30
0.0
 10
76.43219941665585
 20
-117.1502997211465
 30
0.0
 10
76.43219941665585
 20
-117.1502997211465
 30
0.0
 10
77.9644056337207
 20
-117.1502997211465
 30
0.0
 10
77.9644056337207
 20
-117.1502997211465
 30
0.0
 10
78.01229246096568
 20
-117.1502997211465
 30
0.0
 10
78.12029620442826
 20
-117.1442708040473
 30
0.0
 10
78.17128361760996
 20
-117.126356307524
 30
0.0
 10
78.17128361760996
 20
-117.126356307524
 30
0.0
 10
78.40503334628416
 20
-117.3811211186582
 30
0.0
 10
78.40503334628416
 20
-117.3811211186582
 30
0.0
 10
78.38108993266168
 20
-117.4112657041541
 30
0.0
 10
78.33613143657917
 20
-117.4741386967599
 30
0.0
 10
78.29117294049665
 20
-117.5730129371866
 30
0.0
 10
78.18024086587161
 20
-117.8250216719326
 30
0.0
 10
78.06035154298492
 20
-118.0768581519044
 30
0.0
 10
77.91031763460228
 20
-118.3076795494161
 30
0.0
 10
78.03640812936243
 20
-118.4036254586804
 30
0.0
 10
78.58503958538847
 20
-118.8594115913789
 30
0.0
 10
78.80983206580102
 20
-119.129162567874
 30
0.0
 10
78.71095782537435
 20
-119.2431952284357
 30
0.0
 10
78.54903833756761
 20
-119.4230292127658
 30
0.0
 10
78.45016409714094
 20
-119.5370618733275
 30
0.0
 10
78.33923202251589
 20
-119.3840996337825
 30
0.0
 10
78.08722328776986
 20
-119.0332166586098
 30
0.0
 10
77.64349498926968
 20
-118.6825059382113
 30
0.0
 10
77.35565726147706
 20
-119.0273599962848
 30
0.0
 10
76.88505721819193
 20
-119.4140719645041
 30
0.0
 10
76.49214407809919
 20
-119.5789197834733
 30
0.0
 10
76.37828367231168
 20
-119.3901285508816
 30
0.0
 10
76.31523842493161
 20
-119.3060682210415
 30
0.0
 10
76.1503906059624
 20
-119.1682644016315
 30
0.0
 10
76.5371025741817
 20
-119.0302883274473
 30
0.0
 10
76.83406980501023
 20
-118.8533826742797
 30
0.0
 10
77.12483586396532
 20
-118.5684732776496
 30
0.0
 10
77.4665893361021
 20
-118.2387776397111
 30
0.0
 10
77.58957924492553
 20
-117.9449109948193
 30
0.0
 10
77.72445473317306
 20
-117.6000569367458
 30
0.0
 10
77.72445473317306
 20
-117.6000569367458
 30
0.0
 10
76.43219941665585
 20
-117.6000569367458
 30
0.0
 10
76.43219941665585
 20
-117.6000569367458
 30
0.0
  0
HATCH
  5
71
330
6C
100
AcDbEntity
  8
_U+30EC_U+30A4_U+30E4_U+30FC 1
 62
   179
420
  2234388
100
AcDbHatch
 10
0.0
 20
0.0
 30
0.0
210
0.0
220
0.0
230
1.0
  2
SOLID
 70
     1
 71
     0
 91
        1
 92
        1
 93
        1
 72
     4
 94
        3
 73
     0
 74
     1
 95
       47
 96
       43
 40
0.0
 40
0.0
 40
0.0
 40
0.0
 40
1.0
 40
1.0
 40
1.0
 40
2.0
 40
2.0
 40
2.0
 40
3.0
 40
3.0
 40
3.0
 40
4.0
 40
4.0
 40
4.0
 40
5.0
 40
5.0
 40
5.0
 40
6.0
 40
6.0
 40
6.0
 40
7.0
 40
7.0
 40
7.0
 40
8.0
 40
8.0
 40
8.0
 40
9.0
 40
9.0
 40
9.0
 40
10.0
 40
10.0
 40
10.0
 40
11.0
 40
11.0
 40
11.0
 40
12.0
 40
12.0
 40
12.0
 40
13.0
 40
13.0
 40
13.0
 40
14.0
 40
14.0
 40
14.0
 40
14.0
 10
76.43219941665585
 20
-117.6000569367458
 10
76.43219941665585
 20
-117.6000569367458
 10
76.43219941665585
 20
-117.1502997211465
 10
76.43219941665585
 20
-117.1502997211465
 10
76.43219941665585
 20
-117.1502997211465
 10
77.9644056337207
 20
-117.1502997211465
 10
77.9644056337207
 20
-117.1502997211465
 10
78.01229246096568
 20
-117.1502997211465
 10
78.12029620442826
 20
-117.1442708040473
 10
78.17128361760996
 20
-117.126356307524
 10
78.17128361760996
 20
-117.126356307524
 10
78.40503334628416
 20
-117.3811211186582
 10
78.40503334628416
 20
-117.3811211186582
 10
78.38108993266168
 20
-117.4112657041541
 10
78.33613143657917
 20
-117.4741386967599
 10
78.29117294049665
 20
-117.5730129371866
 10
78.18024086587161
 20
-117.8250216719326
 10
78.06035154298492
 20
-118.0768581519044
 10
77.91031763460228
 20
-118.3076795494161
 10
78.03640812936243
 20
-118.4036254586804
 10
78.58503958538847
 20
-118.8594115913789
 10
78.80983206580102
 20
-119.129162567874
 10
78.71095782537435
 20
-119.2431952284357
 10
78.54903833756761
 20
-119.4230292127658
 10
78.45016409714094
 20
-119.5370618733275
 10
78.33923202251589
 20
-119.3840996337825
 10
78.08722328776986
 20
-119.0332166586098
 10
77.64349498926968
 20
-118.6825059382113
 10
77.35565726147706
 20
-119.0273599962848
 10
76.88505721819193
 20
-119.4140719645041
 10
76.49214407809919
 20
-119.5789197834733
 10
76.37828367231168
 20
-119.3901285508816
 10
76.31523842493161
 20
-119.3060682210415
 10
76.1503906059624
 20
-119.1682644016315
 10
76.5371025741817
 20
-119.0302883274473
 10
76.83406980501023
 20
-118.8533826742797
 10
77.12483586396532
 20
-118.5684732776496
 10
77.4665893361021
 20
-118.2387776397111
 10
77.58957924492553
 20
-117.9449109948193
 10
77.72445473317306
 20
-117.6000569367458
 10
77.72445473317306
 20
-117.6000569367458
 10
76.43219941665585
 20
-117.6000569367458
 10
76.43219941665585
 20
-117.6000569367458
 97
        0
 97
        0
 75
     2
 76
     1
 98
        0
  0
SPLINE
  5
72
330
6C
100
AcDbEntity
  8
_U+30EC_U+30A4_U+30E4_U+30FC 1
370
     0
100
AcDbSpline
210
0.0
220
0.0
230
1.0
 70
    11
 71
     3
 72
    38
 73
    34
 74
     0
 42
0.0000000001
 43
0.0000000001
 12
1.0
 22
0.0
 32
0.0
 13
1.0
 23
0.0
 33
0.0
 40
0.0
 40
0.0
 40
0.0
 40
0.0
 40
1.0
 40
1.0
 40
1.0
 40
2.0
 40
2.0
 40
2.0
 40
3.0
 40
3.0
 40
3.0
 40
4.0
 40
4.0
 40
4.0
 40
5.0
 40
5.0
 40
5.0
 40
6.0
 40
6.0
 40
6.0
 40
7.0
 40
7.0
 40
7.0
 40
8.0
 40
8.0
 40
8.0
 40
9.0
 40
9.0
 40
9.0
 40
10.0
 40
10.0
 40
10.0
 40
11.0
 40
11.0
 40
11.0
 40
11.0
 10
80.25401609321774
 20
-117.7680053416518
 30
0.0
 10
80.69774439171793
 20
-117.9927978220643
 30
0.0
 10
81.0785996976123
 20
-118.2506632191353
 30
0.0
 10
81.30046384686239
 20
-118.4725273683853
 30
0.0
 10
81.16558835861485
 20
-118.6675197728505
 30
0.0
 10
81.15060219325402
 20
-118.6885348553105
 30
0.0
 10
81.01865503616895
 20
-118.892312253263
 30
0.0
 10
80.91978079574228
 20
-118.7994669299356
 30
0.0
 10
80.61988523375128
 20
-118.5205864504046
 30
0.0
 10
80.08313935714936
 20
-118.2267198055128
 30
0.0
 10
80.08313935714936
 20
-118.2267198055128
 30
0.0
 10
80.08313935714936
 20
-119.6330077825917
 30
0.0
 10
80.08313935714936
 20
-119.6330077825917
 30
0.0
 10
80.08313935714936
 20
-119.6330077825917
 30
0.0
 10
79.57653806604337
 20
-119.6330077825917
 30
0.0
 10
79.57653806604337
 20
-119.6330077825917
 30
0.0
 10
79.57653806604337
 20
-119.6330077825917
 30
0.0
 10
79.57653806604337
 20
-116.9854519021773
 30
0.0
 10
79.57653806604337
 20
-116.9854519021773
 30
0.0
 10
79.57653806604337
 20
-116.9854519021773
 30
0.0
 10
80.08313935714936
 20
-117.0093953157997
 30
0.0
 10
80.08313935714936
 20
-117.0093953157997
 30
0.0
 10
80.10415443960939
 20
-117.0093953157997
 30
0.0
 10
80.14015568743024
 20
-117.0123236469622
 30
0.0
 10
80.14015568743024
 20
-117.0424682324581
 30
0.0
 10
80.14015568743024
 20
-117.0724405631798
 30
0.0
 10
80.10708277077184
 20
-117.0843261426039
 30
0.0
 10
80.08313935714936
 20
-117.0903550597031
 30
0.0
 10
80.08313935714936
 20
-117.0903550597031
 30
0.0
 10
80.08313935714936
 20
-118.0077839874251
 30
0.0
 10
80.08313935714936
 20
-118.0077839874251
 30
0.0
 10
80.08313935714936
 20
-118.0077839874251
 30
0.0
 10
80.25401609321774
 20
-117.7680053416518
 30
0.0
 10
80.25401609321774
 20
-117.7680053416518
 30
0.0
  0
HATCH
  5
73
330
6C
100
AcDbEntity
  8
_U+30EC_U+30A4_U+30E4_U+30FC 1
 62
   179
420
  2234388
100
AcDbHatch
 10
0.0
 20
0.0
 30
0.0
210
0.0
220
0.0
230
1.0
  2
SOLID
 70
     1
 71
     0
 91
        1
 92
        1
 93
        1
 72
     4
 94
        3
 73
     0
 74
     1
 95
       38
 96
       34
 40
0.0
 40
0.0
 40
0.0
 40
0.0
 40
1.0
 40
1.0
 40
1.0
 40
2.0
 40
2.0
 40
2.0
 40
3.0
 40
3.0
 40
3.0
 40
4.0
 40
4.0
 40
4.0
 40
5.0
 40
5.0
 40
5.0
 40
6.0
 40
6.0
 40
6.0
 40
7.0
 40
7.0
 40
7.0
 40
8.0
 40
8.0
 40
8.0
 40
9.0
 40
9.0
 40
9.0
 40
10.0
 40
10.0
 40
10.0
 40
11.0
 40
11.0
 40
11.0
 40
11.0
 10
80.25401609321774
 20
-117.7680053416518
 10
80.69774439171793
 20
-117.9927978220643
 10
81.0785996976123
 20
-118.2506632191353
 10
81.30046384686239
 20
-118.4725273683853
 10
81.16558835861485
 20
-118.6675197728505
 10
81.15060219325402
 20
-118.6885348553105
 10
81.01865503616895
 20
-118.892312253263
 10
80.91978079574228
 20
-118.7994669299356
 10
80.61988523375128
 20
-118.5205864504046
 10
80.08313935714936
 20
-118.2267198055128
 10
80.08313935714936
 20
-118.2267198055128
 10
80.08313935714936
 20
-119.6330077825917
 10
80.08313935714936
 20
-119.6330077825917
 10
80.08313935714936
 20
-119.6330077825917
 10
79.57653806604337
 20
-119.6330077825917
 10
79.57653806604337
 20
-119.6330077825917
 10
79.57653806604337
 20
-119.6330077825917
 10
79.57653806604337
 20
-116.9854519021773
 10
79.57653806604337
 20
-116.9854519021773
 10
79.57653806604337
 20
-116.9854519021773
 10
80.08313935714936
 20
-117.0093953157997
 10
80.08313935714936
 20
-117.0093953157997
 10
80.10415443960939
 20
-117.0093953157997
 10
80.14015568743024
 20
-117.0123236469622
 10
80.14015568743024
 20
-117.0424682324581
 10
80.14015568743024
 20
-117.0724405631798
 10
80.10708277077184
 20
-117.0843261426039
 10
80.08313935714936
 20
-117.0903550597031
 10
80.08313935714936
 20
-117.0903550597031
 10
80.08313935714936
 20
-118.0077839874251
 10
80.08313935714936
 20
-118.0077839874251
 10
80.08313935714936
 20
-118.0077839874251
 10
80.25401609321774
 20
-117.7680053416518
 10
80.25401609321774
 20
-117.7680053416518
 97
        0
 97
        0
 75
     2
 76
     1
 98
        0
  0
SPLINE
  5
74
330
6C
100
AcDbEntity
  8
_U+30EC_U+30A4_U+30E4_U+30FC 1
370
     0
100
AcDbSpline
210
0.0
220
0.0
230
1.0
 70
    11
 71
     3
 72
    17
 73
    13
 74
     0
 42
0.0000000001
 43
0.0000000001
 12
1.0
 22
0.0
 32
0.0
 13
1.0
 23
0.0
 33
0.0
 40
0.0
 40
0.0
 40
0.0
 40
0.0
 40
1.0
 40
1.0
 40
1.0
 40
2.0
 40
2.0
 40
2.0
 40
3.0
 40
3.0
 40
3.0
 40
4.0
 40
4.0
 40
4.0
 40
4.0
 10
82.136244011584
 20
-117.6810166806492
 30
0.0
 10
82.22908933491148
 20
-117.8308783342576
 30
0.0
 10
82.35517982967163
 20
-118.0918443172652
 30
0.0
 10
82.41202390517824
 20
-118.2296481366752
 30
0.0
 10
82.33709307837407
 20
-118.2566921362344
 30
0.0
 10
82.16621634230567
 20
-118.3255940459394
 30
0.0
 10
82.03134085405814
 20
-118.4156832928787
 30
0.0
 10
81.95038111015477
 20
-118.2206908884136
 30
0.0
 10
81.84840628379138
 20
-118.0258707387227
 30
0.0
 10
81.74953204336471
 20
-117.8429361684559
 30
0.0
 10
81.74953204336471
 20
-117.8429361684559
 30
0.0
 10
82.136244011584
 20
-117.6810166806492
 30
0.0
 10
82.136244011584
 20
-117.6810166806492
 30
0.0
  0
SPLINE
  5
75
330
6C
100
AcDbEntity
  8
_U+30EC_U+30A4_U+30E4_U+30FC 1
370
     0
100
AcDbSpline
210
0.0
220
0.0
230
1.0
 70
    11
 71
     3
 72
    23
 73
    19
 74
     0
 42
0.0000000001
 43
0.0000000001
 12
1.0
 22
0.0
 32
0.0
 13
1.0
 23
0.0
 33
0.0
 40
0.0
 40
0.0
 40
0.0
 40
0.0
 40
1.0
 40
1.0
 40
1.0
 40
2.0
 40
2.0
 40
2.0
 40
3.0
 40
3.0
 40
3.0
 40
4.0
 40
4.0
 40
4.0
 40
5.0
 40
5.0
 40
5.0
 40
6.0
 40
6.0
 40
6.0
 40
6.0
 10
83.83329804761807
 20
-117.7290757626684
 30
0.0
 10
83.8661987095022
 20
-117.7380330109301
 30
0.0
 10
83.89031437789895
 20
-117.7469902591917
 30
0.0
 10
83.89031437789895
 20
-117.7740342587509
 30
0.0
 10
83.89031437789895
 20
-117.8040065894726
 30
0.0
 10
83.84828421297891
 20
-117.8069349206351
 30
0.0
 10
83.83329804761807
 20
-117.8069349206351
 30
0.0
 10
83.5814615676463
 20
-118.871297170803
 30
0.0
 10
83.09863143538854
 20
-119.2910820556807
 30
0.0
 10
82.4030666569166
 20
-119.5909776176717
 30
0.0
 10
82.36706540909574
 20
-119.5279323702916
 30
0.0
 10
82.27714841693071
 20
-119.3809990478457
 30
0.0
 10
82.11815726028644
 20
-119.2521524766974
 30
0.0
 10
82.8857245344001
 20
-118.9553575006431
 30
0.0
 10
83.26950817145693
 20
-118.5474581951895
 30
0.0
 10
83.39852699737953
 20
-117.5940280196466
 30
0.0
 10
83.39852699737953
 20
-117.5940280196466
 30
0.0
 10
83.83329804761807
 20
-117.7290757626684
 30
0.0
 10
83.83329804761807
 20
-117.7290757626684
 30
0.0
  0
SPLINE
  5
76
330
6C
100
AcDbEntity
  8
_U+30EC_U+30A4_U+30E4_U+30FC 1
370
     0
100
AcDbSpline
210
0.0
220
0.0
230
1.0
 70
    11
 71
     3
 72
    17
 73
    13
 74
     0
 42
0.0000000001
 43
0.0000000001
 12
1.0
 22
0.0
 32
0.0
 13
1.0
 23
0.0
 33
0.0
 40
0.0
 40
0.0
 40
0.0
 40
0.0
 40
1.0
 40
1.0
 40
1.0
 40
2.0
 40
2.0
 40
2.0
 40
3.0
 40
3.0
 40
3.0
 40
4.0
 40
4.0
 40
4.0
 40
4.0
 10
82.7479207149901
 20
-117.5430406064649
 30
0.0
 10
82.8498955413535
 20
-117.7109890113709
 30
0.0
 10
82.92172578222096
 20
-117.863951250916
 30
0.0
 10
82.99372827786269
 20
-118.1068304826261
 30
0.0
 10
82.77479245977506
 20
-118.1877902265294
 30
0.0
 10
82.7029622189076
 20
-118.2177625572511
 30
0.0
 10
82.61597355790504
 20
-118.2627210533336
 30
0.0
 10
82.55895722762415
 20
-118.1097588137885
 30
0.0
 10
82.43613957357499
 20
-117.8429361684559
 30
0.0
 10
82.35517982967163
 20
-117.7020317631092
 30
0.0
 10
82.35517982967163
 20
-117.7020317631092
 30
0.0
 10
82.7479207149901
 20
-117.5430406064649
 30
0.0
 10
82.7479207149901
 20
-117.5430406064649
 30
0.0
  0
HATCH
  5
77
330
6C
100
AcDbEntity
  8
_U+30EC_U+30A4_U+30E4_U+30FC 1
 62
   179
420
  2234388
100
AcDbHatch
 10
0.0
 20
0.0
 30
0.0
210
0.0
220
0.0
230
1.0
  2
SOLID
 70
     1
 71
     0
 91
        3
 92
        1
 93
        1
 72
     4
 94
        3
 73
     0
 74
     1
 95
       17
 96
       13
 40
0.0
 40
0.0
 40
0.0
 40
0.0
 40
1.0
 40
1.0
 40
1.0
 40
2.0
 40
2.0
 40
2.0
 40
3.0
 40
3.0
 40
3.0
 40
4.0
 40
4.0
 40
4.0
 40
4.0
 10
82.136244011584
 20
-117.6810166806492
 10
82.22908933491148
 20
-117.8308783342576
 10
82.35517982967163
 20
-118.0918443172652
 10
82.41202390517824
 20
-118.2296481366752
 10
82.33709307837407
 20
-118.2566921362344
 10
82.16621634230567
 20
-118.3255940459394
 10
82.03134085405814
 20
-118.4156832928787
 10
81.95038111015477
 20
-118.2206908884136
 10
81.84840628379138
 20
-118.0258707387227
 10
81.74953204336471
 20
-117.8429361684559
 10
81.74953204336471
 20
-117.8429361684559
 10
82.136244011584
 20
-117.6810166806492
 10
82.136244011584
 20
-117.6810166806492
 97
        0
 97
        0
 92
        1
 93
        1
 72
     4
 94
        3
 73
     0
 74
     1
 95
       23
 96
       19
 40
0.0
 40
0.0
 40
0.0
 40
0.0
 40
1.0
 40
1.0
 40
1.0
 40
2.0
 40
2.0
 40
2.0
 40
3.0
 40
3.0
 40
3.0
 40
4.0
 40
4.0
 40
4.0
 40
5.0
 40
5.0
 40
5.0
 40
6.0
 40
6.0
 40
6.0
 40
6.0
 10
83.83329804761807
 20
-117.7290757626684
 10
83.8661987095022
 20
-117.7380330109301
 10
83.89031437789895
 20
-117.7469902591917
 10
83.89031437789895
 20
-117.7740342587509
 10
83.89031437789895
 20
-117.8040065894726
 10
83.84828421297891
 20
-117.8069349206351
 10
83.83329804761807
 20
-117.8069349206351
 10
83.5814615676463
 20
-118.871297170803
 10
83.09863143538854
 20
-119.2910820556807
 10
82.4030666569166
 20
-119.5909776176717
 10
82.36706540909574
 20
-119.5279323702916
 10
82.27714841693071
 20
-119.3809990478457
 10
82.11815726028644
 20
-119.2521524766974
 10
82.8857245344001
 20
-118.9553575006431
 10
83.26950817145693
 20
-118.5474581951895
 10
83.39852699737953
 20
-117.5940280196466
 10
83.39852699737953
 20
-117.5940280196466
 10
83.83329804761807
 20
-117.7290757626684
 10
83.83329804761807
 20
-117.7290757626684
 97
        0
 97
        0
 92
        1
 93
        1
 72
     4
 94
        3
 73
     0
 74
     1
 95
       17
 96
       13
 40
0.0
 40
0.0
 40
0.0
 40
0.0
 40
1.0
 40
1.0
 40
1.0
 40
2.0
 40
2.0
 40
2.0
 40
3.0
 40
3.0
 40
3.0
 40
4.0
 40
4.0
 40
4.0
 40
4.0
 10
82.7479207149901
 20
-117.5430406064649
 10
82.8498955413535
 20
-117.7109890113709
 10
82.92172578222096
 20
-117.863951250916
 10
82.99372827786269
 20
-118.1068304826261
 10
82.77479245977506
 20
-118.1877902265294
 10
82.7029622189076
 20
-118.2177625572511
 10
82.61597355790504
 20
-118.2627210533336
 10
82.55895722762415
 20
-118.1097588137885
 10
82.43613957357499
 20
-117.8429361684559
 10
82.35517982967163
 20
-117.7020317631092
 10
82.35517982967163
 20
-117.7020317631092
 10
82.7479207149901
 20
-117.5430406064649
 10
82.7479207149901
 20
-117.5430406064649
 97
        0
 97
        0
 75
     2
 76
     1
 98
        0
  0
SPLINE
  5
78
330
6C
100
AcDbEntity
  8
_U+30EC_U+30A4_U+30E4_U+30FC 1
370
     0
100
AcDbSpline
210
0.0
220
0.0
230
1.0
 70
    11
 71
     3
 72
    38
 73
    34
 74
     0
 42
0.0000000001
 43
0.0000000001
 12
1.0
 22
0.0
 32
0.0
 13
1.0
 23
0.0
 33
0.0
 40
0.0
 40
0.0
 40
0.0
 40
0.0
 40
1.0
 40
1.0
 40
1.0
 40
2.0
 40
2.0
 40
2.0
 40
3.0
 40
3.0
 40
3.0
 40
4.0
 40
4.0
 40
4.0
 40
5.0
 40
5.0
 40
5.0
 40
6.0
 40
6.0
 40
6.0
 40
7.0
 40
7.0
 40
7.0
 40
8.0
 40
8.0
 40
8.0
 40
9.0
 40
9.0
 40
9.0
 40
10.0
 40
10.0
 40
10.0
 40
11.0
 40
11.0
 40
11.0
 40
11.0
 10
86.39679359819247
 20
-117.3182481260524
 30
0.0
 10
86.48963892151995
 20
-117.3182481260524
 30
0.0
 10
86.51065400397998
 20
-117.3003336295291
 30
0.0
 10
86.54062633470166
 20
-117.2762179611323
 30
0.0
 10
86.54062633470166
 20
-117.2762179611323
 30
0.0
 10
86.84655081379184
 20
-117.4922254480575
 30
0.0
 10
86.84655081379184
 20
-117.4922254480575
 30
0.0
 10
86.76249048395174
 20
-117.6181436880434
 30
0.0
 10
86.73854707032926
 20
-117.6780883494867
 30
0.0
 10
86.65465899526342
 20
-117.8909952504752
 30
0.0
 10
86.42073701181496
 20
-118.4935424508454
 30
0.0
 10
86.24090302748492
 20
-118.8354681777564
 30
0.0
 10
85.90500621767306
 20
-119.129162567874
 30
0.0
 10
85.83903263913052
 20
-119.1861788981549
 30
0.0
 10
85.49417858105701
 20
-119.4829738742091
 30
0.0
 10
85.08955211631442
 20
-119.6569511962142
 30
0.0
 10
84.99050562111348
 20
-119.4800455430467
 30
0.0
 10
84.87957354648844
 20
-119.3691134684216
 30
0.0
 10
84.74762638940338
 20
-119.261109724959
 30
0.0
 10
85.20341252210193
 20
-119.0931613200531
 30
0.0
 10
85.54826658017544
 20
-118.8203097576213
 30
0.0
 10
85.69519990262134
 20
-118.6614908557513
 30
0.0
 10
85.86004772159055
 20
-118.4816568714213
 30
0.0
 10
86.09086911910228
 20
-118.1128593997253
 30
0.0
 10
86.17785778010484
 20
-117.7499185903542
 30
0.0
 10
86.17785778010484
 20
-117.7499185903542
 30
0.0
 10
84.43877357915073
 20
-117.7499185903542
 30
0.0
 10
84.43877357915073
 20
-117.7499185903542
 30
0.0
 10
84.43877357915073
 20
-117.7499185903542
 30
0.0
 10
84.43877357915073
 20
-117.3182481260524
 30
0.0
 10
84.43877357915073
 20
-117.3182481260524
 30
0.0
 10
84.43877357915073
 20
-117.3182481260524
 30
0.0
 10
86.39679359819247
 20
-117.3182481260524
 30
0.0
 10
86.39679359819247
 20
-117.3182481260524
 30
0.0
  0
SPLINE
  5
79
330
6C
100
AcDbEntity
  8
_U+30EC_U+30A4_U+30E4_U+30FC 1
370
     0
100
AcDbSpline
210
0.0
220
0.0
230
1.0
 70
    11
 71
     3
 72
    17
 73
    13
 74
     0
 42
0.0000000001
 43
0.0000000001
 12
1.0
 22
0.0
 32
0.0
 13
1.0
 23
0.0
 33
0.0
 40
0.0
 40
0.0
 40
0.0
 40
0.0
 40
1.0
 40
1.0
 40
1.0
 40
2.0
 40
2.0
 40
2.0
 40
3.0
 40
3.0
 40
3.0
 40
4.0
 40
4.0
 40
4.0
 40
4.0
 10
87.15833195520695
 20
-117.1142984733256
 30
0.0
 10
87.15833195520695
 20
-117.2701890440332
 30
0.0
 10
87.03241371522107
 20
-117.396107284019
 30
0.0
 10
86.87652314451351
 20
-117.396107284019
 30
0.0
 10
86.72046031903169
 20
-117.396107284019
 30
0.0
 10
86.59454207904581
 20
-117.2701890440332
 30
0.0
 10
86.59454207904581
 20
-117.1142984733256
 30
0.0
 10
86.59454207904581
 20
-116.9554795714556
 30
0.0
 10
86.72046031903169
 20
-116.8324896626322
 30
0.0
 10
86.87652314451351
 20
-116.8324896626322
 30
0.0
 10
87.02931312928435
 20
-116.8324896626322
 30
0.0
 10
87.15833195520695
 20
-116.9554795714556
 30
0.0
 10
87.15833195520695
 20
-117.1142984733256
 30
0.0
  0
SPLINE
  5
7A
330
6C
100
AcDbEntity
  8
_U+30EC_U+30A4_U+30E4_U+30FC 1
370
     0
100
AcDbSpline
210
0.0
220
0.0
230
1.0
 70
    11
 71
     3
 72
    17
 73
    13
 74
     0
 42
0.0000000001
 43
0.0000000001
 12
1.0
 22
0.0
 32
0.0
 13
1.0
 23
0.0
 33
0.0
 40
0.0
 40
0.0
 40
0.0
 40
0.0
 40
1.0
 40
1.0
 40
1.0
 40
2.0
 40
2.0
 40
2.0
 40
3.0
 40
3.0
 40
3.0
 40
4.0
 40
4.0
 40
4.0
 40
4.0
 10
86.74457598742845
 20
-117.1142984733256
 30
0.0
 10
86.74457598742845
 20
-117.1863009689673
 30
0.0
 10
86.80142006293507
 20
-117.2462456304107
 30
0.0
 10
86.87652314451351
 20
-117.2462456304107
 30
0.0
 10
86.94835338538097
 20
-117.2462456304107
 30
0.0
 10
87.00847030159858
 20
-117.1863009689673
 30
0.0
 10
87.00847030159858
 20
-117.1142984733256
 30
0.0
 10
87.00847030159858
 20
-117.0393676465214
 30
0.0
 10
86.94835338538097
 20
-116.9823513162405
 30
0.0
 10
86.87652314451351
 20
-116.9823513162405
 30
0.0
 10
86.80452064887179
 20
-116.9823513162405
 30
0.0
 10
86.74457598742845
 20
-117.0393676465214
 30
0.0
 10
86.74457598742845
 20
-117.1142984733256
 30
0.0
  0
HATCH
  5
7B
330
6C
100
AcDbEntity
  8
_U+30EC_U+30A4_U+30E4_U+30FC 1
 62
   179
420
  2234388
100
AcDbHatch
 10
0.0
 20
0.0
 30
0.0
210
0.0
220
0.0
230
1.0
  2
SOLID
 70
     1
 71
     0
 91
        3
 92
        1
 93
        1
 72
     4
 94
        3
 73
     0
 74
     1
 95
       38
 96
       34
 40
0.0
 40
0.0
 40
0.0
 40
0.0
 40
1.0
 40
1.0
 40
1.0
 40
2.0
 40
2.0
 40
2.0
 40
3.0
 40
3.0
 40
3.0
 40
4.0
 40
4.0
 40
4.0
 40
5.0
 40
5.0
 40
5.0
 40
6.0
 40
6.0
 40
6.0
 40
7.0
 40
7.0
 40
7.0
 40
8.0
 40
8.0
 40
8.0
 40
9.0
 40
9.0
 40
9.0
 40
10.0
 40
10.0
 40
10.0
 40
11.0
 40
11.0
 40
11.0
 40
11.0
 10
86.39679359819247
 20
-117.3182481260524
 10
86.48963892151995
 20
-117.3182481260524
 10
86.51065400397998
 20
-117.3003336295291
 10
86.54062633470166
 20
-117.2762179611323
 10
86.54062633470166
 20
-117.2762179611323
 10
86.84655081379184
 20
-117.4922254480575
 10
86.84655081379184
 20
-117.4922254480575
 10
86.76249048395174
 20
-117.6181436880434
 10
86.73854707032926
 20
-117.6780883494867
 10
86.65465899526342
 20
-117.8909952504752
 10
86.42073701181496
 20
-118.4935424508454
 10
86.24090302748492
 20
-118.8354681777564
 10
85.90500621767306
 20
-119.129162567874
 10
85.83903263913052
 20
-119.1861788981549
 10
85.49417858105701
 20
-119.4829738742091
 10
85.08955211631442
 20
-119.6569511962142
 10
84.99050562111348
 20
-119.4800455430467
 10
84.87957354648844
 20
-119.3691134684216
 10
84.74762638940338
 20
-119.261109724959
 10
85.20341252210193
 20
-119.0931613200531
 10
85.54826658017544
 20
-118.8203097576213
 10
85.69519990262134
 20
-118.6614908557513
 10
85.86004772159055
 20
-118.4816568714213
 10
86.09086911910228
 20
-118.1128593997253
 10
86.17785778010484
 20
-117.7499185903542
 10
86.17785778010484
 20
-117.7499185903542
 10
84.43877357915073
 20
-117.7499185903542
 10
84.43877357915073
 20
-117.7499185903542
 10
84.43877357915073
 20
-117.7499185903542
 10
84.43877357915073
 20
-117.3182481260524
 10
84.43877357915073
 20
-117.3182481260524
 10
84.43877357915073
 20
-117.3182481260524
 10
86.39679359819247
 20
-117.3182481260524
 10
86.39679359819247
 20
-117.3182481260524
 97
        0
 97
        0
 92
        1
 93
        1
 72
     4
 94
        3
 73
     0
 74
     1
 95
       17
 96
       13
 40
0.0
 40
0.0
 40
0.0
 40
0.0
 40
1.0
 40
1.0
 40
1.0
 40
2.0
 40
2.0
 40
2.0
 40
3.0
 40
3.0
 40
3.0
 40
4.0
 40
4.0
 40
4.0
 40
4.0
 10
87.15833195520695
 20
-117.1142984733256
 10
87.15833195520695
 20
-117.2701890440332
 10
87.03241371522107
 20
-117.396107284019
 10
86.87652314451351
 20
-117.396107284019
 10
86.72046031903169
 20
-117.396107284019
 10
86.59454207904581
 20
-117.2701890440332
 10
86.59454207904581
 20
-117.1142984733256
 10
86.59454207904581
 20
-116.9554795714556
 10
86.72046031903169
 20
-116.8324896626322
 10
86.87652314451351
 20
-116.8324896626322
 10
87.02931312928435
 20
-116.8324896626322
 10
87.15833195520695
 20
-116.9554795714556
 10
87.15833195520695
 20
-117.1142984733256
 97
        0
 97
        0
 92
        1
 93
        1
 72
     4
 94
        3
 73
     0
 74
     1
 95
       17
 96
       13
 40
0.0
 40
0.0
 40
0.0
 40
0.0
 40
1.0
 40
1.0
 40
1.0
 40
2.0
 40
2.0
 40
2.0
 40
3.0
 40
3.0
 40
3.0
 40
4.0
 40
4.0
 40
4.0
 40
4.0
 10
86.74457598742845
 20
-117.1142984733256
 10
86.74457598742845
 20
-117.1863009689673
 10
86.80142006293507
 20
-117.2462456304107
 10
86.87652314451351
 20
-117.2462456304107
 10
86.94835338538097
 20
-117.2462456304107
 10
87.00847030159858
 20
-117.1863009689673
 10
87.00847030159858
 20
-117.1142984733256
 10
87.00847030159858
 20
-117.0393676465214
 10
86.94835338538097
 20
-116.9823513162405
 10
86.87652314451351
 20
-116.9823513162405
 10
86.80452064887179
 20
-116.9823513162405
 10
86.74457598742845
 20
-117.0393676465214
 10
86.74457598742845
 20
-117.1142984733256
 97
        0
 97
        0
 75
     2
 76
     1
 98
        0
  0
ENDBLK
  5
6F
330
6C
100
AcDbEntity
  8
0
100
AcDbBlockEnd
  0
BLOCK
  5
7E
330
7C
100
AcDbEntity
  8
0
100
AcDbBlockBegin
  2
block 4
 70
     0
 10
0.0
 20
0.0
 30
0.0
  3
block 4
  1

  0
SPLINE
  5
80
330
7C
100
AcDbEntity
  8
_U+30EC_U+30A4_U+30E4_U+30FC 1
370
     0
100
AcDbSpline
210
0.0
220
0.0
230
1.0
 70
    11
 71
     3
 72
    23
 73
    19
 74
     0
 42
0.0000000001
 43
0.0000000001
 12
1.0
 22
0.0
 32
0.0
 13
1.0
 23
0.0
 33
0.0
 40
0.0
 40
0.0
 40
0.0
 40
0.0
 40
1.0
 40
1.0
 40
1.0
 40
2.0
 40
2.0
 40
2.0
 40
3.0
 40
3.0
 40
3.0
 40
4.0
 40
4.0
 40
4.0
 40
5.0
 40
5.0
 40
5.0
 40
6.0
 40
6.0
 40
6.0
 40
6.0
 10
90.23790280947178
 20
-117.6045355608767
 30
0.0
 10
90.1739962882204
 20
-118.015535452267
 30
0.0
 10
89.96281193497458
 20
-118.2246527482216
 30
0.0
 10
89.59642603011825
 20
-118.3934624269989
 30
0.0
 10
89.59642603011825
 20
-118.3934624269989
 30
0.0
 10
89.5287299038331
 20
-118.2887315242473
 30
0.0
 10
89.5287299038331
 20
-118.2887315242473
 30
0.0
 10
89.92198755347437
 20
-118.1412814374786
 30
0.0
 10
90.0403265833927
 20
-117.9187282691314
 30
0.0
 10
90.08873017496046
 20
-117.7171901832443
 30
0.0
 10
90.08873017496046
 20
-117.7171901832443
 30
0.0
 10
88.61198999520812
 20
-117.7171901832443
 30
0.0
 10
88.61198999520812
 20
-117.7171901832443
 30
0.0
 10
88.61198999520812
 20
-117.7171901832443
 30
0.0
 10
88.61198999520812
 20
-117.6045355608767
 30
0.0
 10
88.61198999520812
 20
-117.6045355608767
 30
0.0
 10
88.61198999520812
 20
-117.6045355608767
 30
0.0
 10
90.23790280947178
 20
-117.6045355608767
 30
0.0
 10
90.23790280947178
 20
-117.6045355608767
 30
0.0
  0
SPLINE
  5
81
330
7C
100
AcDbEntity
  8
_U+30EC_U+30A4_U+30E4_U+30FC 1
370
     0
100
AcDbSpline
210
0.0
220
0.0
230
1.0
 70
    11
 71
     3
 72
    17
 73
    13
 74
     0
 42
0.0000000001
 43
0.0000000001
 12
1.0
 22
0.0
 32
0.0
 13
1.0
 23
0.0
 33
0.0
 40
0.0
 40
0.0
 40
0.0
 40
0.0
 40
1.0
 40
1.0
 40
1.0
 40
2.0
 40
2.0
 40
2.0
 40
3.0
 40
3.0
 40
3.0
 40
4.0
 40
4.0
 40
4.0
 40
4.0
 10
88.66246064406702
 20
-119.0873046577282
 30
0.0
 10
89.24967716952786
 20
-118.8178981907816
 30
0.0
 10
89.28447263392889
 20
-118.381749102349
 30
0.0
 10
89.28447263392889
 20
-117.9359537465577
 30
0.0
 10
89.28447263392889
 20
-117.9359537465577
 30
0.0
 10
89.40660126888099
 20
-117.9359537465577
 30
0.0
 10
89.40660126888099
 20
-117.9359537465577
 30
0.0
 10
89.40263940907296
 20
-118.3273165936821
 30
0.0
 10
89.39678274674803
 20
-118.8644069798325
 30
0.0
 10
88.74376489751893
 20
-119.1879014458975
 30
0.0
 10
88.74376489751893
 20
-119.1879014458975
 30
0.0
 10
88.66246064406702
 20
-119.0873046577282
 30
0.0
 10
88.66246064406702
 20
-119.0873046577282
 30
0.0
  0
HATCH
  5
82
330
7C
100
AcDbEntity
  8
_U+30EC_U+30A4_U+30E4_U+30FC 1
 62
   179
420
  2234388
100
AcDbHatch
 10
0.0
 20
0.0
 30
0.0
210
0.0
220
0.0
230
1.0
  2
SOLID
 70
     1
 71
     0
 91
        2
 92
        1
 93
        1
 72
     4
 94
        3
 73
     0
 74
     1
 95
       23
 96
       19
 40
0.0
 40
0.0
 40
0.0
 40
0.0
 40
1.0
 40
1.0
 40
1.0
 40
2.0
 40
2.0
 40
2.0
 40
3.0
 40
3.0
 40
3.0
 40
4.0
 40
4.0
 40
4.0
 40
5.0
 40
5.0
 40
5.0
 40
6.0
 40
6.0
 40
6.0
 40
6.0
 10
90.23790280947178
 20
-117.6045355608767
 10
90.1739962882204
 20
-118.015535452267
 10
89.96281193497458
 20
-118.2246527482216
 10
89.59642603011825
 20
-118.3934624269989
 10
89.59642603011825
 20
-118.3934624269989
 10
89.5287299038331
 20
-118.2887315242473
 10
89.5287299038331
 20
-118.2887315242473
 10
89.92198755347437
 20
-118.1412814374786
 10
90.0403265833927
 20
-117.9187282691314
 10
90.08873017496046
 20
-117.7171901832443
 10
90.08873017496046
 20
-117.7171901832443
 10
88.61198999520812
 20
-117.7171901832443
 10
88.61198999520812
 20
-117.7171901832443
 10
88.61198999520812
 20
-117.7171901832443
 10
88.61198999520812
 20
-117.6045355608767
 10
88.61198999520812
 20
-117.6045355608767
 10
88.61198999520812
 20
-117.6045355608767
 10
90.23790280947178
 20
-117.6045355608767
 10
90.23790280947178
 20
-117.6045355608767
 97
        0
 97
        0
 92
        1
 93
        1
 72
     4
 94
        3
 73
     0
 74
     1
 95
       17
 96
       13
 40
0.0
 40
0.0
 40
0.0
 40
0.0
 40
1.0
 40
1.0
 40
1.0
 40
2.0
 40
2.0
 40
2.0
 40
3.0
 40
3.0
 40
3.0
 40
4.0
 40
4.0
 40
4.0
 40
4.0
 10
88.66246064406702
 20
-119.0873046577282
 10
89.24967716952786
 20
-118.8178981907816
 10
89.28447263392889
 20
-118.381749102349
 10
89.28447263392889
 20
-117.9359537465577
 10
89.28447263392889
 20
-117.9359537465577
 10
89.40660126888099
 20
-117.9359537465577
 10
89.40660126888099
 20
-117.9359537465577
 10
89.40263940907296
 20
-118.3273165936821
 10
89.39678274674803
 20
-118.8644069798325
 10
88.74376489751893
 20
-119.1879014458975
 10
88.74376489751893
 20
-119.1879014458975
 10
88.66246064406702
 20
-119.0873046577282
 10
88.66246064406702
 20
-119.0873046577282
 97
        0
 97
        0
 75
     2
 76
     1
 98
        0
  0
SPLINE
  5
83
330
7C
100
AcDbEntity
  8
_U+30EC_U+30A4_U+30E4_U+30FC 1
370
     0
100
AcDbSpline
210
0.0
220
0.0
230
1.0
 70
    11
 71
     3
 72
    23
 73
    19
 74
     0
 42
0.0000000001
 43
0.0000000001
 12
1.0
 22
0.0
 32
0.0
 13
1.0
 23
0.0
 33
0.0
 40
0.0
 40
0.0
 40
0.0
 40
0.0
 40
1.0
 40
1.0
 40
1.0
 40
2.0
 40
2.0
 40
2.0
 40
3.0
 40
3.0
 40
3.0
 40
4.0
 40
4.0
 40
4.0
 40
5.0
 40
5.0
 40
5.0
 40
6.0
 40
6.0
 40
6.0
 40
6.0
 10
90.90091143560811
 20
-118.1085530303687
 30
0.0
 10
90.90091143560811
 20
-118.5116292021429
 30
0.0
 10
90.84286157668166
 20
-118.8702636421574
 30
0.0
 10
90.50369192615881
 20
-119.2054714328722
 30
0.0
 10
90.50369192615881
 20
-119.2054714328722
 30
0.0
 10
90.42032061541576
 20
-119.1200330648381
 30
0.0
 10
90.42032061541576
 20
-119.1200330648381
 30
0.0
 10
90.77499319562223
 20
-118.802395261098
 30
0.0
 10
90.78653426549782
 20
-118.381749102349
 30
0.0
 10
90.78653426549782
 20
-118.1161322404362
 30
0.0
 10
90.78653426549782
 20
-118.1161322404362
 30
0.0
 10
90.78653426549782
 20
-117.602813013134
 30
0.0
 10
90.78653426549782
 20
-117.602813013134
 30
0.0
 10
90.78653426549782
 20
-117.602813013134
 30
0.0
 10
90.90091143560811
 20
-117.602813013134
 30
0.0
 10
90.90091143560811
 20
-117.602813013134
 30
0.0
 10
90.90091143560811
 20
-117.602813013134
 30
0.0
 10
90.90091143560811
 20
-118.1085530303687
 30
0.0
 10
90.90091143560811
 20
-118.1085530303687
 30
0.0
  0
SPLINE
  5
84
330
7C
100
AcDbEntity
  8
_U+30EC_U+30A4_U+30E4_U+30FC 1
370
     0
100
AcDbSpline
210
0.0
220
0.0
230
1.0
 70
    11
 71
     3
 72
    23
 73
    19
 74
     0
 42
0.0000000001
 43
0.0000000001
 12
1.0
 22
0.0
 32
0.0
 13
1.0
 23
0.0
 33
0.0
 40
0.0
 40
0.0
 40
0.0
 40
0.0
 40
1.0
 40
1.0
 40
1.0
 40
2.0
 40
2.0
 40
2.0
 40
3.0
 40
3.0
 40
3.0
 40
4.0
 40
4.0
 40
4.0
 40
5.0
 40
5.0
 40
5.0
 40
6.0
 40
6.0
 40
6.0
 40
6.0
 10
91.41457517245885
 20
-119.0308050917701
 30
0.0
 10
91.92996145705223
 20
-118.9339979086346
 30
0.0
 10
92.04606117490516
 20
-118.5736409208774
 30
0.0
 10
92.11220700822196
 20
-118.209149818538
 30
0.0
 10
92.11220700822196
 20
-118.209149818538
 30
0.0
 10
92.22072751600733
 20
-118.2539360598462
 30
0.0
 10
92.22072751600733
 20
-118.2539360598462
 30
0.0
 10
92.14700247262297
 20
-118.5987901179197
 30
0.0
 10
92.01505531553791
 20
-119.0969509250869
 30
0.0
 10
91.29813094505741
 20
-119.1723985162138
 30
0.0
 10
91.29813094505741
 20
-119.1723985162138
 30
0.0
 10
91.29813094505741
 20
-117.5445908994333
 30
0.0
 10
91.29813094505741
 20
-117.5445908994333
 30
0.0
 10
91.29813094505741
 20
-117.5445908994333
 30
0.0
 10
91.41457517245885
 20
-117.5445908994333
 30
0.0
 10
91.41457517245885
 20
-117.5445908994333
 30
0.0
 10
91.41457517245885
 20
-117.5445908994333
 30
0.0
 10
91.41457517245885
 20
-119.0308050917701
 30
0.0
 10
91.41457517245885
 20
-119.0308050917701
 30
0.0
  0
HATCH
  5
85
330
7C
100
AcDbEntity
  8
_U+30EC_U+30A4_U+30E4_U+30FC 1
 62
   179
420
  2234388
100
AcDbHatch
 10
0.0
 20
0.0
 30
0.0
210
0.0
220
0.0
230
1.0
  2
SOLID
 70
     1
 71
     0
 91
        2
 92
        1
 93
        1
 72
     4
 94
        3
 73
     0
 74
     1
 95
       23
 96
       19
 40
0.0
 40
0.0
 40
0.0
 40
0.0
 40
1.0
 40
1.0
 40
1.0
 40
2.0
 40
2.0
 40
2.0
 40
3.0
 40
3.0
 40
3.0
 40
4.0
 40
4.0
 40
4.0
 40
5.0
 40
5.0
 40
5.0
 40
6.0
 40
6.0
 40
6.0
 40
6.0
 10
90.90091143560811
 20
-118.1085530303687
 10
90.90091143560811
 20
-118.5116292021429
 10
90.84286157668166
 20
-118.8702636421574
 10
90.50369192615881
 20
-119.2054714328722
 10
90.50369192615881
 20
-119.2054714328722
 10
90.42032061541576
 20
-119.1200330648381
 10
90.42032061541576
 20
-119.1200330648381
 10
90.77499319562223
 20
-118.802395261098
 10
90.78653426549782
 20
-118.381749102349
 10
90.78653426549782
 20
-118.1161322404362
 10
90.78653426549782
 20
-118.1161322404362
 10
90.78653426549782
 20
-117.602813013134
 10
90.78653426549782
 20
-117.602813013134
 10
90.78653426549782
 20
-117.602813013134
 10
90.90091143560811
 20
-117.602813013134
 10
90.90091143560811
 20
-117.602813013134
 10
90.90091143560811
 20
-117.602813013134
 10
90.90091143560811
 20
-118.1085530303687
 10
90.90091143560811
 20
-118.1085530303687
 97
        0
 97
        0
 92
        1
 93
        1
 72
     4
 94
        3
 73
     0
 74
     1
 95
       23
 96
       19
 40
0.0
 40
0.0
 40
0.0
 40
0.0
 40
1.0
 40
1.0
 40
1.0
 40
2.0
 40
2.0
 40
2.0
 40
3.0
 40
3.0
 40
3.0
 40
4.0
 40
4.0
 40
4.0
 40
5.0
 40
5.0
 40
5.0
 40
6.0
 40
6.0
 40
6.0
 40
6.0
 10
91.41457517245885
 20
-119.0308050917701
 10
91.92996145705223
 20
-118.9339979086346
 10
92.04606117490516
 20
-118.5736409208774
 10
92.11220700822196
 20
-118.209149818538
 10
92.11220700822196
 20
-118.209149818538
 10
92.22072751600733
 20
-118.2539360598462
 10
92.22072751600733
 20
-118.2539360598462
 10
92.14700247262297
 20
-118.5987901179197
 10
92.01505531553791
 20
-119.0969509250869
 10
91.29813094505741
 20
-119.1723985162138
 10
91.29813094505741
 20
-119.1723985162138
 10
91.29813094505741
 20
-117.5445908994333
 10
91.29813094505741
 20
-117.5445908994333
 10
91.29813094505741
 20
-117.5445908994333
 10
91.41457517245885
 20
-117.5445908994333
 10
91.41457517245885
 20
-117.5445908994333
 10
91.41457517245885
 20
-117.5445908994333
 10
91.41457517245885
 20
-119.0308050917701
 10
91.41457517245885
 20
-119.0308050917701
 97
        0
 97
        0
 75
     2
 76
     1
 98
        0
  0
SPLINE
  5
86
330
7C
100
AcDbEntity
  8
_U+30EC_U+30A4_U+30E4_U+30FC 1
370
     0
100
AcDbSpline
210
0.0
220
0.0
230
1.0
 70
    11
 71
     3
 72
    17
 73
    13
 74
     0
 42
0.0000000001
 43
0.0000000001
 12
1.0
 22
0.0
 32
0.0
 13
1.0
 23
0.0
 33
0.0
 40
0.0
 40
0.0
 40
0.0
 40
0.0
 40
1.0
 40
1.0
 40
1.0
 40
2.0
 40
2.0
 40
2.0
 40
3.0
 40
3.0
 40
3.0
 40
4.0
 40
4.0
 40
4.0
 40
4.0
 10
93.88574216402857
 20
-119.1937581082224
 30
0.0
 10
93.3758680322116
 20
-119.0094454997615
 30
0.0
 10
92.92456052364386
 20
-118.9553575006431
 30
0.0
 10
92.36817760277602
 20
-118.9109157688834
 30
0.0
 10
92.36817760277602
 20
-118.9109157688834
 30
0.0
 10
92.39160425207571
 20
-118.802395261098
 30
0.0
 10
92.39160425207571
 20
-118.802395261098
 30
0.0
 10
92.99621850973706
 20
-118.843047387824
 30
0.0
 10
93.46337345753693
 20
-118.9205620362421
 30
0.0
 10
93.9108913610709
 20
-119.0659450657196
 30
0.0
 10
93.9108913610709
 20
-119.0659450657196
 30
0.0
 10
93.88574216402857
 20
-119.1937581082224
 30
0.0
 10
93.88574216402857
 20
-119.1937581082224
 30
0.0
  0
SPLINE
  5
87
330
7C
100
AcDbEntity
  8
_U+30EC_U+30A4_U+30E4_U+30FC 1
370
     0
100
AcDbSpline
210
0.0
220
0.0
230
1.0
 70
    11
 71
     3
 72
    17
 73
    13
 74
     0
 42
0.0000000001
 43
0.0000000001
 12
1.0
 22
0.0
 32
0.0
 13
1.0
 23
0.0
 33
0.0
 40
0.0
 40
0.0
 40
0.0
 40
0.0
 40
1.0
 40
1.0
 40
1.0
 40
2.0
 40
2.0
 40
2.0
 40
3.0
 40
3.0
 40
3.0
 40
4.0
 40
4.0
 40
4.0
 40
4.0
 10
93.70521916060147
 20
-118.4806233427757
 30
0.0
 10
93.29835338379347
 20
-118.3431640329142
 30
0.0
 10
92.92456052364386
 20
-118.2887315242473
 30
0.0
 10
92.492201040245
 20
-118.25772566488
 30
0.0
 10
92.492201040245
 20
-118.25772566488
 30
0.0
 10
92.51356063225356
 20
-118.1492051570946
 30
0.0
 10
92.51356063225356
 20
-118.1492051570946
 30
0.0
 10
92.96107853578751
 20
-118.1860676787868
 30
0.0
 10
93.31385631347709
 20
-118.2363660728715
 30
0.0
 10
93.72485620486741
 20
-118.3641791153742
 30
0.0
 10
93.72485620486741
 20
-118.3641791153742
 30
0.0
 10
93.70521916060147
 20
-118.4806233427757
 30
0.0
 10
93.70521916060147
 20
-118.4806233427757
 30
0.0
  0
SPLINE
  5
88
330
7C
100
AcDbEntity
  8
_U+30EC_U+30A4_U+30E4_U+30FC 1
370
     0
100
AcDbSpline
210
0.0
220
0.0
230
1.0
 70
    11
 71
     3
 72
    17
 73
    13
 74
     0
 42
0.0000000001
 43
0.0000000001
 12
1.0
 22
0.0
 32
0.0
 13
1.0
 23
0.0
 33
0.0
 40
0.0
 40
0.0
 40
0.0
 40
0.0
 40
1.0
 40
1.0
 40
1.0
 40
2.0
 40
2.0
 40
2.0
 40
3.0
 40
3.0
 40
3.0
 40
4.0
 40
4.0
 40
4.0
 40
4.0
 10
93.8061604583193
 20
-117.8701524227894
 30
0.0
 10
93.43581269365494
 20
-117.7654215200378
 30
0.0
 10
92.90699053666908
 20
-117.6975531389784
 30
0.0
 10
92.50563691263748
 20
-117.6803276615521
 30
0.0
 10
92.50563691263748
 20
-117.6803276615521
 30
0.0
 10
92.52906356193718
 20
-117.5735297015094
 30
0.0
 10
92.52906356193718
 20
-117.5735297015094
 30
0.0
 10
93.05823022847156
 20
-117.6045355608767
 30
0.0
 10
93.3800021467939
 20
-117.6510443499275
 30
0.0
 10
93.82924259807046
 20
-117.7499185903542
 30
0.0
 10
93.82924259807046
 20
-117.7499185903542
 30
0.0
 10
93.8061604583193
 20
-117.8701524227894
 30
0.0
 10
93.8061604583193
 20
-117.8701524227894
 30
0.0
  0
HATCH
  5
89
330
7C
100
AcDbEntity
  8
_U+30EC_U+30A4_U+30E4_U+30FC 1
 62
   179
420
  2234388
100
AcDbHatch
 10
0.0
 20
0.0
 30
0.0
210
0.0
220
0.0
230
1.0
  2
SOLID
 70
     1
 71
     0
 91
        3
 92
        1
 93
        1
 72
     4
 94
        3
 73
     0
 74
     1
 95
       17
 96
       13
 40
0.0
 40
0.0
 40
0.0
 40
0.0
 40
1.0
 40
1.0
 40
1.0
 40
2.0
 40
2.0
 40
2.0
 40
3.0
 40
3.0
 40
3.0
 40
4.0
 40
4.0
 40
4.0
 40
4.0
 10
93.88574216402857
 20
-119.1937581082224
 10
93.3758680322116
 20
-119.0094454997615
 10
92.92456052364386
 20
-118.9553575006431
 10
92.36817760277602
 20
-118.9109157688834
 10
92.36817760277602
 20
-118.9109157688834
 10
92.39160425207571
 20
-118.802395261098
 10
92.39160425207571
 20
-118.802395261098
 10
92.99621850973706
 20
-118.843047387824
 10
93.46337345753693
 20
-118.9205620362421
 10
93.9108913610709
 20
-119.0659450657196
 10
93.9108913610709
 20
-119.0659450657196
 10
93.88574216402857
 20
-119.1937581082224
 10
93.88574216402857
 20
-119.1937581082224
 97
        0
 97
        0
 92
        1
 93
        1
 72
     4
 94
        3
 73
     0
 74
     1
 95
       17
 96
       13
 40
0.0
 40
0.0
 40
0.0
 40
0.0
 40
1.0
 40
1.0
 40
1.0
 40
2.0
 40
2.0
 40
2.0
 40
3.0
 40
3.0
 40
3.0
 40
4.0
 40
4.0
 40
4.0
 40
4.0
 10
93.70521916060147
 20
-118.4806233427757
 10
93.29835338379347
 20
-118.3431640329142
 10
92.92456052364386
 20
-118.2887315242473
 10
92.492201040245
 20
-118.25772566488
 10
92.492201040245
 20
-118.25772566488
 10
92.51356063225356
 20
-118.1492051570946
 10
92.51356063225356
 20
-118.1492051570946
 10
92.96107853578751
 20
-118.1860676787868
 10
93.31385631347709
 20
-118.2363660728715
 10
93.72485620486741
 20
-118.3641791153742
 10
93.72485620486741
 20
-118.3641791153742
 10
93.70521916060147
 20
-118.4806233427757
 10
93.70521916060147
 20
-118.4806233427757
 97
        0
 97
        0
 92
        1
 93
        1
 72
     4
 94
        3
 73
     0
 74
     1
 95
       17
 96
       13
 40
0.0
 40
0.0
 40
0.0
 40
0.0
 40
1.0
 40
1.0
 40
1.0
 40
2.0
 40
2.0
 40
2.0
 40
3.0
 40
3.0
 40
3.0
 40
4.0
 40
4.0
 40
4.0
 40
4.0
 10
93.8061604583193
 20
-117.8701524227894
 10
93.43581269365494
 20
-117.7654215200378
 10
92.90699053666908
 20
-117.6975531389784
 10
92.50563691263748
 20
-117.6803276615521
 10
92.50563691263748
 20
-117.6803276615521
 10
92.52906356193718
 20
-117.5735297015094
 10
92.52906356193718
 20
-117.5735297015094
 10
93.05823022847156
 20
-117.6045355608767
 10
93.3800021467939
 20
-117.6510443499275
 10
93.82924259807046
 20
-117.7499185903542
 10
93.82924259807046
 20
-117.7499185903542
 10
93.8061604583193
 20
-117.8701524227894
 10
93.8061604583193
 20
-117.8701524227894
 97
        0
 97
        0
 75
     2
 76
     1
 98
        0
  0
SPLINE
  5
8A
330
7C
100
AcDbEntity
  8
_U+30EC_U+30A4_U+30E4_U+30FC 1
370
     0
100
AcDbSpline
210
0.0
220
0.0
230
1.0
 70
    11
 71
     3
 72
    89
 73
    85
 74
     0
 42
0.0000000001
 43
0.0000000001
 12
1.0
 22
0.0
 32
0.0
 13
1.0
 23
0.0
 33
0.0
 40
0.0
 40
0.0
 40
0.0
 40
0.0
 40
1.0
 40
1.0
 40
1.0
 40
2.0
 40
2.0
 40
2.0
 40
3.0
 40
3.0
 40
3.0
 40
4.0
 40
4.0
 40
4.0
 40
5.0
 40
5.0
 40
5.0
 40
6.0
 40
6.0
 40
6.0
 40
7.0
 40
7.0
 40
7.0
 40
8.0
 40
8.0
 40
8.0
 40
9.0
 40
9.0
 40
9.0
 40
10.0
 40
10.0
 40
10.0
 40
11.0
 40
11.0
 40
11.0
 40
12.0
 40
12.0
 40
12.0
 40
13.0
 40
13.0
 40
13.0
 40
14.0
 40
14.0
 40
14.0
 40
15.0
 40
15.0
 40
15.0
 40
16.0
 40
16.0
 40
16.0
 40
17.0
 40
17.0
 40
17.0
 40
18.0
 40
18.0
 40
18.0
 40
19.0
 40
19.0
 40
19.0
 40
20.0
 40
20.0
 40
20.0
 40
21.0
 40
21.0
 40
21.0
 40
22.0
 40
22.0
 40
22.0
 40
23.0
 40
23.0
 40
23.0
 40
24.0
 40
24.0
 40
24.0
 40
25.0
 40
25.0
 40
25.0
 40
26.0
 40
26.0
 40
26.0
 40
27.0
 40
27.0
 40
27.0
 40
28.0
 40
28.0
 40
28.0
 40
28.0
 10
95.19797903436023
 20
-119.1686089111801
 30
0.0
 10
94.98093801878949
 20
-119.2034043755811
 30
0.0
 10
94.56614852236541
 20
-119.244056502307
 30
0.0
 10
94.28123912573525
 20
-119.2461235595982
 30
0.0
 10
94.28123912573525
 20
-119.2461235595982
 30
0.0
 10
94.27572697295885
 20
-119.1451822618804
 30
0.0
 10
94.27572697295885
 20
-119.1451822618804
 30
0.0
 10
94.33773869169335
 20
-119.1451822618804
 30
0.0
 10
94.3935492385544
 20
-119.1451822618804
 30
0.0
 10
94.5602918600405
 20
-119.1376030518128
 30
0.0
 10
94.5602918600405
 20
-119.1376030518128
 30
0.0
 10
94.5602918600405
 20
-118.8816324572588
 30
0.0
 10
94.5602918600405
 20
-118.8816324572588
 30
0.0
 10
94.38975963352063
 20
-118.9591471056769
 30
0.0
 10
94.22887367435945
 20
-118.9997992324028
 30
0.0
 10
94.10898435147276
 20
-119.0290825440275
 30
0.0
 10
94.10898435147276
 20
-119.0290825440275
 30
0.0
 10
94.06626516745565
 20
-118.9184949789509
 30
0.0
 10
94.06626516745565
 20
-118.9184949789509
 30
0.0
 10
94.35289711182844
 20
-118.8702636421574
 30
0.0
 10
94.6612331577583
 20
-118.7558864720472
 30
0.0
 10
94.79662541032863
 20
-118.6335855823208
 30
0.0
 10
94.79662541032863
 20
-118.6335855823208
 30
0.0
 10
94.08555770217306
 20
-118.6335855823208
 30
0.0
 10
94.08555770217306
 20
-118.6335855823208
 30
0.0
 10
94.08555770217306
 20
-118.6335855823208
 30
0.0
 10
94.08555770217306
 20
-118.5443576092528
 30
0.0
 10
94.08555770217306
 20
-118.5443576092528
 30
0.0
 10
94.08555770217306
 20
-118.5443576092528
 30
0.0
 10
94.92271590508876
 20
-118.5443576092528
 30
0.0
 10
94.92271590508876
 20
-118.5443576092528
 30
0.0
 10
94.92271590508876
 20
-118.5443576092528
 30
0.0
 10
94.92271590508876
 20
-118.4261908341087
 30
0.0
 10
94.92271590508876
 20
-118.4261908341087
 30
0.0
 10
94.92271590508876
 20
-118.4261908341087
 30
0.0
 10
95.02744680784036
 20
-118.4261908341087
 30
0.0
 10
95.02744680784036
 20
-118.4261908341087
 30
0.0
 10
95.02744680784036
 20
-118.4261908341087
 30
0.0
 10
95.02744680784036
 20
-118.5443576092528
 30
0.0
 10
95.02744680784036
 20
-118.5443576092528
 30
0.0
 10
95.02744680784036
 20
-118.5443576092528
 30
0.0
 10
95.86460501075608
 20
-118.5443576092528
 30
0.0
 10
95.86460501075608
 20
-118.5443576092528
 30
0.0
 10
95.86460501075608
 20
-118.5443576092528
 30
0.0
 10
95.86460501075608
 20
-118.6335855823208
 30
0.0
 10
95.86460501075608
 20
-118.6335855823208
 30
0.0
 10
95.86460501075608
 20
-118.6335855823208
 30
0.0
 10
95.08360186424994
 20
-118.6335855823208
 30
0.0
 10
95.08360186424994
 20
-118.6335855823208
 30
0.0
 10
95.11633027135981
 20
-118.6918076960215
 30
0.0
 10
95.17076278002676
 20
-118.7789686117983
 30
0.0
 10
95.28892955517082
 20
-118.877842852225
 30
0.0
 10
95.3492187261627
 20
-118.843047387824
 30
0.0
 10
95.47703176866547
 20
-118.753819414756
 30
0.0
 10
95.57969561412591
 20
-118.6570122316205
 30
0.0
 10
95.57969561412591
 20
-118.6570122316205
 30
0.0
 10
95.66685652990273
 20
-118.7152343453212
 30
0.0
 10
95.66685652990273
 20
-118.7152343453212
 30
0.0
 10
95.56040307940852
 20
-118.8120415284567
 30
0.0
 10
95.45188257162314
 20
-118.8874891195837
 30
0.0
 10
95.36644420358896
 20
-118.9377875136683
 30
0.0
 10
95.47117510634054
 20
-119.0094454997615
 30
0.0
 10
95.60691186845939
 20
-119.0948838677957
 30
0.0
 10
95.86047089617378
 20
-119.1723985162138
 30
0.0
 10
95.86047089617378
 20
-119.1723985162138
 30
0.0
 10
95.81430661667143
 20
-119.2733398139317
 30
0.0
 10
95.81430661667143
 20
-119.2733398139317
 30
0.0
 10
95.21554902133501
 20
-119.071457218496
 30
0.0
 10
95.02951386513152
 20
-118.7421060901061
 30
0.0
 10
94.96922469413964
 20
-118.6335855823208
 30
0.0
 10
94.96922469413964
 20
-118.6335855823208
 30
0.0
 10
94.94786510213109
 20
-118.6335855823208
 30
0.0
 10
94.94786510213109
 20
-118.6335855823208
 30
0.0
 10
94.8858533833966
 20
-118.6859510336966
 30
0.0
 10
94.8141953973034
 20
-118.7500298097222
 30
0.0
 10
94.66295570550093
 20
-118.8313340631741
 30
0.0
 10
94.66295570550093
 20
-118.8313340631741
 30
0.0
 10
94.66295570550093
 20
-119.1317463894879
 30
0.0
 10
94.66295570550093
 20
-119.1317463894879
 30
0.0
 10
94.84141165163688
 20
-119.1221001221292
 30
0.0
 10
95.01986759777282
 20
-119.1007405301207
 30
0.0
 10
95.19797903436023
 20
-119.077313880821
 30
0.0
 10
95.19797903436023
 20
-119.077313880821
 30
0.0
 10
95.19797903436023
 20
-119.1686089111801
 30
0.0
 10
95.19797903436023
 20
-119.1686089111801
 30
0.0
  0
SPLINE
  5
8B
330
7C
100
AcDbEntity
  8
_U+30EC_U+30A4_U+30E4_U+30FC 1
370
     0
100
AcDbSpline
210
0.0
220
0.0
230
1.0
 70
    11
 71
     3
 72
   125
 73
   121
 74
     0
 42
0.0000000001
 43
0.0000000001
 12
1.0
 22
0.0
 32
0.0
 13
1.0
 23
0.0
 33
0.0
 40
0.0
 40
0.0
 40
0.0
 40
0.0
 40
1.0
 40
1.0
 40
1.0
 40
2.0
 40
2.0
 40
2.0
 40
3.0
 40
3.0
 40
3.0
 40
4.0
 40
4.0
 40
4.0
 40
5.0
 40
5.0
 40
5.0
 40
6.0
 40
6.0
 40
6.0
 40
7.0
 40
7.0
 40
7.0
 40
8.0
 40
8.0
 40
8.0
 40
9.0
 40
9.0
 40
9.0
 40
10.0
 40
10.0
 40
10.0
 40
11.0
 40
11.0
 40
11.0
 40
12.0
 40
12.0
 40
12.0
 40
13.0
 40
13.0
 40
13.0
 40
14.0
 40
14.0
 40
14.0
 40
15.0
 40
15.0
 40
15.0
 40
16.0
 40
16.0
 40
16.0
 40
17.0
 40
17.0
 40
17.0
 40
18.0
 40
18.0
 40
18.0
 40
19.0
 40
19.0
 40
19.0
 40
20.0
 40
20.0
 40
20.0
 40
21.0
 40
21.0
 40
21.0
 40
22.0
 40
22.0
 40
22.0
 40
23.0
 40
23.0
 40
23.0
 40
24.0
 40
24.0
 40
24.0
 40
25.0
 40
25.0
 40
25.0
 40
26.0
 40
26.0
 40
26.0
 40
27.0
 40
27.0
 40
27.0
 40
28.0
 40
28.0
 40
28.0
 40
29.0
 40
29.0
 40
29.0
 40
30.0
 40
30.0
 40
30.0
 40
31.0
 40
31.0
 40
31.0
 40
32.0
 40
32.0
 40
32.0
 40
33.0
 40
33.0
 40
33.0
 40
34.0
 40
34.0
 40
34.0
 40
35.0
 40
35.0
 40
35.0
 40
36.0
 40
36.0
 40
36.0
 40
37.0
 40
37.0
 40
37.0
 40
38.0
 40
38.0
 40
38.0
 40
39.0
 40
39.0
 40
39.0
 40
40.0
 40
40.0
 40
40.0
 40
40.0
 10
94.58578556663133
 20
-117.6200384905603
 30
0.0
 10
94.58578556663133
 20
-117.6200384905603
 30
0.0
 10
94.58578556663133
 20
-117.4846462379899
 30
0.0
 10
94.58578556663133
 20
-117.4846462379899
 30
0.0
 10
94.58578556663133
 20
-117.4846462379899
 30
0.0
 10
94.67880314473308
 20
-117.4846462379899
 30
0.0
 10
94.67880314473308
 20
-117.4846462379899
 30
0.0
 10
94.67880314473308
 20
-117.4846462379899
 30
0.0
 10
94.67880314473308
 20
-117.6200384905603
 30
0.0
 10
94.67880314473308
 20
-117.6200384905603
 30
0.0
 10
94.67880314473308
 20
-117.6200384905603
 30
0.0
 10
95.05259600488269
 20
-117.6200384905603
 30
0.0
 10
95.05259600488269
 20
-117.6200384905603
 30
0.0
 10
95.05259600488269
 20
-117.6200384905603
 30
0.0
 10
95.05259600488269
 20
-117.7054768585945
 30
0.0
 10
95.05259600488269
 20
-117.7054768585945
 30
0.0
 10
95.05259600488269
 20
-117.7054768585945
 30
0.0
 10
94.67880314473308
 20
-117.7054768585945
 30
0.0
 10
94.67880314473308
 20
-117.7054768585945
 30
0.0
 10
94.67880314473308
 20
-117.7054768585945
 30
0.0
 10
94.67880314473308
 20
-117.8353569583884
 30
0.0
 10
94.67880314473308
 20
-117.8353569583884
 30
0.0
 10
94.67880314473308
 20
-117.8353569583884
 30
0.0
 10
95.13217771059196
 20
-117.8353569583884
 30
0.0
 10
95.13217771059196
 20
-117.8353569583884
 30
0.0
 10
95.13217771059196
 20
-117.8353569583884
 30
0.0
 10
95.13217771059196
 20
-117.9187282691314
 30
0.0
 10
95.13217771059196
 20
-117.9187282691314
 30
0.0
 10
95.13217771059196
 20
-117.9187282691314
 30
0.0
 10
94.67880314473308
 20
-117.9187282691314
 30
0.0
 10
94.67880314473308
 20
-117.9187282691314
 30
0.0
 10
94.67880314473308
 20
-117.9187282691314
 30
0.0
 10
94.67880314473308
 20
-118.0465413116342
 30
0.0
 10
94.67880314473308
 20
-118.0465413116342
 30
0.0
 10
94.67880314473308
 20
-118.0465413116342
 30
0.0
 10
95.06224227224139
 20
-118.0465413116342
 30
0.0
 10
95.06224227224139
 20
-118.0465413116342
 30
0.0
 10
95.06224227224139
 20
-118.0465413116342
 30
0.0
 10
95.06224227224139
 20
-118.2673719322387
 30
0.0
 10
95.06224227224139
 20
-118.2673719322387
 30
0.0
 10
95.06224227224139
 20
-118.3683132299565
 30
0.0
 10
94.98093801878949
 20
-118.3758924400241
 30
0.0
 10
94.93649628702977
 20
-118.3758924400241
 30
0.0
 10
94.93649628702977
 20
-118.3758924400241
 30
0.0
 10
94.80833873497848
 20
-118.3758924400241
 30
0.0
 10
94.80833873497848
 20
-118.3758924400241
 30
0.0
 10
94.80833873497848
 20
-118.3758924400241
 30
0.0
 10
94.78904620026108
 20
-118.2828748619223
 30
0.0
 10
94.78904620026108
 20
-118.2828748619223
 30
0.0
 10
94.78904620026108
 20
-118.2828748619223
 30
0.0
 10
94.92271590508876
 20
-118.2887315242473
 30
0.0
 10
94.92271590508876
 20
-118.2887315242473
 30
0.0
 10
94.95957842678094
 20
-118.2907985815384
 30
0.0
 10
94.96922469413964
 20
-118.2811523141797
 30
0.0
 10
94.96922469413964
 20
-118.2384331301626
 30
0.0
 10
94.96922469413964
 20
-118.2384331301626
 30
0.0
 10
94.96922469413964
 20
-118.1316351701199
 30
0.0
 10
94.96922469413964
 20
-118.1316351701199
 30
0.0
 10
94.96922469413964
 20
-118.1316351701199
 30
0.0
 10
94.67880314473308
 20
-118.1316351701199
 30
0.0
 10
94.67880314473308
 20
-118.1316351701199
 30
0.0
 10
94.67880314473308
 20
-118.1316351701199
 30
0.0
 10
94.67880314473308
 20
-118.4051757516487
 30
0.0
 10
94.67880314473308
 20
-118.4051757516487
 30
0.0
 10
94.67880314473308
 20
-118.4051757516487
 30
0.0
 10
94.58578556663133
 20
-118.4051757516487
 30
0.0
 10
94.58578556663133
 20
-118.4051757516487
 30
0.0
 10
94.58578556663133
 20
-118.4051757516487
 30
0.0
 10
94.58578556663133
 20
-118.1316351701199
 30
0.0
 10
94.58578556663133
 20
-118.1316351701199
 30
0.0
 10
94.58578556663133
 20
-118.1316351701199
 30
0.0
 10
94.3025987177438
 20
-118.1316351701199
 30
0.0
 10
94.3025987177438
 20
-118.1316351701199
 30
0.0
 10
94.3025987177438
 20
-118.1316351701199
 30
0.0
 10
94.3025987177438
 20
-118.4051757516487
 30
0.0
 10
94.3025987177438
 20
-118.4051757516487
 30
0.0
 10
94.3025987177438
 20
-118.4051757516487
 30
0.0
 10
94.19614526724958
 20
-118.4051757516487
 30
0.0
 10
94.19614526724958
 20
-118.4051757516487
 30
0.0
 10
94.19614526724958
 20
-118.4051757516487
 30
0.0
 10
94.19614526724958
 20
-118.0465413116342
 30
0.0
 10
94.19614526724958
 20
-118.0465413116342
 30
0.0
 10
94.19614526724958
 20
-118.0465413116342
 30
0.0
 10
94.58578556663133
 20
-118.0465413116342
 30
0.0
 10
94.58578556663133
 20
-118.0465413116342
 30
0.0
 10
94.58578556663133
 20
-118.0465413116342
 30
0.0
 10
94.58578556663133
 20
-117.9187282691314
 30
0.0
 10
94.58578556663133
 20
-117.9187282691314
 30
0.0
 10
94.58578556663133
 20
-117.9187282691314
 30
0.0
 10
94.11070689921539
 20
-117.9187282691314
 30
0.0
 10
94.11070689921539
 20
-117.9187282691314
 30
0.0
 10
94.11070689921539
 20
-117.9187282691314
 30
0.0
 10
94.11070689921539
 20
-117.8353569583884
 30
0.0
 10
94.11070689921539
 20
-117.8353569583884
 30
0.0
 10
94.11070689921539
 20
-117.8353569583884
 30
0.0
 10
94.58578556663133
 20
-117.8353569583884
 30
0.0
 10
94.58578556663133
 20
-117.8353569583884
 30
0.0
 10
94.58578556663133
 20
-117.8353569583884
 30
0.0
 10
94.58578556663133
 20
-117.7054768585945
 30
0.0
 10
94.58578556663133
 20
-117.7054768585945
 30
0.0
 10
94.58578556663133
 20
-117.7054768585945
 30
0.0
 10
94.30845538006872
 20
-117.7054768585945
 30
0.0
 10
94.30845538006872
 20
-117.7054768585945
 30
0.0
 10
94.2598795337267
 20
-117.7654215200378
 30
0.0
 10
94.24265405630045
 20
-117.7809244497214
 30
0.0
 10
94.21371525422435
 20
-117.8043510990211
 30
0.0
 10
94.21371525422435
 20
-117.8043510990211
 30
0.0
 10
94.13999021084001
 20
-117.7519856476453
 30
0.0
 10
94.13999021084001
 20
-117.7519856476453
 30
0.0
 10
94.2116481969332
 20
-117.6820502092948
 30
0.0
 10
94.28537324031755
 20
-117.5831759688681
 30
0.0
 10
94.3260253670435
 20
-117.4922254480575
 30
0.0
 10
94.3260253670435
 20
-117.4922254480575
 30
0.0
 10
94.42455509792164
 20
-117.5156520973572
 30
0.0
 10
94.42455509792164
 20
-117.5156520973572
 30
0.0
 10
94.41318628282032
 20
-117.5466579567244
 30
0.0
 10
94.40939667778655
 20
-117.5580267718258
 30
0.0
 10
94.37046709880322
 20
-117.6200384905603
 30
0.0
 10
94.37046709880322
 20
-117.6200384905603
 30
0.0
 10
94.58578556663133
 20
-117.6200384905603
 30
0.0
 10
94.58578556663133
 20
-117.6200384905603
 30
0.0
  0
POLYLINE
  5
8C
330
7C
100
AcDbEntity
  8
_U+30EC_U+30A4_U+30E4_U+30FC 1
370
     0
100
AcDb2dPolyline
 66
     1
 10
0.0
 20
0.0
 30
0.0
  0
VERTEX
  5
8D
330
8C
100
AcDbEntity
  8
_U+30EC_U+30A4_U+30E4_U+30FC 1
370
     0
100
AcDbVertex
100
AcDb2dVertex
 10
95.38022458552994
 20
-117.5659504914419
 30
0.0
  0
VERTEX
  5
8E
330
8C
100
AcDbEntity
  8
_U+30EC_U+30A4_U+30E4_U+30FC 1
370
     0
100
AcDbVertex
100
AcDb2dVertex
 10
95.38022458552994
 20
-118.1667751440694
 30
0.0
  0
VERTEX
  5
8F
330
8C
100
AcDbEntity
  8
_U+30EC_U+30A4_U+30E4_U+30FC 1
370
     0
100
AcDbVertex
100
AcDb2dVertex
 10
95.2775607400695
 20
-118.1667751440694
 30
0.0
  0
VERTEX
  5
90
330
8C
100
AcDbEntity
  8
_U+30EC_U+30A4_U+30E4_U+30FC 1
370
     0
100
AcDbVertex
100
AcDb2dVertex
 10
95.2775607400695
 20
-117.5659504914419
 30
0.0
  0
VERTEX
  5
91
330
8C
100
AcDbEntity
  8
_U+30EC_U+30A4_U+30E4_U+30FC 1
370
     0
100
AcDbVertex
100
AcDb2dVertex
 10
95.38022458552994
 20
-117.5659504914419
 30
0.0
  0
SEQEND
  5
92
330
8C
100
AcDbEntity
  8
_U+30EC_U+30A4_U+30E4_U+30FC 1
370
     0
  0
SPLINE
  5
93
330
7C
100
AcDbEntity
  8
_U+30EC_U+30A4_U+30E4_U+30FC 1
370
     0
100
AcDbSpline
210
0.0
220
0.0
230
1.0
 70
    11
 71
     3
 72
    29
 73
    25
 74
     0
 42
0.0000000001
 43
0.0000000001
 12
1.0
 22
0.0
 32
0.0
 13
1.0
 23
0.0
 33
0.0
 40
0.0
 40
0.0
 40
0.0
 40
0.0
 40
1.0
 40
1.0
 40
1.0
 40
2.0
 40
2.0
 40
2.0
 40
3.0
 40
3.0
 40
3.0
 40
4.0
 40
4.0
 40
4.0
 40
5.0
 40
5.0
 40
5.0
 40
6.0
 40
6.0
 40
6.0
 40
7.0
 40
7.0
 40
7.0
 40
8.0
 40
8.0
 40
8.0
 40
8.0
 10
95.75229489793693
 20
-117.4846462379899
 30
0.0
 10
95.75229489793693
 20
-117.4846462379899
 30
0.0
 10
95.75229489793693
 20
-118.2887315242473
 30
0.0
 10
95.75229489793693
 20
-118.2887315242473
 30
0.0
 10
95.75229489793693
 20
-118.3683132299565
 30
0.0
 10
95.70544159933753
 20
-118.4051757516487
 30
0.0
 10
95.62034774085186
 20
-118.4051757516487
 30
0.0
 10
95.62034774085186
 20
-118.4051757516487
 30
0.0
 10
95.41502004993097
 20
-118.4051757516487
 30
0.0
 10
95.41502004993097
 20
-118.4051757516487
 30
0.0
 10
95.41502004993097
 20
-118.4051757516487
 30
0.0
 10
95.39538300566505
 20
-118.2945881865722
 30
0.0
 10
95.39538300566505
 20
-118.2945881865722
 30
0.0
 10
95.39538300566505
 20
-118.2945881865722
 30
0.0
 10
95.60105520613446
 20
-118.3004448488971
 30
0.0
 10
95.60105520613446
 20
-118.3004448488971
 30
0.0
 10
95.6417073328604
 20
-118.3021673966397
 30
0.0
 10
95.64549693789418
 20
-118.2945881865722
 30
0.0
 10
95.64549693789418
 20
-118.2539360598462
 30
0.0
 10
95.64549693789418
 20
-118.2539360598462
 30
0.0
 10
95.64549693789418
 20
-117.4846462379899
 30
0.0
 10
95.64549693789418
 20
-117.4846462379899
 30
0.0
 10
95.64549693789418
 20
-117.4846462379899
 30
0.0
 10
95.75229489793693
 20
-117.4846462379899
 30
0.0
 10
95.75229489793693
 20
-117.4846462379899
 30
0.0
  0
HATCH
  5
94
330
7C
100
AcDbEntity
  8
_U+30EC_U+30A4_U+30E4_U+30FC 1
 62
   179
420
  2234388
100
AcDbHatch
 10
0.0
 20
0.0
 30
0.0
210
0.0
220
0.0
230
1.0
  2
SOLID
 70
     1
 71
     0
 91
        4
 92
        1
 93
        1
 72
     4
 94
        3
 73
     0
 74
     1
 95
       89
 96
       85
 40
0.0
 40
0.0
 40
0.0
 40
0.0
 40
1.0
 40
1.0
 40
1.0
 40
2.0
 40
2.0
 40
2.0
 40
3.0
 40
3.0
 40
3.0
 40
4.0
 40
4.0
 40
4.0
 40
5.0
 40
5.0
 40
5.0
 40
6.0
 40
6.0
 40
6.0
 40
7.0
 40
7.0
 40
7.0
 40
8.0
 40
8.0
 40
8.0
 40
9.0
 40
9.0
 40
9.0
 40
10.0
 40
10.0
 40
10.0
 40
11.0
 40
11.0
 40
11.0
 40
12.0
 40
12.0
 40
12.0
 40
13.0
 40
13.0
 40
13.0
 40
14.0
 40
14.0
 40
14.0
 40
15.0
 40
15.0
 40
15.0
 40
16.0
 40
16.0
 40
16.0
 40
17.0
 40
17.0
 40
17.0
 40
18.0
 40
18.0
 40
18.0
 40
19.0
 40
19.0
 40
19.0
 40
20.0
 40
20.0
 40
20.0
 40
21.0
 40
21.0
 40
21.0
 40
22.0
 40
22.0
 40
22.0
 40
23.0
 40
23.0
 40
23.0
 40
24.0
 40
24.0
 40
24.0
 40
25.0
 40
25.0
 40
25.0
 40
26.0
 40
26.0
 40
26.0
 40
27.0
 40
27.0
 40
27.0
 40
28.0
 40
28.0
 40
28.0
 40
28.0
 10
95.19797903436023
 20
-119.1686089111801
 10
94.98093801878949
 20
-119.2034043755811
 10
94.56614852236541
 20
-119.244056502307
 10
94.28123912573525
 20
-119.2461235595982
 10
94.28123912573525
 20
-119.2461235595982
 10
94.27572697295885
 20
-119.1451822618804
 10
94.27572697295885
 20
-119.1451822618804
 10
94.33773869169335
 20
-119.1451822618804
 10
94.3935492385544
 20
-119.1451822618804
 10
94.5602918600405
 20
-119.1376030518128
 10
94.5602918600405
 20
-119.1376030518128
 10
94.5602918600405
 20
-118.8816324572588
 10
94.5602918600405
 20
-118.8816324572588
 10
94.38975963352063
 20
-118.9591471056769
 10
94.22887367435945
 20
-118.9997992324028
 10
94.10898435147276
 20
-119.0290825440275
 10
94.10898435147276
 20
-119.0290825440275
 10
94.06626516745565
 20
-118.9184949789509
 10
94.06626516745565
 20
-118.9184949789509
 10
94.35289711182844
 20
-118.8702636421574
 10
94.6612331577583
 20
-118.7558864720472
 10
94.79662541032863
 20
-118.6335855823208
 10
94.79662541032863
 20
-118.6335855823208
 10
94.08555770217306
 20
-118.6335855823208
 10
94.08555770217306
 20
-118.6335855823208
 10
94.08555770217306
 20
-118.6335855823208
 10
94.08555770217306
 20
-118.5443576092528
 10
94.08555770217306
 20
-118.5443576092528
 10
94.08555770217306
 20
-118.5443576092528
 10
94.92271590508876
 20
-118.5443576092528
 10
94.92271590508876
 20
-118.5443576092528
 10
94.92271590508876
 20
-118.5443576092528
 10
94.92271590508876
 20
-118.4261908341087
 10
94.92271590508876
 20
-118.4261908341087
 10
94.92271590508876
 20
-118.4261908341087
 10
95.02744680784036
 20
-118.4261908341087
 10
95.02744680784036
 20
-118.4261908341087
 10
95.02744680784036
 20
-118.4261908341087
 10
95.02744680784036
 20
-118.5443576092528
 10
95.02744680784036
 20
-118.5443576092528
 10
95.02744680784036
 20
-118.5443576092528
 10
95.86460501075608
 20
-118.5443576092528
 10
95.86460501075608
 20
-118.5443576092528
 10
95.86460501075608
 20
-118.5443576092528
 10
95.86460501075608
 20
-118.6335855823208
 10
95.86460501075608
 20
-118.6335855823208
 10
95.86460501075608
 20
-118.6335855823208
 10
95.08360186424994
 20
-118.6335855823208
 10
95.08360186424994
 20
-118.6335855823208
 10
95.11633027135981
 20
-118.6918076960215
 10
95.17076278002676
 20
-118.7789686117983
 10
95.28892955517082
 20
-118.877842852225
 10
95.3492187261627
 20
-118.843047387824
 10
95.47703176866547
 20
-118.753819414756
 10
95.57969561412591
 20
-118.6570122316205
 10
95.57969561412591
 20
-118.6570122316205
 10
95.66685652990273
 20
-118.7152343453212
 10
95.66685652990273
 20
-118.7152343453212
 10
95.56040307940852
 20
-118.8120415284567
 10
95.45188257162314
 20
-118.8874891195837
 10
95.36644420358896
 20
-118.9377875136683
 10
95.47117510634054
 20
-119.0094454997615
 10
95.60691186845939
 20
-119.0948838677957
 10
95.86047089617378
 20
-119.1723985162138
 10
95.86047089617378
 20
-119.1723985162138
 10
95.81430661667143
 20
-119.2733398139317
 10
95.81430661667143
 20
-119.2733398139317
 10
95.21554902133501
 20
-119.071457218496
 10
95.02951386513152
 20
-118.7421060901061
 10
94.96922469413964
 20
-118.6335855823208
 10
94.96922469413964
 20
-118.6335855823208
 10
94.94786510213109
 20
-118.6335855823208
 10
94.94786510213109
 20
-118.6335855823208
 10
94.8858533833966
 20
-118.6859510336966
 10
94.8141953973034
 20
-118.7500298097222
 10
94.66295570550093
 20
-118.8313340631741
 10
94.66295570550093
 20
-118.8313340631741
 10
94.66295570550093
 20
-119.1317463894879
 10
94.66295570550093
 20
-119.1317463894879
 10
94.84141165163688
 20
-119.1221001221292
 10
95.01986759777282
 20
-119.1007405301207
 10
95.19797903436023
 20
-119.077313880821
 10
95.19797903436023
 20
-119.077313880821
 10
95.19797903436023
 20
-119.1686089111801
 10
95.19797903436023
 20
-119.1686089111801
 97
        0
 97
        0
 92
        1
 93
        1
 72
     4
 94
        3
 73
     0
 74
     1
 95
      125
 96
      121
 40
0.0
 40
0.0
 40
0.0
 40
0.0
 40
1.0
 40
1.0
 40
1.0
 40
2.0
 40
2.0
 40
2.0
 40
3.0
 40
3.0
 40
3.0
 40
4.0
 40
4.0
 40
4.0
 40
5.0
 40
5.0
 40
5.0
 40
6.0
 40
6.0
 40
6.0
 40
7.0
 40
7.0
 40
7.0
 40
8.0
 40
8.0
 40
8.0
 40
9.0
 40
9.0
 40
9.0
 40
10.0
 40
10.0
 40
10.0
 40
11.0
 40
11.0
 40
11.0
 40
12.0
 40
12.0
 40
12.0
 40
13.0
 40
13.0
 40
13.0
 40
14.0
 40
14.0
 40
14.0
 40
15.0
 40
15.0
 40
15.0
 40
16.0
 40
16.0
 40
16.0
 40
17.0
 40
17.0
 40
17.0
 40
18.0
 40
18.0
 40
18.0
 40
19.0
 40
19.0
 40
19.0
 40
20.0
 40
20.0
 40
20.0
 40
21.0
 40
21.0
 40
21.0
 40
22.0
 40
22.0
 40
22.0
 40
23.0
 40
23.0
 40
23.0
 40
24.0
 40
24.0
 40
24.0
 40
25.0
 40
25.0
 40
25.0
 40
26.0
 40
26.0
 40
26.0
 40
27.0
 40
27.0
 40
27.0
 40
28.0
 40
28.0
 40
28.0
 40
29.0
 40
29.0
 40
29.0
 40
30.0
 40
30.0
 40
30.0
 40
31.0
 40
31.0
 40
31.0
 40
32.0
 40
32.0
 40
32.0
 40
33.0
 40
33.0
 40
33.0
 40
34.0
 40
34.0
 40
34.0
 40
35.0
 40
35.0
 40
35.0
 40
36.0
 40
36.0
 40
36.0
 40
37.0
 40
37.0
 40
37.0
 40
38.0
 40
38.0
 40
38.0
 40
39.0
 40
39.0
 40
39.0
 40
40.0
 40
40.0
 40
40.0
 40
40.0
 10
94.58578556663133
 20
-117.6200384905603
 10
94.58578556663133
 20
-117.6200384905603
 10
94.58578556663133
 20
-117.4846462379899
 10
94.58578556663133
 20
-117.4846462379899
 10
94.58578556663133
 20
-117.4846462379899
 10
94.67880314473308
 20
-117.4846462379899
 10
94.67880314473308
 20
-117.4846462379899
 10
94.67880314473308
 20
-117.4846462379899
 10
94.67880314473308
 20
-117.6200384905603
 10
94.67880314473308
 20
-117.6200384905603
 10
94.67880314473308
 20
-117.6200384905603
 10
95.05259600488269
 20
-117.6200384905603
 10
95.05259600488269
 20
-117.6200384905603
 10
95.05259600488269
 20
-117.6200384905603
 10
95.05259600488269
 20
-117.7054768585945
 10
95.05259600488269
 20
-117.7054768585945
 10
95.05259600488269
 20
-117.7054768585945
 10
94.67880314473308
 20
-117.7054768585945
 10
94.67880314473308
 20
-117.7054768585945
 10
94.67880314473308
 20
-117.7054768585945
 10
94.67880314473308
 20
-117.8353569583884
 10
94.67880314473308
 20
-117.8353569583884
 10
94.67880314473308
 20
-117.8353569583884
 10
95.13217771059196
 20
-117.8353569583884
 10
95.13217771059196
 20
-117.8353569583884
 10
95.13217771059196
 20
-117.8353569583884
 10
95.13217771059196
 20
-117.9187282691314
 10
95.13217771059196
 20
-117.9187282691314
 10
95.13217771059196
 20
-117.9187282691314
 10
94.67880314473308
 20
-117.9187282691314
 10
94.67880314473308
 20
-117.9187282691314
 10
94.67880314473308
 20
-117.9187282691314
 10
94.67880314473308
 20
-118.0465413116342
 10
94.67880314473308
 20
-118.0465413116342
 10
94.67880314473308
 20
-118.0465413116342
 10
95.06224227224139
 20
-118.0465413116342
 10
95.06224227224139
 20
-118.0465413116342
 10
95.06224227224139
 20
-118.0465413116342
 10
95.06224227224139
 20
-118.2673719322387
 10
95.06224227224139
 20
-118.2673719322387
 10
95.06224227224139
 20
-118.3683132299565
 10
94.98093801878949
 20
-118.3758924400241
 10
94.93649628702977
 20
-118.3758924400241
 10
94.93649628702977
 20
-118.3758924400241
 10
94.80833873497848
 20
-118.3758924400241
 10
94.80833873497848
 20
-118.3758924400241
 10
94.80833873497848
 20
-118.3758924400241
 10
94.78904620026108
 20
-118.2828748619223
 10
94.78904620026108
 20
-118.2828748619223
 10
94.78904620026108
 20
-118.2828748619223
 10
94.92271590508876
 20
-118.2887315242473
 10
94.92271590508876
 20
-118.2887315242473
 10
94.95957842678094
 20
-118.2907985815384
 10
94.96922469413964
 20
-118.2811523141797
 10
94.96922469413964
 20
-118.2384331301626
 10
94.96922469413964
 20
-118.2384331301626
 10
94.96922469413964
 20
-118.1316351701199
 10
94.96922469413964
 20
-118.1316351701199
 10
94.96922469413964
 20
-118.1316351701199
 10
94.67880314473308
 20
-118.1316351701199
 10
94.67880314473308
 20
-118.1316351701199
 10
94.67880314473308
 20
-118.1316351701199
 10
94.67880314473308
 20
-118.4051757516487
 10
94.67880314473308
 20
-118.4051757516487
 10
94.67880314473308
 20
-118.4051757516487
 10
94.58578556663133
 20
-118.4051757516487
 10
94.58578556663133
 20
-118.4051757516487
 10
94.58578556663133
 20
-118.4051757516487
 10
94.58578556663133
 20
-118.1316351701199
 10
94.58578556663133
 20
-118.1316351701199
 10
94.58578556663133
 20
-118.1316351701199
 10
94.3025987177438
 20
-118.1316351701199
 10
94.3025987177438
 20
-118.1316351701199
 10
94.3025987177438
 20
-118.1316351701199
 10
94.3025987177438
 20
-118.4051757516487
 10
94.3025987177438
 20
-118.4051757516487
 10
94.3025987177438
 20
-118.4051757516487
 10
94.19614526724958
 20
-118.4051757516487
 10
94.19614526724958
 20
-118.4051757516487
 10
94.19614526724958
 20
-118.4051757516487
 10
94.19614526724958
 20
-118.0465413116342
 10
94.19614526724958
 20
-118.0465413116342
 10
94.19614526724958
 20
-118.0465413116342
 10
94.58578556663133
 20
-118.0465413116342
 10
94.58578556663133
 20
-118.0465413116342
 10
94.58578556663133
 20
-118.0465413116342
 10
94.58578556663133
 20
-117.9187282691314
 10
94.58578556663133
 20
-117.9187282691314
 10
94.58578556663133
 20
-117.9187282691314
 10
94.11070689921539
 20
-117.9187282691314
 10
94.11070689921539
 20
-117.9187282691314
 10
94.11070689921539
 20
-117.9187282691314
 10
94.11070689921539
 20
-117.8353569583884
 10
94.11070689921539
 20
-117.8353569583884
 10
94.11070689921539
 20
-117.8353569583884
 10
94.58578556663133
 20
-117.8353569583884
 10
94.58578556663133
 20
-117.8353569583884
 10
94.58578556663133
 20
-117.8353569583884
 10
94.58578556663133
 20
-117.7054768585945
 10
94.58578556663133
 20
-117.7054768585945
 10
94.58578556663133
 20
-117.7054768585945
 10
94.30845538006872
 20
-117.7054768585945
 10
94.30845538006872
 20
-117.7054768585945
 10
94.2598795337267
 20
-117.7654215200378
 10
94.24265405630045
 20
-117.7809244497214
 10
94.21371525422435
 20
-117.8043510990211
 10
94.21371525422435
 20
-117.8043510990211
 10
94.13999021084001
 20
-117.7519856476453
 10
94.13999021084001
 20
-117.7519856476453
 10
94.2116481969332
 20
-117.6820502092948
 10
94.28537324031755
 20
-117.5831759688681
 10
94.3260253670435
 20
-117.4922254480575
 10
94.3260253670435
 20
-117.4922254480575
 10
94.42455509792164
 20
-117.5156520973572
 10
94.42455509792164
 20
-117.5156520973572
 10
94.41318628282032
 20
-117.5466579567244
 10
94.40939667778655
 20
-117.5580267718258
 10
94.37046709880322
 20
-117.6200384905603
 10
94.37046709880322
 20
-117.6200384905603
 10
94.58578556663133
 20
-117.6200384905603
 10
94.58578556663133
 20
-117.6200384905603
 97
        0
 97
        0
 92
        1
 93
        4
 72
     1
 10
95.38022458552994
 20
-117.5659504914419
 11
95.38022458552994
 21
-118.1667751440694
 72
     1
 10
95.38022458552994
 20
-118.1667751440694
 11
95.2775607400695
 21
-118.1667751440694
 72
     1
 10
95.2775607400695
 20
-118.1667751440694
 11
95.2775607400695
 21
-117.5659504914419
 72
     1
 10
95.2775607400695
 20
-117.5659504914419
 11
95.38022458552994
 21
-117.5659504914419
 97
        0
 92
        1
 93
        1
 72
     4
 94
        3
 73
     0
 74
     1
 95
       29
 96
       25
 40
0.0
 40
0.0
 40
0.0
 40
0.0
 40
1.0
 40
1.0
 40
1.0
 40
2.0
 40
2.0
 40
2.0
 40
3.0
 40
3.0
 40
3.0
 40
4.0
 40
4.0
 40
4.0
 40
5.0
 40
5.0
 40
5.0
 40
6.0
 40
6.0
 40
6.0
 40
7.0
 40
7.0
 40
7.0
 40
8.0
 40
8.0
 40
8.0
 40
8.0
 10
95.75229489793693
 20
-117.4846462379899
 10
95.75229489793693
 20
-117.4846462379899
 10
95.75229489793693
 20
-118.2887315242473
 10
95.75229489793693
 20
-118.2887315242473
 10
95.75229489793693
 20
-118.3683132299565
 10
95.70544159933753
 20
-118.4051757516487
 10
95.62034774085186
 20
-118.4051757516487
 10
95.62034774085186
 20
-118.4051757516487
 10
95.41502004993097
 20
-118.4051757516487
 10
95.41502004993097
 20
-118.4051757516487
 10
95.41502004993097
 20
-118.4051757516487
 10
95.39538300566505
 20
-118.2945881865722
 10
95.39538300566505
 20
-118.2945881865722
 10
95.39538300566505
 20
-118.2945881865722
 10
95.60105520613446
 20
-118.3004448488971
 10
95.60105520613446
 20
-118.3004448488971
 10
95.6417073328604
 20
-118.3021673966397
 10
95.64549693789418
 20
-118.2945881865722
 10
95.64549693789418
 20
-118.2539360598462
 10
95.64549693789418
 20
-118.2539360598462
 10
95.64549693789418
 20
-117.4846462379899
 10
95.64549693789418
 20
-117.4846462379899
 10
95.64549693789418
 20
-117.4846462379899
 10
95.75229489793693
 20
-117.4846462379899
 10
95.75229489793693
 20
-117.4846462379899
 97
        0
 97
        0
 75
     2
 76
     1
 98
        0
  0
ENDBLK
  5
7F
330
7C
100
AcDbEntity
  8
0
100
AcDbBlockEnd
  0
BLOCK
  5
DF
330
DD
100
AcDbEntity
  8
0
100
AcDbBlockBegin
  2
block 5
 70
     0
 10
0.0
 20
0.0
 30
0.0
  3
block 5
  1

  0
POLYLINE
  5
E1
330
DD
100
AcDbEntity
  8
_U+30EC_U+30A4_U+30E4_U+30FC 1
370
     0
100
AcDb2dPolyline
 66
     1
 10
0.0
 20
0.0
 30
0.0
  0
VERTEX
  5
E2
330
E1
100
AcDbEntity
  8
_U+30EC_U+30A4_U+30E4_U+30FC 1
370
     0
100
AcDbVertex
100
AcDb2dVertex
 10
93.82441946439113
 20
-131.8355359913467
 30
0.0
  0
VERTEX
  5
E3
330
E1
100
AcDbEntity
  8
_U+30EC_U+30A4_U+30E4_U+30FC 1
370
     0
100
AcDbVertex
100
AcDb2dVertex
 10
93.11989743765753
 20
-131.8355359913467
 30
0.0
  0
VERTEX
  5
E4
330
E1
100
AcDbEntity
  8
_U+30EC_U+30A4_U+30E4_U+30FC 1
370
     0
100
AcDbVertex
100
AcDb2dVertex
 10
93.11989743765753
 20
-132.58449974984
 30
0.0
  0
VERTEX
  5
E5
330
E1
100
AcDbEntity
  8
_U+30EC_U+30A4_U+30E4_U+30FC 1
370
     0
100
AcDbVertex
100
AcDb2dVertex
 10
93.82441946439113
 20
-132.58449974984
 30
0.0
  0
VERTEX
  5
E6
330
E1
100
AcDbEntity
  8
_U+30EC_U+30A4_U+30E4_U+30FC 1
370
     0
100
AcDbVertex
100
AcDb2dVertex
 10
93.82441946439113
 20
-132.8191107523855
 30
0.0
  0
VERTEX
  5
E7
330
E1
100
AcDbEntity
  8
_U+30EC_U+30A4_U+30E4_U+30FC 1
370
     0
100
AcDbVertex
100
AcDb2dVertex
 10
92.27998315835362
 20
-132.8191107523855
 30
0.0
  0
VERTEX
  5
E8
330
E1
100
AcDbEntity
  8
_U+30EC_U+30A4_U+30E4_U+30FC 1
370
     0
100
AcDbVertex
100
AcDb2dVertex
 10
92.27998315835362
 20
-132.58449974984
 30
0.0
  0
VERTEX
  5
E9
330
E1
100
AcDbEntity
  8
_U+30EC_U+30A4_U+30E4_U+30FC 1
370
     0
100
AcDbVertex
100
AcDb2dVertex
 10
92.90836857486319
 20
-132.58449974984
 30
0.0
  0
VERTEX
  5
EA
330
E1
100
AcDbEntity
  8
_U+30EC_U+30A4_U+30E4_U+30FC 1
370
     0
100
AcDbVertex
100
AcDb2dVertex
 10
92.90836857486319
 20
-131.8355359913467
 30
0.0
  0
VERTEX
  5
EB
330
E1
100
AcDbEntity
  8
_U+30EC_U+30A4_U+30E4_U+30FC 1
370
     0
100
AcDbVertex
100
AcDb2dVertex
 10
92.27998315835362
 20
-131.8355359913467
 30
0.0
  0
VERTEX
  5
EC
330
E1
100
AcDbEntity
  8
_U+30EC_U+30A4_U+30E4_U+30FC 1
370
     0
100
AcDbVertex
100
AcDb2dVertex
 10
92.27998315835362
 20
-131.6005804792526
 30
0.0
  0
VERTEX
  5
ED
330
E1
100
AcDbEntity
  8
_U+30EC_U+30A4_U+30E4_U+30FC 1
370
     0
100
AcDbVertex
100
AcDb2dVertex
 10
93.82441946439113
 20
-131.6005804792526
 30
0.0
  0
VERTEX
  5
EE
330
E1
100
AcDbEntity
  8
_U+30EC_U+30A4_U+30E4_U+30FC 1
370
     0
100
AcDbVertex
100
AcDb2dVertex
 10
93.82441946439113
 20
-131.8355359913467
 30
0.0
  0
SEQEND
  5
EF
330
E1
100
AcDbEntity
  8
_U+30EC_U+30A4_U+30E4_U+30FC 1
370
     0
  0
HATCH
  5
F0
330
DD
100
AcDbEntity
  8
_U+30EC_U+30A4_U+30E4_U+30FC 1
 62
   179
420
  2234388
100
AcDbHatch
 10
0.0
 20
0.0
 30
0.0
210
0.0
220
0.0
230
1.0
  2
SOLID
 70
     1
 71
     0
 91
        1
 92
        1
 93
       12
 72
     1
 10
93.82441946439113
 20
-131.8355359913467
 11
93.11989743765753
 21
-131.8355359913467
 72
     1
 10
93.11989743765753
 20
-131.8355359913467
 11
93.11989743765753
 21
-132.58449974984
 72
     1
 10
93.11989743765753
 20
-132.58449974984
 11
93.82441946439113
 21
-132.58449974984
 72
     1
 10
93.82441946439113
 20
-132.58449974984
 11
93.82441946439113
 21
-132.8191107523855
 72
     1
 10
93.82441946439113
 20
-132.8191107523855
 11
92.27998315835362
 21
-132.8191107523855
 72
     1
 10
92.27998315835362
 20
-132.8191107523855
 11
92.27998315835362
 21
-132.58449974984
 72
     1
 10
92.27998315835362
 20
-132.58449974984
 11
92.90836857486319
 21
-132.58449974984
 72
     1
 10
92.90836857486319
 20
-132.58449974984
 11
92.90836857486319
 21
-131.8355359913467
 72
     1
 10
92.90836857486319
 20
-131.8355359913467
 11
92.27998315835362
 21
-131.8355359913467
 72
     1
 10
92.27998315835362
 20
-131.8355359913467
 11
92.27998315835362
 21
-131.6005804792526
 72
     1
 10
92.27998315835362
 20
-131.6005804792526
 11
93.82441946439113
 21
-131.6005804792526
 72
     1
 10
93.82441946439113
 20
-131.6005804792526
 11
93.82441946439113
 21
-131.8355359913467
 97
        0
 75
     2
 76
     1
 98
        0
  0
ENDBLK
  5
E0
330
DD
100
AcDbEntity
  8
0
100
AcDbBlockEnd
  0
BLOCK
  5
102
330
100
100
AcDbEntity
  8
0
100
AcDbBlockBegin
  2
block 6
 70
     0
 10
0.0
 20
0.0
 30
0.0
  3
block 6
  1

  0
POLYLINE
  5
104
330
100
100
AcDbEntity
  8
_U+30EC_U+30A4_U+30E4_U+30FC 1
370
     0
100
AcDb2dPolyline
 66
     1
 10
0.0
 20
0.0
 30
0.0
  0
VERTEX
  5
105
330
104
100
AcDbEntity
  8
_U+30EC_U+30A4_U+30E4_U+30FC 1
370
     0
100
AcDbVertex
100
AcDb2dVertex
 10
103.8244981294258
 20
-131.8355359913467
 30
0.0
  0
VERTEX
  5
106
330
104
100
AcDbEntity
  8
_U+30EC_U+30A4_U+30E4_U+30FC 1
370
     0
100
AcDbVertex
100
AcDb2dVertex
 10
103.1199761026922
 20
-131.8355359913467
 30
0.0
  0
VERTEX
  5
107
330
104
100
AcDbEntity
  8
_U+30EC_U+30A4_U+30E4_U+30FC 1
370
     0
100
AcDbVertex
100
AcDb2dVertex
 10
103.1199761026922
 20
-132.58449974984
 30
0.0
  0
VERTEX
  5
108
330
104
100
AcDbEntity
  8
_U+30EC_U+30A4_U+30E4_U+30FC 1
370
     0
100
AcDbVertex
100
AcDb2dVertex
 10
103.8244981294258
 20
-132.58449974984
 30
0.0
  0
VERTEX
  5
109
330
104
100
AcDbEntity
  8
_U+30EC_U+30A4_U+30E4_U+30FC 1
370
     0
100
AcDbVertex
100
AcDb2dVertex
 10
103.8244981294258
 20
-132.8191107523855
 30
0.0
  0
VERTEX
  5
10A
330
104
100
AcDbEntity
  8
_U+30EC_U+30A4_U+30E4_U+30FC 1
370
     0
100
AcDbVertex
100
AcDb2dVertex
 10
102.2800618233883
 20
-132.8191107523855
 30
0.0
  0
VERTEX
  5
10B
330
104
100
AcDbEntity
  8
_U+30EC_U+30A4_U+30E4_U+30FC 1
370
     0
100
AcDbVertex
100
AcDb2dVertex
 10
102.2800618233883
 20
-132.58449974984
 30
0.0
  0
VERTEX
  5
10C
330
104
100
AcDbEntity
  8
_U+30EC_U+30A4_U+30E4_U+30FC 1
370
     0
100
AcDbVertex
100
AcDb2dVertex
 10
102.9084472398979
 20
-132.58449974984
 30
0.0
  0
VERTEX
  5
10D
330
104
100
AcDbEntity
  8
_U+30EC_U+30A4_U+30E4_U+30FC 1
370
     0
100
AcDbVertex
100
AcDb2dVertex
 10
102.9084472398979
 20
-131.8355359913467
 30
0.0
  0
VERTEX
  5
10E
330
104
100
AcDbEntity
  8
_U+30EC_U+30A4_U+30E4_U+30FC 1
370
     0
100
AcDbVertex
100
AcDb2dVertex
 10
102.2800618233883
 20
-131.8355359913467
 30
0.0
  0
VERTEX
  5
10F
330
104
100
AcDbEntity
  8
_U+30EC_U+30A4_U+30E4_U+30FC 1
370
     0
100
AcDbVertex
100
AcDb2dVertex
 10
102.2800618233883
 20
-131.6005804792526
 30
0.0
  0
VERTEX
  5
110
330
104
100
AcDbEntity
  8
_U+30EC_U+30A4_U+30E4_U+30FC 1
370
     0
100
AcDbVertex
100
AcDb2dVertex
 10
103.8244981294258
 20
-131.6005804792526
 30
0.0
  0
VERTEX
  5
111
330
104
100
AcDbEntity
  8
_U+30EC_U+30A4_U+30E4_U+30FC 1
370
     0
100
AcDbVertex
100
AcDb2dVertex
 10
103.8244981294258
 20
-131.8355359913467
 30
0.0
  0
SEQEND
  5
112
330
104
100
AcDbEntity
  8
_U+30EC_U+30A4_U+30E4_U+30FC 1
370
     0
  0
HATCH
  5
113
330
100
100
AcDbEntity
  8
_U+30EC_U+30A4_U+30E4_U+30FC 1
 62
   179
420
  2234388
100
AcDbHatch
 10
0.0
 20
0.0
 30
0.0
210
0.0
220
0.0
230
1.0
  2
SOLID
 70
     1
 71
     0
 91
        1
 92
        1
 93
       12
 72
     1
 10
103.8244981294258
 20
-131.8355359913467
 11
103.1199761026922
 21
-131.8355359913467
 72
     1
 10
103.1199761026922
 20
-131.8355359913467
 11
103.1199761026922
 21
-132.58449974984
 72
     1
 10
103.1199761026922
 20
-132.58449974984
 11
103.8244981294258
 21
-132.58449974984
 72
     1
 10
103.8244981294258
 20
-132.58449974984
 11
103.8244981294258
 21
-132.8191107523855
 72
     1
 10
103.8244981294258
 20
-132.8191107523855
 11
102.2800618233883
 21
-132.8191107523855
 72
     1
 10
102.2800618233883
 20
-132.8191107523855
 11
102.2800618233883
 21
-132.58449974984
 72
     1
 10
102.2800618233883
 20
-132.58449974984
 11
102.9084472398979
 21
-132.58449974984
 72
     1
 10
102.9084472398979
 20
-132.58449974984
 11
102.9084472398979
 21
-131.8355359913467
 72
     1
 10
102.9084472398979
 20
-131.8355359913467
 11
102.2800618233883
 21
-131.8355359913467
 72
     1
 10
102.2800618233883
 20
-131.8355359913467
 11
102.2800618233883
 21
-131.6005804792526
 72
     1
 10
102.2800618233883
 20
-131.6005804792526
 11
103.8244981294258
 21
-131.6005804792526
 72
     1
 10
103.8244981294258
 20
-131.6005804792526
 11
103.8244981294258
 21
-131.8355359913467
 97
        0
 75
     2
 76
     1
 98
        0
  0
ENDBLK
  5
103
330
100
100
AcDbEntity
  8
0
100
AcDbBlockEnd
  0
BLOCK
  5
125
330
123
100
AcDbEntity
  8
0
100
AcDbBlockBegin
  2
block 7
 70
     0
 10
0.0
 20
0.0
 30
0.0
  3
block 7
  1

  0
POLYLINE
  5
127
330
123
100
AcDbEntity
  8
_U+30EC_U+30A4_U+30E4_U+30FC 1
370
     0
100
AcDb2dPolyline
 66
     1
 10
0.0
 20
0.0
 30
0.0
  0
VERTEX
  5
128
330
127
100
AcDbEntity
  8
_U+30EC_U+30A4_U+30E4_U+30FC 1
370
     0
100
AcDbVertex
100
AcDb2dVertex
 10
83.75302732281175
 20
-123.3376912126552
 30
0.0
  0
VERTEX
  5
129
330
127
100
AcDbEntity
  8
_U+30EC_U+30A4_U+30E4_U+30FC 1
370
     0
100
AcDbVertex
100
AcDb2dVertex
 10
83.4822428176711
 20
-123.3376912126552
 30
0.0
  0
VERTEX
  5
12A
330
127
100
AcDbEntity
  8
_U+30EC_U+30A4_U+30E4_U+30FC 1
370
     0
100
AcDbVertex
100
AcDb2dVertex
 10
83.1966444019439
 20
-122.0642116665326
 30
0.0
  0
VERTEX
  5
12B
330
127
100
AcDbEntity
  8
_U+30EC_U+30A4_U+30E4_U+30FC 1
370
     0
100
AcDbVertex
100
AcDb2dVertex
 10
82.91311304350783
 20
-123.3376912126552
 30
0.0
  0
VERTEX
  5
12C
330
127
100
AcDbEntity
  8
_U+30EC_U+30A4_U+30E4_U+30FC 1
370
     0
100
AcDbVertex
100
AcDb2dVertex
 10
82.6423285383672
 20
-123.3376912126552
 30
0.0
  0
VERTEX
  5
12D
330
127
100
AcDbEntity
  8
_U+30EC_U+30A4_U+30E4_U+30FC 1
370
     0
100
AcDbVertex
100
AcDb2dVertex
 10
82.25940617518168
 20
-121.7934271613919
 30
0.0
  0
VERTEX
  5
12E
330
127
100
AcDbEntity
  8
_U+30EC_U+30A4_U+30E4_U+30FC 1
370
     0
100
AcDbVertex
100
AcDb2dVertex
 10
82.4921223752103
 20
-121.7934271613919
 30
0.0
  0
VERTEX
  5
12F
330
127
100
AcDbEntity
  8
_U+30EC_U+30A4_U+30E4_U+30FC 1
370
     0
100
AcDbVertex
100
AcDb2dVertex
 10
82.77772079093752
 20
-123.0436523129891
 30
0.0
  0
VERTEX
  5
130
330
127
100
AcDbEntity
  8
_U+30EC_U+30A4_U+30E4_U+30FC 1
370
     0
100
AcDbVertex
100
AcDb2dVertex
 10
83.05694578001702
 20
-121.7934271613919
 30
0.0
  0
VERTEX
  5
131
330
127
100
AcDbEntity
  8
_U+30EC_U+30A4_U+30E4_U+30FC 1
370
     0
100
AcDbVertex
100
AcDb2dVertex
 10
83.33617076909651
 20
-121.7934271613919
 30
0.0
  0
VERTEX
  5
132
330
127
100
AcDbEntity
  8
_U+30EC_U+30A4_U+30E4_U+30FC 1
370
     0
100
AcDbVertex
100
AcDb2dVertex
 10
83.61556801295028
 20
-123.0436523129891
 30
0.0
  0
VERTEX
  5
133
330
127
100
AcDbEntity
  8
_U+30EC_U+30A4_U+30E4_U+30FC 1
370
     0
100
AcDbVertex
100
AcDb2dVertex
 10
83.90323348596864
 20
-121.7934271613919
 30
0.0
  0
VERTEX
  5
134
330
127
100
AcDbEntity
  8
_U+30EC_U+30A4_U+30E4_U+30FC 1
370
     0
100
AcDbVertex
100
AcDb2dVertex
 10
84.13594968599726
 20
-121.7934271613919
 30
0.0
  0
VERTEX
  5
135
330
127
100
AcDbEntity
  8
_U+30EC_U+30A4_U+30E4_U+30FC 1
370
     0
100
AcDbVertex
100
AcDb2dVertex
 10
83.75302732281175
 20
-123.3376912126552
 30
0.0
  0
SEQEND
  5
136
330
127
100
AcDbEntity
  8
_U+30EC_U+30A4_U+30E4_U+30FC 1
370
     0
  0
HATCH
  5
137
330
123
100
AcDbEntity
  8
_U+30EC_U+30A4_U+30E4_U+30FC 1
 62
   179
420
  2234388
100
AcDbHatch
 10
0.0
 20
0.0
 30
0.0
210
0.0
220
0.0
230
1.0
  2
SOLID
 70
     1
 71
     0
 91
        1
 92
        1
 93
       13
 72
     1
 10
83.75302732281175
 20
-123.3376912126552
 11
83.4822428176711
 21
-123.3376912126552
 72
     1
 10
83.4822428176711
 20
-123.3376912126552
 11
83.1966444019439
 21
-122.0642116665326
 72
     1
 10
83.1966444019439
 20
-122.0642116665326
 11
82.91311304350783
 21
-123.3376912126552
 72
     1
 10
82.91311304350783
 20
-123.3376912126552
 11
82.6423285383672
 21
-123.3376912126552
 72
     1
 10
82.6423285383672
 20
-123.3376912126552
 11
82.25940617518168
 21
-121.7934271613919
 72
     1
 10
82.25940617518168
 20
-121.7934271613919
 11
82.4921223752103
 21
-121.7934271613919
 72
     1
 10
82.4921223752103
 20
-121.7934271613919
 11
82.77772079093752
 21
-123.0436523129891
 72
     1
 10
82.77772079093752
 20
-123.0436523129891
 11
83.05694578001702
 21
-121.7934271613919
 72
     1
 10
83.05694578001702
 20
-121.7934271613919
 11
83.33617076909651
 21
-121.7934271613919
 72
     1
 10
83.33617076909651
 20
-121.7934271613919
 11
83.61556801295028
 21
-123.0436523129891
 72
     1
 10
83.61556801295028
 20
-123.0436523129891
 11
83.90323348596864
 21
-121.7934271613919
 72
     1
 10
83.90323348596864
 20
-121.7934271613919
 11
84.13594968599726
 21
-121.7934271613919
 72
     1
 10
84.13594968599726
 20
-121.7934271613919
 11
83.75302732281175
 21
-123.3376912126552
 97
        0
 75
     2
 76
     1
 98
        0
  0
ENDBLK
  5
126
330
123
100
AcDbEntity
  8
0
100
AcDbBlockEnd
  0
BLOCK
  5
149
330
147
100
AcDbEntity
  8
0
100
AcDbBlockBegin
  2
block 8
 70
     0
 10
0.0
 20
0.0
 30
0.0
  3
block 8
  1

  0
POLYLINE
  5
14B
330
147
100
AcDbEntity
  8
_U+30EC_U+30A4_U+30E4_U+30FC 1
370
     0
100
AcDb2dPolyline
 66
     1
 10
0.0
 20
0.0
 30
0.0
  0
VERTEX
  5
14C
330
14B
100
AcDbEntity
  8
_U+30EC_U+30A4_U+30E4_U+30FC 1
370
     0
100
AcDbVertex
100
AcDb2dVertex
 10
99.5632595237203
 20
-122.0049560241863
 30
0.0
  0
VERTEX
  5
14D
330
14B
100
AcDbEntity
  8
_U+30EC_U+30A4_U+30E4_U+30FC 1
370
     0
100
AcDbVertex
100
AcDb2dVertex
 10
99.5632595237203
 20
-123.3376912126552
 30
0.0
  0
VERTEX
  5
14E
330
14B
100
AcDbEntity
  8
_U+30EC_U+30A4_U+30E4_U+30FC 1
370
     0
100
AcDbVertex
100
AcDb2dVertex
 10
99.32864852117478
 20
-123.3376912126552
 30
0.0
  0
VERTEX
  5
14F
330
14B
100
AcDbEntity
  8
_U+30EC_U+30A4_U+30E4_U+30FC 1
370
     0
100
AcDbVertex
100
AcDb2dVertex
 10
99.32864852117478
 20
-122.0049560241863
 30
0.0
  0
VERTEX
  5
150
330
14B
100
AcDbEntity
  8
_U+30EC_U+30A4_U+30E4_U+30FC 1
370
     0
100
AcDbVertex
100
AcDb2dVertex
 10
98.82497556123126
 20
-122.0049560241863
 30
0.0
  0
VERTEX
  5
151
330
14B
100
AcDbEntity
  8
_U+30EC_U+30A4_U+30E4_U+30FC 1
370
     0
100
AcDbVertex
100
AcDb2dVertex
 10
98.82497556123126
 20
-121.7934271613919
 30
0.0
  0
VERTEX
  5
152
330
14B
100
AcDbEntity
  8
_U+30EC_U+30A4_U+30E4_U+30FC 1
370
     0
100
AcDbVertex
100
AcDb2dVertex
 10
100.068999540955
 20
-121.7934271613919
 30
0.0
  0
VERTEX
  5
153
330
14B
100
AcDbEntity
  8
_U+30EC_U+30A4_U+30E4_U+30FC 1
370
     0
100
AcDbVertex
100
AcDb2dVertex
 10
100.068999540955
 20
-122.0049560241863
 30
0.0
  0
VERTEX
  5
154
330
14B
100
AcDbEntity
  8
_U+30EC_U+30A4_U+30E4_U+30FC 1
370
     0
100
AcDbVertex
100
AcDb2dVertex
 10
99.5632595237203
 20
-122.0049560241863
 30
0.0
  0
SEQEND
  5
155
330
14B
100
AcDbEntity
  8
_U+30EC_U+30A4_U+30E4_U+30FC 1
370
     0
  0
HATCH
  5
156
330
147
100
AcDbEntity
  8
_U+30EC_U+30A4_U+30E4_U+30FC 1
 62
   179
420
  2234388
100
AcDbHatch
 10
0.0
 20
0.0
 30
0.0
210
0.0
220
0.0
230
1.0
  2
SOLID
 70
     1
 71
     0
 91
        1
 92
        1
 93
        8
 72
     1
 10
99.5632595237203
 20
-122.0049560241863
 11
99.5632595237203
 21
-123.3376912126552
 72
     1
 10
99.5632595237203
 20
-123.3376912126552
 11
99.32864852117478
 21
-123.3376912126552
 72
     1
 10
99.32864852117478
 20
-123.3376912126552
 11
99.32864852117478
 21
-122.0049560241863
 72
     1
 10
99.32864852117478
 20
-122.0049560241863
 11
98.82497556123126
 21
-122.0049560241863
 72
     1
 10
98.82497556123126
 20
-122.0049560241863
 11
98.82497556123126
 21
-121.7934271613919
 72
     1
 10
98.82497556123126
 20
-121.7934271613919
 11
100.068999540955
 21
-121.7934271613919
 72
     1
 10
100.068999540955
 20
-121.7934271613919
 11
100.068999540955
 21
-122.0049560241863
 72
     1
 10
100.068999540955
 20
-122.0049560241863
 11
99.5632595237203
 21
-122.0049560241863
 97
        0
 75
     2
 76
     1
 98
        0
  0
ENDBLK
  5
14A
330
147
100
AcDbEntity
  8
0
100
AcDbBlockEnd
  0
ENDSEC
  0
SECTION
  2
ENTITIES
  0
INSERT
  5
42
330
1F
100
AcDbEntity
  8
_U+30EC_U+30A4_U+30E4_U+30FC 1
100
AcDbBlockReference
  2
block 2
 10
0.0
 20
0.0
 30
0.0
  0
INSERT
  5
6D
330
1F
100
AcDbEntity
  8
_U+30EC_U+30A4_U+30E4_U+30FC 1
100
AcDbBlockReference
  2
block 3
 10
0.0
 20
0.0
 30
0.0
  0
INSERT
  5
7D
330
1F
100
AcDbEntity
  8
_U+30EC_U+30A4_U+30E4_U+30FC 1
100
AcDbBlockReference
  2
block 4
 10
0.0
 20
0.0
 30
0.0
  0
POLYLINE
  5
95
330
1F
100
AcDbEntity
  8
_U+30EC_U+30A4_U+30E4_U+30FC 1
370
     0
100
AcDb2dPolyline
 66
     1
 10
0.0
 20
0.0
 30
0.0
  0
VERTEX
  5
96
330
95
100
AcDbEntity
  8
_U+30EC_U+30A4_U+30E4_U+30FC 1
370
     0
100
AcDbVertex
100
AcDb2dVertex
 10
76.19724638937963
 20
-136.710349410267
 30
0.0
  0
VERTEX
  5
97
330
95
100
AcDbEntity
  8
_U+30EC_U+30A4_U+30E4_U+30FC 1
370
     0
100
AcDbVertex
100
AcDb2dVertex
 10
90.19709103221383
 20
-136.710349410267
 30
0.0
  0
VERTEX
  5
98
330
95
100
AcDbEntity
  8
_U+30EC_U+30A4_U+30E4_U+30FC 1
370
     0
100
AcDbVertex
100
AcDb2dVertex
 10
90.19709103221383
 20
-127.7105649680722
 30
0.0
  0
VERTEX
  5
99
330
95
100
AcDbEntity
  8
_U+30EC_U+30A4_U+30E4_U+30FC 1
370
     0
100
AcDbVertex
100
AcDb2dVertex
 10
76.19724638937963
 20
-127.7105649680722
 30
0.0
  0
VERTEX
  5
9A
330
95
100
AcDbEntity
  8
_U+30EC_U+30A4_U+30E4_U+30FC 1
370
     0
100
AcDbVertex
100
AcDb2dVertex
 10
76.19724638937963
 20
-136.710349410267
 30
0.0
  0
SEQEND
  5
9B
330
95
100
AcDbEntity
  8
_U+30EC_U+30A4_U+30E4_U+30FC 1
370
     0
  0
SPLINE
  5
9C
330
1F
100
AcDbEntity
  8
_U+30EC_U+30A4_U+30E4_U+30FC 1
370
     0
100
AcDbSpline
210
0.0
220
0.0
230
1.0
 70
    11
 71
     3
 72
    17
 73
    13
 74
     0
 42
0.0000000001
 43
0.0000000001
 12
1.0
 22
0.0
 32
0.0
 13
1.0
 23
0.0
 33
0.0
 40
0.0
 40
0.0
 40
0.0
 40
0.0
 40
1.0
 40
1.0
 40
1.0
 40
2.0
 40
2.0
 40
2.0
 40
3.0
 40
3.0
 40
3.0
 40
4.0
 40
4.0
 40
4.0
 40
4.0
 10
87.44718832459192
 20
-128.9602449677599
 30
0.0
 10
87.72348608918023
 20
-128.9602449677599
 30
0.0
 10
87.94707442294987
 20
-129.1841883010372
 30
0.0
 10
87.94707442294987
 20
-129.4604838565236
 30
0.0
 10
87.94707442294987
 20
-129.73677941201
 30
0.0
 10
87.72348608918023
 20
-129.9607227452873
 30
0.0
 10
87.44718832459192
 20
-129.9607227452873
 30
0.0
 10
87.17089277608525
 20
-129.9607227452873
 30
0.0
 10
86.94730222623396
 20
-129.73677941201
 30
0.0
 10
86.94730222623396
 20
-129.4604838565236
 30
0.0
 10
86.94730222623396
 20
-129.1841883010372
 30
0.0
 10
87.17089277608525
 20
-128.9602449677599
 30
0.0
 10
87.44718832459192
 20
-128.9602449677599
 30
0.0
  0
SPLINE
  5
9D
330
1F
100
AcDbEntity
  8
_U+30EC_U+30A4_U+30E4_U+30FC 1
370
     0
100
AcDbSpline
210
0.0
220
0.0
230
1.0
 70
    11
 71
     3
 72
    17
 73
    13
 74
     0
 42
0.0000000001
 43
0.0000000001
 12
1.0
 22
0.0
 32
0.0
 13
1.0
 23
0.0
 33
0.0
 40
0.0
 40
0.0
 40
0.0
 40
0.0
 40
1.0
 40
1.0
 40
1.0
 40
2.0
 40
2.0
 40
2.0
 40
3.0
 40
3.0
 40
3.0
 40
4.0
 40
4.0
 40
4.0
 40
4.0
 10
78.94711381922467
 20
-128.9602449677599
 30
0.0
 10
79.22340936773134
 20
-128.9602449677599
 30
0.0
 10
79.4473526953514
 20
-129.1841883010372
 30
0.0
 10
79.4473526953514
 20
-129.4604838565236
 30
0.0
 10
79.4473526953514
 20
-129.73677941201
 30
0.0
 10
79.22340936773134
 20
-129.9607227452873
 30
0.0
 10
78.94711381922467
 20
-129.9607227452873
 30
0.0
 10
78.67117104848677
 20
-129.9607227452873
 30
0.0
 10
78.4472277208667
 20
-129.73677941201
 30
0.0
 10
78.4472277208667
 20
-129.4604838565236
 30
0.0
 10
78.4472277208667
 20
-129.1841883010372
 30
0.0
 10
78.67117104848677
 20
-128.9602449677599
 30
0.0
 10
78.94711381922467
 20
-128.9602449677599
 30
0.0
  0
HATCH
  5
9E
330
1F
100
AcDbEntity
  8
_U+30EC_U+30A4_U+30E4_U+30FC 1
 62
   253
420
 11711154
100
AcDbHatch
 10
0.0
 20
0.0
 30
0.0
210
0.0
220
0.0
230
1.0
  2
SOLID
 70
     1
 71
     0
 91
        3
 92
        1
 93
        4
 72
     1
 10
76.19724638937963
 20
-136.710349410267
 11
90.19709103221383
 21
-136.710349410267
 72
     1
 10
90.19709103221383
 20
-136.710349410267
 11
90.19709103221383
 21
-127.7105649680722
 72
     1
 10
90.19709103221383
 20
-127.7105649680722
 11
76.19724638937963
 21
-127.7105649680722
 72
     1
 10
76.19724638937963
 20
-127.7105649680722
 11
76.19724638937963
 21
-136.710349410267
 97
        0
 92
        1
 93
        1
 72
     4
 94
        3
 73
     0
 74
     1
 95
       17
 96
       13
 40
0.0
 40
0.0
 40
0.0
 40
0.0
 40
1.0
 40
1.0
 40
1.0
 40
2.0
 40
2.0
 40
2.0
 40
3.0
 40
3.0
 40
3.0
 40
4.0
 40
4.0
 40
4.0
 40
4.0
 10
87.44718832459192
 20
-128.9602449677599
 10
87.72348608918023
 20
-128.9602449677599
 10
87.94707442294987
 20
-129.1841883010372
 10
87.94707442294987
 20
-129.4604838565236
 10
87.94707442294987
 20
-129.73677941201
 10
87.72348608918023
 20
-129.9607227452873
 10
87.44718832459192
 20
-129.9607227452873
 10
87.17089277608525
 20
-129.9607227452873
 10
86.94730222623396
 20
-129.73677941201
 10
86.94730222623396
 20
-129.4604838565236
 10
86.94730222623396
 20
-129.1841883010372
 10
87.17089277608525
 20
-128.9602449677599
 10
87.44718832459192
 20
-128.9602449677599
 97
        0
 97
        0
 92
        1
 93
        1
 72
     4
 94
        3
 73
     0
 74
     1
 95
       17
 96
       13
 40
0.0
 40
0.0
 40
0.0
 40
0.0
 40
1.0
 40
1.0
 40
1.0
 40
2.0
 40
2.0
 40
2.0
 40
3.0
 40
3.0
 40
3.0
 40
4.0
 40
4.0
 40
4.0
 40
4.0
 10
78.94711381922467
 20
-128.9602449677599
 10
79.22340936773134
 20
-128.9602449677599
 10
79.4473526953514
 20
-129.1841883010372
 10
79.4473526953514
 20
-129.4604838565236
 10
79.4473526953514
 20
-129.73677941201
 10
79.22340936773134
 20
-129.9607227452873
 10
78.94711381922467
 20
-129.9607227452873
 10
78.67117104848677
 20
-129.9607227452873
 10
78.4472277208667
 20
-129.73677941201
 10
78.4472277208667
 20
-129.4604838565236
 10
78.4472277208667
 20
-129.1841883010372
 10
78.67117104848677
 20
-128.9602449677599
 10
78.94711381922467
 20
-128.9602449677599
 97
        0
 97
        0
 75
     2
 76
     1
 98
        0
  0
POLYLINE
  5
9F
330
1F
100
AcDbEntity
  8
_U+30EC_U+30A4_U+30E4_U+30FC 1
370
     0
100
AcDb2dPolyline
 66
     1
 10
0.0
 20
0.0
 30
0.0
  0
VERTEX
  5
A0
330
9F
100
AcDbEntity
  8
_U+30EC_U+30A4_U+30E4_U+30FC 1
370
     0
100
AcDbVertex
100
AcDb2dVertex
 10
98.69716553758109
 20
-136.710349410267
 30
0.0
  0
VERTEX
  5
A1
330
9F
100
AcDbEntity
  8
_U+30EC_U+30A4_U+30E4_U+30FC 1
370
     0
100
AcDbVertex
100
AcDb2dVertex
 10
100.1971413326469
 20
-136.710349410267
 30
0.0
  0
VERTEX
  5
A2
330
9F
100
AcDbEntity
  8
_U+30EC_U+30A4_U+30E4_U+30FC 1
370
     0
100
AcDbVertex
100
AcDb2dVertex
 10
100.1971413326469
 20
-127.7105649680722
 30
0.0
  0
VERTEX
  5
A3
330
9F
100
AcDbEntity
  8
_U+30EC_U+30A4_U+30E4_U+30FC 1
370
     0
100
AcDbVertex
100
AcDb2dVertex
 10
98.69716553758109
 20
-127.7105649680722
 30
0.0
  0
VERTEX
  5
A4
330
9F
100
AcDbEntity
  8
_U+30EC_U+30A4_U+30E4_U+30FC 1
370
     0
100
AcDbVertex
100
AcDb2dVertex
 10
98.69716553758109
 20
-136.710349410267
 30
0.0
  0
SEQEND
  5
A6
330
9F
100
AcDbEntity
  8
_U+30EC_U+30A4_U+30E4_U+30FC 1
370
     0
  0
HATCH
  5
A5
330
1F
100
AcDbEntity
  8
_U+30EC_U+30A4_U+30E4_U+30FC 1
 62
   253
420
 11711154
100
AcDbHatch
 10
0.0
 20
0.0
 30
0.0
210
0.0
220
0.0
230
1.0
  2
SOLID
 70
     1
 71
     0
 91
        1
 92
        1
 93
        4
 72
     1
 10
98.69716553758109
 20
-136.710349410267
 11
100.1971413326469
 21
-136.710349410267
 72
     1
 10
100.1971413326469
 20
-136.710349410267
 11
100.1971413326469
 21
-127.7105649680722
 72
     1
 10
100.1971413326469
 20
-127.7105649680722
 11
98.69716553758109
 21
-127.7105649680722
 72
     1
 10
98.69716553758109
 20
-127.7105649680722
 11
98.69716553758109
 21
-136.710349410267
 97
        0
 75
     2
 76
     1
 98
        0
  0
POLYLINE
  5
A7
330
1F
100
AcDbEntity
  8
_U+30EC_U+30A4_U+30E4_U+30FC 1
 62
   179
420
  2234388
370
    25
100
AcDb2dPolyline
 66
     1
 10
0.0
 20
0.0
 30
0.0
  0
VERTEX
  5
A8
330
A7
100
AcDbEntity
  8
_U+30EC_U+30A4_U+30E4_U+30FC 1
 62
   179
420
  2234388
370
    25
100
AcDbVertex
100
AcDb2dVertex
 10
98.69716553758109
 20
-127.7105649680722
 30
0.0
  0
VERTEX
  5
A9
330
A7
100
AcDbEntity
  8
_U+30EC_U+30A4_U+30E4_U+30FC 1
 62
   179
420
  2234388
370
    25
100
AcDbVertex
100
AcDb2dVertex
 10
100.1971413326469
 20
-127.7105649680722
 30
0.0
  0
SEQEND
  5
AA
330
A7
100
AcDbEntity
  8
_U+30EC_U+30A4_U+30E4_U+30FC 1
 62
   179
420
  2234388
370
    25
  0
POLYLINE
  5
AB
330
1F
100
AcDbEntity
  8
_U+30EC_U+30A4_U+30E4_U+30FC 1
 62
   179
420
  2234388
370
    25
100
AcDb2dPolyline
 66
     1
 10
0.0
 20
0.0
 30
0.0
  0
VERTEX
  5
AC
330
AB
100
AcDbEntity
  8
_U+30EC_U+30A4_U+30E4_U+30FC 1
 62
   179
420
  2234388
370
    25
100
AcDbVertex
100
AcDb2dVertex
 10
76.19724638937963
 20
-127.7105649680722
 30
0.0
  0
VERTEX
  5
AD
330
AB
100
AcDbEntity
  8
_U+30EC_U+30A4_U+30E4_U+30FC 1
 62
   179
420
  2234388
370
    25
100
AcDbVertex
100
AcDb2dVertex
 10
76.19724638937963
 20
-136.710349410267
 30
0.0
  0
SEQEND
  5
AE
330
AB
100
AcDbEntity
  8
_U+30EC_U+30A4_U+30E4_U+30FC 1
 62
   179
420
  2234388
370
    25
  0
POLYLINE
  5
AF
330
1F
100
AcDbEntity
  8
_U+30EC_U+30A4_U+30E4_U+30FC 1
 62
   179
420
  2234388
370
    25
100
AcDb2dPolyline
 66
     1
 10
0.0
 20
0.0
 30
0.0
  0
VERTEX
  5
B0
330
AF
100
AcDbEntity
  8
_U+30EC_U+30A4_U+30E4_U+30FC 1
 62
   179
420
  2234388
370
    25
100
AcDbVertex
100
AcDb2dVertex
 10
90.19709103221383
 20
-127.7105649680722
 30
0.0
  0
VERTEX
  5
B1
330
AF
100
AcDbEntity
  8
_U+30EC_U+30A4_U+30E4_U+30FC 1
 62
   179
420
  2234388
370
    25
100
AcDbVertex
100
AcDb2dVertex
 10
90.19709103221383
 20
-136.710349410267
 30
0.0
  0
SEQEND
  5
B2
330
AF
100
AcDbEntity
  8
_U+30EC_U+30A4_U+30E4_U+30FC 1
 62
   179
420
  2234388
370
    25
  0
POLYLINE
  5
B3
330
1F
100
AcDbEntity
  8
_U+30EC_U+30A4_U+30E4_U+30FC 1
 62
   179
420
  2234388
370
    25
100
AcDb2dPolyline
 66
     1
 10
0.0
 20
0.0
 30
0.0
  0
VERTEX
  5
B4
330
B3
100
AcDbEntity
  8
_U+30EC_U+30A4_U+30E4_U+30FC 1
 62
   179
420
  2234388
370
    25
100
AcDbVertex
100
AcDb2dVertex
 10
76.19724638937963
 20
-127.7105649680722
 30
0.0
  0
VERTEX
  5
B5
330
B3
100
AcDbEntity
  8
_U+30EC_U+30A4_U+30E4_U+30FC 1
 62
   179
420
  2234388
370
    25
100
AcDbVertex
100
AcDb2dVertex
 10
90.19709103221383
 20
-127.7105649680722
 30
0.0
  0
SEQEND
  5
B6
330
B3
100
AcDbEntity
  8
_U+30EC_U+30A4_U+30E4_U+30FC 1
 62
   179
420
  2234388
370
    25
  0
POLYLINE
  5
B7
330
1F
100
AcDbEntity
  8
_U+30EC_U+30A4_U+30E4_U+30FC 1
 62
   179
420
  2234388
370
    25
100
AcDb2dPolyline
 66
     1
 10
0.0
 20
0.0
 30
0.0
  0
VERTEX
  5
B8
330
B7
100
AcDbEntity
  8
_U+30EC_U+30A4_U+30E4_U+30FC 1
 62
   179
420
  2234388
370
    25
100
AcDbVertex
100
AcDb2dVertex
 10
76.19724638937963
 20
-136.710349410267
 30
0.0
  0
VERTEX
  5
B9
330
B7
100
AcDbEntity
  8
_U+30EC_U+30A4_U+30E4_U+30FC 1
 62
   179
420
  2234388
370
    25
100
AcDbVertex
100
AcDb2dVertex
 10
90.19709103221383
 20
-136.710349410267
 30
0.0
  0
SEQEND
  5
BA
330
B7
100
AcDbEntity
  8
_U+30EC_U+30A4_U+30E4_U+30FC 1
 62
   179
420
  2234388
370
    25
  0
POLYLINE
  5
BB
330
1F
100
AcDbEntity
  8
_U+30EC_U+30A4_U+30E4_U+30FC 1
 62
   179
420
  2234388
370
    25
100
AcDb2dPolyline
 66
     1
 10
0.0
 20
0.0
 30
0.0
  0
VERTEX
  5
BC
330
BB
100
AcDbEntity
  8
_U+30EC_U+30A4_U+30E4_U+30FC 1
 62
   179
420
  2234388
370
    25
100
AcDbVertex
100
AcDb2dVertex
 10
100.1971413326469
 20
-127.7105649680722
 30
0.0
  0
VERTEX
  5
BD
330
BB
100
AcDbEntity
  8
_U+30EC_U+30A4_U+30E4_U+30FC 1
 62
   179
420
  2234388
370
    25
100
AcDbVertex
100
AcDb2dVertex
 10
100.1971413326469
 20
-136.710349410267
 30
0.0
  0
SEQEND
  5
BE
330
BB
100
AcDbEntity
  8
_U+30EC_U+30A4_U+30E4_U+30FC 1
 62
   179
420
  2234388
370
    25
  0
POLYLINE
  5
BF
330
1F
100
AcDbEntity
  8
_U+30EC_U+30A4_U+30E4_U+30FC 1
 62
   179
420
  2234388
370
    25
100
AcDb2dPolyline
 66
     1
 10
0.0
 20
0.0
 30
0.0
  0
VERTEX
  5
C0
330
BF
100
AcDbEntity
  8
_U+30EC_U+30A4_U+30E4_U+30FC 1
 62
   179
420
  2234388
370
    25
100
AcDbVertex
100
AcDb2dVertex
 10
98.69716553758109
 20
-136.710349410267
 30
0.0
  0
VERTEX
  5
C1
330
BF
100
AcDbEntity
  8
_U+30EC_U+30A4_U+30E4_U+30FC 1
 62
   179
420
  2234388
370
    25
100
AcDbVertex
100
AcDb2dVertex
 10
100.1971413326469
 20
-136.710349410267
 30
0.0
  0
SEQEND
  5
C2
330
BF
100
AcDbEntity
  8
_U+30EC_U+30A4_U+30E4_U+30FC 1
 62
   179
420
  2234388
370
    25
  0
POLYLINE
  5
C3
330
1F
100
AcDbEntity
  8
_U+30EC_U+30A4_U+30E4_U+30FC 1
 62
   179
420
  2234388
370
    25
100
AcDb2dPolyline
 66
     1
 10
0.0
 20
0.0
 30
0.0
  0
VERTEX
  5
C4
330
C3
100
AcDbEntity
  8
_U+30EC_U+30A4_U+30E4_U+30FC 1
 62
   179
420
  2234388
370
    25
100
AcDbVertex
100
AcDb2dVertex
 10
98.69716553758109
 20
-127.7105649680722
 30
0.0
  0
VERTEX
  5
C5
330
C3
100
AcDbEntity
  8
_U+30EC_U+30A4_U+30E4_U+30FC 1
 62
   179
420
  2234388
370
    25
100
AcDbVertex
100
AcDb2dVertex
 10
98.69716553758109
 20
-136.710349410267
 30
0.0
  0
SEQEND
  5
C6
330
C3
100
AcDbEntity
  8
_U+30EC_U+30A4_U+30E4_U+30FC 1
 62
   179
420
  2234388
370
    25
  0
SPLINE
  5
C7
330
1F
100
AcDbEntity
  8
_U+30EC_U+30A4_U+30E4_U+30FC 1
 62
   179
420
  2234388
370
    25
100
AcDbSpline
210
0.0
220
0.0
230
1.0
 70
    11
 71
     3
 72
    17
 73
    13
 74
     0
 42
0.0000000001
 43
0.0000000001
 12
1.0
 22
0.0
 32
0.0
 13
1.0
 23
0.0
 33
0.0
 40
0.0
 40
0.0
 40
0.0
 40
0.0
 40
1.0
 40
1.0
 40
1.0
 40
2.0
 40
2.0
 40
2.0
 40
3.0
 40
3.0
 40
3.0
 40
4.0
 40
4.0
 40
4.0
 40
4.0
 10
79.4473526953514
 20
-129.4604838565236
 30
0.0
 10
79.4473526953514
 20
-129.1841883010372
 30
0.0
 10
79.22340936773134
 20
-128.9602449677599
 30
0.0
 10
78.94711381922467
 20
-128.9602449677599
 30
0.0
 10
78.67117104848677
 20
-128.9602449677599
 30
0.0
 10
78.4472277208667
 20
-129.1841883010372
 30
0.0
 10
78.4472277208667
 20
-129.4604838565236
 30
0.0
 10
78.4472277208667
 20
-129.73677941201
 30
0.0
 10
78.67117104848677
 20
-129.9607227452873
 30
0.0
 10
78.94711381922467
 20
-129.9607227452873
 30
0.0
 10
79.22340936773134
 20
-129.9607227452873
 30
0.0
 10
79.4473526953514
 20
-129.73677941201
 30
0.0
 10
79.4473526953514
 20
-129.4604838565236
 30
0.0
  0
SPLINE
  5
C8
330
1F
100
AcDbEntity
  8
_U+30EC_U+30A4_U+30E4_U+30FC 1
 62
   179
420
  2234388
370
    25
100
AcDbSpline
210
0.0
220
0.0
230
1.0
 70
    11
 71
     3
 72
    17
 73
    13
 74
     0
 42
0.0000000001
 43
0.0000000001
 12
1.0
 22
0.0
 32
0.0
 13
1.0
 23
0.0
 33
0.0
 40
0.0
 40
0.0
 40
0.0
 40
0.0
 40
1.0
 40
1.0
 40
1.0
 40
2.0
 40
2.0
 40
2.0
 40
3.0
 40
3.0
 40
3.0
 40
4.0
 40
4.0
 40
4.0
 40
4.0
 10
87.94707442294987
 20
-129.4604838565236
 30
0.0
 10
87.94707442294987
 20
-129.1841883010372
 30
0.0
 10
87.72348608918023
 20
-128.9602449677599
 30
0.0
 10
87.44718832459192
 20
-128.9602449677599
 30
0.0
 10
87.17089277608525
 20
-128.9602449677599
 30
0.0
 10
86.94730222623396
 20
-129.1841883010372
 30
0.0
 10
86.94730222623396
 20
-129.4604838565236
 30
0.0
 10
86.94730222623396
 20
-129.73677941201
 30
0.0
 10
87.17089277608525
 20
-129.9607227452873
 30
0.0
 10
87.44718832459192
 20
-129.9607227452873
 30
0.0
 10
87.72348608918023
 20
-129.9607227452873
 30
0.0
 10
87.94707442294987
 20
-129.73677941201
 30
0.0
 10
87.94707442294987
 20
-129.4604838565236
 30
0.0
  0
SPLINE
  5
C9
330
1F
100
AcDbEntity
  8
_U+30EC_U+30A4_U+30E4_U+30FC 1
 62
   179
420
  2234388
370
     9
100
AcDbSpline
210
0.0
220
0.0
230
1.0
 70
    11
 71
     3
 72
    17
 73
    13
 74
     0
 42
0.0000000001
 43
0.0000000001
 12
1.0
 22
0.0
 32
0.0
 13
1.0
 23
0.0
 33
0.0
 40
0.0
 40
0.0
 40
0.0
 40
0.0
 40
1.0
 40
1.0
 40
1.0
 40
2.0
 40
2.0
 40
2.0
 40
3.0
 40
3.0
 40
3.0
 40
4.0
 40
4.0
 40
4.0
 40
4.0
 10
104.2971598391578
 20
-127.7105649680722
 30
0.0
 10
104.2971598391578
 20
-127.6554258014195
 30
0.0
 10
104.2523923402999
 20
-127.6106583014306
 30
0.0
 10
104.1972531750399
 20
-127.6106583014306
 30
0.0
 10
104.1421492875569
 20
-127.6106583014306
 30
0.0
 10
104.0973465109221
 20
-127.6554258014195
 30
0.0
 10
104.0973465109221
 20
-127.7105649680722
 30
0.0
 10
104.0973465109221
 20
-127.7656688569475
 30
0.0
 10
104.1421492875569
 20
-127.8104716347142
 30
0.0
 10
104.1972531750399
 20
-127.8104716347142
 30
0.0
 10
104.2523923402999
 20
-127.8104716347142
 30
0.0
 10
104.2971598391578
 20
-127.7656688569475
 30
0.0
 10
104.2971598391578
 20
-127.7105649680722
 30
0.0
  0
SPLINE
  5
CA
330
1F
100
AcDbEntity
  8
_U+30EC_U+30A4_U+30E4_U+30FC 1
 62
   179
420
  2234388
370
     9
100
AcDbSpline
210
0.0
220
0.0
230
1.0
 70
    11
 71
     3
 72
    17
 73
    13
 74
     0
 42
0.0000000001
 43
0.0000000001
 12
1.0
 22
0.0
 32
0.0
 13
1.0
 23
0.0
 33
0.0
 40
0.0
 40
0.0
 40
0.0
 40
0.0
 40
1.0
 40
1.0
 40
1.0
 40
2.0
 40
2.0
 40
2.0
 40
3.0
 40
3.0
 40
3.0
 40
4.0
 40
4.0
 40
4.0
 40
4.0
 10
100.2970479967647
 20
-123.7108058024057
 30
0.0
 10
100.2970479967647
 20
-123.6549963579752
 30
0.0
 10
100.2522804979068
 20
-123.610899135764
 30
0.0
 10
100.1971413326469
 20
-123.610899135764
 30
0.0
 10
100.1420374451638
 20
-123.610899135764
 30
0.0
 10
100.097234668529
 20
-123.6549963579752
 30
0.0
 10
100.097234668529
 20
-123.7108058024057
 30
0.0
 10
100.097234668529
 20
-123.7659096912809
 30
0.0
 10
100.1420374451638
 20
-123.8107124690473
 30
0.0
 10
100.1971413326469
 20
-123.8107124690473
 30
0.0
 10
100.2522804979068
 20
-123.8107124690473
 30
0.0
 10
100.2970479967647
 20
-123.7659096912809
 30
0.0
 10
100.2970479967647
 20
-123.7108058024057
 30
0.0
  0
SPLINE
  5
CB
330
1F
100
AcDbEntity
  8
_U+30EC_U+30A4_U+30E4_U+30FC 1
 62
   179
420
  2234388
370
     9
100
AcDbSpline
210
0.0
220
0.0
230
1.0
 70
    11
 71
     3
 72
    17
 73
    13
 74
     0
 42
0.0000000001
 43
0.0000000001
 12
1.0
 22
0.0
 32
0.0
 13
1.0
 23
0.0
 33
0.0
 40
0.0
 40
0.0
 40
0.0
 40
0.0
 40
1.0
 40
1.0
 40
1.0
 40
2.0
 40
2.0
 40
2.0
 40
3.0
 40
3.0
 40
3.0
 40
4.0
 40
4.0
 40
4.0
 40
4.0
 10
104.2971598391578
 20
-136.710349410267
 30
0.0
 10
104.2971598391578
 20
-136.6552102436139
 30
0.0
 10
104.2523923402999
 20
-136.6104427436254
 30
0.0
 10
104.1972531750399
 20
-136.6104427436254
 30
0.0
 10
104.1421492875569
 20
-136.6104427436254
 30
0.0
 10
104.0973465109221
 20
-136.6552102436139
 30
0.0
 10
104.0973465109221
 20
-136.710349410267
 30
0.0
 10
104.0973465109221
 20
-136.7654532991419
 30
0.0
 10
104.1421492875569
 20
-136.8102560769087
 30
0.0
 10
104.1972531750399
 20
-136.8102560769087
 30
0.0
 10
104.2523923402999
 20
-136.8102560769087
 30
0.0
 10
104.2971598391578
 20
-136.7654532991419
 30
0.0
 10
104.2971598391578
 20
-136.710349410267
 30
0.0
  0
SPLINE
  5
CC
330
1F
100
AcDbEntity
  8
_U+30EC_U+30A4_U+30E4_U+30FC 1
 62
   179
420
  2234388
370
     9
100
AcDbSpline
210
0.0
220
0.0
230
1.0
 70
    11
 71
     3
 72
    17
 73
    13
 74
     0
 42
0.0000000001
 43
0.0000000001
 12
1.0
 22
0.0
 32
0.0
 13
1.0
 23
0.0
 33
0.0
 40
0.0
 40
0.0
 40
0.0
 40
0.0
 40
1.0
 40
1.0
 40
1.0
 40
2.0
 40
2.0
 40
2.0
 40
3.0
 40
3.0
 40
3.0
 40
4.0
 40
4.0
 40
4.0
 40
4.0
 10
94.29707426094788
 20
-136.710349410267
 30
0.0
 10
94.29707426094788
 20
-136.6552102436139
 30
0.0
 10
94.25230676209
 20
-136.6104427436254
 30
0.0
 10
94.19716759683004
 20
-136.6104427436254
 30
0.0
 10
94.14206370934697
 20
-136.6104427436254
 30
0.0
 10
94.0972609327122
 20
-136.6552102436139
 30
0.0
 10
94.0972609327122
 20
-136.710349410267
 30
0.0
 10
94.0972609327122
 20
-136.7654532991419
 30
0.0
 10
94.14206370934697
 20
-136.8102560769087
 30
0.0
 10
94.19716759683004
 20
-136.8102560769087
 30
0.0
 10
94.25230676209
 20
-136.8102560769087
 30
0.0
 10
94.29707426094788
 20
-136.7654532991419
 30
0.0
 10
94.29707426094788
 20
-136.710349410267
 30
0.0
  0
SPLINE
  5
CD
330
1F
100
AcDbEntity
  8
_U+30EC_U+30A4_U+30E4_U+30FC 1
 62
   179
420
  2234388
370
     9
100
AcDbSpline
210
0.0
220
0.0
230
1.0
 70
    11
 71
     3
 72
    17
 73
    13
 74
     0
 42
0.0000000001
 43
0.0000000001
 12
1.0
 22
0.0
 32
0.0
 13
1.0
 23
0.0
 33
0.0
 40
0.0
 40
0.0
 40
0.0
 40
0.0
 40
1.0
 40
1.0
 40
1.0
 40
2.0
 40
2.0
 40
2.0
 40
3.0
 40
3.0
 40
3.0
 40
4.0
 40
4.0
 40
4.0
 40
4.0
 10
94.29707426094788
 20
-127.7105649680722
 30
0.0
 10
94.29707426094788
 20
-127.6554258014195
 30
0.0
 10
94.25230676209
 20
-127.6106583014306
 30
0.0
 10
94.19716759683004
 20
-127.6106583014306
 30
0.0
 10
94.14206370934697
 20
-127.6106583014306
 30
0.0
 10
94.0972609327122
 20
-127.6554258014195
 30
0.0
 10
94.0972609327122
 20
-127.7105649680722
 30
0.0
 10
94.0972609327122
 20
-127.7656688569475
 30
0.0
 10
94.14206370934697
 20
-127.8104716347142
 30
0.0
 10
94.19716759683004
 20
-127.8104716347142
 30
0.0
 10
94.25230676209
 20
-127.8104716347142
 30
0.0
 10
94.29707426094788
 20
-127.7656688569475
 30
0.0
 10
94.29707426094788
 20
-127.7105649680722
 30
0.0
  0
SPLINE
  5
CE
330
1F
100
AcDbEntity
  8
_U+30EC_U+30A4_U+30E4_U+30FC 1
 62
   179
420
  2234388
370
     9
100
AcDbSpline
210
0.0
220
0.0
230
1.0
 70
    11
 71
     3
 72
    17
 73
    13
 74
     0
 42
0.0000000001
 43
0.0000000001
 12
1.0
 22
0.0
 32
0.0
 13
1.0
 23
0.0
 33
0.0
 40
0.0
 40
0.0
 40
0.0
 40
0.0
 40
1.0
 40
1.0
 40
1.0
 40
2.0
 40
2.0
 40
2.0
 40
3.0
 40
3.0
 40
3.0
 40
4.0
 40
4.0
 40
4.0
 40
4.0
 10
90.29731519632357
 20
-123.7108058024057
 30
0.0
 10
90.29731519632357
 20
-123.6549963579752
 30
0.0
 10
90.25254997743681
 20
-123.610899135764
 30
0.0
 10
90.19709103221383
 20
-123.610899135764
 30
0.0
 10
90.14195186695389
 20
-123.610899135764
 30
0.0
 10
90.097184368096
 20
-123.6549963579752
 30
0.0
 10
90.097184368096
 20
-123.7108058024057
 30
0.0
 10
90.097184368096
 20
-123.7659096912809
 30
0.0
 10
90.14195186695389
 20
-123.8107124690473
 30
0.0
 10
90.19709103221383
 20
-123.8107124690473
 30
0.0
 10
90.25254997743681
 20
-123.8107124690473
 30
0.0
 10
90.29731519632357
 20
-123.7659096912809
 30
0.0
 10
90.29731519632357
 20
-123.7108058024057
 30
0.0
  0
SPLINE
  5
CF
330
1F
100
AcDbEntity
  8
_U+30EC_U+30A4_U+30E4_U+30FC 1
 62
   179
420
  2234388
370
     9
100
AcDbSpline
210
0.0
220
0.0
230
1.0
 70
    11
 71
     3
 72
    17
 73
    13
 74
     0
 42
0.0000000001
 43
0.0000000001
 12
1.0
 22
0.0
 32
0.0
 13
1.0
 23
0.0
 33
0.0
 40
0.0
 40
0.0
 40
0.0
 40
0.0
 40
1.0
 40
1.0
 40
1.0
 40
2.0
 40
2.0
 40
2.0
 40
3.0
 40
3.0
 40
3.0
 40
4.0
 40
4.0
 40
4.0
 40
4.0
 10
76.29715305349747
 20
-123.7108058024057
 30
0.0
 10
76.29715305349747
 20
-123.6549963579752
 30
0.0
 10
76.2523502768627
 20
-123.610899135764
 30
0.0
 10
76.19724638937963
 20
-123.610899135764
 30
0.0
 10
76.14210722411967
 20
-123.610899135764
 30
0.0
 10
76.09734164764228
 20
-123.6549963579752
 30
0.0
 10
76.09734164764228
 20
-123.7108058024057
 30
0.0
 10
76.09734164764228
 20
-123.7659096912809
 30
0.0
 10
76.14210722411967
 20
-123.8107124690473
 30
0.0
 10
76.19724638937963
 20
-123.8107124690473
 30
0.0
 10
76.2523502768627
 20
-123.8107124690473
 30
0.0
 10
76.29715305349747
 20
-123.7659096912809
 30
0.0
 10
76.29715305349747
 20
-123.7108058024057
 30
0.0
  0
SPLINE
  5
D0
330
1F
100
AcDbEntity
  8
_U+30EC_U+30A4_U+30E4_U+30FC 1
 62
   179
420
  2234388
370
     9
100
AcDbSpline
210
0.0
220
0.0
230
1.0
 70
    11
 71
     3
 72
    17
 73
    13
 74
     0
 42
0.0000000001
 43
0.0000000001
 12
1.0
 22
0.0
 32
0.0
 13
1.0
 23
0.0
 33
0.0
 40
0.0
 40
0.0
 40
0.0
 40
0.0
 40
1.0
 40
1.0
 40
1.0
 40
2.0
 40
2.0
 40
2.0
 40
3.0
 40
3.0
 40
3.0
 40
4.0
 40
4.0
 40
4.0
 40
4.0
 10
98.79707220169892
 20
-123.7108058024057
 30
0.0
 10
98.79707220169892
 20
-123.6549963579752
 30
0.0
 10
98.75226942506416
 20
-123.610899135764
 30
0.0
 10
98.69716553758109
 20
-123.610899135764
 30
0.0
 10
98.64202637232114
 20
-123.610899135764
 30
0.0
 10
98.59725887346325
 20
-123.6549963579752
 30
0.0
 10
98.59725887346325
 20
-123.7108058024057
 30
0.0
 10
98.59725887346325
 20
-123.7659096912809
 30
0.0
 10
98.64202637232114
 20
-123.8107124690473
 30
0.0
 10
98.69716553758109
 20
-123.8107124690473
 30
0.0
 10
98.75226942506416
 20
-123.8107124690473
 30
0.0
 10
98.79707220169892
 20
-123.7659096912809
 30
0.0
 10
98.79707220169892
 20
-123.7108058024057
 30
0.0
  0
POLYLINE
  5
D1
330
1F
100
AcDbEntity
  8
_U+30EC_U+30A4_U+30E4_U+30FC 1
 62
   179
420
  2234388
370
     9
100
AcDb2dPolyline
 66
     1
 10
0.0
 20
0.0
 30
0.0
  0
VERTEX
  5
D2
330
D1
100
AcDbEntity
  8
_U+30EC_U+30A4_U+30E4_U+30FC 1
 62
   179
420
  2234388
370
     9
100
AcDbVertex
100
AcDb2dVertex
 10
94.19716759683004
 20
-127.7105649680722
 30
0.0
  0
VERTEX
  5
D3
330
D1
100
AcDbEntity
  8
_U+30EC_U+30A4_U+30E4_U+30FC 1
 62
   179
420
  2234388
370
     9
100
AcDbVertex
100
AcDb2dVertex
 10
94.19716759683004
 20
-136.710349410267
 30
0.0
  0
SEQEND
  5
D4
330
D1
100
AcDbEntity
  8
_U+30EC_U+30A4_U+30E4_U+30FC 1
 62
   179
420
  2234388
370
     9
  0
POLYLINE
  5
D5
330
1F
100
AcDbEntity
  8
_U+30EC_U+30A4_U+30E4_U+30FC 1
 62
   179
420
  2234388
370
     9
100
AcDb2dPolyline
 66
     1
 10
0.0
 20
0.0
 30
0.0
  0
VERTEX
  5
D6
330
D5
100
AcDbEntity
  8
_U+30EC_U+30A4_U+30E4_U+30FC 1
 62
   179
420
  2234388
370
     9
100
AcDbVertex
100
AcDb2dVertex
 10
92.73716386570474
 20
-127.7105649680722
 30
0.0
  0
VERTEX
  5
D7
330
D5
100
AcDbEntity
  8
_U+30EC_U+30A4_U+30E4_U+30FC 1
 62
   179
420
  2234388
370
     9
100
AcDbVertex
100
AcDb2dVertex
 10
95.19729257131473
 20
-127.7105649680722
 30
0.0
  0
SEQEND
  5
D8
330
D5
100
AcDbEntity
  8
_U+30EC_U+30A4_U+30E4_U+30FC 1
 62
   179
420
  2234388
370
     9
  0
POLYLINE
  5
D9
330
1F
100
AcDbEntity
  8
_U+30EC_U+30A4_U+30E4_U+30FC 1
 62
   179
420
  2234388
370
     9
100
AcDb2dPolyline
 66
     1
 10
0.0
 20
0.0
 30
0.0
  0
VERTEX
  5
DA
330
D9
100
AcDbEntity
  8
_U+30EC_U+30A4_U+30E4_U+30FC 1
 62
   179
420
  2234388
370
     9
100
AcDbVertex
100
AcDb2dVertex
 10
92.73716386570474
 20
-136.710349410267
 30
0.0
  0
VERTEX
  5
DB
330
D9
100
AcDbEntity
  8
_U+30EC_U+30A4_U+30E4_U+30FC 1
 62
   179
420
  2234388
370
     9
100
AcDbVertex
100
AcDb2dVertex
 10
95.19729257131473
 20
-136.710349410267
 30
0.0
  0
SEQEND
  5
DC
330
D9
100
AcDbEntity
  8
_U+30EC_U+30A4_U+30E4_U+30FC 1
 62
   179
420
  2234388
370
     9
  0
INSERT
  5
DE
330
1F
100
AcDbEntity
  8
_U+30EC_U+30A4_U+30E4_U+30FC 1
100
AcDbBlockReference
  2
block 5
 10
0.0
 20
0.0
 30
0.0
  0
SPLINE
  5
F1
330
1F
100
AcDbEntity
  8
_U+30EC_U+30A4_U+30E4_U+30FC 1
 62
   179
420
  2234388
370
    25
100
AcDbSpline
210
0.0
220
0.0
230
1.0
 70
    11
 71
     3
 72
    17
 73
    13
 74
     0
 42
0.0000000001
 43
0.0000000001
 12
1.0
 22
0.0
 32
0.0
 13
1.0
 23
0.0
 33
0.0
 40
0.0
 40
0.0
 40
0.0
 40
0.0
 40
1.0
 40
1.0
 40
1.0
 40
2.0
 40
2.0
 40
2.0
 40
3.0
 40
3.0
 40
3.0
 40
4.0
 40
4.0
 40
4.0
 40
4.0
 10
90.232545197976
 20
-127.7105649680722
 30
0.0
 10
90.232545197976
 20
-127.7298266347342
 30
0.0
 10
90.21670547615787
 20
-127.7457016347303
 30
0.0
 10
90.19709103221383
 20
-127.7457016347303
 30
0.0
 10
90.17779408826169
 20
-127.7457016347303
 30
0.0
 10
90.16191908866669
 20
-127.7298266347342
 30
0.0
 10
90.16191908866669
 20
-127.7105649680722
 30
0.0
 10
90.16191908866669
 20
-127.6912680236327
 30
0.0
 10
90.17779408826169
 20
-127.6754283014145
 30
0.0
 10
90.19709103221383
 20
-127.6754283014145
 30
0.0
 10
90.21670547615787
 20
-127.6754283014145
 30
0.0
 10
90.232545197976
 20
-127.6912680236327
 30
0.0
 10
90.232545197976
 20
-127.7105649680722
 30
0.0
  0
SPLINE
  5
F2
330
1F
100
AcDbEntity
  8
_U+30EC_U+30A4_U+30E4_U+30FC 1
 62
   179
420
  2234388
370
    25
100
AcDbSpline
210
0.0
220
0.0
230
1.0
 70
    11
 71
     3
 72
    17
 73
    13
 74
     0
 42
0.0000000001
 43
0.0000000001
 12
1.0
 22
0.0
 32
0.0
 13
1.0
 23
0.0
 33
0.0
 40
0.0
 40
0.0
 40
0.0
 40
0.0
 40
1.0
 40
1.0
 40
1.0
 40
2.0
 40
2.0
 40
2.0
 40
3.0
 40
3.0
 40
3.0
 40
4.0
 40
4.0
 40
4.0
 40
4.0
 10
90.232545197976
 20
-136.710349410267
 30
0.0
 10
90.232545197976
 20
-136.7296463547062
 30
0.0
 10
90.21670547615787
 20
-136.7454860769247
 30
0.0
 10
90.19709103221383
 20
-136.7454860769247
 30
0.0
 10
90.17779408826169
 20
-136.7454860769247
 30
0.0
 10
90.16191908866669
 20
-136.7296463547062
 30
0.0
 10
90.16191908866669
 20
-136.710349410267
 30
0.0
 10
90.16191908866669
 20
-136.6910524658272
 30
0.0
 10
90.17779408826169
 20
-136.6752127436093
 30
0.0
 10
90.19709103221383
 20
-136.6752127436093
 30
0.0
 10
90.21670547615787
 20
-136.6752127436093
 30
0.0
 10
90.232545197976
 20
-136.6910524658272
 30
0.0
 10
90.232545197976
 20
-136.710349410267
 30
0.0
  0
SPLINE
  5
F3
330
1F
100
AcDbEntity
  8
_U+30EC_U+30A4_U+30E4_U+30FC 1
 62
   179
420
  2234388
370
     9
100
AcDbSpline
210
0.0
220
0.0
230
1.0
 70
    11
 71
     3
 72
    17
 73
    13
 74
     0
 42
0.0000000001
 43
0.0000000001
 12
1.0
 22
0.0
 32
0.0
 13
1.0
 23
0.0
 33
0.0
 40
0.0
 40
0.0
 40
0.0
 40
0.0
 40
1.0
 40
1.0
 40
1.0
 40
2.0
 40
2.0
 40
2.0
 40
3.0
 40
3.0
 40
3.0
 40
4.0
 40
4.0
 40
4.0
 40
4.0
 10
94.2323042626003
 20
-136.710349410267
 30
0.0
 10
94.2323042626003
 20
-136.7296463547062
 30
0.0
 10
94.21681731855097
 20
-136.7454860769247
 30
0.0
 10
94.19716759683004
 20
-136.7454860769247
 30
0.0
 10
94.1778706528779
 20
-136.7454860769247
 30
0.0
 10
94.16203330979256
 20
-136.7296463547062
 30
0.0
 10
94.16203330979256
 20
-136.710349410267
 30
0.0
 10
94.16203330979256
 20
-136.6910524658272
 30
0.0
 10
94.1778706528779
 20
-136.6752127436093
 30
0.0
 10
94.19716759683004
 20
-136.6752127436093
 30
0.0
 10
94.21681731855097
 20
-136.6752127436093
 30
0.0
 10
94.2323042626003
 20
-136.6910524658272
 30
0.0
 10
94.2323042626003
 20
-136.710349410267
 30
0.0
  0
POLYLINE
  5
F4
330
1F
100
AcDbEntity
  8
_U+30EC_U+30A4_U+30E4_U+30FC 1
 62
   179
420
  2234388
370
     9
100
AcDb2dPolyline
 66
     1
 10
0.0
 20
0.0
 30
0.0
  0
VERTEX
  5
F5
330
F4
100
AcDbEntity
  8
_U+30EC_U+30A4_U+30E4_U+30FC 1
 62
   179
420
  2234388
370
     9
100
AcDbVertex
100
AcDb2dVertex
 10
104.1972531750399
 20
-127.7105649680722
 30
0.0
  0
VERTEX
  5
F6
330
F4
100
AcDbEntity
  8
_U+30EC_U+30A4_U+30E4_U+30FC 1
 62
   179
420
  2234388
370
     9
100
AcDbVertex
100
AcDb2dVertex
 10
104.1972531750399
 20
-136.710349410267
 30
0.0
  0
SEQEND
  5
F7
330
F4
100
AcDbEntity
  8
_U+30EC_U+30A4_U+30E4_U+30FC 1
 62
   179
420
  2234388
370
     9
  0
POLYLINE
  5
F8
330
1F
100
AcDbEntity
  8
_U+30EC_U+30A4_U+30E4_U+30FC 1
 62
   179
420
  2234388
370
     9
100
AcDb2dPolyline
 66
     1
 10
0.0
 20
0.0
 30
0.0
  0
VERTEX
  5
F9
330
F8
100
AcDbEntity
  8
_U+30EC_U+30A4_U+30E4_U+30FC 1
 62
   179
420
  2234388
370
     9
100
AcDbVertex
100
AcDb2dVertex
 10
102.7372118233998
 20
-127.7105649680722
 30
0.0
  0
VERTEX
  5
FA
330
F8
100
AcDbEntity
  8
_U+30EC_U+30A4_U+30E4_U+30FC 1
 62
   179
420
  2234388
370
     9
100
AcDbVertex
100
AcDb2dVertex
 10
105.1973781495246
 20
-127.7105649680722
 30
0.0
  0
SEQEND
  5
FB
330
F8
100
AcDbEntity
  8
_U+30EC_U+30A4_U+30E4_U+30FC 1
 62
   179
420
  2234388
370
     9
  0
POLYLINE
  5
FC
330
1F
100
AcDbEntity
  8
_U+30EC_U+30A4_U+30E4_U+30FC 1
 62
   179
420
  2234388
370
     9
100
AcDb2dPolyline
 66
     1
 10
0.0
 20
0.0
 30
0.0
  0
VERTEX
  5
FD
330
FC
100
AcDbEntity
  8
_U+30EC_U+30A4_U+30E4_U+30FC 1
 62
   179
420
  2234388
370
     9
100
AcDbVertex
100
AcDb2dVertex
 10
102.7372118233998
 20
-136.710349410267
 30
0.0
  0
VERTEX
  5
FE
330
FC
100
AcDbEntity
  8
_U+30EC_U+30A4_U+30E4_U+30FC 1
 62
   179
420
  2234388
370
     9
100
AcDbVertex
100
AcDb2dVertex
 10
105.1973781495246
 20
-136.710349410267
 30
0.0
  0
SEQEND
  5
FF
330
FC
100
AcDbEntity
  8
_U+30EC_U+30A4_U+30E4_U+30FC 1
 62
   179
420
  2234388
370
     9
  0
INSERT
  5
101
330
1F
100
AcDbEntity
  8
_U+30EC_U+30A4_U+30E4_U+30FC 1
100
AcDbBlockReference
  2
block 6
 10
0.0
 20
0.0
 30
0.0
  0
SPLINE
  5
114
330
1F
100
AcDbEntity
  8
_U+30EC_U+30A4_U+30E4_U+30FC 1
 62
   179
420
  2234388
370
    25
100
AcDbSpline
210
0.0
220
0.0
230
1.0
 70
    11
 71
     3
 72
    17
 73
    13
 74
     0
 42
0.0000000001
 43
0.0000000001
 12
1.0
 22
0.0
 32
0.0
 13
1.0
 23
0.0
 33
0.0
 40
0.0
 40
0.0
 40
0.0
 40
0.0
 40
1.0
 40
1.0
 40
1.0
 40
2.0
 40
2.0
 40
2.0
 40
3.0
 40
3.0
 40
3.0
 40
4.0
 40
4.0
 40
4.0
 40
4.0
 10
100.2326333082751
 20
-127.7105649680722
 30
0.0
 10
100.2326333082751
 20
-127.7298266347342
 30
0.0
 10
100.2167910543678
 20
-127.7457016347303
 30
0.0
 10
100.1971413326469
 20
-127.7457016347303
 30
0.0
 10
100.1778796664716
 20
-127.7457016347303
 30
0.0
 10
100.1620046668766
 20
-127.7298266347342
 30
0.0
 10
100.1620046668766
 20
-127.7105649680722
 30
0.0
 10
100.1620046668766
 20
-127.6912680236327
 30
0.0
 10
100.1778796664716
 20
-127.6754283014145
 30
0.0
 10
100.1971413326469
 20
-127.6754283014145
 30
0.0
 10
100.2167910543678
 20
-127.6754283014145
 30
0.0
 10
100.2326333082751
 20
-127.6912680236327
 30
0.0
 10
100.2326333082751
 20
-127.7105649680722
 30
0.0
  0
SPLINE
  5
115
330
1F
100
AcDbEntity
  8
_U+30EC_U+30A4_U+30E4_U+30FC 1
 62
   179
420
  2234388
370
    25
100
AcDbSpline
210
0.0
220
0.0
230
1.0
 70
    11
 71
     3
 72
    17
 73
    13
 74
     0
 42
0.0000000001
 43
0.0000000001
 12
1.0
 22
0.0
 32
0.0
 13
1.0
 23
0.0
 33
0.0
 40
0.0
 40
0.0
 40
0.0
 40
0.0
 40
1.0
 40
1.0
 40
1.0
 40
2.0
 40
2.0
 40
2.0
 40
3.0
 40
3.0
 40
3.0
 40
4.0
 40
4.0
 40
4.0
 40
4.0
 10
100.2326333082751
 20
-136.710349410267
 30
0.0
 10
100.2326333082751
 20
-136.7296463547062
 30
0.0
 10
100.2167910543678
 20
-136.7454860769247
 30
0.0
 10
100.1971413326469
 20
-136.7454860769247
 30
0.0
 10
100.1778796664716
 20
-136.7454860769247
 30
0.0
 10
100.1620046668766
 20
-136.7296463547062
 30
0.0
 10
100.1620046668766
 20
-136.710349410267
 30
0.0
 10
100.1620046668766
 20
-136.6910524658272
 30
0.0
 10
100.1778796664716
 20
-136.6752127436093
 30
0.0
 10
100.1971413326469
 20
-136.6752127436093
 30
0.0
 10
100.2167910543678
 20
-136.6752127436093
 30
0.0
 10
100.2326333082751
 20
-136.6910524658272
 30
0.0
 10
100.2326333082751
 20
-136.710349410267
 30
0.0
  0
SPLINE
  5
116
330
1F
100
AcDbEntity
  8
_U+30EC_U+30A4_U+30E4_U+30FC 1
 62
   179
420
  2234388
370
     9
100
AcDbSpline
210
0.0
220
0.0
230
1.0
 70
    11
 71
     3
 72
    17
 73
    13
 74
     0
 42
0.0000000001
 43
0.0000000001
 12
1.0
 22
0.0
 32
0.0
 13
1.0
 23
0.0
 33
0.0
 40
0.0
 40
0.0
 40
0.0
 40
0.0
 40
1.0
 40
1.0
 40
1.0
 40
2.0
 40
2.0
 40
2.0
 40
3.0
 40
3.0
 40
3.0
 40
4.0
 40
4.0
 40
4.0
 40
4.0
 10
104.2323898408102
 20
-136.710349410267
 30
0.0
 10
104.2323898408102
 20
-136.7296463547062
 30
0.0
 10
104.2165527517235
 20
-136.7454860769247
 30
0.0
 10
104.1972531750399
 20
-136.7454860769247
 30
0.0
 10
104.177603453319
 20
-136.7454860769247
 30
0.0
 10
104.1617637315009
 20
-136.7296463547062
 30
0.0
 10
104.1617637315009
 20
-136.710349410267
 30
0.0
 10
104.1617637315009
 20
-136.6910524658272
 30
0.0
 10
104.177603453319
 20
-136.6752127436093
 30
0.0
 10
104.1972531750399
 20
-136.6752127436093
 30
0.0
 10
104.2165527517235
 20
-136.6752127436093
 30
0.0
 10
104.2323898408102
 20
-136.6910524658272
 30
0.0
 10
104.2323898408102
 20
-136.710349410267
 30
0.0
  0
POLYLINE
  5
117
330
1F
100
AcDbEntity
  8
_U+30EC_U+30A4_U+30E4_U+30FC 1
 62
   179
420
  2234388
370
     9
100
AcDb2dPolyline
 66
     1
 10
0.0
 20
0.0
 30
0.0
  0
VERTEX
  5
118
330
117
100
AcDbEntity
  8
_U+30EC_U+30A4_U+30E4_U+30FC 1
 62
   179
420
  2234388
370
     9
100
AcDbVertex
100
AcDb2dVertex
 10
76.19724638937963
 20
-123.7108058024057
 30
0.0
  0
VERTEX
  5
119
330
117
100
AcDbEntity
  8
_U+30EC_U+30A4_U+30E4_U+30FC 1
 62
   179
420
  2234388
370
     9
100
AcDbVertex
100
AcDb2dVertex
 10
90.19709103221383
 20
-123.7108058024057
 30
0.0
  0
SEQEND
  5
11A
330
117
100
AcDbEntity
  8
_U+30EC_U+30A4_U+30E4_U+30FC 1
 62
   179
420
  2234388
370
     9
  0
POLYLINE
  5
11B
330
1F
100
AcDbEntity
  8
_U+30EC_U+30A4_U+30E4_U+30FC 1
 62
   179
420
  2234388
370
     9
100
AcDb2dPolyline
 66
     1
 10
0.0
 20
0.0
 30
0.0
  0
VERTEX
  5
11C
330
11B
100
AcDbEntity
  8
_U+30EC_U+30A4_U+30E4_U+30FC 1
 62
   179
420
  2234388
370
     9
100
AcDbVertex
100
AcDb2dVertex
 10
76.19724638937963
 20
-125.1708119131519
 30
0.0
  0
VERTEX
  5
11D
330
11B
100
AcDbEntity
  8
_U+30EC_U+30A4_U+30E4_U+30FC 1
 62
   179
420
  2234388
370
     9
100
AcDbVertex
100
AcDb2dVertex
 10
76.19724638937963
 20
-122.7103280248779
 30
0.0
  0
SEQEND
  5
11E
330
11B
100
AcDbEntity
  8
_U+30EC_U+30A4_U+30E4_U+30FC 1
 62
   179
420
  2234388
370
     9
  0
POLYLINE
  5
11F
330
1F
100
AcDbEntity
  8
_U+30EC_U+30A4_U+30E4_U+30FC 1
 62
   179
420
  2234388
370
     9
100
AcDb2dPolyline
 66
     1
 10
0.0
 20
0.0
 30
0.0
  0
VERTEX
  5
120
330
11F
100
AcDbEntity
  8
_U+30EC_U+30A4_U+30E4_U+30FC 1
 62
   179
420
  2234388
370
     9
100
AcDbVertex
100
AcDb2dVertex
 10
90.19709103221383
 20
-125.1708119131519
 30
0.0
  0
VERTEX
  5
121
330
11F
100
AcDbEntity
  8
_U+30EC_U+30A4_U+30E4_U+30FC 1
 62
   179
420
  2234388
370
     9
100
AcDbVertex
100
AcDb2dVertex
 10
90.19709103221383
 20
-122.7103280248779
 30
0.0
  0
SEQEND
  5
122
330
11F
100
AcDbEntity
  8
_U+30EC_U+30A4_U+30E4_U+30FC 1
 62
   179
420
  2234388
370
     9
  0
INSERT
  5
124
330
1F
100
AcDbEntity
  8
_U+30EC_U+30A4_U+30E4_U+30FC 1
100
AcDbBlockReference
  2
block 7
 10
0.0
 20
0.0
 30
0.0
  0
SPLINE
  5
138
330
1F
100
AcDbEntity
  8
_U+30EC_U+30A4_U+30E4_U+30FC 1
 62
   179
420
  2234388
370
    25
100
AcDbSpline
210
0.0
220
0.0
230
1.0
 70
    11
 71
     3
 72
    17
 73
    13
 74
     0
 42
0.0000000001
 43
0.0000000001
 12
1.0
 22
0.0
 32
0.0
 13
1.0
 23
0.0
 33
0.0
 40
0.0
 40
0.0
 40
0.0
 40
0.0
 40
1.0
 40
1.0
 40
1.0
 40
2.0
 40
2.0
 40
2.0
 40
3.0
 40
3.0
 40
3.0
 40
4.0
 40
4.0
 40
4.0
 40
4.0
 10
76.23238305514988
 20
-127.7105649680722
 30
0.0
 10
76.23238305514988
 20
-127.7298266347342
 30
0.0
 10
76.21654333333177
 20
-127.7457016347303
 30
0.0
 10
76.19724638937963
 20
-127.7457016347303
 30
0.0
 10
76.1775966676587
 20
-127.7457016347303
 30
0.0
 10
76.16210972360938
 20
-127.7298266347342
 30
0.0
 10
76.16210972360938
 20
-127.7105649680722
 30
0.0
 10
76.16210972360938
 20
-127.6912680236327
 30
0.0
 10
76.1775966676587
 20
-127.6754283014145
 30
0.0
 10
76.19724638937963
 20
-127.6754283014145
 30
0.0
 10
76.21654333333177
 20
-127.6754283014145
 30
0.0
 10
76.23238305514988
 20
-127.6912680236327
 30
0.0
 10
76.23238305514988
 20
-127.7105649680722
 30
0.0
  0
SPLINE
  5
139
330
1F
100
AcDbEntity
  8
_U+30EC_U+30A4_U+30E4_U+30FC 1
 62
   179
420
  2234388
370
    25
100
AcDbSpline
210
0.0
220
0.0
230
1.0
 70
    11
 71
     3
 72
    17
 73
    13
 74
     0
 42
0.0000000001
 43
0.0000000001
 12
1.0
 22
0.0
 32
0.0
 13
1.0
 23
0.0
 33
0.0
 40
0.0
 40
0.0
 40
0.0
 40
0.0
 40
1.0
 40
1.0
 40
1.0
 40
2.0
 40
2.0
 40
2.0
 40
3.0
 40
3.0
 40
3.0
 40
4.0
 40
4.0
 40
4.0
 40
4.0
 10
90.232545197976
 20
-127.7105649680722
 30
0.0
 10
90.232545197976
 20
-127.7298266347342
 30
0.0
 10
90.21670547615787
 20
-127.7457016347303
 30
0.0
 10
90.19709103221383
 20
-127.7457016347303
 30
0.0
 10
90.17779408826169
 20
-127.7457016347303
 30
0.0
 10
90.16191908866669
 20
-127.7298266347342
 30
0.0
 10
90.16191908866669
 20
-127.7105649680722
 30
0.0
 10
90.16191908866669
 20
-127.6912680236327
 30
0.0
 10
90.17779408826169
 20
-127.6754283014145
 30
0.0
 10
90.19709103221383
 20
-127.6754283014145
 30
0.0
 10
90.21670547615787
 20
-127.6754283014145
 30
0.0
 10
90.232545197976
 20
-127.6912680236327
 30
0.0
 10
90.232545197976
 20
-127.7105649680722
 30
0.0
  0
SPLINE
  5
13A
330
1F
100
AcDbEntity
  8
_U+30EC_U+30A4_U+30E4_U+30FC 1
 62
   179
420
  2234388
370
     9
100
AcDbSpline
210
0.0
220
0.0
230
1.0
 70
    11
 71
     3
 72
    17
 73
    13
 74
     0
 42
0.0000000001
 43
0.0000000001
 12
1.0
 22
0.0
 32
0.0
 13
1.0
 23
0.0
 33
0.0
 40
0.0
 40
0.0
 40
0.0
 40
0.0
 40
1.0
 40
1.0
 40
1.0
 40
2.0
 40
2.0
 40
2.0
 40
3.0
 40
3.0
 40
3.0
 40
4.0
 40
4.0
 40
4.0
 40
4.0
 10
90.232545197976
 20
-123.7108058024057
 30
0.0
 10
90.232545197976
 20
-123.7301027468452
 30
0.0
 10
90.21670547615787
 20
-123.7459424690634
 30
0.0
 10
90.19709103221383
 20
-123.7459424690634
 30
0.0
 10
90.17779408826169
 20
-123.7459424690634
 30
0.0
 10
90.16191908866669
 20
-123.7301027468452
 30
0.0
 10
90.16191908866669
 20
-123.7108058024057
 30
0.0
 10
90.16191908866669
 20
-123.6908033024106
 30
0.0
 10
90.17779408826169
 20
-123.6749635801924
 30
0.0
 10
90.19709103221383
 20
-123.6749635801924
 30
0.0
 10
90.21670547615787
 20
-123.6749635801924
 30
0.0
 10
90.232545197976
 20
-123.6908033024106
 30
0.0
 10
90.232545197976
 20
-123.7108058024057
 30
0.0
  0
POLYLINE
  5
13B
330
1F
100
AcDbEntity
  8
_U+30EC_U+30A4_U+30E4_U+30FC 1
 62
   179
420
  2234388
370
     9
100
AcDb2dPolyline
 66
     1
 10
0.0
 20
0.0
 30
0.0
  0
VERTEX
  5
13C
330
13B
100
AcDbEntity
  8
_U+30EC_U+30A4_U+30E4_U+30FC 1
 62
   179
420
  2234388
370
     9
100
AcDbVertex
100
AcDb2dVertex
 10
97.69704056309641
 20
-123.7108058024057
 30
0.0
  0
VERTEX
  5
13D
330
13B
100
AcDbEntity
  8
_U+30EC_U+30A4_U+30E4_U+30FC 1
 62
   179
420
  2234388
370
     9
100
AcDbVertex
100
AcDb2dVertex
 10
101.1972663071315
 20
-123.7108058024057
 30
0.0
  0
SEQEND
  5
13E
330
13B
100
AcDbEntity
  8
_U+30EC_U+30A4_U+30E4_U+30FC 1
 62
   179
420
  2234388
370
     9
  0
POLYLINE
  5
13F
330
1F
100
AcDbEntity
  8
_U+30EC_U+30A4_U+30E4_U+30FC 1
 62
   179
420
  2234388
370
     9
100
AcDb2dPolyline
 66
     1
 10
0.0
 20
0.0
 30
0.0
  0
VERTEX
  5
140
330
13F
100
AcDbEntity
  8
_U+30EC_U+30A4_U+30E4_U+30FC 1
 62
   179
420
  2234388
370
     9
100
AcDbVertex
100
AcDb2dVertex
 10
98.69716553758109
 20
-125.1708119131519
 30
0.0
  0
VERTEX
  5
141
330
13F
100
AcDbEntity
  8
_U+30EC_U+30A4_U+30E4_U+30FC 1
 62
   179
420
  2234388
370
     9
100
AcDbVertex
100
AcDb2dVertex
 10
98.69716553758109
 20
-122.7103280248779
 30
0.0
  0
SEQEND
  5
142
330
13F
100
AcDbEntity
  8
_U+30EC_U+30A4_U+30E4_U+30FC 1
 62
   179
420
  2234388
370
     9
  0
POLYLINE
  5
143
330
1F
100
AcDbEntity
  8
_U+30EC_U+30A4_U+30E4_U+30FC 1
 62
   179
420
  2234388
370
     9
100
AcDb2dPolyline
 66
     1
 10
0.0
 20
0.0
 30
0.0
  0
VERTEX
  5
144
330
143
100
AcDbEntity
  8
_U+30EC_U+30A4_U+30E4_U+30FC 1
 62
   179
420
  2234388
370
     9
100
AcDbVertex
100
AcDb2dVertex
 10
100.1971413326469
 20
-125.1708119131519
 30
0.0
  0
VERTEX
  5
145
330
143
100
AcDbEntity
  8
_U+30EC_U+30A4_U+30E4_U+30FC 1
 62
   179
420
  2234388
370
     9
100
AcDbVertex
100
AcDb2dVertex
 10
100.1971413326469
 20
-122.7103280248779
 30
0.0
  0
SEQEND
  5
146
330
143
100
AcDbEntity
  8
_U+30EC_U+30A4_U+30E4_U+30FC 1
 62
   179
420
  2234388
370
     9
  0
INSERT
  5
148
330
1F
100
AcDbEntity
  8
_U+30EC_U+30A4_U+30E4_U+30FC 1
100
AcDbBlockReference
  2
block 8
 10
0.0
 20
0.0
 30
0.0
  0
SPLINE
  5
157
330
1F
100
AcDbEntity
  8
_U+30EC_U+30A4_U+30E4_U+30FC 1
 62
   179
420
  2234388
370
    25
100
AcDbSpline
210
0.0
220
0.0
230
1.0
 70
    11
 71
     3
 72
    17
 73
    13
 74
     0
 42
0.0000000001
 43
0.0000000001
 12
1.0
 22
0.0
 32
0.0
 13
1.0
 23
0.0
 33
0.0
 40
0.0
 40
0.0
 40
0.0
 40
0.0
 40
1.0
 40
1.0
 40
1.0
 40
2.0
 40
2.0
 40
2.0
 40
3.0
 40
3.0
 40
3.0
 40
4.0
 40
4.0
 40
4.0
 40
4.0
 10
98.73265498112012
 20
-127.7105649680722
 30
0.0
 10
98.73265498112012
 20
-127.7298266347342
 30
0.0
 10
98.71677998152512
 20
-127.7457016347303
 30
0.0
 10
98.69716553758109
 20
-127.7457016347303
 30
0.0
 10
98.67786859362894
 20
-127.7457016347303
 30
0.0
 10
98.66202887181083
 20
-127.7298266347342
 30
0.0
 10
98.66202887181083
 20
-127.7105649680722
 30
0.0
 10
98.66202887181083
 20
-127.6912680236327
 30
0.0
 10
98.67786859362894
 20
-127.6754283014145
 30
0.0
 10
98.69716553758109
 20
-127.6754283014145
 30
0.0
 10
98.71677998152512
 20
-127.6754283014145
 30
0.0
 10
98.73265498112012
 20
-127.6912680236327
 30
0.0
 10
98.73265498112012
 20
-127.7105649680722
 30
0.0
  0
SPLINE
  5
158
330
1F
100
AcDbEntity
  8
_U+30EC_U+30A4_U+30E4_U+30FC 1
 62
   179
420
  2234388
370
    25
100
AcDbSpline
210
0.0
220
0.0
230
1.0
 70
    11
 71
     3
 72
    17
 73
    13
 74
     0
 42
0.0000000001
 43
0.0000000001
 12
1.0
 22
0.0
 32
0.0
 13
1.0
 23
0.0
 33
0.0
 40
0.0
 40
0.0
 40
0.0
 40
0.0
 40
1.0
 40
1.0
 40
1.0
 40
2.0
 40
2.0
 40
2.0
 40
3.0
 40
3.0
 40
3.0
 40
4.0
 40
4.0
 40
4.0
 40
4.0
 10
100.2326333082751
 20
-127.7105649680722
 30
0.0
 10
100.2326333082751
 20
-127.7298266347342
 30
0.0
 10
100.2167910543678
 20
-127.7457016347303
 30
0.0
 10
100.1971413326469
 20
-127.7457016347303
 30
0.0
 10
100.1778796664716
 20
-127.7457016347303
 30
0.0
 10
100.1620046668766
 20
-127.7298266347342
 30
0.0
 10
100.1620046668766
 20
-127.7105649680722
 30
0.0
 10
100.1620046668766
 20
-127.6912680236327
 30
0.0
 10
100.1778796664716
 20
-127.6754283014145
 30
0.0
 10
100.1971413326469
 20
-127.6754283014145
 30
0.0
 10
100.2167910543678
 20
-127.6754283014145
 30
0.0
 10
100.2326333082751
 20
-127.6912680236327
 30
0.0
 10
100.2326333082751
 20
-127.7105649680722
 30
0.0
  0
SPLINE
  5
159
330
1F
100
AcDbEntity
  8
_U+30EC_U+30A4_U+30E4_U+30FC 1
 62
   179
420
  2234388
370
     9
100
AcDbSpline
210
0.0
220
0.0
230
1.0
 70
    11
 71
     3
 72
    17
 73
    13
 74
     0
 42
0.0000000001
 43
0.0000000001
 12
1.0
 22
0.0
 32
0.0
 13
1.0
 23
0.0
 33
0.0
 40
0.0
 40
0.0
 40
0.0
 40
0.0
 40
1.0
 40
1.0
 40
1.0
 40
2.0
 40
2.0
 40
2.0
 40
3.0
 40
3.0
 40
3.0
 40
4.0
 40
4.0
 40
4.0
 40
4.0
 10
101.2324055302476
 20
-123.7108058024057
 30
0.0
 10
101.2324055302476
 20
-123.7301027468452
 30
0.0
 10
101.2165632510837
 20
-123.7459424690634
 30
0.0
 10
101.1972663071315
 20
-123.7459424690634
 30
0.0
 10
101.1776165854106
 20
-123.7459424690634
 30
0.0
 10
101.1617768635925
 20
-123.7301027468452
 30
0.0
 10
101.1617768635925
 20
-123.7108058024057
 30
0.0
 10
101.1617768635925
 20
-123.6908033024106
 30
0.0
 10
101.1776165854106
 20
-123.6749635801924
 30
0.0
 10
101.1972663071315
 20
-123.6749635801924
 30
0.0
 10
101.2165632510837
 20
-123.6749635801924
 30
0.0
 10
101.2324055302476
 20
-123.6908033024106
 30
0.0
 10
101.2324055302476
 20
-123.7108058024057
 30
0.0
  0
ENDSEC
  0
SECTION
  2
OBJECTS
  0
DICTIONARY
  5
C
330
0
100
AcDbDictionary
281
     1
  3
ACAD_GROUP
350
D
  3
ACAD_LAYOUT
350
1A
  3
ACAD_MATERIAL
350
3B
  3
ACAD_MLEADERSTYLE
350
15B
  3
ACAD_MLINESTYLE
350
17
  3
ACAD_PLOTSETTINGS
350
19
  3
ACAD_PLOTSTYLENAME
350
E
  3
ACAD_TABLESTYLE
350
15A
  3
ACAD_VISUALSTYLE
350
2A
  0
SUN
  5
3F
330
29
100
AcDbSun
 90
        1
290
     0
 63
     7
421
 16777215
 40
1.0
291
     1
 91
  2455826
 92
 54000000
292
     0
 70
     2
 71
   256
280
     1
  0
DICTIONARY
  5
D
102
{ACAD_REACTORS
330
C
102
}
330
C
100
AcDbDictionary
281
     1
  0
DICTIONARY
  5
1A
102
{ACAD_REACTORS
330
C
102
}
330
C
100
AcDbDictionary
281
     1
  3
Layout1
350
1E
  3
Layout2
350
26
  3
Model
350
22
  0
DICTIONARY
  5
3B
102
{ACAD_REACTORS
330
C
102
}
330
C
100
AcDbDictionary
281
     1
  3
ByBlock
350
3D
  3
ByLayer
350
3C
  3
Global
350
3E
  0
DICTIONARY
  5
15B
102
{ACAD_REACTORS
330
C
102
}
330
C
100
AcDbDictionary
281
     1
  0
DICTIONARY
  5
17
102
{ACAD_REACTORS
330
C
102
}
330
C
100
AcDbDictionary
281
     1
  3
Standard
350
18
  0
DICTIONARY
  5
19
102
{ACAD_REACTORS
330
C
102
}
330
C
100
AcDbDictionary
281
     1
  0
ACDBDICTIONARYWDFLT
  5
E
102
{ACAD_REACTORS
330
C
102
}
330
C
100
AcDbDictionary
281
     1
  3
Normal
350
F
100
AcDbDictionaryWithDefault
340
F
  0
DICTIONARY
  5
15A
102
{ACAD_REACTORS
330
C
102
}
330
C
100
AcDbDictionary
281
     1
  0
DICTIONARY
  5
2A
102
{ACAD_REACTORS
330
C
102
}
330
C
100
AcDbDictionary
281
     1
  3
2dWireframe
350
2F
  3
3D Hidden
350
31
  3
3dWireframe
350
30
  3
Basic
350
32
  3
Brighten
350
36
  3
ColorChange
350
3A
  3
Conceptual
350
34
  3
Dim
350
35
  3
Facepattern
350
39
  3
Flat
350
2B
  3
FlatWithEdges
350
2C
  3
Gouraud
350
2D
  3
GouraudWithEdges
350
2E
  3
Linepattern
350
38
  3
Realistic
350
33
  3
Thicken
350
37
  0
LAYOUT
  5
1E
102
{ACAD_REACTORS
330
1A
102
}
330
1A
100
AcDbPlotSettings
  1

  2
none_device
  4

  6

 40
0.0
 41
0.0
 42
0.0
 43
0.0
 44
0.0
 45
0.0
 46
0.0
 47
0.0
 48
0.0
 49
0.0
140
0.0
141
0.0
142
1.0
143
1.0
 70
   688
 72
     0
 73
     0
 74
     5
  7

 75
    16
 76
     0
 77
     2
 78
   300
147
1.0
148
0.0
149
0.0
100
AcDbLayout
  1
Layout1
 70
     1
 71
     1
 10
0.0
 20
0.0
 11
12.0
 21
9.0
 12
0.0
 22
0.0
 32
0.0
 14
1.000000000000000E+20
 24
1.000000000000000E+20
 34
1.000000000000000E+20
 15
-1.000000000000000E+20
 25
-1.000000000000000E+20
 35
-1.000000000000000E+20
146
0.0
 13
0.0
 23
0.0
 33
0.0
 16
1.0
 26
0.0
 36
0.0
 17
0.0
 27
1.0
 37
0.0
 76
     0
330
1B
  0
LAYOUT
  5
26
102
{ACAD_REACTORS
330
1A
102
}
330
1A
100
AcDbPlotSettings
  1

  2
none_device
  4

  6

 40
0.0
 41
0.0
 42
0.0
 43
0.0
 44
0.0
 45
0.0
 46
0.0
 47
0.0
 48
0.0
 49
0.0
140
0.0
141
0.0
142
1.0
143
1.0
 70
   688
 72
     0
 73
     0
 74
     5
  7

 75
    16
 76
     0
 77
     2
 78
   300
147
1.0
148
0.0
149
0.0
100
AcDbLayout
  1
Layout2
 70
     1
 71
     2
 10
0.0
 20
0.0
 11
0.0
 21
0.0
 12
0.0
 22
0.0
 32
0.0
 14
0.0
 24
0.0
 34
0.0
 15
0.0
 25
0.0
 35
0.0
146
0.0
 13
0.0
 23
0.0
 33
0.0
 16
1.0
 26
0.0
 36
0.0
 17
0.0
 27
1.0
 37
0.0
 76
     0
330
23
  0
LAYOUT
  5
22
102
{ACAD_REACTORS
330
1A
102
}
330
1A
100
AcDbPlotSettings
  1

  2
none_device
  4

  6

 40
0.0
 41
0.0
 42
0.0
 43
0.0
 44
0.0
 45
0.0
 46
0.0
 47
0.0
 48
0.0
 49
0.0
140
0.0
141
0.0
142
1.0
143
1.0
 70
  1712
 72
     0
 73
     0
 74
     0
  7

 75
     0
 76
     0
 77
     2
 78
   300
147
1.0
148
0.0
149
0.0
100
AcDbLayout
  1
Model
 70
     1
 71
     0
 10
0.0
 20
0.0
 11
12.0
 21
9.0
 12
0.0
 22
0.0
 32
0.0
 14
1.000000000000000E+20
 24
1.000000000000000E+20
 34
1.000000000000000E+20
 15
-1.000000000000000E+20
 25
-1.000000000000000E+20
 35
-1.000000000000000E+20
146
0.0
 13
0.0
 23
0.0
 33
0.0
 16
1.0
 26
0.0
 36
0.0
 17
0.0
 27
1.0
 37
0.0
 76
     0
330
1F
331
29
  0
MATERIAL
  5
3D
102
{ACAD_REACTORS
330
3B
102
}
330
3B
100
AcDbMaterial
  1
ByBlock
 72
     1
 94
      127
  0
MATERIAL
  5
3C
102
{ACAD_REACTORS
330
3B
102
}
330
3B
100
AcDbMaterial
  1
ByLayer
 72
     1
 94
      127
  0
MATERIAL
  5
3E
102
{ACAD_REACTORS
330
3B
102
}
330
3B
100
AcDbMaterial
  1
Global
 72
     1
 94
      127
  0
MLINESTYLE
  5
18
102
{ACAD_REACTORS
330
17
102
}
330
17
100
AcDbMlineStyle
  2
Standard
 70
     0
  3

 62
   256
 51
90.0
 52
90.0
 71
     2
 49
0.5
 62
   256
  6
BYLAYER
 49
-0.5
 62
   256
  6
BYLAYER
  0
ACDBPLACEHOLDER
  5
F
102
{ACAD_REACTORS
330
E
102
}
330
E
  0
VISUALSTYLE
  5
2F
102
{ACAD_REACTORS
330
2A
102
}
330
2A
100
AcDbVisualStyle
  2
2dWireframe
 70
     4
177
     2
291
     0
 71
     0
176
     1
 72
     2
176
     1
 73
     0
176
     1
 90
        0
176
     1
 40
-0.6
176
     1
 41
-30.0
176
     1
 62
     5
 63
     7
421
 16777215
176
     1
 74
     1
176
     1
 91
        4
176
     1
 64
     7
176
     1
 65
   257
176
     1
 75
     1
176
     1
175
     1
176
     1
 42
1.0
176
     1
 92
        0
176
     1
 66
   257
176
     1
 43
1.0
176
     1
 76
     1
176
     1
 77
     6
176
     1
 78
     2
176
     1
 67
     7
176
     1
 79
     5
176
     1
170
     0
176
     1
171
     0
176
     1
290
     0
176
     1
 93
        1
176
     1
 44
0.0
176
     1
173
     0
176
     1
  0
VISUALSTYLE
  5
31
102
{ACAD_REACTORS
330
2A
102
}
330
2A
100
AcDbVisualStyle
  2
3D Hidden
 70
     6
177
     2
291
     0
 71
     1
176
     1
 72
     2
176
     1
 73
     2
176
     1
 90
        0
176
     1
 40
-0.6
176
     1
 41
-30.0
176
     1
 62
     5
 63
     7
421
 16777215
176
     1
 74
     2
176
     1
 91
        2
176
     1
 64
     7
176
     1
 65
   257
176
     1
 75
     2
176
     1
175
     1
176
     1
 42
40.0
176
     1
 92
        0
176
     1
 66
   257
176
     1
 43
1.0
176
     1
 76
     1
176
     1
 77
     6
176
     1
 78
     2
176
     1
 67
     7
176
     1
 79
     3
176
     1
170
     0
176
     1
171
     0
176
     1
290
     0
176
     1
 93
        1
176
     1
 44
0.0
176
     1
173
     0
176
     1
  0
VISUALSTYLE
  5
30
102
{ACAD_REACTORS
330
2A
102
}
330
2A
100
AcDbVisualStyle
  2
3dWireframe
 70
     5
177
     2
291
     0
 71
     0
176
     1
 72
     2
176
     1
 73
     0
176
     1
 90
        0
176
     1
 40
-0.6
176
     1
 41
-30.0
176
     1
 62
     5
 63
     7
421
 16777215
176
     1
 74
     1
176
     1
 91
        4
176
     1
 64
     7
176
     1
 65
   257
176
     1
 75
     1
176
     1
175
     1
176
     1
 42
1.0
176
     1
 92
        0
176
     1
 66
   257
176
     1
 43
1.0
176
     1
 76
     1
176
     1
 77
     6
176
     1
 78
     2
176
     1
 67
     7
176
     1
 79
     5
176
     1
170
     0
176
     1
171
     0
176
     1
290
     0
176
     1
 93
        1
176
     1
 44
0.0
176
     1
173
     0
176
     1
  0
VISUALSTYLE
  5
32
102
{ACAD_REACTORS
330
2A
102
}
330
2A
100
AcDbVisualStyle
  2
Basic
 70
     7
177
     2
291
     1
 71
     1
176
     1
 72
     0
176
     1
 73
     1
176
     1
 90
        0
176
     1
 40
-0.6
176
     1
 41
-30.0
176
     1
 62
     5
 63
     7
421
 16777215
176
     1
 74
     0
176
     1
 91
        4
176
     1
 64
     7
176
     1
 65
   257
176
     1
 75
     1
176
     1
175
     1
176
     1
 42
1.0
176
     1
 92
        8
176
     1
 66
     7
176
     1
 43
1.0
176
     1
 76
     1
176
     1
 77
     6
176
     1
 78
     2
176
     1
 67
     7
176
     1
 79
     5
176
     1
170
     0
176
     1
171
     0
176
     1
290
     0
176
     1
 93
        1
176
     1
 44
0.0
176
     1
173
     0
176
     1
  0
VISUALSTYLE
  5
36
102
{ACAD_REACTORS
330
2A
102
}
330
2A
100
AcDbVisualStyle
  2
Brighten
 70
    12
177
     2
291
     1
 71
     2
176
     1
 72
     2
176
     1
 73
     0
176
     1
 90
        0
176
     1
 40
-0.6
176
     1
 41
-30.0
176
     1
 62
     5
 63
     7
421
 16777215
176
     1
 74
     1
176
     1
 91
        4
176
     1
 64
     7
176
     1
 65
   257
176
     1
 75
     1
176
     1
175
     1
176
     1
 42
1.0
176
     1
 92
        8
176
     1
 66
     7
176
     1
 43
1.0
176
     1
 76
     1
176
     1
 77
     6
176
     1
 78
     2
176
     1
 67
     7
176
     1
 79
     5
176
     1
170
     0
176
     1
171
     0
176
     1
290
     0
176
     1
 93
        1
176
     1
 44
50.0
176
     1
173
     0
176
     1
  0
VISUALSTYLE
  5
3A
102
{ACAD_REACTORS
330
2A
102
}
330
2A
100
AcDbVisualStyle
  2
ColorChange
 70
    16
177
     2
291
     1
 71
     2
176
     1
 72
     2
176
     1
 73
     3
176
     1
 90
        0
176
     1
 40
-0.6
176
     1
 41
-30.0
176
     1
 62
     5
 63
     8
421
  8421504
176
     1
 74
     1
176
     1
 91
        4
176
     1
 64
     7
176
     1
 65
   257
176
     1
 75
     1
176
     1
175
     1
176
     1
 42
1.0
176
     1
 92
        8
176
     1
 66
     8
424
  8421504
176
     1
 43
1.0
176
     1
 76
     1
176
     1
 77
     6
176
     1
 78
     2
176
     1
 67
     7
176
     1
 79
     5
176
     1
170
     0
176
     1
171
     0
176
     1
290
     0
176
     1
 93
        1
176
     1
 44
0.0
176
     1
173
     0
176
     1
  0
VISUALSTYLE
  5
34
102
{ACAD_REACTORS
330
2A
102
}
330
2A
100
AcDbVisualStyle
  2
Conceptual
 70
     9
177
     2
291
     0
 71
     3
176
     1
 72
     2
176
     1
 73
     0
176
     1
 90
        0
176
     1
 40
-0.6
176
     1
 41
-30.0
176
     1
 62
     5
 63
     7
421
 16777215
176
     1
 74
     2
176
     1
 91
        2
176
     1
 64
     7
176
     1
 65
   257
176
     1
 75
     1
176
     1
175
     1
176
     1
 42
40.0
176
     1
 92
        8
176
     1
 66
     7
176
     1
 43
1.0
176
     1
 76
     1
176
     1
 77
     6
176
     1
 78
     2
176
     1
 67
     7
176
     1
 79
     3
176
     1
170
     0
176
     1
171
     0
176
     1
290
     0
176
     1
 93
        1
176
     1
 44
0.0
176
     1
173
     0
176
     1
  0
VISUALSTYLE
  5
35
102
{ACAD_REACTORS
330
2A
102
}
330
2A
100
AcDbVisualStyle
  2
Dim
 70
    11
177
     2
291
     1
 71
     2
176
     1
 72
     2
176
     1
 73
     0
176
     1
 90
        0
176
     1
 40
-0.6
176
     1
 41
-30.0
176
     1
 62
     5
 63
     7
421
 16777215
176
     1
 74
     1
176
     1
 91
        4
176
     1
 64
     7
176
     1
 65
   257
176
     1
 75
     1
176
     1
175
     1
176
     1
 42
1.0
176
     1
 92
        8
176
     1
 66
     7
176
     1
 43
1.0
176
     1
 76
     1
176
     1
 77
     6
176
     1
 78
     2
176
     1
 67
     7
176
     1
 79
     5
176
     1
170
     0
176
     1
171
     0
176
     1
290
     0
176
     1
 93
        1
176
     1
 44
-50.0
176
     1
173
     0
176
     1
  0
VISUALSTYLE
  5
39
102
{ACAD_REACTORS
330
2A
102
}
330
2A
100
AcDbVisualStyle
  2
Facepattern
 70
    15
177
     2
291
     1
 71
     2
176
     1
 72
     2
176
     1
 73
     0
176
     1
 90
        0
176
     1
 40
-0.6
176
     1
 41
-30.0
176
     1
 62
     5
 63
     7
421
 16777215
176
     1
 74
     1
176
     1
 91
        4
176
     1
 64
     7
176
     1
 65
   257
176
     1
 75
     1
176
     1
175
     1
176
     1
 42
1.0
176
     1
 92
        8
176
     1
 66
     7
176
     1
 43
1.0
176
     1
 76
     1
176
     1
 77
     6
176
     1
 78
     2
176
     1
 67
     7
176
     1
 79
     5
176
     1
170
     0
176
     1
171
     0
176
     1
290
     0
176
     1
 93
        1
176
     1
 44
0.0
176
     1
173
     0
176
     1
  0
VISUALSTYLE
  5
2B
102
{ACAD_REACTORS
330
2A
102
}
330
2A
100
AcDbVisualStyle
  2
Flat
 70
     0
177
     2
291
     1
 71
     2
176
     1
 72
     1
176
     1
 73
     1
176
     1
 90
        2
176
     1
 40
-0.6
176
     1
 41
30.0
176
     1
 62
     5
 63
     7
421
 16777215
176
     1
 74
     0
176
     1
 91
        4
176
     1
 64
     7
176
     1
 65
   257
176
     1
 75
     1
176
     1
175
     1
176
     1
 42
1.0
176
     1
 92
        8
176
     1
 66
     7
176
     1
 43
1.0
176
     1
 76
     1
176
     1
 77
     6
176
     1
 78
     2
176
     1
 67
     7
176
     1
 79
     5
176
     1
170
     0
176
     1
171
     0
176
     1
290
     0
176
     1
 93
       13
176
     1
 44
0.0
176
     1
173
     0
176
     1
  0
VISUALSTYLE
  5
2C
102
{ACAD_REACTORS
330
2A
102
}
330
2A
100
AcDbVisualStyle
  2
FlatWithEdges
 70
     1
177
     2
291
     1
 71
     2
176
     1
 72
     1
176
     1
 73
     1
176
     1
 90
        2
176
     1
 40
-0.6
176
     1
 41
30.0
176
     1
 62
     5
 63
     7
421
 16777215
176
     1
 74
     1
176
     1
 91
        4
176
     1
 64
     7
176
     1
 65
   257
176
     1
 75
     1
176
     1
175
     1
176
     1
 42
1.0
176
     1
 92
        0
176
     1
 66
   257
176
     1
 43
1.0
176
     1
 76
     1
176
     1
 77
     6
176
     1
 78
     2
176
     1
 67
     7
176
     1
 79
     5
176
     1
170
     0
176
     1
171
     0
176
     1
290
     0
176
     1
 93
       13
176
     1
 44
0.0
176
     1
173
     0
176
     1
  0
VISUALSTYLE
  5
2D
102
{ACAD_REACTORS
330
2A
102
}
330
2A
100
AcDbVisualStyle
  2
Gouraud
 70
     2
177
     2
291
     1
 71
     2
176
     1
 72
     2
176
     1
 73
     1
176
     1
 90
        2
176
     1
 40
-0.6
176
     1
 41
30.0
176
     1
 62
     5
 63
     7
421
 16777215
176
     1
 74
     0
176
     1
 91
        4
176
     1
 64
     7
176
     1
 65
   257
176
     1
 75
     1
176
     1
175
     1
176
     1
 42
1.0
176
     1
 92
        0
176
     1
 66
     7
176
     1
 43
1.0
176
     1
 76
     1
176
     1
 77
     6
176
     1
 78
     2
176
     1
 67
     7
176
     1
 79
     5
176
     1
170
     0
176
     1
171
     0
176
     1
290
     0
176
     1
 93
       13
176
     1
 44
0.0
176
     1
173
     0
176
     1
  0
VISUALSTYLE
  5
2E
102
{ACAD_REACTORS
330
2A
102
}
330
2A
100
AcDbVisualStyle
  2
GouraudWithEdges
 70
     3
177
     2
291
     1
 71
     2
176
     1
 72
     2
176
     1
 73
     1
176
     1
 90
        2
176
     1
 40
-0.6
176
     1
 41
30.0
176
     1
 62
     5
 63
     7
421
 16777215
176
     1
 74
     1
176
     1
 91
        4
176
     1
 64
     7
176
     1
 65
   257
176
     1
 75
     1
176
     1
175
     1
176
     1
 42
1.0
176
     1
 92
        0
176
     1
 66
   257
176
     1
 43
1.0
176
     1
 76
     1
176
     1
 77
     6
176
     1
 78
     2
176
     1
 67
     7
176
     1
 79
     5
176
     1
170
     0
176
     1
171
     0
176
     1
290
     0
176
     1
 93
       13
176
     1
 44
0.0
176
     1
173
     0
176
     1
  0
VISUALSTYLE
  5
38
102
{ACAD_REACTORS
330
2A
102
}
330
2A
100
AcDbVisualStyle
  2
Linepattern
 70
    14
177
     2
291
     1
 71
     2
176
     1
 72
     2
176
     1
 73
     0
176
     1
 90
        0
176
     1
 40
-0.6
176
     1
 41
-30.0
176
     1
 62
     5
 63
     7
421
 16777215
176
     1
 74
     1
176
     1
 91
        4
176
     1
 64
     7
176
     1
 65
   257
176
     1
 75
     7
176
     1
175
     7
176
     1
 42
1.0
176
     1
 92
        8
176
     1
 66
     7
176
     1
 43
1.0
176
     1
 76
     1
176
     1
 77
     6
176
     1
 78
     2
176
     1
 67
     7
176
     1
 79
     5
176
     1
170
     0
176
     1
171
     0
176
     1
290
     0
176
     1
 93
        1
176
     1
 44
0.0
176
     1
173
     0
176
     1
  0
VISUALSTYLE
  5
33
102
{ACAD_REACTORS
330
2A
102
}
330
2A
100
AcDbVisualStyle
  2
Realistic
 70
     8
177
     2
291
     0
 71
     2
176
     1
 72
     2
176
     1
 73
     0
176
     1
 90
        0
176
     1
 40
-0.6
176
     1
 41
-30.0
176
     1
 62
     5
 63
     7
421
 16777215
176
     1
 74
     1
176
     1
 91
        0
176
     1
 64
     7
176
     1
 65
   257
176
     1
 75
     1
176
     1
175
     1
176
     1
 42
1.0
176
     1
 92
        8
176
     1
 66
     8
424
  7895160
176
     1
 43
1.0
176
     1
 76
     1
176
     1
 77
     6
176
     1
 78
     2
176
     1
 67
     7
176
     1
 79
     5
176
     1
170
     0
176
     1
171
     0
176
     1
290
     0
176
     1
 93
       13
176
     1
 44
0.0
176
     1
173
     0
176
     1
  0
VISUALSTYLE
  5
37
102
{ACAD_REACTORS
330
2A
102
}
330
2A
100
AcDbVisualStyle
  2
Thicken
 70
    13
177
     2
291
     1
 71
     2
176
     1
 72
     2
176
     1
 73
     0
176
     1
 90
        0
176
     1
 40
-0.6
176
     1
 41
-30.0
176
     1
 62
     5
 63
     7
421
 16777215
176
     1
 74
     1
176
     1
 91
        4
176
     1
 64
     7
176
     1
 65
   257
176
     1
 75
     1
176
     1
175
     1
176
     1
 42
1.0
176
     1
 92
       12
176
     1
 66
     7
176
     1
 43
1.0
176
     1
 76
     1
176
     1
 77
     6
176
     1
 78
     2
176
     1
 67
     7
176
     1
 79
     5
176
     1
170
     0
176
     1
171
     0
176
     1
290
     0
176
     1
 93
        1
176
     1
 44
0.0
176
     1
173
     0
176
     1
  0
ENDSEC
  0
EOF
