  0
SECTION
  2
HEADER
  9
$ACADVER
  1
AC1024
  9
$ACADMAINTVER
 70
     6
  9
$DWGCODEPAGE
  3
UNDEFINED
  9
$INSBASE
 10
0.0
 20
0.0
 30
0.0
  9
$EXTMIN
 10
1.000000000000000E+20
 20
1.000000000000000E+20
 30
1.000000000000000E+20
  9
$EXTMAX
 10
-1.000000000000000E+20
 20
-1.000000000000000E+20
 30
-1.000000000000000E+20
  9
$LIMMIN
 10
0.0
 20
0.0
  9
$LIMMAX
 10
12.0
 20
9.0
  9
$ORTHOMODE
 70
     0
  9
$REGENMODE
 70
     1
  9
$FILLMODE
 70
     1
  9
$QTEXTMODE
 70
     0
  9
$MIRRTEXT
 70
     1
  9
$LTSCALE
 40
1.0
  9
$ATTMODE
 70
     1
  9
$TEXTSIZE
 40
0.2
  9
$TRACEWID
 40
0.05
  9
$TEXTSTYLE
  7
Standard
  9
$CLAYER
  8
0
  9
$CELTYPE
  6
ByLayer
  9
$CECOLOR
 62
   256
  9
$CELTSCALE
 40
1.0
  9
$DISPSILH
 70
     0
  9
$DIMSCALE
 40
1.0
  9
$DIMASZ
 40
0.18
  9
$DIMEXO
 40
0.0625
  9
$DIMDLI
 40
0.38
  9
$DIMRND
 40
0.0
  9
$DIMDLE
 40
0.0
  9
$DIMEXE
 40
0.18
  9
$DIMTP
 40
0.0
  9
$DIMTM
 40
0.0
  9
$DIMTXT
 40
0.18
  9
$DIMCEN
 40
0.09
  9
$DIMTSZ
 40
0.0
  9
$DIMTOL
 70
     0
  9
$DIMLIM
 70
     0
  9
$DIMTIH
 70
     1
  9
$DIMTOH
 70
     1
  9
$DIMSE1
 70
     0
  9
$DIMSE2
 70
     0
  9
$DIMTAD
 70
     0
  9
$DIMZIN
 70
     0
  9
$DIMBLK
  1

  9
$DIMASO
 70
     1
  9
$DIMSHO
 70
     1
  9
$DIMPOST
  1

  9
$DIMAPOST
  1

  9
$DIMALT
 70
     0
  9
$DIMALTD
 70
     2
  9
$DIMALTF
 40
25.4
  9
$DIMLFAC
 40
1.0
  9
$DIMTOFL
 70
     0
  9
$DIMTVP
 40
0.0
  9
$DIMTIX
 70
     0
  9
$DIMSOXD
 70
     0
  9
$DIMSAH
 70
     0
  9
$DIMBLK1
  1

  9
$DIMBLK2
  1

  9
$DIMSTYLE
  2
Standard
  9
$DIMCLRD
 70
     0
  9
$DIMCLRE
 70
     0
  9
$DIMCLRT
 70
     0
  9
$DIMTFAC
 40
1.0
  9
$DIMGAP
 40
0.09
  9
$DIMJUST
 70
     0
  9
$DIMSD1
 70
     0
  9
$DIMSD2
 70
     0
  9
$DIMTOLJ
 70
     1
  9
$DIMTZIN
 70
     0
  9
$DIMALTZ
 70
     0
  9
$DIMALTTZ
 70
     0
  9
$DIMUPT
 70
     0
  9
$DIMDEC
 70
     4
  9
$DIMTDEC
 70
     4
  9
$DIMALTU
 70
     2
  9
$DIMALTTD
 70
     2
  9
$DIMTXSTY
  7
Standard
  9
$DIMAUNIT
 70
     0
  9
$DIMADEC
 70
     0
  9
$DIMALTRND
 40
0.0
  9
$DIMAZIN
 70
     0
  9
$DIMDSEP
 70
    46
  9
$DIMATFIT
 70
     3
  9
$DIMFRAC
 70
     0
  9
$DIMLDRBLK
  1

  9
$DIMLUNIT
 70
     2
  9
$DIMLWD
 70
    -2
  9
$DIMLWE
 70
    -2
  9
$DIMTMOVE
 70
     0
  9
$DIMFXL
 40
1.0
  9
$DIMFXLON
 70
     0
  9
$DIMJOGANG
 40
0.7853981633974483
  9
$DIMTFILL
 70
     0
  9
$DIMTFILLCLR
 70
     0
  9
$DIMARCSYM
 70
     0
  9
$DIMLTYPE
  6

  9
$DIMLTEX1
  6

  9
$DIMLTEX2
  6

  9
$DIMTXTDIRECTION
 70
     0
  9
$LUNITS
 70
     2
  9
$LUPREC
 70
     4
  9
$SKETCHINC
 40
0.1
  9
$FILLETRAD
 40
0.5
  9
$AUNITS
 70
     0
  9
$AUPREC
 70
     0
  9
$MENU
  1
.
  9
$ELEVATION
 40
0.0
  9
$PELEVATION
 40
0.0
  9
$THICKNESS
 40
0.0
  9
$LIMCHECK
 70
     0
  9
$CHAMFERA
 40
0.5
  9
$CHAMFERB
 40
0.5
  9
$CHAMFERC
 40
1.0
  9
$CHAMFERD
 40
0.0
  9
$SKPOLY
 70
     0
  9
$TDCREATE
 40
2457917.631435185
  9
$TDUCREATE
 40
2457917.256435185
  9
$TDUPDATE
 40
2457917.631435185
  9
$TDUUPDATE
 40
2457917.256435185
  9
$TDINDWG
 40
0.0000000116
  9
$TDUSRTIMER
 40
0.0000000116
  9
$USRTIMER
 70
     1
  9
$ANGBASE
 50
0.0
  9
$ANGDIR
 70
     0
  9
$PDMODE
 70
     0
  9
$PDSIZE
 40
0.0
  9
$PLINEWID
 40
0.0
  9
$SPLFRAME
 70
     0
  9
$SPLINETYPE
 70
     6
  9
$SPLINESEGS
 70
     8
  9
$HANDSEED
  5
128
  9
$SURFTAB1
 70
     6
  9
$SURFTAB2
 70
     6
  9
$SURFTYPE
 70
     6
  9
$SURFU
 70
     6
  9
$SURFV
 70
     6
  9
$UCSBASE
  2

  9
$UCSNAME
  2

  9
$UCSORG
 10
0.0
 20
0.0
 30
0.0
  9
$UCSXDIR
 10
1.0
 20
0.0
 30
0.0
  9
$UCSYDIR
 10
0.0
 20
1.0
 30
0.0
  9
$UCSORTHOREF
  2

  9
$UCSORTHOVIEW
 70
     0
  9
$UCSORGTOP
 10
0.0
 20
0.0
 30
0.0
  9
$UCSORGBOTTOM
 10
0.0
 20
0.0
 30
0.0
  9
$UCSORGLEFT
 10
0.0
 20
0.0
 30
0.0
  9
$UCSORGRIGHT
 10
0.0
 20
0.0
 30
0.0
  9
$UCSORGFRONT
 10
0.0
 20
0.0
 30
0.0
  9
$UCSORGBACK
 10
0.0
 20
0.0
 30
0.0
  9
$PUCSBASE
  2

  9
$PUCSNAME
  2

  9
$PUCSORG
 10
0.0
 20
0.0
 30
0.0
  9
$PUCSXDIR
 10
1.0
 20
0.0
 30
0.0
  9
$PUCSYDIR
 10
0.0
 20
1.0
 30
0.0
  9
$PUCSORTHOREF
  2

  9
$PUCSORTHOVIEW
 70
     0
  9
$PUCSORGTOP
 10
0.0
 20
0.0
 30
0.0
  9
$PUCSORGBOTTOM
 10
0.0
 20
0.0
 30
0.0
  9
$PUCSORGLEFT
 10
0.0
 20
0.0
 30
0.0
  9
$PUCSORGRIGHT
 10
0.0
 20
0.0
 30
0.0
  9
$PUCSORGFRONT
 10
0.0
 20
0.0
 30
0.0
  9
$PUCSORGBACK
 10
0.0
 20
0.0
 30
0.0
  9
$USERI1
 70
     0
  9
$USERI2
 70
     0
  9
$USERI3
 70
     0
  9
$USERI4
 70
     0
  9
$USERI5
 70
     0
  9
$USERR1
 40
0.0
  9
$USERR2
 40
0.0
  9
$USERR3
 40
0.0
  9
$USERR4
 40
0.0
  9
$USERR5
 40
0.0
  9
$WORLDVIEW
 70
     1
  9
$SHADEDGE
 70
     3
  9
$SHADEDIF
 70
    70
  9
$TILEMODE
 70
     1
  9
$MAXACTVP
 70
    64
  9
$PINSBASE
 10
0.0
 20
0.0
 30
0.0
  9
$PLIMCHECK
 70
     0
  9
$PEXTMIN
 10
1.000000000000000E+20
 20
1.000000000000000E+20
 30
1.000000000000000E+20
  9
$PEXTMAX
 10
-1.000000000000000E+20
 20
-1.000000000000000E+20
 30
-1.000000000000000E+20
  9
$PLIMMIN
 10
0.0
 20
0.0
  9
$PLIMMAX
 10
12.0
 20
9.0
  9
$UNITMODE
 70
     0
  9
$VISRETAIN
 70
     1
  9
$PLINEGEN
 70
     0
  9
$PSLTSCALE
 70
     1
  9
$TREEDEPTH
 70
  3020
  9
$CMLSTYLE
  2
Standard
  9
$CMLJUST
 70
     0
  9
$CMLSCALE
 40
1.0
  9
$PROXYGRAPHICS
 70
     1
  9
$MEASUREMENT
 70
     0
  9
$CELWEIGHT
370
    -1
  9
$ENDCAPS
280
     0
  9
$JOINSTYLE
280
     0
  9
$LWDISPLAY
290
     1
  9
$INSUNITS
 70
     1
  9
$HYPERLINKBASE
  1

  9
$STYLESHEET
  1

  9
$XEDIT
290
     1
  9
$CEPSNTYPE
380
     0
  9
$PSTYLEMODE
290
     1
  9
$FINGERPRINTGUID
  2
{A94A7EB0-2C0E-6464-B23A-2E02E53C3E8D}
  9
$VERSIONGUID
  2
{FAEB1C32-E019-11D5-929B-00C0DF256EC4}
  9
$EXTNAMES
290
     1
  9
$PSVPSCALE
 40
0.0
  9
$OLESTARTUP
290
     0
  9
$SORTENTS
280
   127
  9
$INDEXCTL
280
     0
  9
$HIDETEXT
280
     1
  9
$XCLIPFRAME
280
     2
  9
$HALOGAP
280
     0
  9
$OBSCOLOR
 70
   257
  9
$OBSLTYPE
280
     0
  9
$INTERSECTIONDISPLAY
280
     0
  9
$INTERSECTIONCOLOR
 70
   257
  9
$DIMASSOC
280
     2
  9
$PROJECTNAME
  1

  9
$CAMERADISPLAY
290
     0
  9
$LENSLENGTH
 40
50.0
  9
$CAMERAHEIGHT
 40
0.0
  9
$STEPSPERSEC
 40
2.0
  9
$STEPSIZE
 40
6.0
  9
$3DDWFPREC
 40
2.0
  9
$PSOLWIDTH
 40
0.25
  9
$PSOLHEIGHT
 40
4.0
  9
$LOFTANG1
 40
1.570796326794897
  9
$LOFTANG2
 40
1.570796326794897
  9
$LOFTMAG1
 40
0.0
  9
$LOFTMAG2
 40
0.0
  9
$LOFTPARAM
 70
     7
  9
$LOFTNORMALS
280
     1
  9
$LATITUDE
 40
37.795
  9
$LONGITUDE
 40
-122.394
  9
$NORTHDIRECTION
 40
0.0
  9
$TIMEZONE
 70
 -8000
  9
$LIGHTGLYPHDISPLAY
280
     1
  9
$TILEMODELIGHTSYNCH
280
     1
  9
$CMATERIAL
347
3C
  9
$SOLIDHIST
280
     1
  9
$SHOWHIST
280
     1
  9
$DWFFRAME
280
     2
  9
$DGNFRAME
280
     2
  9
$REALWORLDSCALE
290
     1
  9
$INTERFERECOLOR
 62
   256
  9
$CSHADOW
280
     0
  9
$SHADOWPLANELOCATION
 40
0.0
  0
ENDSEC
  0
SECTION
  2
CLASSES
  0
CLASS
  1
ACDBDICTIONARYWDFLT
  2
AcDbDictionaryWithDefault
  3
ObjectDBX Classes
 90
        0
 91
        4
280
     0
281
     0
  0
CLASS
  1
VISUALSTYLE
  2
AcDbVisualStyle
  3
ObjectDBX Classes
 90
     4095
 91
        4
280
     0
281
     0
  0
CLASS
  1
MATERIAL
  2
AcDbMaterial
  3
ObjectDBX Classes
 90
     1153
 91
        4
280
     0
281
     0
  0
CLASS
  1
SUN
  2
AcDbSun
  3
SCENEOE
 90
     1024
 91
        4
280
     0
281
     0
  0
ENDSEC
  0
SECTION
  2
TABLES
  0
TABLE
  2
VPORT
  5
8
330
0
100
AcDbSymbolTable
 70
     1
  0
VPORT
  5
29
330
8
100
AcDbSymbolTableRecord
100
AcDbViewportTableRecord
  2
*Active
 70
     0
 10
0.0
 20
0.0
 11
1.0
 21
1.0
 12
0.0
 22
0.0
 13
0.0
 23
0.0
 14
0.5
 24
0.5
 15
0.5
 25
0.5
 16
0.0
 26
0.0
 36
1.0
 17
91.00082462281999
 27
-128.4993055234307
 37
0.0
 40
256.9986110468615
 41
0.7081814508812795
 42
50.0
 43
0.0
 44
0.0
 50
0.0
 51
0.0
 71
     0
 72
   100
 73
     1
 74
     3
 75
     0
 76
     0
 77
     0
 78
     0
281
     0
 65
     1
110
0.0
120
0.0
130
0.0
111
1.0
121
0.0
131
0.0
112
0.0
122
1.0
132
0.0
 79
     0
146
0.0
 60
     3
 61
     5
292
     1
282
     1
141
0.0
142
0.0
 63
   250
361
3F
  0
ENDTAB
  0
TABLE
  2
LTYPE
  5
5
330
0
100
AcDbSymbolTable
 70
     1
  0
LTYPE
  5
14
330
5
100
AcDbSymbolTableRecord
100
AcDbLinetypeTableRecord
  2
ByBlock
 70
     0
  3

 72
    65
 73
     0
 40
0.0
  0
LTYPE
  5
15
330
5
100
AcDbSymbolTableRecord
100
AcDbLinetypeTableRecord
  2
ByLayer
 70
     0
  3

 72
    65
 73
     0
 40
0.0
  0
LTYPE
  5
16
330
5
100
AcDbSymbolTableRecord
100
AcDbLinetypeTableRecord
  2
Continuous
 70
     0
  3
Solid line
 72
    65
 73
     0
 40
0.0
  0
ENDTAB
  0
TABLE
  2
LAYER
  5
2
330
0
100
AcDbSymbolTable
 70
     2
  0
LAYER
  5
10
330
2
100
AcDbSymbolTableRecord
100
AcDbLayerTableRecord
  2
0
 70
     0
 62
     7
  6
Continuous
370
    -3
390
F
347
3E
  0
LAYER
  5
40
330
2
100
AcDbSymbolTableRecord
100
AcDbLayerTableRecord
  2
_U+30EC_U+30A4_U+30E4_U+30FC 1
 70
     0
 62
     7
  6
Continuous
370
    -3
390
F
347
3E
  0
ENDTAB
  0
TABLE
  2
STYLE
  5
3
330
0
100
AcDbSymbolTable
 70
     1
  0
STYLE
  5
11
330
3
100
AcDbSymbolTableRecord
100
AcDbTextStyleTableRecord
  2
Standard
 70
     0
 40
0.0
 41
1.0
 50
0.0
 71
     0
 42
0.2
  3
txt
  4

  0
ENDTAB
  0
TABLE
  2
VIEW
  5
6
330
0
100
AcDbSymbolTable
 70
     0
  0
ENDTAB
  0
TABLE
  2
UCS
  5
7
330
0
100
AcDbSymbolTable
 70
     0
  0
ENDTAB
  0
TABLE
  2
APPID
  5
9
330
0
100
AcDbSymbolTable
 70
     1
  0
APPID
  5
12
330
9
100
AcDbSymbolTableRecord
100
AcDbRegAppTableRecord
  2
ACAD
 70
     0
  0
ENDTAB
  0
TABLE
  2
DIMSTYLE
  5
A
330
0
100
AcDbSymbolTable
 70
     1
100
AcDbDimStyleTable
  0
DIMSTYLE
105
27
330
A
100
AcDbSymbolTableRecord
100
AcDbDimStyleTableRecord
  2
Standard
 70
     0
178
     0
340
11
  0
ENDTAB
  0
TABLE
  2
BLOCK_RECORD
  5
1
330
0
100
AcDbSymbolTable
 70
     6
  0
BLOCK_RECORD
  5
1F
330
1
100
AcDbSymbolTableRecord
100
AcDbBlockTableRecord
  2
*Model_Space
340
22
 70
     0
280
     1
281
     0
  0
BLOCK_RECORD
  5
1B
330
1
100
AcDbSymbolTableRecord
100
AcDbBlockTableRecord
  2
*Paper_Space
340
1E
 70
     0
280
     1
281
     0
  0
BLOCK_RECORD
  5
23
330
1
100
AcDbSymbolTableRecord
100
AcDbBlockTableRecord
  2
*Paper_Space0
340
26
 70
     0
280
     1
281
     0
  0
BLOCK_RECORD
  5
7D
330
1
100
AcDbSymbolTableRecord
100
AcDbBlockTableRecord
  2
block 2
340
0
102
{BLKREFS
331
7E
102
}
 70
     0
280
     1
281
     0
  0
BLOCK_RECORD
  5
A0
330
1
100
AcDbSymbolTableRecord
100
AcDbBlockTableRecord
  2
block 3
340
0
102
{BLKREFS
331
A1
102
}
 70
     0
280
     1
281
     0
  0
BLOCK_RECORD
  5
C3
330
1
100
AcDbSymbolTableRecord
100
AcDbBlockTableRecord
  2
block 4
340
0
102
{BLKREFS
331
C4
102
}
 70
     0
280
     1
281
     0
  0
BLOCK_RECORD
  5
E2
330
1
100
AcDbSymbolTableRecord
100
AcDbBlockTableRecord
  2
block 5
340
0
102
{BLKREFS
331
E3
102
}
 70
     0
280
     1
281
     0
  0
BLOCK_RECORD
  5
FA
330
1
100
AcDbSymbolTableRecord
100
AcDbBlockTableRecord
  2
block 6
340
0
102
{BLKREFS
331
FB
102
}
 70
     0
280
     1
281
     0
  0
ENDTAB
  0
ENDSEC
  0
SECTION
  2
BLOCKS
  0
BLOCK
  5
20
330
1F
100
AcDbEntity
  8
0
100
AcDbBlockBegin
  2
*Model_Space
 70
     0
 10
0.0
 20
0.0
 30
0.0
  3
*Model_Space
  1

  0
ENDBLK
  5
21
330
1F
100
AcDbEntity
  8
0
100
AcDbBlockEnd
  0
BLOCK
  5
1C
330
1B
100
AcDbEntity
 67
     1
  8
0
100
AcDbBlockBegin
  2
*Paper_Space
 70
     0
 10
0.0
 20
0.0
 30
0.0
  3
*Paper_Space
  1

  0
ENDBLK
  5
1D
330
1B
100
AcDbEntity
 67
     1
  8
0
100
AcDbBlockEnd
  0
BLOCK
  5
24
330
23
100
AcDbEntity
  8
0
100
AcDbBlockBegin
  2
*Paper_Space0
 70
     0
 10
0.0
 20
0.0
 30
0.0
  3
*Paper_Space0
  1

  0
ENDBLK
  5
25
330
23
100
AcDbEntity
  8
0
100
AcDbBlockEnd
  0
BLOCK
  5
7F
330
7D
100
AcDbEntity
  8
0
100
AcDbBlockBegin
  2
block 2
 70
     0
 10
0.0
 20
0.0
 30
0.0
  3
block 2
  1

  0
POLYLINE
  5
81
330
7D
100
AcDbEntity
  8
_U+30EC_U+30A4_U+30E4_U+30FC 1
370
     0
100
AcDb2dPolyline
 66
     1
 10
0.0
 20
0.0
 30
0.0
  0
VERTEX
  5
82
330
81
100
AcDbEntity
  8
_U+30EC_U+30A4_U+30E4_U+30FC 1
370
     0
100
AcDbVertex
100
AcDb2dVertex
 10
92.80294865301454
 20
-130.4009982312886
 30
0.0
  0
VERTEX
  5
83
330
81
100
AcDbEntity
  8
_U+30EC_U+30A4_U+30E4_U+30FC 1
370
     0
100
AcDbVertex
100
AcDb2dVertex
 10
92.09842662628095
 20
-130.4009982312886
 30
0.0
  0
VERTEX
  5
84
330
81
100
AcDbEntity
  8
_U+30EC_U+30A4_U+30E4_U+30FC 1
370
     0
100
AcDbVertex
100
AcDb2dVertex
 10
92.09842662628095
 20
-131.149961989782
 30
0.0
  0
VERTEX
  5
85
330
81
100
AcDbEntity
  8
_U+30EC_U+30A4_U+30E4_U+30FC 1
370
     0
100
AcDbVertex
100
AcDb2dVertex
 10
92.80294865301454
 20
-131.149961989782
 30
0.0
  0
VERTEX
  5
86
330
81
100
AcDbEntity
  8
_U+30EC_U+30A4_U+30E4_U+30FC 1
370
     0
100
AcDbVertex
100
AcDb2dVertex
 10
92.80294865301454
 20
-131.3845729923275
 30
0.0
  0
VERTEX
  5
87
330
81
100
AcDbEntity
  8
_U+30EC_U+30A4_U+30E4_U+30FC 1
370
     0
100
AcDbVertex
100
AcDb2dVertex
 10
91.25851234697704
 20
-131.3845729923275
 30
0.0
  0
VERTEX
  5
88
330
81
100
AcDbEntity
  8
_U+30EC_U+30A4_U+30E4_U+30FC 1
370
     0
100
AcDbVertex
100
AcDb2dVertex
 10
91.25851234697704
 20
-131.149961989782
 30
0.0
  0
VERTEX
  5
89
330
81
100
AcDbEntity
  8
_U+30EC_U+30A4_U+30E4_U+30FC 1
370
     0
100
AcDbVertex
100
AcDb2dVertex
 10
91.88689776348662
 20
-131.149961989782
 30
0.0
  0
VERTEX
  5
8A
330
81
100
AcDbEntity
  8
_U+30EC_U+30A4_U+30E4_U+30FC 1
370
     0
100
AcDbVertex
100
AcDb2dVertex
 10
91.88689776348662
 20
-130.4009982312886
 30
0.0
  0
VERTEX
  5
8B
330
81
100
AcDbEntity
  8
_U+30EC_U+30A4_U+30E4_U+30FC 1
370
     0
100
AcDbVertex
100
AcDb2dVertex
 10
91.25851234697704
 20
-130.4009982312886
 30
0.0
  0
VERTEX
  5
8C
330
81
100
AcDbEntity
  8
_U+30EC_U+30A4_U+30E4_U+30FC 1
370
     0
100
AcDbVertex
100
AcDb2dVertex
 10
91.25851234697704
 20
-130.1660427191946
 30
0.0
  0
VERTEX
  5
8D
330
81
100
AcDbEntity
  8
_U+30EC_U+30A4_U+30E4_U+30FC 1
370
     0
100
AcDbVertex
100
AcDb2dVertex
 10
92.80294865301454
 20
-130.1660427191946
 30
0.0
  0
VERTEX
  5
8E
330
81
100
AcDbEntity
  8
_U+30EC_U+30A4_U+30E4_U+30FC 1
370
     0
100
AcDbVertex
100
AcDb2dVertex
 10
92.80294865301454
 20
-130.4009982312886
 30
0.0
  0
SEQEND
  5
8F
330
81
100
AcDbEntity
  8
_U+30EC_U+30A4_U+30E4_U+30FC 1
370
     0
  0
HATCH
  5
90
330
7D
100
AcDbEntity
  8
_U+30EC_U+30A4_U+30E4_U+30FC 1
 62
   179
420
  2234388
100
AcDbHatch
 10
0.0
 20
0.0
 30
0.0
210
0.0
220
0.0
230
1.0
  2
SOLID
 70
     1
 71
     0
 91
        1
 92
        1
 93
       12
 72
     1
 10
92.80294865301454
 20
-130.4009982312886
 11
92.09842662628095
 21
-130.4009982312886
 72
     1
 10
92.09842662628095
 20
-130.4009982312886
 11
92.09842662628095
 21
-131.149961989782
 72
     1
 10
92.09842662628095
 20
-131.149961989782
 11
92.80294865301454
 21
-131.149961989782
 72
     1
 10
92.80294865301454
 20
-131.149961989782
 11
92.80294865301454
 21
-131.3845729923275
 72
     1
 10
92.80294865301454
 20
-131.3845729923275
 11
91.25851234697704
 21
-131.3845729923275
 72
     1
 10
91.25851234697704
 20
-131.3845729923275
 11
91.25851234697704
 21
-131.149961989782
 72
     1
 10
91.25851234697704
 20
-131.149961989782
 11
91.88689776348662
 21
-131.149961989782
 72
     1
 10
91.88689776348662
 20
-131.149961989782
 11
91.88689776348662
 21
-130.4009982312886
 72
     1
 10
91.88689776348662
 20
-130.4009982312886
 11
91.25851234697704
 21
-130.4009982312886
 72
     1
 10
91.25851234697704
 20
-130.4009982312886
 11
91.25851234697704
 21
-130.1660427191946
 72
     1
 10
91.25851234697704
 20
-130.1660427191946
 11
92.80294865301454
 21
-130.1660427191946
 72
     1
 10
92.80294865301454
 20
-130.1660427191946
 11
92.80294865301454
 21
-130.4009982312886
 97
        0
 75
     2
 76
     1
 98
        0
  0
ENDBLK
  5
80
330
7D
100
AcDbEntity
  8
0
100
AcDbBlockEnd
  0
BLOCK
  5
A2
330
A0
100
AcDbEntity
  8
0
100
AcDbBlockBegin
  2
block 3
 70
     0
 10
0.0
 20
0.0
 30
0.0
  3
block 3
  1

  0
POLYLINE
  5
A4
330
A0
100
AcDbEntity
  8
_U+30EC_U+30A4_U+30E4_U+30FC 1
370
     0
100
AcDb2dPolyline
 66
     1
 10
0.0
 20
0.0
 30
0.0
  0
VERTEX
  5
A5
330
A4
100
AcDbEntity
  8
_U+30EC_U+30A4_U+30E4_U+30FC 1
370
     0
100
AcDbVertex
100
AcDb2dVertex
 10
102.8030273180492
 20
-130.4009982312886
 30
0.0
  0
VERTEX
  5
A6
330
A4
100
AcDbEntity
  8
_U+30EC_U+30A4_U+30E4_U+30FC 1
370
     0
100
AcDbVertex
100
AcDb2dVertex
 10
102.0985052913157
 20
-130.4009982312886
 30
0.0
  0
VERTEX
  5
A7
330
A4
100
AcDbEntity
  8
_U+30EC_U+30A4_U+30E4_U+30FC 1
370
     0
100
AcDbVertex
100
AcDb2dVertex
 10
102.0985052913157
 20
-131.149961989782
 30
0.0
  0
VERTEX
  5
A8
330
A4
100
AcDbEntity
  8
_U+30EC_U+30A4_U+30E4_U+30FC 1
370
     0
100
AcDbVertex
100
AcDb2dVertex
 10
102.8030273180492
 20
-131.149961989782
 30
0.0
  0
VERTEX
  5
A9
330
A4
100
AcDbEntity
  8
_U+30EC_U+30A4_U+30E4_U+30FC 1
370
     0
100
AcDbVertex
100
AcDb2dVertex
 10
102.8030273180492
 20
-131.3845729923275
 30
0.0
  0
VERTEX
  5
AA
330
A4
100
AcDbEntity
  8
_U+30EC_U+30A4_U+30E4_U+30FC 1
370
     0
100
AcDbVertex
100
AcDb2dVertex
 10
101.2585910120117
 20
-131.3845729923275
 30
0.0
  0
VERTEX
  5
AB
330
A4
100
AcDbEntity
  8
_U+30EC_U+30A4_U+30E4_U+30FC 1
370
     0
100
AcDbVertex
100
AcDb2dVertex
 10
101.2585910120117
 20
-131.149961989782
 30
0.0
  0
VERTEX
  5
AC
330
A4
100
AcDbEntity
  8
_U+30EC_U+30A4_U+30E4_U+30FC 1
370
     0
100
AcDbVertex
100
AcDb2dVertex
 10
101.8869764285213
 20
-131.149961989782
 30
0.0
  0
VERTEX
  5
AD
330
A4
100
AcDbEntity
  8
_U+30EC_U+30A4_U+30E4_U+30FC 1
370
     0
100
AcDbVertex
100
AcDb2dVertex
 10
101.8869764285213
 20
-130.4009982312886
 30
0.0
  0
VERTEX
  5
AE
330
A4
100
AcDbEntity
  8
_U+30EC_U+30A4_U+30E4_U+30FC 1
370
     0
100
AcDbVertex
100
AcDb2dVertex
 10
101.2585910120117
 20
-130.4009982312886
 30
0.0
  0
VERTEX
  5
AF
330
A4
100
AcDbEntity
  8
_U+30EC_U+30A4_U+30E4_U+30FC 1
370
     0
100
AcDbVertex
100
AcDb2dVertex
 10
101.2585910120117
 20
-130.1660427191946
 30
0.0
  0
VERTEX
  5
B0
330
A4
100
AcDbEntity
  8
_U+30EC_U+30A4_U+30E4_U+30FC 1
370
     0
100
AcDbVertex
100
AcDb2dVertex
 10
102.8030273180492
 20
-130.1660427191946
 30
0.0
  0
VERTEX
  5
B1
330
A4
100
AcDbEntity
  8
_U+30EC_U+30A4_U+30E4_U+30FC 1
370
     0
100
AcDbVertex
100
AcDb2dVertex
 10
102.8030273180492
 20
-130.4009982312886
 30
0.0
  0
SEQEND
  5
B2
330
A4
100
AcDbEntity
  8
_U+30EC_U+30A4_U+30E4_U+30FC 1
370
     0
  0
HATCH
  5
B3
330
A0
100
AcDbEntity
  8
_U+30EC_U+30A4_U+30E4_U+30FC 1
 62
   179
420
  2234388
100
AcDbHatch
 10
0.0
 20
0.0
 30
0.0
210
0.0
220
0.0
230
1.0
  2
SOLID
 70
     1
 71
     0
 91
        1
 92
        1
 93
       12
 72
     1
 10
102.8030273180492
 20
-130.4009982312886
 11
102.0985052913157
 21
-130.4009982312886
 72
     1
 10
102.0985052913157
 20
-130.4009982312886
 11
102.0985052913157
 21
-131.149961989782
 72
     1
 10
102.0985052913157
 20
-131.149961989782
 11
102.8030273180492
 21
-131.149961989782
 72
     1
 10
102.8030273180492
 20
-131.149961989782
 11
102.8030273180492
 21
-131.3845729923275
 72
     1
 10
102.8030273180492
 20
-131.3845729923275
 11
101.2585910120117
 21
-131.3845729923275
 72
     1
 10
101.2585910120117
 20
-131.3845729923275
 11
101.2585910120117
 21
-131.149961989782
 72
     1
 10
101.2585910120117
 20
-131.149961989782
 11
101.8869764285213
 21
-131.149961989782
 72
     1
 10
101.8869764285213
 20
-131.149961989782
 11
101.8869764285213
 21
-130.4009982312886
 72
     1
 10
101.8869764285213
 20
-130.4009982312886
 11
101.2585910120117
 21
-130.4009982312886
 72
     1
 10
101.2585910120117
 20
-130.4009982312886
 11
101.2585910120117
 21
-130.1660427191946
 72
     1
 10
101.2585910120117
 20
-130.1660427191946
 11
102.8030273180492
 21
-130.1660427191946
 72
     1
 10
102.8030273180492
 20
-130.1660427191946
 11
102.8030273180492
 21
-130.4009982312886
 97
        0
 75
     2
 76
     1
 98
        0
  0
ENDBLK
  5
A3
330
A0
100
AcDbEntity
  8
0
100
AcDbBlockEnd
  0
BLOCK
  5
C5
330
C3
100
AcDbEntity
  8
0
100
AcDbBlockBegin
  2
block 4
 70
     0
 10
0.0
 20
0.0
 30
0.0
  3
block 4
  1

  0
POLYLINE
  5
C7
330
C3
100
AcDbEntity
  8
_U+30EC_U+30A4_U+30E4_U+30FC 1
370
     0
100
AcDb2dPolyline
 66
     1
 10
0.0
 20
0.0
 30
0.0
  0
VERTEX
  5
C8
330
C7
100
AcDbEntity
  8
_U+30EC_U+30A4_U+30E4_U+30FC 1
370
     0
100
AcDbVertex
100
AcDb2dVertex
 10
98.79155813502433
 20
-120.5705905189025
 30
0.0
  0
VERTEX
  5
C9
330
C7
100
AcDbEntity
  8
_U+30EC_U+30A4_U+30E4_U+30FC 1
370
     0
100
AcDbVertex
100
AcDb2dVertex
 10
98.79155813502433
 20
-121.9033257073714
 30
0.0
  0
VERTEX
  5
CA
330
C7
100
AcDbEntity
  8
_U+30EC_U+30A4_U+30E4_U+30FC 1
370
     0
100
AcDbVertex
100
AcDb2dVertex
 10
98.55694713247883
 20
-121.9033257073714
 30
0.0
  0
VERTEX
  5
CB
330
C7
100
AcDbEntity
  8
_U+30EC_U+30A4_U+30E4_U+30FC 1
370
     0
100
AcDbVertex
100
AcDb2dVertex
 10
98.55694713247883
 20
-120.5705905189025
 30
0.0
  0
VERTEX
  5
CC
330
C7
100
AcDbEntity
  8
_U+30EC_U+30A4_U+30E4_U+30FC 1
370
     0
100
AcDbVertex
100
AcDb2dVertex
 10
98.0532741725353
 20
-120.5705905189025
 30
0.0
  0
VERTEX
  5
CD
330
C7
100
AcDbEntity
  8
_U+30EC_U+30A4_U+30E4_U+30FC 1
370
     0
100
AcDbVertex
100
AcDb2dVertex
 10
98.0532741725353
 20
-120.3590616561082
 30
0.0
  0
VERTEX
  5
CE
330
C7
100
AcDbEntity
  8
_U+30EC_U+30A4_U+30E4_U+30FC 1
370
     0
100
AcDbVertex
100
AcDb2dVertex
 10
99.29729815225902
 20
-120.3590616561082
 30
0.0
  0
VERTEX
  5
CF
330
C7
100
AcDbEntity
  8
_U+30EC_U+30A4_U+30E4_U+30FC 1
370
     0
100
AcDbVertex
100
AcDb2dVertex
 10
99.29729815225902
 20
-120.5705905189025
 30
0.0
  0
VERTEX
  5
D0
330
C7
100
AcDbEntity
  8
_U+30EC_U+30A4_U+30E4_U+30FC 1
370
     0
100
AcDbVertex
100
AcDb2dVertex
 10
98.79155813502433
 20
-120.5705905189025
 30
0.0
  0
SEQEND
  5
D1
330
C7
100
AcDbEntity
  8
_U+30EC_U+30A4_U+30E4_U+30FC 1
370
     0
  0
HATCH
  5
D2
330
C3
100
AcDbEntity
  8
_U+30EC_U+30A4_U+30E4_U+30FC 1
 62
   179
420
  2234388
100
AcDbHatch
 10
0.0
 20
0.0
 30
0.0
210
0.0
220
0.0
230
1.0
  2
SOLID
 70
     1
 71
     0
 91
        1
 92
        1
 93
        8
 72
     1
 10
98.79155813502433
 20
-120.5705905189025
 11
98.79155813502433
 21
-121.9033257073714
 72
     1
 10
98.79155813502433
 20
-121.9033257073714
 11
98.55694713247883
 21
-121.9033257073714
 72
     1
 10
98.55694713247883
 20
-121.9033257073714
 11
98.55694713247883
 21
-120.5705905189025
 72
     1
 10
98.55694713247883
 20
-120.5705905189025
 11
98.0532741725353
 21
-120.5705905189025
 72
     1
 10
98.0532741725353
 20
-120.5705905189025
 11
98.0532741725353
 21
-120.3590616561082
 72
     1
 10
98.0532741725353
 20
-120.3590616561082
 11
99.29729815225902
 21
-120.3590616561082
 72
     1
 10
99.29729815225902
 20
-120.3590616561082
 11
99.29729815225902
 21
-120.5705905189025
 72
     1
 10
99.29729815225902
 20
-120.5705905189025
 11
98.79155813502433
 21
-120.5705905189025
 97
        0
 75
     2
 76
     1
 98
        0
  0
ENDBLK
  5
C6
330
C3
100
AcDbEntity
  8
0
100
AcDbBlockEnd
  0
BLOCK
  5
E4
330
E2
100
AcDbEntity
  8
0
100
AcDbBlockBegin
  2
block 5
 70
     0
 10
0.0
 20
0.0
 30
0.0
  3
block 5
  1

  0
POLYLINE
  5
E6
330
E2
100
AcDbEntity
  8
_U+30EC_U+30A4_U+30E4_U+30FC 1
370
     0
100
AcDb2dPolyline
 66
     1
 10
0.0
 20
0.0
 30
0.0
  0
VERTEX
  5
E7
330
E6
100
AcDbEntity
  8
_U+30EC_U+30A4_U+30E4_U+30FC 1
370
     0
100
AcDbVertex
100
AcDb2dVertex
 10
83.7316677308032
 20
-121.9033257073714
 30
0.0
  0
VERTEX
  5
E8
330
E6
100
AcDbEntity
  8
_U+30EC_U+30A4_U+30E4_U+30FC 1
370
     0
100
AcDbVertex
100
AcDb2dVertex
 10
83.46088322566256
 20
-121.9033257073714
 30
0.0
  0
VERTEX
  5
E9
330
E6
100
AcDbEntity
  8
_U+30EC_U+30A4_U+30E4_U+30FC 1
370
     0
100
AcDbVertex
100
AcDb2dVertex
 10
83.17528480993535
 20
-120.6298461612488
 30
0.0
  0
VERTEX
  5
EA
330
E6
100
AcDbEntity
  8
_U+30EC_U+30A4_U+30E4_U+30FC 1
370
     0
100
AcDbVertex
100
AcDb2dVertex
 10
82.89175345149928
 20
-121.9033257073714
 30
0.0
  0
VERTEX
  5
EB
330
E6
100
AcDbEntity
  8
_U+30EC_U+30A4_U+30E4_U+30FC 1
370
     0
100
AcDbVertex
100
AcDb2dVertex
 10
82.62096894635864
 20
-121.9033257073714
 30
0.0
  0
VERTEX
  5
EC
330
E6
100
AcDbEntity
  8
_U+30EC_U+30A4_U+30E4_U+30FC 1
370
     0
100
AcDbVertex
100
AcDb2dVertex
 10
82.23804658317313
 20
-120.3590616561082
 30
0.0
  0
VERTEX
  5
ED
330
E6
100
AcDbEntity
  8
_U+30EC_U+30A4_U+30E4_U+30FC 1
370
     0
100
AcDbVertex
100
AcDb2dVertex
 10
82.47076278320176
 20
-120.3590616561082
 30
0.0
  0
VERTEX
  5
EE
330
E6
100
AcDbEntity
  8
_U+30EC_U+30A4_U+30E4_U+30FC 1
370
     0
100
AcDbVertex
100
AcDb2dVertex
 10
82.75636119892897
 20
-121.6092868077053
 30
0.0
  0
VERTEX
  5
EF
330
E6
100
AcDbEntity
  8
_U+30EC_U+30A4_U+30E4_U+30FC 1
370
     0
100
AcDbVertex
100
AcDb2dVertex
 10
83.03558618800847
 20
-120.3590616561082
 30
0.0
  0
VERTEX
  5
F0
330
E6
100
AcDbEntity
  8
_U+30EC_U+30A4_U+30E4_U+30FC 1
370
     0
100
AcDbVertex
100
AcDb2dVertex
 10
83.31481117708796
 20
-120.3590616561082
 30
0.0
  0
VERTEX
  5
F1
330
E6
100
AcDbEntity
  8
_U+30EC_U+30A4_U+30E4_U+30FC 1
370
     0
100
AcDbVertex
100
AcDb2dVertex
 10
83.59420842094173
 20
-121.6092868077053
 30
0.0
  0
VERTEX
  5
F2
330
E6
100
AcDbEntity
  8
_U+30EC_U+30A4_U+30E4_U+30FC 1
370
     0
100
AcDbVertex
100
AcDb2dVertex
 10
83.88187389396009
 20
-120.3590616561082
 30
0.0
  0
VERTEX
  5
F3
330
E6
100
AcDbEntity
  8
_U+30EC_U+30A4_U+30E4_U+30FC 1
370
     0
100
AcDbVertex
100
AcDb2dVertex
 10
84.11459009398872
 20
-120.3590616561082
 30
0.0
  0
VERTEX
  5
F4
330
E6
100
AcDbEntity
  8
_U+30EC_U+30A4_U+30E4_U+30FC 1
370
     0
100
AcDbVertex
100
AcDb2dVertex
 10
83.7316677308032
 20
-121.9033257073714
 30
0.0
  0
SEQEND
  5
F5
330
E6
100
AcDbEntity
  8
_U+30EC_U+30A4_U+30E4_U+30FC 1
370
     0
  0
HATCH
  5
F6
330
E2
100
AcDbEntity
  8
_U+30EC_U+30A4_U+30E4_U+30FC 1
 62
   179
420
  2234388
100
AcDbHatch
 10
0.0
 20
0.0
 30
0.0
210
0.0
220
0.0
230
1.0
  2
SOLID
 70
     1
 71
     0
 91
        1
 92
        1
 93
       13
 72
     1
 10
83.7316677308032
 20
-121.9033257073714
 11
83.46088322566256
 21
-121.9033257073714
 72
     1
 10
83.46088322566256
 20
-121.9033257073714
 11
83.17528480993535
 21
-120.6298461612488
 72
     1
 10
83.17528480993535
 20
-120.6298461612488
 11
82.89175345149928
 21
-121.9033257073714
 72
     1
 10
82.89175345149928
 20
-121.9033257073714
 11
82.62096894635864
 21
-121.9033257073714
 72
     1
 10
82.62096894635864
 20
-121.9033257073714
 11
82.23804658317313
 21
-120.3590616561082
 72
     1
 10
82.23804658317313
 20
-120.3590616561082
 11
82.47076278320176
 21
-120.3590616561082
 72
     1
 10
82.47076278320176
 20
-120.3590616561082
 11
82.75636119892897
 21
-121.6092868077053
 72
     1
 10
82.75636119892897
 20
-121.6092868077053
 11
83.03558618800847
 21
-120.3590616561082
 72
     1
 10
83.03558618800847
 20
-120.3590616561082
 11
83.31481117708796
 21
-120.3590616561082
 72
     1
 10
83.31481117708796
 20
-120.3590616561082
 11
83.59420842094173
 21
-121.6092868077053
 72
     1
 10
83.59420842094173
 20
-121.6092868077053
 11
83.88187389396009
 21
-120.3590616561082
 72
     1
 10
83.88187389396009
 20
-120.3590616561082
 11
84.11459009398872
 21
-120.3590616561082
 72
     1
 10
84.11459009398872
 20
-120.3590616561082
 11
83.7316677308032
 21
-121.9033257073714
 97
        0
 75
     2
 76
     1
 98
        0
  0
ENDBLK
  5
E5
330
E2
100
AcDbEntity
  8
0
100
AcDbBlockEnd
  0
BLOCK
  5
FC
330
FA
100
AcDbEntity
  8
0
100
AcDbBlockBegin
  2
block 6
 70
     0
 10
0.0
 20
0.0
 30
0.0
  3
block 6
  1

  0
SPLINE
  5
FE
330
FA
100
AcDbEntity
  8
_U+30EC_U+30A4_U+30E4_U+30FC 1
370
     0
100
AcDbSpline
210
0.0
220
0.0
230
1.0
 70
    11
 71
     3
 72
    23
 73
    19
 74
     0
 42
0.0000000001
 43
0.0000000001
 12
1.0
 22
0.0
 32
0.0
 13
1.0
 23
0.0
 33
0.0
 40
0.0
 40
0.0
 40
0.0
 40
0.0
 40
1.0
 40
1.0
 40
1.0
 40
2.0
 40
2.0
 40
2.0
 40
3.0
 40
3.0
 40
3.0
 40
4.0
 40
4.0
 40
4.0
 40
5.0
 40
5.0
 40
5.0
 40
6.0
 40
6.0
 40
6.0
 40
6.0
 10
77.99523923831369
 20
-138.5741427604954
 30
0.0
 10
77.83021916457022
 20
-138.3819064324184
 30
0.0
 10
77.5975029645416
 20
-138.1069878126955
 30
0.0
 10
77.5975029645416
 20
-137.5588731209922
 30
0.0
 10
77.5975029645416
 20
-137.010758429289
 30
0.0
 10
77.83021916457022
 20
-136.735839809566
 30
0.0
 10
77.99523923831369
 20
-136.5436034814891
 30
0.0
 10
77.99523923831369
 20
-136.5436034814891
 30
0.0
 10
78.10737709635858
 20
-136.6428222314643
 30
0.0
 10
78.10737709635858
 20
-136.6428222314643
 30
0.0
 10
77.9676784744317
 20
-136.8102538720474
 30
0.0
 10
77.75614961163735
 20
-137.065879957053
 30
0.0
 10
77.75614961163735
 20
-137.5588731209922
 30
0.0
 10
77.75614961163735
 20
-138.0518662849315
 30
0.0
 10
77.9676784744317
 20
-138.3078368794855
 30
0.0
 10
78.10737709635858
 20
-138.4749240105202
 30
0.0
 10
78.10737709635858
 20
-138.4749240105202
 30
0.0
 10
77.99523923831369
 20
-138.5741427604954
 30
0.0
 10
77.99523923831369
 20
-138.5741427604954
 30
0.0
  0
HATCH
  5
FF
330
FA
100
AcDbEntity
  8
_U+30EC_U+30A4_U+30E4_U+30FC 1
 62
   179
420
  2234388
100
AcDbHatch
 10
0.0
 20
0.0
 30
0.0
210
0.0
220
0.0
230
1.0
  2
SOLID
 70
     1
 71
     0
 91
        1
 92
        1
 93
        1
 72
     4
 94
        3
 73
     0
 74
     1
 95
       23
 96
       19
 40
0.0
 40
0.0
 40
0.0
 40
0.0
 40
1.0
 40
1.0
 40
1.0
 40
2.0
 40
2.0
 40
2.0
 40
3.0
 40
3.0
 40
3.0
 40
4.0
 40
4.0
 40
4.0
 40
5.0
 40
5.0
 40
5.0
 40
6.0
 40
6.0
 40
6.0
 40
6.0
 10
77.99523923831369
 20
-138.5741427604954
 10
77.83021916457022
 20
-138.3819064324184
 10
77.5975029645416
 20
-138.1069878126955
 10
77.5975029645416
 20
-137.5588731209922
 10
77.5975029645416
 20
-137.010758429289
 10
77.83021916457022
 20
-136.735839809566
 10
77.99523923831369
 20
-136.5436034814891
 10
77.99523923831369
 20
-136.5436034814891
 10
78.10737709635858
 20
-136.6428222314643
 10
78.10737709635858
 20
-136.6428222314643
 10
77.9676784744317
 20
-136.8102538720474
 10
77.75614961163735
 20
-137.065879957053
 10
77.75614961163735
 20
-137.5588731209922
 10
77.75614961163735
 20
-138.0518662849315
 10
77.9676784744317
 20
-138.3078368794855
 10
78.10737709635858
 20
-138.4749240105202
 10
78.10737709635858
 20
-138.4749240105202
 10
77.99523923831369
 20
-138.5741427604954
 10
77.99523923831369
 20
-138.5741427604954
 97
        0
 97
        0
 75
     2
 76
     1
 98
        0
  0
SPLINE
  5
100
330
FA
100
AcDbEntity
  8
_U+30EC_U+30A4_U+30E4_U+30FC 1
370
     0
100
AcDbSpline
210
0.0
220
0.0
230
1.0
 70
    11
 71
     3
 72
    83
 73
    79
 74
     0
 42
0.0000000001
 43
0.0000000001
 12
1.0
 22
0.0
 32
0.0
 13
1.0
 23
0.0
 33
0.0
 40
0.0
 40
0.0
 40
0.0
 40
0.0
 40
1.0
 40
1.0
 40
1.0
 40
2.0
 40
2.0
 40
2.0
 40
3.0
 40
3.0
 40
3.0
 40
4.0
 40
4.0
 40
4.0
 40
5.0
 40
5.0
 40
5.0
 40
6.0
 40
6.0
 40
6.0
 40
7.0
 40
7.0
 40
7.0
 40
8.0
 40
8.0
 40
8.0
 40
9.0
 40
9.0
 40
9.0
 40
10.0
 40
10.0
 40
10.0
 40
11.0
 40
11.0
 40
11.0
 40
12.0
 40
12.0
 40
12.0
 40
13.0
 40
13.0
 40
13.0
 40
14.0
 40
14.0
 40
14.0
 40
15.0
 40
15.0
 40
15.0
 40
16.0
 40
16.0
 40
16.0
 40
17.0
 40
17.0
 40
17.0
 40
18.0
 40
18.0
 40
18.0
 40
19.0
 40
19.0
 40
19.0
 40
20.0
 40
20.0
 40
20.0
 40
21.0
 40
21.0
 40
21.0
 40
22.0
 40
22.0
 40
22.0
 40
23.0
 40
23.0
 40
23.0
 40
24.0
 40
24.0
 40
24.0
 40
25.0
 40
25.0
 40
25.0
 40
26.0
 40
26.0
 40
26.0
 40
26.0
 10
80.16685517744092
 20
-138.4494303039293
 30
0.0
 10
79.97858070917202
 20
-138.3584797831187
 30
0.0
 10
79.80512015148969
 20
-138.1576307163286
 30
0.0
 10
79.74155813978683
 20
-138.0835611633958
 30
0.0
 10
79.67179495621053
 20
-138.1786457987887
 30
0.0
 10
79.58721786204764
 20
-138.2868217970255
 30
0.0
 10
79.39050290983988
 20
-138.4325493360516
 30
0.0
 10
79.39050290983988
 20
-138.4325493360516
 30
0.0
 10
79.24029674668299
 20
-138.3226507900721
 30
0.0
 10
79.24029674668299
 20
-138.3226507900721
 30
0.0
 10
79.24029674668299
 20
-138.3226507900721
 30
0.0
 10
79.24029674668299
 20
-138.5086859462756
 30
0.0
 10
79.24029674668299
 20
-138.5086859462756
 30
0.0
 10
79.24029674668299
 20
-138.5086859462756
 30
0.0
 10
79.02446151453208
 20
-138.5086859462756
 30
0.0
 10
79.02446151453208
 20
-138.5086859462756
 30
0.0
 10
79.03083494117979
 20
-138.4642442145159
 30
0.0
 10
79.04564885176637
 20
-138.0622015713872
 30
0.0
 10
79.04564885176637
 20
-138.0325737502141
 30
0.0
 10
78.9081895419049
 20
-138.0897623352692
 30
0.0
 10
78.49770641483738
 20
-138.2041395053795
 30
0.0
 10
78.4448241991388
 20
-138.2144747918353
 30
0.0
 10
78.43207734584337
 20
-138.2571939758524
 30
0.0
 10
78.42570391919566
 20
-138.2757974914727
 30
0.0
 10
78.40468883673563
 20
-138.2757974914727
 30
0.0
 10
78.38763561408365
 20
-138.2757974914727
 30
0.0
 10
78.3750610155625
 20
-138.2613280904347
 30
0.0
 10
78.36868758891478
 20
-138.2296332119704
 30
0.0
 10
78.36868758891478
 20
-138.2296332119704
 30
0.0
 10
78.32855222651162
 20
-138.0160372918849
 30
0.0
 10
78.32855222651162
 20
-138.0160372918849
 30
0.0
 10
78.3791951301448
 20
-138.0139702345937
 30
0.0
 10
78.51889375207166
 20
-137.9967447571675
 30
0.0
 10
78.55489499989253
 20
-137.9864094707117
 30
0.0
 10
78.55489499989253
 20
-137.9864094707117
 30
0.0
 10
78.55489499989253
 20
-136.8395371836721
 30
0.0
 10
78.55489499989253
 20
-136.8395371836721
 30
0.0
 10
78.54008108930596
 20
-136.8395371836721
 30
0.0
 10
78.38987492614906
 20
-136.846082865094
 30
0.0
 10
78.3538736783282
 20
-136.8522840369675
 30
0.0
 10
78.3538736783282
 20
-136.8522840369675
 30
0.0
 10
78.3538736783282
 20
-136.6555690847597
 30
0.0
 10
78.3538736783282
 20
-136.6555690847597
 30
0.0
 10
78.44275714184765
 20
-136.6641818234729
 30
0.0
 10
78.63309866740771
 20
-136.6807182818021
 30
0.0
 10
78.719915073636
 20
-136.6807182818021
 30
0.0
 10
78.719915073636
 20
-136.6807182818021
 30
0.0
 10
79.02446151453208
 20
-136.6807182818021
 30
0.0
 10
79.02446151453208
 20
-136.6807182818021
 30
0.0
 10
79.04564885176637
 20
-136.6807182818021
 30
0.0
 10
79.28043210908615
 20
-136.6703829953463
 30
0.0
 10
79.39256996713102
 20
-136.6600477088905
 30
0.0
 10
79.39256996713102
 20
-136.6600477088905
 30
0.0
 10
79.39256996713102
 20
-136.8164550439209
 30
0.0
 10
79.39256996713102
 20
-136.8164550439209
 30
0.0
 10
79.39256996713102
 20
-136.8164550439209
 30
0.0
 10
79.6273532244508
 20
-136.8164550439209
 30
0.0
 10
79.6273532244508
 20
-136.8164550439209
 30
0.0
 10
79.6273532244508
 20
-136.8164550439209
 30
0.0
 10
79.73742402520453
 20
-136.8164550439209
 30
0.0
 10
79.73742402520453
 20
-136.8164550439209
 30
0.0
 10
79.79667966755083
 20
-136.8164550439209
 30
0.0
 10
79.836815029954
 20
-136.8164550439209
 30
0.0
 10
80.02302244093175
 20
-136.8012966237858
 30
0.0
 10
80.02302244093175
 20
-136.8012966237858
 30
0.0
 10
80.1224134456812
 20
-136.8819118581406
 30
0.0
 10
80.1224134456812
 20
-136.8819118581406
 30
0.0
 10
80.11397296174235
 20
-137.1103216888127
 30
0.0
 10
80.09915905115577
 20
-137.2267659162141
 30
0.0
 10
80.02715655551405
 20
-137.4724012243124
 30
0.0
 10
79.96790091316775
 20
-137.6753173483937
 30
0.0
 10
79.9341389774123
 20
-137.7514539586177
 30
0.0
 10
79.84956188324942
 20
-137.9037271790658
 30
0.0
 10
79.94688583070773
 20
-138.0263725783406
 30
0.0
 10
80.10759953509464
 20
-138.2041395053795
 30
0.0
 10
80.31275497124126
 20
-138.2888888543167
 30
0.0
 10
80.31275497124126
 20
-138.2888888543167
 30
0.0
 10
80.16685517744092
 20
-138.4494303039293
 30
0.0
 10
80.16685517744092
 20
-138.4494303039293
 30
0.0
  0
POLYLINE
  5
101
330
FA
100
AcDbEntity
  8
_U+30EC_U+30A4_U+30E4_U+30FC 1
370
     0
100
AcDb2dPolyline
 66
     1
 10
0.0
 20
0.0
 30
0.0
  0
VERTEX
  5
102
330
101
100
AcDbEntity
  8
_U+30EC_U+30A4_U+30E4_U+30FC 1
370
     0
100
AcDbVertex
100
AcDb2dVertex
 10
79.04564885176637
 20
-136.8395371836721
 30
0.0
  0
VERTEX
  5
103
330
101
100
AcDbEntity
  8
_U+30EC_U+30A4_U+30E4_U+30FC 1
370
     0
100
AcDbVertex
100
AcDb2dVertex
 10
78.73472898422257
 20
-136.8395371836721
 30
0.0
  0
VERTEX
  5
104
330
101
100
AcDbEntity
  8
_U+30EC_U+30A4_U+30E4_U+30FC 1
370
     0
100
AcDbVertex
100
AcDb2dVertex
 10
78.73472898422257
 20
-137.0913736636438
 30
0.0
  0
VERTEX
  5
105
330
101
100
AcDbEntity
  8
_U+30EC_U+30A4_U+30E4_U+30FC 1
370
     0
100
AcDbVertex
100
AcDb2dVertex
 10
79.04564885176637
 20
-137.0913736636438
 30
0.0
  0
VERTEX
  5
106
330
101
100
AcDbEntity
  8
_U+30EC_U+30A4_U+30E4_U+30FC 1
370
     0
100
AcDbVertex
100
AcDb2dVertex
 10
79.04564885176637
 20
-136.8395371836721
 30
0.0
  0
SEQEND
  5
107
330
101
100
AcDbEntity
  8
_U+30EC_U+30A4_U+30E4_U+30FC 1
370
     0
  0
POLYLINE
  5
108
330
FA
100
AcDbEntity
  8
_U+30EC_U+30A4_U+30E4_U+30FC 1
370
     0
100
AcDb2dPolyline
 66
     1
 10
0.0
 20
0.0
 30
0.0
  0
VERTEX
  5
109
330
108
100
AcDbEntity
  8
_U+30EC_U+30A4_U+30E4_U+30FC 1
370
     0
100
AcDbVertex
100
AcDb2dVertex
 10
79.04564885176637
 20
-137.2543266800961
 30
0.0
  0
VERTEX
  5
10A
330
108
100
AcDbEntity
  8
_U+30EC_U+30A4_U+30E4_U+30FC 1
370
     0
100
AcDbVertex
100
AcDb2dVertex
 10
78.73472898422257
 20
-137.2543266800961
 30
0.0
  0
VERTEX
  5
10B
330
108
100
AcDbEntity
  8
_U+30EC_U+30A4_U+30E4_U+30FC 1
370
     0
100
AcDbVertex
100
AcDb2dVertex
 10
78.73472898422257
 20
-137.5123643319414
 30
0.0
  0
VERTEX
  5
10C
330
108
100
AcDbEntity
  8
_U+30EC_U+30A4_U+30E4_U+30FC 1
370
     0
100
AcDbVertex
100
AcDb2dVertex
 10
79.04564885176637
 20
-137.5123643319414
 30
0.0
  0
VERTEX
  5
10D
330
108
100
AcDbEntity
  8
_U+30EC_U+30A4_U+30E4_U+30FC 1
370
     0
100
AcDbVertex
100
AcDb2dVertex
 10
79.04564885176637
 20
-137.2543266800961
 30
0.0
  0
SEQEND
  5
10E
330
108
100
AcDbEntity
  8
_U+30EC_U+30A4_U+30E4_U+30FC 1
370
     0
  0
SPLINE
  5
10F
330
FA
100
AcDbEntity
  8
_U+30EC_U+30A4_U+30E4_U+30FC 1
370
     0
100
AcDbSpline
210
0.0
220
0.0
230
1.0
 70
    11
 71
     3
 72
    17
 73
    13
 74
     0
 42
0.0000000001
 43
0.0000000001
 12
1.0
 22
0.0
 32
0.0
 13
1.0
 23
0.0
 33
0.0
 40
0.0
 40
0.0
 40
0.0
 40
0.0
 40
1.0
 40
1.0
 40
1.0
 40
2.0
 40
2.0
 40
2.0
 40
3.0
 40
3.0
 40
3.0
 40
4.0
 40
4.0
 40
4.0
 40
4.0
 10
79.04564885176637
 20
-137.672905781554
 30
0.0
 10
79.04564885176637
 20
-137.672905781554
 30
0.0
 10
78.73472898422257
 20
-137.672905781554
 30
0.0
 10
78.73472898422257
 20
-137.672905781554
 30
0.0
 10
78.73472898422257
 20
-137.672905781554
 30
0.0
 10
78.73472898422257
 20
-137.9461018535343
 30
0.0
 10
78.73472898422257
 20
-137.9461018535343
 30
0.0
 10
78.79605168386001
 20
-137.9395561721123
 30
0.0
 10
78.97588566819006
 20
-137.8995930644834
 30
0.0
 10
79.04564885176637
 20
-137.8844346443483
 30
0.0
 10
79.04564885176637
 20
-137.8844346443483
 30
0.0
 10
79.04564885176637
 20
-137.672905781554
 30
0.0
 10
79.04564885176637
 20
-137.672905781554
 30
0.0
  0
SPLINE
  5
110
330
FA
100
AcDbEntity
  8
_U+30EC_U+30A4_U+30E4_U+30FC 1
370
     0
100
AcDbSpline
210
0.0
220
0.0
230
1.0
 70
    11
 71
     3
 72
    44
 73
    40
 74
     0
 42
0.0000000001
 43
0.0000000001
 12
1.0
 22
0.0
 32
0.0
 13
1.0
 23
0.0
 33
0.0
 40
0.0
 40
0.0
 40
0.0
 40
0.0
 40
1.0
 40
1.0
 40
1.0
 40
2.0
 40
2.0
 40
2.0
 40
3.0
 40
3.0
 40
3.0
 40
4.0
 40
4.0
 40
4.0
 40
5.0
 40
5.0
 40
5.0
 40
6.0
 40
6.0
 40
6.0
 40
7.0
 40
7.0
 40
7.0
 40
8.0
 40
8.0
 40
8.0
 40
9.0
 40
9.0
 40
9.0
 40
10.0
 40
10.0
 40
10.0
 40
11.0
 40
11.0
 40
11.0
 40
12.0
 40
12.0
 40
12.0
 40
13.0
 40
13.0
 40
13.0
 40
13.0
 10
79.55552298358334
 20
-136.9942219709598
 30
0.0
 10
79.51108125182363
 20
-136.9942219709598
 30
0.0
 10
79.35019529266245
 20
-136.9983560855421
 30
0.0
 10
79.30799287296814
 20
-137.0004231428332
 30
0.0
 10
79.30799287296814
 20
-137.0004231428332
 30
0.0
 10
79.30799287296814
 20
-136.8419487505117
 30
0.0
 10
79.30799287296814
 20
-136.8419487505117
 30
0.0
 10
79.29317896238157
 20
-136.8419487505117
 30
0.0
 10
79.288872593025
 20
-136.8419487505117
 30
0.0
 10
79.23392332003527
 20
-136.8395371836721
 30
0.0
 10
79.23392332003527
 20
-136.8395371836721
 30
0.0
 10
79.23392332003527
 20
-137.707012226858
 30
0.0
 10
79.23392332003527
 20
-137.707012226858
 30
0.0
 10
79.23392332003527
 20
-137.707012226858
 30
0.0
 10
79.23392332003527
 20
-137.7704019837866
 30
0.0
 10
79.23392332003527
 20
-137.7704019837866
 30
0.0
 10
79.23392332003527
 20
-137.7704019837866
 30
0.0
 10
79.23805743461757
 20
-138.0918293925604
 30
0.0
 10
79.23805743461757
 20
-138.0918293925604
 30
0.0
 10
79.23805743461757
 20
-138.0918293925604
 30
0.0
 10
79.23805743461757
 20
-138.2675292623081
 30
0.0
 10
79.23805743461757
 20
-138.2675292623081
 30
0.0
 10
79.25511065726955
 20
-138.2592610331435
 30
0.0
 10
79.45389266676848
 20
-138.1596977736198
 30
0.0
 10
79.61891274051195
 20
-137.9185410896523
 30
0.0
 10
79.45182560947732
 20
-137.658436380516
 30
0.0
 10
79.38619654048331
 20
-137.4593098614685
 30
0.0
 10
79.32487384084587
 20
-137.0975748355173
 30
0.0
 10
79.32487384084587
 20
-137.0975748355173
 30
0.0
 10
79.50040145581934
 20
-137.0341850785887
 30
0.0
 10
79.50040145581934
 20
-137.0341850785887
 30
0.0
 10
79.53846976093136
 20
-137.2774088198473
 30
0.0
 10
79.60616588721652
 20
-137.5144313892325
 30
0.0
 10
79.73105059855682
 20
-137.728027309318
 30
0.0
 10
79.85593530989713
 20
-137.4699896574728
 30
0.0
 10
79.90657821353031
 20
-137.1654432165767
 30
0.0
 10
79.91932506682573
 20
-136.9942219709598
 30
0.0
 10
79.91932506682573
 20
-136.9942219709598
 30
0.0
 10
79.55552298358334
 20
-136.9942219709598
 30
0.0
 10
79.55552298358334
 20
-136.9942219709598
 30
0.0
  0
HATCH
  5
111
330
FA
100
AcDbEntity
  8
_U+30EC_U+30A4_U+30E4_U+30FC 1
 62
   179
420
  2234388
100
AcDbHatch
 10
0.0
 20
0.0
 30
0.0
210
0.0
220
0.0
230
1.0
  2
SOLID
 70
     1
 71
     0
 91
        5
 92
        1
 93
        1
 72
     4
 94
        3
 73
     0
 74
     1
 95
       83
 96
       79
 40
0.0
 40
0.0
 40
0.0
 40
0.0
 40
1.0
 40
1.0
 40
1.0
 40
2.0
 40
2.0
 40
2.0
 40
3.0
 40
3.0
 40
3.0
 40
4.0
 40
4.0
 40
4.0
 40
5.0
 40
5.0
 40
5.0
 40
6.0
 40
6.0
 40
6.0
 40
7.0
 40
7.0
 40
7.0
 40
8.0
 40
8.0
 40
8.0
 40
9.0
 40
9.0
 40
9.0
 40
10.0
 40
10.0
 40
10.0
 40
11.0
 40
11.0
 40
11.0
 40
12.0
 40
12.0
 40
12.0
 40
13.0
 40
13.0
 40
13.0
 40
14.0
 40
14.0
 40
14.0
 40
15.0
 40
15.0
 40
15.0
 40
16.0
 40
16.0
 40
16.0
 40
17.0
 40
17.0
 40
17.0
 40
18.0
 40
18.0
 40
18.0
 40
19.0
 40
19.0
 40
19.0
 40
20.0
 40
20.0
 40
20.0
 40
21.0
 40
21.0
 40
21.0
 40
22.0
 40
22.0
 40
22.0
 40
23.0
 40
23.0
 40
23.0
 40
24.0
 40
24.0
 40
24.0
 40
25.0
 40
25.0
 40
25.0
 40
26.0
 40
26.0
 40
26.0
 40
26.0
 10
80.16685517744092
 20
-138.4494303039293
 10
79.97858070917202
 20
-138.3584797831187
 10
79.80512015148969
 20
-138.1576307163286
 10
79.74155813978683
 20
-138.0835611633958
 10
79.67179495621053
 20
-138.1786457987887
 10
79.58721786204764
 20
-138.2868217970255
 10
79.39050290983988
 20
-138.4325493360516
 10
79.39050290983988
 20
-138.4325493360516
 10
79.24029674668299
 20
-138.3226507900721
 10
79.24029674668299
 20
-138.3226507900721
 10
79.24029674668299
 20
-138.3226507900721
 10
79.24029674668299
 20
-138.5086859462756
 10
79.24029674668299
 20
-138.5086859462756
 10
79.24029674668299
 20
-138.5086859462756
 10
79.02446151453208
 20
-138.5086859462756
 10
79.02446151453208
 20
-138.5086859462756
 10
79.03083494117979
 20
-138.4642442145159
 10
79.04564885176637
 20
-138.0622015713872
 10
79.04564885176637
 20
-138.0325737502141
 10
78.9081895419049
 20
-138.0897623352692
 10
78.49770641483738
 20
-138.2041395053795
 10
78.4448241991388
 20
-138.2144747918353
 10
78.43207734584337
 20
-138.2571939758524
 10
78.42570391919566
 20
-138.2757974914727
 10
78.40468883673563
 20
-138.2757974914727
 10
78.38763561408365
 20
-138.2757974914727
 10
78.3750610155625
 20
-138.2613280904347
 10
78.36868758891478
 20
-138.2296332119704
 10
78.36868758891478
 20
-138.2296332119704
 10
78.32855222651162
 20
-138.0160372918849
 10
78.32855222651162
 20
-138.0160372918849
 10
78.3791951301448
 20
-138.0139702345937
 10
78.51889375207166
 20
-137.9967447571675
 10
78.55489499989253
 20
-137.9864094707117
 10
78.55489499989253
 20
-137.9864094707117
 10
78.55489499989253
 20
-136.8395371836721
 10
78.55489499989253
 20
-136.8395371836721
 10
78.54008108930596
 20
-136.8395371836721
 10
78.38987492614906
 20
-136.846082865094
 10
78.3538736783282
 20
-136.8522840369675
 10
78.3538736783282
 20
-136.8522840369675
 10
78.3538736783282
 20
-136.6555690847597
 10
78.3538736783282
 20
-136.6555690847597
 10
78.44275714184765
 20
-136.6641818234729
 10
78.63309866740771
 20
-136.6807182818021
 10
78.719915073636
 20
-136.6807182818021
 10
78.719915073636
 20
-136.6807182818021
 10
79.02446151453208
 20
-136.6807182818021
 10
79.02446151453208
 20
-136.6807182818021
 10
79.04564885176637
 20
-136.6807182818021
 10
79.28043210908615
 20
-136.6703829953463
 10
79.39256996713102
 20
-136.6600477088905
 10
79.39256996713102
 20
-136.6600477088905
 10
79.39256996713102
 20
-136.8164550439209
 10
79.39256996713102
 20
-136.8164550439209
 10
79.39256996713102
 20
-136.8164550439209
 10
79.6273532244508
 20
-136.8164550439209
 10
79.6273532244508
 20
-136.8164550439209
 10
79.6273532244508
 20
-136.8164550439209
 10
79.73742402520453
 20
-136.8164550439209
 10
79.73742402520453
 20
-136.8164550439209
 10
79.79667966755083
 20
-136.8164550439209
 10
79.836815029954
 20
-136.8164550439209
 10
80.02302244093175
 20
-136.8012966237858
 10
80.02302244093175
 20
-136.8012966237858
 10
80.1224134456812
 20
-136.8819118581406
 10
80.1224134456812
 20
-136.8819118581406
 10
80.11397296174235
 20
-137.1103216888127
 10
80.09915905115577
 20
-137.2267659162141
 10
80.02715655551405
 20
-137.4724012243124
 10
79.96790091316775
 20
-137.6753173483937
 10
79.9341389774123
 20
-137.7514539586177
 10
79.84956188324942
 20
-137.9037271790658
 10
79.94688583070773
 20
-138.0263725783406
 10
80.10759953509464
 20
-138.2041395053795
 10
80.31275497124126
 20
-138.2888888543167
 10
80.31275497124126
 20
-138.2888888543167
 10
80.16685517744092
 20
-138.4494303039293
 10
80.16685517744092
 20
-138.4494303039293
 97
        0
 97
        0
 92
        1
 93
        4
 72
     1
 10
79.04564885176637
 20
-136.8395371836721
 11
78.73472898422257
 21
-136.8395371836721
 72
     1
 10
78.73472898422257
 20
-136.8395371836721
 11
78.73472898422257
 21
-137.0913736636438
 72
     1
 10
78.73472898422257
 20
-137.0913736636438
 11
79.04564885176637
 21
-137.0913736636438
 72
     1
 10
79.04564885176637
 20
-137.0913736636438
 11
79.04564885176637
 21
-136.8395371836721
 97
        0
 92
        1
 93
        4
 72
     1
 10
79.04564885176637
 20
-137.2543266800961
 11
78.73472898422257
 21
-137.2543266800961
 72
     1
 10
78.73472898422257
 20
-137.2543266800961
 11
78.73472898422257
 21
-137.5123643319414
 72
     1
 10
78.73472898422257
 20
-137.5123643319414
 11
79.04564885176637
 21
-137.5123643319414
 72
     1
 10
79.04564885176637
 20
-137.5123643319414
 11
79.04564885176637
 21
-137.2543266800961
 97
        0
 92
        1
 93
        1
 72
     4
 94
        3
 73
     0
 74
     1
 95
       17
 96
       13
 40
0.0
 40
0.0
 40
0.0
 40
0.0
 40
1.0
 40
1.0
 40
1.0
 40
2.0
 40
2.0
 40
2.0
 40
3.0
 40
3.0
 40
3.0
 40
4.0
 40
4.0
 40
4.0
 40
4.0
 10
79.04564885176637
 20
-137.672905781554
 10
79.04564885176637
 20
-137.672905781554
 10
78.73472898422257
 20
-137.672905781554
 10
78.73472898422257
 20
-137.672905781554
 10
78.73472898422257
 20
-137.672905781554
 10
78.73472898422257
 20
-137.9461018535343
 10
78.73472898422257
 20
-137.9461018535343
 10
78.79605168386001
 20
-137.9395561721123
 10
78.97588566819006
 20
-137.8995930644834
 10
79.04564885176637
 20
-137.8844346443483
 10
79.04564885176637
 20
-137.8844346443483
 10
79.04564885176637
 20
-137.672905781554
 10
79.04564885176637
 20
-137.672905781554
 97
        0
 97
        0
 92
        1
 93
        1
 72
     4
 94
        3
 73
     0
 74
     1
 95
       44
 96
       40
 40
0.0
 40
0.0
 40
0.0
 40
0.0
 40
1.0
 40
1.0
 40
1.0
 40
2.0
 40
2.0
 40
2.0
 40
3.0
 40
3.0
 40
3.0
 40
4.0
 40
4.0
 40
4.0
 40
5.0
 40
5.0
 40
5.0
 40
6.0
 40
6.0
 40
6.0
 40
7.0
 40
7.0
 40
7.0
 40
8.0
 40
8.0
 40
8.0
 40
9.0
 40
9.0
 40
9.0
 40
10.0
 40
10.0
 40
10.0
 40
11.0
 40
11.0
 40
11.0
 40
12.0
 40
12.0
 40
12.0
 40
13.0
 40
13.0
 40
13.0
 40
13.0
 10
79.55552298358334
 20
-136.9942219709598
 10
79.51108125182363
 20
-136.9942219709598
 10
79.35019529266245
 20
-136.9983560855421
 10
79.30799287296814
 20
-137.0004231428332
 10
79.30799287296814
 20
-137.0004231428332
 10
79.30799287296814
 20
-136.8419487505117
 10
79.30799287296814
 20
-136.8419487505117
 10
79.29317896238157
 20
-136.8419487505117
 10
79.288872593025
 20
-136.8419487505117
 10
79.23392332003527
 20
-136.8395371836721
 10
79.23392332003527
 20
-136.8395371836721
 10
79.23392332003527
 20
-137.707012226858
 10
79.23392332003527
 20
-137.707012226858
 10
79.23392332003527
 20
-137.707012226858
 10
79.23392332003527
 20
-137.7704019837866
 10
79.23392332003527
 20
-137.7704019837866
 10
79.23392332003527
 20
-137.7704019837866
 10
79.23805743461757
 20
-138.0918293925604
 10
79.23805743461757
 20
-138.0918293925604
 10
79.23805743461757
 20
-138.0918293925604
 10
79.23805743461757
 20
-138.2675292623081
 10
79.23805743461757
 20
-138.2675292623081
 10
79.25511065726955
 20
-138.2592610331435
 10
79.45389266676848
 20
-138.1596977736198
 10
79.61891274051195
 20
-137.9185410896523
 10
79.45182560947732
 20
-137.658436380516
 10
79.38619654048331
 20
-137.4593098614685
 10
79.32487384084587
 20
-137.0975748355173
 10
79.32487384084587
 20
-137.0975748355173
 10
79.50040145581934
 20
-137.0341850785887
 10
79.50040145581934
 20
-137.0341850785887
 10
79.53846976093136
 20
-137.2774088198473
 10
79.60616588721652
 20
-137.5144313892325
 10
79.73105059855682
 20
-137.728027309318
 10
79.85593530989713
 20
-137.4699896574728
 10
79.90657821353031
 20
-137.1654432165767
 10
79.91932506682573
 20
-136.9942219709598
 10
79.91932506682573
 20
-136.9942219709598
 10
79.55552298358334
 20
-136.9942219709598
 10
79.55552298358334
 20
-136.9942219709598
 97
        0
 97
        0
 75
     2
 76
     1
 98
        0
  0
SPLINE
  5
112
330
FA
100
AcDbEntity
  8
_U+30EC_U+30A4_U+30E4_U+30FC 1
370
     0
100
AcDbSpline
210
0.0
220
0.0
230
1.0
 70
    11
 71
     3
 72
    53
 73
    49
 74
     0
 42
0.0000000001
 43
0.0000000001
 12
1.0
 22
0.0
 32
0.0
 13
1.0
 23
0.0
 33
0.0
 40
0.0
 40
0.0
 40
0.0
 40
0.0
 40
1.0
 40
1.0
 40
1.0
 40
2.0
 40
2.0
 40
2.0
 40
3.0
 40
3.0
 40
3.0
 40
4.0
 40
4.0
 40
4.0
 40
5.0
 40
5.0
 40
5.0
 40
6.0
 40
6.0
 40
6.0
 40
7.0
 40
7.0
 40
7.0
 40
8.0
 40
8.0
 40
8.0
 40
9.0
 40
9.0
 40
9.0
 40
10.0
 40
10.0
 40
10.0
 40
11.0
 40
11.0
 40
11.0
 40
12.0
 40
12.0
 40
12.0
 40
13.0
 40
13.0
 40
13.0
 40
14.0
 40
14.0
 40
14.0
 40
15.0
 40
15.0
 40
15.0
 40
16.0
 40
16.0
 40
16.0
 40
16.0
 10
81.08187253832328
 20
-136.7740803694523
 30
0.0
 10
81.01417641203813
 20
-136.9263535899004
 30
0.0
 10
80.97197399234382
 20
-137.0045572574155
 30
0.0
 10
80.93373343245754
 20
-137.0720811289264
 30
0.0
 10
80.97610810692612
 20
-137.093440720935
 30
0.0
 10
80.98041447628268
 20
-137.0955077782261
 30
0.0
 10
80.98041447628268
 20
-137.1103216888127
 30
0.0
 10
80.98041447628268
 20
-137.1230685421081
 30
0.0
 10
80.94648028575297
 20
-137.1568304778636
 30
0.0
 10
80.93597274452296
 20
-137.1654432165767
 30
0.0
 10
80.93373343245754
 20
-137.3621581687845
 30
0.0
 10
80.93373343245754
 20
-137.383517760793
 30
0.0
 10
80.93373343245754
 20
-137.5164984465237
 30
0.0
 10
80.93166637516639
 20
-137.5292452998191
 30
0.0
 10
80.93166637516639
 20
-137.5440592104057
 30
0.0
 10
80.93166637516639
 20
-137.5588731209922
 30
0.0
 10
80.93166637516639
 20
-137.5588731209922
 30
0.0
 10
80.93166637516639
 20
-138.0938964498515
 30
0.0
 10
80.93166637516639
 20
-138.0938964498515
 30
0.0
 10
80.93166637516639
 20
-138.1662434550418
 30
0.0
 10
80.93597274452296
 20
-138.4008544575873
 30
0.0
 10
80.94441322846181
 20
-138.5107530035668
 30
0.0
 10
80.94441322846181
 20
-138.5107530035668
 30
0.0
 10
80.70118948720318
 20
-138.5107530035668
 30
0.0
 10
80.70118948720318
 20
-138.5107530035668
 30
0.0
 10
80.72444388172862
 20
-138.3522786112453
 30
0.0
 10
80.73064505360206
 20
-138.1111219272778
 30
0.0
 10
80.73064505360206
 20
-138.0897623352692
 30
0.0
 10
80.73064505360206
 20
-138.0897623352692
 30
0.0
 10
80.73064505360206
 20
-137.3724934552402
 30
0.0
 10
80.73064505360206
 20
-137.3724934552402
 30
0.0
 10
80.63969453279147
 20
-137.4868706253505
 30
0.0
 10
80.57837183315402
 20
-137.5461262676968
 30
0.0
 10
80.53616941345972
 20
-137.5885009421654
 30
0.0
 10
80.53616941345972
 20
-137.5885009421654
 30
0.0
 10
80.34565563312539
 20
-137.4510416323039
 30
0.0
 10
80.34565563312539
 20
-137.4510416323039
 30
0.0
 10
80.62711993427031
 20
-137.2353786549273
 30
0.0
 10
80.81952851712151
 20
-136.9263535899004
 30
0.0
 10
80.93166637516639
 20
-136.5897677609915
 30
0.0
 10
80.93166637516639
 20
-136.5897677609915
 30
0.0
 10
81.1516357218996
 20
-136.7041449311018
 30
0.0
 10
81.1516357218996
 20
-136.7041449311018
 30
0.0
 10
81.16438257519502
 20
-136.7103461029752
 30
0.0
 10
81.17282305913388
 20
-136.714824727106
 30
0.0
 10
81.17282305913388
 20
-136.7296386376926
 30
0.0
 10
81.17282305913388
 20
-136.7551323442835
 30
0.0
 10
81.15594209125615
 20
-136.7592664588657
 30
0.0
 10
81.08187253832328
 20
-136.7740803694523
 30
0.0
  0
SPLINE
  5
113
330
FA
100
AcDbEntity
  8
_U+30EC_U+30A4_U+30E4_U+30FC 1
370
     0
100
AcDbSpline
210
0.0
220
0.0
230
1.0
 70
    11
 71
     3
 72
    77
 73
    73
 74
     0
 42
0.0000000001
 43
0.0000000001
 12
1.0
 22
0.0
 32
0.0
 13
1.0
 23
0.0
 33
0.0
 40
0.0
 40
0.0
 40
0.0
 40
0.0
 40
1.0
 40
1.0
 40
1.0
 40
2.0
 40
2.0
 40
2.0
 40
3.0
 40
3.0
 40
3.0
 40
4.0
 40
4.0
 40
4.0
 40
5.0
 40
5.0
 40
5.0
 40
6.0
 40
6.0
 40
6.0
 40
7.0
 40
7.0
 40
7.0
 40
8.0
 40
8.0
 40
8.0
 40
9.0
 40
9.0
 40
9.0
 40
10.0
 40
10.0
 40
10.0
 40
11.0
 40
11.0
 40
11.0
 40
12.0
 40
12.0
 40
12.0
 40
13.0
 40
13.0
 40
13.0
 40
14.0
 40
14.0
 40
14.0
 40
15.0
 40
15.0
 40
15.0
 40
16.0
 40
16.0
 40
16.0
 40
17.0
 40
17.0
 40
17.0
 40
18.0
 40
18.0
 40
18.0
 40
19.0
 40
19.0
 40
19.0
 40
20.0
 40
20.0
 40
20.0
 40
21.0
 40
21.0
 40
21.0
 40
22.0
 40
22.0
 40
22.0
 40
23.0
 40
23.0
 40
23.0
 40
24.0
 40
24.0
 40
24.0
 40
24.0
 10
82.232706685171
 20
-137.273274705265
 30
0.0
 10
82.16294350159468
 20
-137.2691405906827
 30
0.0
 10
82.09524737530953
 20
-137.2691405906827
 30
0.0
 10
82.02755124902437
 20
-137.2691405906827
 30
0.0
 10
82.02755124902437
 20
-137.2691405906827
 30
0.0
 10
82.02755124902437
 20
-138.0435980557669
 30
0.0
 10
82.02755124902437
 20
-138.0435980557669
 30
0.0
 10
82.02755124902437
 20
-138.3078368794855
 30
0.0
 10
82.02548419173321
 20
-138.3374647006587
 30
0.0
 10
82.0191107650855
 20
-138.3670925218318
 30
0.0
 10
81.9851765745558
 20
-138.500417717111
 30
0.0
 10
81.88371851251519
 20
-138.5086859462756
 30
0.0
 10
81.70801864276744
 20
-138.5086859462756
 30
0.0
 10
81.66788328036428
 20
-138.5086859462756
 30
0.0
 10
81.65100231248655
 20
-138.5086859462756
 30
0.0
 10
81.61069469530914
 20
-138.5045518316933
 30
0.0
 10
81.61069469530914
 20
-138.5045518316933
 30
0.0
 10
81.48598223874309
 20
-138.2633951477258
 30
0.0
 10
81.48598223874309
 20
-138.2633951477258
 30
0.0
 10
81.60225421137028
 20
-138.2950900261901
 30
0.0
 10
81.684764248242
 20
-138.2950900261901
 30
0.0
 10
81.70801864276744
 20
-138.2950900261901
 30
0.0
 10
81.77795408111801
 20
-138.2950900261901
 30
0.0
 10
81.81171601687346
 20
-138.2782090583124
 30
0.0
 10
81.81602238623003
 20
-138.2210204732573
 30
0.0
 10
81.81602238623003
 20
-138.2082736199618
 30
0.0
 10
81.81808944352117
 20
-138.1111219272778
 30
0.0
 10
81.81808944352117
 20
-138.0539333422226
 30
0.0
 10
81.81808944352117
 20
-138.0539333422226
 30
0.0
 10
81.81808944352117
 20
-137.2670735333916
 30
0.0
 10
81.81808944352117
 20
-137.2670735333916
 30
0.0
 10
81.81808944352117
 20
-137.2670735333916
 30
0.0
 10
81.5240505438551
 20
-137.2670735333916
 30
0.0
 10
81.5240505438551
 20
-137.2670735333916
 30
0.0
 10
81.37815075005477
 20
-137.2670735333916
 30
0.0
 10
81.23207870148018
 20
-137.273274705265
 30
0.0
 10
81.088245964971
 20
-137.2860215585604
 30
0.0
 10
81.088245964971
 20
-137.2860215585604
 30
0.0
 10
81.088245964971
 20
-137.0786268103484
 30
0.0
 10
81.088245964971
 20
-137.0786268103484
 30
0.0
 10
81.23845212812789
 20
-137.0913736636438
 30
0.0
 10
81.45635441756994
 20
-137.0955077782261
 30
0.0
 10
81.5240505438551
 20
-137.0955077782261
 30
0.0
 10
81.5240505438551
 20
-137.0955077782261
 30
0.0
 10
81.81808944352117
 20
-137.0955077782261
 30
0.0
 10
81.81808944352117
 20
-137.0955077782261
 30
0.0
 10
81.81602238623003
 20
-136.8267903303766
 30
0.0
 10
81.81602238623003
 20
-136.7509982297011
 30
0.0
 10
81.80758190229116
 20
-136.6028591238354
 30
0.0
 10
81.80758190229116
 20
-136.6028591238354
 30
0.0
 10
82.06561955413638
 20
-136.6407551741731
 30
0.0
 10
82.06561955413638
 20
-136.6407551741731
 30
0.0
 10
82.08043346472294
 20
-136.6428222314643
 30
0.0
 10
82.09524737530953
 20
-136.6490234033377
 30
0.0
 10
82.09524737530953
 20
-136.6703829953463
 30
0.0
 10
82.09524737530953
 20
-136.6896755300637
 30
0.0
 10
82.08887394866181
 20
-136.6917425873548
 30
0.0
 10
82.03168536360667
 20
-136.7255045231103
 30
0.0
 10
82.02755124902437
 20
-136.8037081906255
 30
0.0
 10
82.02755124902437
 20
-136.818522101212
 30
0.0
 10
82.02755124902437
 20
-137.0955077782261
 30
0.0
 10
82.20531817606326
 20
-137.0913736636438
 30
0.0
 10
82.22426620123213
 20
-137.0913736636438
 30
0.0
 10
82.25820039176185
 20
-137.0872395490615
 30
0.0
 10
82.30884329539502
 20
-137.0831054344792
 30
0.0
 10
82.31314966475158
 20
-137.0810383771881
 30
0.0
 10
82.3575913965113
 20
-137.0786268103484
 30
0.0
 10
82.3575913965113
 20
-137.0786268103484
 30
0.0
 10
82.3575913965113
 20
-137.2860215585604
 30
0.0
 10
82.3575913965113
 20
-137.2860215585604
 30
0.0
 10
82.32796357533815
 20
-137.2839545012693
 30
0.0
 10
82.27284204757416
 20
-137.2753417625562
 30
0.0
 10
82.232706685171
 20
-137.273274705265
 30
0.0
  0
SPLINE
  5
114
330
FA
100
AcDbEntity
  8
_U+30EC_U+30A4_U+30E4_U+30FC 1
370
     0
100
AcDbSpline
210
0.0
220
0.0
230
1.0
 70
    11
 71
     3
 72
    20
 73
    16
 74
     0
 42
0.0000000001
 43
0.0000000001
 12
1.0
 22
0.0
 32
0.0
 13
1.0
 23
0.0
 33
0.0
 40
0.0
 40
0.0
 40
0.0
 40
0.0
 40
1.0
 40
1.0
 40
1.0
 40
2.0
 40
2.0
 40
2.0
 40
3.0
 40
3.0
 40
3.0
 40
4.0
 40
4.0
 40
4.0
 40
5.0
 40
5.0
 40
5.0
 40
5.0
 10
81.46272784421765
 20
-137.9988118144586
 30
0.0
 10
81.41621905516678
 20
-137.8210448874197
 30
0.0
 10
81.31889510770847
 20
-137.679451462976
 30
0.0
 10
81.17919648578159
 20
-137.5695529169965
 30
0.0
 10
81.17919648578159
 20
-137.5695529169965
 30
0.0
 10
81.3399101901685
 20
-137.4551757468862
 30
0.0
 10
81.3399101901685
 20
-137.4551757468862
 30
0.0
 10
81.40140514458021
 20
-137.4975504213548
 30
0.0
 10
81.44154050698337
 20
-137.5313123571102
 30
0.0
 10
81.51767711720738
 20
-137.6391438457985
 30
0.0
 10
81.59812009678798
 20
-137.7555880732
 30
0.0
 10
81.61930743402226
 20
-137.8086425436728
 30
0.0
 10
81.64462888583884
 20
-137.8740993578926
 30
0.0
 10
81.64462888583884
 20
-137.8740993578926
 30
0.0
 10
81.46272784421765
 20
-137.9988118144586
 30
0.0
 10
81.46272784421765
 20
-137.9988118144586
 30
0.0
  0
HATCH
  5
115
330
FA
100
AcDbEntity
  8
_U+30EC_U+30A4_U+30E4_U+30FC 1
 62
   179
420
  2234388
100
AcDbHatch
 10
0.0
 20
0.0
 30
0.0
210
0.0
220
0.0
230
1.0
  2
SOLID
 70
     1
 71
     0
 91
        3
 92
        1
 93
        1
 72
     4
 94
        3
 73
     0
 74
     1
 95
       53
 96
       49
 40
0.0
 40
0.0
 40
0.0
 40
0.0
 40
1.0
 40
1.0
 40
1.0
 40
2.0
 40
2.0
 40
2.0
 40
3.0
 40
3.0
 40
3.0
 40
4.0
 40
4.0
 40
4.0
 40
5.0
 40
5.0
 40
5.0
 40
6.0
 40
6.0
 40
6.0
 40
7.0
 40
7.0
 40
7.0
 40
8.0
 40
8.0
 40
8.0
 40
9.0
 40
9.0
 40
9.0
 40
10.0
 40
10.0
 40
10.0
 40
11.0
 40
11.0
 40
11.0
 40
12.0
 40
12.0
 40
12.0
 40
13.0
 40
13.0
 40
13.0
 40
14.0
 40
14.0
 40
14.0
 40
15.0
 40
15.0
 40
15.0
 40
16.0
 40
16.0
 40
16.0
 40
16.0
 10
81.08187253832328
 20
-136.7740803694523
 10
81.01417641203813
 20
-136.9263535899004
 10
80.97197399234382
 20
-137.0045572574155
 10
80.93373343245754
 20
-137.0720811289264
 10
80.97610810692612
 20
-137.093440720935
 10
80.98041447628268
 20
-137.0955077782261
 10
80.98041447628268
 20
-137.1103216888127
 10
80.98041447628268
 20
-137.1230685421081
 10
80.94648028575297
 20
-137.1568304778636
 10
80.93597274452296
 20
-137.1654432165767
 10
80.93373343245754
 20
-137.3621581687845
 10
80.93373343245754
 20
-137.383517760793
 10
80.93373343245754
 20
-137.5164984465237
 10
80.93166637516639
 20
-137.5292452998191
 10
80.93166637516639
 20
-137.5440592104057
 10
80.93166637516639
 20
-137.5588731209922
 10
80.93166637516639
 20
-137.5588731209922
 10
80.93166637516639
 20
-138.0938964498515
 10
80.93166637516639
 20
-138.0938964498515
 10
80.93166637516639
 20
-138.1662434550418
 10
80.93597274452296
 20
-138.4008544575873
 10
80.94441322846181
 20
-138.5107530035668
 10
80.94441322846181
 20
-138.5107530035668
 10
80.70118948720318
 20
-138.5107530035668
 10
80.70118948720318
 20
-138.5107530035668
 10
80.72444388172862
 20
-138.3522786112453
 10
80.73064505360206
 20
-138.1111219272778
 10
80.73064505360206
 20
-138.0897623352692
 10
80.73064505360206
 20
-138.0897623352692
 10
80.73064505360206
 20
-137.3724934552402
 10
80.73064505360206
 20
-137.3724934552402
 10
80.63969453279147
 20
-137.4868706253505
 10
80.57837183315402
 20
-137.5461262676968
 10
80.53616941345972
 20
-137.5885009421654
 10
80.53616941345972
 20
-137.5885009421654
 10
80.34565563312539
 20
-137.4510416323039
 10
80.34565563312539
 20
-137.4510416323039
 10
80.62711993427031
 20
-137.2353786549273
 10
80.81952851712151
 20
-136.9263535899004
 10
80.93166637516639
 20
-136.5897677609915
 10
80.93166637516639
 20
-136.5897677609915
 10
81.1516357218996
 20
-136.7041449311018
 10
81.1516357218996
 20
-136.7041449311018
 10
81.16438257519502
 20
-136.7103461029752
 10
81.17282305913388
 20
-136.714824727106
 10
81.17282305913388
 20
-136.7296386376926
 10
81.17282305913388
 20
-136.7551323442835
 10
81.15594209125615
 20
-136.7592664588657
 10
81.08187253832328
 20
-136.7740803694523
 97
        0
 97
        0
 92
        1
 93
        1
 72
     4
 94
        3
 73
     0
 74
     1
 95
       77
 96
       73
 40
0.0
 40
0.0
 40
0.0
 40
0.0
 40
1.0
 40
1.0
 40
1.0
 40
2.0
 40
2.0
 40
2.0
 40
3.0
 40
3.0
 40
3.0
 40
4.0
 40
4.0
 40
4.0
 40
5.0
 40
5.0
 40
5.0
 40
6.0
 40
6.0
 40
6.0
 40
7.0
 40
7.0
 40
7.0
 40
8.0
 40
8.0
 40
8.0
 40
9.0
 40
9.0
 40
9.0
 40
10.0
 40
10.0
 40
10.0
 40
11.0
 40
11.0
 40
11.0
 40
12.0
 40
12.0
 40
12.0
 40
13.0
 40
13.0
 40
13.0
 40
14.0
 40
14.0
 40
14.0
 40
15.0
 40
15.0
 40
15.0
 40
16.0
 40
16.0
 40
16.0
 40
17.0
 40
17.0
 40
17.0
 40
18.0
 40
18.0
 40
18.0
 40
19.0
 40
19.0
 40
19.0
 40
20.0
 40
20.0
 40
20.0
 40
21.0
 40
21.0
 40
21.0
 40
22.0
 40
22.0
 40
22.0
 40
23.0
 40
23.0
 40
23.0
 40
24.0
 40
24.0
 40
24.0
 40
24.0
 10
82.232706685171
 20
-137.273274705265
 10
82.16294350159468
 20
-137.2691405906827
 10
82.09524737530953
 20
-137.2691405906827
 10
82.02755124902437
 20
-137.2691405906827
 10
82.02755124902437
 20
-137.2691405906827
 10
82.02755124902437
 20
-138.0435980557669
 10
82.02755124902437
 20
-138.0435980557669
 10
82.02755124902437
 20
-138.3078368794855
 10
82.02548419173321
 20
-138.3374647006587
 10
82.0191107650855
 20
-138.3670925218318
 10
81.9851765745558
 20
-138.500417717111
 10
81.88371851251519
 20
-138.5086859462756
 10
81.70801864276744
 20
-138.5086859462756
 10
81.66788328036428
 20
-138.5086859462756
 10
81.65100231248655
 20
-138.5086859462756
 10
81.61069469530914
 20
-138.5045518316933
 10
81.61069469530914
 20
-138.5045518316933
 10
81.48598223874309
 20
-138.2633951477258
 10
81.48598223874309
 20
-138.2633951477258
 10
81.60225421137028
 20
-138.2950900261901
 10
81.684764248242
 20
-138.2950900261901
 10
81.70801864276744
 20
-138.2950900261901
 10
81.77795408111801
 20
-138.2950900261901
 10
81.81171601687346
 20
-138.2782090583124
 10
81.81602238623003
 20
-138.2210204732573
 10
81.81602238623003
 20
-138.2082736199618
 10
81.81808944352117
 20
-138.1111219272778
 10
81.81808944352117
 20
-138.0539333422226
 10
81.81808944352117
 20
-138.0539333422226
 10
81.81808944352117
 20
-137.2670735333916
 10
81.81808944352117
 20
-137.2670735333916
 10
81.81808944352117
 20
-137.2670735333916
 10
81.5240505438551
 20
-137.2670735333916
 10
81.5240505438551
 20
-137.2670735333916
 10
81.37815075005477
 20
-137.2670735333916
 10
81.23207870148018
 20
-137.273274705265
 10
81.088245964971
 20
-137.2860215585604
 10
81.088245964971
 20
-137.2860215585604
 10
81.088245964971
 20
-137.0786268103484
 10
81.088245964971
 20
-137.0786268103484
 10
81.23845212812789
 20
-137.0913736636438
 10
81.45635441756994
 20
-137.0955077782261
 10
81.5240505438551
 20
-137.0955077782261
 10
81.5240505438551
 20
-137.0955077782261
 10
81.81808944352117
 20
-137.0955077782261
 10
81.81808944352117
 20
-137.0955077782261
 10
81.81602238623003
 20
-136.8267903303766
 10
81.81602238623003
 20
-136.7509982297011
 10
81.80758190229116
 20
-136.6028591238354
 10
81.80758190229116
 20
-136.6028591238354
 10
82.06561955413638
 20
-136.6407551741731
 10
82.06561955413638
 20
-136.6407551741731
 10
82.08043346472294
 20
-136.6428222314643
 10
82.09524737530953
 20
-136.6490234033377
 10
82.09524737530953
 20
-136.6703829953463
 10
82.09524737530953
 20
-136.6896755300637
 10
82.08887394866181
 20
-136.6917425873548
 10
82.03168536360667
 20
-136.7255045231103
 10
82.02755124902437
 20
-136.8037081906255
 10
82.02755124902437
 20
-136.818522101212
 10
82.02755124902437
 20
-137.0955077782261
 10
82.20531817606326
 20
-137.0913736636438
 10
82.22426620123213
 20
-137.0913736636438
 10
82.25820039176185
 20
-137.0872395490615
 10
82.30884329539502
 20
-137.0831054344792
 10
82.31314966475158
 20
-137.0810383771881
 10
82.3575913965113
 20
-137.0786268103484
 10
82.3575913965113
 20
-137.0786268103484
 10
82.3575913965113
 20
-137.2860215585604
 10
82.3575913965113
 20
-137.2860215585604
 10
82.32796357533815
 20
-137.2839545012693
 10
82.27284204757416
 20
-137.2753417625562
 10
82.232706685171
 20
-137.273274705265
 97
        0
 97
        0
 92
        1
 93
        1
 72
     4
 94
        3
 73
     0
 74
     1
 95
       20
 96
       16
 40
0.0
 40
0.0
 40
0.0
 40
0.0
 40
1.0
 40
1.0
 40
1.0
 40
2.0
 40
2.0
 40
2.0
 40
3.0
 40
3.0
 40
3.0
 40
4.0
 40
4.0
 40
4.0
 40
5.0
 40
5.0
 40
5.0
 40
5.0
 10
81.46272784421765
 20
-137.9988118144586
 10
81.41621905516678
 20
-137.8210448874197
 10
81.31889510770847
 20
-137.679451462976
 10
81.17919648578159
 20
-137.5695529169965
 10
81.17919648578159
 20
-137.5695529169965
 10
81.3399101901685
 20
-137.4551757468862
 10
81.3399101901685
 20
-137.4551757468862
 10
81.40140514458021
 20
-137.4975504213548
 10
81.44154050698337
 20
-137.5313123571102
 10
81.51767711720738
 20
-137.6391438457985
 10
81.59812009678798
 20
-137.7555880732
 10
81.61930743402226
 20
-137.8086425436728
 10
81.64462888583884
 20
-137.8740993578926
 10
81.64462888583884
 20
-137.8740993578926
 10
81.46272784421765
 20
-137.9988118144586
 10
81.46272784421765
 20
-137.9988118144586
 97
        0
 97
        0
 75
     2
 76
     1
 98
        0
  0
SPLINE
  5
116
330
FA
100
AcDbEntity
  8
_U+30EC_U+30A4_U+30E4_U+30FC 1
370
     0
100
AcDbSpline
210
0.0
220
0.0
230
1.0
 70
    11
 71
     3
 72
    56
 73
    52
 74
     0
 42
0.0000000001
 43
0.0000000001
 12
1.0
 22
0.0
 32
0.0
 13
1.0
 23
0.0
 33
0.0
 40
0.0
 40
0.0
 40
0.0
 40
0.0
 40
1.0
 40
1.0
 40
1.0
 40
2.0
 40
2.0
 40
2.0
 40
3.0
 40
3.0
 40
3.0
 40
4.0
 40
4.0
 40
4.0
 40
5.0
 40
5.0
 40
5.0
 40
6.0
 40
6.0
 40
6.0
 40
7.0
 40
7.0
 40
7.0
 40
8.0
 40
8.0
 40
8.0
 40
9.0
 40
9.0
 40
9.0
 40
10.0
 40
10.0
 40
10.0
 40
11.0
 40
11.0
 40
11.0
 40
12.0
 40
12.0
 40
12.0
 40
13.0
 40
13.0
 40
13.0
 40
14.0
 40
14.0
 40
14.0
 40
15.0
 40
15.0
 40
15.0
 40
16.0
 40
16.0
 40
16.0
 40
17.0
 40
17.0
 40
17.0
 40
17.0
 10
83.6999728523389
 20
-137.5061631600679
 30
0.0
 10
83.59420842094173
 20
-137.6246744447605
 30
0.0
 10
83.49688447348342
 20
-137.6942653735626
 30
0.0
 10
83.456576856306
 20
-137.7238931947357
 30
0.0
 10
83.456576856306
 20
-137.7238931947357
 30
0.0
 10
83.456576856306
 20
-138.0139702345937
 30
0.0
 10
83.456576856306
 20
-138.0139702345937
 30
0.0
 10
83.456576856306
 20
-138.0601345140961
 30
0.0
 10
83.456576856306
 20
-138.4284152214693
 30
0.0
 10
83.46932370960143
 20
-138.5362467101576
 30
0.0
 10
83.46932370960143
 20
-138.5362467101576
 30
0.0
 10
83.24504799351166
 20
-138.5362467101576
 30
0.0
 10
83.24504799351166
 20
-138.5362467101576
 30
0.0
 10
83.25779484680709
 20
-138.362613897701
 30
0.0
 10
83.26623533074594
 20
-138.189325594793
 30
0.0
 10
83.26623533074594
 20
-138.0160372918849
 30
0.0
 10
83.26623533074594
 20
-138.0160372918849
 30
0.0
 10
83.26623533074594
 20
-137.8465385940106
 30
0.0
 10
83.26623533074594
 20
-137.8465385940106
 30
0.0
 10
83.07589380518588
 20
-137.9567816495386
 30
0.0
 10
82.87693954091272
 20
-138.0477321703492
 30
0.0
 10
82.66971704747493
 20
-138.1193901564424
 30
0.0
 10
82.66971704747493
 20
-138.1193901564424
 30
0.0
 10
82.53208548283921
 20
-137.9333550002389
 30
0.0
 10
82.53208548283921
 20
-137.9333550002389
 30
0.0
 10
82.85161808909612
 20
-137.865831128728
 30
0.0
 10
83.38474661543854
 20
-137.6563693232248
 30
0.0
 10
83.64915769393147
 20
-137.2839545012693
 30
0.0
 10
83.64915769393147
 20
-137.2839545012693
 30
0.0
 10
83.28104924133252
 20
-137.2839545012693
 30
0.0
 10
83.28104924133252
 20
-137.2839545012693
 30
0.0
 10
83.2683023880371
 20
-137.2839545012693
 30
0.0
 10
82.91294078873358
 20
-137.2860215585604
 30
0.0
 10
82.74998777228126
 20
-137.3049695837293
 30
0.0
 10
82.74998777228126
 20
-137.3049695837293
 30
0.0
 10
82.74998777228126
 20
-137.0872395490615
 30
0.0
 10
82.74998777228126
 20
-137.0872395490615
 30
0.0
 10
82.86212563032613
 20
-137.1041205169392
 30
0.0
 10
83.1139621102979
 20
-137.1061875742304
 30
0.0
 10
83.23230114021624
 20
-137.1061875742304
 30
0.0
 10
83.23230114021624
 20
-137.1061875742304
 30
0.0
 10
83.52220592530001
 20
-137.1061875742304
 30
0.0
 10
83.52220592530001
 20
-137.1061875742304
 30
0.0
 10
83.72736136144664
 20
-137.1061875742304
 30
0.0
 10
83.77610946256291
 20
-137.1041205169392
 30
0.0
 10
83.86499292608237
 20
-137.0555446705972
 30
0.0
 10
83.86499292608237
 20
-137.0555446705972
 30
0.0
 10
84.01519908923926
 20
-137.2288329735053
 30
0.0
 10
84.01519908923926
 20
-137.2288329735053
 30
0.0
 10
83.91563582971554
 20
-137.2753417625562
 30
0.0
 10
83.90719534577667
 20
-137.2794758771385
 30
0.0
 10
83.6999728523389
 20
-137.5061631600679
 30
0.0
  0
SPLINE
  5
117
330
FA
100
AcDbEntity
  8
_U+30EC_U+30A4_U+30E4_U+30FC 1
370
     0
100
AcDbSpline
210
0.0
220
0.0
230
1.0
 70
    11
 71
     3
 72
    17
 73
    13
 74
     0
 42
0.0000000001
 43
0.0000000001
 12
1.0
 22
0.0
 32
0.0
 13
1.0
 23
0.0
 33
0.0
 40
0.0
 40
0.0
 40
0.0
 40
0.0
 40
1.0
 40
1.0
 40
1.0
 40
2.0
 40
2.0
 40
2.0
 40
3.0
 40
3.0
 40
3.0
 40
4.0
 40
4.0
 40
4.0
 40
4.0
 10
83.5814615676463
 20
-137.010758429289
 30
0.0
 10
83.45450979901484
 20
-136.9115396793138
 30
0.0
 10
83.20060626175193
 20
-136.8143879866298
 30
0.0
 10
83.05677352524276
 20
-136.7826931081654
 30
0.0
 10
83.05677352524276
 20
-136.7826931081654
 30
0.0
 10
83.13721650482334
 20
-136.5983804997046
 30
0.0
 10
83.13721650482334
 20
-136.5983804997046
 30
0.0
 10
83.28742266798024
 20
-136.6407551741731
 30
0.0
 10
83.49688447348342
 20
-136.7168917843972
 30
0.0
 10
83.67447914574805
 20
-136.8288573876678
 30
0.0
 10
83.67447914574805
 20
-136.8288573876678
 30
0.0
 10
83.5814615676463
 20
-137.010758429289
 30
0.0
 10
83.5814615676463
 20
-137.010758429289
 30
0.0
  0
SPLINE
  5
118
330
FA
100
AcDbEntity
  8
_U+30EC_U+30A4_U+30E4_U+30FC 1
370
     0
100
AcDbSpline
210
0.0
220
0.0
230
1.0
 70
    11
 71
     3
 72
    17
 73
    13
 74
     0
 42
0.0000000001
 43
0.0000000001
 12
1.0
 22
0.0
 32
0.0
 13
1.0
 23
0.0
 33
0.0
 40
0.0
 40
0.0
 40
0.0
 40
0.0
 40
1.0
 40
1.0
 40
1.0
 40
2.0
 40
2.0
 40
2.0
 40
3.0
 40
3.0
 40
3.0
 40
4.0
 40
4.0
 40
4.0
 40
4.0
 10
84.0172661465304
 20
-138.1662434550418
 30
0.0
 10
83.82055119432265
 20
-137.9567816495386
 30
0.0
 10
83.65966523516147
 20
-137.8782334724749
 30
0.0
 10
83.56234128770316
 20
-137.8296576261329
 30
0.0
 10
83.56234128770316
 20
-137.8296576261329
 30
0.0
 10
83.68515894175232
 20
-137.679451462976
 30
0.0
 10
83.68515894175232
 20
-137.679451462976
 30
0.0
 10
83.80573728373606
 20
-137.7452527867443
 30
0.0
 10
83.98557126806611
 20
-137.8486056513017
 30
0.0
 10
84.16109888303959
 20
-138.0074245531718
 30
0.0
 10
84.16109888303959
 20
-138.0074245531718
 30
0.0
 10
84.0172661465304
 20
-138.1662434550418
 30
0.0
 10
84.0172661465304
 20
-138.1662434550418
 30
0.0
  0
HATCH
  5
119
330
FA
100
AcDbEntity
  8
_U+30EC_U+30A4_U+30E4_U+30FC 1
 62
   179
420
  2234388
100
AcDbHatch
 10
0.0
 20
0.0
 30
0.0
210
0.0
220
0.0
230
1.0
  2
SOLID
 70
     1
 71
     0
 91
        3
 92
        1
 93
        1
 72
     4
 94
        3
 73
     0
 74
     1
 95
       56
 96
       52
 40
0.0
 40
0.0
 40
0.0
 40
0.0
 40
1.0
 40
1.0
 40
1.0
 40
2.0
 40
2.0
 40
2.0
 40
3.0
 40
3.0
 40
3.0
 40
4.0
 40
4.0
 40
4.0
 40
5.0
 40
5.0
 40
5.0
 40
6.0
 40
6.0
 40
6.0
 40
7.0
 40
7.0
 40
7.0
 40
8.0
 40
8.0
 40
8.0
 40
9.0
 40
9.0
 40
9.0
 40
10.0
 40
10.0
 40
10.0
 40
11.0
 40
11.0
 40
11.0
 40
12.0
 40
12.0
 40
12.0
 40
13.0
 40
13.0
 40
13.0
 40
14.0
 40
14.0
 40
14.0
 40
15.0
 40
15.0
 40
15.0
 40
16.0
 40
16.0
 40
16.0
 40
17.0
 40
17.0
 40
17.0
 40
17.0
 10
83.6999728523389
 20
-137.5061631600679
 10
83.59420842094173
 20
-137.6246744447605
 10
83.49688447348342
 20
-137.6942653735626
 10
83.456576856306
 20
-137.7238931947357
 10
83.456576856306
 20
-137.7238931947357
 10
83.456576856306
 20
-138.0139702345937
 10
83.456576856306
 20
-138.0139702345937
 10
83.456576856306
 20
-138.0601345140961
 10
83.456576856306
 20
-138.4284152214693
 10
83.46932370960143
 20
-138.5362467101576
 10
83.46932370960143
 20
-138.5362467101576
 10
83.24504799351166
 20
-138.5362467101576
 10
83.24504799351166
 20
-138.5362467101576
 10
83.25779484680709
 20
-138.362613897701
 10
83.26623533074594
 20
-138.189325594793
 10
83.26623533074594
 20
-138.0160372918849
 10
83.26623533074594
 20
-138.0160372918849
 10
83.26623533074594
 20
-137.8465385940106
 10
83.26623533074594
 20
-137.8465385940106
 10
83.07589380518588
 20
-137.9567816495386
 10
82.87693954091272
 20
-138.0477321703492
 10
82.66971704747493
 20
-138.1193901564424
 10
82.66971704747493
 20
-138.1193901564424
 10
82.53208548283921
 20
-137.9333550002389
 10
82.53208548283921
 20
-137.9333550002389
 10
82.85161808909612
 20
-137.865831128728
 10
83.38474661543854
 20
-137.6563693232248
 10
83.64915769393147
 20
-137.2839545012693
 10
83.64915769393147
 20
-137.2839545012693
 10
83.28104924133252
 20
-137.2839545012693
 10
83.28104924133252
 20
-137.2839545012693
 10
83.2683023880371
 20
-137.2839545012693
 10
82.91294078873358
 20
-137.2860215585604
 10
82.74998777228126
 20
-137.3049695837293
 10
82.74998777228126
 20
-137.3049695837293
 10
82.74998777228126
 20
-137.0872395490615
 10
82.74998777228126
 20
-137.0872395490615
 10
82.86212563032613
 20
-137.1041205169392
 10
83.1139621102979
 20
-137.1061875742304
 10
83.23230114021624
 20
-137.1061875742304
 10
83.23230114021624
 20
-137.1061875742304
 10
83.52220592530001
 20
-137.1061875742304
 10
83.52220592530001
 20
-137.1061875742304
 10
83.72736136144664
 20
-137.1061875742304
 10
83.77610946256291
 20
-137.1041205169392
 10
83.86499292608237
 20
-137.0555446705972
 10
83.86499292608237
 20
-137.0555446705972
 10
84.01519908923926
 20
-137.2288329735053
 10
84.01519908923926
 20
-137.2288329735053
 10
83.91563582971554
 20
-137.2753417625562
 10
83.90719534577667
 20
-137.2794758771385
 10
83.6999728523389
 20
-137.5061631600679
 97
        0
 97
        0
 92
        1
 93
        1
 72
     4
 94
        3
 73
     0
 74
     1
 95
       17
 96
       13
 40
0.0
 40
0.0
 40
0.0
 40
0.0
 40
1.0
 40
1.0
 40
1.0
 40
2.0
 40
2.0
 40
2.0
 40
3.0
 40
3.0
 40
3.0
 40
4.0
 40
4.0
 40
4.0
 40
4.0
 10
83.5814615676463
 20
-137.010758429289
 10
83.45450979901484
 20
-136.9115396793138
 10
83.20060626175193
 20
-136.8143879866298
 10
83.05677352524276
 20
-136.7826931081654
 10
83.05677352524276
 20
-136.7826931081654
 10
83.13721650482334
 20
-136.5983804997046
 10
83.13721650482334
 20
-136.5983804997046
 10
83.28742266798024
 20
-136.6407551741731
 10
83.49688447348342
 20
-136.7168917843972
 10
83.67447914574805
 20
-136.8288573876678
 10
83.67447914574805
 20
-136.8288573876678
 10
83.5814615676463
 20
-137.010758429289
 10
83.5814615676463
 20
-137.010758429289
 97
        0
 97
        0
 92
        1
 93
        1
 72
     4
 94
        3
 73
     0
 74
     1
 95
       17
 96
       13
 40
0.0
 40
0.0
 40
0.0
 40
0.0
 40
1.0
 40
1.0
 40
1.0
 40
2.0
 40
2.0
 40
2.0
 40
3.0
 40
3.0
 40
3.0
 40
4.0
 40
4.0
 40
4.0
 40
4.0
 10
84.0172661465304
 20
-138.1662434550418
 10
83.82055119432265
 20
-137.9567816495386
 10
83.65966523516147
 20
-137.8782334724749
 10
83.56234128770316
 20
-137.8296576261329
 10
83.56234128770316
 20
-137.8296576261329
 10
83.68515894175232
 20
-137.679451462976
 10
83.68515894175232
 20
-137.679451462976
 10
83.80573728373606
 20
-137.7452527867443
 10
83.98557126806611
 20
-137.8486056513017
 10
84.16109888303959
 20
-138.0074245531718
 10
84.16109888303959
 20
-138.0074245531718
 10
84.0172661465304
 20
-138.1662434550418
 10
84.0172661465304
 20
-138.1662434550418
 97
        0
 97
        0
 75
     2
 76
     1
 98
        0
  0
SPLINE
  5
11A
330
FA
100
AcDbEntity
  8
_U+30EC_U+30A4_U+30E4_U+30FC 1
370
     0
100
AcDbSpline
210
0.0
220
0.0
230
1.0
 70
    11
 71
     3
 72
    20
 73
    16
 74
     0
 42
0.0000000001
 43
0.0000000001
 12
1.0
 22
0.0
 32
0.0
 13
1.0
 23
0.0
 33
0.0
 40
0.0
 40
0.0
 40
0.0
 40
0.0
 40
1.0
 40
1.0
 40
1.0
 40
2.0
 40
2.0
 40
2.0
 40
3.0
 40
3.0
 40
3.0
 40
4.0
 40
4.0
 40
4.0
 40
5.0
 40
5.0
 40
5.0
 40
5.0
 10
84.84529484641021
 20
-137.5313123571102
 30
0.0
 10
84.78173283470734
 20
-137.4868706253505
 30
0.0
 10
84.75003795624305
 20
-137.4658555428905
 30
0.0
 10
84.61257864638158
 20
-137.4065999005442
 30
0.0
 10
84.46030542593354
 20
-137.3407985767759
 30
0.0
 10
84.41793075146497
 20
-137.3263291757379
 30
0.0
 10
84.36935490512295
 20
-137.3091036983116
 30
0.0
 10
84.36935490512295
 20
-137.3091036983116
 30
0.0
 10
84.46030542593354
 20
-137.1292697139816
 30
0.0
 10
84.46030542593354
 20
-137.1292697139816
 30
0.0
 10
84.51732175621443
 20
-137.1526963632813
 30
0.0
 10
84.78397214677275
 20
-137.2605278519696
 30
0.0
 10
84.93831242451195
 20
-137.3683593406579
 30
0.0
 10
84.93831242451195
 20
-137.3683593406579
 30
0.0
 10
84.84529484641021
 20
-137.5313123571102
 30
0.0
 10
84.84529484641021
 20
-137.5313123571102
 30
0.0
  0
SPLINE
  5
11B
330
FA
100
AcDbEntity
  8
_U+30EC_U+30A4_U+30E4_U+30FC 1
370
     0
100
AcDbSpline
210
0.0
220
0.0
230
1.0
 70
    11
 71
     3
 72
    26
 73
    22
 74
     0
 42
0.0000000001
 43
0.0000000001
 12
1.0
 22
0.0
 32
0.0
 13
1.0
 23
0.0
 33
0.0
 40
0.0
 40
0.0
 40
0.0
 40
0.0
 40
1.0
 40
1.0
 40
1.0
 40
2.0
 40
2.0
 40
2.0
 40
3.0
 40
3.0
 40
3.0
 40
4.0
 40
4.0
 40
4.0
 40
5.0
 40
5.0
 40
5.0
 40
6.0
 40
6.0
 40
6.0
 40
7.0
 40
7.0
 40
7.0
 40
7.0
 10
84.71834307777875
 20
-138.3860405470007
 30
0.0
 10
84.7162760204876
 20
-138.4115342535916
 30
0.0
 10
84.71196965113104
 20
-138.4621771572247
 30
0.0
 10
84.67390134601902
 20
-138.4621771572247
 30
0.0
 10
84.66752791937131
 20
-138.4621771572247
 30
0.0
 10
84.6506469514936
 20
-138.4556314758028
 30
0.0
 10
84.63790009819817
 20
-138.4411620747647
 30
0.0
 10
84.63790009819817
 20
-138.4411620747647
 30
0.0
 10
84.47925345110241
 20
-138.2337673265527
 30
0.0
 10
84.47925345110241
 20
-138.2337673265527
 30
0.0
 10
84.59345836643844
 20
-138.2020724480884
 30
0.0
 10
84.82204045188477
 20
-138.1386826911598
 30
0.0
 10
85.20496281507029
 20
-137.831724683424
 30
0.0
 10
85.51588268261409
 20
-137.5843668275831
 30
0.0
 10
85.6724622724187
 20
-137.3855848180842
 30
0.0
 10
85.81836206621902
 20
-137.1654432165767
 30
0.0
 10
85.81836206621902
 20
-137.1654432165767
 30
0.0
 10
85.94738089214164
 20
-137.3407985767759
 30
0.0
 10
85.94738089214164
 20
-137.3407985767759
 30
0.0
 10
85.64283445124555
 20
-137.8275905688417
 30
0.0
 10
85.00187443621482
 20
-138.2695963195993
 30
0.0
 10
84.71834307777875
 20
-138.3860405470007
 30
0.0
  0
SPLINE
  5
11C
330
FA
100
AcDbEntity
  8
_U+30EC_U+30A4_U+30E4_U+30FC 1
370
     0
100
AcDbSpline
210
0.0
220
0.0
230
1.0
 70
    11
 71
     3
 72
    17
 73
    13
 74
     0
 42
0.0000000001
 43
0.0000000001
 12
1.0
 22
0.0
 32
0.0
 13
1.0
 23
0.0
 33
0.0
 40
0.0
 40
0.0
 40
0.0
 40
0.0
 40
1.0
 40
1.0
 40
1.0
 40
2.0
 40
2.0
 40
2.0
 40
3.0
 40
3.0
 40
3.0
 40
4.0
 40
4.0
 40
4.0
 40
4.0
 10
85.08438447308654
 20
-137.0300509640064
 30
0.0
 10
84.94261879386852
 20
-136.9156737938961
 30
0.0
 10
84.72885061900877
 20
-136.830924444959
 30
0.0
 10
84.59983179308615
 20
-136.7930283946212
 30
0.0
 10
84.59983179308615
 20
-136.7930283946212
 30
0.0
 10
84.68664819931445
 20
-136.6173285248734
 30
0.0
 10
84.68664819931445
 20
-136.6173285248734
 30
0.0
 10
84.8728556102922
 20
-136.6917425873548
 30
0.0
 10
85.03994274132683
 20
-136.7782144840346
 30
0.0
 10
85.17533499389714
 20
-136.8605522661321
 30
0.0
 10
85.17533499389714
 20
-136.8605522661321
 30
0.0
 10
85.08438447308654
 20
-137.0300509640064
 30
0.0
 10
85.08438447308654
 20
-137.0300509640064
 30
0.0
  0
SPLINE
  5
11D
330
FA
100
AcDbEntity
  8
_U+30EC_U+30A4_U+30E4_U+30FC 1
370
     0
100
AcDbSpline
210
0.0
220
0.0
230
1.0
 70
    11
 71
     3
 72
    17
 73
    13
 74
     0
 42
0.0000000001
 43
0.0000000001
 12
1.0
 22
0.0
 32
0.0
 13
1.0
 23
0.0
 33
0.0
 40
0.0
 40
0.0
 40
0.0
 40
0.0
 40
1.0
 40
1.0
 40
1.0
 40
2.0
 40
2.0
 40
2.0
 40
3.0
 40
3.0
 40
3.0
 40
4.0
 40
4.0
 40
4.0
 40
4.0
 10
85.74015839870385
 20
-136.9559814110735
 30
0.0
 10
85.68520912571412
 20
-136.8987928260184
 30
0.0
 10
85.62371417130241
 20
-136.8395371836721
 30
0.0
 10
85.50950925596638
 20
-136.7675346880303
 30
0.0
 10
85.50950925596638
 20
-136.7675346880303
 30
0.0
 10
85.60476614613353
 20
-136.6641818234729
 30
0.0
 10
85.60476614613353
 20
-136.6641818234729
 30
0.0
 10
85.68296981364871
 20
-136.7062119883929
 30
0.0
 10
85.78666718775473
 20
-136.7654676307392
 30
0.0
 10
85.84592283010102
 20
-136.8481499223852
 30
0.0
 10
85.84592283010102
 20
-136.8481499223852
 30
0.0
 10
85.74015839870385
 20
-136.9559814110735
 30
0.0
 10
85.74015839870385
 20
-136.9559814110735
 30
0.0
  0
SPLINE
  5
11E
330
FA
100
AcDbEntity
  8
_U+30EC_U+30A4_U+30E4_U+30FC 1
370
     0
100
AcDbSpline
210
0.0
220
0.0
230
1.0
 70
    11
 71
     3
 72
    17
 73
    13
 74
     0
 42
0.0000000001
 43
0.0000000001
 12
1.0
 22
0.0
 32
0.0
 13
1.0
 23
0.0
 33
0.0
 40
0.0
 40
0.0
 40
0.0
 40
0.0
 40
1.0
 40
1.0
 40
1.0
 40
2.0
 40
2.0
 40
2.0
 40
3.0
 40
3.0
 40
3.0
 40
4.0
 40
4.0
 40
4.0
 40
4.0
 10
85.96650117208476
 20
-136.8012966237858
 30
0.0
 10
85.94738089214164
 20
-136.7847601654566
 30
0.0
 10
85.742225455995
 20
-136.6280083208777
 30
0.0
 10
85.71483694688726
 20
-136.6090602957088
 30
0.0
 10
85.71483694688726
 20
-136.6090602957088
 30
0.0
 10
85.8226684355756
 20
-136.4988172401809
 30
0.0
 10
85.8226684355756
 20
-136.4988172401809
 30
0.0
 10
85.93256698155506
 20
-136.5752983599534
 30
0.0
 10
85.94531383485048
 20
-136.5856336464091
 30
0.0
 10
86.07226560348194
 20
-136.6917425873548
 30
0.0
 10
86.07226560348194
 20
-136.6917425873548
 30
0.0
 10
85.96650117208476
 20
-136.8012966237858
 30
0.0
 10
85.96650117208476
 20
-136.8012966237858
 30
0.0
  0
HATCH
  5
11F
330
FA
100
AcDbEntity
  8
_U+30EC_U+30A4_U+30E4_U+30FC 1
 62
   179
420
  2234388
100
AcDbHatch
 10
0.0
 20
0.0
 30
0.0
210
0.0
220
0.0
230
1.0
  2
SOLID
 70
     1
 71
     0
 91
        5
 92
        1
 93
        1
 72
     4
 94
        3
 73
     0
 74
     1
 95
       20
 96
       16
 40
0.0
 40
0.0
 40
0.0
 40
0.0
 40
1.0
 40
1.0
 40
1.0
 40
2.0
 40
2.0
 40
2.0
 40
3.0
 40
3.0
 40
3.0
 40
4.0
 40
4.0
 40
4.0
 40
5.0
 40
5.0
 40
5.0
 40
5.0
 10
84.84529484641021
 20
-137.5313123571102
 10
84.78173283470734
 20
-137.4868706253505
 10
84.75003795624305
 20
-137.4658555428905
 10
84.61257864638158
 20
-137.4065999005442
 10
84.46030542593354
 20
-137.3407985767759
 10
84.41793075146497
 20
-137.3263291757379
 10
84.36935490512295
 20
-137.3091036983116
 10
84.36935490512295
 20
-137.3091036983116
 10
84.46030542593354
 20
-137.1292697139816
 10
84.46030542593354
 20
-137.1292697139816
 10
84.51732175621443
 20
-137.1526963632813
 10
84.78397214677275
 20
-137.2605278519696
 10
84.93831242451195
 20
-137.3683593406579
 10
84.93831242451195
 20
-137.3683593406579
 10
84.84529484641021
 20
-137.5313123571102
 10
84.84529484641021
 20
-137.5313123571102
 97
        0
 97
        0
 92
        1
 93
        1
 72
     4
 94
        3
 73
     0
 74
     1
 95
       26
 96
       22
 40
0.0
 40
0.0
 40
0.0
 40
0.0
 40
1.0
 40
1.0
 40
1.0
 40
2.0
 40
2.0
 40
2.0
 40
3.0
 40
3.0
 40
3.0
 40
4.0
 40
4.0
 40
4.0
 40
5.0
 40
5.0
 40
5.0
 40
6.0
 40
6.0
 40
6.0
 40
7.0
 40
7.0
 40
7.0
 40
7.0
 10
84.71834307777875
 20
-138.3860405470007
 10
84.7162760204876
 20
-138.4115342535916
 10
84.71196965113104
 20
-138.4621771572247
 10
84.67390134601902
 20
-138.4621771572247
 10
84.66752791937131
 20
-138.4621771572247
 10
84.6506469514936
 20
-138.4556314758028
 10
84.63790009819817
 20
-138.4411620747647
 10
84.63790009819817
 20
-138.4411620747647
 10
84.47925345110241
 20
-138.2337673265527
 10
84.47925345110241
 20
-138.2337673265527
 10
84.59345836643844
 20
-138.2020724480884
 10
84.82204045188477
 20
-138.1386826911598
 10
85.20496281507029
 20
-137.831724683424
 10
85.51588268261409
 20
-137.5843668275831
 10
85.6724622724187
 20
-137.3855848180842
 10
85.81836206621902
 20
-137.1654432165767
 10
85.81836206621902
 20
-137.1654432165767
 10
85.94738089214164
 20
-137.3407985767759
 10
85.94738089214164
 20
-137.3407985767759
 10
85.64283445124555
 20
-137.8275905688417
 10
85.00187443621482
 20
-138.2695963195993
 10
84.71834307777875
 20
-138.3860405470007
 97
        0
 97
        0
 92
        1
 93
        1
 72
     4
 94
        3
 73
     0
 74
     1
 95
       17
 96
       13
 40
0.0
 40
0.0
 40
0.0
 40
0.0
 40
1.0
 40
1.0
 40
1.0
 40
2.0
 40
2.0
 40
2.0
 40
3.0
 40
3.0
 40
3.0
 40
4.0
 40
4.0
 40
4.0
 40
4.0
 10
85.08438447308654
 20
-137.0300509640064
 10
84.94261879386852
 20
-136.9156737938961
 10
84.72885061900877
 20
-136.830924444959
 10
84.59983179308615
 20
-136.7930283946212
 10
84.59983179308615
 20
-136.7930283946212
 10
84.68664819931445
 20
-136.6173285248734
 10
84.68664819931445
 20
-136.6173285248734
 10
84.8728556102922
 20
-136.6917425873548
 10
85.03994274132683
 20
-136.7782144840346
 10
85.17533499389714
 20
-136.8605522661321
 10
85.17533499389714
 20
-136.8605522661321
 10
85.08438447308654
 20
-137.0300509640064
 10
85.08438447308654
 20
-137.0300509640064
 97
        0
 97
        0
 92
        1
 93
        1
 72
     4
 94
        3
 73
     0
 74
     1
 95
       17
 96
       13
 40
0.0
 40
0.0
 40
0.0
 40
0.0
 40
1.0
 40
1.0
 40
1.0
 40
2.0
 40
2.0
 40
2.0
 40
3.0
 40
3.0
 40
3.0
 40
4.0
 40
4.0
 40
4.0
 40
4.0
 10
85.74015839870385
 20
-136.9559814110735
 10
85.68520912571412
 20
-136.8987928260184
 10
85.62371417130241
 20
-136.8395371836721
 10
85.50950925596638
 20
-136.7675346880303
 10
85.50950925596638
 20
-136.7675346880303
 10
85.60476614613353
 20
-136.6641818234729
 10
85.60476614613353
 20
-136.6641818234729
 10
85.68296981364871
 20
-136.7062119883929
 10
85.78666718775473
 20
-136.7654676307392
 10
85.84592283010102
 20
-136.8481499223852
 10
85.84592283010102
 20
-136.8481499223852
 10
85.74015839870385
 20
-136.9559814110735
 10
85.74015839870385
 20
-136.9559814110735
 97
        0
 97
        0
 92
        1
 93
        1
 72
     4
 94
        3
 73
     0
 74
     1
 95
       17
 96
       13
 40
0.0
 40
0.0
 40
0.0
 40
0.0
 40
1.0
 40
1.0
 40
1.0
 40
2.0
 40
2.0
 40
2.0
 40
3.0
 40
3.0
 40
3.0
 40
4.0
 40
4.0
 40
4.0
 40
4.0
 10
85.96650117208476
 20
-136.8012966237858
 10
85.94738089214164
 20
-136.7847601654566
 10
85.742225455995
 20
-136.6280083208777
 10
85.71483694688726
 20
-136.6090602957088
 10
85.71483694688726
 20
-136.6090602957088
 10
85.8226684355756
 20
-136.4988172401809
 10
85.8226684355756
 20
-136.4988172401809
 10
85.93256698155506
 20
-136.5752983599534
 10
85.94531383485048
 20
-136.5856336464091
 10
86.07226560348194
 20
-136.6917425873548
 10
86.07226560348194
 20
-136.6917425873548
 10
85.96650117208476
 20
-136.8012966237858
 10
85.96650117208476
 20
-136.8012966237858
 97
        0
 97
        0
 75
     2
 76
     1
 98
        0
  0
SPLINE
  5
120
330
FA
100
AcDbEntity
  8
_U+30EC_U+30A4_U+30E4_U+30FC 1
370
     0
100
AcDbSpline
210
0.0
220
0.0
230
1.0
 70
    11
 71
     3
 72
    53
 73
    49
 74
     0
 42
0.0000000001
 43
0.0000000001
 12
1.0
 22
0.0
 32
0.0
 13
1.0
 23
0.0
 33
0.0
 40
0.0
 40
0.0
 40
0.0
 40
0.0
 40
1.0
 40
1.0
 40
1.0
 40
2.0
 40
2.0
 40
2.0
 40
3.0
 40
3.0
 40
3.0
 40
4.0
 40
4.0
 40
4.0
 40
5.0
 40
5.0
 40
5.0
 40
6.0
 40
6.0
 40
6.0
 40
7.0
 40
7.0
 40
7.0
 40
8.0
 40
8.0
 40
8.0
 40
9.0
 40
9.0
 40
9.0
 40
10.0
 40
10.0
 40
10.0
 40
11.0
 40
11.0
 40
11.0
 40
12.0
 40
12.0
 40
12.0
 40
13.0
 40
13.0
 40
13.0
 40
14.0
 40
14.0
 40
14.0
 40
15.0
 40
15.0
 40
15.0
 40
16.0
 40
16.0
 40
16.0
 40
16.0
 10
86.81175534939082
 20
-136.7740803694523
 30
0.0
 10
86.74405922310565
 20
-136.9263535899004
 30
0.0
 10
86.70185680341135
 20
-137.0045572574155
 30
0.0
 10
86.66361624352507
 20
-137.0720811289264
 30
0.0
 10
86.70599091799365
 20
-137.093440720935
 30
0.0
 10
86.7102972873502
 20
-137.0955077782261
 30
0.0
 10
86.7102972873502
 20
-137.1103216888127
 30
0.0
 10
86.7102972873502
 20
-137.1230685421081
 30
0.0
 10
86.6763630968205
 20
-137.1568304778636
 30
0.0
 10
86.66585555559048
 20
-137.1654432165767
 30
0.0
 10
86.66361624352507
 20
-137.3621581687845
 30
0.0
 10
86.66361624352507
 20
-137.383517760793
 30
0.0
 10
86.66361624352507
 20
-137.5164984465237
 30
0.0
 10
86.66154918623393
 20
-137.5292452998191
 30
0.0
 10
86.66154918623393
 20
-137.5440592104057
 30
0.0
 10
86.66154918623393
 20
-137.5588731209922
 30
0.0
 10
86.66154918623393
 20
-137.5588731209922
 30
0.0
 10
86.66154918623393
 20
-138.0938964498515
 30
0.0
 10
86.66154918623393
 20
-138.0938964498515
 30
0.0
 10
86.66154918623393
 20
-138.1662434550418
 30
0.0
 10
86.66585555559048
 20
-138.4008544575873
 30
0.0
 10
86.67429603952935
 20
-138.5107530035668
 30
0.0
 10
86.67429603952935
 20
-138.5107530035668
 30
0.0
 10
86.4310722982707
 20
-138.5107530035668
 30
0.0
 10
86.4310722982707
 20
-138.5107530035668
 30
0.0
 10
86.45432669279614
 20
-138.3522786112453
 30
0.0
 10
86.4605278646696
 20
-138.1111219272778
 30
0.0
 10
86.4605278646696
 20
-138.0897623352692
 30
0.0
 10
86.4605278646696
 20
-138.0897623352692
 30
0.0
 10
86.4605278646696
 20
-137.3724934552402
 30
0.0
 10
86.4605278646696
 20
-137.3724934552402
 30
0.0
 10
86.36957734385899
 20
-137.4868706253505
 30
0.0
 10
86.30825464422155
 20
-137.5461262676968
 30
0.0
 10
86.26605222452724
 20
-137.5885009421654
 30
0.0
 10
86.26605222452724
 20
-137.5885009421654
 30
0.0
 10
86.07553844419293
 20
-137.4510416323039
 30
0.0
 10
86.07553844419293
 20
-137.4510416323039
 30
0.0
 10
86.35700274533784
 20
-137.2353786549273
 30
0.0
 10
86.54941132818904
 20
-136.9263535899004
 30
0.0
 10
86.66154918623393
 20
-136.5897677609915
 30
0.0
 10
86.66154918623393
 20
-136.5897677609915
 30
0.0
 10
86.88151853296712
 20
-136.7041449311018
 30
0.0
 10
86.88151853296712
 20
-136.7041449311018
 30
0.0
 10
86.89426538626255
 20
-136.7103461029752
 30
0.0
 10
86.90270587020142
 20
-136.714824727106
 30
0.0
 10
86.90270587020142
 20
-136.7296386376926
 30
0.0
 10
86.90270587020142
 20
-136.7551323442835
 30
0.0
 10
86.88582490232369
 20
-136.7592664588657
 30
0.0
 10
86.81175534939082
 20
-136.7740803694523
 30
0.0
  0
SPLINE
  5
121
330
FA
100
AcDbEntity
  8
_U+30EC_U+30A4_U+30E4_U+30FC 1
370
     0
100
AcDbSpline
210
0.0
220
0.0
230
1.0
 70
    11
 71
     3
 72
    77
 73
    73
 74
     0
 42
0.0000000001
 43
0.0000000001
 12
1.0
 22
0.0
 32
0.0
 13
1.0
 23
0.0
 33
0.0
 40
0.0
 40
0.0
 40
0.0
 40
0.0
 40
1.0
 40
1.0
 40
1.0
 40
2.0
 40
2.0
 40
2.0
 40
3.0
 40
3.0
 40
3.0
 40
4.0
 40
4.0
 40
4.0
 40
5.0
 40
5.0
 40
5.0
 40
6.0
 40
6.0
 40
6.0
 40
7.0
 40
7.0
 40
7.0
 40
8.0
 40
8.0
 40
8.0
 40
9.0
 40
9.0
 40
9.0
 40
10.0
 40
10.0
 40
10.0
 40
11.0
 40
11.0
 40
11.0
 40
12.0
 40
12.0
 40
12.0
 40
13.0
 40
13.0
 40
13.0
 40
14.0
 40
14.0
 40
14.0
 40
15.0
 40
15.0
 40
15.0
 40
16.0
 40
16.0
 40
16.0
 40
17.0
 40
17.0
 40
17.0
 40
18.0
 40
18.0
 40
18.0
 40
19.0
 40
19.0
 40
19.0
 40
20.0
 40
20.0
 40
20.0
 40
21.0
 40
21.0
 40
21.0
 40
22.0
 40
22.0
 40
22.0
 40
23.0
 40
23.0
 40
23.0
 40
24.0
 40
24.0
 40
24.0
 40
24.0
 10
87.96258949623852
 20
-137.273274705265
 30
0.0
 10
87.89282631266221
 20
-137.2691405906827
 30
0.0
 10
87.82513018637705
 20
-137.2691405906827
 30
0.0
 10
87.7574340600919
 20
-137.2691405906827
 30
0.0
 10
87.7574340600919
 20
-137.2691405906827
 30
0.0
 10
87.7574340600919
 20
-138.0435980557669
 30
0.0
 10
87.7574340600919
 20
-138.0435980557669
 30
0.0
 10
87.7574340600919
 20
-138.3078368794855
 30
0.0
 10
87.75536700280074
 20
-138.3374647006587
 30
0.0
 10
87.74899357615304
 20
-138.3670925218318
 30
0.0
 10
87.71505938562332
 20
-138.500417717111
 30
0.0
 10
87.61360132358271
 20
-138.5086859462756
 30
0.0
 10
87.43790145383497
 20
-138.5086859462756
 30
0.0
 10
87.39776609143182
 20
-138.5086859462756
 30
0.0
 10
87.3808851235541
 20
-138.5086859462756
 30
0.0
 10
87.34057750637666
 20
-138.5045518316933
 30
0.0
 10
87.34057750637666
 20
-138.5045518316933
 30
0.0
 10
87.21586504981062
 20
-138.2633951477258
 30
0.0
 10
87.21586504981062
 20
-138.2633951477258
 30
0.0
 10
87.3321370224378
 20
-138.2950900261901
 30
0.0
 10
87.41464705930953
 20
-138.2950900261901
 30
0.0
 10
87.43790145383497
 20
-138.2950900261901
 30
0.0
 10
87.50783689218555
 20
-138.2950900261901
 30
0.0
 10
87.54159882794099
 20
-138.2782090583124
 30
0.0
 10
87.54590519729756
 20
-138.2210204732573
 30
0.0
 10
87.54590519729756
 20
-138.2082736199618
 30
0.0
 10
87.5479722545887
 20
-138.1111219272778
 30
0.0
 10
87.5479722545887
 20
-138.0539333422226
 30
0.0
 10
87.5479722545887
 20
-138.0539333422226
 30
0.0
 10
87.5479722545887
 20
-137.2670735333916
 30
0.0
 10
87.5479722545887
 20
-137.2670735333916
 30
0.0
 10
87.5479722545887
 20
-137.2670735333916
 30
0.0
 10
87.25393335492264
 20
-137.2670735333916
 30
0.0
 10
87.25393335492264
 20
-137.2670735333916
 30
0.0
 10
87.1080335611223
 20
-137.2670735333916
 30
0.0
 10
86.9619615125477
 20
-137.273274705265
 30
0.0
 10
86.81812877603852
 20
-137.2860215585604
 30
0.0
 10
86.81812877603852
 20
-137.2860215585604
 30
0.0
 10
86.81812877603852
 20
-137.0786268103484
 30
0.0
 10
86.81812877603852
 20
-137.0786268103484
 30
0.0
 10
86.96833493919542
 20
-137.0913736636438
 30
0.0
 10
87.18623722863747
 20
-137.0955077782261
 30
0.0
 10
87.25393335492264
 20
-137.0955077782261
 30
0.0
 10
87.25393335492264
 20
-137.0955077782261
 30
0.0
 10
87.5479722545887
 20
-137.0955077782261
 30
0.0
 10
87.5479722545887
 20
-137.0955077782261
 30
0.0
 10
87.54590519729756
 20
-136.8267903303766
 30
0.0
 10
87.54590519729756
 20
-136.7509982297011
 30
0.0
 10
87.53746471335869
 20
-136.6028591238354
 30
0.0
 10
87.53746471335869
 20
-136.6028591238354
 30
0.0
 10
87.7955023652039
 20
-136.6407551741731
 30
0.0
 10
87.7955023652039
 20
-136.6407551741731
 30
0.0
 10
87.81031627579048
 20
-136.6428222314643
 30
0.0
 10
87.82513018637705
 20
-136.6490234033377
 30
0.0
 10
87.82513018637705
 20
-136.6703829953463
 30
0.0
 10
87.82513018637705
 20
-136.6896755300637
 30
0.0
 10
87.81875675972934
 20
-136.6917425873548
 30
0.0
 10
87.7615681746742
 20
-136.7255045231103
 30
0.0
 10
87.7574340600919
 20
-136.8037081906255
 30
0.0
 10
87.7574340600919
 20
-136.818522101212
 30
0.0
 10
87.7574340600919
 20
-137.0955077782261
 30
0.0
 10
87.93520098713078
 20
-137.0913736636438
 30
0.0
 10
87.95414901229967
 20
-137.0913736636438
 30
0.0
 10
87.98808320282937
 20
-137.0872395490615
 30
0.0
 10
88.03872610646255
 20
-137.0831054344792
 30
0.0
 10
88.0430324758191
 20
-137.0810383771881
 30
0.0
 10
88.08747420757884
 20
-137.0786268103484
 30
0.0
 10
88.08747420757884
 20
-137.0786268103484
 30
0.0
 10
88.08747420757884
 20
-137.2860215585604
 30
0.0
 10
88.08747420757884
 20
-137.2860215585604
 30
0.0
 10
88.05784638640569
 20
-137.2839545012693
 30
0.0
 10
88.00272485864168
 20
-137.2753417625562
 30
0.0
 10
87.96258949623852
 20
-137.273274705265
 30
0.0
  0
SPLINE
  5
122
330
FA
100
AcDbEntity
  8
_U+30EC_U+30A4_U+30E4_U+30FC 1
370
     0
100
AcDbSpline
210
0.0
220
0.0
230
1.0
 70
    11
 71
     3
 72
    20
 73
    16
 74
     0
 42
0.0000000001
 43
0.0000000001
 12
1.0
 22
0.0
 32
0.0
 13
1.0
 23
0.0
 33
0.0
 40
0.0
 40
0.0
 40
0.0
 40
0.0
 40
1.0
 40
1.0
 40
1.0
 40
2.0
 40
2.0
 40
2.0
 40
3.0
 40
3.0
 40
3.0
 40
4.0
 40
4.0
 40
4.0
 40
5.0
 40
5.0
 40
5.0
 40
5.0
 10
87.19261065528518
 20
-137.9988118144586
 30
0.0
 10
87.14610186623432
 20
-137.8210448874197
 30
0.0
 10
87.048777918776
 20
-137.679451462976
 30
0.0
 10
86.90907929684913
 20
-137.5695529169965
 30
0.0
 10
86.90907929684913
 20
-137.5695529169965
 30
0.0
 10
87.06979300123602
 20
-137.4551757468862
 30
0.0
 10
87.06979300123602
 20
-137.4551757468862
 30
0.0
 10
87.13128795564774
 20
-137.4975504213548
 30
0.0
 10
87.1714233180509
 20
-137.5313123571102
 30
0.0
 10
87.24755992827492
 20
-137.6391438457985
 30
0.0
 10
87.3280029078555
 20
-137.7555880732
 30
0.0
 10
87.34919024508979
 20
-137.8086425436728
 30
0.0
 10
87.37451169690638
 20
-137.8740993578926
 30
0.0
 10
87.37451169690638
 20
-137.8740993578926
 30
0.0
 10
87.19261065528518
 20
-137.9988118144586
 30
0.0
 10
87.19261065528518
 20
-137.9988118144586
 30
0.0
  0
HATCH
  5
123
330
FA
100
AcDbEntity
  8
_U+30EC_U+30A4_U+30E4_U+30FC 1
 62
   179
420
  2234388
100
AcDbHatch
 10
0.0
 20
0.0
 30
0.0
210
0.0
220
0.0
230
1.0
  2
SOLID
 70
     1
 71
     0
 91
        3
 92
        1
 93
        1
 72
     4
 94
        3
 73
     0
 74
     1
 95
       53
 96
       49
 40
0.0
 40
0.0
 40
0.0
 40
0.0
 40
1.0
 40
1.0
 40
1.0
 40
2.0
 40
2.0
 40
2.0
 40
3.0
 40
3.0
 40
3.0
 40
4.0
 40
4.0
 40
4.0
 40
5.0
 40
5.0
 40
5.0
 40
6.0
 40
6.0
 40
6.0
 40
7.0
 40
7.0
 40
7.0
 40
8.0
 40
8.0
 40
8.0
 40
9.0
 40
9.0
 40
9.0
 40
10.0
 40
10.0
 40
10.0
 40
11.0
 40
11.0
 40
11.0
 40
12.0
 40
12.0
 40
12.0
 40
13.0
 40
13.0
 40
13.0
 40
14.0
 40
14.0
 40
14.0
 40
15.0
 40
15.0
 40
15.0
 40
16.0
 40
16.0
 40
16.0
 40
16.0
 10
86.81175534939082
 20
-136.7740803694523
 10
86.74405922310565
 20
-136.9263535899004
 10
86.70185680341135
 20
-137.0045572574155
 10
86.66361624352507
 20
-137.0720811289264
 10
86.70599091799365
 20
-137.093440720935
 10
86.7102972873502
 20
-137.0955077782261
 10
86.7102972873502
 20
-137.1103216888127
 10
86.7102972873502
 20
-137.1230685421081
 10
86.6763630968205
 20
-137.1568304778636
 10
86.66585555559048
 20
-137.1654432165767
 10
86.66361624352507
 20
-137.3621581687845
 10
86.66361624352507
 20
-137.383517760793
 10
86.66361624352507
 20
-137.5164984465237
 10
86.66154918623393
 20
-137.5292452998191
 10
86.66154918623393
 20
-137.5440592104057
 10
86.66154918623393
 20
-137.5588731209922
 10
86.66154918623393
 20
-137.5588731209922
 10
86.66154918623393
 20
-138.0938964498515
 10
86.66154918623393
 20
-138.0938964498515
 10
86.66154918623393
 20
-138.1662434550418
 10
86.66585555559048
 20
-138.4008544575873
 10
86.67429603952935
 20
-138.5107530035668
 10
86.67429603952935
 20
-138.5107530035668
 10
86.4310722982707
 20
-138.5107530035668
 10
86.4310722982707
 20
-138.5107530035668
 10
86.45432669279614
 20
-138.3522786112453
 10
86.4605278646696
 20
-138.1111219272778
 10
86.4605278646696
 20
-138.0897623352692
 10
86.4605278646696
 20
-138.0897623352692
 10
86.4605278646696
 20
-137.3724934552402
 10
86.4605278646696
 20
-137.3724934552402
 10
86.36957734385899
 20
-137.4868706253505
 10
86.30825464422155
 20
-137.5461262676968
 10
86.26605222452724
 20
-137.5885009421654
 10
86.26605222452724
 20
-137.5885009421654
 10
86.07553844419293
 20
-137.4510416323039
 10
86.07553844419293
 20
-137.4510416323039
 10
86.35700274533784
 20
-137.2353786549273
 10
86.54941132818904
 20
-136.9263535899004
 10
86.66154918623393
 20
-136.5897677609915
 10
86.66154918623393
 20
-136.5897677609915
 10
86.88151853296712
 20
-136.7041449311018
 10
86.88151853296712
 20
-136.7041449311018
 10
86.89426538626255
 20
-136.7103461029752
 10
86.90270587020142
 20
-136.714824727106
 10
86.90270587020142
 20
-136.7296386376926
 10
86.90270587020142
 20
-136.7551323442835
 10
86.88582490232369
 20
-136.7592664588657
 10
86.81175534939082
 20
-136.7740803694523
 97
        0
 97
        0
 92
        1
 93
        1
 72
     4
 94
        3
 73
     0
 74
     1
 95
       77
 96
       73
 40
0.0
 40
0.0
 40
0.0
 40
0.0
 40
1.0
 40
1.0
 40
1.0
 40
2.0
 40
2.0
 40
2.0
 40
3.0
 40
3.0
 40
3.0
 40
4.0
 40
4.0
 40
4.0
 40
5.0
 40
5.0
 40
5.0
 40
6.0
 40
6.0
 40
6.0
 40
7.0
 40
7.0
 40
7.0
 40
8.0
 40
8.0
 40
8.0
 40
9.0
 40
9.0
 40
9.0
 40
10.0
 40
10.0
 40
10.0
 40
11.0
 40
11.0
 40
11.0
 40
12.0
 40
12.0
 40
12.0
 40
13.0
 40
13.0
 40
13.0
 40
14.0
 40
14.0
 40
14.0
 40
15.0
 40
15.0
 40
15.0
 40
16.0
 40
16.0
 40
16.0
 40
17.0
 40
17.0
 40
17.0
 40
18.0
 40
18.0
 40
18.0
 40
19.0
 40
19.0
 40
19.0
 40
20.0
 40
20.0
 40
20.0
 40
21.0
 40
21.0
 40
21.0
 40
22.0
 40
22.0
 40
22.0
 40
23.0
 40
23.0
 40
23.0
 40
24.0
 40
24.0
 40
24.0
 40
24.0
 10
87.96258949623852
 20
-137.273274705265
 10
87.89282631266221
 20
-137.2691405906827
 10
87.82513018637705
 20
-137.2691405906827
 10
87.7574340600919
 20
-137.2691405906827
 10
87.7574340600919
 20
-137.2691405906827
 10
87.7574340600919
 20
-138.0435980557669
 10
87.7574340600919
 20
-138.0435980557669
 10
87.7574340600919
 20
-138.3078368794855
 10
87.75536700280074
 20
-138.3374647006587
 10
87.74899357615304
 20
-138.3670925218318
 10
87.71505938562332
 20
-138.500417717111
 10
87.61360132358271
 20
-138.5086859462756
 10
87.43790145383497
 20
-138.5086859462756
 10
87.39776609143182
 20
-138.5086859462756
 10
87.3808851235541
 20
-138.5086859462756
 10
87.34057750637666
 20
-138.5045518316933
 10
87.34057750637666
 20
-138.5045518316933
 10
87.21586504981062
 20
-138.2633951477258
 10
87.21586504981062
 20
-138.2633951477258
 10
87.3321370224378
 20
-138.2950900261901
 10
87.41464705930953
 20
-138.2950900261901
 10
87.43790145383497
 20
-138.2950900261901
 10
87.50783689218555
 20
-138.2950900261901
 10
87.54159882794099
 20
-138.2782090583124
 10
87.54590519729756
 20
-138.2210204732573
 10
87.54590519729756
 20
-138.2082736199618
 10
87.5479722545887
 20
-138.1111219272778
 10
87.5479722545887
 20
-138.0539333422226
 10
87.5479722545887
 20
-138.0539333422226
 10
87.5479722545887
 20
-137.2670735333916
 10
87.5479722545887
 20
-137.2670735333916
 10
87.5479722545887
 20
-137.2670735333916
 10
87.25393335492264
 20
-137.2670735333916
 10
87.25393335492264
 20
-137.2670735333916
 10
87.1080335611223
 20
-137.2670735333916
 10
86.9619615125477
 20
-137.273274705265
 10
86.81812877603852
 20
-137.2860215585604
 10
86.81812877603852
 20
-137.2860215585604
 10
86.81812877603852
 20
-137.0786268103484
 10
86.81812877603852
 20
-137.0786268103484
 10
86.96833493919542
 20
-137.0913736636438
 10
87.18623722863747
 20
-137.0955077782261
 10
87.25393335492264
 20
-137.0955077782261
 10
87.25393335492264
 20
-137.0955077782261
 10
87.5479722545887
 20
-137.0955077782261
 10
87.5479722545887
 20
-137.0955077782261
 10
87.54590519729756
 20
-136.8267903303766
 10
87.54590519729756
 20
-136.7509982297011
 10
87.53746471335869
 20
-136.6028591238354
 10
87.53746471335869
 20
-136.6028591238354
 10
87.7955023652039
 20
-136.6407551741731
 10
87.7955023652039
 20
-136.6407551741731
 10
87.81031627579048
 20
-136.6428222314643
 10
87.82513018637705
 20
-136.6490234033377
 10
87.82513018637705
 20
-136.6703829953463
 10
87.82513018637705
 20
-136.6896755300637
 10
87.81875675972934
 20
-136.6917425873548
 10
87.7615681746742
 20
-136.7255045231103
 10
87.7574340600919
 20
-136.8037081906255
 10
87.7574340600919
 20
-136.818522101212
 10
87.7574340600919
 20
-137.0955077782261
 10
87.93520098713078
 20
-137.0913736636438
 10
87.95414901229967
 20
-137.0913736636438
 10
87.98808320282937
 20
-137.0872395490615
 10
88.03872610646255
 20
-137.0831054344792
 10
88.0430324758191
 20
-137.0810383771881
 10
88.08747420757884
 20
-137.0786268103484
 10
88.08747420757884
 20
-137.0786268103484
 10
88.08747420757884
 20
-137.2860215585604
 10
88.08747420757884
 20
-137.2860215585604
 10
88.05784638640569
 20
-137.2839545012693
 10
88.00272485864168
 20
-137.2753417625562
 10
87.96258949623852
 20
-137.273274705265
 97
        0
 97
        0
 92
        1
 93
        1
 72
     4
 94
        3
 73
     0
 74
     1
 95
       20
 96
       16
 40
0.0
 40
0.0
 40
0.0
 40
0.0
 40
1.0
 40
1.0
 40
1.0
 40
2.0
 40
2.0
 40
2.0
 40
3.0
 40
3.0
 40
3.0
 40
4.0
 40
4.0
 40
4.0
 40
5.0
 40
5.0
 40
5.0
 40
5.0
 10
87.19261065528518
 20
-137.9988118144586
 10
87.14610186623432
 20
-137.8210448874197
 10
87.048777918776
 20
-137.679451462976
 10
86.90907929684913
 20
-137.5695529169965
 10
86.90907929684913
 20
-137.5695529169965
 10
87.06979300123602
 20
-137.4551757468862
 10
87.06979300123602
 20
-137.4551757468862
 10
87.13128795564774
 20
-137.4975504213548
 10
87.1714233180509
 20
-137.5313123571102
 10
87.24755992827492
 20
-137.6391438457985
 10
87.3280029078555
 20
-137.7555880732
 10
87.34919024508979
 20
-137.8086425436728
 10
87.37451169690638
 20
-137.8740993578926
 10
87.37451169690638
 20
-137.8740993578926
 10
87.19261065528518
 20
-137.9988118144586
 10
87.19261065528518
 20
-137.9988118144586
 97
        0
 97
        0
 75
     2
 76
     1
 98
        0
  0
SPLINE
  5
124
330
FA
100
AcDbEntity
  8
_U+30EC_U+30A4_U+30E4_U+30FC 1
370
     0
100
AcDbSpline
210
0.0
220
0.0
230
1.0
 70
    11
 71
     3
 72
    23
 73
    19
 74
     0
 42
0.0000000001
 43
0.0000000001
 12
1.0
 22
0.0
 32
0.0
 13
1.0
 23
0.0
 33
0.0
 40
0.0
 40
0.0
 40
0.0
 40
0.0
 40
1.0
 40
1.0
 40
1.0
 40
2.0
 40
2.0
 40
2.0
 40
3.0
 40
3.0
 40
3.0
 40
4.0
 40
4.0
 40
4.0
 40
5.0
 40
5.0
 40
5.0
 40
6.0
 40
6.0
 40
6.0
 40
6.0
 10
88.30864933773186
 20
-138.4749240105202
 30
0.0
 10
88.44817570488449
 20
-138.3078368794855
 30
0.0
 10
88.65970456767883
 20
-138.0518662849315
 30
0.0
 10
88.65970456767883
 20
-137.5588731209922
 30
0.0
 10
88.65970456767883
 20
-137.065879957053
 30
0.0
 10
88.44817570488449
 20
-136.8102538720474
 30
0.0
 10
88.30864933773186
 20
-136.6428222314643
 30
0.0
 10
88.30864933773186
 20
-136.6428222314643
 30
0.0
 10
88.42078719577675
 20
-136.5436034814891
 30
0.0
 10
88.42078719577675
 20
-136.5436034814891
 30
0.0
 10
88.5835679574548
 20
-136.735839809566
 30
0.0
 10
88.81852346954885
 20
-137.010758429289
 30
0.0
 10
88.81852346954885
 20
-137.5588731209922
 30
0.0
 10
88.81852346954885
 20
-138.1069878126955
 30
0.0
 10
88.5835679574548
 20
-138.3819064324184
 30
0.0
 10
88.42078719577675
 20
-138.5741427604954
 30
0.0
 10
88.42078719577675
 20
-138.5741427604954
 30
0.0
 10
88.30864933773186
 20
-138.4749240105202
 30
0.0
 10
88.30864933773186
 20
-138.4749240105202
 30
0.0
  0
HATCH
  5
125
330
FA
100
AcDbEntity
  8
_U+30EC_U+30A4_U+30E4_U+30FC 1
 62
   179
420
  2234388
100
AcDbHatch
 10
0.0
 20
0.0
 30
0.0
210
0.0
220
0.0
230
1.0
  2
SOLID
 70
     1
 71
     0
 91
        1
 92
        1
 93
        1
 72
     4
 94
        3
 73
     0
 74
     1
 95
       23
 96
       19
 40
0.0
 40
0.0
 40
0.0
 40
0.0
 40
1.0
 40
1.0
 40
1.0
 40
2.0
 40
2.0
 40
2.0
 40
3.0
 40
3.0
 40
3.0
 40
4.0
 40
4.0
 40
4.0
 40
5.0
 40
5.0
 40
5.0
 40
6.0
 40
6.0
 40
6.0
 40
6.0
 10
88.30864933773186
 20
-138.4749240105202
 10
88.44817570488449
 20
-138.3078368794855
 10
88.65970456767883
 20
-138.0518662849315
 10
88.65970456767883
 20
-137.5588731209922
 10
88.65970456767883
 20
-137.065879957053
 10
88.44817570488449
 20
-136.8102538720474
 10
88.30864933773186
 20
-136.6428222314643
 10
88.30864933773186
 20
-136.6428222314643
 10
88.42078719577675
 20
-136.5436034814891
 10
88.42078719577675
 20
-136.5436034814891
 10
88.5835679574548
 20
-136.735839809566
 10
88.81852346954885
 20
-137.010758429289
 10
88.81852346954885
 20
-137.5588731209922
 10
88.81852346954885
 20
-138.1069878126955
 10
88.5835679574548
 20
-138.3819064324184
 10
88.42078719577675
 20
-138.5741427604954
 10
88.42078719577675
 20
-138.5741427604954
 10
88.30864933773186
 20
-138.4749240105202
 10
88.30864933773186
 20
-138.4749240105202
 97
        0
 97
        0
 75
     2
 76
     1
 98
        0
  0
ENDBLK
  5
FD
330
FA
100
AcDbEntity
  8
0
100
AcDbBlockEnd
  0
ENDSEC
  0
SECTION
  2
ENTITIES
  0
SPLINE
  5
41
330
1F
100
AcDbEntity
  8
_U+30EC_U+30A4_U+30E4_U+30FC 1
370
     0
100
AcDbSpline
210
0.0
220
0.0
230
1.0
 70
    11
 71
     3
 72
    26
 73
    22
 74
     0
 42
0.0000000001
 43
0.0000000001
 12
1.0
 22
0.0
 32
0.0
 13
1.0
 23
0.0
 33
0.0
 40
0.0
 40
0.0
 40
0.0
 40
0.0
 40
1.0
 40
1.0
 40
1.0
 40
2.0
 40
2.0
 40
2.0
 40
3.0
 40
3.0
 40
3.0
 40
4.0
 40
4.0
 40
4.0
 40
5.0
 40
5.0
 40
5.0
 40
6.0
 40
6.0
 40
6.0
 40
7.0
 40
7.0
 40
7.0
 40
7.0
 10
89.14045105917097
 20
-126.2758530239865
 30
0.0
 10
89.14045105917097
 20
-126.2758530239865
 30
0.0
 10
77.21112969684664
 20
-126.2758530239865
 30
0.0
 10
77.21112969684664
 20
-126.2758530239865
 30
0.0
 10
77.21112969684664
 20
-126.2951499684264
 30
0.0
 10
77.19528997502853
 20
-126.3109896906446
 30
0.0
 10
77.1756402533076
 20
-126.3109896906446
 30
0.0
 10
77.1756402533076
 20
-126.3109896906446
 30
0.0
 10
77.1756402533076
 20
-135.2758138550702
 30
0.0
 10
77.1756402533076
 20
-135.2758138550702
 30
0.0
 10
77.1756402533076
 20
-135.2758138550702
 30
0.0
 10
89.14045105917097
 20
-135.2758138550702
 30
0.0
 10
89.14045105917097
 20
-135.2758138550702
 30
0.0
 10
89.14045105917097
 20
-135.2565169106304
 30
0.0
 10
89.15632605876596
 20
-135.2406771884118
 30
0.0
 10
89.1756230027181
 20
-135.2406771884118
 30
0.0
 10
89.1756230027181
 20
-135.2406771884118
 30
0.0
 10
89.1756230027181
 20
-126.3109896906446
 30
0.0
 10
89.1756230027181
 20
-126.3109896906446
 30
0.0
 10
89.15632605876596
 20
-126.3109896906446
 30
0.0
 10
89.14045105917097
 20
-126.2951499684264
 30
0.0
 10
89.14045105917097
 20
-126.2758530239865
 30
0.0
  0
SPLINE
  5
42
330
1F
100
AcDbEntity
  8
_U+30EC_U+30A4_U+30E4_U+30FC 1
370
     0
100
AcDbSpline
210
0.0
220
0.0
230
1.0
 70
    11
 71
     3
 72
    17
 73
    13
 74
     0
 42
0.0000000001
 43
0.0000000001
 12
1.0
 22
0.0
 32
0.0
 13
1.0
 23
0.0
 33
0.0
 40
0.0
 40
0.0
 40
0.0
 40
0.0
 40
1.0
 40
1.0
 40
1.0
 40
2.0
 40
2.0
 40
2.0
 40
3.0
 40
3.0
 40
3.0
 40
4.0
 40
4.0
 40
4.0
 40
4.0
 10
85.67575003645175
 20
-130.2756121896534
 30
0.0
 10
85.39941921016819
 20
-130.2756121896534
 30
0.0
 10
85.17586393809378
 20
-130.0516688563761
 30
0.0
 10
85.17586393809378
 20
-129.7760435786671
 30
0.0
 10
85.17586393809378
 20
-129.4997480231806
 30
0.0
 10
85.39941921016819
 20
-129.2758399676809
 30
0.0
 10
85.67575003645175
 20
-129.2758399676809
 30
0.0
 10
85.95204558495841
 20
-129.2758399676809
 30
0.0
 10
86.17560085703282
 20
-129.4997480231806
 30
0.0
 10
86.17560085703282
 20
-129.7760435786671
 30
0.0
 10
86.17560085703282
 20
-130.0516688563761
 30
0.0
 10
85.95204558495841
 20
-130.2756121896534
 30
0.0
 10
85.67575003645175
 20
-130.2756121896534
 30
0.0
  0
SPLINE
  5
43
330
1F
100
AcDbEntity
  8
_U+30EC_U+30A4_U+30E4_U+30FC 1
370
     0
100
AcDbSpline
210
0.0
220
0.0
230
1.0
 70
    11
 71
     3
 72
    17
 73
    13
 74
     0
 42
0.0000000001
 43
0.0000000001
 12
1.0
 22
0.0
 32
0.0
 13
1.0
 23
0.0
 33
0.0
 40
0.0
 40
0.0
 40
0.0
 40
0.0
 40
1.0
 40
1.0
 40
1.0
 40
2.0
 40
2.0
 40
2.0
 40
3.0
 40
3.0
 40
3.0
 40
4.0
 40
4.0
 40
4.0
 40
4.0
 10
87.67561192987546
 20
-134.2760416330977
 30
0.0
 10
87.39966915913756
 20
-134.2760416330977
 30
0.0
 10
87.1757258315175
 20
-134.0520982998204
 30
0.0
 10
87.1757258315175
 20
-133.775802744334
 30
0.0
 10
87.1757258315175
 20
-133.4995071888475
 30
0.0
 10
87.39966915913756
 20
-133.2755991333478
 30
0.0
 10
87.67561192987546
 20
-133.2755991333478
 30
0.0
 10
87.95190747838213
 20
-133.2755991333478
 30
0.0
 10
88.17585080600219
 20
-133.4995071888475
 30
0.0
 10
88.17585080600219
 20
-133.775802744334
 30
0.0
 10
88.17585080600219
 20
-134.0520982998204
 30
0.0
 10
87.95190747838213
 20
-134.2760416330977
 30
0.0
 10
87.67561192987546
 20
-134.2760416330977
 30
0.0
  0
HATCH
  5
44
330
1F
100
AcDbEntity
  8
_U+30EC_U+30A4_U+30E4_U+30FC 1
 62
   253
420
 11711154
100
AcDbHatch
 10
0.0
 20
0.0
 30
0.0
210
0.0
220
0.0
230
1.0
  2
SOLID
 70
     1
 71
     0
 91
        3
 92
        1
 93
        1
 72
     4
 94
        3
 73
     0
 74
     1
 95
       26
 96
       22
 40
0.0
 40
0.0
 40
0.0
 40
0.0
 40
1.0
 40
1.0
 40
1.0
 40
2.0
 40
2.0
 40
2.0
 40
3.0
 40
3.0
 40
3.0
 40
4.0
 40
4.0
 40
4.0
 40
5.0
 40
5.0
 40
5.0
 40
6.0
 40
6.0
 40
6.0
 40
7.0
 40
7.0
 40
7.0
 40
7.0
 10
89.14045105917097
 20
-126.2758530239865
 10
89.14045105917097
 20
-126.2758530239865
 10
77.21112969684664
 20
-126.2758530239865
 10
77.21112969684664
 20
-126.2758530239865
 10
77.21112969684664
 20
-126.2951499684264
 10
77.19528997502853
 20
-126.3109896906446
 10
77.1756402533076
 20
-126.3109896906446
 10
77.1756402533076
 20
-126.3109896906446
 10
77.1756402533076
 20
-135.2758138550702
 10
77.1756402533076
 20
-135.2758138550702
 10
77.1756402533076
 20
-135.2758138550702
 10
89.14045105917097
 20
-135.2758138550702
 10
89.14045105917097
 20
-135.2758138550702
 10
89.14045105917097
 20
-135.2565169106304
 10
89.15632605876596
 20
-135.2406771884118
 10
89.1756230027181
 20
-135.2406771884118
 10
89.1756230027181
 20
-135.2406771884118
 10
89.1756230027181
 20
-126.3109896906446
 10
89.1756230027181
 20
-126.3109896906446
 10
89.15632605876596
 20
-126.3109896906446
 10
89.14045105917097
 20
-126.2951499684264
 10
89.14045105917097
 20
-126.2758530239865
 97
        0
 97
        0
 92
        1
 93
        1
 72
     4
 94
        3
 73
     0
 74
     1
 95
       17
 96
       13
 40
0.0
 40
0.0
 40
0.0
 40
0.0
 40
1.0
 40
1.0
 40
1.0
 40
2.0
 40
2.0
 40
2.0
 40
3.0
 40
3.0
 40
3.0
 40
4.0
 40
4.0
 40
4.0
 40
4.0
 10
85.67575003645175
 20
-130.2756121896534
 10
85.39941921016819
 20
-130.2756121896534
 10
85.17586393809378
 20
-130.0516688563761
 10
85.17586393809378
 20
-129.7760435786671
 10
85.17586393809378
 20
-129.4997480231806
 10
85.39941921016819
 20
-129.2758399676809
 10
85.67575003645175
 20
-129.2758399676809
 10
85.95204558495841
 20
-129.2758399676809
 10
86.17560085703282
 20
-129.4997480231806
 10
86.17560085703282
 20
-129.7760435786671
 10
86.17560085703282
 20
-130.0516688563761
 10
85.95204558495841
 20
-130.2756121896534
 10
85.67575003645175
 20
-130.2756121896534
 97
        0
 97
        0
 92
        1
 93
        1
 72
     4
 94
        3
 73
     0
 74
     1
 95
       17
 96
       13
 40
0.0
 40
0.0
 40
0.0
 40
0.0
 40
1.0
 40
1.0
 40
1.0
 40
2.0
 40
2.0
 40
2.0
 40
3.0
 40
3.0
 40
3.0
 40
4.0
 40
4.0
 40
4.0
 40
4.0
 10
87.67561192987546
 20
-134.2760416330977
 10
87.39966915913756
 20
-134.2760416330977
 10
87.1757258315175
 20
-134.0520982998204
 10
87.1757258315175
 20
-133.775802744334
 10
87.1757258315175
 20
-133.4995071888475
 10
87.39966915913756
 20
-133.2755991333478
 10
87.67561192987546
 20
-133.2755991333478
 10
87.95190747838213
 20
-133.2755991333478
 10
88.17585080600219
 20
-133.4995071888475
 10
88.17585080600219
 20
-133.775802744334
 10
88.17585080600219
 20
-134.0520982998204
 10
87.95190747838213
 20
-134.2760416330977
 10
87.67561192987546
 20
-134.2760416330977
 97
        0
 97
        0
 75
     2
 76
     1
 98
        0
  0
SPLINE
  5
45
330
1F
100
AcDbEntity
  8
_U+30EC_U+30A4_U+30E4_U+30FC 1
370
     0
100
AcDbSpline
210
0.0
220
0.0
230
1.0
 70
    11
 71
     3
 72
    26
 73
    22
 74
     0
 42
0.0000000001
 43
0.0000000001
 12
1.0
 22
0.0
 32
0.0
 13
1.0
 23
0.0
 33
0.0
 40
0.0
 40
0.0
 40
0.0
 40
0.0
 40
1.0
 40
1.0
 40
1.0
 40
2.0
 40
2.0
 40
2.0
 40
3.0
 40
3.0
 40
3.0
 40
4.0
 40
4.0
 40
4.0
 40
5.0
 40
5.0
 40
5.0
 40
6.0
 40
6.0
 40
6.0
 40
7.0
 40
7.0
 40
7.0
 40
7.0
 10
99.14053663738086
 20
-126.2758530239865
 30
0.0
 10
99.14053663738086
 20
-126.2758530239865
 30
0.0
 10
98.21107304998235
 20
-126.2758530239865
 30
0.0
 10
98.21107304998235
 20
-126.2758530239865
 30
0.0
 10
98.21107304998235
 20
-126.2951499684264
 30
0.0
 10
98.19519805038735
 20
-126.3109896906446
 30
0.0
 10
98.1755860865671
 20
-126.3109896906446
 30
0.0
 10
98.1755860865671
 20
-126.3109896906446
 30
0.0
 10
98.1755860865671
 20
-135.2758138550702
 30
0.0
 10
98.1755860865671
 20
-135.2758138550702
 30
0.0
 10
98.1755860865671
 20
-135.2758138550702
 30
0.0
 10
99.14053663738086
 20
-135.2758138550702
 30
0.0
 10
99.14053663738086
 20
-135.2758138550702
 30
0.0
 10
99.14053663738086
 20
-135.2565169106304
 30
0.0
 10
99.15637635919897
 20
-135.2406771884118
 30
0.0
 10
99.17567330315111
 20
-135.2406771884118
 30
0.0
 10
99.17567330315111
 20
-135.2406771884118
 30
0.0
 10
99.17567330315111
 20
-126.3109896906446
 30
0.0
 10
99.17567330315111
 20
-126.3109896906446
 30
0.0
 10
99.15637635919897
 20
-126.3109896906446
 30
0.0
 10
99.14053663738086
 20
-126.2951499684264
 30
0.0
 10
99.14053663738086
 20
-126.2758530239865
 30
0.0
  0
HATCH
  5
46
330
1F
100
AcDbEntity
  8
_U+30EC_U+30A4_U+30E4_U+30FC 1
 62
   253
420
 11711154
100
AcDbHatch
 10
0.0
 20
0.0
 30
0.0
210
0.0
220
0.0
230
1.0
  2
SOLID
 70
     1
 71
     0
 91
        1
 92
        1
 93
        1
 72
     4
 94
        3
 73
     0
 74
     1
 95
       26
 96
       22
 40
0.0
 40
0.0
 40
0.0
 40
0.0
 40
1.0
 40
1.0
 40
1.0
 40
2.0
 40
2.0
 40
2.0
 40
3.0
 40
3.0
 40
3.0
 40
4.0
 40
4.0
 40
4.0
 40
5.0
 40
5.0
 40
5.0
 40
6.0
 40
6.0
 40
6.0
 40
7.0
 40
7.0
 40
7.0
 40
7.0
 10
99.14053663738086
 20
-126.2758530239865
 10
99.14053663738086
 20
-126.2758530239865
 10
98.21107304998235
 20
-126.2758530239865
 10
98.21107304998235
 20
-126.2758530239865
 10
98.21107304998235
 20
-126.2951499684264
 10
98.19519805038735
 20
-126.3109896906446
 10
98.1755860865671
 20
-126.3109896906446
 10
98.1755860865671
 20
-126.3109896906446
 10
98.1755860865671
 20
-135.2758138550702
 10
98.1755860865671
 20
-135.2758138550702
 10
98.1755860865671
 20
-135.2758138550702
 10
99.14053663738086
 20
-135.2758138550702
 10
99.14053663738086
 20
-135.2758138550702
 10
99.14053663738086
 20
-135.2565169106304
 10
99.15637635919897
 20
-135.2406771884118
 10
99.17567330315111
 20
-135.2406771884118
 10
99.17567330315111
 20
-135.2406771884118
 10
99.17567330315111
 20
-126.3109896906446
 10
99.17567330315111
 20
-126.3109896906446
 10
99.15637635919897
 20
-126.3109896906446
 10
99.14053663738086
 20
-126.2951499684264
 10
99.14053663738086
 20
-126.2758530239865
 97
        0
 97
        0
 75
     2
 76
     1
 98
        0
  0
POLYLINE
  5
47
330
1F
100
AcDbEntity
  8
_U+30EC_U+30A4_U+30E4_U+30FC 1
 62
   179
420
  2234388
370
    25
100
AcDb2dPolyline
 66
     1
 10
0.0
 20
0.0
 30
0.0
  0
VERTEX
  5
48
330
47
100
AcDbEntity
  8
_U+30EC_U+30A4_U+30E4_U+30FC 1
 62
   179
420
  2234388
370
    25
100
AcDbVertex
100
AcDb2dVertex
 10
98.1755860865671
 20
-126.2758530239865
 30
0.0
  0
VERTEX
  5
49
330
47
100
AcDbEntity
  8
_U+30EC_U+30A4_U+30E4_U+30FC 1
 62
   179
420
  2234388
370
    25
100
AcDbVertex
100
AcDb2dVertex
 10
99.17567330315111
 20
-126.2758530239865
 30
0.0
  0
SEQEND
  5
4A
330
47
100
AcDbEntity
  8
_U+30EC_U+30A4_U+30E4_U+30FC 1
 62
   179
420
  2234388
370
    25
  0
POLYLINE
  5
4B
330
1F
100
AcDbEntity
  8
_U+30EC_U+30A4_U+30E4_U+30FC 1
 62
   179
420
  2234388
370
    25
100
AcDb2dPolyline
 66
     1
 10
0.0
 20
0.0
 30
0.0
  0
VERTEX
  5
4C
330
4B
100
AcDbEntity
  8
_U+30EC_U+30A4_U+30E4_U+30FC 1
 62
   179
420
  2234388
370
    25
100
AcDbVertex
100
AcDb2dVertex
 10
89.1756230027181
 20
-126.2758530239865
 30
0.0
  0
VERTEX
  5
4D
330
4B
100
AcDbEntity
  8
_U+30EC_U+30A4_U+30E4_U+30FC 1
 62
   179
420
  2234388
370
    25
100
AcDbVertex
100
AcDb2dVertex
 10
89.1756230027181
 20
-135.2758138550702
 30
0.0
  0
SEQEND
  5
4E
330
4B
100
AcDbEntity
  8
_U+30EC_U+30A4_U+30E4_U+30FC 1
 62
   179
420
  2234388
370
    25
  0
POLYLINE
  5
4F
330
1F
100
AcDbEntity
  8
_U+30EC_U+30A4_U+30E4_U+30FC 1
 62
   179
420
  2234388
370
    25
100
AcDb2dPolyline
 66
     1
 10
0.0
 20
0.0
 30
0.0
  0
VERTEX
  5
50
330
4F
100
AcDbEntity
  8
_U+30EC_U+30A4_U+30E4_U+30FC 1
 62
   179
420
  2234388
370
    25
100
AcDbVertex
100
AcDb2dVertex
 10
77.1756402533076
 20
-126.2758530239865
 30
0.0
  0
VERTEX
  5
51
330
4F
100
AcDbEntity
  8
_U+30EC_U+30A4_U+30E4_U+30FC 1
 62
   179
420
  2234388
370
    25
100
AcDbVertex
100
AcDb2dVertex
 10
89.1756230027181
 20
-126.2758530239865
 30
0.0
  0
SEQEND
  5
52
330
4F
100
AcDbEntity
  8
_U+30EC_U+30A4_U+30E4_U+30FC 1
 62
   179
420
  2234388
370
    25
  0
POLYLINE
  5
53
330
1F
100
AcDbEntity
  8
_U+30EC_U+30A4_U+30E4_U+30FC 1
 62
   179
420
  2234388
370
    25
100
AcDb2dPolyline
 66
     1
 10
0.0
 20
0.0
 30
0.0
  0
VERTEX
  5
54
330
53
100
AcDbEntity
  8
_U+30EC_U+30A4_U+30E4_U+30FC 1
 62
   179
420
  2234388
370
    25
100
AcDbVertex
100
AcDb2dVertex
 10
77.1756402533076
 20
-135.2758138550702
 30
0.0
  0
VERTEX
  5
55
330
53
100
AcDbEntity
  8
_U+30EC_U+30A4_U+30E4_U+30FC 1
 62
   179
420
  2234388
370
    25
100
AcDbVertex
100
AcDb2dVertex
 10
89.1756230027181
 20
-135.2758138550702
 30
0.0
  0
SEQEND
  5
56
330
53
100
AcDbEntity
  8
_U+30EC_U+30A4_U+30E4_U+30FC 1
 62
   179
420
  2234388
370
    25
  0
POLYLINE
  5
57
330
1F
100
AcDbEntity
  8
_U+30EC_U+30A4_U+30E4_U+30FC 1
 62
   179
420
  2234388
370
    25
100
AcDb2dPolyline
 66
     1
 10
0.0
 20
0.0
 30
0.0
  0
VERTEX
  5
58
330
57
100
AcDbEntity
  8
_U+30EC_U+30A4_U+30E4_U+30FC 1
 62
   179
420
  2234388
370
    25
100
AcDbVertex
100
AcDb2dVertex
 10
98.1755860865671
 20
-126.2758530239865
 30
0.0
  0
VERTEX
  5
59
330
57
100
AcDbEntity
  8
_U+30EC_U+30A4_U+30E4_U+30FC 1
 62
   179
420
  2234388
370
    25
100
AcDbVertex
100
AcDb2dVertex
 10
98.1755860865671
 20
-135.2758138550702
 30
0.0
  0
SEQEND
  5
5A
330
57
100
AcDbEntity
  8
_U+30EC_U+30A4_U+30E4_U+30FC 1
 62
   179
420
  2234388
370
    25
  0
POLYLINE
  5
5B
330
1F
100
AcDbEntity
  8
_U+30EC_U+30A4_U+30E4_U+30FC 1
 62
   179
420
  2234388
370
    25
100
AcDb2dPolyline
 66
     1
 10
0.0
 20
0.0
 30
0.0
  0
VERTEX
  5
5C
330
5B
100
AcDbEntity
  8
_U+30EC_U+30A4_U+30E4_U+30FC 1
 62
   179
420
  2234388
370
    25
100
AcDbVertex
100
AcDb2dVertex
 10
99.17567330315111
 20
-126.2758530239865
 30
0.0
  0
VERTEX
  5
5D
330
5B
100
AcDbEntity
  8
_U+30EC_U+30A4_U+30E4_U+30FC 1
 62
   179
420
  2234388
370
    25
100
AcDbVertex
100
AcDb2dVertex
 10
99.17567330315111
 20
-135.2758138550702
 30
0.0
  0
SEQEND
  5
5E
330
5B
100
AcDbEntity
  8
_U+30EC_U+30A4_U+30E4_U+30FC 1
 62
   179
420
  2234388
370
    25
  0
POLYLINE
  5
5F
330
1F
100
AcDbEntity
  8
_U+30EC_U+30A4_U+30E4_U+30FC 1
 62
   179
420
  2234388
370
    25
100
AcDb2dPolyline
 66
     1
 10
0.0
 20
0.0
 30
0.0
  0
VERTEX
  5
60
330
5F
100
AcDbEntity
  8
_U+30EC_U+30A4_U+30E4_U+30FC 1
 62
   179
420
  2234388
370
    25
100
AcDbVertex
100
AcDb2dVertex
 10
98.1755860865671
 20
-135.2758138550702
 30
0.0
  0
VERTEX
  5
61
330
5F
100
AcDbEntity
  8
_U+30EC_U+30A4_U+30E4_U+30FC 1
 62
   179
420
  2234388
370
    25
100
AcDbVertex
100
AcDb2dVertex
 10
99.17567330315111
 20
-135.2758138550702
 30
0.0
  0
SEQEND
  5
62
330
5F
100
AcDbEntity
  8
_U+30EC_U+30A4_U+30E4_U+30FC 1
 62
   179
420
  2234388
370
    25
  0
POLYLINE
  5
63
330
1F
100
AcDbEntity
  8
_U+30EC_U+30A4_U+30E4_U+30FC 1
 62
   179
420
  2234388
370
    25
100
AcDb2dPolyline
 66
     1
 10
0.0
 20
0.0
 30
0.0
  0
VERTEX
  5
64
330
63
100
AcDbEntity
  8
_U+30EC_U+30A4_U+30E4_U+30FC 1
 62
   179
420
  2234388
370
    25
100
AcDbVertex
100
AcDb2dVertex
 10
77.1756402533076
 20
-126.2758530239865
 30
0.0
  0
VERTEX
  5
65
330
63
100
AcDbEntity
  8
_U+30EC_U+30A4_U+30E4_U+30FC 1
 62
   179
420
  2234388
370
    25
100
AcDbVertex
100
AcDb2dVertex
 10
77.1756402533076
 20
-135.2758138550702
 30
0.0
  0
SEQEND
  5
66
330
63
100
AcDbEntity
  8
_U+30EC_U+30A4_U+30E4_U+30FC 1
 62
   179
420
  2234388
370
    25
  0
SPLINE
  5
67
330
1F
100
AcDbEntity
  8
_U+30EC_U+30A4_U+30E4_U+30FC 1
 62
   179
420
  2234388
370
     9
100
AcDbSpline
210
0.0
220
0.0
230
1.0
 70
    11
 71
     3
 72
    17
 73
    13
 74
     0
 42
0.0000000001
 43
0.0000000001
 12
1.0
 22
0.0
 32
0.0
 13
1.0
 23
0.0
 33
0.0
 40
0.0
 40
0.0
 40
0.0
 40
0.0
 40
1.0
 40
1.0
 40
1.0
 40
2.0
 40
2.0
 40
2.0
 40
3.0
 40
3.0
 40
3.0
 40
4.0
 40
4.0
 40
4.0
 40
4.0
 10
103.2756944186255
 20
-126.2758530239865
 30
0.0
 10
103.2756944186255
 20
-126.2207138573338
 30
0.0
 10
103.2308916408588
 20
-126.1759463573449
 30
0.0
 10
103.1757851455442
 20
-126.1759463573449
 30
0.0
 10
103.1206459802843
 20
-126.1759463573449
 30
0.0
 10
103.0758784814264
 20
-126.2207138573338
 30
0.0
 10
103.0758784814264
 20
-126.2758530239865
 30
0.0
 10
103.0758784814264
 20
-126.3309569128618
 30
0.0
 10
103.1206459802843
 20
-126.3757596906282
 30
0.0
 10
103.1757851455442
 20
-126.3757596906282
 30
0.0
 10
103.2308916408588
 20
-126.3757596906282
 30
0.0
 10
103.2756944186255
 20
-126.3309569128618
 30
0.0
 10
103.2756944186255
 20
-126.2758530239865
 30
0.0
  0
SPLINE
  5
68
330
1F
100
AcDbEntity
  8
_U+30EC_U+30A4_U+30E4_U+30FC 1
 62
   179
420
  2234388
370
     9
100
AcDbSpline
210
0.0
220
0.0
230
1.0
 70
    11
 71
     3
 72
    17
 73
    13
 74
     0
 42
0.0000000001
 43
0.0000000001
 12
1.0
 22
0.0
 32
0.0
 13
1.0
 23
0.0
 33
0.0
 40
0.0
 40
0.0
 40
0.0
 40
0.0
 40
1.0
 40
1.0
 40
1.0
 40
2.0
 40
2.0
 40
2.0
 40
3.0
 40
3.0
 40
3.0
 40
4.0
 40
4.0
 40
4.0
 40
4.0
 10
99.27557996726895
 20
-122.27609385832
 30
0.0
 10
99.27557996726895
 20
-122.2202844138895
 30
0.0
 10
99.23081246841106
 20
-122.1761871916783
 30
0.0
 10
99.17567330315111
 20
-122.1761871916783
 30
0.0
 10
99.12056941566804
 20
-122.1761871916783
 30
0.0
 10
99.07576663903328
 20
-122.2202844138895
 30
0.0
 10
99.07576663903328
 20
-122.27609385832
 30
0.0
 10
99.07576663903328
 20
-122.3311977471949
 30
0.0
 10
99.12056941566804
 20
-122.3760005249616
 30
0.0
 10
99.17567330315111
 20
-122.3760005249616
 30
0.0
 10
99.23081246841106
 20
-122.3760005249616
 30
0.0
 10
99.27557996726895
 20
-122.3311977471949
 30
0.0
 10
99.27557996726895
 20
-122.27609385832
 30
0.0
  0
SPLINE
  5
69
330
1F
100
AcDbEntity
  8
_U+30EC_U+30A4_U+30E4_U+30FC 1
 62
   179
420
  2234388
370
     9
100
AcDbSpline
210
0.0
220
0.0
230
1.0
 70
    11
 71
     3
 72
    17
 73
    13
 74
     0
 42
0.0000000001
 43
0.0000000001
 12
1.0
 22
0.0
 32
0.0
 13
1.0
 23
0.0
 33
0.0
 40
0.0
 40
0.0
 40
0.0
 40
0.0
 40
1.0
 40
1.0
 40
1.0
 40
2.0
 40
2.0
 40
2.0
 40
3.0
 40
3.0
 40
3.0
 40
4.0
 40
4.0
 40
4.0
 40
4.0
 10
103.2756944186255
 20
-135.2758138550702
 30
0.0
 10
103.2756944186255
 20
-135.2206746884171
 30
0.0
 10
103.2308916408588
 20
-135.1759071884286
 30
0.0
 10
103.1757851455442
 20
-135.1759071884286
 30
0.0
 10
103.1206459802843
 20
-135.1759071884286
 30
0.0
 10
103.0758784814264
 20
-135.2206746884171
 30
0.0
 10
103.0758784814264
 20
-135.2758138550702
 30
0.0
 10
103.0758784814264
 20
-135.3309177439451
 30
0.0
 10
103.1206459802843
 20
-135.3757205217118
 30
0.0
 10
103.1757851455442
 20
-135.3757205217118
 30
0.0
 10
103.2308916408588
 20
-135.3757205217118
 30
0.0
 10
103.2756944186255
 20
-135.3309177439451
 30
0.0
 10
103.2756944186255
 20
-135.2758138550702
 30
0.0
  0
SPLINE
  5
6A
330
1F
100
AcDbEntity
  8
_U+30EC_U+30A4_U+30E4_U+30FC 1
 62
   179
420
  2234388
370
     9
100
AcDbSpline
210
0.0
220
0.0
230
1.0
 70
    11
 71
     3
 72
    17
 73
    13
 74
     0
 42
0.0000000001
 43
0.0000000001
 12
1.0
 22
0.0
 32
0.0
 13
1.0
 23
0.0
 33
0.0
 40
0.0
 40
0.0
 40
0.0
 40
0.0
 40
1.0
 40
1.0
 40
1.0
 40
2.0
 40
2.0
 40
2.0
 40
3.0
 40
3.0
 40
3.0
 40
4.0
 40
4.0
 40
4.0
 40
4.0
 10
98.27580777055304
 20
-122.27609385832
 30
0.0
 10
98.27580777055304
 20
-122.2202844138895
 30
0.0
 10
98.23104027169515
 20
-122.1761871916783
 30
0.0
 10
98.1755860865671
 20
-122.1761871916783
 30
0.0
 10
98.12044444118335
 20
-122.1761871916783
 30
0.0
 10
98.07567694232547
 20
-122.2202844138895
 30
0.0
 10
98.07567694232547
 20
-122.27609385832
 30
0.0
 10
98.07567694232547
 20
-122.3311977471949
 30
0.0
 10
98.12044444118335
 20
-122.3760005249616
 30
0.0
 10
98.1755860865671
 20
-122.3760005249616
 30
0.0
 10
98.23104027169515
 20
-122.3760005249616
 30
0.0
 10
98.27580777055304
 20
-122.3311977471949
 30
0.0
 10
98.27580777055304
 20
-122.27609385832
 30
0.0
  0
SPLINE
  5
6B
330
1F
100
AcDbEntity
  8
_U+30EC_U+30A4_U+30E4_U+30FC 1
 62
   179
420
  2234388
370
     9
100
AcDbSpline
210
0.0
220
0.0
230
1.0
 70
    11
 71
     3
 72
    17
 73
    13
 74
     0
 42
0.0000000001
 43
0.0000000001
 12
1.0
 22
0.0
 32
0.0
 13
1.0
 23
0.0
 33
0.0
 40
0.0
 40
0.0
 40
0.0
 40
0.0
 40
1.0
 40
1.0
 40
1.0
 40
2.0
 40
2.0
 40
2.0
 40
3.0
 40
3.0
 40
3.0
 40
4.0
 40
4.0
 40
4.0
 40
4.0
 10
93.27560623145214
 20
-135.2758138550702
 30
0.0
 10
93.27560623145214
 20
-135.2206746884171
 30
0.0
 10
93.23083873259426
 20
-135.1759071884286
 30
0.0
 10
93.1756995673343
 20
-135.1759071884286
 30
0.0
 10
93.12059567985123
 20
-135.1759071884286
 30
0.0
 10
93.07579290321648
 20
-135.2206746884171
 30
0.0
 10
93.07579290321648
 20
-135.2758138550702
 30
0.0
 10
93.07579290321648
 20
-135.3309177439451
 30
0.0
 10
93.12059567985123
 20
-135.3757205217118
 30
0.0
 10
93.1756995673343
 20
-135.3757205217118
 30
0.0
 10
93.23083873259426
 20
-135.3757205217118
 30
0.0
 10
93.27560623145214
 20
-135.3309177439451
 30
0.0
 10
93.27560623145214
 20
-135.2758138550702
 30
0.0
  0
SPLINE
  5
6C
330
1F
100
AcDbEntity
  8
_U+30EC_U+30A4_U+30E4_U+30FC 1
 62
   179
420
  2234388
370
     9
100
AcDbSpline
210
0.0
220
0.0
230
1.0
 70
    11
 71
     3
 72
    17
 73
    13
 74
     0
 42
0.0000000001
 43
0.0000000001
 12
1.0
 22
0.0
 32
0.0
 13
1.0
 23
0.0
 33
0.0
 40
0.0
 40
0.0
 40
0.0
 40
0.0
 40
1.0
 40
1.0
 40
1.0
 40
2.0
 40
2.0
 40
2.0
 40
3.0
 40
3.0
 40
3.0
 40
4.0
 40
4.0
 40
4.0
 40
4.0
 10
93.27560623145214
 20
-126.2758530239865
 30
0.0
 10
93.27560623145214
 20
-126.2207138573338
 30
0.0
 10
93.23083873259426
 20
-126.1759463573449
 30
0.0
 10
93.1756995673343
 20
-126.1759463573449
 30
0.0
 10
93.12059567985123
 20
-126.1759463573449
 30
0.0
 10
93.07579290321648
 20
-126.2207138573338
 30
0.0
 10
93.07579290321648
 20
-126.2758530239865
 30
0.0
 10
93.07579290321648
 20
-126.3309569128618
 30
0.0
 10
93.12059567985123
 20
-126.3757596906282
 30
0.0
 10
93.1756995673343
 20
-126.3757596906282
 30
0.0
 10
93.23083873259426
 20
-126.3757596906282
 30
0.0
 10
93.27560623145214
 20
-126.3309569128618
 30
0.0
 10
93.27560623145214
 20
-126.2758530239865
 30
0.0
  0
SPLINE
  5
6D
330
1F
100
AcDbEntity
  8
_U+30EC_U+30A4_U+30E4_U+30FC 1
 62
   179
420
  2234388
370
     9
100
AcDbSpline
210
0.0
220
0.0
230
1.0
 70
    11
 71
     3
 72
    17
 73
    13
 74
     0
 42
0.0000000001
 43
0.0000000001
 12
1.0
 22
0.0
 32
0.0
 13
1.0
 23
0.0
 33
0.0
 40
0.0
 40
0.0
 40
0.0
 40
0.0
 40
1.0
 40
1.0
 40
1.0
 40
2.0
 40
2.0
 40
2.0
 40
3.0
 40
3.0
 40
3.0
 40
4.0
 40
4.0
 40
4.0
 40
4.0
 10
89.27584716682783
 20
-122.27609385832
 30
0.0
 10
89.27584716682783
 20
-122.2202844138895
 30
0.0
 10
89.23107966796995
 20
-122.1761871916783
 30
0.0
 10
89.1756230027181
 20
-122.1761871916783
 30
0.0
 10
89.12048608883099
 20
-122.1761871916783
 30
0.0
 10
89.07568331106427
 20
-122.2202844138895
 30
0.0
 10
89.07568331106427
 20
-122.27609385832
 30
0.0
 10
89.07568331106427
 20
-122.3311977471949
 30
0.0
 10
89.12048608883099
 20
-122.3760005249616
 30
0.0
 10
89.1756230027181
 20
-122.3760005249616
 30
0.0
 10
89.23107966796995
 20
-122.3760005249616
 30
0.0
 10
89.27584716682783
 20
-122.3311977471949
 30
0.0
 10
89.27584716682783
 20
-122.27609385832
 30
0.0
  0
SPLINE
  5
6E
330
1F
100
AcDbEntity
  8
_U+30EC_U+30A4_U+30E4_U+30FC 1
 62
   179
420
  2234388
370
     9
100
AcDbSpline
210
0.0
220
0.0
230
1.0
 70
    11
 71
     3
 72
    17
 73
    13
 74
     0
 42
0.0000000001
 43
0.0000000001
 12
1.0
 22
0.0
 32
0.0
 13
1.0
 23
0.0
 33
0.0
 40
0.0
 40
0.0
 40
0.0
 40
0.0
 40
1.0
 40
1.0
 40
1.0
 40
2.0
 40
2.0
 40
2.0
 40
3.0
 40
3.0
 40
3.0
 40
4.0
 40
4.0
 40
4.0
 40
4.0
 10
77.27589969519423
 20
-122.27609385832
 30
0.0
 10
77.27589969519423
 20
-122.2202844138895
 30
0.0
 10
77.23113219633633
 20
-122.1761871916783
 30
0.0
 10
77.1756402533076
 20
-122.1761871916783
 30
0.0
 10
77.12053636582453
 20
-122.1761871916783
 30
0.0
 10
77.07573358918977
 20
-122.2202844138895
 30
0.0
 10
77.07573358918977
 20
-122.27609385832
 30
0.0
 10
77.07573358918977
 20
-122.3311977471949
 30
0.0
 10
77.12053636582453
 20
-122.3760005249616
 30
0.0
 10
77.1756402533076
 20
-122.3760005249616
 30
0.0
 10
77.23113219633633
 20
-122.3760005249616
 30
0.0
 10
77.27589969519423
 20
-122.3311977471949
 30
0.0
 10
77.27589969519423
 20
-122.27609385832
 30
0.0
  0
SPLINE
  5
6F
330
1F
100
AcDbEntity
  8
_U+30EC_U+30A4_U+30E4_U+30FC 1
 62
   179
420
  2234388
370
    25
100
AcDbSpline
210
0.0
220
0.0
230
1.0
 70
    11
 71
     3
 72
    17
 73
    13
 74
     0
 42
0.0000000001
 43
0.0000000001
 12
1.0
 22
0.0
 32
0.0
 13
1.0
 23
0.0
 33
0.0
 40
0.0
 40
0.0
 40
0.0
 40
0.0
 40
1.0
 40
1.0
 40
1.0
 40
2.0
 40
2.0
 40
2.0
 40
3.0
 40
3.0
 40
3.0
 40
4.0
 40
4.0
 40
4.0
 40
4.0
 10
86.17560085703282
 20
-129.7760435786671
 30
0.0
 10
86.17560085703282
 20
-129.4997480231806
 30
0.0
 10
85.95204558495841
 20
-129.2758399676809
 30
0.0
 10
85.67575003645175
 20
-129.2758399676809
 30
0.0
 10
85.39941921016819
 20
-129.2758399676809
 30
0.0
 10
85.17586393809378
 20
-129.4997480231806
 30
0.0
 10
85.17586393809378
 20
-129.7760435786671
 30
0.0
 10
85.17586393809378
 20
-130.0516688563761
 30
0.0
 10
85.39941921016819
 20
-130.2756121896534
 30
0.0
 10
85.67575003645175
 20
-130.2756121896534
 30
0.0
 10
85.95204558495841
 20
-130.2756121896534
 30
0.0
 10
86.17560085703282
 20
-130.0516688563761
 30
0.0
 10
86.17560085703282
 20
-129.7760435786671
 30
0.0
  0
SPLINE
  5
70
330
1F
100
AcDbEntity
  8
_U+30EC_U+30A4_U+30E4_U+30FC 1
 62
   179
420
  2234388
370
    25
100
AcDbSpline
210
0.0
220
0.0
230
1.0
 70
    11
 71
     3
 72
    17
 73
    13
 74
     0
 42
0.0000000001
 43
0.0000000001
 12
1.0
 22
0.0
 32
0.0
 13
1.0
 23
0.0
 33
0.0
 40
0.0
 40
0.0
 40
0.0
 40
0.0
 40
1.0
 40
1.0
 40
1.0
 40
2.0
 40
2.0
 40
2.0
 40
3.0
 40
3.0
 40
3.0
 40
4.0
 40
4.0
 40
4.0
 40
4.0
 10
88.17585080600219
 20
-133.775802744334
 30
0.0
 10
88.17585080600219
 20
-133.4995071888475
 30
0.0
 10
87.95190747838213
 20
-133.2755991333478
 30
0.0
 10
87.67561192987546
 20
-133.2755991333478
 30
0.0
 10
87.39966915913756
 20
-133.2755991333478
 30
0.0
 10
87.1757258315175
 20
-133.4995071888475
 30
0.0
 10
87.1757258315175
 20
-133.775802744334
 30
0.0
 10
87.1757258315175
 20
-134.0520982998204
 30
0.0
 10
87.39966915913756
 20
-134.2760416330977
 30
0.0
 10
87.67561192987546
 20
-134.2760416330977
 30
0.0
 10
87.95190747838213
 20
-134.2760416330977
 30
0.0
 10
88.17585080600219
 20
-134.0520982998204
 30
0.0
 10
88.17585080600219
 20
-133.775802744334
 30
0.0
  0
POLYLINE
  5
71
330
1F
100
AcDbEntity
  8
_U+30EC_U+30A4_U+30E4_U+30FC 1
 62
   179
420
  2234388
370
     9
100
AcDb2dPolyline
 66
     1
 10
0.0
 20
0.0
 30
0.0
  0
VERTEX
  5
72
330
71
100
AcDbEntity
  8
_U+30EC_U+30A4_U+30E4_U+30FC 1
 62
   179
420
  2234388
370
     9
100
AcDbVertex
100
AcDb2dVertex
 10
93.1756995673343
 20
-126.2758530239865
 30
0.0
  0
VERTEX
  5
73
330
71
100
AcDbEntity
  8
_U+30EC_U+30A4_U+30E4_U+30FC 1
 62
   179
420
  2234388
370
     9
100
AcDbVertex
100
AcDb2dVertex
 10
93.1756995673343
 20
-135.2758138550702
 30
0.0
  0
SEQEND
  5
74
330
71
100
AcDbEntity
  8
_U+30EC_U+30A4_U+30E4_U+30FC 1
 62
   179
420
  2234388
370
     9
  0
POLYLINE
  5
75
330
1F
100
AcDbEntity
  8
_U+30EC_U+30A4_U+30E4_U+30FC 1
 62
   179
420
  2234388
370
     9
100
AcDb2dPolyline
 66
     1
 10
0.0
 20
0.0
 30
0.0
  0
VERTEX
  5
76
330
75
100
AcDbEntity
  8
_U+30EC_U+30A4_U+30E4_U+30FC 1
 62
   179
420
  2234388
370
     9
100
AcDbVertex
100
AcDb2dVertex
 10
91.71565821569418
 20
-126.2758530239865
 30
0.0
  0
VERTEX
  5
77
330
75
100
AcDbEntity
  8
_U+30EC_U+30A4_U+30E4_U+30FC 1
 62
   179
420
  2234388
370
     9
100
AcDbVertex
100
AcDb2dVertex
 10
94.175824541819
 20
-126.2758530239865
 30
0.0
  0
SEQEND
  5
78
330
75
100
AcDbEntity
  8
_U+30EC_U+30A4_U+30E4_U+30FC 1
 62
   179
420
  2234388
370
     9
  0
POLYLINE
  5
79
330
1F
100
AcDbEntity
  8
_U+30EC_U+30A4_U+30E4_U+30FC 1
 62
   179
420
  2234388
370
     9
100
AcDb2dPolyline
 66
     1
 10
0.0
 20
0.0
 30
0.0
  0
VERTEX
  5
7A
330
79
100
AcDbEntity
  8
_U+30EC_U+30A4_U+30E4_U+30FC 1
 62
   179
420
  2234388
370
     9
100
AcDbVertex
100
AcDb2dVertex
 10
91.71565821569418
 20
-135.2758138550702
 30
0.0
  0
VERTEX
  5
7B
330
79
100
AcDbEntity
  8
_U+30EC_U+30A4_U+30E4_U+30FC 1
 62
   179
420
  2234388
370
     9
100
AcDbVertex
100
AcDb2dVertex
 10
94.175824541819
 20
-135.2758138550702
 30
0.0
  0
SEQEND
  5
7C
330
79
100
AcDbEntity
  8
_U+30EC_U+30A4_U+30E4_U+30FC 1
 62
   179
420
  2234388
370
     9
  0
INSERT
  5
7E
330
1F
100
AcDbEntity
  8
_U+30EC_U+30A4_U+30E4_U+30FC 1
100
AcDbBlockReference
  2
block 2
 10
0.0
 20
0.0
 30
0.0
  0
SPLINE
  5
91
330
1F
100
AcDbEntity
  8
_U+30EC_U+30A4_U+30E4_U+30FC 1
 62
   179
420
  2234388
370
    25
100
AcDbSpline
210
0.0
220
0.0
230
1.0
 70
    11
 71
     3
 72
    17
 73
    13
 74
     0
 42
0.0000000001
 43
0.0000000001
 12
1.0
 22
0.0
 32
0.0
 13
1.0
 23
0.0
 33
0.0
 40
0.0
 40
0.0
 40
0.0
 40
0.0
 40
1.0
 40
1.0
 40
1.0
 40
2.0
 40
2.0
 40
2.0
 40
3.0
 40
3.0
 40
3.0
 40
4.0
 40
4.0
 40
4.0
 40
4.0
 10
89.21107716848026
 20
-126.2758530239865
 30
0.0
 10
89.21107716848026
 20
-126.2951499684264
 30
0.0
 10
89.19523744666213
 20
-126.3109896906446
 30
0.0
 10
89.1756230027181
 20
-126.3109896906446
 30
0.0
 10
89.15632605876596
 20
-126.3109896906446
 30
0.0
 10
89.14045105917097
 20
-126.2951499684264
 30
0.0
 10
89.14045105917097
 20
-126.2758530239865
 30
0.0
 10
89.14045105917097
 20
-126.256556079547
 30
0.0
 10
89.15632605876596
 20
-126.2407163573288
 30
0.0
 10
89.1756230027181
 20
-126.2407163573288
 30
0.0
 10
89.19523744666213
 20
-126.2407163573288
 30
0.0
 10
89.21107716848026
 20
-126.256556079547
 30
0.0
 10
89.21107716848026
 20
-126.2758530239865
 30
0.0
  0
SPLINE
  5
92
330
1F
100
AcDbEntity
  8
_U+30EC_U+30A4_U+30E4_U+30FC 1
 62
   179
420
  2234388
370
    25
100
AcDbSpline
210
0.0
220
0.0
230
1.0
 70
    11
 71
     3
 72
    17
 73
    13
 74
     0
 42
0.0000000001
 43
0.0000000001
 12
1.0
 22
0.0
 32
0.0
 13
1.0
 23
0.0
 33
0.0
 40
0.0
 40
0.0
 40
0.0
 40
0.0
 40
1.0
 40
1.0
 40
1.0
 40
2.0
 40
2.0
 40
2.0
 40
3.0
 40
3.0
 40
3.0
 40
4.0
 40
4.0
 40
4.0
 40
4.0
 10
89.21107716848026
 20
-135.2758138550702
 30
0.0
 10
89.21107716848026
 20
-135.2951107995094
 30
0.0
 10
89.19523744666213
 20
-135.3109505217279
 30
0.0
 10
89.1756230027181
 20
-135.3109505217279
 30
0.0
 10
89.15632605876596
 20
-135.3109505217279
 30
0.0
 10
89.14045105917097
 20
-135.2951107995094
 30
0.0
 10
89.14045105917097
 20
-135.2758138550702
 30
0.0
 10
89.14045105917097
 20
-135.2565169106304
 30
0.0
 10
89.15632605876596
 20
-135.2406771884118
 30
0.0
 10
89.1756230027181
 20
-135.2406771884118
 30
0.0
 10
89.19523744666213
 20
-135.2406771884118
 30
0.0
 10
89.21107716848026
 20
-135.2565169106304
 30
0.0
 10
89.21107716848026
 20
-135.2758138550702
 30
0.0
  0
SPLINE
  5
93
330
1F
100
AcDbEntity
  8
_U+30EC_U+30A4_U+30E4_U+30FC 1
 62
   179
420
  2234388
370
     9
100
AcDbSpline
210
0.0
220
0.0
230
1.0
 70
    11
 71
     3
 72
    17
 73
    13
 74
     0
 42
0.0000000001
 43
0.0000000001
 12
1.0
 22
0.0
 32
0.0
 13
1.0
 23
0.0
 33
0.0
 40
0.0
 40
0.0
 40
0.0
 40
0.0
 40
1.0
 40
1.0
 40
1.0
 40
2.0
 40
2.0
 40
2.0
 40
3.0
 40
3.0
 40
3.0
 40
4.0
 40
4.0
 40
4.0
 40
4.0
 10
93.21083623310456
 20
-135.2758138550702
 30
0.0
 10
93.21083623310456
 20
-135.2951107995094
 30
0.0
 10
93.19534928905523
 20
-135.3109505217279
 30
0.0
 10
93.1756995673343
 20
-135.3109505217279
 30
0.0
 10
93.15640262338218
 20
-135.3109505217279
 30
0.0
 10
93.14056290156405
 20
-135.2951107995094
 30
0.0
 10
93.14056290156405
 20
-135.2758138550702
 30
0.0
 10
93.14056290156405
 20
-135.2565169106304
 30
0.0
 10
93.15640262338218
 20
-135.2406771884118
 30
0.0
 10
93.1756995673343
 20
-135.2406771884118
 30
0.0
 10
93.19534928905523
 20
-135.2406771884118
 30
0.0
 10
93.21083623310456
 20
-135.2565169106304
 30
0.0
 10
93.21083623310456
 20
-135.2758138550702
 30
0.0
  0
POLYLINE
  5
94
330
1F
100
AcDbEntity
  8
_U+30EC_U+30A4_U+30E4_U+30FC 1
 62
   179
420
  2234388
370
     9
100
AcDb2dPolyline
 66
     1
 10
0.0
 20
0.0
 30
0.0
  0
VERTEX
  5
95
330
94
100
AcDbEntity
  8
_U+30EC_U+30A4_U+30E4_U+30FC 1
 62
   179
420
  2234388
370
     9
100
AcDbVertex
100
AcDb2dVertex
 10
103.1757851455442
 20
-126.2758530239865
 30
0.0
  0
VERTEX
  5
96
330
94
100
AcDbEntity
  8
_U+30EC_U+30A4_U+30E4_U+30FC 1
 62
   179
420
  2234388
370
     9
100
AcDbVertex
100
AcDb2dVertex
 10
103.1757851455442
 20
-135.2758138550702
 30
0.0
  0
SEQEND
  5
97
330
94
100
AcDbEntity
  8
_U+30EC_U+30A4_U+30E4_U+30FC 1
 62
   179
420
  2234388
370
     9
  0
POLYLINE
  5
98
330
1F
100
AcDbEntity
  8
_U+30EC_U+30A4_U+30E4_U+30FC 1
 62
   179
420
  2234388
370
     9
100
AcDb2dPolyline
 66
     1
 10
0.0
 20
0.0
 30
0.0
  0
VERTEX
  5
99
330
98
100
AcDbEntity
  8
_U+30EC_U+30A4_U+30E4_U+30FC 1
 62
   179
420
  2234388
370
     9
100
AcDbVertex
100
AcDb2dVertex
 10
101.7157437939041
 20
-126.2758530239865
 30
0.0
  0
VERTEX
  5
9A
330
98
100
AcDbEntity
  8
_U+30EC_U+30A4_U+30E4_U+30FC 1
 62
   179
420
  2234388
370
     9
100
AcDbVertex
100
AcDb2dVertex
 10
104.1759101200289
 20
-126.2758530239865
 30
0.0
  0
SEQEND
  5
9B
330
98
100
AcDbEntity
  8
_U+30EC_U+30A4_U+30E4_U+30FC 1
 62
   179
420
  2234388
370
     9
  0
POLYLINE
  5
9C
330
1F
100
AcDbEntity
  8
_U+30EC_U+30A4_U+30E4_U+30FC 1
 62
   179
420
  2234388
370
     9
100
AcDb2dPolyline
 66
     1
 10
0.0
 20
0.0
 30
0.0
  0
VERTEX
  5
9D
330
9C
100
AcDbEntity
  8
_U+30EC_U+30A4_U+30E4_U+30FC 1
 62
   179
420
  2234388
370
     9
100
AcDbVertex
100
AcDb2dVertex
 10
101.7157437939041
 20
-135.2758138550702
 30
0.0
  0
VERTEX
  5
9E
330
9C
100
AcDbEntity
  8
_U+30EC_U+30A4_U+30E4_U+30FC 1
 62
   179
420
  2234388
370
     9
100
AcDbVertex
100
AcDb2dVertex
 10
104.1759101200289
 20
-135.2758138550702
 30
0.0
  0
SEQEND
  5
9F
330
9C
100
AcDbEntity
  8
_U+30EC_U+30A4_U+30E4_U+30FC 1
 62
   179
420
  2234388
370
     9
  0
INSERT
  5
A1
330
1F
100
AcDbEntity
  8
_U+30EC_U+30A4_U+30E4_U+30FC 1
100
AcDbBlockReference
  2
block 3
 10
0.0
 20
0.0
 30
0.0
  0
SPLINE
  5
B4
330
1F
100
AcDbEntity
  8
_U+30EC_U+30A4_U+30E4_U+30FC 1
 62
   179
420
  2234388
370
    25
100
AcDbSpline
210
0.0
220
0.0
230
1.0
 70
    11
 71
     3
 72
    17
 73
    13
 74
     0
 42
0.0000000001
 43
0.0000000001
 12
1.0
 22
0.0
 32
0.0
 13
1.0
 23
0.0
 33
0.0
 40
0.0
 40
0.0
 40
0.0
 40
0.0
 40
1.0
 40
1.0
 40
1.0
 40
2.0
 40
2.0
 40
2.0
 40
3.0
 40
3.0
 40
3.0
 40
4.0
 40
4.0
 40
4.0
 40
4.0
 10
99.21116274669015
 20
-126.2758530239865
 30
0.0
 10
99.21116274669015
 20
-126.2951499684264
 30
0.0
 10
99.19532302487204
 20
-126.3109896906446
 30
0.0
 10
99.17567330315111
 20
-126.3109896906446
 30
0.0
 10
99.15637635919897
 20
-126.3109896906446
 30
0.0
 10
99.14053663738086
 20
-126.2951499684264
 30
0.0
 10
99.14053663738086
 20
-126.2758530239865
 30
0.0
 10
99.14053663738086
 20
-126.256556079547
 30
0.0
 10
99.15637635919897
 20
-126.2407163573288
 30
0.0
 10
99.17567330315111
 20
-126.2407163573288
 30
0.0
 10
99.19532302487204
 20
-126.2407163573288
 30
0.0
 10
99.21116274669015
 20
-126.256556079547
 30
0.0
 10
99.21116274669015
 20
-126.2758530239865
 30
0.0
  0
SPLINE
  5
B5
330
1F
100
AcDbEntity
  8
_U+30EC_U+30A4_U+30E4_U+30FC 1
 62
   179
420
  2234388
370
    25
100
AcDbSpline
210
0.0
220
0.0
230
1.0
 70
    11
 71
     3
 72
    17
 73
    13
 74
     0
 42
0.0000000001
 43
0.0000000001
 12
1.0
 22
0.0
 32
0.0
 13
1.0
 23
0.0
 33
0.0
 40
0.0
 40
0.0
 40
0.0
 40
0.0
 40
1.0
 40
1.0
 40
1.0
 40
2.0
 40
2.0
 40
2.0
 40
3.0
 40
3.0
 40
3.0
 40
4.0
 40
4.0
 40
4.0
 40
4.0
 10
99.21116274669015
 20
-135.2758138550702
 30
0.0
 10
99.21116274669015
 20
-135.2951107995094
 30
0.0
 10
99.19532302487204
 20
-135.3109505217279
 30
0.0
 10
99.17567330315111
 20
-135.3109505217279
 30
0.0
 10
99.15637635919897
 20
-135.3109505217279
 30
0.0
 10
99.14053663738086
 20
-135.2951107995094
 30
0.0
 10
99.14053663738086
 20
-135.2758138550702
 30
0.0
 10
99.14053663738086
 20
-135.2565169106304
 30
0.0
 10
99.15637635919897
 20
-135.2406771884118
 30
0.0
 10
99.17567330315111
 20
-135.2406771884118
 30
0.0
 10
99.19532302487204
 20
-135.2406771884118
 30
0.0
 10
99.21116274669015
 20
-135.2565169106304
 30
0.0
 10
99.21116274669015
 20
-135.2758138550702
 30
0.0
  0
SPLINE
  5
B6
330
1F
100
AcDbEntity
  8
_U+30EC_U+30A4_U+30E4_U+30FC 1
 62
   179
420
  2234388
370
     9
100
AcDbSpline
210
0.0
220
0.0
230
1.0
 70
    11
 71
     3
 72
    17
 73
    13
 74
     0
 42
0.0000000001
 43
0.0000000001
 12
1.0
 22
0.0
 32
0.0
 13
1.0
 23
0.0
 33
0.0
 40
0.0
 40
0.0
 40
0.0
 40
0.0
 40
1.0
 40
1.0
 40
1.0
 40
2.0
 40
2.0
 40
2.0
 40
3.0
 40
3.0
 40
3.0
 40
4.0
 40
4.0
 40
4.0
 40
4.0
 10
103.2109218113145
 20
-135.2758138550702
 30
0.0
 10
103.2109218113145
 20
-135.2951107995094
 30
0.0
 10
103.1950820894963
 20
-135.3109505217279
 30
0.0
 10
103.1757851455442
 20
-135.3109505217279
 30
0.0
 10
103.1561354238233
 20
-135.3109505217279
 30
0.0
 10
103.1402957020052
 20
-135.2951107995094
 30
0.0
 10
103.1402957020052
 20
-135.2758138550702
 30
0.0
 10
103.1402957020052
 20
-135.2565169106304
 30
0.0
 10
103.1561354238233
 20
-135.2406771884118
 30
0.0
 10
103.1757851455442
 20
-135.2406771884118
 30
0.0
 10
103.1950820894963
 20
-135.2406771884118
 30
0.0
 10
103.2109218113145
 20
-135.2565169106304
 30
0.0
 10
103.2109218113145
 20
-135.2758138550702
 30
0.0
  0
POLYLINE
  5
B7
330
1F
100
AcDbEntity
  8
_U+30EC_U+30A4_U+30E4_U+30FC 1
 62
   179
420
  2234388
370
     9
100
AcDb2dPolyline
 66
     1
 10
0.0
 20
0.0
 30
0.0
  0
VERTEX
  5
B8
330
B7
100
AcDbEntity
  8
_U+30EC_U+30A4_U+30E4_U+30FC 1
 62
   179
420
  2234388
370
     9
100
AcDbVertex
100
AcDb2dVertex
 10
97.1758138645952
 20
-122.27609385832
 30
0.0
  0
VERTEX
  5
B9
330
B7
100
AcDbEntity
  8
_U+30EC_U+30A4_U+30E4_U+30FC 1
 62
   179
420
  2234388
370
     9
100
AcDbVertex
100
AcDb2dVertex
 10
100.1757982776358
 20
-122.27609385832
 30
0.0
  0
SEQEND
  5
BA
330
B7
100
AcDbEntity
  8
_U+30EC_U+30A4_U+30E4_U+30FC 1
 62
   179
420
  2234388
370
     9
  0
POLYLINE
  5
BB
330
1F
100
AcDbEntity
  8
_U+30EC_U+30A4_U+30E4_U+30FC 1
 62
   179
420
  2234388
370
     9
100
AcDb2dPolyline
 66
     1
 10
0.0
 20
0.0
 30
0.0
  0
VERTEX
  5
BC
330
BB
100
AcDbEntity
  8
_U+30EC_U+30A4_U+30E4_U+30FC 1
 62
   179
420
  2234388
370
     9
100
AcDbVertex
100
AcDb2dVertex
 10
98.1755860865671
 20
-123.7360999690658
 30
0.0
  0
VERTEX
  5
BD
330
BB
100
AcDbEntity
  8
_U+30EC_U+30A4_U+30E4_U+30FC 1
 62
   179
420
  2234388
370
     9
100
AcDbVertex
100
AcDb2dVertex
 10
98.1755860865671
 20
-121.2756160807922
 30
0.0
  0
SEQEND
  5
BE
330
BB
100
AcDbEntity
  8
_U+30EC_U+30A4_U+30E4_U+30FC 1
 62
   179
420
  2234388
370
     9
  0
POLYLINE
  5
BF
330
1F
100
AcDbEntity
  8
_U+30EC_U+30A4_U+30E4_U+30FC 1
 62
   179
420
  2234388
370
     9
100
AcDb2dPolyline
 66
     1
 10
0.0
 20
0.0
 30
0.0
  0
VERTEX
  5
C0
330
BF
100
AcDbEntity
  8
_U+30EC_U+30A4_U+30E4_U+30FC 1
 62
   179
420
  2234388
370
     9
100
AcDbVertex
100
AcDb2dVertex
 10
99.17567330315111
 20
-123.7360999690658
 30
0.0
  0
VERTEX
  5
C1
330
BF
100
AcDbEntity
  8
_U+30EC_U+30A4_U+30E4_U+30FC 1
 62
   179
420
  2234388
370
     9
100
AcDbVertex
100
AcDb2dVertex
 10
99.17567330315111
 20
-121.2756160807922
 30
0.0
  0
SEQEND
  5
C2
330
BF
100
AcDbEntity
  8
_U+30EC_U+30A4_U+30E4_U+30FC 1
 62
   179
420
  2234388
370
     9
  0
INSERT
  5
C4
330
1F
100
AcDbEntity
  8
_U+30EC_U+30A4_U+30E4_U+30FC 1
100
AcDbBlockReference
  2
block 4
 10
0.0
 20
0.0
 30
0.0
  0
SPLINE
  5
D3
330
1F
100
AcDbEntity
  8
_U+30EC_U+30A4_U+30E4_U+30FC 1
 62
   179
420
  2234388
370
    25
100
AcDbSpline
210
0.0
220
0.0
230
1.0
 70
    11
 71
     3
 72
    17
 73
    13
 74
     0
 42
0.0000000001
 43
0.0000000001
 12
1.0
 22
0.0
 32
0.0
 13
1.0
 23
0.0
 33
0.0
 40
0.0
 40
0.0
 40
0.0
 40
0.0
 40
1.0
 40
1.0
 40
1.0
 40
2.0
 40
2.0
 40
2.0
 40
3.0
 40
3.0
 40
3.0
 40
4.0
 40
4.0
 40
4.0
 40
4.0
 10
98.21107304998235
 20
-126.2758530239865
 30
0.0
 10
98.21107304998235
 20
-126.2951499684264
 30
0.0
 10
98.19519805038735
 20
-126.3109896906446
 30
0.0
 10
98.1755860865671
 20
-126.3109896906446
 30
0.0
 10
98.15628666249117
 20
-126.3109896906446
 30
0.0
 10
98.14044694067306
 20
-126.2951499684264
 30
0.0
 10
98.14044694067306
 20
-126.2758530239865
 30
0.0
 10
98.14044694067306
 20
-126.256556079547
 30
0.0
 10
98.15628666249117
 20
-126.2407163573288
 30
0.0
 10
98.1755860865671
 20
-126.2407163573288
 30
0.0
 10
98.19519805038735
 20
-126.2407163573288
 30
0.0
 10
98.21107304998235
 20
-126.256556079547
 30
0.0
 10
98.21107304998235
 20
-126.2758530239865
 30
0.0
  0
SPLINE
  5
D4
330
1F
100
AcDbEntity
  8
_U+30EC_U+30A4_U+30E4_U+30FC 1
 62
   179
420
  2234388
370
    25
100
AcDbSpline
210
0.0
220
0.0
230
1.0
 70
    11
 71
     3
 72
    17
 73
    13
 74
     0
 42
0.0000000001
 43
0.0000000001
 12
1.0
 22
0.0
 32
0.0
 13
1.0
 23
0.0
 33
0.0
 40
0.0
 40
0.0
 40
0.0
 40
0.0
 40
1.0
 40
1.0
 40
1.0
 40
2.0
 40
2.0
 40
2.0
 40
3.0
 40
3.0
 40
3.0
 40
4.0
 40
4.0
 40
4.0
 40
4.0
 10
99.21116274669015
 20
-126.2758530239865
 30
0.0
 10
99.21116274669015
 20
-126.2951499684264
 30
0.0
 10
99.19532302487204
 20
-126.3109896906446
 30
0.0
 10
99.17567330315111
 20
-126.3109896906446
 30
0.0
 10
99.15637635919897
 20
-126.3109896906446
 30
0.0
 10
99.14053663738086
 20
-126.2951499684264
 30
0.0
 10
99.14053663738086
 20
-126.2758530239865
 30
0.0
 10
99.14053663738086
 20
-126.256556079547
 30
0.0
 10
99.15637635919897
 20
-126.2407163573288
 30
0.0
 10
99.17567330315111
 20
-126.2407163573288
 30
0.0
 10
99.19532302487204
 20
-126.2407163573288
 30
0.0
 10
99.21116274669015
 20
-126.256556079547
 30
0.0
 10
99.21116274669015
 20
-126.2758530239865
 30
0.0
  0
SPLINE
  5
D5
330
1F
100
AcDbEntity
  8
_U+30EC_U+30A4_U+30E4_U+30FC 1
 62
   179
420
  2234388
370
     9
100
AcDbSpline
210
0.0
220
0.0
230
1.0
 70
    11
 71
     3
 72
    17
 73
    13
 74
     0
 42
0.0000000001
 43
0.0000000001
 12
1.0
 22
0.0
 32
0.0
 13
1.0
 23
0.0
 33
0.0
 40
0.0
 40
0.0
 40
0.0
 40
0.0
 40
1.0
 40
1.0
 40
1.0
 40
2.0
 40
2.0
 40
2.0
 40
3.0
 40
3.0
 40
3.0
 40
4.0
 40
4.0
 40
4.0
 40
4.0
 10
100.2109349434061
 20
-122.27609385832
 30
0.0
 10
100.2109349434061
 20
-122.2953908027595
 30
0.0
 10
100.1950952215879
 20
-122.3112305249777
 30
0.0
 10
100.1757982776358
 20
-122.3112305249777
 30
0.0
 10
100.1561485559149
 20
-122.3112305249777
 30
0.0
 10
100.1403088340968
 20
-122.2953908027595
 30
0.0
 10
100.1403088340968
 20
-122.27609385832
 30
0.0
 10
100.1403088340968
 20
-122.2560913583249
 30
0.0
 10
100.1561485559149
 20
-122.2402516361067
 30
0.0
 10
100.1757982776358
 20
-122.2402516361067
 30
0.0
 10
100.1950952215879
 20
-122.2402516361067
 30
0.0
 10
100.2109349434061
 20
-122.2560913583249
 30
0.0
 10
100.2109349434061
 20
-122.27609385832
 30
0.0
  0
POLYLINE
  5
D6
330
1F
100
AcDbEntity
  8
_U+30EC_U+30A4_U+30E4_U+30FC 1
 62
   179
420
  2234388
370
     9
100
AcDb2dPolyline
 66
     1
 10
0.0
 20
0.0
 30
0.0
  0
VERTEX
  5
D7
330
D6
100
AcDbEntity
  8
_U+30EC_U+30A4_U+30E4_U+30FC 1
 62
   179
420
  2234388
370
     9
100
AcDbVertex
100
AcDb2dVertex
 10
77.1756402533076
 20
-122.27609385832
 30
0.0
  0
VERTEX
  5
D8
330
D6
100
AcDbEntity
  8
_U+30EC_U+30A4_U+30E4_U+30FC 1
 62
   179
420
  2234388
370
     9
100
AcDbVertex
100
AcDb2dVertex
 10
89.1756230027181
 20
-122.27609385832
 30
0.0
  0
SEQEND
  5
D9
330
D6
100
AcDbEntity
  8
_U+30EC_U+30A4_U+30E4_U+30FC 1
 62
   179
420
  2234388
370
     9
  0
POLYLINE
  5
DA
330
1F
100
AcDbEntity
  8
_U+30EC_U+30A4_U+30E4_U+30FC 1
 62
   179
420
  2234388
370
     9
100
AcDb2dPolyline
 66
     1
 10
0.0
 20
0.0
 30
0.0
  0
VERTEX
  5
DB
330
DA
100
AcDbEntity
  8
_U+30EC_U+30A4_U+30E4_U+30FC 1
 62
   179
420
  2234388
370
     9
100
AcDbVertex
100
AcDb2dVertex
 10
77.1756402533076
 20
-123.7360999690658
 30
0.0
  0
VERTEX
  5
DC
330
DA
100
AcDbEntity
  8
_U+30EC_U+30A4_U+30E4_U+30FC 1
 62
   179
420
  2234388
370
     9
100
AcDbVertex
100
AcDb2dVertex
 10
77.1756402533076
 20
-121.2756160807922
 30
0.0
  0
SEQEND
  5
DD
330
DA
100
AcDbEntity
  8
_U+30EC_U+30A4_U+30E4_U+30FC 1
 62
   179
420
  2234388
370
     9
  0
POLYLINE
  5
DE
330
1F
100
AcDbEntity
  8
_U+30EC_U+30A4_U+30E4_U+30FC 1
 62
   179
420
  2234388
370
     9
100
AcDb2dPolyline
 66
     1
 10
0.0
 20
0.0
 30
0.0
  0
VERTEX
  5
DF
330
DE
100
AcDbEntity
  8
_U+30EC_U+30A4_U+30E4_U+30FC 1
 62
   179
420
  2234388
370
     9
100
AcDbVertex
100
AcDb2dVertex
 10
89.1756230027181
 20
-123.7360999690658
 30
0.0
  0
VERTEX
  5
E0
330
DE
100
AcDbEntity
  8
_U+30EC_U+30A4_U+30E4_U+30FC 1
 62
   179
420
  2234388
370
     9
100
AcDbVertex
100
AcDb2dVertex
 10
89.1756230027181
 20
-121.2756160807922
 30
0.0
  0
SEQEND
  5
E1
330
DE
100
AcDbEntity
  8
_U+30EC_U+30A4_U+30E4_U+30FC 1
 62
   179
420
  2234388
370
     9
  0
INSERT
  5
E3
330
1F
100
AcDbEntity
  8
_U+30EC_U+30A4_U+30E4_U+30FC 1
100
AcDbBlockReference
  2
block 5
 10
0.0
 20
0.0
 30
0.0
  0
SPLINE
  5
F7
330
1F
100
AcDbEntity
  8
_U+30EC_U+30A4_U+30E4_U+30FC 1
 62
   179
420
  2234388
370
    25
100
AcDbSpline
210
0.0
220
0.0
230
1.0
 70
    11
 71
     3
 72
    17
 73
    13
 74
     0
 42
0.0000000001
 43
0.0000000001
 12
1.0
 22
0.0
 32
0.0
 13
1.0
 23
0.0
 33
0.0
 40
0.0
 40
0.0
 40
0.0
 40
0.0
 40
1.0
 40
1.0
 40
1.0
 40
2.0
 40
2.0
 40
2.0
 40
3.0
 40
3.0
 40
3.0
 40
4.0
 40
4.0
 40
4.0
 40
4.0
 10
77.21112969684664
 20
-126.2758530239865
 30
0.0
 10
77.21112969684664
 20
-126.2951499684264
 30
0.0
 10
77.19528997502853
 20
-126.3109896906446
 30
0.0
 10
77.1756402533076
 20
-126.3109896906446
 30
0.0
 10
77.15634330935546
 20
-126.3109896906446
 30
0.0
 10
77.1405055362705
 20
-126.2951499684264
 30
0.0
 10
77.1405055362705
 20
-126.2758530239865
 30
0.0
 10
77.1405055362705
 20
-126.256556079547
 30
0.0
 10
77.15634330935546
 20
-126.2407163573288
 30
0.0
 10
77.1756402533076
 20
-126.2407163573288
 30
0.0
 10
77.19528997502853
 20
-126.2407163573288
 30
0.0
 10
77.21112969684664
 20
-126.256556079547
 30
0.0
 10
77.21112969684664
 20
-126.2758530239865
 30
0.0
  0
SPLINE
  5
F8
330
1F
100
AcDbEntity
  8
_U+30EC_U+30A4_U+30E4_U+30FC 1
 62
   179
420
  2234388
370
    25
100
AcDbSpline
210
0.0
220
0.0
230
1.0
 70
    11
 71
     3
 72
    17
 73
    13
 74
     0
 42
0.0000000001
 43
0.0000000001
 12
1.0
 22
0.0
 32
0.0
 13
1.0
 23
0.0
 33
0.0
 40
0.0
 40
0.0
 40
0.0
 40
0.0
 40
1.0
 40
1.0
 40
1.0
 40
2.0
 40
2.0
 40
2.0
 40
3.0
 40
3.0
 40
3.0
 40
4.0
 40
4.0
 40
4.0
 40
4.0
 10
89.21107716848026
 20
-126.2758530239865
 30
0.0
 10
89.21107716848026
 20
-126.2951499684264
 30
0.0
 10
89.19523744666213
 20
-126.3109896906446
 30
0.0
 10
89.1756230027181
 20
-126.3109896906446
 30
0.0
 10
89.15632605876596
 20
-126.3109896906446
 30
0.0
 10
89.14045105917097
 20
-126.2951499684264
 30
0.0
 10
89.14045105917097
 20
-126.2758530239865
 30
0.0
 10
89.14045105917097
 20
-126.256556079547
 30
0.0
 10
89.15632605876596
 20
-126.2407163573288
 30
0.0
 10
89.1756230027181
 20
-126.2407163573288
 30
0.0
 10
89.19523744666213
 20
-126.2407163573288
 30
0.0
 10
89.21107716848026
 20
-126.256556079547
 30
0.0
 10
89.21107716848026
 20
-126.2758530239865
 30
0.0
  0
SPLINE
  5
F9
330
1F
100
AcDbEntity
  8
_U+30EC_U+30A4_U+30E4_U+30FC 1
 62
   179
420
  2234388
370
     9
100
AcDbSpline
210
0.0
220
0.0
230
1.0
 70
    11
 71
     3
 72
    17
 73
    13
 74
     0
 42
0.0000000001
 43
0.0000000001
 12
1.0
 22
0.0
 32
0.0
 13
1.0
 23
0.0
 33
0.0
 40
0.0
 40
0.0
 40
0.0
 40
0.0
 40
1.0
 40
1.0
 40
1.0
 40
2.0
 40
2.0
 40
2.0
 40
3.0
 40
3.0
 40
3.0
 40
4.0
 40
4.0
 40
4.0
 40
4.0
 10
89.21107716848026
 20
-122.27609385832
 30
0.0
 10
89.21107716848026
 20
-122.2953908027595
 30
0.0
 10
89.19523744666213
 20
-122.3112305249777
 30
0.0
 10
89.1756230027181
 20
-122.3112305249777
 30
0.0
 10
89.15632605876596
 20
-122.3112305249777
 30
0.0
 10
89.14045105917097
 20
-122.2953908027595
 30
0.0
 10
89.14045105917097
 20
-122.27609385832
 30
0.0
 10
89.14045105917097
 20
-122.2560913583249
 30
0.0
 10
89.15632605876596
 20
-122.2402516361067
 30
0.0
 10
89.1756230027181
 20
-122.2402516361067
 30
0.0
 10
89.19523744666213
 20
-122.2402516361067
 30
0.0
 10
89.21107716848026
 20
-122.2560913583249
 30
0.0
 10
89.21107716848026
 20
-122.27609385832
 30
0.0
  0
INSERT
  5
FB
330
1F
100
AcDbEntity
  8
_U+30EC_U+30A4_U+30E4_U+30FC 1
100
AcDbBlockReference
  2
block 6
 10
0.0
 20
0.0
 30
0.0
  0
ENDSEC
  0
SECTION
  2
OBJECTS
  0
DICTIONARY
  5
C
330
0
100
AcDbDictionary
281
     1
  3
ACAD_GROUP
350
D
  3
ACAD_LAYOUT
350
1A
  3
ACAD_MATERIAL
350
3B
  3
ACAD_MLEADERSTYLE
350
127
  3
ACAD_MLINESTYLE
350
17
  3
ACAD_PLOTSETTINGS
350
19
  3
ACAD_PLOTSTYLENAME
350
E
  3
ACAD_TABLESTYLE
350
126
  3
ACAD_VISUALSTYLE
350
2A
  0
SUN
  5
3F
330
29
100
AcDbSun
 90
        1
290
     0
 63
     7
421
 16777215
 40
1.0
291
     1
 91
  2455826
 92
 54000000
292
     0
 70
     2
 71
   256
280
     1
  0
DICTIONARY
  5
D
102
{ACAD_REACTORS
330
C
102
}
330
C
100
AcDbDictionary
281
     1
  0
DICTIONARY
  5
1A
102
{ACAD_REACTORS
330
C
102
}
330
C
100
AcDbDictionary
281
     1
  3
Layout1
350
1E
  3
Layout2
350
26
  3
Model
350
22
  0
DICTIONARY
  5
3B
102
{ACAD_REACTORS
330
C
102
}
330
C
100
AcDbDictionary
281
     1
  3
ByBlock
350
3D
  3
ByLayer
350
3C
  3
Global
350
3E
  0
DICTIONARY
  5
127
102
{ACAD_REACTORS
330
C
102
}
330
C
100
AcDbDictionary
281
     1
  0
DICTIONARY
  5
17
102
{ACAD_REACTORS
330
C
102
}
330
C
100
AcDbDictionary
281
     1
  3
Standard
350
18
  0
DICTIONARY
  5
19
102
{ACAD_REACTORS
330
C
102
}
330
C
100
AcDbDictionary
281
     1
  0
ACDBDICTIONARYWDFLT
  5
E
102
{ACAD_REACTORS
330
C
102
}
330
C
100
AcDbDictionary
281
     1
  3
Normal
350
F
100
AcDbDictionaryWithDefault
340
F
  0
DICTIONARY
  5
126
102
{ACAD_REACTORS
330
C
102
}
330
C
100
AcDbDictionary
281
     1
  0
DICTIONARY
  5
2A
102
{ACAD_REACTORS
330
C
102
}
330
C
100
AcDbDictionary
281
     1
  3
2dWireframe
350
2F
  3
3D Hidden
350
31
  3
3dWireframe
350
30
  3
Basic
350
32
  3
Brighten
350
36
  3
ColorChange
350
3A
  3
Conceptual
350
34
  3
Dim
350
35
  3
Facepattern
350
39
  3
Flat
350
2B
  3
FlatWithEdges
350
2C
  3
Gouraud
350
2D
  3
GouraudWithEdges
350
2E
  3
Linepattern
350
38
  3
Realistic
350
33
  3
Thicken
350
37
  0
LAYOUT
  5
1E
102
{ACAD_REACTORS
330
1A
102
}
330
1A
100
AcDbPlotSettings
  1

  2
none_device
  4

  6

 40
0.0
 41
0.0
 42
0.0
 43
0.0
 44
0.0
 45
0.0
 46
0.0
 47
0.0
 48
0.0
 49
0.0
140
0.0
141
0.0
142
1.0
143
1.0
 70
   688
 72
     0
 73
     0
 74
     5
  7

 75
    16
 76
     0
 77
     2
 78
   300
147
1.0
148
0.0
149
0.0
100
AcDbLayout
  1
Layout1
 70
     1
 71
     1
 10
0.0
 20
0.0
 11
12.0
 21
9.0
 12
0.0
 22
0.0
 32
0.0
 14
1.000000000000000E+20
 24
1.000000000000000E+20
 34
1.000000000000000E+20
 15
-1.000000000000000E+20
 25
-1.000000000000000E+20
 35
-1.000000000000000E+20
146
0.0
 13
0.0
 23
0.0
 33
0.0
 16
1.0
 26
0.0
 36
0.0
 17
0.0
 27
1.0
 37
0.0
 76
     0
330
1B
  0
LAYOUT
  5
26
102
{ACAD_REACTORS
330
1A
102
}
330
1A
100
AcDbPlotSettings
  1

  2
none_device
  4

  6

 40
0.0
 41
0.0
 42
0.0
 43
0.0
 44
0.0
 45
0.0
 46
0.0
 47
0.0
 48
0.0
 49
0.0
140
0.0
141
0.0
142
1.0
143
1.0
 70
   688
 72
     0
 73
     0
 74
     5
  7

 75
    16
 76
     0
 77
     2
 78
   300
147
1.0
148
0.0
149
0.0
100
AcDbLayout
  1
Layout2
 70
     1
 71
     2
 10
0.0
 20
0.0
 11
0.0
 21
0.0
 12
0.0
 22
0.0
 32
0.0
 14
0.0
 24
0.0
 34
0.0
 15
0.0
 25
0.0
 35
0.0
146
0.0
 13
0.0
 23
0.0
 33
0.0
 16
1.0
 26
0.0
 36
0.0
 17
0.0
 27
1.0
 37
0.0
 76
     0
330
23
  0
LAYOUT
  5
22
102
{ACAD_REACTORS
330
1A
102
}
330
1A
100
AcDbPlotSettings
  1

  2
none_device
  4

  6

 40
0.0
 41
0.0
 42
0.0
 43
0.0
 44
0.0
 45
0.0
 46
0.0
 47
0.0
 48
0.0
 49
0.0
140
0.0
141
0.0
142
1.0
143
1.0
 70
  1712
 72
     0
 73
     0
 74
     0
  7

 75
     0
 76
     0
 77
     2
 78
   300
147
1.0
148
0.0
149
0.0
100
AcDbLayout
  1
Model
 70
     1
 71
     0
 10
0.0
 20
0.0
 11
12.0
 21
9.0
 12
0.0
 22
0.0
 32
0.0
 14
1.000000000000000E+20
 24
1.000000000000000E+20
 34
1.000000000000000E+20
 15
-1.000000000000000E+20
 25
-1.000000000000000E+20
 35
-1.000000000000000E+20
146
0.0
 13
0.0
 23
0.0
 33
0.0
 16
1.0
 26
0.0
 36
0.0
 17
0.0
 27
1.0
 37
0.0
 76
     0
330
1F
331
29
  0
MATERIAL
  5
3D
102
{ACAD_REACTORS
330
3B
102
}
330
3B
100
AcDbMaterial
  1
ByBlock
 72
     1
 94
      127
  0
MATERIAL
  5
3C
102
{ACAD_REACTORS
330
3B
102
}
330
3B
100
AcDbMaterial
  1
ByLayer
 72
     1
 94
      127
  0
MATERIAL
  5
3E
102
{ACAD_REACTORS
330
3B
102
}
330
3B
100
AcDbMaterial
  1
Global
 72
     1
 94
      127
  0
MLINESTYLE
  5
18
102
{ACAD_REACTORS
330
17
102
}
330
17
100
AcDbMlineStyle
  2
Standard
 70
     0
  3

 62
   256
 51
90.0
 52
90.0
 71
     2
 49
0.5
 62
   256
  6
BYLAYER
 49
-0.5
 62
   256
  6
BYLAYER
  0
ACDBPLACEHOLDER
  5
F
102
{ACAD_REACTORS
330
E
102
}
330
E
  0
VISUALSTYLE
  5
2F
102
{ACAD_REACTORS
330
2A
102
}
330
2A
100
AcDbVisualStyle
  2
2dWireframe
 70
     4
177
     2
291
     0
 71
     0
176
     1
 72
     2
176
     1
 73
     0
176
     1
 90
        0
176
     1
 40
-0.6
176
     1
 41
-30.0
176
     1
 62
     5
 63
     7
421
 16777215
176
     1
 74
     1
176
     1
 91
        4
176
     1
 64
     7
176
     1
 65
   257
176
     1
 75
     1
176
     1
175
     1
176
     1
 42
1.0
176
     1
 92
        0
176
     1
 66
   257
176
     1
 43
1.0
176
     1
 76
     1
176
     1
 77
     6
176
     1
 78
     2
176
     1
 67
     7
176
     1
 79
     5
176
     1
170
     0
176
     1
171
     0
176
     1
290
     0
176
     1
 93
        1
176
     1
 44
0.0
176
     1
173
     0
176
     1
  0
VISUALSTYLE
  5
31
102
{ACAD_REACTORS
330
2A
102
}
330
2A
100
AcDbVisualStyle
  2
3D Hidden
 70
     6
177
     2
291
     0
 71
     1
176
     1
 72
     2
176
     1
 73
     2
176
     1
 90
        0
176
     1
 40
-0.6
176
     1
 41
-30.0
176
     1
 62
     5
 63
     7
421
 16777215
176
     1
 74
     2
176
     1
 91
        2
176
     1
 64
     7
176
     1
 65
   257
176
     1
 75
     2
176
     1
175
     1
176
     1
 42
40.0
176
     1
 92
        0
176
     1
 66
   257
176
     1
 43
1.0
176
     1
 76
     1
176
     1
 77
     6
176
     1
 78
     2
176
     1
 67
     7
176
     1
 79
     3
176
     1
170
     0
176
     1
171
     0
176
     1
290
     0
176
     1
 93
        1
176
     1
 44
0.0
176
     1
173
     0
176
     1
  0
VISUALSTYLE
  5
30
102
{ACAD_REACTORS
330
2A
102
}
330
2A
100
AcDbVisualStyle
  2
3dWireframe
 70
     5
177
     2
291
     0
 71
     0
176
     1
 72
     2
176
     1
 73
     0
176
     1
 90
        0
176
     1
 40
-0.6
176
     1
 41
-30.0
176
     1
 62
     5
 63
     7
421
 16777215
176
     1
 74
     1
176
     1
 91
        4
176
     1
 64
     7
176
     1
 65
   257
176
     1
 75
     1
176
     1
175
     1
176
     1
 42
1.0
176
     1
 92
        0
176
     1
 66
   257
176
     1
 43
1.0
176
     1
 76
     1
176
     1
 77
     6
176
     1
 78
     2
176
     1
 67
     7
176
     1
 79
     5
176
     1
170
     0
176
     1
171
     0
176
     1
290
     0
176
     1
 93
        1
176
     1
 44
0.0
176
     1
173
     0
176
     1
  0
VISUALSTYLE
  5
32
102
{ACAD_REACTORS
330
2A
102
}
330
2A
100
AcDbVisualStyle
  2
Basic
 70
     7
177
     2
291
     1
 71
     1
176
     1
 72
     0
176
     1
 73
     1
176
     1
 90
        0
176
     1
 40
-0.6
176
     1
 41
-30.0
176
     1
 62
     5
 63
     7
421
 16777215
176
     1
 74
     0
176
     1
 91
        4
176
     1
 64
     7
176
     1
 65
   257
176
     1
 75
     1
176
     1
175
     1
176
     1
 42
1.0
176
     1
 92
        8
176
     1
 66
     7
176
     1
 43
1.0
176
     1
 76
     1
176
     1
 77
     6
176
     1
 78
     2
176
     1
 67
     7
176
     1
 79
     5
176
     1
170
     0
176
     1
171
     0
176
     1
290
     0
176
     1
 93
        1
176
     1
 44
0.0
176
     1
173
     0
176
     1
  0
VISUALSTYLE
  5
36
102
{ACAD_REACTORS
330
2A
102
}
330
2A
100
AcDbVisualStyle
  2
Brighten
 70
    12
177
     2
291
     1
 71
     2
176
     1
 72
     2
176
     1
 73
     0
176
     1
 90
        0
176
     1
 40
-0.6
176
     1
 41
-30.0
176
     1
 62
     5
 63
     7
421
 16777215
176
     1
 74
     1
176
     1
 91
        4
176
     1
 64
     7
176
     1
 65
   257
176
     1
 75
     1
176
     1
175
     1
176
     1
 42
1.0
176
     1
 92
        8
176
     1
 66
     7
176
     1
 43
1.0
176
     1
 76
     1
176
     1
 77
     6
176
     1
 78
     2
176
     1
 67
     7
176
     1
 79
     5
176
     1
170
     0
176
     1
171
     0
176
     1
290
     0
176
     1
 93
        1
176
     1
 44
50.0
176
     1
173
     0
176
     1
  0
VISUALSTYLE
  5
3A
102
{ACAD_REACTORS
330
2A
102
}
330
2A
100
AcDbVisualStyle
  2
ColorChange
 70
    16
177
     2
291
     1
 71
     2
176
     1
 72
     2
176
     1
 73
     3
176
     1
 90
        0
176
     1
 40
-0.6
176
     1
 41
-30.0
176
     1
 62
     5
 63
     8
421
  8421504
176
     1
 74
     1
176
     1
 91
        4
176
     1
 64
     7
176
     1
 65
   257
176
     1
 75
     1
176
     1
175
     1
176
     1
 42
1.0
176
     1
 92
        8
176
     1
 66
     8
424
  8421504
176
     1
 43
1.0
176
     1
 76
     1
176
     1
 77
     6
176
     1
 78
     2
176
     1
 67
     7
176
     1
 79
     5
176
     1
170
     0
176
     1
171
     0
176
     1
290
     0
176
     1
 93
        1
176
     1
 44
0.0
176
     1
173
     0
176
     1
  0
VISUALSTYLE
  5
34
102
{ACAD_REACTORS
330
2A
102
}
330
2A
100
AcDbVisualStyle
  2
Conceptual
 70
     9
177
     2
291
     0
 71
     3
176
     1
 72
     2
176
     1
 73
     0
176
     1
 90
        0
176
     1
 40
-0.6
176
     1
 41
-30.0
176
     1
 62
     5
 63
     7
421
 16777215
176
     1
 74
     2
176
     1
 91
        2
176
     1
 64
     7
176
     1
 65
   257
176
     1
 75
     1
176
     1
175
     1
176
     1
 42
40.0
176
     1
 92
        8
176
     1
 66
     7
176
     1
 43
1.0
176
     1
 76
     1
176
     1
 77
     6
176
     1
 78
     2
176
     1
 67
     7
176
     1
 79
     3
176
     1
170
     0
176
     1
171
     0
176
     1
290
     0
176
     1
 93
        1
176
     1
 44
0.0
176
     1
173
     0
176
     1
  0
VISUALSTYLE
  5
35
102
{ACAD_REACTORS
330
2A
102
}
330
2A
100
AcDbVisualStyle
  2
Dim
 70
    11
177
     2
291
     1
 71
     2
176
     1
 72
     2
176
     1
 73
     0
176
     1
 90
        0
176
     1
 40
-0.6
176
     1
 41
-30.0
176
     1
 62
     5
 63
     7
421
 16777215
176
     1
 74
     1
176
     1
 91
        4
176
     1
 64
     7
176
     1
 65
   257
176
     1
 75
     1
176
     1
175
     1
176
     1
 42
1.0
176
     1
 92
        8
176
     1
 66
     7
176
     1
 43
1.0
176
     1
 76
     1
176
     1
 77
     6
176
     1
 78
     2
176
     1
 67
     7
176
     1
 79
     5
176
     1
170
     0
176
     1
171
     0
176
     1
290
     0
176
     1
 93
        1
176
     1
 44
-50.0
176
     1
173
     0
176
     1
  0
VISUALSTYLE
  5
39
102
{ACAD_REACTORS
330
2A
102
}
330
2A
100
AcDbVisualStyle
  2
Facepattern
 70
    15
177
     2
291
     1
 71
     2
176
     1
 72
     2
176
     1
 73
     0
176
     1
 90
        0
176
     1
 40
-0.6
176
     1
 41
-30.0
176
     1
 62
     5
 63
     7
421
 16777215
176
     1
 74
     1
176
     1
 91
        4
176
     1
 64
     7
176
     1
 65
   257
176
     1
 75
     1
176
     1
175
     1
176
     1
 42
1.0
176
     1
 92
        8
176
     1
 66
     7
176
     1
 43
1.0
176
     1
 76
     1
176
     1
 77
     6
176
     1
 78
     2
176
     1
 67
     7
176
     1
 79
     5
176
     1
170
     0
176
     1
171
     0
176
     1
290
     0
176
     1
 93
        1
176
     1
 44
0.0
176
     1
173
     0
176
     1
  0
VISUALSTYLE
  5
2B
102
{ACAD_REACTORS
330
2A
102
}
330
2A
100
AcDbVisualStyle
  2
Flat
 70
     0
177
     2
291
     1
 71
     2
176
     1
 72
     1
176
     1
 73
     1
176
     1
 90
        2
176
     1
 40
-0.6
176
     1
 41
30.0
176
     1
 62
     5
 63
     7
421
 16777215
176
     1
 74
     0
176
     1
 91
        4
176
     1
 64
     7
176
     1
 65
   257
176
     1
 75
     1
176
     1
175
     1
176
     1
 42
1.0
176
     1
 92
        8
176
     1
 66
     7
176
     1
 43
1.0
176
     1
 76
     1
176
     1
 77
     6
176
     1
 78
     2
176
     1
 67
     7
176
     1
 79
     5
176
     1
170
     0
176
     1
171
     0
176
     1
290
     0
176
     1
 93
       13
176
     1
 44
0.0
176
     1
173
     0
176
     1
  0
VISUALSTYLE
  5
2C
102
{ACAD_REACTORS
330
2A
102
}
330
2A
100
AcDbVisualStyle
  2
FlatWithEdges
 70
     1
177
     2
291
     1
 71
     2
176
     1
 72
     1
176
     1
 73
     1
176
     1
 90
        2
176
     1
 40
-0.6
176
     1
 41
30.0
176
     1
 62
     5
 63
     7
421
 16777215
176
     1
 74
     1
176
     1
 91
        4
176
     1
 64
     7
176
     1
 65
   257
176
     1
 75
     1
176
     1
175
     1
176
     1
 42
1.0
176
     1
 92
        0
176
     1
 66
   257
176
     1
 43
1.0
176
     1
 76
     1
176
     1
 77
     6
176
     1
 78
     2
176
     1
 67
     7
176
     1
 79
     5
176
     1
170
     0
176
     1
171
     0
176
     1
290
     0
176
     1
 93
       13
176
     1
 44
0.0
176
     1
173
     0
176
     1
  0
VISUALSTYLE
  5
2D
102
{ACAD_REACTORS
330
2A
102
}
330
2A
100
AcDbVisualStyle
  2
Gouraud
 70
     2
177
     2
291
     1
 71
     2
176
     1
 72
     2
176
     1
 73
     1
176
     1
 90
        2
176
     1
 40
-0.6
176
     1
 41
30.0
176
     1
 62
     5
 63
     7
421
 16777215
176
     1
 74
     0
176
     1
 91
        4
176
     1
 64
     7
176
     1
 65
   257
176
     1
 75
     1
176
     1
175
     1
176
     1
 42
1.0
176
     1
 92
        0
176
     1
 66
     7
176
     1
 43
1.0
176
     1
 76
     1
176
     1
 77
     6
176
     1
 78
     2
176
     1
 67
     7
176
     1
 79
     5
176
     1
170
     0
176
     1
171
     0
176
     1
290
     0
176
     1
 93
       13
176
     1
 44
0.0
176
     1
173
     0
176
     1
  0
VISUALSTYLE
  5
2E
102
{ACAD_REACTORS
330
2A
102
}
330
2A
100
AcDbVisualStyle
  2
GouraudWithEdges
 70
     3
177
     2
291
     1
 71
     2
176
     1
 72
     2
176
     1
 73
     1
176
     1
 90
        2
176
     1
 40
-0.6
176
     1
 41
30.0
176
     1
 62
     5
 63
     7
421
 16777215
176
     1
 74
     1
176
     1
 91
        4
176
     1
 64
     7
176
     1
 65
   257
176
     1
 75
     1
176
     1
175
     1
176
     1
 42
1.0
176
     1
 92
        0
176
     1
 66
   257
176
     1
 43
1.0
176
     1
 76
     1
176
     1
 77
     6
176
     1
 78
     2
176
     1
 67
     7
176
     1
 79
     5
176
     1
170
     0
176
     1
171
     0
176
     1
290
     0
176
     1
 93
       13
176
     1
 44
0.0
176
     1
173
     0
176
     1
  0
VISUALSTYLE
  5
38
102
{ACAD_REACTORS
330
2A
102
}
330
2A
100
AcDbVisualStyle
  2
Linepattern
 70
    14
177
     2
291
     1
 71
     2
176
     1
 72
     2
176
     1
 73
     0
176
     1
 90
        0
176
     1
 40
-0.6
176
     1
 41
-30.0
176
     1
 62
     5
 63
     7
421
 16777215
176
     1
 74
     1
176
     1
 91
        4
176
     1
 64
     7
176
     1
 65
   257
176
     1
 75
     7
176
     1
175
     7
176
     1
 42
1.0
176
     1
 92
        8
176
     1
 66
     7
176
     1
 43
1.0
176
     1
 76
     1
176
     1
 77
     6
176
     1
 78
     2
176
     1
 67
     7
176
     1
 79
     5
176
     1
170
     0
176
     1
171
     0
176
     1
290
     0
176
     1
 93
        1
176
     1
 44
0.0
176
     1
173
     0
176
     1
  0
VISUALSTYLE
  5
33
102
{ACAD_REACTORS
330
2A
102
}
330
2A
100
AcDbVisualStyle
  2
Realistic
 70
     8
177
     2
291
     0
 71
     2
176
     1
 72
     2
176
     1
 73
     0
176
     1
 90
        0
176
     1
 40
-0.6
176
     1
 41
-30.0
176
     1
 62
     5
 63
     7
421
 16777215
176
     1
 74
     1
176
     1
 91
        0
176
     1
 64
     7
176
     1
 65
   257
176
     1
 75
     1
176
     1
175
     1
176
     1
 42
1.0
176
     1
 92
        8
176
     1
 66
     8
424
  7895160
176
     1
 43
1.0
176
     1
 76
     1
176
     1
 77
     6
176
     1
 78
     2
176
     1
 67
     7
176
     1
 79
     5
176
     1
170
     0
176
     1
171
     0
176
     1
290
     0
176
     1
 93
       13
176
     1
 44
0.0
176
     1
173
     0
176
     1
  0
VISUALSTYLE
  5
37
102
{ACAD_REACTORS
330
2A
102
}
330
2A
100
AcDbVisualStyle
  2
Thicken
 70
    13
177
     2
291
     1
 71
     2
176
     1
 72
     2
176
     1
 73
     0
176
     1
 90
        0
176
     1
 40
-0.6
176
     1
 41
-30.0
176
     1
 62
     5
 63
     7
421
 16777215
176
     1
 74
     1
176
     1
 91
        4
176
     1
 64
     7
176
     1
 65
   257
176
     1
 75
     1
176
     1
175
     1
176
     1
 42
1.0
176
     1
 92
       12
176
     1
 66
     7
176
     1
 43
1.0
176
     1
 76
     1
176
     1
 77
     6
176
     1
 78
     2
176
     1
 67
     7
176
     1
 79
     5
176
     1
170
     0
176
     1
171
     0
176
     1
290
     0
176
     1
 93
        1
176
     1
 44
0.0
176
     1
173
     0
176
     1
  0
ENDSEC
  0
EOF
