  0
SECTION
  2
HEADER
  9
$ACADVER
  1
AC1024
  9
$ACADMAINTVER
 70
     6
  9
$DWGCODEPAGE
  3
UNDEFINED
  9
$INSBASE
 10
0.0
 20
0.0
 30
0.0
  9
$EXTMIN
 10
1.000000000000000E+20
 20
1.000000000000000E+20
 30
1.000000000000000E+20
  9
$EXTMAX
 10
-1.000000000000000E+20
 20
-1.000000000000000E+20
 30
-1.000000000000000E+20
  9
$LIMMIN
 10
0.0
 20
0.0
  9
$LIMMAX
 10
12.0
 20
9.0
  9
$ORTHOMODE
 70
     0
  9
$REGENMODE
 70
     1
  9
$FILLMODE
 70
     1
  9
$QTEXTMODE
 70
     0
  9
$MIRRTEXT
 70
     1
  9
$LTSCALE
 40
1.0
  9
$ATTMODE
 70
     1
  9
$TEXTSIZE
 40
0.2
  9
$TRACEWID
 40
0.05
  9
$TEXTSTYLE
  7
Standard
  9
$CLAYER
  8
0
  9
$CELTYPE
  6
ByLayer
  9
$CECOLOR
 62
   256
  9
$CELTSCALE
 40
1.0
  9
$DISPSILH
 70
     0
  9
$DIMSCALE
 40
1.0
  9
$DIMASZ
 40
0.18
  9
$DIMEXO
 40
0.0625
  9
$DIMDLI
 40
0.38
  9
$DIMRND
 40
0.0
  9
$DIMDLE
 40
0.0
  9
$DIMEXE
 40
0.18
  9
$DIMTP
 40
0.0
  9
$DIMTM
 40
0.0
  9
$DIMTXT
 40
0.18
  9
$DIMCEN
 40
0.09
  9
$DIMTSZ
 40
0.0
  9
$DIMTOL
 70
     0
  9
$DIMLIM
 70
     0
  9
$DIMTIH
 70
     1
  9
$DIMTOH
 70
     1
  9
$DIMSE1
 70
     0
  9
$DIMSE2
 70
     0
  9
$DIMTAD
 70
     0
  9
$DIMZIN
 70
     0
  9
$DIMBLK
  1

  9
$DIMASO
 70
     1
  9
$DIMSHO
 70
     1
  9
$DIMPOST
  1

  9
$DIMAPOST
  1

  9
$DIMALT
 70
     0
  9
$DIMALTD
 70
     2
  9
$DIMALTF
 40
25.4
  9
$DIMLFAC
 40
1.0
  9
$DIMTOFL
 70
     0
  9
$DIMTVP
 40
0.0
  9
$DIMTIX
 70
     0
  9
$DIMSOXD
 70
     0
  9
$DIMSAH
 70
     0
  9
$DIMBLK1
  1

  9
$DIMBLK2
  1

  9
$DIMSTYLE
  2
Standard
  9
$DIMCLRD
 70
     0
  9
$DIMCLRE
 70
     0
  9
$DIMCLRT
 70
     0
  9
$DIMTFAC
 40
1.0
  9
$DIMGAP
 40
0.09
  9
$DIMJUST
 70
     0
  9
$DIMSD1
 70
     0
  9
$DIMSD2
 70
     0
  9
$DIMTOLJ
 70
     1
  9
$DIMTZIN
 70
     0
  9
$DIMALTZ
 70
     0
  9
$DIMALTTZ
 70
     0
  9
$DIMUPT
 70
     0
  9
$DIMDEC
 70
     4
  9
$DIMTDEC
 70
     4
  9
$DIMALTU
 70
     2
  9
$DIMALTTD
 70
     2
  9
$DIMTXSTY
  7
Standard
  9
$DIMAUNIT
 70
     0
  9
$DIMADEC
 70
     0
  9
$DIMALTRND
 40
0.0
  9
$DIMAZIN
 70
     0
  9
$DIMDSEP
 70
    46
  9
$DIMATFIT
 70
     3
  9
$DIMFRAC
 70
     0
  9
$DIMLDRBLK
  1

  9
$DIMLUNIT
 70
     2
  9
$DIMLWD
 70
    -2
  9
$DIMLWE
 70
    -2
  9
$DIMTMOVE
 70
     0
  9
$DIMFXL
 40
1.0
  9
$DIMFXLON
 70
     0
  9
$DIMJOGANG
 40
0.7853981633974483
  9
$DIMTFILL
 70
     0
  9
$DIMTFILLCLR
 70
     0
  9
$DIMARCSYM
 70
     0
  9
$DIMLTYPE
  6

  9
$DIMLTEX1
  6

  9
$DIMLTEX2
  6

  9
$DIMTXTDIRECTION
 70
     0
  9
$LUNITS
 70
     2
  9
$LUPREC
 70
     4
  9
$SKETCHINC
 40
0.1
  9
$FILLETRAD
 40
0.5
  9
$AUNITS
 70
     0
  9
$AUPREC
 70
     0
  9
$MENU
  1
.
  9
$ELEVATION
 40
0.0
  9
$PELEVATION
 40
0.0
  9
$THICKNESS
 40
0.0
  9
$LIMCHECK
 70
     0
  9
$CHAMFERA
 40
0.5
  9
$CHAMFERB
 40
0.5
  9
$CHAMFERC
 40
1.0
  9
$CHAMFERD
 40
0.0
  9
$SKPOLY
 70
     0
  9
$TDCREATE
 40
2457917.628888877
  9
$TDUCREATE
 40
2457917.253888889
  9
$TDUPDATE
 40
2457917.628888877
  9
$TDUUPDATE
 40
2457917.253888889
  9
$TDINDWG
 40
0.0000000116
  9
$TDUSRTIMER
 40
0.0000000116
  9
$USRTIMER
 70
     1
  9
$ANGBASE
 50
0.0
  9
$ANGDIR
 70
     0
  9
$PDMODE
 70
     0
  9
$PDSIZE
 40
0.0
  9
$PLINEWID
 40
0.0
  9
$SPLFRAME
 70
     0
  9
$SPLINETYPE
 70
     6
  9
$SPLINESEGS
 70
     8
  9
$HANDSEED
  5
119
  9
$SURFTAB1
 70
     6
  9
$SURFTAB2
 70
     6
  9
$SURFTYPE
 70
     6
  9
$SURFU
 70
     6
  9
$SURFV
 70
     6
  9
$UCSBASE
  2

  9
$UCSNAME
  2

  9
$UCSORG
 10
0.0
 20
0.0
 30
0.0
  9
$UCSXDIR
 10
1.0
 20
0.0
 30
0.0
  9
$UCSYDIR
 10
0.0
 20
1.0
 30
0.0
  9
$UCSORTHOREF
  2

  9
$UCSORTHOVIEW
 70
     0
  9
$UCSORGTOP
 10
0.0
 20
0.0
 30
0.0
  9
$UCSORGBOTTOM
 10
0.0
 20
0.0
 30
0.0
  9
$UCSORGLEFT
 10
0.0
 20
0.0
 30
0.0
  9
$UCSORGRIGHT
 10
0.0
 20
0.0
 30
0.0
  9
$UCSORGFRONT
 10
0.0
 20
0.0
 30
0.0
  9
$UCSORGBACK
 10
0.0
 20
0.0
 30
0.0
  9
$PUCSBASE
  2

  9
$PUCSNAME
  2

  9
$PUCSORG
 10
0.0
 20
0.0
 30
0.0
  9
$PUCSXDIR
 10
1.0
 20
0.0
 30
0.0
  9
$PUCSYDIR
 10
0.0
 20
1.0
 30
0.0
  9
$PUCSORTHOREF
  2

  9
$PUCSORTHOVIEW
 70
     0
  9
$PUCSORGTOP
 10
0.0
 20
0.0
 30
0.0
  9
$PUCSORGBOTTOM
 10
0.0
 20
0.0
 30
0.0
  9
$PUCSORGLEFT
 10
0.0
 20
0.0
 30
0.0
  9
$PUCSORGRIGHT
 10
0.0
 20
0.0
 30
0.0
  9
$PUCSORGFRONT
 10
0.0
 20
0.0
 30
0.0
  9
$PUCSORGBACK
 10
0.0
 20
0.0
 30
0.0
  9
$USERI1
 70
     0
  9
$USERI2
 70
     0
  9
$USERI3
 70
     0
  9
$USERI4
 70
     0
  9
$USERI5
 70
     0
  9
$USERR1
 40
0.0
  9
$USERR2
 40
0.0
  9
$USERR3
 40
0.0
  9
$USERR4
 40
0.0
  9
$USERR5
 40
0.0
  9
$WORLDVIEW
 70
     1
  9
$SHADEDGE
 70
     3
  9
$SHADEDIF
 70
    70
  9
$TILEMODE
 70
     1
  9
$MAXACTVP
 70
    64
  9
$PINSBASE
 10
0.0
 20
0.0
 30
0.0
  9
$PLIMCHECK
 70
     0
  9
$PEXTMIN
 10
1.000000000000000E+20
 20
1.000000000000000E+20
 30
1.000000000000000E+20
  9
$PEXTMAX
 10
-1.000000000000000E+20
 20
-1.000000000000000E+20
 30
-1.000000000000000E+20
  9
$PLIMMIN
 10
0.0
 20
0.0
  9
$PLIMMAX
 10
12.0
 20
9.0
  9
$UNITMODE
 70
     0
  9
$VISRETAIN
 70
     1
  9
$PLINEGEN
 70
     0
  9
$PSLTSCALE
 70
     1
  9
$TREEDEPTH
 70
  3020
  9
$CMLSTYLE
  2
Standard
  9
$CMLJUST
 70
     0
  9
$CMLSCALE
 40
1.0
  9
$PROXYGRAPHICS
 70
     1
  9
$MEASUREMENT
 70
     0
  9
$CELWEIGHT
370
    -1
  9
$ENDCAPS
280
     0
  9
$JOINSTYLE
280
     0
  9
$LWDISPLAY
290
     1
  9
$INSUNITS
 70
     1
  9
$HYPERLINKBASE
  1

  9
$STYLESHEET
  1

  9
$XEDIT
290
     1
  9
$CEPSNTYPE
380
     0
  9
$PSTYLEMODE
290
     1
  9
$FINGERPRINTGUID
  2
{C982610D-5DD1-AD3B-59AD-B1870704A3E4}
  9
$VERSIONGUID
  2
{FAEB1C32-E019-11D5-929B-00C0DF256EC4}
  9
$EXTNAMES
290
     1
  9
$PSVPSCALE
 40
0.0
  9
$OLESTARTUP
290
     0
  9
$SORTENTS
280
   127
  9
$INDEXCTL
280
     0
  9
$HIDETEXT
280
     1
  9
$XCLIPFRAME
280
     2
  9
$HALOGAP
280
     0
  9
$OBSCOLOR
 70
   257
  9
$OBSLTYPE
280
     0
  9
$INTERSECTIONDISPLAY
280
     0
  9
$INTERSECTIONCOLOR
 70
   257
  9
$DIMASSOC
280
     2
  9
$PROJECTNAME
  1

  9
$CAMERADISPLAY
290
     0
  9
$LENSLENGTH
 40
50.0
  9
$CAMERAHEIGHT
 40
0.0
  9
$STEPSPERSEC
 40
2.0
  9
$STEPSIZE
 40
6.0
  9
$3DDWFPREC
 40
2.0
  9
$PSOLWIDTH
 40
0.25
  9
$PSOLHEIGHT
 40
4.0
  9
$LOFTANG1
 40
1.570796326794897
  9
$LOFTANG2
 40
1.570796326794897
  9
$LOFTMAG1
 40
0.0
  9
$LOFTMAG2
 40
0.0
  9
$LOFTPARAM
 70
     7
  9
$LOFTNORMALS
280
     1
  9
$LATITUDE
 40
37.795
  9
$LONGITUDE
 40
-122.394
  9
$NORTHDIRECTION
 40
0.0
  9
$TIMEZONE
 70
 -8000
  9
$LIGHTGLYPHDISPLAY
280
     1
  9
$TILEMODELIGHTSYNCH
280
     1
  9
$CMATERIAL
347
3C
  9
$SOLIDHIST
280
     1
  9
$SHOWHIST
280
     1
  9
$DWFFRAME
280
     2
  9
$DGNFRAME
280
     2
  9
$REALWORLDSCALE
290
     1
  9
$INTERFERECOLOR
 62
   256
  9
$CSHADOW
280
     0
  9
$SHADOWPLANELOCATION
 40
0.0
  0
ENDSEC
  0
SECTION
  2
CLASSES
  0
CLASS
  1
ACDBDICTIONARYWDFLT
  2
AcDbDictionaryWithDefault
  3
ObjectDBX Classes
 90
        0
 91
        4
280
     0
281
     0
  0
CLASS
  1
VISUALSTYLE
  2
AcDbVisualStyle
  3
ObjectDBX Classes
 90
     4095
 91
        4
280
     0
281
     0
  0
CLASS
  1
MATERIAL
  2
AcDbMaterial
  3
ObjectDBX Classes
 90
     1153
 91
        4
280
     0
281
     0
  0
CLASS
  1
SUN
  2
AcDbSun
  3
SCENEOE
 90
     1024
 91
        4
280
     0
281
     0
  0
ENDSEC
  0
SECTION
  2
TABLES
  0
TABLE
  2
VPORT
  5
8
330
0
100
AcDbSymbolTable
 70
     1
  0
VPORT
  5
29
330
8
100
AcDbSymbolTableRecord
100
AcDbViewportTableRecord
  2
*Active
 70
     0
 10
0.0
 20
0.0
 11
1.0
 21
1.0
 12
0.0
 22
0.0
 13
0.0
 23
0.0
 14
0.5
 24
0.5
 15
0.5
 25
0.5
 16
0.0
 26
0.0
 36
1.0
 17
91.00082462281999
 27
-128.4993055234307
 37
0.0
 40
256.9986110468615
 41
0.7081814508812795
 42
50.0
 43
0.0
 44
0.0
 50
0.0
 51
0.0
 71
     0
 72
   100
 73
     1
 74
     3
 75
     0
 76
     0
 77
     0
 78
     0
281
     0
 65
     1
110
0.0
120
0.0
130
0.0
111
1.0
121
0.0
131
0.0
112
0.0
122
1.0
132
0.0
 79
     0
146
0.0
 60
     3
 61
     5
292
     1
282
     1
141
0.0
142
0.0
 63
   250
361
3F
  0
ENDTAB
  0
TABLE
  2
LTYPE
  5
5
330
0
100
AcDbSymbolTable
 70
     4
  0
LTYPE
  5
14
330
5
100
AcDbSymbolTableRecord
100
AcDbLinetypeTableRecord
  2
ByBlock
 70
     0
  3

 72
    65
 73
     0
 40
0.0
  0
LTYPE
  5
15
330
5
100
AcDbSymbolTableRecord
100
AcDbLinetypeTableRecord
  2
ByLayer
 70
     0
  3

 72
    65
 73
     0
 40
0.0
  0
LTYPE
  5
16
330
5
100
AcDbSymbolTableRecord
100
AcDbLinetypeTableRecord
  2
Continuous
 70
     0
  3
Solid line
 72
    65
 73
     0
 40
0.0
  0
LTYPE
  5
F2
330
5
100
AcDbSymbolTableRecord
100
AcDbLinetypeTableRecord
  2
AI-Linetype-1
 70
     0
  3
Adobe Illustrator Linetype No. 1
 72
    65
 73
     2
 40
1.411111110758333
 49
0.7055555553791667
 74
     0
 49
-0.7055555553791667
 74
     0
  0
LTYPE
  5
F4
330
5
100
AcDbSymbolTableRecord
100
AcDbLinetypeTableRecord
  2
AI-Linetype-2
 70
     0
  3
Adobe Illustrator Linetype No. 2
 72
    65
 73
     2
 40
1.411111110758333
 49
0.7055555553791667
 74
     0
 49
-0.7055555553791667
 74
     0
  0
LTYPE
  5
F6
330
5
100
AcDbSymbolTableRecord
100
AcDbLinetypeTableRecord
  2
AI-Linetype-3
 70
     0
  3
Adobe Illustrator Linetype No. 3
 72
    65
 73
     2
 40
1.411111110758333
 49
0.7055555553791667
 74
     0
 49
-0.7055555553791667
 74
     0
  0
ENDTAB
  0
TABLE
  2
LAYER
  5
2
330
0
100
AcDbSymbolTable
 70
     2
  0
LAYER
  5
10
330
2
100
AcDbSymbolTableRecord
100
AcDbLayerTableRecord
  2
0
 70
     0
 62
     7
  6
Continuous
370
    -3
390
F
347
3E
  0
LAYER
  5
40
330
2
100
AcDbSymbolTableRecord
100
AcDbLayerTableRecord
  2
_U+30EC_U+30A4_U+30E4_U+30FC 1
 70
     0
 62
     7
  6
Continuous
370
    -3
390
F
347
3E
  0
ENDTAB
  0
TABLE
  2
STYLE
  5
3
330
0
100
AcDbSymbolTable
 70
     1
  0
STYLE
  5
11
330
3
100
AcDbSymbolTableRecord
100
AcDbTextStyleTableRecord
  2
Standard
 70
     0
 40
0.0
 41
1.0
 50
0.0
 71
     0
 42
0.2
  3
txt
  4

  0
ENDTAB
  0
TABLE
  2
VIEW
  5
6
330
0
100
AcDbSymbolTable
 70
     0
  0
ENDTAB
  0
TABLE
  2
UCS
  5
7
330
0
100
AcDbSymbolTable
 70
     0
  0
ENDTAB
  0
TABLE
  2
APPID
  5
9
330
0
100
AcDbSymbolTable
 70
     1
  0
APPID
  5
12
330
9
100
AcDbSymbolTableRecord
100
AcDbRegAppTableRecord
  2
ACAD
 70
     0
  0
ENDTAB
  0
TABLE
  2
DIMSTYLE
  5
A
330
0
100
AcDbSymbolTable
 70
     1
100
AcDbDimStyleTable
  0
DIMSTYLE
105
27
330
A
100
AcDbSymbolTableRecord
100
AcDbDimStyleTableRecord
  2
Standard
 70
     0
178
     0
340
11
  0
ENDTAB
  0
TABLE
  2
BLOCK_RECORD
  5
1
330
0
100
AcDbSymbolTable
 70
     6
  0
BLOCK_RECORD
  5
1F
330
1
100
AcDbSymbolTableRecord
100
AcDbBlockTableRecord
  2
*Model_Space
340
22
 70
     0
280
     1
281
     0
  0
BLOCK_RECORD
  5
1B
330
1
100
AcDbSymbolTableRecord
100
AcDbBlockTableRecord
  2
*Paper_Space
340
1E
 70
     0
280
     1
281
     0
  0
BLOCK_RECORD
  5
23
330
1
100
AcDbSymbolTableRecord
100
AcDbBlockTableRecord
  2
*Paper_Space0
340
26
 70
     0
280
     1
281
     0
  0
BLOCK_RECORD
  5
41
330
1
100
AcDbSymbolTableRecord
100
AcDbBlockTableRecord
  2
block 2
340
0
102
{BLKREFS
331
42
102
}
 70
     0
280
     1
281
     0
  0
BLOCK_RECORD
  5
74
330
1
100
AcDbSymbolTableRecord
100
AcDbBlockTableRecord
  2
block 3
340
0
102
{BLKREFS
331
75
102
}
 70
     0
280
     1
281
     0
  0
BLOCK_RECORD
  5
97
330
1
100
AcDbSymbolTableRecord
100
AcDbBlockTableRecord
  2
block 4
340
0
102
{BLKREFS
331
98
102
}
 70
     0
280
     1
281
     0
  0
BLOCK_RECORD
  5
BA
330
1
100
AcDbSymbolTableRecord
100
AcDbBlockTableRecord
  2
block 5
340
0
102
{BLKREFS
331
BB
102
}
 70
     0
280
     1
281
     0
  0
BLOCK_RECORD
  5
DE
330
1
100
AcDbSymbolTableRecord
100
AcDbBlockTableRecord
  2
block 6
340
0
102
{BLKREFS
331
DF
102
}
 70
     0
280
     1
281
     0
  0
ENDTAB
  0
ENDSEC
  0
SECTION
  2
BLOCKS
  0
BLOCK
  5
20
330
1F
100
AcDbEntity
  8
0
100
AcDbBlockBegin
  2
*Model_Space
 70
     0
 10
0.0
 20
0.0
 30
0.0
  3
*Model_Space
  1

  0
ENDBLK
  5
21
330
1F
100
AcDbEntity
  8
0
100
AcDbBlockEnd
  0
BLOCK
  5
1C
330
1B
100
AcDbEntity
 67
     1
  8
0
100
AcDbBlockBegin
  2
*Paper_Space
 70
     0
 10
0.0
 20
0.0
 30
0.0
  3
*Paper_Space
  1

  0
ENDBLK
  5
1D
330
1B
100
AcDbEntity
 67
     1
  8
0
100
AcDbBlockEnd
  0
BLOCK
  5
24
330
23
100
AcDbEntity
  8
0
100
AcDbBlockBegin
  2
*Paper_Space0
 70
     0
 10
0.0
 20
0.0
 30
0.0
  3
*Paper_Space0
  1

  0
ENDBLK
  5
25
330
23
100
AcDbEntity
  8
0
100
AcDbBlockEnd
  0
BLOCK
  5
43
330
41
100
AcDbEntity
  8
0
100
AcDbBlockBegin
  2
block 2
 70
     0
 10
0.0
 20
0.0
 30
0.0
  3
block 2
  1

  0
SPLINE
  5
45
330
41
100
AcDbEntity
  8
_U+30EC_U+30A4_U+30E4_U+30FC 1
370
     0
100
AcDbSpline
210
0.0
220
0.0
230
1.0
 70
    11
 71
     3
 72
    71
 73
    67
 74
     0
 42
0.0000000001
 43
0.0000000001
 12
1.0
 22
0.0
 32
0.0
 13
1.0
 23
0.0
 33
0.0
 40
0.0
 40
0.0
 40
0.0
 40
0.0
 40
1.0
 40
1.0
 40
1.0
 40
2.0
 40
2.0
 40
2.0
 40
3.0
 40
3.0
 40
3.0
 40
4.0
 40
4.0
 40
4.0
 40
5.0
 40
5.0
 40
5.0
 40
6.0
 40
6.0
 40
6.0
 40
7.0
 40
7.0
 40
7.0
 40
8.0
 40
8.0
 40
8.0
 40
9.0
 40
9.0
 40
9.0
 40
10.0
 40
10.0
 40
10.0
 40
11.0
 40
11.0
 40
11.0
 40
12.0
 40
12.0
 40
12.0
 40
13.0
 40
13.0
 40
13.0
 40
14.0
 40
14.0
 40
14.0
 40
15.0
 40
15.0
 40
15.0
 40
16.0
 40
16.0
 40
16.0
 40
17.0
 40
17.0
 40
17.0
 40
18.0
 40
18.0
 40
18.0
 40
19.0
 40
19.0
 40
19.0
 40
20.0
 40
20.0
 40
20.0
 40
21.0
 40
21.0
 40
21.0
 40
22.0
 40
22.0
 40
22.0
 40
22.0
 10
70.91057262767167
 20
-113.0966281184272
 30
0.0
 10
70.91057262767167
 20
-113.0966281184272
 30
0.0
 10
71.39030217399271
 20
-113.0306545398847
 30
0.0
 10
71.39030217399271
 20
-113.0306545398847
 30
0.0
 10
71.41131725645273
 20
-113.027553953948
 30
0.0
 10
71.45334742137278
 20
-113.0246256227855
 30
0.0
 10
71.45334742137278
 20
-113.0606268706064
 30
0.0
 10
71.45334742137278
 20
-113.0874986153913
 30
0.0
 10
71.43233233891276
 20
-113.1055853666889
 30
0.0
 10
71.408216670516
 20
-113.1234998632122
 30
0.0
 10
71.408216670516
 20
-113.1234998632122
 30
0.0
 10
71.46523300079689
 20
-113.5133124173682
 30
0.0
 10
71.46523300079689
 20
-113.5133124173682
 30
0.0
 10
71.46523300079689
 20
-113.5133124173682
 30
0.0
 10
72.13995495158306
 20
-113.4294243423024
 30
0.0
 10
72.13995495158306
 20
-113.4294243423024
 30
0.0
 10
72.13995495158306
 20
-113.4294243423024
 30
0.0
 10
72.19077010999051
 20
-113.8671237237034
 30
0.0
 10
72.19077010999051
 20
-113.8671237237034
 30
0.0
 10
72.19077010999051
 20
-113.8671237237034
 30
0.0
 10
71.53120657933943
 20
-113.9570407158684
 30
0.0
 10
71.53120657933943
 20
-113.9570407158684
 30
0.0
 10
71.53120657933943
 20
-113.9570407158684
 30
0.0
 10
71.57616507542194
 20
-114.2688218572835
 30
0.0
 10
71.57616507542194
 20
-114.2688218572835
 30
0.0
 10
71.57616507542194
 20
-114.2688218572835
 30
0.0
 10
72.57455374704733
 20
-114.1399752861352
 30
0.0
 10
72.57455374704733
 20
-114.1399752861352
 30
0.0
 10
72.57455374704733
 20
-114.1399752861352
 30
0.0
 10
72.62554116022903
 20
-114.5807752534729
 30
0.0
 10
72.62554116022903
 20
-114.5807752534729
 30
0.0
 10
72.62554116022903
 20
-114.5807752534729
 30
0.0
 10
71.64213865396447
 20
-114.7127224105579
 30
0.0
 10
71.64213865396447
 20
-114.7127224105579
 30
0.0
 10
71.64213865396447
 20
-114.7127224105579
 30
0.0
 10
71.78011472814872
 20
-115.6570230830649
 30
0.0
 10
71.78011472814872
 20
-115.6570230830649
 30
0.0
 10
71.78011472814872
 20
-115.6570230830649
 30
0.0
 10
71.30038518182768
 20
-115.7379828269683
 30
0.0
 10
71.30038518182768
 20
-115.7379828269683
 30
0.0
 10
71.30038518182768
 20
-115.7379828269683
 30
0.0
 10
71.15948077648096
 20
-114.7755954031637
 30
0.0
 10
71.15948077648096
 20
-114.7755954031637
 30
0.0
 10
71.15948077648096
 20
-114.7755954031637
 30
0.0
 10
70.11010469167387
 20
-114.913571477348
 30
0.0
 10
70.11010469167387
 20
-114.913571477348
 30
0.0
 10
70.11010469167387
 20
-114.913571477348
 30
0.0
 10
70.05601669255545
 20
-114.4638142617486
 30
0.0
 10
70.05601669255545
 20
-114.4638142617486
 30
0.0
 10
70.05601669255545
 20
-114.4638142617486
 30
0.0
 10
71.09350719793844
 20
-114.3289387735011
 30
0.0
 10
71.09350719793844
 20
-114.3289387735011
 30
0.0
 10
71.09350719793844
 20
-114.3289387735011
 30
0.0
 10
71.04854870185592
 20
-114.0200859632485
 30
0.0
 10
71.04854870185592
 20
-114.0200859632485
 30
0.0
 10
71.04854870185592
 20
-114.0200859632485
 30
0.0
 10
70.31698267556312
 20
-114.1160318725127
 30
0.0
 10
70.31698267556312
 20
-114.1160318725127
 30
0.0
 10
70.31698267556312
 20
-114.1160318725127
 30
0.0
 10
70.2628946764447
 20
-113.6662746569133
 30
0.0
 10
70.2628946764447
 20
-113.6662746569133
 30
0.0
 10
70.2628946764447
 20
-113.6662746569133
 30
0.0
 10
70.98257512331338
 20
-113.5763576647483
 30
0.0
 10
70.98257512331338
 20
-113.5763576647483
 30
0.0
 10
70.98257512331338
 20
-113.5763576647483
 30
0.0
 10
70.91057262767167
 20
-113.0966281184272
 30
0.0
 10
70.91057262767167
 20
-113.0966281184272
 30
0.0
  0
HATCH
  5
46
330
41
100
AcDbEntity
  8
_U+30EC_U+30A4_U+30E4_U+30FC 1
 62
   179
420
  2234388
100
AcDbHatch
 10
0.0
 20
0.0
 30
0.0
210
0.0
220
0.0
230
1.0
  2
SOLID
 70
     1
 71
     0
 91
        1
 92
        1
 93
        1
 72
     4
 94
        3
 73
     0
 74
     1
 95
       71
 96
       67
 40
0.0
 40
0.0
 40
0.0
 40
0.0
 40
1.0
 40
1.0
 40
1.0
 40
2.0
 40
2.0
 40
2.0
 40
3.0
 40
3.0
 40
3.0
 40
4.0
 40
4.0
 40
4.0
 40
5.0
 40
5.0
 40
5.0
 40
6.0
 40
6.0
 40
6.0
 40
7.0
 40
7.0
 40
7.0
 40
8.0
 40
8.0
 40
8.0
 40
9.0
 40
9.0
 40
9.0
 40
10.0
 40
10.0
 40
10.0
 40
11.0
 40
11.0
 40
11.0
 40
12.0
 40
12.0
 40
12.0
 40
13.0
 40
13.0
 40
13.0
 40
14.0
 40
14.0
 40
14.0
 40
15.0
 40
15.0
 40
15.0
 40
16.0
 40
16.0
 40
16.0
 40
17.0
 40
17.0
 40
17.0
 40
18.0
 40
18.0
 40
18.0
 40
19.0
 40
19.0
 40
19.0
 40
20.0
 40
20.0
 40
20.0
 40
21.0
 40
21.0
 40
21.0
 40
22.0
 40
22.0
 40
22.0
 40
22.0
 10
70.91057262767167
 20
-113.0966281184272
 10
70.91057262767167
 20
-113.0966281184272
 10
71.39030217399271
 20
-113.0306545398847
 10
71.39030217399271
 20
-113.0306545398847
 10
71.41131725645273
 20
-113.027553953948
 10
71.45334742137278
 20
-113.0246256227855
 10
71.45334742137278
 20
-113.0606268706064
 10
71.45334742137278
 20
-113.0874986153913
 10
71.43233233891276
 20
-113.1055853666889
 10
71.408216670516
 20
-113.1234998632122
 10
71.408216670516
 20
-113.1234998632122
 10
71.46523300079689
 20
-113.5133124173682
 10
71.46523300079689
 20
-113.5133124173682
 10
71.46523300079689
 20
-113.5133124173682
 10
72.13995495158306
 20
-113.4294243423024
 10
72.13995495158306
 20
-113.4294243423024
 10
72.13995495158306
 20
-113.4294243423024
 10
72.19077010999051
 20
-113.8671237237034
 10
72.19077010999051
 20
-113.8671237237034
 10
72.19077010999051
 20
-113.8671237237034
 10
71.53120657933943
 20
-113.9570407158684
 10
71.53120657933943
 20
-113.9570407158684
 10
71.53120657933943
 20
-113.9570407158684
 10
71.57616507542194
 20
-114.2688218572835
 10
71.57616507542194
 20
-114.2688218572835
 10
71.57616507542194
 20
-114.2688218572835
 10
72.57455374704733
 20
-114.1399752861352
 10
72.57455374704733
 20
-114.1399752861352
 10
72.57455374704733
 20
-114.1399752861352
 10
72.62554116022903
 20
-114.5807752534729
 10
72.62554116022903
 20
-114.5807752534729
 10
72.62554116022903
 20
-114.5807752534729
 10
71.64213865396447
 20
-114.7127224105579
 10
71.64213865396447
 20
-114.7127224105579
 10
71.64213865396447
 20
-114.7127224105579
 10
71.78011472814872
 20
-115.6570230830649
 10
71.78011472814872
 20
-115.6570230830649
 10
71.78011472814872
 20
-115.6570230830649
 10
71.30038518182768
 20
-115.7379828269683
 10
71.30038518182768
 20
-115.7379828269683
 10
71.30038518182768
 20
-115.7379828269683
 10
71.15948077648096
 20
-114.7755954031637
 10
71.15948077648096
 20
-114.7755954031637
 10
71.15948077648096
 20
-114.7755954031637
 10
70.11010469167387
 20
-114.913571477348
 10
70.11010469167387
 20
-114.913571477348
 10
70.11010469167387
 20
-114.913571477348
 10
70.05601669255545
 20
-114.4638142617486
 10
70.05601669255545
 20
-114.4638142617486
 10
70.05601669255545
 20
-114.4638142617486
 10
71.09350719793844
 20
-114.3289387735011
 10
71.09350719793844
 20
-114.3289387735011
 10
71.09350719793844
 20
-114.3289387735011
 10
71.04854870185592
 20
-114.0200859632485
 10
71.04854870185592
 20
-114.0200859632485
 10
71.04854870185592
 20
-114.0200859632485
 10
70.31698267556312
 20
-114.1160318725127
 10
70.31698267556312
 20
-114.1160318725127
 10
70.31698267556312
 20
-114.1160318725127
 10
70.2628946764447
 20
-113.6662746569133
 10
70.2628946764447
 20
-113.6662746569133
 10
70.2628946764447
 20
-113.6662746569133
 10
70.98257512331338
 20
-113.5763576647483
 10
70.98257512331338
 20
-113.5763576647483
 10
70.98257512331338
 20
-113.5763576647483
 10
70.91057262767167
 20
-113.0966281184272
 10
70.91057262767167
 20
-113.0966281184272
 97
        0
 97
        0
 75
     2
 76
     1
 98
        0
  0
SPLINE
  5
47
330
41
100
AcDbEntity
  8
_U+30EC_U+30A4_U+30E4_U+30FC 1
370
     0
100
AcDbSpline
210
0.0
220
0.0
230
1.0
 70
    11
 71
     3
 72
    59
 73
    55
 74
     0
 42
0.0000000001
 43
0.0000000001
 12
1.0
 22
0.0
 32
0.0
 13
1.0
 23
0.0
 33
0.0
 40
0.0
 40
0.0
 40
0.0
 40
0.0
 40
1.0
 40
1.0
 40
1.0
 40
2.0
 40
2.0
 40
2.0
 40
3.0
 40
3.0
 40
3.0
 40
4.0
 40
4.0
 40
4.0
 40
5.0
 40
5.0
 40
5.0
 40
6.0
 40
6.0
 40
6.0
 40
7.0
 40
7.0
 40
7.0
 40
8.0
 40
8.0
 40
8.0
 40
9.0
 40
9.0
 40
9.0
 40
10.0
 40
10.0
 40
10.0
 40
11.0
 40
11.0
 40
11.0
 40
12.0
 40
12.0
 40
12.0
 40
13.0
 40
13.0
 40
13.0
 40
14.0
 40
14.0
 40
14.0
 40
15.0
 40
15.0
 40
15.0
 40
16.0
 40
16.0
 40
16.0
 40
17.0
 40
17.0
 40
17.0
 40
18.0
 40
18.0
 40
18.0
 40
18.0
 10
73.66285941083775
 20
-113.5792859959107
 30
0.0
 10
73.66285941083775
 20
-113.5792859959107
 30
0.0
 10
74.08247204094118
 20
-113.528298582729
 30
0.0
 10
74.08247204094118
 20
-113.528298582729
 30
0.0
 10
74.1095160405004
 20
-113.5253702515666
 30
0.0
 10
74.14551728832126
 20
-113.5193413344674
 30
0.0
 10
74.14551728832126
 20
-113.5553425822882
 30
0.0
 10
74.14551728832126
 20
-113.5792859959107
 30
0.0
 10
74.12157387469878
 20
-113.597200492434
 30
0.0
 10
74.10055879223876
 20
-113.6121866577949
 30
0.0
 10
74.10055879223876
 20
-113.6121866577949
 30
0.0
 10
74.18754745324131
 20
-114.0469577080334
 30
0.0
 10
74.18754745324131
 20
-114.0469577080334
 30
0.0
 10
74.18754745324131
 20
-114.0469577080334
 30
0.0
 10
74.91015623127247
 20
-113.9000243855875
 30
0.0
 10
74.91015623127247
 20
-113.9000243855875
 30
0.0
 10
74.95804305851743
 20
-113.8910671373258
 30
0.0
 10
75.0119588028616
 20
-113.8610948066042
 30
0.0
 10
75.04796005068246
 20
-113.8190646416841
 30
0.0
 10
75.04796005068246
 20
-113.8190646416841
 30
0.0
 10
75.3388983644118
 20
-114.0380004597718
 30
0.0
 10
75.3388983644118
 20
-114.0380004597718
 30
0.0
 10
75.21298012442593
 20
-114.1909626993168
 30
0.0
 10
75.04503171952
 20
-114.4967149236328
 30
0.0
 10
74.83505314969402
 20
-114.8775702295271
 30
0.0
 10
74.71223549564486
 20
-114.7995388167862
 30
0.0
 10
74.49932859465642
 20
-114.7096218246212
 30
0.0
 10
74.44231226437553
 20
-114.6886067421612
 30
0.0
 10
74.55324433900059
 20
-114.5358167573904
 30
0.0
 10
74.58631725565898
 20
-114.4906860065336
 30
0.0
 10
74.66124808246316
 20
-114.3468532700244
 30
0.0
 10
74.66124808246316
 20
-114.3468532700244
 30
0.0
 10
74.2624782800455
 20
-114.4367702621894
 30
0.0
 10
74.2624782800455
 20
-114.4367702621894
 30
0.0
 10
74.2624782800455
 20
-114.4367702621894
 30
0.0
 10
74.49037134639477
 20
-115.5970784216216
 30
0.0
 10
74.49037134639477
 20
-115.5970784216216
 30
0.0
 10
74.49037134639477
 20
-115.5970784216216
 30
0.0
 10
74.08247204094118
 20
-115.6930243308858
 30
0.0
 10
74.08247204094118
 20
-115.6930243308858
 30
0.0
 10
74.08247204094118
 20
-115.6930243308858
 30
0.0
 10
73.85165064342945
 20
-114.5297878402912
 30
0.0
 10
73.85165064342945
 20
-114.5297878402912
 30
0.0
 10
73.85165064342945
 20
-114.5297878402912
 30
0.0
 10
73.24910344305925
 20
-114.6646633285387
 30
0.0
 10
73.24910344305925
 20
-114.6646633285387
 30
0.0
 10
73.24910344305925
 20
-114.6646633285387
 30
0.0
 10
73.13507078249748
 20
-114.2569362778594
 30
0.0
 10
73.13507078249748
 20
-114.2569362778594
 30
0.0
 10
73.13507078249748
 20
-114.2569362778594
 30
0.0
 10
73.77379148546281
 20
-114.1279174519368
 30
0.0
 10
73.77379148546281
 20
-114.1279174519368
 30
0.0
 10
73.77379148546281
 20
-114.1279174519368
 30
0.0
 10
73.66285941083775
 20
-113.5792859959107
 30
0.0
 10
73.66285941083775
 20
-113.5792859959107
 30
0.0
  0
HATCH
  5
48
330
41
100
AcDbEntity
  8
_U+30EC_U+30A4_U+30E4_U+30FC 1
 62
   179
420
  2234388
100
AcDbHatch
 10
0.0
 20
0.0
 30
0.0
210
0.0
220
0.0
230
1.0
  2
SOLID
 70
     1
 71
     0
 91
        1
 92
        1
 93
        1
 72
     4
 94
        3
 73
     0
 74
     1
 95
       59
 96
       55
 40
0.0
 40
0.0
 40
0.0
 40
0.0
 40
1.0
 40
1.0
 40
1.0
 40
2.0
 40
2.0
 40
2.0
 40
3.0
 40
3.0
 40
3.0
 40
4.0
 40
4.0
 40
4.0
 40
5.0
 40
5.0
 40
5.0
 40
6.0
 40
6.0
 40
6.0
 40
7.0
 40
7.0
 40
7.0
 40
8.0
 40
8.0
 40
8.0
 40
9.0
 40
9.0
 40
9.0
 40
10.0
 40
10.0
 40
10.0
 40
11.0
 40
11.0
 40
11.0
 40
12.0
 40
12.0
 40
12.0
 40
13.0
 40
13.0
 40
13.0
 40
14.0
 40
14.0
 40
14.0
 40
15.0
 40
15.0
 40
15.0
 40
16.0
 40
16.0
 40
16.0
 40
17.0
 40
17.0
 40
17.0
 40
18.0
 40
18.0
 40
18.0
 40
18.0
 10
73.66285941083775
 20
-113.5792859959107
 10
73.66285941083775
 20
-113.5792859959107
 10
74.08247204094118
 20
-113.528298582729
 10
74.08247204094118
 20
-113.528298582729
 10
74.1095160405004
 20
-113.5253702515666
 10
74.14551728832126
 20
-113.5193413344674
 10
74.14551728832126
 20
-113.5553425822882
 10
74.14551728832126
 20
-113.5792859959107
 10
74.12157387469878
 20
-113.597200492434
 10
74.10055879223876
 20
-113.6121866577949
 10
74.10055879223876
 20
-113.6121866577949
 10
74.18754745324131
 20
-114.0469577080334
 10
74.18754745324131
 20
-114.0469577080334
 10
74.18754745324131
 20
-114.0469577080334
 10
74.91015623127247
 20
-113.9000243855875
 10
74.91015623127247
 20
-113.9000243855875
 10
74.95804305851743
 20
-113.8910671373258
 10
75.0119588028616
 20
-113.8610948066042
 10
75.04796005068246
 20
-113.8190646416841
 10
75.04796005068246
 20
-113.8190646416841
 10
75.3388983644118
 20
-114.0380004597718
 10
75.3388983644118
 20
-114.0380004597718
 10
75.21298012442593
 20
-114.1909626993168
 10
75.04503171952
 20
-114.4967149236328
 10
74.83505314969402
 20
-114.8775702295271
 10
74.71223549564486
 20
-114.7995388167862
 10
74.49932859465642
 20
-114.7096218246212
 10
74.44231226437553
 20
-114.6886067421612
 10
74.55324433900059
 20
-114.5358167573904
 10
74.58631725565898
 20
-114.4906860065336
 10
74.66124808246316
 20
-114.3468532700244
 10
74.66124808246316
 20
-114.3468532700244
 10
74.2624782800455
 20
-114.4367702621894
 10
74.2624782800455
 20
-114.4367702621894
 10
74.2624782800455
 20
-114.4367702621894
 10
74.49037134639477
 20
-115.5970784216216
 10
74.49037134639477
 20
-115.5970784216216
 10
74.49037134639477
 20
-115.5970784216216
 10
74.08247204094118
 20
-115.6930243308858
 10
74.08247204094118
 20
-115.6930243308858
 10
74.08247204094118
 20
-115.6930243308858
 10
73.85165064342945
 20
-114.5297878402912
 10
73.85165064342945
 20
-114.5297878402912
 10
73.85165064342945
 20
-114.5297878402912
 10
73.24910344305925
 20
-114.6646633285387
 10
73.24910344305925
 20
-114.6646633285387
 10
73.24910344305925
 20
-114.6646633285387
 10
73.13507078249748
 20
-114.2569362778594
 10
73.13507078249748
 20
-114.2569362778594
 10
73.13507078249748
 20
-114.2569362778594
 10
73.77379148546281
 20
-114.1279174519368
 10
73.77379148546281
 20
-114.1279174519368
 10
73.77379148546281
 20
-114.1279174519368
 10
73.66285941083775
 20
-113.5792859959107
 10
73.66285941083775
 20
-113.5792859959107
 97
        0
 97
        0
 75
     2
 76
     1
 98
        0
  0
SPLINE
  5
49
330
41
100
AcDbEntity
  8
_U+30EC_U+30A4_U+30E4_U+30FC 1
370
     0
100
AcDbSpline
210
0.0
220
0.0
230
1.0
 70
    11
 71
     3
 72
    17
 73
    13
 74
     0
 42
0.0000000001
 43
0.0000000001
 12
1.0
 22
0.0
 32
0.0
 13
1.0
 23
0.0
 33
0.0
 40
0.0
 40
0.0
 40
0.0
 40
0.0
 40
1.0
 40
1.0
 40
1.0
 40
2.0
 40
2.0
 40
2.0
 40
3.0
 40
3.0
 40
3.0
 40
4.0
 40
4.0
 40
4.0
 40
4.0
 10
76.31506617015735
 20
-113.7501627319791
 30
0.0
 10
76.40791149348483
 20
-113.9000243855875
 30
0.0
 10
76.53400198824498
 20
-114.1609903685952
 30
0.0
 10
76.5908460637516
 20
-114.2987941880052
 30
0.0
 10
76.51591523694741
 20
-114.3258381875644
 30
0.0
 10
76.34503850087903
 20
-114.3947400972694
 30
0.0
 10
76.2101630126315
 20
-114.4848293442087
 30
0.0
 10
76.12920326872812
 20
-114.2898369397435
 30
0.0
 10
76.02722844236473
 20
-114.0950167900526
 30
0.0
 10
75.92835420193805
 20
-113.9120822197859
 30
0.0
 10
75.92835420193805
 20
-113.9120822197859
 30
0.0
 10
76.31506617015735
 20
-113.7501627319791
 30
0.0
 10
76.31506617015735
 20
-113.7501627319791
 30
0.0
  0
SPLINE
  5
4A
330
41
100
AcDbEntity
  8
_U+30EC_U+30A4_U+30E4_U+30FC 1
370
     0
100
AcDbSpline
210
0.0
220
0.0
230
1.0
 70
    11
 71
     3
 72
    23
 73
    19
 74
     0
 42
0.0000000001
 43
0.0000000001
 12
1.0
 22
0.0
 32
0.0
 13
1.0
 23
0.0
 33
0.0
 40
0.0
 40
0.0
 40
0.0
 40
0.0
 40
1.0
 40
1.0
 40
1.0
 40
2.0
 40
2.0
 40
2.0
 40
3.0
 40
3.0
 40
3.0
 40
4.0
 40
4.0
 40
4.0
 40
5.0
 40
5.0
 40
5.0
 40
6.0
 40
6.0
 40
6.0
 40
6.0
 10
78.01212020619141
 20
-113.7982218139984
 30
0.0
 10
78.04502086807555
 20
-113.80717906226
 30
0.0
 10
78.0691365364723
 20
-113.8161363105217
 30
0.0
 10
78.0691365364723
 20
-113.8431803100809
 30
0.0
 10
78.0691365364723
 20
-113.8731526408025
 30
0.0
 10
78.02710637155225
 20
-113.876080971965
 30
0.0
 10
78.01212020619141
 20
-113.876080971965
 30
0.0
 10
77.76028372621965
 20
-114.940443222133
 30
0.0
 10
77.2774535939619
 20
-115.3602281070106
 30
0.0
 10
76.58188881548995
 20
-115.6601236690016
 30
0.0
 10
76.54588756766908
 20
-115.5970784216216
 30
0.0
 10
76.45597057550407
 20
-115.4501450991757
 30
0.0
 10
76.29697941885979
 20
-115.3212985280273
 30
0.0
 10
77.06454669297345
 20
-115.024503551973
 30
0.0
 10
77.44833033003029
 20
-114.6166042465195
 30
0.0
 10
77.57734915595289
 20
-113.6631740709766
 30
0.0
 10
77.57734915595289
 20
-113.6631740709766
 30
0.0
 10
78.01212020619141
 20
-113.7982218139984
 30
0.0
 10
78.01212020619141
 20
-113.7982218139984
 30
0.0
  0
SPLINE
  5
4B
330
41
100
AcDbEntity
  8
_U+30EC_U+30A4_U+30E4_U+30FC 1
370
     0
100
AcDbSpline
210
0.0
220
0.0
230
1.0
 70
    11
 71
     3
 72
    17
 73
    13
 74
     0
 42
0.0000000001
 43
0.0000000001
 12
1.0
 22
0.0
 32
0.0
 13
1.0
 23
0.0
 33
0.0
 40
0.0
 40
0.0
 40
0.0
 40
0.0
 40
1.0
 40
1.0
 40
1.0
 40
2.0
 40
2.0
 40
2.0
 40
3.0
 40
3.0
 40
3.0
 40
4.0
 40
4.0
 40
4.0
 40
4.0
 10
76.92674287356346
 20
-113.6121866577949
 30
0.0
 10
77.02871769992686
 20
-113.7801350627008
 30
0.0
 10
77.10054794079431
 20
-113.9330973022459
 30
0.0
 10
77.17255043643603
 20
-114.175976533956
 30
0.0
 10
76.95361461834841
 20
-114.2569362778594
 30
0.0
 10
76.88178437748094
 20
-114.2869086085811
 30
0.0
 10
76.79479571647839
 20
-114.3318671046636
 30
0.0
 10
76.7377793861975
 20
-114.1789048651185
 30
0.0
 10
76.61496173214834
 20
-113.9120822197859
 30
0.0
 10
76.53400198824498
 20
-113.7711778144392
 30
0.0
 10
76.53400198824498
 20
-113.7711778144392
 30
0.0
 10
76.92674287356346
 20
-113.6121866577949
 30
0.0
 10
76.92674287356346
 20
-113.6121866577949
 30
0.0
  0
HATCH
  5
4C
330
41
100
AcDbEntity
  8
_U+30EC_U+30A4_U+30E4_U+30FC 1
 62
   179
420
  2234388
100
AcDbHatch
 10
0.0
 20
0.0
 30
0.0
210
0.0
220
0.0
230
1.0
  2
SOLID
 70
     1
 71
     0
 91
        3
 92
        1
 93
        1
 72
     4
 94
        3
 73
     0
 74
     1
 95
       17
 96
       13
 40
0.0
 40
0.0
 40
0.0
 40
0.0
 40
1.0
 40
1.0
 40
1.0
 40
2.0
 40
2.0
 40
2.0
 40
3.0
 40
3.0
 40
3.0
 40
4.0
 40
4.0
 40
4.0
 40
4.0
 10
76.31506617015735
 20
-113.7501627319791
 10
76.40791149348483
 20
-113.9000243855875
 10
76.53400198824498
 20
-114.1609903685952
 10
76.5908460637516
 20
-114.2987941880052
 10
76.51591523694741
 20
-114.3258381875644
 10
76.34503850087903
 20
-114.3947400972694
 10
76.2101630126315
 20
-114.4848293442087
 10
76.12920326872812
 20
-114.2898369397435
 10
76.02722844236473
 20
-114.0950167900526
 10
75.92835420193805
 20
-113.9120822197859
 10
75.92835420193805
 20
-113.9120822197859
 10
76.31506617015735
 20
-113.7501627319791
 10
76.31506617015735
 20
-113.7501627319791
 97
        0
 97
        0
 92
        1
 93
        1
 72
     4
 94
        3
 73
     0
 74
     1
 95
       23
 96
       19
 40
0.0
 40
0.0
 40
0.0
 40
0.0
 40
1.0
 40
1.0
 40
1.0
 40
2.0
 40
2.0
 40
2.0
 40
3.0
 40
3.0
 40
3.0
 40
4.0
 40
4.0
 40
4.0
 40
5.0
 40
5.0
 40
5.0
 40
6.0
 40
6.0
 40
6.0
 40
6.0
 10
78.01212020619141
 20
-113.7982218139984
 10
78.04502086807555
 20
-113.80717906226
 10
78.0691365364723
 20
-113.8161363105217
 10
78.0691365364723
 20
-113.8431803100809
 10
78.0691365364723
 20
-113.8731526408025
 10
78.02710637155225
 20
-113.876080971965
 10
78.01212020619141
 20
-113.876080971965
 10
77.76028372621965
 20
-114.940443222133
 10
77.2774535939619
 20
-115.3602281070106
 10
76.58188881548995
 20
-115.6601236690016
 10
76.54588756766908
 20
-115.5970784216216
 10
76.45597057550407
 20
-115.4501450991757
 10
76.29697941885979
 20
-115.3212985280273
 10
77.06454669297345
 20
-115.024503551973
 10
77.44833033003029
 20
-114.6166042465195
 10
77.57734915595289
 20
-113.6631740709766
 10
77.57734915595289
 20
-113.6631740709766
 10
78.01212020619141
 20
-113.7982218139984
 10
78.01212020619141
 20
-113.7982218139984
 97
        0
 97
        0
 92
        1
 93
        1
 72
     4
 94
        3
 73
     0
 74
     1
 95
       17
 96
       13
 40
0.0
 40
0.0
 40
0.0
 40
0.0
 40
1.0
 40
1.0
 40
1.0
 40
2.0
 40
2.0
 40
2.0
 40
3.0
 40
3.0
 40
3.0
 40
4.0
 40
4.0
 40
4.0
 40
4.0
 10
76.92674287356346
 20
-113.6121866577949
 10
77.02871769992686
 20
-113.7801350627008
 10
77.10054794079431
 20
-113.9330973022459
 10
77.17255043643603
 20
-114.175976533956
 10
76.95361461834841
 20
-114.2569362778594
 10
76.88178437748094
 20
-114.2869086085811
 10
76.79479571647839
 20
-114.3318671046636
 10
76.7377793861975
 20
-114.1789048651185
 10
76.61496173214834
 20
-113.9120822197859
 10
76.53400198824498
 20
-113.7711778144392
 10
76.53400198824498
 20
-113.7711778144392
 10
76.92674287356346
 20
-113.6121866577949
 10
76.92674287356346
 20
-113.6121866577949
 97
        0
 97
        0
 75
     2
 76
     1
 98
        0
  0
SPLINE
  5
4D
330
41
100
AcDbEntity
  8
_U+30EC_U+30A4_U+30E4_U+30FC 1
370
     0
100
AcDbSpline
210
0.0
220
0.0
230
1.0
 70
    11
 71
     3
 72
    38
 73
    34
 74
     0
 42
0.0000000001
 43
0.0000000001
 12
1.0
 22
0.0
 32
0.0
 13
1.0
 23
0.0
 33
0.0
 40
0.0
 40
0.0
 40
0.0
 40
0.0
 40
1.0
 40
1.0
 40
1.0
 40
2.0
 40
2.0
 40
2.0
 40
3.0
 40
3.0
 40
3.0
 40
4.0
 40
4.0
 40
4.0
 40
5.0
 40
5.0
 40
5.0
 40
6.0
 40
6.0
 40
6.0
 40
7.0
 40
7.0
 40
7.0
 40
8.0
 40
8.0
 40
8.0
 40
9.0
 40
9.0
 40
9.0
 40
10.0
 40
10.0
 40
10.0
 40
11.0
 40
11.0
 40
11.0
 40
11.0
 10
80.57561575676583
 20
-113.3873941773823
 30
0.0
 10
80.66846108009331
 20
-113.3873941773823
 30
0.0
 10
80.68947616255333
 20
-113.369479680859
 30
0.0
 10
80.719448493275
 20
-113.3453640124623
 30
0.0
 10
80.719448493275
 20
-113.3453640124623
 30
0.0
 10
81.02537297236519
 20
-113.5613714993874
 30
0.0
 10
81.02537297236519
 20
-113.5613714993874
 30
0.0
 10
80.94131264252509
 20
-113.6872897393733
 30
0.0
 10
80.9173692289026
 20
-113.7472344008167
 30
0.0
 10
80.83348115383677
 20
-113.9601413018051
 30
0.0
 10
80.5995591703883
 20
-114.5626885021753
 30
0.0
 10
80.41972518605827
 20
-114.9046142290863
 30
0.0
 10
80.0838283762464
 20
-115.1983086192039
 30
0.0
 10
80.01785479770388
 20
-115.2553249494848
 30
0.0
 10
79.67300073963037
 20
-115.5521199255391
 30
0.0
 10
79.26837427488778
 20
-115.7260972475442
 30
0.0
 10
79.16932777968684
 20
-115.5491915943766
 30
0.0
 10
79.0583957050618
 20
-115.4382595197516
 30
0.0
 10
78.92644854797672
 20
-115.330255776289
 30
0.0
 10
79.38223468067528
 20
-115.162307371383
 30
0.0
 10
79.72708873874879
 20
-114.8894558089513
 30
0.0
 10
79.8740220611947
 20
-114.7306369070812
 30
0.0
 10
80.0388698801639
 20
-114.5508029227512
 30
0.0
 10
80.26969127767563
 20
-114.1820054510552
 30
0.0
 10
80.3566799386782
 20
-113.8190646416841
 30
0.0
 10
80.3566799386782
 20
-113.8190646416841
 30
0.0
 10
78.61759573772407
 20
-113.8190646416841
 30
0.0
 10
78.61759573772407
 20
-113.8190646416841
 30
0.0
 10
78.61759573772407
 20
-113.8190646416841
 30
0.0
 10
78.61759573772407
 20
-113.3873941773823
 30
0.0
 10
78.61759573772407
 20
-113.3873941773823
 30
0.0
 10
78.61759573772407
 20
-113.3873941773823
 30
0.0
 10
80.57561575676583
 20
-113.3873941773823
 30
0.0
 10
80.57561575676583
 20
-113.3873941773823
 30
0.0
  0
SPLINE
  5
4E
330
41
100
AcDbEntity
  8
_U+30EC_U+30A4_U+30E4_U+30FC 1
370
     0
100
AcDbSpline
210
0.0
220
0.0
230
1.0
 70
    11
 71
     3
 72
    17
 73
    13
 74
     0
 42
0.0000000001
 43
0.0000000001
 12
1.0
 22
0.0
 32
0.0
 13
1.0
 23
0.0
 33
0.0
 40
0.0
 40
0.0
 40
0.0
 40
0.0
 40
1.0
 40
1.0
 40
1.0
 40
2.0
 40
2.0
 40
2.0
 40
3.0
 40
3.0
 40
3.0
 40
4.0
 40
4.0
 40
4.0
 40
4.0
 10
81.3371541137803
 20
-113.1834445246555
 30
0.0
 10
81.3371541137803
 20
-113.3393350953631
 30
0.0
 10
81.21123587379442
 20
-113.465253335349
 30
0.0
 10
81.05534530308687
 20
-113.465253335349
 30
0.0
 10
80.89928247760504
 20
-113.465253335349
 30
0.0
 10
80.77336423761916
 20
-113.3393350953631
 30
0.0
 10
80.77336423761916
 20
-113.1834445246555
 30
0.0
 10
80.77336423761916
 20
-113.0246256227855
 30
0.0
 10
80.89928247760504
 20
-112.9016357139621
 30
0.0
 10
81.05534530308687
 20
-112.9016357139621
 30
0.0
 10
81.20813528785769
 20
-112.9016357139621
 30
0.0
 10
81.3371541137803
 20
-113.0246256227855
 30
0.0
 10
81.3371541137803
 20
-113.1834445246555
 30
0.0
  0
SPLINE
  5
4F
330
41
100
AcDbEntity
  8
_U+30EC_U+30A4_U+30E4_U+30FC 1
370
     0
100
AcDbSpline
210
0.0
220
0.0
230
1.0
 70
    11
 71
     3
 72
    17
 73
    13
 74
     0
 42
0.0000000001
 43
0.0000000001
 12
1.0
 22
0.0
 32
0.0
 13
1.0
 23
0.0
 33
0.0
 40
0.0
 40
0.0
 40
0.0
 40
0.0
 40
1.0
 40
1.0
 40
1.0
 40
2.0
 40
2.0
 40
2.0
 40
3.0
 40
3.0
 40
3.0
 40
4.0
 40
4.0
 40
4.0
 40
4.0
 10
80.92339814600179
 20
-113.1834445246555
 30
0.0
 10
80.92339814600179
 20
-113.2554470202973
 30
0.0
 10
80.98024222150842
 20
-113.3153916817406
 30
0.0
 10
81.05534530308687
 20
-113.3153916817406
 30
0.0
 10
81.12717554395432
 20
-113.3153916817406
 30
0.0
 10
81.18729246017193
 20
-113.2554470202973
 30
0.0
 10
81.18729246017193
 20
-113.1834445246555
 30
0.0
 10
81.18729246017193
 20
-113.1085136978514
 30
0.0
 10
81.12717554395432
 20
-113.0514973675705
 30
0.0
 10
81.05534530308687
 20
-113.0514973675705
 30
0.0
 10
80.98334280744514
 20
-113.0514973675705
 30
0.0
 10
80.92339814600179
 20
-113.1085136978514
 30
0.0
 10
80.92339814600179
 20
-113.1834445246555
 30
0.0
  0
HATCH
  5
50
330
41
100
AcDbEntity
  8
_U+30EC_U+30A4_U+30E4_U+30FC 1
 62
   179
420
  2234388
100
AcDbHatch
 10
0.0
 20
0.0
 30
0.0
210
0.0
220
0.0
230
1.0
  2
SOLID
 70
     1
 71
     0
 91
        3
 92
        1
 93
        1
 72
     4
 94
        3
 73
     0
 74
     1
 95
       38
 96
       34
 40
0.0
 40
0.0
 40
0.0
 40
0.0
 40
1.0
 40
1.0
 40
1.0
 40
2.0
 40
2.0
 40
2.0
 40
3.0
 40
3.0
 40
3.0
 40
4.0
 40
4.0
 40
4.0
 40
5.0
 40
5.0
 40
5.0
 40
6.0
 40
6.0
 40
6.0
 40
7.0
 40
7.0
 40
7.0
 40
8.0
 40
8.0
 40
8.0
 40
9.0
 40
9.0
 40
9.0
 40
10.0
 40
10.0
 40
10.0
 40
11.0
 40
11.0
 40
11.0
 40
11.0
 10
80.57561575676583
 20
-113.3873941773823
 10
80.66846108009331
 20
-113.3873941773823
 10
80.68947616255333
 20
-113.369479680859
 10
80.719448493275
 20
-113.3453640124623
 10
80.719448493275
 20
-113.3453640124623
 10
81.02537297236519
 20
-113.5613714993874
 10
81.02537297236519
 20
-113.5613714993874
 10
80.94131264252509
 20
-113.6872897393733
 10
80.9173692289026
 20
-113.7472344008167
 10
80.83348115383677
 20
-113.9601413018051
 10
80.5995591703883
 20
-114.5626885021753
 10
80.41972518605827
 20
-114.9046142290863
 10
80.0838283762464
 20
-115.1983086192039
 10
80.01785479770388
 20
-115.2553249494848
 10
79.67300073963037
 20
-115.5521199255391
 10
79.26837427488778
 20
-115.7260972475442
 10
79.16932777968684
 20
-115.5491915943766
 10
79.0583957050618
 20
-115.4382595197516
 10
78.92644854797672
 20
-115.330255776289
 10
79.38223468067528
 20
-115.162307371383
 10
79.72708873874879
 20
-114.8894558089513
 10
79.8740220611947
 20
-114.7306369070812
 10
80.0388698801639
 20
-114.5508029227512
 10
80.26969127767563
 20
-114.1820054510552
 10
80.3566799386782
 20
-113.8190646416841
 10
80.3566799386782
 20
-113.8190646416841
 10
78.61759573772407
 20
-113.8190646416841
 10
78.61759573772407
 20
-113.8190646416841
 10
78.61759573772407
 20
-113.8190646416841
 10
78.61759573772407
 20
-113.3873941773823
 10
78.61759573772407
 20
-113.3873941773823
 10
78.61759573772407
 20
-113.3873941773823
 10
80.57561575676583
 20
-113.3873941773823
 10
80.57561575676583
 20
-113.3873941773823
 97
        0
 97
        0
 92
        1
 93
        1
 72
     4
 94
        3
 73
     0
 74
     1
 95
       17
 96
       13
 40
0.0
 40
0.0
 40
0.0
 40
0.0
 40
1.0
 40
1.0
 40
1.0
 40
2.0
 40
2.0
 40
2.0
 40
3.0
 40
3.0
 40
3.0
 40
4.0
 40
4.0
 40
4.0
 40
4.0
 10
81.3371541137803
 20
-113.1834445246555
 10
81.3371541137803
 20
-113.3393350953631
 10
81.21123587379442
 20
-113.465253335349
 10
81.05534530308687
 20
-113.465253335349
 10
80.89928247760504
 20
-113.465253335349
 10
80.77336423761916
 20
-113.3393350953631
 10
80.77336423761916
 20
-113.1834445246555
 10
80.77336423761916
 20
-113.0246256227855
 10
80.89928247760504
 20
-112.9016357139621
 10
81.05534530308687
 20
-112.9016357139621
 10
81.20813528785769
 20
-112.9016357139621
 10
81.3371541137803
 20
-113.0246256227855
 10
81.3371541137803
 20
-113.1834445246555
 97
        0
 97
        0
 92
        1
 93
        1
 72
     4
 94
        3
 73
     0
 74
     1
 95
       17
 96
       13
 40
0.0
 40
0.0
 40
0.0
 40
0.0
 40
1.0
 40
1.0
 40
1.0
 40
2.0
 40
2.0
 40
2.0
 40
3.0
 40
3.0
 40
3.0
 40
4.0
 40
4.0
 40
4.0
 40
4.0
 10
80.92339814600179
 20
-113.1834445246555
 10
80.92339814600179
 20
-113.2554470202973
 10
80.98024222150842
 20
-113.3153916817406
 10
81.05534530308687
 20
-113.3153916817406
 10
81.12717554395432
 20
-113.3153916817406
 10
81.18729246017193
 20
-113.2554470202973
 10
81.18729246017193
 20
-113.1834445246555
 10
81.18729246017193
 20
-113.1085136978514
 10
81.12717554395432
 20
-113.0514973675705
 10
81.05534530308687
 20
-113.0514973675705
 10
80.98334280744514
 20
-113.0514973675705
 10
80.92339814600179
 20
-113.1085136978514
 10
80.92339814600179
 20
-113.1834445246555
 97
        0
 97
        0
 75
     2
 76
     1
 98
        0
  0
SPLINE
  5
51
330
41
100
AcDbEntity
  8
_U+30EC_U+30A4_U+30E4_U+30FC 1
370
     0
100
AcDbSpline
210
0.0
220
0.0
230
1.0
 70
    11
 71
     3
 72
    23
 73
    19
 74
     0
 42
0.0000000001
 43
0.0000000001
 12
1.0
 22
0.0
 32
0.0
 13
1.0
 23
0.0
 33
0.0
 40
0.0
 40
0.0
 40
0.0
 40
0.0
 40
1.0
 40
1.0
 40
1.0
 40
2.0
 40
2.0
 40
2.0
 40
3.0
 40
3.0
 40
3.0
 40
4.0
 40
4.0
 40
4.0
 40
5.0
 40
5.0
 40
5.0
 40
6.0
 40
6.0
 40
6.0
 40
6.0
 10
83.96093883534658
 20
-114.0224975300881
 30
0.0
 10
83.89703231409518
 20
-114.4333251667042
 30
0.0
 10
83.68567570607512
 20
-114.6426147174331
 30
0.0
 10
83.31946205599306
 20
-114.8112521414361
 30
0.0
 10
83.31946205599306
 20
-114.8112521414361
 30
0.0
 10
83.25159367493363
 20
-114.7065212386845
 30
0.0
 10
83.25159367493363
 20
-114.7065212386845
 30
0.0
 10
83.64502357934917
 20
-114.5592434066901
 30
0.0
 10
83.76319035449323
 20
-114.3363457287944
 30
0.0
 10
83.81176620083525
 20
-114.1348076429073
 30
0.0
 10
83.81176620083525
 20
-114.1348076429073
 30
0.0
 10
82.33502602108291
 20
-114.1348076429073
 30
0.0
 10
82.33502602108291
 20
-114.1348076429073
 30
0.0
 10
82.33502602108291
 20
-114.1348076429073
 30
0.0
 10
82.33502602108291
 20
-114.0224975300881
 30
0.0
 10
82.33502602108291
 20
-114.0224975300881
 30
0.0
 10
82.33502602108291
 20
-114.0224975300881
 30
0.0
 10
83.96093883534658
 20
-114.0224975300881
 30
0.0
 10
83.96093883534658
 20
-114.0224975300881
 30
0.0
  0
SPLINE
  5
52
330
41
100
AcDbEntity
  8
_U+30EC_U+30A4_U+30E4_U+30FC 1
370
     0
100
AcDbSpline
210
0.0
220
0.0
230
1.0
 70
    11
 71
     3
 72
    17
 73
    13
 74
     0
 42
0.0000000001
 43
0.0000000001
 12
1.0
 22
0.0
 32
0.0
 13
1.0
 23
0.0
 33
0.0
 40
0.0
 40
0.0
 40
0.0
 40
0.0
 40
1.0
 40
1.0
 40
1.0
 40
2.0
 40
2.0
 40
2.0
 40
3.0
 40
3.0
 40
3.0
 40
4.0
 40
4.0
 40
4.0
 40
4.0
 10
82.38549666994183
 20
-115.5049221173911
 30
0.0
 10
82.97254094062839
 20
-115.2355156504446
 30
0.0
 10
83.00750865980368
 20
-114.7995388167862
 30
0.0
 10
83.00750865980368
 20
-114.3537434609949
 30
0.0
 10
83.00750865980368
 20
-114.3537434609949
 30
0.0
 10
83.1296372947558
 20
-114.3537434609949
 30
0.0
 10
83.1296372947558
 20
-114.3537434609949
 30
0.0
 10
83.12567543494775
 20
-114.7452785628935
 30
0.0
 10
83.11999102739709
 20
-115.2820244394955
 30
0.0
 10
82.46680092339372
 20
-115.6056911603347
 30
0.0
 10
82.46680092339372
 20
-115.6056911603347
 30
0.0
 10
82.38549666994183
 20
-115.5049221173911
 30
0.0
 10
82.38549666994183
 20
-115.5049221173911
 30
0.0
  0
HATCH
  5
53
330
41
100
AcDbEntity
  8
_U+30EC_U+30A4_U+30E4_U+30FC 1
 62
   179
420
  2234388
100
AcDbHatch
 10
0.0
 20
0.0
 30
0.0
210
0.0
220
0.0
230
1.0
  2
SOLID
 70
     1
 71
     0
 91
        2
 92
        1
 93
        1
 72
     4
 94
        3
 73
     0
 74
     1
 95
       23
 96
       19
 40
0.0
 40
0.0
 40
0.0
 40
0.0
 40
1.0
 40
1.0
 40
1.0
 40
2.0
 40
2.0
 40
2.0
 40
3.0
 40
3.0
 40
3.0
 40
4.0
 40
4.0
 40
4.0
 40
5.0
 40
5.0
 40
5.0
 40
6.0
 40
6.0
 40
6.0
 40
6.0
 10
83.96093883534658
 20
-114.0224975300881
 10
83.89703231409518
 20
-114.4333251667042
 10
83.68567570607512
 20
-114.6426147174331
 10
83.31946205599306
 20
-114.8112521414361
 10
83.31946205599306
 20
-114.8112521414361
 10
83.25159367493363
 20
-114.7065212386845
 10
83.25159367493363
 20
-114.7065212386845
 10
83.64502357934917
 20
-114.5592434066901
 10
83.76319035449323
 20
-114.3363457287944
 10
83.81176620083525
 20
-114.1348076429073
 10
83.81176620083525
 20
-114.1348076429073
 10
82.33502602108291
 20
-114.1348076429073
 10
82.33502602108291
 20
-114.1348076429073
 10
82.33502602108291
 20
-114.1348076429073
 10
82.33502602108291
 20
-114.0224975300881
 10
82.33502602108291
 20
-114.0224975300881
 10
82.33502602108291
 20
-114.0224975300881
 10
83.96093883534658
 20
-114.0224975300881
 10
83.96093883534658
 20
-114.0224975300881
 97
        0
 97
        0
 92
        1
 93
        1
 72
     4
 94
        3
 73
     0
 74
     1
 95
       17
 96
       13
 40
0.0
 40
0.0
 40
0.0
 40
0.0
 40
1.0
 40
1.0
 40
1.0
 40
2.0
 40
2.0
 40
2.0
 40
3.0
 40
3.0
 40
3.0
 40
4.0
 40
4.0
 40
4.0
 40
4.0
 10
82.38549666994183
 20
-115.5049221173911
 10
82.97254094062839
 20
-115.2355156504446
 10
83.00750865980368
 20
-114.7995388167862
 10
83.00750865980368
 20
-114.3537434609949
 10
83.00750865980368
 20
-114.3537434609949
 10
83.1296372947558
 20
-114.3537434609949
 10
83.1296372947558
 20
-114.3537434609949
 10
83.12567543494775
 20
-114.7452785628935
 10
83.11999102739709
 20
-115.2820244394955
 10
82.46680092339372
 20
-115.6056911603347
 10
82.46680092339372
 20
-115.6056911603347
 10
82.38549666994183
 20
-115.5049221173911
 10
82.38549666994183
 20
-115.5049221173911
 97
        0
 97
        0
 75
     2
 76
     1
 98
        0
  0
SPLINE
  5
54
330
41
100
AcDbEntity
  8
_U+30EC_U+30A4_U+30E4_U+30FC 1
370
     0
100
AcDbSpline
210
0.0
220
0.0
230
1.0
 70
    11
 71
     3
 72
    23
 73
    19
 74
     0
 42
0.0000000001
 43
0.0000000001
 12
1.0
 22
0.0
 32
0.0
 13
1.0
 23
0.0
 33
0.0
 40
0.0
 40
0.0
 40
0.0
 40
0.0
 40
1.0
 40
1.0
 40
1.0
 40
2.0
 40
2.0
 40
2.0
 40
3.0
 40
3.0
 40
3.0
 40
4.0
 40
4.0
 40
4.0
 40
5.0
 40
5.0
 40
5.0
 40
6.0
 40
6.0
 40
6.0
 40
6.0
 10
84.62411971625717
 20
-114.5263427448059
 30
0.0
 10
84.62411971625717
 20
-114.9294189165801
 30
0.0
 10
84.5660698573307
 20
-115.2878811018204
 30
0.0
 10
84.22690020680787
 20
-115.6230888925352
 30
0.0
 10
84.22690020680787
 20
-115.6230888925352
 30
0.0
 10
84.14352889606482
 20
-115.5378227792753
 30
0.0
 10
84.14352889606482
 20
-115.5378227792753
 30
0.0
 10
84.49820147627129
 20
-115.220012720761
 30
0.0
 10
84.50974254614687
 20
-114.7995388167862
 30
0.0
 10
84.50974254614687
 20
-114.5340942096477
 30
0.0
 10
84.50974254614687
 20
-114.5340942096477
 30
0.0
 10
84.50974254614687
 20
-114.0206027275712
 30
0.0
 10
84.50974254614687
 20
-114.0206027275712
 30
0.0
 10
84.50974254614687
 20
-114.0206027275712
 30
0.0
 10
84.62411971625717
 20
-114.0206027275712
 30
0.0
 10
84.62411971625717
 20
-114.0206027275712
 30
0.0
 10
84.62411971625717
 20
-114.0206027275712
 30
0.0
 10
84.62411971625717
 20
-114.5263427448059
 30
0.0
 10
84.62411971625717
 20
-114.5263427448059
 30
0.0
  0
SPLINE
  5
55
330
41
100
AcDbEntity
  8
_U+30EC_U+30A4_U+30E4_U+30FC 1
370
     0
100
AcDbSpline
210
0.0
220
0.0
230
1.0
 70
    11
 71
     3
 72
    23
 73
    19
 74
     0
 42
0.0000000001
 43
0.0000000001
 12
1.0
 22
0.0
 32
0.0
 13
1.0
 23
0.0
 33
0.0
 40
0.0
 40
0.0
 40
0.0
 40
0.0
 40
1.0
 40
1.0
 40
1.0
 40
2.0
 40
2.0
 40
2.0
 40
3.0
 40
3.0
 40
3.0
 40
4.0
 40
4.0
 40
4.0
 40
5.0
 40
5.0
 40
5.0
 40
6.0
 40
6.0
 40
6.0
 40
6.0
 10
85.13778345310791
 20
-115.4487670609816
 30
0.0
 10
85.65316973770129
 20
-115.3517876230718
 30
0.0
 10
85.76944171032848
 20
-114.9914306353146
 30
0.0
 10
85.835415288871
 20
-114.6271117877495
 30
0.0
 10
85.835415288871
 20
-114.6271117877495
 30
0.0
 10
85.94393579665638
 20
-114.6717257742835
 30
0.0
 10
85.94393579665638
 20
-114.6717257742835
 30
0.0
 10
85.87021075327203
 20
-115.016579832357
 30
0.0
 10
85.73843585096122
 20
-115.5145683847498
 30
0.0
 10
85.02133922570647
 20
-115.5901882306511
 30
0.0
 10
85.02133922570647
 20
-115.5901882306511
 30
0.0
 10
85.02133922570647
 20
-113.9623806138705
 30
0.0
 10
85.02133922570647
 20
-113.9623806138705
 30
0.0
 10
85.02133922570647
 20
-113.9623806138705
 30
0.0
 10
85.13778345310791
 20
-113.9623806138705
 30
0.0
 10
85.13778345310791
 20
-113.9623806138705
 30
0.0
 10
85.13778345310791
 20
-113.9623806138705
 30
0.0
 10
85.13778345310791
 20
-115.4487670609816
 30
0.0
 10
85.13778345310791
 20
-115.4487670609816
 30
0.0
  0
HATCH
  5
56
330
41
100
AcDbEntity
  8
_U+30EC_U+30A4_U+30E4_U+30FC 1
 62
   179
420
  2234388
100
AcDbHatch
 10
0.0
 20
0.0
 30
0.0
210
0.0
220
0.0
230
1.0
  2
SOLID
 70
     1
 71
     0
 91
        2
 92
        1
 93
        1
 72
     4
 94
        3
 73
     0
 74
     1
 95
       23
 96
       19
 40
0.0
 40
0.0
 40
0.0
 40
0.0
 40
1.0
 40
1.0
 40
1.0
 40
2.0
 40
2.0
 40
2.0
 40
3.0
 40
3.0
 40
3.0
 40
4.0
 40
4.0
 40
4.0
 40
5.0
 40
5.0
 40
5.0
 40
6.0
 40
6.0
 40
6.0
 40
6.0
 10
84.62411971625717
 20
-114.5263427448059
 10
84.62411971625717
 20
-114.9294189165801
 10
84.5660698573307
 20
-115.2878811018204
 10
84.22690020680787
 20
-115.6230888925352
 10
84.22690020680787
 20
-115.6230888925352
 10
84.14352889606482
 20
-115.5378227792753
 10
84.14352889606482
 20
-115.5378227792753
 10
84.49820147627129
 20
-115.220012720761
 10
84.50974254614687
 20
-114.7995388167862
 10
84.50974254614687
 20
-114.5340942096477
 10
84.50974254614687
 20
-114.5340942096477
 10
84.50974254614687
 20
-114.0206027275712
 10
84.50974254614687
 20
-114.0206027275712
 10
84.50974254614687
 20
-114.0206027275712
 10
84.62411971625717
 20
-114.0206027275712
 10
84.62411971625717
 20
-114.0206027275712
 10
84.62411971625717
 20
-114.0206027275712
 10
84.62411971625717
 20
-114.5263427448059
 10
84.62411971625717
 20
-114.5263427448059
 97
        0
 97
        0
 92
        1
 93
        1
 72
     4
 94
        3
 73
     0
 74
     1
 95
       23
 96
       19
 40
0.0
 40
0.0
 40
0.0
 40
0.0
 40
1.0
 40
1.0
 40
1.0
 40
2.0
 40
2.0
 40
2.0
 40
3.0
 40
3.0
 40
3.0
 40
4.0
 40
4.0
 40
4.0
 40
5.0
 40
5.0
 40
5.0
 40
6.0
 40
6.0
 40
6.0
 40
6.0
 10
85.13778345310791
 20
-115.4487670609816
 10
85.65316973770129
 20
-115.3517876230718
 10
85.76944171032848
 20
-114.9914306353146
 10
85.835415288871
 20
-114.6271117877495
 10
85.835415288871
 20
-114.6271117877495
 10
85.94393579665638
 20
-114.6717257742835
 10
85.94393579665638
 20
-114.6717257742835
 10
85.87021075327203
 20
-115.016579832357
 10
85.73843585096122
 20
-115.5145683847498
 10
85.02133922570647
 20
-115.5901882306511
 10
85.02133922570647
 20
-115.5901882306511
 10
85.02133922570647
 20
-113.9623806138705
 10
85.02133922570647
 20
-113.9623806138705
 10
85.02133922570647
 20
-113.9623806138705
 10
85.13778345310791
 20
-113.9623806138705
 10
85.13778345310791
 20
-113.9623806138705
 10
85.13778345310791
 20
-113.9623806138705
 10
85.13778345310791
 20
-115.4487670609816
 10
85.13778345310791
 20
-115.4487670609816
 97
        0
 97
        0
 75
     2
 76
     1
 98
        0
  0
SPLINE
  5
57
330
41
100
AcDbEntity
  8
_U+30EC_U+30A4_U+30E4_U+30FC 1
370
     0
100
AcDbSpline
210
0.0
220
0.0
230
1.0
 70
    11
 71
     3
 72
    17
 73
    13
 74
     0
 42
0.0000000001
 43
0.0000000001
 12
1.0
 22
0.0
 32
0.0
 13
1.0
 23
0.0
 33
0.0
 40
0.0
 40
0.0
 40
0.0
 40
0.0
 40
1.0
 40
1.0
 40
1.0
 40
2.0
 40
2.0
 40
2.0
 40
3.0
 40
3.0
 40
3.0
 40
4.0
 40
4.0
 40
4.0
 40
4.0
 10
87.60877818990336
 20
-115.6115478226596
 30
0.0
 10
87.09907631286065
 20
-115.427407468973
 30
0.0
 10
86.64759654951867
 20
-115.3731472150803
 30
0.0
 10
86.09138588342508
 20
-115.3285332285463
 30
0.0
 10
86.09138588342508
 20
-115.3285332285463
 30
0.0
 10
86.11481253272477
 20
-115.220012720761
 30
0.0
 10
86.11481253272477
 20
-115.220012720761
 30
0.0
 10
86.71942679038612
 20
-115.2608371022612
 30
0.0
 10
87.18640948341174
 20
-115.3383517506793
 30
0.0
 10
87.63409964171996
 20
-115.4835625253826
 30
0.0
 10
87.63409964171996
 20
-115.4835625253826
 30
0.0
 10
87.60877818990336
 20
-115.6115478226596
 30
0.0
 10
87.60877818990336
 20
-115.6115478226596
 30
0.0
  0
SPLINE
  5
58
330
41
100
AcDbEntity
  8
_U+30EC_U+30A4_U+30E4_U+30FC 1
370
     0
100
AcDbSpline
210
0.0
220
0.0
230
1.0
 70
    11
 71
     3
 72
    17
 73
    13
 74
     0
 42
0.0000000001
 43
0.0000000001
 12
1.0
 22
0.0
 32
0.0
 13
1.0
 23
0.0
 33
0.0
 40
0.0
 40
0.0
 40
0.0
 40
0.0
 40
1.0
 40
1.0
 40
1.0
 40
2.0
 40
2.0
 40
2.0
 40
3.0
 40
3.0
 40
3.0
 40
4.0
 40
4.0
 40
4.0
 40
4.0
 10
87.4285996960248
 20
-114.8984130572129
 30
0.0
 10
87.02156166444253
 20
-114.7607814925772
 30
0.0
 10
86.64759654951867
 20
-114.7065212386845
 30
0.0
 10
86.21540932089407
 20
-114.6755153793172
 30
0.0
 10
86.21540932089407
 20
-114.6755153793172
 30
0.0
 10
86.23676891290262
 20
-114.5669948715319
 30
0.0
 10
86.23676891290262
 20
-114.5669948715319
 30
0.0
 10
86.68445907121084
 20
-114.603857393224
 30
0.0
 10
87.03706459412615
 20
-114.6541557873087
 30
0.0
 10
87.44806448551645
 20
-114.7821410845857
 30
0.0
 10
87.44806448551645
 20
-114.7821410845857
 30
0.0
 10
87.4285996960248
 20
-114.8984130572129
 30
0.0
 10
87.4285996960248
 20
-114.8984130572129
 30
0.0
  0
SPLINE
  5
59
330
41
100
AcDbEntity
  8
_U+30EC_U+30A4_U+30E4_U+30FC 1
370
     0
100
AcDbSpline
210
0.0
220
0.0
230
1.0
 70
    11
 71
     3
 72
    17
 73
    13
 74
     0
 42
0.0000000001
 43
0.0000000001
 12
1.0
 22
0.0
 32
0.0
 13
1.0
 23
0.0
 33
0.0
 40
0.0
 40
0.0
 40
0.0
 40
0.0
 40
1.0
 40
1.0
 40
1.0
 40
2.0
 40
2.0
 40
2.0
 40
3.0
 40
3.0
 40
3.0
 40
4.0
 40
4.0
 40
4.0
 40
4.0
 10
87.52936873896836
 20
-114.2879421372266
 30
0.0
 10
87.15919322907826
 20
-114.183211234475
 30
0.0
 10
86.63019881731815
 20
-114.1155151081899
 30
0.0
 10
86.2290174480608
 20
-114.0981173759894
 30
0.0
 10
86.2290174480608
 20
-114.0981173759894
 30
0.0
 10
86.25227184258624
 20
-113.9914916707209
 30
0.0
 10
86.25227184258624
 20
-113.9914916707209
 30
0.0
 10
86.78143850912062
 20
-114.0224975300881
 30
0.0
 10
87.10303817266869
 20
-114.069006319139
 30
0.0
 10
87.5526231334938
 20
-114.1677083047914
 30
0.0
 10
87.5526231334938
 20
-114.1677083047914
 30
0.0
 10
87.52936873896836
 20
-114.2879421372266
 30
0.0
 10
87.52936873896836
 20
-114.2879421372266
 30
0.0
  0
HATCH
  5
5A
330
41
100
AcDbEntity
  8
_U+30EC_U+30A4_U+30E4_U+30FC 1
 62
   179
420
  2234388
100
AcDbHatch
 10
0.0
 20
0.0
 30
0.0
210
0.0
220
0.0
230
1.0
  2
SOLID
 70
     1
 71
     0
 91
        3
 92
        1
 93
        1
 72
     4
 94
        3
 73
     0
 74
     1
 95
       17
 96
       13
 40
0.0
 40
0.0
 40
0.0
 40
0.0
 40
1.0
 40
1.0
 40
1.0
 40
2.0
 40
2.0
 40
2.0
 40
3.0
 40
3.0
 40
3.0
 40
4.0
 40
4.0
 40
4.0
 40
4.0
 10
87.60877818990336
 20
-115.6115478226596
 10
87.09907631286065
 20
-115.427407468973
 10
86.64759654951867
 20
-115.3731472150803
 10
86.09138588342508
 20
-115.3285332285463
 10
86.09138588342508
 20
-115.3285332285463
 10
86.11481253272477
 20
-115.220012720761
 10
86.11481253272477
 20
-115.220012720761
 10
86.71942679038612
 20
-115.2608371022612
 10
87.18640948341174
 20
-115.3383517506793
 10
87.63409964171996
 20
-115.4835625253826
 10
87.63409964171996
 20
-115.4835625253826
 10
87.60877818990336
 20
-115.6115478226596
 10
87.60877818990336
 20
-115.6115478226596
 97
        0
 97
        0
 92
        1
 93
        1
 72
     4
 94
        3
 73
     0
 74
     1
 95
       17
 96
       13
 40
0.0
 40
0.0
 40
0.0
 40
0.0
 40
1.0
 40
1.0
 40
1.0
 40
2.0
 40
2.0
 40
2.0
 40
3.0
 40
3.0
 40
3.0
 40
4.0
 40
4.0
 40
4.0
 40
4.0
 10
87.4285996960248
 20
-114.8984130572129
 10
87.02156166444253
 20
-114.7607814925772
 10
86.64759654951867
 20
-114.7065212386845
 10
86.21540932089407
 20
-114.6755153793172
 10
86.21540932089407
 20
-114.6755153793172
 10
86.23676891290262
 20
-114.5669948715319
 10
86.23676891290262
 20
-114.5669948715319
 10
86.68445907121084
 20
-114.603857393224
 10
87.03706459412615
 20
-114.6541557873087
 10
87.44806448551645
 20
-114.7821410845857
 10
87.44806448551645
 20
-114.7821410845857
 10
87.4285996960248
 20
-114.8984130572129
 10
87.4285996960248
 20
-114.8984130572129
 97
        0
 97
        0
 92
        1
 93
        1
 72
     4
 94
        3
 73
     0
 74
     1
 95
       17
 96
       13
 40
0.0
 40
0.0
 40
0.0
 40
0.0
 40
1.0
 40
1.0
 40
1.0
 40
2.0
 40
2.0
 40
2.0
 40
3.0
 40
3.0
 40
3.0
 40
4.0
 40
4.0
 40
4.0
 40
4.0
 10
87.52936873896836
 20
-114.2879421372266
 10
87.15919322907826
 20
-114.183211234475
 10
86.63019881731815
 20
-114.1155151081899
 10
86.2290174480608
 20
-114.0981173759894
 10
86.2290174480608
 20
-114.0981173759894
 10
86.25227184258624
 20
-113.9914916707209
 10
86.25227184258624
 20
-113.9914916707209
 10
86.78143850912062
 20
-114.0224975300881
 10
87.10303817266869
 20
-114.069006319139
 10
87.5526231334938
 20
-114.1677083047914
 10
87.5526231334938
 20
-114.1677083047914
 10
87.52936873896836
 20
-114.2879421372266
 10
87.52936873896836
 20
-114.2879421372266
 97
        0
 97
        0
 75
     2
 76
     1
 98
        0
  0
SPLINE
  5
5B
330
41
100
AcDbEntity
  8
_U+30EC_U+30A4_U+30E4_U+30FC 1
370
     0
100
AcDbSpline
210
0.0
220
0.0
230
1.0
 70
    11
 71
     3
 72
    89
 73
    85
 74
     0
 42
0.0000000001
 43
0.0000000001
 12
1.0
 22
0.0
 32
0.0
 13
1.0
 23
0.0
 33
0.0
 40
0.0
 40
0.0
 40
0.0
 40
0.0
 40
1.0
 40
1.0
 40
1.0
 40
2.0
 40
2.0
 40
2.0
 40
3.0
 40
3.0
 40
3.0
 40
4.0
 40
4.0
 40
4.0
 40
5.0
 40
5.0
 40
5.0
 40
6.0
 40
6.0
 40
6.0
 40
7.0
 40
7.0
 40
7.0
 40
8.0
 40
8.0
 40
8.0
 40
9.0
 40
9.0
 40
9.0
 40
10.0
 40
10.0
 40
10.0
 40
11.0
 40
11.0
 40
11.0
 40
12.0
 40
12.0
 40
12.0
 40
13.0
 40
13.0
 40
13.0
 40
14.0
 40
14.0
 40
14.0
 40
15.0
 40
15.0
 40
15.0
 40
16.0
 40
16.0
 40
16.0
 40
17.0
 40
17.0
 40
17.0
 40
18.0
 40
18.0
 40
18.0
 40
19.0
 40
19.0
 40
19.0
 40
20.0
 40
20.0
 40
20.0
 40
21.0
 40
21.0
 40
21.0
 40
22.0
 40
22.0
 40
22.0
 40
23.0
 40
23.0
 40
23.0
 40
24.0
 40
24.0
 40
24.0
 40
25.0
 40
25.0
 40
25.0
 40
26.0
 40
26.0
 40
26.0
 40
27.0
 40
27.0
 40
27.0
 40
28.0
 40
28.0
 40
28.0
 40
28.0
 10
88.92101506023502
 20
-115.5863986256173
 30
0.0
 10
88.70397404466429
 20
-115.6211940900183
 30
0.0
 10
88.28918454824021
 20
-115.6618462167443
 30
0.0
 10
88.00444740638432
 20
-115.6639132740354
 30
0.0
 10
88.00444740638432
 20
-115.6639132740354
 30
0.0
 10
87.99859074405938
 20
-115.5629719763176
 30
0.0
 10
87.99859074405938
 20
-115.5629719763176
 30
0.0
 10
88.06060246279388
 20
-115.5629719763176
 30
0.0
 10
88.11675751920346
 20
-115.5629719763176
 30
0.0
 10
88.28350014068954
 20
-115.5553927662501
 30
0.0
 10
88.28350014068954
 20
-115.5553927662501
 30
0.0
 10
88.28350014068954
 20
-115.299422171696
 30
0.0
 10
88.28350014068954
 20
-115.299422171696
 30
0.0
 10
88.11296791416967
 20
-115.3769368201141
 30
0.0
 10
87.95208195500851
 20
-115.4177612016143
 30
0.0
 10
87.83184812257329
 20
-115.4468722584647
 30
0.0
 10
87.83184812257329
 20
-115.4468722584647
 30
0.0
 10
87.78930119333046
 20
-115.3362846933882
 30
0.0
 10
87.78930119333046
 20
-115.3362846933882
 30
0.0
 10
88.0761053924775
 20
-115.2878811018204
 30
0.0
 10
88.38409692885884
 20
-115.1735039317101
 30
0.0
 10
88.51983369097769
 20
-115.051375296758
 30
0.0
 10
88.51983369097769
 20
-115.051375296758
 30
0.0
 10
87.80859372804785
 20
-115.051375296758
 30
0.0
 10
87.80859372804785
 20
-115.051375296758
 30
0.0
 10
87.80859372804785
 20
-115.051375296758
 30
0.0
 10
87.80859372804785
 20
-114.9623195784643
 30
0.0
 10
87.80859372804785
 20
-114.9623195784643
 30
0.0
 10
87.80859372804785
 20
-114.9623195784643
 30
0.0
 10
88.64575193096357
 20
-114.9623195784643
 30
0.0
 10
88.64575193096357
 20
-114.9623195784643
 30
0.0
 10
88.64575193096357
 20
-114.9623195784643
 30
0.0
 10
88.64575193096357
 20
-114.8441528033202
 30
0.0
 10
88.64575193096357
 20
-114.8441528033202
 30
0.0
 10
88.64575193096357
 20
-114.8441528033202
 30
0.0
 10
88.75048283371517
 20
-114.8441528033202
 30
0.0
 10
88.75048283371517
 20
-114.8441528033202
 30
0.0
 10
88.75048283371517
 20
-114.8441528033202
 30
0.0
 10
88.75048283371517
 20
-114.9623195784643
 30
0.0
 10
88.75048283371517
 20
-114.9623195784643
 30
0.0
 10
88.75048283371517
 20
-114.9623195784643
 30
0.0
 10
89.58764103663087
 20
-114.9623195784643
 30
0.0
 10
89.58764103663087
 20
-114.9623195784643
 30
0.0
 10
89.58764103663087
 20
-114.9623195784643
 30
0.0
 10
89.58764103663087
 20
-115.051375296758
 30
0.0
 10
89.58764103663087
 20
-115.051375296758
 30
0.0
 10
89.58764103663087
 20
-115.051375296758
 30
0.0
 10
88.80663789012473
 20
-115.051375296758
 30
0.0
 10
88.80663789012473
 20
-115.051375296758
 30
0.0
 10
88.83953855200888
 20
-115.1095974104587
 30
0.0
 10
88.89379880590155
 20
-115.1967583262355
 30
0.0
 10
89.01213783581989
 20
-115.2956325666622
 30
0.0
 10
89.07208249726324
 20
-115.2608371022612
 30
0.0
 10
89.20006779454026
 20
-115.1716091291932
 30
0.0
 10
89.30273164000072
 20
-115.0748019460577
 30
0.0
 10
89.30273164000072
 20
-115.0748019460577
 30
0.0
 10
89.38989255577754
 20
-115.1328518049842
 30
0.0
 10
89.38989255577754
 20
-115.1328518049842
 30
0.0
 10
89.28326685050905
 20
-115.2298312428939
 30
0.0
 10
89.17474634272368
 20
-115.3052788340209
 30
0.0
 10
89.089652484238
 20
-115.3557494828798
 30
0.0
 10
89.19421113221534
 20
-115.427407468973
 30
0.0
 10
89.32977563955993
 20
-115.5126735822329
 30
0.0
 10
89.58367917682284
 20
-115.5901882306511
 30
0.0
 10
89.58367917682284
 20
-115.5901882306511
 30
0.0
 10
89.53717038777197
 20
-115.6909572735946
 30
0.0
 10
89.53717038777197
 20
-115.6909572735946
 30
0.0
 10
88.93841279243554
 20
-115.4894191877075
 30
0.0
 10
88.75237763623205
 20
-115.1598958045434
 30
0.0
 10
88.69226072001445
 20
-115.051375296758
 30
0.0
 10
88.69226072001445
 20
-115.051375296758
 30
0.0
 10
88.67107338278015
 20
-115.051375296758
 30
0.0
 10
88.67107338278015
 20
-115.051375296758
 30
0.0
 10
88.60906166404565
 20
-115.1037407481338
 30
0.0
 10
88.5372314231782
 20
-115.1678195241594
 30
0.0
 10
88.38616398615
 20
-115.2491237776113
 30
0.0
 10
88.38616398615
 20
-115.2491237776113
 30
0.0
 10
88.38616398615
 20
-115.5495361039251
 30
0.0
 10
88.38616398615
 20
-115.5495361039251
 30
0.0
 10
88.56444767751167
 20
-115.5398898365664
 30
0.0
 10
88.74273136887335
 20
-115.5185302445579
 30
0.0
 10
88.92101506023502
 20
-115.4952758500324
 30
0.0
 10
88.92101506023502
 20
-115.4952758500324
 30
0.0
 10
88.92101506023502
 20
-115.5863986256173
 30
0.0
 10
88.92101506023502
 20
-115.5863986256173
 30
0.0
  0
SPLINE
  5
5C
330
41
100
AcDbEntity
  8
_U+30EC_U+30A4_U+30E4_U+30FC 1
370
     0
100
AcDbSpline
210
0.0
220
0.0
230
1.0
 70
    11
 71
     3
 72
   125
 73
   121
 74
     0
 42
0.0000000001
 43
0.0000000001
 12
1.0
 22
0.0
 32
0.0
 13
1.0
 23
0.0
 33
0.0
 40
0.0
 40
0.0
 40
0.0
 40
0.0
 40
1.0
 40
1.0
 40
1.0
 40
2.0
 40
2.0
 40
2.0
 40
3.0
 40
3.0
 40
3.0
 40
4.0
 40
4.0
 40
4.0
 40
5.0
 40
5.0
 40
5.0
 40
6.0
 40
6.0
 40
6.0
 40
7.0
 40
7.0
 40
7.0
 40
8.0
 40
8.0
 40
8.0
 40
9.0
 40
9.0
 40
9.0
 40
10.0
 40
10.0
 40
10.0
 40
11.0
 40
11.0
 40
11.0
 40
12.0
 40
12.0
 40
12.0
 40
13.0
 40
13.0
 40
13.0
 40
14.0
 40
14.0
 40
14.0
 40
15.0
 40
15.0
 40
15.0
 40
16.0
 40
16.0
 40
16.0
 40
17.0
 40
17.0
 40
17.0
 40
18.0
 40
18.0
 40
18.0
 40
19.0
 40
19.0
 40
19.0
 40
20.0
 40
20.0
 40
20.0
 40
21.0
 40
21.0
 40
21.0
 40
22.0
 40
22.0
 40
22.0
 40
23.0
 40
23.0
 40
23.0
 40
24.0
 40
24.0
 40
24.0
 40
25.0
 40
25.0
 40
25.0
 40
26.0
 40
26.0
 40
26.0
 40
27.0
 40
27.0
 40
27.0
 40
28.0
 40
28.0
 40
28.0
 40
29.0
 40
29.0
 40
29.0
 40
30.0
 40
30.0
 40
30.0
 40
31.0
 40
31.0
 40
31.0
 40
32.0
 40
32.0
 40
32.0
 40
33.0
 40
33.0
 40
33.0
 40
34.0
 40
34.0
 40
34.0
 40
35.0
 40
35.0
 40
35.0
 40
36.0
 40
36.0
 40
36.0
 40
37.0
 40
37.0
 40
37.0
 40
38.0
 40
38.0
 40
38.0
 40
39.0
 40
39.0
 40
39.0
 40
40.0
 40
40.0
 40
40.0
 40
40.0
 10
88.30864933773186
 20
-114.0380004597718
 30
0.0
 10
88.30864933773186
 20
-114.0380004597718
 30
0.0
 10
88.30864933773186
 20
-113.9022636976529
 30
0.0
 10
88.30864933773186
 20
-113.9022636976529
 30
0.0
 10
88.30864933773186
 20
-113.9022636976529
 30
0.0
 10
88.40166691583362
 20
-113.9022636976529
 30
0.0
 10
88.40166691583362
 20
-113.9022636976529
 30
0.0
 10
88.40166691583362
 20
-113.9022636976529
 30
0.0
 10
88.40166691583362
 20
-114.0380004597718
 30
0.0
 10
88.40166691583362
 20
-114.0380004597718
 30
0.0
 10
88.40166691583362
 20
-114.0380004597718
 30
0.0
 10
88.77563203075748
 20
-114.0380004597718
 30
0.0
 10
88.77563203075748
 20
-114.0380004597718
 30
0.0
 10
88.77563203075748
 20
-114.0380004597718
 30
0.0
 10
88.77563203075748
 20
-114.1232665730317
 30
0.0
 10
88.77563203075748
 20
-114.1232665730317
 30
0.0
 10
88.77563203075748
 20
-114.1232665730317
 30
0.0
 10
88.40166691583362
 20
-114.1232665730317
 30
0.0
 10
88.40166691583362
 20
-114.1232665730317
 30
0.0
 10
88.40166691583362
 20
-114.1232665730317
 30
0.0
 10
88.40166691583362
 20
-114.2531466728256
 30
0.0
 10
88.40166691583362
 20
-114.2531466728256
 30
0.0
 10
88.40166691583362
 20
-114.2531466728256
 30
0.0
 10
88.8550414816925
 20
-114.2531466728256
 30
0.0
 10
88.8550414816925
 20
-114.2531466728256
 30
0.0
 10
88.8550414816925
 20
-114.2531466728256
 30
0.0
 10
88.8550414816925
 20
-114.3363457287944
 30
0.0
 10
88.8550414816925
 20
-114.3363457287944
 30
0.0
 10
88.8550414816925
 20
-114.3363457287944
 30
0.0
 10
88.40166691583362
 20
-114.3363457287944
 30
0.0
 10
88.40166691583362
 20
-114.3363457287944
 30
0.0
 10
88.40166691583362
 20
-114.3363457287944
 30
0.0
 10
88.40166691583362
 20
-114.4643310260714
 30
0.0
 10
88.40166691583362
 20
-114.4643310260714
 30
0.0
 10
88.40166691583362
 20
-114.4643310260714
 30
0.0
 10
88.78527829811618
 20
-114.4643310260714
 30
0.0
 10
88.78527829811618
 20
-114.4643310260714
 30
0.0
 10
88.78527829811618
 20
-114.4643310260714
 30
0.0
 10
88.78527829811618
 20
-114.6851616466759
 30
0.0
 10
88.78527829811618
 20
-114.6851616466759
 30
0.0
 10
88.78527829811618
 20
-114.7859306896195
 30
0.0
 10
88.70397404466429
 20
-114.7936821544613
 30
0.0
 10
88.6593600581303
 20
-114.7936821544613
 30
0.0
 10
88.6593600581303
 20
-114.7936821544613
 30
0.0
 10
88.53154701562754
 20
-114.7936821544613
 30
0.0
 10
88.53154701562754
 20
-114.7936821544613
 30
0.0
 10
88.53154701562754
 20
-114.7936821544613
 30
0.0
 10
88.51208222613587
 20
-114.7006645763596
 30
0.0
 10
88.51208222613587
 20
-114.7006645763596
 30
0.0
 10
88.51208222613587
 20
-114.7006645763596
 30
0.0
 10
88.64575193096357
 20
-114.7065212386845
 30
0.0
 10
88.64575193096357
 20
-114.7065212386845
 30
0.0
 10
88.68261445265574
 20
-114.7084160412014
 30
0.0
 10
88.69226072001445
 20
-114.6987697738427
 30
0.0
 10
88.69226072001445
 20
-114.6562228445998
 30
0.0
 10
88.69226072001445
 20
-114.6562228445998
 30
0.0
 10
88.69226072001445
 20
-114.5495971393314
 30
0.0
 10
88.69226072001445
 20
-114.5495971393314
 30
0.0
 10
88.69226072001445
 20
-114.5495971393314
 30
0.0
 10
88.40166691583362
 20
-114.5495971393314
 30
0.0
 10
88.40166691583362
 20
-114.5495971393314
 30
0.0
 10
88.40166691583362
 20
-114.5495971393314
 30
0.0
 10
88.40166691583362
 20
-114.8227932113117
 30
0.0
 10
88.40166691583362
 20
-114.8227932113117
 30
0.0
 10
88.40166691583362
 20
-114.8227932113117
 30
0.0
 10
88.30864933773186
 20
-114.8227932113117
 30
0.0
 10
88.30864933773186
 20
-114.8227932113117
 30
0.0
 10
88.30864933773186
 20
-114.8227932113117
 30
0.0
 10
88.30864933773186
 20
-114.5495971393314
 30
0.0
 10
88.30864933773186
 20
-114.5495971393314
 30
0.0
 10
88.30864933773186
 20
-114.5495971393314
 30
0.0
 10
88.0256347436186
 20
-114.5495971393314
 30
0.0
 10
88.0256347436186
 20
-114.5495971393314
 30
0.0
 10
88.0256347436186
 20
-114.5495971393314
 30
0.0
 10
88.0256347436186
 20
-114.8227932113117
 30
0.0
 10
88.0256347436186
 20
-114.8227932113117
 30
0.0
 10
88.0256347436186
 20
-114.8227932113117
 30
0.0
 10
87.91900903835011
 20
-114.8227932113117
 30
0.0
 10
87.91900903835011
 20
-114.8227932113117
 30
0.0
 10
87.91900903835011
 20
-114.8227932113117
 30
0.0
 10
87.91900903835011
 20
-114.4643310260714
 30
0.0
 10
87.91900903835011
 20
-114.4643310260714
 30
0.0
 10
87.91900903835011
 20
-114.4643310260714
 30
0.0
 10
88.30864933773186
 20
-114.4643310260714
 30
0.0
 10
88.30864933773186
 20
-114.4643310260714
 30
0.0
 10
88.30864933773186
 20
-114.4643310260714
 30
0.0
 10
88.30864933773186
 20
-114.3363457287944
 30
0.0
 10
88.30864933773186
 20
-114.3363457287944
 30
0.0
 10
88.30864933773186
 20
-114.3363457287944
 30
0.0
 10
87.83391517986445
 20
-114.3363457287944
 30
0.0
 10
87.83391517986445
 20
-114.3363457287944
 30
0.0
 10
87.83391517986445
 20
-114.3363457287944
 30
0.0
 10
87.83391517986445
 20
-114.2531466728256
 30
0.0
 10
87.83391517986445
 20
-114.2531466728256
 30
0.0
 10
87.83391517986445
 20
-114.2531466728256
 30
0.0
 10
88.30864933773186
 20
-114.2531466728256
 30
0.0
 10
88.30864933773186
 20
-114.2531466728256
 30
0.0
 10
88.30864933773186
 20
-114.2531466728256
 30
0.0
 10
88.30864933773186
 20
-114.1232665730317
 30
0.0
 10
88.30864933773186
 20
-114.1232665730317
 30
0.0
 10
88.30864933773186
 20
-114.1232665730317
 30
0.0
 10
88.03149140594353
 20
-114.1232665730317
 30
0.0
 10
88.03149140594353
 20
-114.1232665730317
 30
0.0
 10
87.98308781437576
 20
-114.183211234475
 30
0.0
 10
87.96551782740099
 20
-114.1987141641587
 30
0.0
 10
87.93657902532489
 20
-114.2221408134584
 30
0.0
 10
87.93657902532489
 20
-114.2221408134584
 30
0.0
 10
87.86285398194055
 20
-114.1697753620826
 30
0.0
 10
87.86285398194055
 20
-114.1697753620826
 30
0.0
 10
87.93451196803373
 20
-114.1000121785062
 30
0.0
 10
88.00823701141809
 20
-114.0011379380796
 30
0.0
 10
88.04888913814403
 20
-113.9100151624947
 30
0.0
 10
88.04888913814403
 20
-113.9100151624947
 30
0.0
 10
88.1477633785707
 20
-113.9332695570202
 30
0.0
 10
88.1477633785707
 20
-113.9332695570202
 30
0.0
 10
88.13605005392085
 20
-113.9642754163874
 30
0.0
 10
88.13226044888708
 20
-113.9759887410373
 30
0.0
 10
88.09350312467802
 20
-114.0380004597718
 30
0.0
 10
88.09350312467802
 20
-114.0380004597718
 30
0.0
 10
88.30864933773186
 20
-114.0380004597718
 30
0.0
 10
88.30864933773186
 20
-114.0380004597718
 30
0.0
  0
POLYLINE
  5
5D
330
41
100
AcDbEntity
  8
_U+30EC_U+30A4_U+30E4_U+30FC 1
370
     0
100
AcDb2dPolyline
 66
     1
 10
0.0
 20
0.0
 30
0.0
  0
VERTEX
  5
5E
330
5D
100
AcDbEntity
  8
_U+30EC_U+30A4_U+30E4_U+30FC 1
370
     0
100
AcDbVertex
100
AcDb2dVertex
 10
89.10308835663048
 20
-113.9837402058791
 30
0.0
  0
VERTEX
  5
5F
330
5D
100
AcDbEntity
  8
_U+30EC_U+30A4_U+30E4_U+30FC 1
370
     0
100
AcDbVertex
100
AcDb2dVertex
 10
89.10308835663048
 20
-114.5843926037324
 30
0.0
  0
VERTEX
  5
60
330
5D
100
AcDbEntity
  8
_U+30EC_U+30A4_U+30E4_U+30FC 1
370
     0
100
AcDbVertex
100
AcDb2dVertex
 10
89.00042451117004
 20
-114.5843926037324
 30
0.0
  0
VERTEX
  5
61
330
5D
100
AcDbEntity
  8
_U+30EC_U+30A4_U+30E4_U+30FC 1
370
     0
100
AcDbVertex
100
AcDb2dVertex
 10
89.00042451117004
 20
-113.9837402058791
 30
0.0
  0
VERTEX
  5
62
330
5D
100
AcDbEntity
  8
_U+30EC_U+30A4_U+30E4_U+30FC 1
370
     0
100
AcDbVertex
100
AcDb2dVertex
 10
89.10308835663048
 20
-113.9837402058791
 30
0.0
  0
SEQEND
  5
63
330
5D
100
AcDbEntity
  8
_U+30EC_U+30A4_U+30E4_U+30FC 1
370
     0
  0
SPLINE
  5
64
330
41
100
AcDbEntity
  8
_U+30EC_U+30A4_U+30E4_U+30FC 1
370
     0
100
AcDbSpline
210
0.0
220
0.0
230
1.0
 70
    11
 71
     3
 72
    29
 73
    25
 74
     0
 42
0.0000000001
 43
0.0000000001
 12
1.0
 22
0.0
 32
0.0
 13
1.0
 23
0.0
 33
0.0
 40
0.0
 40
0.0
 40
0.0
 40
0.0
 40
1.0
 40
1.0
 40
1.0
 40
2.0
 40
2.0
 40
2.0
 40
3.0
 40
3.0
 40
3.0
 40
4.0
 40
4.0
 40
4.0
 40
5.0
 40
5.0
 40
5.0
 40
6.0
 40
6.0
 40
6.0
 40
7.0
 40
7.0
 40
7.0
 40
8.0
 40
8.0
 40
8.0
 40
8.0
 10
89.47515866903747
 20
-113.9022636976529
 30
0.0
 10
89.47515866903747
 20
-113.9022636976529
 30
0.0
 10
89.47515866903747
 20
-114.7065212386845
 30
0.0
 10
89.47515866903747
 20
-114.7065212386845
 30
0.0
 10
89.47515866903747
 20
-114.7859306896195
 30
0.0
 10
89.4286498799866
 20
-114.8227932113117
 30
0.0
 10
89.34338376672666
 20
-114.8227932113117
 30
0.0
 10
89.34338376672666
 20
-114.8227932113117
 30
0.0
 10
89.13805607580576
 20
-114.8227932113117
 30
0.0
 10
89.13805607580576
 20
-114.8227932113117
 30
0.0
 10
89.13805607580576
 20
-114.8227932113117
 30
0.0
 10
89.1185912863141
 20
-114.7123779010094
 30
0.0
 10
89.1185912863141
 20
-114.7123779010094
 30
0.0
 10
89.1185912863141
 20
-114.7123779010094
 30
0.0
 10
89.32409123200927
 20
-114.7182345633343
 30
0.0
 10
89.32409123200927
 20
-114.7182345633343
 30
0.0
 10
89.36474335873521
 20
-114.7201293658512
 30
0.0
 10
89.36870521854324
 20
-114.7123779010094
 30
0.0
 10
89.36870521854324
 20
-114.6717257742835
 30
0.0
 10
89.36870521854324
 20
-114.6717257742835
 30
0.0
 10
89.36870521854324
 20
-113.9022636976529
 30
0.0
 10
89.36870521854324
 20
-113.9022636976529
 30
0.0
 10
89.36870521854324
 20
-113.9022636976529
 30
0.0
 10
89.47515866903747
 20
-113.9022636976529
 30
0.0
 10
89.47515866903747
 20
-113.9022636976529
 30
0.0
  0
HATCH
  5
65
330
41
100
AcDbEntity
  8
_U+30EC_U+30A4_U+30E4_U+30FC 1
 62
   179
420
  2234388
100
AcDbHatch
 10
0.0
 20
0.0
 30
0.0
210
0.0
220
0.0
230
1.0
  2
SOLID
 70
     1
 71
     0
 91
        4
 92
        1
 93
        1
 72
     4
 94
        3
 73
     0
 74
     1
 95
       89
 96
       85
 40
0.0
 40
0.0
 40
0.0
 40
0.0
 40
1.0
 40
1.0
 40
1.0
 40
2.0
 40
2.0
 40
2.0
 40
3.0
 40
3.0
 40
3.0
 40
4.0
 40
4.0
 40
4.0
 40
5.0
 40
5.0
 40
5.0
 40
6.0
 40
6.0
 40
6.0
 40
7.0
 40
7.0
 40
7.0
 40
8.0
 40
8.0
 40
8.0
 40
9.0
 40
9.0
 40
9.0
 40
10.0
 40
10.0
 40
10.0
 40
11.0
 40
11.0
 40
11.0
 40
12.0
 40
12.0
 40
12.0
 40
13.0
 40
13.0
 40
13.0
 40
14.0
 40
14.0
 40
14.0
 40
15.0
 40
15.0
 40
15.0
 40
16.0
 40
16.0
 40
16.0
 40
17.0
 40
17.0
 40
17.0
 40
18.0
 40
18.0
 40
18.0
 40
19.0
 40
19.0
 40
19.0
 40
20.0
 40
20.0
 40
20.0
 40
21.0
 40
21.0
 40
21.0
 40
22.0
 40
22.0
 40
22.0
 40
23.0
 40
23.0
 40
23.0
 40
24.0
 40
24.0
 40
24.0
 40
25.0
 40
25.0
 40
25.0
 40
26.0
 40
26.0
 40
26.0
 40
27.0
 40
27.0
 40
27.0
 40
28.0
 40
28.0
 40
28.0
 40
28.0
 10
88.92101506023502
 20
-115.5863986256173
 10
88.70397404466429
 20
-115.6211940900183
 10
88.28918454824021
 20
-115.6618462167443
 10
88.00444740638432
 20
-115.6639132740354
 10
88.00444740638432
 20
-115.6639132740354
 10
87.99859074405938
 20
-115.5629719763176
 10
87.99859074405938
 20
-115.5629719763176
 10
88.06060246279388
 20
-115.5629719763176
 10
88.11675751920346
 20
-115.5629719763176
 10
88.28350014068954
 20
-115.5553927662501
 10
88.28350014068954
 20
-115.5553927662501
 10
88.28350014068954
 20
-115.299422171696
 10
88.28350014068954
 20
-115.299422171696
 10
88.11296791416967
 20
-115.3769368201141
 10
87.95208195500851
 20
-115.4177612016143
 10
87.83184812257329
 20
-115.4468722584647
 10
87.83184812257329
 20
-115.4468722584647
 10
87.78930119333046
 20
-115.3362846933882
 10
87.78930119333046
 20
-115.3362846933882
 10
88.0761053924775
 20
-115.2878811018204
 10
88.38409692885884
 20
-115.1735039317101
 10
88.51983369097769
 20
-115.051375296758
 10
88.51983369097769
 20
-115.051375296758
 10
87.80859372804785
 20
-115.051375296758
 10
87.80859372804785
 20
-115.051375296758
 10
87.80859372804785
 20
-115.051375296758
 10
87.80859372804785
 20
-114.9623195784643
 10
87.80859372804785
 20
-114.9623195784643
 10
87.80859372804785
 20
-114.9623195784643
 10
88.64575193096357
 20
-114.9623195784643
 10
88.64575193096357
 20
-114.9623195784643
 10
88.64575193096357
 20
-114.9623195784643
 10
88.64575193096357
 20
-114.8441528033202
 10
88.64575193096357
 20
-114.8441528033202
 10
88.64575193096357
 20
-114.8441528033202
 10
88.75048283371517
 20
-114.8441528033202
 10
88.75048283371517
 20
-114.8441528033202
 10
88.75048283371517
 20
-114.8441528033202
 10
88.75048283371517
 20
-114.9623195784643
 10
88.75048283371517
 20
-114.9623195784643
 10
88.75048283371517
 20
-114.9623195784643
 10
89.58764103663087
 20
-114.9623195784643
 10
89.58764103663087
 20
-114.9623195784643
 10
89.58764103663087
 20
-114.9623195784643
 10
89.58764103663087
 20
-115.051375296758
 10
89.58764103663087
 20
-115.051375296758
 10
89.58764103663087
 20
-115.051375296758
 10
88.80663789012473
 20
-115.051375296758
 10
88.80663789012473
 20
-115.051375296758
 10
88.83953855200888
 20
-115.1095974104587
 10
88.89379880590155
 20
-115.1967583262355
 10
89.01213783581989
 20
-115.2956325666622
 10
89.07208249726324
 20
-115.2608371022612
 10
89.20006779454026
 20
-115.1716091291932
 10
89.30273164000072
 20
-115.0748019460577
 10
89.30273164000072
 20
-115.0748019460577
 10
89.38989255577754
 20
-115.1328518049842
 10
89.38989255577754
 20
-115.1328518049842
 10
89.28326685050905
 20
-115.2298312428939
 10
89.17474634272368
 20
-115.3052788340209
 10
89.089652484238
 20
-115.3557494828798
 10
89.19421113221534
 20
-115.427407468973
 10
89.32977563955993
 20
-115.5126735822329
 10
89.58367917682284
 20
-115.5901882306511
 10
89.58367917682284
 20
-115.5901882306511
 10
89.53717038777197
 20
-115.6909572735946
 10
89.53717038777197
 20
-115.6909572735946
 10
88.93841279243554
 20
-115.4894191877075
 10
88.75237763623205
 20
-115.1598958045434
 10
88.69226072001445
 20
-115.051375296758
 10
88.69226072001445
 20
-115.051375296758
 10
88.67107338278015
 20
-115.051375296758
 10
88.67107338278015
 20
-115.051375296758
 10
88.60906166404565
 20
-115.1037407481338
 10
88.5372314231782
 20
-115.1678195241594
 10
88.38616398615
 20
-115.2491237776113
 10
88.38616398615
 20
-115.2491237776113
 10
88.38616398615
 20
-115.5495361039251
 10
88.38616398615
 20
-115.5495361039251
 10
88.56444767751167
 20
-115.5398898365664
 10
88.74273136887335
 20
-115.5185302445579
 10
88.92101506023502
 20
-115.4952758500324
 10
88.92101506023502
 20
-115.4952758500324
 10
88.92101506023502
 20
-115.5863986256173
 10
88.92101506023502
 20
-115.5863986256173
 97
        0
 97
        0
 92
        1
 93
        1
 72
     4
 94
        3
 73
     0
 74
     1
 95
      125
 96
      121
 40
0.0
 40
0.0
 40
0.0
 40
0.0
 40
1.0
 40
1.0
 40
1.0
 40
2.0
 40
2.0
 40
2.0
 40
3.0
 40
3.0
 40
3.0
 40
4.0
 40
4.0
 40
4.0
 40
5.0
 40
5.0
 40
5.0
 40
6.0
 40
6.0
 40
6.0
 40
7.0
 40
7.0
 40
7.0
 40
8.0
 40
8.0
 40
8.0
 40
9.0
 40
9.0
 40
9.0
 40
10.0
 40
10.0
 40
10.0
 40
11.0
 40
11.0
 40
11.0
 40
12.0
 40
12.0
 40
12.0
 40
13.0
 40
13.0
 40
13.0
 40
14.0
 40
14.0
 40
14.0
 40
15.0
 40
15.0
 40
15.0
 40
16.0
 40
16.0
 40
16.0
 40
17.0
 40
17.0
 40
17.0
 40
18.0
 40
18.0
 40
18.0
 40
19.0
 40
19.0
 40
19.0
 40
20.0
 40
20.0
 40
20.0
 40
21.0
 40
21.0
 40
21.0
 40
22.0
 40
22.0
 40
22.0
 40
23.0
 40
23.0
 40
23.0
 40
24.0
 40
24.0
 40
24.0
 40
25.0
 40
25.0
 40
25.0
 40
26.0
 40
26.0
 40
26.0
 40
27.0
 40
27.0
 40
27.0
 40
28.0
 40
28.0
 40
28.0
 40
29.0
 40
29.0
 40
29.0
 40
30.0
 40
30.0
 40
30.0
 40
31.0
 40
31.0
 40
31.0
 40
32.0
 40
32.0
 40
32.0
 40
33.0
 40
33.0
 40
33.0
 40
34.0
 40
34.0
 40
34.0
 40
35.0
 40
35.0
 40
35.0
 40
36.0
 40
36.0
 40
36.0
 40
37.0
 40
37.0
 40
37.0
 40
38.0
 40
38.0
 40
38.0
 40
39.0
 40
39.0
 40
39.0
 40
40.0
 40
40.0
 40
40.0
 40
40.0
 10
88.30864933773186
 20
-114.0380004597718
 10
88.30864933773186
 20
-114.0380004597718
 10
88.30864933773186
 20
-113.9022636976529
 10
88.30864933773186
 20
-113.9022636976529
 10
88.30864933773186
 20
-113.9022636976529
 10
88.40166691583362
 20
-113.9022636976529
 10
88.40166691583362
 20
-113.9022636976529
 10
88.40166691583362
 20
-113.9022636976529
 10
88.40166691583362
 20
-114.0380004597718
 10
88.40166691583362
 20
-114.0380004597718
 10
88.40166691583362
 20
-114.0380004597718
 10
88.77563203075748
 20
-114.0380004597718
 10
88.77563203075748
 20
-114.0380004597718
 10
88.77563203075748
 20
-114.0380004597718
 10
88.77563203075748
 20
-114.1232665730317
 10
88.77563203075748
 20
-114.1232665730317
 10
88.77563203075748
 20
-114.1232665730317
 10
88.40166691583362
 20
-114.1232665730317
 10
88.40166691583362
 20
-114.1232665730317
 10
88.40166691583362
 20
-114.1232665730317
 10
88.40166691583362
 20
-114.2531466728256
 10
88.40166691583362
 20
-114.2531466728256
 10
88.40166691583362
 20
-114.2531466728256
 10
88.8550414816925
 20
-114.2531466728256
 10
88.8550414816925
 20
-114.2531466728256
 10
88.8550414816925
 20
-114.2531466728256
 10
88.8550414816925
 20
-114.3363457287944
 10
88.8550414816925
 20
-114.3363457287944
 10
88.8550414816925
 20
-114.3363457287944
 10
88.40166691583362
 20
-114.3363457287944
 10
88.40166691583362
 20
-114.3363457287944
 10
88.40166691583362
 20
-114.3363457287944
 10
88.40166691583362
 20
-114.4643310260714
 10
88.40166691583362
 20
-114.4643310260714
 10
88.40166691583362
 20
-114.4643310260714
 10
88.78527829811618
 20
-114.4643310260714
 10
88.78527829811618
 20
-114.4643310260714
 10
88.78527829811618
 20
-114.4643310260714
 10
88.78527829811618
 20
-114.6851616466759
 10
88.78527829811618
 20
-114.6851616466759
 10
88.78527829811618
 20
-114.7859306896195
 10
88.70397404466429
 20
-114.7936821544613
 10
88.6593600581303
 20
-114.7936821544613
 10
88.6593600581303
 20
-114.7936821544613
 10
88.53154701562754
 20
-114.7936821544613
 10
88.53154701562754
 20
-114.7936821544613
 10
88.53154701562754
 20
-114.7936821544613
 10
88.51208222613587
 20
-114.7006645763596
 10
88.51208222613587
 20
-114.7006645763596
 10
88.51208222613587
 20
-114.7006645763596
 10
88.64575193096357
 20
-114.7065212386845
 10
88.64575193096357
 20
-114.7065212386845
 10
88.68261445265574
 20
-114.7084160412014
 10
88.69226072001445
 20
-114.6987697738427
 10
88.69226072001445
 20
-114.6562228445998
 10
88.69226072001445
 20
-114.6562228445998
 10
88.69226072001445
 20
-114.5495971393314
 10
88.69226072001445
 20
-114.5495971393314
 10
88.69226072001445
 20
-114.5495971393314
 10
88.40166691583362
 20
-114.5495971393314
 10
88.40166691583362
 20
-114.5495971393314
 10
88.40166691583362
 20
-114.5495971393314
 10
88.40166691583362
 20
-114.8227932113117
 10
88.40166691583362
 20
-114.8227932113117
 10
88.40166691583362
 20
-114.8227932113117
 10
88.30864933773186
 20
-114.8227932113117
 10
88.30864933773186
 20
-114.8227932113117
 10
88.30864933773186
 20
-114.8227932113117
 10
88.30864933773186
 20
-114.5495971393314
 10
88.30864933773186
 20
-114.5495971393314
 10
88.30864933773186
 20
-114.5495971393314
 10
88.0256347436186
 20
-114.5495971393314
 10
88.0256347436186
 20
-114.5495971393314
 10
88.0256347436186
 20
-114.5495971393314
 10
88.0256347436186
 20
-114.8227932113117
 10
88.0256347436186
 20
-114.8227932113117
 10
88.0256347436186
 20
-114.8227932113117
 10
87.91900903835011
 20
-114.8227932113117
 10
87.91900903835011
 20
-114.8227932113117
 10
87.91900903835011
 20
-114.8227932113117
 10
87.91900903835011
 20
-114.4643310260714
 10
87.91900903835011
 20
-114.4643310260714
 10
87.91900903835011
 20
-114.4643310260714
 10
88.30864933773186
 20
-114.4643310260714
 10
88.30864933773186
 20
-114.4643310260714
 10
88.30864933773186
 20
-114.4643310260714
 10
88.30864933773186
 20
-114.3363457287944
 10
88.30864933773186
 20
-114.3363457287944
 10
88.30864933773186
 20
-114.3363457287944
 10
87.83391517986445
 20
-114.3363457287944
 10
87.83391517986445
 20
-114.3363457287944
 10
87.83391517986445
 20
-114.3363457287944
 10
87.83391517986445
 20
-114.2531466728256
 10
87.83391517986445
 20
-114.2531466728256
 10
87.83391517986445
 20
-114.2531466728256
 10
88.30864933773186
 20
-114.2531466728256
 10
88.30864933773186
 20
-114.2531466728256
 10
88.30864933773186
 20
-114.2531466728256
 10
88.30864933773186
 20
-114.1232665730317
 10
88.30864933773186
 20
-114.1232665730317
 10
88.30864933773186
 20
-114.1232665730317
 10
88.03149140594353
 20
-114.1232665730317
 10
88.03149140594353
 20
-114.1232665730317
 10
87.98308781437576
 20
-114.183211234475
 10
87.96551782740099
 20
-114.1987141641587
 10
87.93657902532489
 20
-114.2221408134584
 10
87.93657902532489
 20
-114.2221408134584
 10
87.86285398194055
 20
-114.1697753620826
 10
87.86285398194055
 20
-114.1697753620826
 10
87.93451196803373
 20
-114.1000121785062
 10
88.00823701141809
 20
-114.0011379380796
 10
88.04888913814403
 20
-113.9100151624947
 10
88.04888913814403
 20
-113.9100151624947
 10
88.1477633785707
 20
-113.9332695570202
 10
88.1477633785707
 20
-113.9332695570202
 10
88.13605005392085
 20
-113.9642754163874
 10
88.13226044888708
 20
-113.9759887410373
 10
88.09350312467802
 20
-114.0380004597718
 10
88.09350312467802
 20
-114.0380004597718
 10
88.30864933773186
 20
-114.0380004597718
 10
88.30864933773186
 20
-114.0380004597718
 97
        0
 97
        0
 92
        1
 93
        4
 72
     1
 10
89.10308835663048
 20
-113.9837402058791
 11
89.10308835663048
 21
-114.5843926037324
 72
     1
 10
89.10308835663048
 20
-114.5843926037324
 11
89.00042451117004
 21
-114.5843926037324
 72
     1
 10
89.00042451117004
 20
-114.5843926037324
 11
89.00042451117004
 21
-113.9837402058791
 72
     1
 10
89.00042451117004
 20
-113.9837402058791
 11
89.10308835663048
 21
-113.9837402058791
 97
        0
 92
        1
 93
        1
 72
     4
 94
        3
 73
     0
 74
     1
 95
       29
 96
       25
 40
0.0
 40
0.0
 40
0.0
 40
0.0
 40
1.0
 40
1.0
 40
1.0
 40
2.0
 40
2.0
 40
2.0
 40
3.0
 40
3.0
 40
3.0
 40
4.0
 40
4.0
 40
4.0
 40
5.0
 40
5.0
 40
5.0
 40
6.0
 40
6.0
 40
6.0
 40
7.0
 40
7.0
 40
7.0
 40
8.0
 40
8.0
 40
8.0
 40
8.0
 10
89.47515866903747
 20
-113.9022636976529
 10
89.47515866903747
 20
-113.9022636976529
 10
89.47515866903747
 20
-114.7065212386845
 10
89.47515866903747
 20
-114.7065212386845
 10
89.47515866903747
 20
-114.7859306896195
 10
89.4286498799866
 20
-114.8227932113117
 10
89.34338376672666
 20
-114.8227932113117
 10
89.34338376672666
 20
-114.8227932113117
 10
89.13805607580576
 20
-114.8227932113117
 10
89.13805607580576
 20
-114.8227932113117
 10
89.13805607580576
 20
-114.8227932113117
 10
89.1185912863141
 20
-114.7123779010094
 10
89.1185912863141
 20
-114.7123779010094
 10
89.1185912863141
 20
-114.7123779010094
 10
89.32409123200927
 20
-114.7182345633343
 10
89.32409123200927
 20
-114.7182345633343
 10
89.36474335873521
 20
-114.7201293658512
 10
89.36870521854324
 20
-114.7123779010094
 10
89.36870521854324
 20
-114.6717257742835
 10
89.36870521854324
 20
-114.6717257742835
 10
89.36870521854324
 20
-113.9022636976529
 10
89.36870521854324
 20
-113.9022636976529
 10
89.36870521854324
 20
-113.9022636976529
 10
89.47515866903747
 20
-113.9022636976529
 10
89.47515866903747
 20
-113.9022636976529
 97
        0
 97
        0
 75
     2
 76
     1
 98
        0
  0
ENDBLK
  5
44
330
41
100
AcDbEntity
  8
0
100
AcDbBlockEnd
  0
BLOCK
  5
76
330
74
100
AcDbEntity
  8
0
100
AcDbBlockBegin
  2
block 3
 70
     0
 10
0.0
 20
0.0
 30
0.0
  3
block 3
  1

  0
POLYLINE
  5
78
330
74
100
AcDbEntity
  8
_U+30EC_U+30A4_U+30E4_U+30FC 1
370
     0
100
AcDb2dPolyline
 66
     1
 10
0.0
 20
0.0
 30
0.0
  0
VERTEX
  5
79
330
78
100
AcDbEntity
  8
_U+30EC_U+30A4_U+30E4_U+30FC 1
370
     0
100
AcDbVertex
100
AcDb2dVertex
 10
91.38735891812539
 20
-131.1399712128747
 30
0.0
  0
VERTEX
  5
7A
330
78
100
AcDbEntity
  8
_U+30EC_U+30A4_U+30E4_U+30FC 1
370
     0
100
AcDbVertex
100
AcDb2dVertex
 10
90.6828368913918
 20
-131.1399712128747
 30
0.0
  0
VERTEX
  5
7B
330
78
100
AcDbEntity
  8
_U+30EC_U+30A4_U+30E4_U+30FC 1
370
     0
100
AcDbVertex
100
AcDb2dVertex
 10
90.6828368913918
 20
-131.8889349713681
 30
0.0
  0
VERTEX
  5
7C
330
78
100
AcDbEntity
  8
_U+30EC_U+30A4_U+30E4_U+30FC 1
370
     0
100
AcDbVertex
100
AcDb2dVertex
 10
91.38735891812539
 20
-131.8889349713681
 30
0.0
  0
VERTEX
  5
7D
330
78
100
AcDbEntity
  8
_U+30EC_U+30A4_U+30E4_U+30FC 1
370
     0
100
AcDbVertex
100
AcDb2dVertex
 10
91.38735891812539
 20
-132.1235459739136
 30
0.0
  0
VERTEX
  5
7E
330
78
100
AcDbEntity
  8
_U+30EC_U+30A4_U+30E4_U+30FC 1
370
     0
100
AcDbVertex
100
AcDb2dVertex
 10
89.84292261208789
 20
-132.1235459739136
 30
0.0
  0
VERTEX
  5
7F
330
78
100
AcDbEntity
  8
_U+30EC_U+30A4_U+30E4_U+30FC 1
370
     0
100
AcDbVertex
100
AcDb2dVertex
 10
89.84292261208789
 20
-131.8889349713681
 30
0.0
  0
VERTEX
  5
80
330
78
100
AcDbEntity
  8
_U+30EC_U+30A4_U+30E4_U+30FC 1
370
     0
100
AcDbVertex
100
AcDb2dVertex
 10
90.47113577382319
 20
-131.8889349713681
 30
0.0
  0
VERTEX
  5
81
330
78
100
AcDbEntity
  8
_U+30EC_U+30A4_U+30E4_U+30FC 1
370
     0
100
AcDbVertex
100
AcDb2dVertex
 10
90.47113577382319
 20
-131.1399712128747
 30
0.0
  0
VERTEX
  5
82
330
78
100
AcDbEntity
  8
_U+30EC_U+30A4_U+30E4_U+30FC 1
370
     0
100
AcDbVertex
100
AcDb2dVertex
 10
89.84292261208789
 20
-131.1399712128747
 30
0.0
  0
VERTEX
  5
83
330
78
100
AcDbEntity
  8
_U+30EC_U+30A4_U+30E4_U+30FC 1
370
     0
100
AcDbVertex
100
AcDb2dVertex
 10
89.84292261208789
 20
-130.9050157007807
 30
0.0
  0
VERTEX
  5
84
330
78
100
AcDbEntity
  8
_U+30EC_U+30A4_U+30E4_U+30FC 1
370
     0
100
AcDbVertex
100
AcDb2dVertex
 10
91.38735891812539
 20
-130.9050157007807
 30
0.0
  0
VERTEX
  5
85
330
78
100
AcDbEntity
  8
_U+30EC_U+30A4_U+30E4_U+30FC 1
370
     0
100
AcDbVertex
100
AcDb2dVertex
 10
91.38735891812539
 20
-131.1399712128747
 30
0.0
  0
SEQEND
  5
86
330
78
100
AcDbEntity
  8
_U+30EC_U+30A4_U+30E4_U+30FC 1
370
     0
  0
HATCH
  5
87
330
74
100
AcDbEntity
  8
_U+30EC_U+30A4_U+30E4_U+30FC 1
 62
   179
420
  2234388
100
AcDbHatch
 10
0.0
 20
0.0
 30
0.0
210
0.0
220
0.0
230
1.0
  2
SOLID
 70
     1
 71
     0
 91
        1
 92
        1
 93
       12
 72
     1
 10
91.38735891812539
 20
-131.1399712128747
 11
90.6828368913918
 21
-131.1399712128747
 72
     1
 10
90.6828368913918
 20
-131.1399712128747
 11
90.6828368913918
 21
-131.8889349713681
 72
     1
 10
90.6828368913918
 20
-131.8889349713681
 11
91.38735891812539
 21
-131.8889349713681
 72
     1
 10
91.38735891812539
 20
-131.8889349713681
 11
91.38735891812539
 21
-132.1235459739136
 72
     1
 10
91.38735891812539
 20
-132.1235459739136
 11
89.84292261208789
 21
-132.1235459739136
 72
     1
 10
89.84292261208789
 20
-132.1235459739136
 11
89.84292261208789
 21
-131.8889349713681
 72
     1
 10
89.84292261208789
 20
-131.8889349713681
 11
90.47113577382319
 21
-131.8889349713681
 72
     1
 10
90.47113577382319
 20
-131.8889349713681
 11
90.47113577382319
 21
-131.1399712128747
 72
     1
 10
90.47113577382319
 20
-131.1399712128747
 11
89.84292261208789
 21
-131.1399712128747
 72
     1
 10
89.84292261208789
 20
-131.1399712128747
 11
89.84292261208789
 21
-130.9050157007807
 72
     1
 10
89.84292261208789
 20
-130.9050157007807
 11
91.38735891812539
 21
-130.9050157007807
 72
     1
 10
91.38735891812539
 20
-130.9050157007807
 11
91.38735891812539
 21
-131.1399712128747
 97
        0
 75
     2
 76
     1
 98
        0
  0
ENDBLK
  5
77
330
74
100
AcDbEntity
  8
0
100
AcDbBlockEnd
  0
BLOCK
  5
99
330
97
100
AcDbEntity
  8
0
100
AcDbBlockBegin
  2
block 4
 70
     0
 10
0.0
 20
0.0
 30
0.0
  3
block 4
  1

  0
POLYLINE
  5
9B
330
97
100
AcDbEntity
  8
_U+30EC_U+30A4_U+30E4_U+30FC 1
370
     0
100
AcDb2dPolyline
 66
     1
 10
0.0
 20
0.0
 30
0.0
  0
VERTEX
  5
9C
330
9B
100
AcDbEntity
  8
_U+30EC_U+30A4_U+30E4_U+30FC 1
370
     0
100
AcDbVertex
100
AcDb2dVertex
 10
109.8441134708029
 20
-131.1399712128747
 30
0.0
  0
VERTEX
  5
9D
330
9B
100
AcDbEntity
  8
_U+30EC_U+30A4_U+30E4_U+30FC 1
370
     0
100
AcDbVertex
100
AcDb2dVertex
 10
109.1395914440693
 20
-131.1399712128747
 30
0.0
  0
VERTEX
  5
9E
330
9B
100
AcDbEntity
  8
_U+30EC_U+30A4_U+30E4_U+30FC 1
370
     0
100
AcDbVertex
100
AcDb2dVertex
 10
109.1395914440693
 20
-131.8889349713681
 30
0.0
  0
VERTEX
  5
9F
330
9B
100
AcDbEntity
  8
_U+30EC_U+30A4_U+30E4_U+30FC 1
370
     0
100
AcDbVertex
100
AcDb2dVertex
 10
109.8441134708029
 20
-131.8889349713681
 30
0.0
  0
VERTEX
  5
A0
330
9B
100
AcDbEntity
  8
_U+30EC_U+30A4_U+30E4_U+30FC 1
370
     0
100
AcDbVertex
100
AcDb2dVertex
 10
109.8441134708029
 20
-132.1235459739136
 30
0.0
  0
VERTEX
  5
A1
330
9B
100
AcDbEntity
  8
_U+30EC_U+30A4_U+30E4_U+30FC 1
370
     0
100
AcDbVertex
100
AcDb2dVertex
 10
108.2996771647654
 20
-132.1235459739136
 30
0.0
  0
VERTEX
  5
A2
330
9B
100
AcDbEntity
  8
_U+30EC_U+30A4_U+30E4_U+30FC 1
370
     0
100
AcDbVertex
100
AcDb2dVertex
 10
108.2996771647654
 20
-131.8889349713681
 30
0.0
  0
VERTEX
  5
A3
330
9B
100
AcDbEntity
  8
_U+30EC_U+30A4_U+30E4_U+30FC 1
370
     0
100
AcDbVertex
100
AcDb2dVertex
 10
108.9280625812749
 20
-131.8889349713681
 30
0.0
  0
VERTEX
  5
A4
330
9B
100
AcDbEntity
  8
_U+30EC_U+30A4_U+30E4_U+30FC 1
370
     0
100
AcDbVertex
100
AcDb2dVertex
 10
108.9280625812749
 20
-131.1399712128747
 30
0.0
  0
VERTEX
  5
A5
330
9B
100
AcDbEntity
  8
_U+30EC_U+30A4_U+30E4_U+30FC 1
370
     0
100
AcDbVertex
100
AcDb2dVertex
 10
108.2996771647654
 20
-131.1399712128747
 30
0.0
  0
VERTEX
  5
A6
330
9B
100
AcDbEntity
  8
_U+30EC_U+30A4_U+30E4_U+30FC 1
370
     0
100
AcDbVertex
100
AcDb2dVertex
 10
108.2996771647654
 20
-130.9050157007807
 30
0.0
  0
VERTEX
  5
A7
330
9B
100
AcDbEntity
  8
_U+30EC_U+30A4_U+30E4_U+30FC 1
370
     0
100
AcDbVertex
100
AcDb2dVertex
 10
109.8441134708029
 20
-130.9050157007807
 30
0.0
  0
VERTEX
  5
A8
330
9B
100
AcDbEntity
  8
_U+30EC_U+30A4_U+30E4_U+30FC 1
370
     0
100
AcDbVertex
100
AcDb2dVertex
 10
109.8441134708029
 20
-131.1399712128747
 30
0.0
  0
SEQEND
  5
A9
330
9B
100
AcDbEntity
  8
_U+30EC_U+30A4_U+30E4_U+30FC 1
370
     0
  0
HATCH
  5
AA
330
97
100
AcDbEntity
  8
_U+30EC_U+30A4_U+30E4_U+30FC 1
 62
   179
420
  2234388
100
AcDbHatch
 10
0.0
 20
0.0
 30
0.0
210
0.0
220
0.0
230
1.0
  2
SOLID
 70
     1
 71
     0
 91
        1
 92
        1
 93
       12
 72
     1
 10
109.8441134708029
 20
-131.1399712128747
 11
109.1395914440693
 21
-131.1399712128747
 72
     1
 10
109.1395914440693
 20
-131.1399712128747
 11
109.1395914440693
 21
-131.8889349713681
 72
     1
 10
109.1395914440693
 20
-131.8889349713681
 11
109.8441134708029
 21
-131.8889349713681
 72
     1
 10
109.8441134708029
 20
-131.8889349713681
 11
109.8441134708029
 21
-132.1235459739136
 72
     1
 10
109.8441134708029
 20
-132.1235459739136
 11
108.2996771647654
 21
-132.1235459739136
 72
     1
 10
108.2996771647654
 20
-132.1235459739136
 11
108.2996771647654
 21
-131.8889349713681
 72
     1
 10
108.2996771647654
 20
-131.8889349713681
 11
108.9280625812749
 21
-131.8889349713681
 72
     1
 10
108.9280625812749
 20
-131.8889349713681
 11
108.9280625812749
 21
-131.1399712128747
 72
     1
 10
108.9280625812749
 20
-131.1399712128747
 11
108.2996771647654
 21
-131.1399712128747
 72
     1
 10
108.2996771647654
 20
-131.1399712128747
 11
108.2996771647654
 21
-130.9050157007807
 72
     1
 10
108.2996771647654
 20
-130.9050157007807
 11
109.8441134708029
 21
-130.9050157007807
 72
     1
 10
109.8441134708029
 20
-130.9050157007807
 11
109.8441134708029
 21
-131.1399712128747
 97
        0
 75
     2
 76
     1
 98
        0
  0
ENDBLK
  5
9A
330
97
100
AcDbEntity
  8
0
100
AcDbBlockEnd
  0
BLOCK
  5
BC
330
BA
100
AcDbEntity
  8
0
100
AcDbBlockBegin
  2
block 5
 70
     0
 10
0.0
 20
0.0
 30
0.0
  3
block 5
  1

  0
POLYLINE
  5
BE
330
BA
100
AcDbEntity
  8
_U+30EC_U+30A4_U+30E4_U+30FC 1
370
     0
100
AcDb2dPolyline
 66
     1
 10
0.0
 20
0.0
 30
0.0
  0
VERTEX
  5
BF
330
BE
100
AcDbEntity
  8
_U+30EC_U+30A4_U+30E4_U+30FC 1
370
     0
100
AcDbVertex
100
AcDb2dVertex
 10
80.31620006672651
 20
-141.768435294419
 30
0.0
  0
VERTEX
  5
C0
330
BE
100
AcDbEntity
  8
_U+30EC_U+30A4_U+30E4_U+30FC 1
370
     0
100
AcDbVertex
100
AcDb2dVertex
 10
80.04541556158587
 20
-141.768435294419
 30
0.0
  0
VERTEX
  5
C1
330
BE
100
AcDbEntity
  8
_U+30EC_U+30A4_U+30E4_U+30FC 1
370
     0
100
AcDbVertex
100
AcDb2dVertex
 10
79.75981714585866
 20
-140.4947834935221
 30
0.0
  0
VERTEX
  5
C2
330
BE
100
AcDbEntity
  8
_U+30EC_U+30A4_U+30E4_U+30FC 1
370
     0
100
AcDbVertex
100
AcDb2dVertex
 10
79.4762857874226
 20
-141.768435294419
 30
0.0
  0
VERTEX
  5
C3
330
BE
100
AcDbEntity
  8
_U+30EC_U+30A4_U+30E4_U+30FC 1
370
     0
100
AcDbVertex
100
AcDb2dVertex
 10
79.20550128228196
 20
-141.768435294419
 30
0.0
  0
VERTEX
  5
C4
330
BE
100
AcDbEntity
  8
_U+30EC_U+30A4_U+30E4_U+30FC 1
370
     0
100
AcDbVertex
100
AcDb2dVertex
 10
78.82257891909644
 20
-140.2239989883815
 30
0.0
  0
VERTEX
  5
C5
330
BE
100
AcDbEntity
  8
_U+30EC_U+30A4_U+30E4_U+30FC 1
370
     0
100
AcDbVertex
100
AcDb2dVertex
 10
79.05529511912506
 20
-140.2239989883815
 30
0.0
  0
VERTEX
  5
C6
330
BE
100
AcDbEntity
  8
_U+30EC_U+30A4_U+30E4_U+30FC 1
370
     0
100
AcDbVertex
100
AcDb2dVertex
 10
79.34089353485228
 20
-141.4742241399787
 30
0.0
  0
VERTEX
  5
C7
330
BE
100
AcDbEntity
  8
_U+30EC_U+30A4_U+30E4_U+30FC 1
370
     0
100
AcDbVertex
100
AcDb2dVertex
 10
79.62011852393178
 20
-140.2239989883815
 30
0.0
  0
VERTEX
  5
C8
330
BE
100
AcDbEntity
  8
_U+30EC_U+30A4_U+30E4_U+30FC 1
370
     0
100
AcDbVertex
100
AcDb2dVertex
 10
79.89934351301127
 20
-140.2239989883815
 30
0.0
  0
VERTEX
  5
C9
330
BE
100
AcDbEntity
  8
_U+30EC_U+30A4_U+30E4_U+30FC 1
370
     0
100
AcDbVertex
100
AcDb2dVertex
 10
80.17874075686504
 20
-141.4742241399787
 30
0.0
  0
VERTEX
  5
CA
330
BE
100
AcDbEntity
  8
_U+30EC_U+30A4_U+30E4_U+30FC 1
370
     0
100
AcDbVertex
100
AcDb2dVertex
 10
80.4664062298834
 20
-140.2239989883815
 30
0.0
  0
VERTEX
  5
CB
330
BE
100
AcDbEntity
  8
_U+30EC_U+30A4_U+30E4_U+30FC 1
370
     0
100
AcDbVertex
100
AcDb2dVertex
 10
80.69912242991202
 20
-140.2239989883815
 30
0.0
  0
VERTEX
  5
CC
330
BE
100
AcDbEntity
  8
_U+30EC_U+30A4_U+30E4_U+30FC 1
370
     0
100
AcDbVertex
100
AcDb2dVertex
 10
80.31620006672651
 20
-141.768435294419
 30
0.0
  0
SEQEND
  5
CD
330
BE
100
AcDbEntity
  8
_U+30EC_U+30A4_U+30E4_U+30FC 1
370
     0
  0
HATCH
  5
CE
330
BA
100
AcDbEntity
  8
_U+30EC_U+30A4_U+30E4_U+30FC 1
 62
   179
420
  2234388
100
AcDbHatch
 10
0.0
 20
0.0
 30
0.0
210
0.0
220
0.0
230
1.0
  2
SOLID
 70
     1
 71
     0
 91
        1
 92
        1
 93
       13
 72
     1
 10
80.31620006672651
 20
-141.768435294419
 11
80.04541556158587
 21
-141.768435294419
 72
     1
 10
80.04541556158587
 20
-141.768435294419
 11
79.75981714585866
 21
-140.4947834935221
 72
     1
 10
79.75981714585866
 20
-140.4947834935221
 11
79.4762857874226
 21
-141.768435294419
 72
     1
 10
79.4762857874226
 20
-141.768435294419
 11
79.20550128228196
 21
-141.768435294419
 72
     1
 10
79.20550128228196
 20
-141.768435294419
 11
78.82257891909644
 21
-140.2239989883815
 72
     1
 10
78.82257891909644
 20
-140.2239989883815
 11
79.05529511912506
 21
-140.2239989883815
 72
     1
 10
79.05529511912506
 20
-140.2239989883815
 11
79.34089353485228
 21
-141.4742241399787
 72
     1
 10
79.34089353485228
 20
-141.4742241399787
 11
79.62011852393178
 21
-140.2239989883815
 72
     1
 10
79.62011852393178
 20
-140.2239989883815
 11
79.89934351301127
 21
-140.2239989883815
 72
     1
 10
79.89934351301127
 20
-140.2239989883815
 11
80.17874075686504
 21
-141.4742241399787
 72
     1
 10
80.17874075686504
 20
-141.4742241399787
 11
80.4664062298834
 21
-140.2239989883815
 72
     1
 10
80.4664062298834
 20
-140.2239989883815
 11
80.69912242991202
 21
-140.2239989883815
 72
     1
 10
80.69912242991202
 20
-140.2239989883815
 11
80.31620006672651
 21
-141.768435294419
 97
        0
 75
     2
 76
     1
 98
        0
  0
ENDBLK
  5
BD
330
BA
100
AcDbEntity
  8
0
100
AcDbBlockEnd
  0
BLOCK
  5
E0
330
DE
100
AcDbEntity
  8
0
100
AcDbBlockBegin
  2
block 6
 70
     0
 10
0.0
 20
0.0
 30
0.0
  3
block 6
  1

  0
POLYLINE
  5
E2
330
DE
100
AcDbEntity
  8
_U+30EC_U+30A4_U+30E4_U+30FC 1
370
     0
100
AcDb2dPolyline
 66
     1
 10
0.0
 20
0.0
 30
0.0
  0
VERTEX
  5
E3
330
E2
100
AcDbEntity
  8
_U+30EC_U+30A4_U+30E4_U+30FC 1
370
     0
100
AcDbVertex
100
AcDb2dVertex
 10
99.33278263575708
 20
-119.0593993842976
 30
0.0
  0
VERTEX
  5
E4
330
E2
100
AcDbEntity
  8
_U+30EC_U+30A4_U+30E4_U+30FC 1
370
     0
100
AcDbVertex
100
AcDb2dVertex
 10
99.33278263575708
 20
-120.3921345727666
 30
0.0
  0
VERTEX
  5
E5
330
E2
100
AcDbEntity
  8
_U+30EC_U+30A4_U+30E4_U+30FC 1
370
     0
100
AcDbVertex
100
AcDb2dVertex
 10
99.09817163321158
 20
-120.3921345727666
 30
0.0
  0
VERTEX
  5
E6
330
E2
100
AcDbEntity
  8
_U+30EC_U+30A4_U+30E4_U+30FC 1
370
     0
100
AcDbVertex
100
AcDb2dVertex
 10
99.09817163321158
 20
-119.0593993842976
 30
0.0
  0
VERTEX
  5
E7
330
E2
100
AcDbEntity
  8
_U+30EC_U+30A4_U+30E4_U+30FC 1
370
     0
100
AcDbVertex
100
AcDb2dVertex
 10
98.59449867326805
 20
-119.0593993842976
 30
0.0
  0
VERTEX
  5
E8
330
E2
100
AcDbEntity
  8
_U+30EC_U+30A4_U+30E4_U+30FC 1
370
     0
100
AcDbVertex
100
AcDb2dVertex
 10
98.59449867326805
 20
-118.8478705215033
 30
0.0
  0
VERTEX
  5
E9
330
E2
100
AcDbEntity
  8
_U+30EC_U+30A4_U+30E4_U+30FC 1
370
     0
100
AcDbVertex
100
AcDb2dVertex
 10
99.83852265299176
 20
-118.8478705215033
 30
0.0
  0
VERTEX
  5
EA
330
E2
100
AcDbEntity
  8
_U+30EC_U+30A4_U+30E4_U+30FC 1
370
     0
100
AcDbVertex
100
AcDb2dVertex
 10
99.83852265299176
 20
-119.0593993842976
 30
0.0
  0
VERTEX
  5
EB
330
E2
100
AcDbEntity
  8
_U+30EC_U+30A4_U+30E4_U+30FC 1
370
     0
100
AcDbVertex
100
AcDb2dVertex
 10
99.33278263575708
 20
-119.0593993842976
 30
0.0
  0
SEQEND
  5
EC
330
E2
100
AcDbEntity
  8
_U+30EC_U+30A4_U+30E4_U+30FC 1
370
     0
  0
HATCH
  5
ED
330
DE
100
AcDbEntity
  8
_U+30EC_U+30A4_U+30E4_U+30FC 1
 62
   179
420
  2234388
100
AcDbHatch
 10
0.0
 20
0.0
 30
0.0
210
0.0
220
0.0
230
1.0
  2
SOLID
 70
     1
 71
     0
 91
        1
 92
        1
 93
        8
 72
     1
 10
99.33278263575708
 20
-119.0593993842976
 11
99.33278263575708
 21
-120.3921345727666
 72
     1
 10
99.33278263575708
 20
-120.3921345727666
 11
99.09817163321158
 21
-120.3921345727666
 72
     1
 10
99.09817163321158
 20
-120.3921345727666
 11
99.09817163321158
 21
-119.0593993842976
 72
     1
 10
99.09817163321158
 20
-119.0593993842976
 11
98.59449867326805
 21
-119.0593993842976
 72
     1
 10
98.59449867326805
 20
-119.0593993842976
 11
98.59449867326805
 21
-118.8478705215033
 72
     1
 10
98.59449867326805
 20
-118.8478705215033
 11
99.83852265299176
 21
-118.8478705215033
 72
     1
 10
99.83852265299176
 20
-118.8478705215033
 11
99.83852265299176
 21
-119.0593993842976
 72
     1
 10
99.83852265299176
 20
-119.0593993842976
 11
99.33278263575708
 21
-119.0593993842976
 97
        0
 75
     2
 76
     1
 98
        0
  0
ENDBLK
  5
E1
330
DE
100
AcDbEntity
  8
0
100
AcDbBlockEnd
  0
ENDSEC
  0
SECTION
  2
ENTITIES
  0
INSERT
  5
42
330
1F
100
AcDbEntity
  8
_U+30EC_U+30A4_U+30E4_U+30FC 1
100
AcDbBlockReference
  2
block 2
 10
0.0
 20
0.0
 30
0.0
  0
SPLINE
  5
66
330
1F
100
AcDbEntity
  8
_U+30EC_U+30A4_U+30E4_U+30FC 1
 62
   179
420
  2234388
370
     9
100
AcDbSpline
210
0.0
220
0.0
230
1.0
 70
    11
 71
     3
 72
    17
 73
    13
 74
     0
 42
0.0000000001
 43
0.0000000001
 12
1.0
 22
0.0
 32
0.0
 13
1.0
 23
0.0
 33
0.0
 40
0.0
 40
0.0
 40
0.0
 40
0.0
 40
1.0
 40
1.0
 40
1.0
 40
2.0
 40
2.0
 40
2.0
 40
3.0
 40
3.0
 40
3.0
 40
4.0
 40
4.0
 40
4.0
 40
4.0
 10
91.860014878678
 20
-139.2652366318501
 30
0.0
 10
91.860014878678
 20
-139.2100974651977
 30
0.0
 10
91.81524737982011
 20
-139.1653299652085
 30
0.0
 10
91.76010821456016
 20
-139.1653299652085
 30
0.0
 10
91.70500432707709
 20
-139.1653299652085
 30
0.0
 10
91.66020155044232
 20
-139.2100974651977
 30
0.0
 10
91.66020155044232
 20
-139.2652366318501
 30
0.0
 10
91.66020155044232
 20
-139.3203405207256
 30
0.0
 10
91.70500432707709
 20
-139.3651432984924
 30
0.0
 10
91.76010821456016
 20
-139.3651432984924
 30
0.0
 10
91.81524737982011
 20
-139.3651432984924
 30
0.0
 10
91.860014878678
 20
-139.3203405207256
 30
0.0
 10
91.860014878678
 20
-139.2652366318501
 30
0.0
  0
SPLINE
  5
67
330
1F
100
AcDbEntity
  8
_U+30EC_U+30A4_U+30E4_U+30FC 1
 62
   179
420
  2234388
370
     9
100
AcDbSpline
210
0.0
220
0.0
230
1.0
 70
    11
 71
     3
 72
    17
 73
    13
 74
     0
 42
0.0000000001
 43
0.0000000001
 12
1.0
 22
0.0
 32
0.0
 13
1.0
 23
0.0
 33
0.0
 40
0.0
 40
0.0
 40
0.0
 40
0.0
 40
1.0
 40
1.0
 40
1.0
 40
2.0
 40
2.0
 40
2.0
 40
3.0
 40
3.0
 40
3.0
 40
4.0
 40
4.0
 40
4.0
 40
4.0
 10
91.860014878678
 20
-124.7650116354754
 30
0.0
 10
91.860014878678
 20
-124.7098724688227
 30
0.0
 10
91.81524737982011
 20
-124.665069691056
 30
0.0
 10
91.76010821456016
 20
-124.665069691056
 30
0.0
 10
91.70500432707709
 20
-124.665069691056
 30
0.0
 10
91.66020155044232
 20
-124.7098724688227
 30
0.0
 10
91.66020155044232
 20
-124.7650116354754
 30
0.0
 10
91.66020155044232
 20
-124.8201155243507
 30
0.0
 10
91.70500432707709
 20
-124.8649183021171
 30
0.0
 10
91.76010821456016
 20
-124.8649183021171
 30
0.0
 10
91.81524737982011
 20
-124.8649183021171
 30
0.0
 10
91.860014878678
 20
-124.8201155243507
 30
0.0
 10
91.860014878678
 20
-124.7650116354754
 30
0.0
  0
POLYLINE
  5
68
330
1F
100
AcDbEntity
  8
_U+30EC_U+30A4_U+30E4_U+30FC 1
 62
   179
420
  2234388
370
     9
100
AcDb2dPolyline
 66
     1
 10
0.0
 20
0.0
 30
0.0
  0
VERTEX
  5
69
330
68
100
AcDbEntity
  8
_U+30EC_U+30A4_U+30E4_U+30FC 1
 62
   179
420
  2234388
370
     9
100
AcDbVertex
100
AcDb2dVertex
 10
91.76010821456016
 20
-124.7650116354754
 30
0.0
  0
VERTEX
  5
6A
330
68
100
AcDbEntity
  8
_U+30EC_U+30A4_U+30E4_U+30FC 1
 62
   179
420
  2234388
370
     9
100
AcDbVertex
100
AcDb2dVertex
 10
91.76010821456016
 20
-139.2652366318501
 30
0.0
  0
SEQEND
  5
6B
330
68
100
AcDbEntity
  8
_U+30EC_U+30A4_U+30E4_U+30FC 1
 62
   179
420
  2234388
370
     9
  0
POLYLINE
  5
6C
330
1F
100
AcDbEntity
  8
_U+30EC_U+30A4_U+30E4_U+30FC 1
 62
   179
420
  2234388
370
     9
100
AcDb2dPolyline
 66
     1
 10
0.0
 20
0.0
 30
0.0
  0
VERTEX
  5
6D
330
6C
100
AcDbEntity
  8
_U+30EC_U+30A4_U+30E4_U+30FC 1
 62
   179
420
  2234388
370
     9
100
AcDbVertex
100
AcDb2dVertex
 10
90.30010214069691
 20
-124.7650116354754
 30
0.0
  0
VERTEX
  5
6E
330
6C
100
AcDbEntity
  8
_U+30EC_U+30A4_U+30E4_U+30FC 1
 62
   179
420
  2234388
370
     9
100
AcDbVertex
100
AcDb2dVertex
 10
92.76023318904485
 20
-124.7650116354754
 30
0.0
  0
SEQEND
  5
6F
330
6C
100
AcDbEntity
  8
_U+30EC_U+30A4_U+30E4_U+30FC 1
 62
   179
420
  2234388
370
     9
  0
POLYLINE
  5
70
330
1F
100
AcDbEntity
  8
_U+30EC_U+30A4_U+30E4_U+30FC 1
 62
   179
420
  2234388
370
     9
100
AcDb2dPolyline
 66
     1
 10
0.0
 20
0.0
 30
0.0
  0
VERTEX
  5
71
330
70
100
AcDbEntity
  8
_U+30EC_U+30A4_U+30E4_U+30FC 1
 62
   179
420
  2234388
370
     9
100
AcDbVertex
100
AcDb2dVertex
 10
90.30010214069691
 20
-139.2652366318501
 30
0.0
  0
VERTEX
  5
72
330
70
100
AcDbEntity
  8
_U+30EC_U+30A4_U+30E4_U+30FC 1
 62
   179
420
  2234388
370
     9
100
AcDbVertex
100
AcDb2dVertex
 10
92.76023318904485
 20
-139.2652366318501
 30
0.0
  0
SEQEND
  5
73
330
70
100
AcDbEntity
  8
_U+30EC_U+30A4_U+30E4_U+30FC 1
 62
   179
420
  2234388
370
     9
  0
INSERT
  5
75
330
1F
100
AcDbEntity
  8
_U+30EC_U+30A4_U+30E4_U+30FC 1
100
AcDbBlockReference
  2
block 3
 10
0.0
 20
0.0
 30
0.0
  0
SPLINE
  5
88
330
1F
100
AcDbEntity
  8
_U+30EC_U+30A4_U+30E4_U+30FC 1
 62
   179
420
  2234388
370
     9
100
AcDbSpline
210
0.0
220
0.0
230
1.0
 70
    11
 71
     3
 72
    17
 73
    13
 74
     0
 42
0.0000000001
 43
0.0000000001
 12
1.0
 22
0.0
 32
0.0
 13
1.0
 23
0.0
 33
0.0
 40
0.0
 40
0.0
 40
0.0
 40
0.0
 40
1.0
 40
1.0
 40
1.0
 40
2.0
 40
2.0
 40
2.0
 40
3.0
 40
3.0
 40
3.0
 40
4.0
 40
4.0
 40
4.0
 40
4.0
 10
91.79524719927353
 20
-139.2652366318501
 30
0.0
 10
91.79524719927353
 20
-139.2845335762899
 30
0.0
 10
91.77975793628109
 20
-139.3003732985084
 30
0.0
 10
91.76010821456016
 20
-139.3003732985084
 30
0.0
 10
91.74081127060802
 20
-139.3003732985084
 30
0.0
 10
91.72497154878991
 20
-139.2845335762899
 30
0.0
 10
91.72497154878991
 20
-139.2652366318501
 30
0.0
 10
91.72497154878991
 20
-139.2459396874109
 30
0.0
 10
91.74081127060802
 20
-139.2300999651924
 30
0.0
 10
91.76010821456016
 20
-139.2300999651924
 30
0.0
 10
91.77975793628109
 20
-139.2300999651924
 30
0.0
 10
91.79524719927353
 20
-139.2459396874109
 30
0.0
 10
91.79524719927353
 20
-139.2652366318501
 30
0.0
  0
SPLINE
  5
89
330
1F
100
AcDbEntity
  8
_U+30EC_U+30A4_U+30E4_U+30FC 1
 62
   179
420
  2234388
370
     9
100
AcDbSpline
210
0.0
220
0.0
230
1.0
 70
    11
 71
     3
 72
    17
 73
    13
 74
     0
 42
0.0000000001
 43
0.0000000001
 12
1.0
 22
0.0
 32
0.0
 13
1.0
 23
0.0
 33
0.0
 40
0.0
 40
0.0
 40
0.0
 40
0.0
 40
1.0
 40
1.0
 40
1.0
 40
2.0
 40
2.0
 40
2.0
 40
3.0
 40
3.0
 40
3.0
 40
4.0
 40
4.0
 40
4.0
 40
4.0
 10
110.3167860835322
 20
-139.2652366318501
 30
0.0
 10
110.3167860835322
 20
-139.2100974651977
 30
0.0
 10
110.2719833057655
 20
-139.1653299652085
 30
0.0
 10
110.2168766325777
 20
-139.1653299652085
 30
0.0
 10
110.1617374673177
 20
-139.1653299652085
 30
0.0
 10
110.1169699684598
 20
-139.2100974651977
 30
0.0
 10
110.1169699684598
 20
-139.2652366318501
 30
0.0
 10
110.1169699684598
 20
-139.3203405207256
 30
0.0
 10
110.1617374673177
 20
-139.3651432984924
 30
0.0
 10
110.2168766325777
 20
-139.3651432984924
 30
0.0
 10
110.2719833057655
 20
-139.3651432984924
 30
0.0
 10
110.3167860835322
 20
-139.3203405207256
 30
0.0
 10
110.3167860835322
 20
-139.2652366318501
 30
0.0
  0
SPLINE
  5
8A
330
1F
100
AcDbEntity
  8
_U+30EC_U+30A4_U+30E4_U+30FC 1
 62
   179
420
  2234388
370
     9
100
AcDbSpline
210
0.0
220
0.0
230
1.0
 70
    11
 71
     3
 72
    17
 73
    13
 74
     0
 42
0.0000000001
 43
0.0000000001
 12
1.0
 22
0.0
 32
0.0
 13
1.0
 23
0.0
 33
0.0
 40
0.0
 40
0.0
 40
0.0
 40
0.0
 40
1.0
 40
1.0
 40
1.0
 40
2.0
 40
2.0
 40
2.0
 40
3.0
 40
3.0
 40
3.0
 40
4.0
 40
4.0
 40
4.0
 40
4.0
 10
110.3167860835322
 20
-124.7650116354754
 30
0.0
 10
110.3167860835322
 20
-124.7098724688227
 30
0.0
 10
110.2719833057655
 20
-124.665069691056
 30
0.0
 10
110.2168766325777
 20
-124.665069691056
 30
0.0
 10
110.1617374673177
 20
-124.665069691056
 30
0.0
 10
110.1169699684598
 20
-124.7098724688227
 30
0.0
 10
110.1169699684598
 20
-124.7650116354754
 30
0.0
 10
110.1169699684598
 20
-124.8201155243507
 30
0.0
 10
110.1617374673177
 20
-124.8649183021171
 30
0.0
 10
110.2168766325777
 20
-124.8649183021171
 30
0.0
 10
110.2719833057655
 20
-124.8649183021171
 30
0.0
 10
110.3167860835322
 20
-124.8201155243507
 30
0.0
 10
110.3167860835322
 20
-124.7650116354754
 30
0.0
  0
POLYLINE
  5
8B
330
1F
100
AcDbEntity
  8
_U+30EC_U+30A4_U+30E4_U+30FC 1
 62
   179
420
  2234388
370
     9
100
AcDb2dPolyline
 66
     1
 10
0.0
 20
0.0
 30
0.0
  0
VERTEX
  5
8C
330
8B
100
AcDbEntity
  8
_U+30EC_U+30A4_U+30E4_U+30FC 1
 62
   179
420
  2234388
370
     9
100
AcDbVertex
100
AcDb2dVertex
 10
110.2168766325777
 20
-124.7650116354754
 30
0.0
  0
VERTEX
  5
8D
330
8B
100
AcDbEntity
  8
_U+30EC_U+30A4_U+30E4_U+30FC 1
 62
   179
420
  2234388
370
     9
100
AcDbVertex
100
AcDb2dVertex
 10
110.2168766325777
 20
-139.2652366318501
 30
0.0
  0
SEQEND
  5
8E
330
8B
100
AcDbEntity
  8
_U+30EC_U+30A4_U+30E4_U+30FC 1
 62
   179
420
  2234388
370
     9
  0
POLYLINE
  5
8F
330
1F
100
AcDbEntity
  8
_U+30EC_U+30A4_U+30E4_U+30FC 1
 62
   179
420
  2234388
370
     9
100
AcDb2dPolyline
 66
     1
 10
0.0
 20
0.0
 30
0.0
  0
VERTEX
  5
90
330
8F
100
AcDbEntity
  8
_U+30EC_U+30A4_U+30E4_U+30FC 1
 62
   179
420
  2234388
370
     9
100
AcDbVertex
100
AcDb2dVertex
 10
108.7568352809375
 20
-124.7650116354754
 30
0.0
  0
VERTEX
  5
91
330
8F
100
AcDbEntity
  8
_U+30EC_U+30A4_U+30E4_U+30FC 1
 62
   179
420
  2234388
370
     9
100
AcDbVertex
100
AcDb2dVertex
 10
111.2169663292855
 20
-124.7650116354754
 30
0.0
  0
SEQEND
  5
92
330
8F
100
AcDbEntity
  8
_U+30EC_U+30A4_U+30E4_U+30FC 1
 62
   179
420
  2234388
370
     9
  0
POLYLINE
  5
93
330
1F
100
AcDbEntity
  8
_U+30EC_U+30A4_U+30E4_U+30FC 1
 62
   179
420
  2234388
370
     9
100
AcDb2dPolyline
 66
     1
 10
0.0
 20
0.0
 30
0.0
  0
VERTEX
  5
94
330
93
100
AcDbEntity
  8
_U+30EC_U+30A4_U+30E4_U+30FC 1
 62
   179
420
  2234388
370
     9
100
AcDbVertex
100
AcDb2dVertex
 10
108.7568352809375
 20
-139.2652366318501
 30
0.0
  0
VERTEX
  5
95
330
93
100
AcDbEntity
  8
_U+30EC_U+30A4_U+30E4_U+30FC 1
 62
   179
420
  2234388
370
     9
100
AcDbVertex
100
AcDb2dVertex
 10
111.2169663292855
 20
-139.2652366318501
 30
0.0
  0
SEQEND
  5
96
330
93
100
AcDbEntity
  8
_U+30EC_U+30A4_U+30E4_U+30FC 1
 62
   179
420
  2234388
370
     9
  0
INSERT
  5
98
330
1F
100
AcDbEntity
  8
_U+30EC_U+30A4_U+30E4_U+30FC 1
100
AcDbBlockReference
  2
block 4
 10
0.0
 20
0.0
 30
0.0
  0
SPLINE
  5
AB
330
1F
100
AcDbEntity
  8
_U+30EC_U+30A4_U+30E4_U+30FC 1
 62
   179
420
  2234388
370
     9
100
AcDbSpline
210
0.0
220
0.0
230
1.0
 70
    11
 71
     3
 72
    17
 73
    13
 74
     0
 42
0.0000000001
 43
0.0000000001
 12
1.0
 22
0.0
 32
0.0
 13
1.0
 23
0.0
 33
0.0
 40
0.0
 40
0.0
 40
0.0
 40
0.0
 40
1.0
 40
1.0
 40
1.0
 40
2.0
 40
2.0
 40
2.0
 40
3.0
 40
3.0
 40
3.0
 40
4.0
 40
4.0
 40
4.0
 40
4.0
 10
110.2520132983479
 20
-139.2652366318501
 30
0.0
 10
110.2520132983479
 20
-139.2845335762899
 30
0.0
 10
110.2364910765217
 20
-139.3003732985084
 30
0.0
 10
110.2168766325777
 20
-139.3003732985084
 30
0.0
 10
110.1975796886255
 20
-139.3003732985084
 30
0.0
 10
110.1817399668074
 20
-139.2845335762899
 30
0.0
 10
110.1817399668074
 20
-139.2652366318501
 30
0.0
 10
110.1817399668074
 20
-139.2459396874109
 30
0.0
 10
110.1975796886255
 20
-139.2300999651924
 30
0.0
 10
110.2168766325777
 20
-139.2300999651924
 30
0.0
 10
110.2364910765217
 20
-139.2300999651924
 30
0.0
 10
110.2520132983479
 20
-139.2459396874109
 30
0.0
 10
110.2520132983479
 20
-139.2652366318501
 30
0.0
  0
SPLINE
  5
AC
330
1F
100
AcDbEntity
  8
_U+30EC_U+30A4_U+30E4_U+30FC 1
 62
   179
420
  2234388
370
     9
100
AcDbSpline
210
0.0
220
0.0
230
1.0
 70
    11
 71
     3
 72
    17
 73
    13
 74
     0
 42
0.0000000001
 43
0.0000000001
 12
1.0
 22
0.0
 32
0.0
 13
1.0
 23
0.0
 33
0.0
 40
0.0
 40
0.0
 40
0.0
 40
0.0
 40
1.0
 40
1.0
 40
1.0
 40
2.0
 40
2.0
 40
2.0
 40
3.0
 40
3.0
 40
3.0
 40
4.0
 40
4.0
 40
4.0
 40
4.0
 10
89.86050576302306
 20
-142.2376716311073
 30
0.0
 10
89.86050576302306
 20
-142.1818621866769
 30
0.0
 10
89.8157029863883
 20
-142.1377649644656
 30
0.0
 10
89.76024632113645
 20
-142.1377649644656
 30
0.0
 10
89.7051071558765
 20
-142.1377649644656
 30
0.0
 10
89.66033965701861
 20
-142.1818621866769
 30
0.0
 10
89.66033965701861
 20
-142.2376716311073
 30
0.0
 10
89.66033965701861
 20
-142.2927755199822
 30
0.0
 10
89.7051071558765
 20
-142.3375782977489
 30
0.0
 10
89.76024632113645
 20
-142.3375782977489
 30
0.0
 10
89.8157029863883
 20
-142.3375782977489
 30
0.0
 10
89.86050576302306
 20
-142.2927755199822
 30
0.0
 10
89.86050576302306
 20
-142.2376716311073
 30
0.0
  0
SPLINE
  5
AD
330
1F
100
AcDbEntity
  8
_U+30EC_U+30A4_U+30E4_U+30FC 1
 62
   179
420
  2234388
370
     9
100
AcDbSpline
210
0.0
220
0.0
230
1.0
 70
    11
 71
     3
 72
    17
 73
    13
 74
     0
 42
0.0000000001
 43
0.0000000001
 12
1.0
 22
0.0
 32
0.0
 13
1.0
 23
0.0
 33
0.0
 40
0.0
 40
0.0
 40
0.0
 40
0.0
 40
1.0
 40
1.0
 40
1.0
 40
2.0
 40
2.0
 40
2.0
 40
3.0
 40
3.0
 40
3.0
 40
4.0
 40
4.0
 40
4.0
 40
4.0
 10
69.85998182883449
 20
-142.2376716311073
 30
0.0
 10
69.85998182883449
 20
-142.1818621866769
 30
0.0
 10
69.81521432997661
 20
-142.1377649644656
 30
0.0
 10
69.76007516471665
 20
-142.1377649644656
 30
0.0
 10
69.70497127723358
 20
-142.1377649644656
 30
0.0
 10
69.66016850059881
 20
-142.1818621866769
 30
0.0
 10
69.66016850059881
 20
-142.2376716311073
 30
0.0
 10
69.66016850059881
 20
-142.2927755199822
 30
0.0
 10
69.70497127723358
 20
-142.3375782977489
 30
0.0
 10
69.76007516471665
 20
-142.3375782977489
 30
0.0
 10
69.81521432997661
 20
-142.3375782977489
 30
0.0
 10
69.85998182883449
 20
-142.2927755199822
 30
0.0
 10
69.85998182883449
 20
-142.2376716311073
 30
0.0
  0
POLYLINE
  5
AE
330
1F
100
AcDbEntity
  8
_U+30EC_U+30A4_U+30E4_U+30FC 1
 62
   179
420
  2234388
370
     9
100
AcDb2dPolyline
 66
     1
 10
0.0
 20
0.0
 30
0.0
  0
VERTEX
  5
AF
330
AE
100
AcDbEntity
  8
_U+30EC_U+30A4_U+30E4_U+30FC 1
 62
   179
420
  2234388
370
     9
100
AcDbVertex
100
AcDb2dVertex
 10
69.76007516471665
 20
-142.2376716311073
 30
0.0
  0
VERTEX
  5
B0
330
AE
100
AcDbEntity
  8
_U+30EC_U+30A4_U+30E4_U+30FC 1
 62
   179
420
  2234388
370
     9
100
AcDbVertex
100
AcDb2dVertex
 10
89.76024632113645
 20
-142.2376716311073
 30
0.0
  0
SEQEND
  5
B1
330
AE
100
AcDbEntity
  8
_U+30EC_U+30A4_U+30E4_U+30FC 1
 62
   179
420
  2234388
370
     9
  0
POLYLINE
  5
B2
330
1F
100
AcDbEntity
  8
_U+30EC_U+30A4_U+30E4_U+30FC 1
 62
   179
420
  2234388
370
     9
100
AcDb2dPolyline
 66
     1
 10
0.0
 20
0.0
 30
0.0
  0
VERTEX
  5
B3
330
B2
100
AcDbEntity
  8
_U+30EC_U+30A4_U+30E4_U+30FC 1
 62
   179
420
  2234388
370
     9
100
AcDbVertex
100
AcDb2dVertex
 10
69.76007516471665
 20
-143.2642902419614
 30
0.0
  0
VERTEX
  5
B4
330
B2
100
AcDbEntity
  8
_U+30EC_U+30A4_U+30E4_U+30FC 1
 62
   179
420
  2234388
370
     9
100
AcDbVertex
100
AcDb2dVertex
 10
69.76007516471665
 20
-140.8038063536878
 30
0.0
  0
SEQEND
  5
B5
330
B2
100
AcDbEntity
  8
_U+30EC_U+30A4_U+30E4_U+30FC 1
 62
   179
420
  2234388
370
     9
  0
POLYLINE
  5
B6
330
1F
100
AcDbEntity
  8
_U+30EC_U+30A4_U+30E4_U+30FC 1
 62
   179
420
  2234388
370
     9
100
AcDb2dPolyline
 66
     1
 10
0.0
 20
0.0
 30
0.0
  0
VERTEX
  5
B7
330
B6
100
AcDbEntity
  8
_U+30EC_U+30A4_U+30E4_U+30FC 1
 62
   179
420
  2234388
370
     9
100
AcDbVertex
100
AcDb2dVertex
 10
89.76024632113645
 20
-143.2642902419614
 30
0.0
  0
VERTEX
  5
B8
330
B6
100
AcDbEntity
  8
_U+30EC_U+30A4_U+30E4_U+30FC 1
 62
   179
420
  2234388
370
     9
100
AcDbVertex
100
AcDb2dVertex
 10
89.76024632113645
 20
-140.8038063536878
 30
0.0
  0
SEQEND
  5
B9
330
B6
100
AcDbEntity
  8
_U+30EC_U+30A4_U+30E4_U+30FC 1
 62
   179
420
  2234388
370
     9
  0
INSERT
  5
BB
330
1F
100
AcDbEntity
  8
_U+30EC_U+30A4_U+30E4_U+30FC 1
100
AcDbBlockReference
  2
block 5
 10
0.0
 20
0.0
 30
0.0
  0
SPLINE
  5
CF
330
1F
100
AcDbEntity
  8
_U+30EC_U+30A4_U+30E4_U+30FC 1
 62
   179
420
  2234388
370
     9
100
AcDbSpline
210
0.0
220
0.0
230
1.0
 70
    11
 71
     3
 72
    17
 73
    13
 74
     0
 42
0.0000000001
 43
0.0000000001
 12
1.0
 22
0.0
 32
0.0
 13
1.0
 23
0.0
 33
0.0
 40
0.0
 40
0.0
 40
0.0
 40
0.0
 40
1.0
 40
1.0
 40
1.0
 40
2.0
 40
2.0
 40
2.0
 40
3.0
 40
3.0
 40
3.0
 40
4.0
 40
4.0
 40
4.0
 40
4.0
 10
89.79573576467548
 20
-142.2376716311073
 30
0.0
 10
89.79573576467548
 20
-142.256933297769
 30
0.0
 10
89.77986076508049
 20
-142.272808297765
 30
0.0
 10
89.76024632113645
 20
-142.272808297765
 30
0.0
 10
89.74094937718431
 20
-142.272808297765
 30
0.0
 10
89.7251096553662
 20
-142.256933297769
 30
0.0
 10
89.7251096553662
 20
-142.2376716311073
 30
0.0
 10
89.7251096553662
 20
-142.2176691311119
 30
0.0
 10
89.74094937718431
 20
-142.201829408894
 30
0.0
 10
89.76024632113645
 20
-142.201829408894
 30
0.0
 10
89.77986076508049
 20
-142.201829408894
 30
0.0
 10
89.79573576467548
 20
-142.2176691311119
 30
0.0
 10
89.79573576467548
 20
-142.2376716311073
 30
0.0
  0
SPLINE
  5
D0
330
1F
100
AcDbEntity
  8
_U+30EC_U+30A4_U+30E4_U+30FC 1
 62
   179
420
  2234388
370
     9
100
AcDbSpline
210
0.0
220
0.0
230
1.0
 70
    11
 71
     3
 72
    17
 73
    13
 74
     0
 42
0.0000000001
 43
0.0000000001
 12
1.0
 22
0.0
 32
0.0
 13
1.0
 23
0.0
 33
0.0
 40
0.0
 40
0.0
 40
0.0
 40
0.0
 40
1.0
 40
1.0
 40
1.0
 40
2.0
 40
2.0
 40
2.0
 40
3.0
 40
3.0
 40
3.0
 40
4.0
 40
4.0
 40
4.0
 40
4.0
 10
100.0665782804222
 20
-120.7652524698086
 30
0.0
 10
100.0665782804222
 20
-120.7094430253781
 30
0.0
 10
100.0218107815644
 20
-120.6653458031669
 30
0.0
 10
99.9666716163044
 20
-120.6653458031669
 30
0.0
 10
99.91156772882132
 20
-120.6653458031669
 30
0.0
 10
99.86676495218657
 20
-120.7094430253781
 30
0.0
 10
99.86676495218657
 20
-120.7652524698086
 30
0.0
 10
99.86676495218657
 20
-120.8203563586838
 30
0.0
 10
99.91156772882132
 20
-120.8651591364505
 30
0.0
 10
99.9666716163044
 20
-120.8651591364505
 30
0.0
 10
100.0218107815644
 20
-120.8651591364505
 30
0.0
 10
100.0665782804222
 20
-120.8203563586838
 30
0.0
 10
100.0665782804222
 20
-120.7652524698086
 30
0.0
  0
SPLINE
  5
D1
330
1F
100
AcDbEntity
  8
_U+30EC_U+30A4_U+30E4_U+30FC 1
 62
   179
420
  2234388
370
     9
100
AcDbSpline
210
0.0
220
0.0
230
1.0
 70
    11
 71
     3
 72
    17
 73
    13
 74
     0
 42
0.0000000001
 43
0.0000000001
 12
1.0
 22
0.0
 32
0.0
 13
1.0
 23
0.0
 33
0.0
 40
0.0
 40
0.0
 40
0.0
 40
0.0
 40
1.0
 40
1.0
 40
1.0
 40
2.0
 40
2.0
 40
2.0
 40
3.0
 40
3.0
 40
3.0
 40
4.0
 40
4.0
 40
4.0
 40
4.0
 10
98.56660248535647
 20
-120.7652524698086
 30
0.0
 10
98.56660248535647
 20
-120.7094430253781
 30
0.0
 10
98.52179970872172
 20
-120.6653458031669
 30
0.0
 10
98.46669582123864
 20
-120.6653458031669
 30
0.0
 10
98.41155665597869
 20
-120.6653458031669
 30
0.0
 10
98.36679164207466
 20
-120.7094430253781
 30
0.0
 10
98.36679164207466
 20
-120.7652524698086
 30
0.0
 10
98.36679164207466
 20
-120.8203563586838
 30
0.0
 10
98.41155665597869
 20
-120.8651591364505
 30
0.0
 10
98.46669582123864
 20
-120.8651591364505
 30
0.0
 10
98.52179970872172
 20
-120.8651591364505
 30
0.0
 10
98.56660248535647
 20
-120.8203563586838
 30
0.0
 10
98.56660248535647
 20
-120.7652524698086
 30
0.0
  0
POLYLINE
  5
D2
330
1F
100
AcDbEntity
  8
_U+30EC_U+30A4_U+30E4_U+30FC 1
 62
   179
420
  2234388
370
     9
100
AcDb2dPolyline
 66
     1
 10
0.0
 20
0.0
 30
0.0
  0
VERTEX
  5
D3
330
D2
100
AcDbEntity
  8
_U+30EC_U+30A4_U+30E4_U+30FC 1
 62
   179
420
  2234388
370
     9
100
AcDbVertex
100
AcDb2dVertex
 10
97.46657084675395
 20
-120.7652524698086
 30
0.0
  0
VERTEX
  5
D4
330
D2
100
AcDbEntity
  8
_U+30EC_U+30A4_U+30E4_U+30FC 1
 62
   179
420
  2234388
370
     9
100
AcDbVertex
100
AcDb2dVertex
 10
100.9667965907891
 20
-120.7652524698086
 30
0.0
  0
SEQEND
  5
D5
330
D2
100
AcDbEntity
  8
_U+30EC_U+30A4_U+30E4_U+30FC 1
 62
   179
420
  2234388
370
     9
  0
POLYLINE
  5
D6
330
1F
100
AcDbEntity
  8
_U+30EC_U+30A4_U+30E4_U+30FC 1
 62
   179
420
  2234388
370
     9
100
AcDb2dPolyline
 66
     1
 10
0.0
 20
0.0
 30
0.0
  0
VERTEX
  5
D7
330
D6
100
AcDbEntity
  8
_U+30EC_U+30A4_U+30E4_U+30FC 1
 62
   179
420
  2234388
370
     9
100
AcDbVertex
100
AcDb2dVertex
 10
98.46669582123864
 20
-122.2252585805548
 30
0.0
  0
VERTEX
  5
D8
330
D6
100
AcDbEntity
  8
_U+30EC_U+30A4_U+30E4_U+30FC 1
 62
   179
420
  2234388
370
     9
100
AcDbVertex
100
AcDb2dVertex
 10
98.46669582123864
 20
-119.7647746922811
 30
0.0
  0
SEQEND
  5
D9
330
D6
100
AcDbEntity
  8
_U+30EC_U+30A4_U+30E4_U+30FC 1
 62
   179
420
  2234388
370
     9
  0
POLYLINE
  5
DA
330
1F
100
AcDbEntity
  8
_U+30EC_U+30A4_U+30E4_U+30FC 1
 62
   179
420
  2234388
370
     9
100
AcDb2dPolyline
 66
     1
 10
0.0
 20
0.0
 30
0.0
  0
VERTEX
  5
DB
330
DA
100
AcDbEntity
  8
_U+30EC_U+30A4_U+30E4_U+30FC 1
 62
   179
420
  2234388
370
     9
100
AcDbVertex
100
AcDb2dVertex
 10
99.9666716163044
 20
-122.2252585805548
 30
0.0
  0
VERTEX
  5
DC
330
DA
100
AcDbEntity
  8
_U+30EC_U+30A4_U+30E4_U+30FC 1
 62
   179
420
  2234388
370
     9
100
AcDbVertex
100
AcDb2dVertex
 10
99.9666716163044
 20
-119.7647746922811
 30
0.0
  0
SEQEND
  5
DD
330
DA
100
AcDbEntity
  8
_U+30EC_U+30A4_U+30E4_U+30FC 1
 62
   179
420
  2234388
370
     9
  0
INSERT
  5
DF
330
1F
100
AcDbEntity
  8
_U+30EC_U+30A4_U+30E4_U+30FC 1
100
AcDbBlockReference
  2
block 6
 10
0.0
 20
0.0
 30
0.0
  0
SPLINE
  5
EE
330
1F
100
AcDbEntity
  8
_U+30EC_U+30A4_U+30E4_U+30FC 1
 62
   179
420
  2234388
370
     9
100
AcDbSpline
210
0.0
220
0.0
230
1.0
 70
    11
 71
     3
 72
    17
 73
    13
 74
     0
 42
0.0000000001
 43
0.0000000001
 12
1.0
 22
0.0
 32
0.0
 13
1.0
 23
0.0
 33
0.0
 40
0.0
 40
0.0
 40
0.0
 40
0.0
 40
1.0
 40
1.0
 40
1.0
 40
2.0
 40
2.0
 40
2.0
 40
3.0
 40
3.0
 40
3.0
 40
4.0
 40
4.0
 40
4.0
 40
4.0
 10
101.0019332565593
 20
-120.7652524698086
 30
0.0
 10
101.0019332565593
 20
-120.7845141364705
 30
0.0
 10
100.9860935347412
 20
-120.8003891364666
 30
0.0
 10
100.9667965907891
 20
-120.8003891364666
 30
0.0
 10
100.9471468690682
 20
-120.8003891364666
 30
0.0
 10
100.9313071472501
 20
-120.7845141364705
 30
0.0
 10
100.9313071472501
 20
-120.7652524698086
 30
0.0
 10
100.9313071472501
 20
-120.7452499698138
 30
0.0
 10
100.9471468690682
 20
-120.7294102475953
 30
0.0
 10
100.9667965907891
 20
-120.7294102475953
 30
0.0
 10
100.9860935347412
 20
-120.7294102475953
 30
0.0
 10
101.0019332565593
 20
-120.7452499698138
 30
0.0
 10
101.0019332565593
 20
-120.7652524698086
 30
0.0
  0
SPLINE
  5
EF
330
1F
100
AcDbEntity
  8
_U+30EC_U+30A4_U+30E4_U+30FC 1
 62
   179
420
  2234388
370
    25
100
AcDbSpline
210
0.0
220
0.0
230
1.0
 70
    11
 71
     3
 72
    35
 73
    31
 74
     0
 42
0.0000000001
 43
0.0000000001
 12
1.0
 22
0.0
 32
0.0
 13
1.0
 23
0.0
 33
0.0
 40
0.0
 40
0.0
 40
0.0
 40
0.0
 40
1.0
 40
1.0
 40
1.0
 40
2.0
 40
2.0
 40
2.0
 40
3.0
 40
3.0
 40
3.0
 40
4.0
 40
4.0
 40
4.0
 40
5.0
 40
5.0
 40
5.0
 40
6.0
 40
6.0
 40
6.0
 40
7.0
 40
7.0
 40
7.0
 40
8.0
 40
8.0
 40
8.0
 40
9.0
 40
9.0
 40
9.0
 40
10.0
 40
10.0
 40
10.0
 40
10.0
 10
87.76003164994395
 20
-124.7650116354754
 30
0.0
 10
87.76003164994395
 20
-124.7650116354754
 30
0.0
 10
87.76003164994395
 20
-137.2650219101283
 30
0.0
 10
87.76003164994395
 20
-137.2650219101283
 30
0.0
 10
87.76003164994395
 20
-137.2650219101283
 30
0.0
 10
89.36026688689633
 20
-137.2650219101283
 30
0.0
 10
89.36026688689633
 20
-137.2650219101283
 30
0.0
 10
89.58110577015115
 20
-137.2650219101283
 30
0.0
 10
89.76024632113645
 20
-137.4441624656388
 30
0.0
 10
89.76024632113645
 20
-137.6649660766951
 30
0.0
 10
89.76024632113645
 20
-137.6649660766951
 30
0.0
 10
89.76024632113645
 20
-139.2652366318501
 30
0.0
 10
89.76024632113645
 20
-139.2652366318501
 30
0.0
 10
89.76024632113645
 20
-139.2652366318501
 30
0.0
 10
69.76007516471665
 20
-139.2652366318501
 30
0.0
 10
69.76007516471665
 20
-139.2652366318501
 30
0.0
 10
69.76007516471665
 20
-139.2652366318501
 30
0.0
 10
69.76007516471665
 20
-137.6649660766951
 30
0.0
 10
69.76007516471665
 20
-137.6649660766951
 30
0.0
 10
69.76007516471665
 20
-137.4441624656388
 30
0.0
 10
69.93921571570196
 20
-137.2650219101283
 30
0.0
 10
70.16040737672556
 20
-137.2650219101283
 30
0.0
 10
70.16040737672556
 20
-137.2650219101283
 30
0.0
 10
71.76029164872658
 20
-137.2650219101283
 30
0.0
 10
71.76029164872658
 20
-137.2650219101283
 30
0.0
 10
71.76029164872658
 20
-137.2650219101283
 30
0.0
 10
71.76029164872658
 20
-124.7650116354754
 30
0.0
 10
71.76029164872658
 20
-124.7650116354754
 30
0.0
 10
71.76029164872658
 20
-124.7650116354754
 30
0.0
 10
87.76003164994395
 20
-124.7650116354754
 30
0.0
 10
87.76003164994395
 20
-124.7650116354754
 30
0.0
  0
HATCH
  5
F0
330
1F
100
AcDbEntity
  8
_U+30EC_U+30A4_U+30E4_U+30FC 1
 62
     9
420
 12566464
100
AcDbHatch
 10
0.0
 20
0.0
 30
0.0
210
0.0
220
0.0
230
1.0
  2
SOLID
 70
     1
 71
     0
 91
        1
 92
        1
 93
        1
 72
     4
 94
        3
 73
     0
 74
     1
 95
       35
 96
       31
 40
0.0
 40
0.0
 40
0.0
 40
0.0
 40
1.0
 40
1.0
 40
1.0
 40
2.0
 40
2.0
 40
2.0
 40
3.0
 40
3.0
 40
3.0
 40
4.0
 40
4.0
 40
4.0
 40
5.0
 40
5.0
 40
5.0
 40
6.0
 40
6.0
 40
6.0
 40
7.0
 40
7.0
 40
7.0
 40
8.0
 40
8.0
 40
8.0
 40
9.0
 40
9.0
 40
9.0
 40
10.0
 40
10.0
 40
10.0
 40
10.0
 10
87.76003164994395
 20
-124.7650116354754
 10
87.76003164994395
 20
-124.7650116354754
 10
87.76003164994395
 20
-137.2650219101283
 10
87.76003164994395
 20
-137.2650219101283
 10
87.76003164994395
 20
-137.2650219101283
 10
89.36026688689633
 20
-137.2650219101283
 10
89.36026688689633
 20
-137.2650219101283
 10
89.58110577015115
 20
-137.2650219101283
 10
89.76024632113645
 20
-137.4441624656388
 10
89.76024632113645
 20
-137.6649660766951
 10
89.76024632113645
 20
-137.6649660766951
 10
89.76024632113645
 20
-139.2652366318501
 10
89.76024632113645
 20
-139.2652366318501
 10
89.76024632113645
 20
-139.2652366318501
 10
69.76007516471665
 20
-139.2652366318501
 10
69.76007516471665
 20
-139.2652366318501
 10
69.76007516471665
 20
-139.2652366318501
 10
69.76007516471665
 20
-137.6649660766951
 10
69.76007516471665
 20
-137.6649660766951
 10
69.76007516471665
 20
-137.4441624656388
 10
69.93921571570196
 20
-137.2650219101283
 10
70.16040737672556
 20
-137.2650219101283
 10
70.16040737672556
 20
-137.2650219101283
 10
71.76029164872658
 20
-137.2650219101283
 10
71.76029164872658
 20
-137.2650219101283
 10
71.76029164872658
 20
-137.2650219101283
 10
71.76029164872658
 20
-124.7650116354754
 10
71.76029164872658
 20
-124.7650116354754
 10
71.76029164872658
 20
-124.7650116354754
 10
87.76003164994395
 20
-124.7650116354754
 10
87.76003164994395
 20
-124.7650116354754
 97
        0
 97
        0
 75
     2
 76
     1
 98
        0
  0
SPLINE
  5
F1
330
1F
100
AcDbEntity
  8
_U+30EC_U+30A4_U+30E4_U+30FC 1
  6
AI-Linetype-1
 62
   179
420
  2234388
370
    25
100
AcDbSpline
210
0.0
220
0.0
230
1.0
 70
    11
 71
     3
 72
    17
 73
    13
 74
     0
 42
0.0000000001
 43
0.0000000001
 12
1.0
 22
0.0
 32
0.0
 13
1.0
 23
0.0
 33
0.0
 40
0.0
 40
0.0
 40
0.0
 40
0.0
 40
1.0
 40
1.0
 40
1.0
 40
2.0
 40
2.0
 40
2.0
 40
3.0
 40
3.0
 40
3.0
 40
4.0
 40
4.0
 40
4.0
 40
4.0
 10
78.31218439097862
 20
-128.3124038568107
 30
0.0
 10
78.31218439097862
 20
-127.5131505236773
 30
0.0
 10
78.95984909667753
 20
-126.8653094127281
 30
0.0
 10
79.7591376873971
 20
-126.8653094127281
 30
0.0
 10
80.55839100033978
 20
-126.8653094127281
 30
0.0
 10
81.2060557060387
 20
-127.5131505236773
 30
0.0
 10
81.2060557060387
 20
-128.3124038568107
 30
0.0
 10
81.2060557060387
 20
-129.1111633010553
 30
0.0
 10
80.55839100033978
 20
-129.7591808008934
 30
0.0
 10
79.7591376873971
 20
-129.7591808008934
 30
0.0
 10
78.95984909667753
 20
-129.7591808008934
 30
0.0
 10
78.31218439097862
 20
-129.1111633010553
 30
0.0
 10
78.31218439097862
 20
-128.3124038568107
 30
0.0
  0
SPLINE
  5
F3
330
1F
100
AcDbEntity
  8
_U+30EC_U+30A4_U+30E4_U+30FC 1
  6
AI-Linetype-2
 62
   179
420
  2234388
370
    25
100
AcDbSpline
210
0.0
220
0.0
230
1.0
 70
    11
 71
     3
 72
    17
 73
    13
 74
     0
 42
0.0000000001
 43
0.0000000001
 12
1.0
 22
0.0
 32
0.0
 13
1.0
 23
0.0
 33
0.0
 40
0.0
 40
0.0
 40
0.0
 40
0.0
 40
1.0
 40
1.0
 40
1.0
 40
2.0
 40
2.0
 40
2.0
 40
3.0
 40
3.0
 40
3.0
 40
4.0
 40
4.0
 40
4.0
 40
4.0
 10
74.80783114704879
 20
-134.7132391329881
 30
0.0
 10
74.80783114704879
 20
-133.9139505220768
 30
0.0
 10
75.4554958527477
 20
-133.2659330222388
 30
0.0
 10
76.25478444346726
 20
-133.2659330222388
 30
0.0
 10
77.05403775640994
 20
-133.2659330222388
 30
0.0
 10
77.70170246210887
 20
-133.9139505220768
 30
0.0
 10
77.70170246210887
 20
-134.7132391329881
 30
0.0
 10
77.70170246210887
 20
-135.5121396883441
 30
0.0
 10
77.05403775640994
 20
-136.1598044104044
 30
0.0
 10
76.25478444346726
 20
-136.1598044104044
 30
0.0
 10
75.4554958527477
 20
-136.1598044104044
 30
0.0
 10
74.80783114704879
 20
-135.5121396883441
 30
0.0
 10
74.80783114704879
 20
-134.7132391329881
 30
0.0
  0
SPLINE
  5
F5
330
1F
100
AcDbEntity
  8
_U+30EC_U+30A4_U+30E4_U+30FC 1
  6
AI-Linetype-3
 62
   179
420
  2234388
370
    25
100
AcDbSpline
210
0.0
220
0.0
230
1.0
 70
    11
 71
     3
 72
    17
 73
    13
 74
     0
 42
0.0000000001
 43
0.0000000001
 12
1.0
 22
0.0
 32
0.0
 13
1.0
 23
0.0
 33
0.0
 40
0.0
 40
0.0
 40
0.0
 40
0.0
 40
1.0
 40
1.0
 40
1.0
 40
2.0
 40
2.0
 40
2.0
 40
3.0
 40
3.0
 40
3.0
 40
4.0
 40
4.0
 40
4.0
 40
4.0
 10
81.81653763490846
 20
-134.7132391329881
 30
0.0
 10
81.81653763490846
 20
-133.9139505220768
 30
0.0
 10
82.46420234060737
 20
-133.2659330222388
 30
0.0
 10
83.26349093132693
 20
-133.2659330222388
 30
0.0
 10
84.06274424426961
 20
-133.2659330222388
 30
0.0
 10
84.71041108993344
 20
-133.9139505220768
 30
0.0
 10
84.71041108993344
 20
-134.7132391329881
 30
0.0
 10
84.71041108993344
 20
-135.5121396883441
 30
0.0
 10
84.06274424426961
 20
-136.1598044104044
 30
0.0
 10
83.26349093132693
 20
-136.1598044104044
 30
0.0
 10
82.46420234060737
 20
-136.1598044104044
 30
0.0
 10
81.81653763490846
 20
-135.5121396883441
 30
0.0
 10
81.81653763490846
 20
-134.7132391329881
 30
0.0
  0
POLYLINE
  5
F7
330
1F
100
AcDbEntity
  8
_U+30EC_U+30A4_U+30E4_U+30FC 1
 62
   179
420
  2234388
370
    25
100
AcDb2dPolyline
 66
     1
 10
0.0
 20
0.0
 30
0.0
  0
VERTEX
  5
F8
330
F7
100
AcDbEntity
  8
_U+30EC_U+30A4_U+30E4_U+30FC 1
 62
   179
420
  2234388
370
    25
100
AcDbVertex
100
AcDb2dVertex
 10
106.2167647901846
 20
-129.7512433008957
 30
0.0
  0
VERTEX
  5
F9
330
F7
100
AcDbEntity
  8
_U+30EC_U+30A4_U+30E4_U+30FC 1
 62
   179
420
  2234388
370
    25
100
AcDbVertex
100
AcDb2dVertex
 10
100.4669104924311
 20
-129.7512433008957
 30
0.0
  0
VERTEX
  5
FA
330
F7
100
AcDbEntity
  8
_U+30EC_U+30A4_U+30E4_U+30FC 1
 62
   179
420
  2234388
370
    25
100
AcDbVertex
100
AcDb2dVertex
 10
100.4669104924311
 20
-126.8763160793921
 30
0.0
  0
VERTEX
  5
FB
330
F7
100
AcDbEntity
  8
_U+30EC_U+30A4_U+30E4_U+30FC 1
 62
   179
420
  2234388
370
    25
100
AcDbVertex
100
AcDb2dVertex
 10
106.2167647901846
 20
-126.8763160793921
 30
0.0
  0
VERTEX
  5
FC
330
F7
100
AcDbEntity
  8
_U+30EC_U+30A4_U+30E4_U+30FC 1
 62
   179
420
  2234388
370
    25
100
AcDbVertex
100
AcDb2dVertex
 10
106.2167647901846
 20
-129.7512433008957
 30
0.0
  0
SEQEND
  5
FE
330
F7
100
AcDbEntity
  8
_U+30EC_U+30A4_U+30E4_U+30FC 1
 62
   179
420
  2234388
370
    25
  0
HATCH
  5
FD
330
1F
100
AcDbEntity
  8
_U+30EC_U+30A4_U+30E4_U+30FC 1
 62
     9
420
 12566464
100
AcDbHatch
 10
0.0
 20
0.0
 30
0.0
210
0.0
220
0.0
230
1.0
  2
SOLID
 70
     1
 71
     0
 91
        1
 92
        1
 93
        4
 72
     1
 10
106.2167647901846
 20
-129.7512433008957
 11
100.4669104924311
 21
-129.7512433008957
 72
     1
 10
100.4669104924311
 20
-129.7512433008957
 11
100.4669104924311
 21
-126.8763160793921
 72
     1
 10
100.4669104924311
 20
-126.8763160793921
 11
106.2167647901846
 21
-126.8763160793921
 72
     1
 10
106.2167647901846
 20
-126.8763160793921
 11
106.2167647901846
 21
-129.7512433008957
 97
        0
 75
     2
 76
     1
 98
        0
  0
POLYLINE
  5
FF
330
1F
100
AcDbEntity
  8
_U+30EC_U+30A4_U+30E4_U+30FC 1
 62
   179
420
  2234388
370
    25
100
AcDb2dPolyline
 66
     1
 10
0.0
 20
0.0
 30
0.0
  0
VERTEX
  5
100
330
FF
100
AcDbEntity
  8
_U+30EC_U+30A4_U+30E4_U+30FC 1
 62
   179
420
  2234388
370
    25
100
AcDbVertex
100
AcDb2dVertex
 10
106.2167647901846
 20
-136.1598044104044
 30
0.0
  0
VERTEX
  5
101
330
FF
100
AcDbEntity
  8
_U+30EC_U+30A4_U+30E4_U+30FC 1
 62
   179
420
  2234388
370
    25
100
AcDbVertex
100
AcDb2dVertex
 10
100.4669104924311
 20
-136.1598044104044
 30
0.0
  0
VERTEX
  5
102
330
FF
100
AcDbEntity
  8
_U+30EC_U+30A4_U+30E4_U+30FC 1
 62
   179
420
  2234388
370
    25
100
AcDbVertex
100
AcDb2dVertex
 10
100.4669104924311
 20
-133.2748935777922
 30
0.0
  0
VERTEX
  5
103
330
FF
100
AcDbEntity
  8
_U+30EC_U+30A4_U+30E4_U+30FC 1
 62
   179
420
  2234388
370
    25
100
AcDbVertex
100
AcDb2dVertex
 10
106.2167647901846
 20
-133.2748935777922
 30
0.0
  0
VERTEX
  5
104
330
FF
100
AcDbEntity
  8
_U+30EC_U+30A4_U+30E4_U+30FC 1
 62
   179
420
  2234388
370
    25
100
AcDbVertex
100
AcDb2dVertex
 10
106.2167647901846
 20
-136.1598044104044
 30
0.0
  0
SEQEND
  5
106
330
FF
100
AcDbEntity
  8
_U+30EC_U+30A4_U+30E4_U+30FC 1
 62
   179
420
  2234388
370
    25
  0
HATCH
  5
105
330
1F
100
AcDbEntity
  8
_U+30EC_U+30A4_U+30E4_U+30FC 1
 62
     9
420
 12566464
100
AcDbHatch
 10
0.0
 20
0.0
 30
0.0
210
0.0
220
0.0
230
1.0
  2
SOLID
 70
     1
 71
     0
 91
        1
 92
        1
 93
        4
 72
     1
 10
106.2167647901846
 20
-136.1598044104044
 11
100.4669104924311
 21
-136.1598044104044
 72
     1
 10
100.4669104924311
 20
-136.1598044104044
 11
100.4669104924311
 21
-133.2748935777922
 72
     1
 10
100.4669104924311
 20
-133.2748935777922
 11
106.2167647901846
 21
-133.2748935777922
 72
     1
 10
106.2167647901846
 20
-133.2748935777922
 11
106.2167647901846
 21
-136.1598044104044
 97
        0
 75
     2
 76
     1
 98
        0
  0
POLYLINE
  5
107
330
1F
100
AcDbEntity
  8
_U+30EC_U+30A4_U+30E4_U+30FC 1
 62
   179
420
  2234388
370
    25
100
AcDb2dPolyline
 66
     1
 10
0.0
 20
0.0
 30
0.0
  0
VERTEX
  5
108
330
107
100
AcDbEntity
  8
_U+30EC_U+30A4_U+30E4_U+30FC 1
 62
   179
420
  2234388
370
    25
100
AcDbVertex
100
AcDb2dVertex
 10
98.46669582123864
 20
-139.2652366318501
 30
0.0
  0
VERTEX
  5
109
330
107
100
AcDbEntity
  8
_U+30EC_U+30A4_U+30E4_U+30FC 1
 62
   179
420
  2234388
370
    25
100
AcDbVertex
100
AcDb2dVertex
 10
100.4669104924311
 20
-139.2652366318501
 30
0.0
  0
VERTEX
  5
10A
330
107
100
AcDbEntity
  8
_U+30EC_U+30A4_U+30E4_U+30FC 1
 62
   179
420
  2234388
370
    25
100
AcDbVertex
100
AcDb2dVertex
 10
100.4669104924311
 20
-124.7650116354754
 30
0.0
  0
VERTEX
  5
10B
330
107
100
AcDbEntity
  8
_U+30EC_U+30A4_U+30E4_U+30FC 1
 62
   179
420
  2234388
370
    25
100
AcDbVertex
100
AcDb2dVertex
 10
98.46669582123864
 20
-124.7650116354754
 30
0.0
  0
VERTEX
  5
10C
330
107
100
AcDbEntity
  8
_U+30EC_U+30A4_U+30E4_U+30FC 1
 62
   179
420
  2234388
370
    25
100
AcDbVertex
100
AcDb2dVertex
 10
98.46669582123864
 20
-139.2652366318501
 30
0.0
  0
SEQEND
  5
10E
330
107
100
AcDbEntity
  8
_U+30EC_U+30A4_U+30E4_U+30FC 1
 62
   179
420
  2234388
370
    25
  0
HATCH
  5
10D
330
1F
100
AcDbEntity
  8
_U+30EC_U+30A4_U+30E4_U+30FC 1
 62
     9
420
 12566464
100
AcDbHatch
 10
0.0
 20
0.0
 30
0.0
210
0.0
220
0.0
230
1.0
  2
SOLID
 70
     1
 71
     0
 91
        1
 92
        1
 93
        4
 72
     1
 10
98.46669582123864
 20
-139.2652366318501
 11
100.4669104924311
 21
-139.2652366318501
 72
     1
 10
100.4669104924311
 20
-139.2652366318501
 11
100.4669104924311
 21
-124.7650116354754
 72
     1
 10
100.4669104924311
 20
-124.7650116354754
 11
98.46669582123864
 21
-124.7650116354754
 72
     1
 10
98.46669582123864
 20
-124.7650116354754
 11
98.46669582123864
 21
-139.2652366318501
 97
        0
 75
     2
 76
     1
 98
        0
  0
POLYLINE
  5
10F
330
1F
100
AcDbEntity
  8
_U+30EC_U+30A4_U+30E4_U+30FC 1
 62
   179
420
  2234388
370
    25
100
AcDb2dPolyline
 66
     1
 10
0.0
 20
0.0
 30
0.0
  0
VERTEX
  5
110
330
10F
100
AcDbEntity
  8
_U+30EC_U+30A4_U+30E4_U+30FC 1
 62
   179
420
  2234388
370
    25
100
AcDbVertex
100
AcDb2dVertex
 10
98.46669582123864
 20
-137.2650219101283
 30
0.0
  0
VERTEX
  5
111
330
10F
100
AcDbEntity
  8
_U+30EC_U+30A4_U+30E4_U+30FC 1
 62
   179
420
  2234388
370
    25
100
AcDbVertex
100
AcDb2dVertex
 10
100.4669104924311
 20
-137.2650219101283
 30
0.0
  0
VERTEX
  5
112
330
10F
100
AcDbEntity
  8
_U+30EC_U+30A4_U+30E4_U+30FC 1
 62
   179
420
  2234388
370
    25
100
AcDbVertex
100
AcDb2dVertex
 10
100.4669104924311
 20
-139.2652366318501
 30
0.0
  0
VERTEX
  5
113
330
10F
100
AcDbEntity
  8
_U+30EC_U+30A4_U+30E4_U+30FC 1
 62
   179
420
  2234388
370
    25
100
AcDbVertex
100
AcDb2dVertex
 10
98.46669582123864
 20
-139.2652366318501
 30
0.0
  0
VERTEX
  5
114
330
10F
100
AcDbEntity
  8
_U+30EC_U+30A4_U+30E4_U+30FC 1
 62
   179
420
  2234388
370
    25
100
AcDbVertex
100
AcDb2dVertex
 10
98.46669582123864
 20
-137.2650219101283
 30
0.0
  0
SEQEND
  5
116
330
10F
100
AcDbEntity
  8
_U+30EC_U+30A4_U+30E4_U+30FC 1
 62
   179
420
  2234388
370
    25
  0
HATCH
  5
115
330
1F
100
AcDbEntity
  8
_U+30EC_U+30A4_U+30E4_U+30FC 1
 62
     9
420
 12566464
100
AcDbHatch
 10
0.0
 20
0.0
 30
0.0
210
0.0
220
0.0
230
1.0
  2
SOLID
 70
     1
 71
     0
 91
        1
 92
        1
 93
        4
 72
     1
 10
98.46669582123864
 20
-137.2650219101283
 11
100.4669104924311
 21
-137.2650219101283
 72
     1
 10
100.4669104924311
 20
-137.2650219101283
 11
100.4669104924311
 21
-139.2652366318501
 72
     1
 10
100.4669104924311
 20
-139.2652366318501
 11
98.46669582123864
 21
-139.2652366318501
 72
     1
 10
98.46669582123864
 20
-139.2652366318501
 11
98.46669582123864
 21
-137.2650219101283
 97
        0
 75
     2
 76
     1
 98
        0
  0
ENDSEC
  0
SECTION
  2
OBJECTS
  0
DICTIONARY
  5
C
330
0
100
AcDbDictionary
281
     1
  3
ACAD_GROUP
350
D
  3
ACAD_LAYOUT
350
1A
  3
ACAD_MATERIAL
350
3B
  3
ACAD_MLEADERSTYLE
350
118
  3
ACAD_MLINESTYLE
350
17
  3
ACAD_PLOTSETTINGS
350
19
  3
ACAD_PLOTSTYLENAME
350
E
  3
ACAD_TABLESTYLE
350
117
  3
ACAD_VISUALSTYLE
350
2A
  0
SUN
  5
3F
330
29
100
AcDbSun
 90
        1
290
     0
 63
     7
421
 16777215
 40
1.0
291
     1
 91
  2455826
 92
 54000000
292
     0
 70
     2
 71
   256
280
     1
  0
DICTIONARY
  5
D
102
{ACAD_REACTORS
330
C
102
}
330
C
100
AcDbDictionary
281
     1
  0
DICTIONARY
  5
1A
102
{ACAD_REACTORS
330
C
102
}
330
C
100
AcDbDictionary
281
     1
  3
Layout1
350
1E
  3
Layout2
350
26
  3
Model
350
22
  0
DICTIONARY
  5
3B
102
{ACAD_REACTORS
330
C
102
}
330
C
100
AcDbDictionary
281
     1
  3
ByBlock
350
3D
  3
ByLayer
350
3C
  3
Global
350
3E
  0
DICTIONARY
  5
118
102
{ACAD_REACTORS
330
C
102
}
330
C
100
AcDbDictionary
281
     1
  0
DICTIONARY
  5
17
102
{ACAD_REACTORS
330
C
102
}
330
C
100
AcDbDictionary
281
     1
  3
Standard
350
18
  0
DICTIONARY
  5
19
102
{ACAD_REACTORS
330
C
102
}
330
C
100
AcDbDictionary
281
     1
  0
ACDBDICTIONARYWDFLT
  5
E
102
{ACAD_REACTORS
330
C
102
}
330
C
100
AcDbDictionary
281
     1
  3
Normal
350
F
100
AcDbDictionaryWithDefault
340
F
  0
DICTIONARY
  5
117
102
{ACAD_REACTORS
330
C
102
}
330
C
100
AcDbDictionary
281
     1
  0
DICTIONARY
  5
2A
102
{ACAD_REACTORS
330
C
102
}
330
C
100
AcDbDictionary
281
     1
  3
2dWireframe
350
2F
  3
3D Hidden
350
31
  3
3dWireframe
350
30
  3
Basic
350
32
  3
Brighten
350
36
  3
ColorChange
350
3A
  3
Conceptual
350
34
  3
Dim
350
35
  3
Facepattern
350
39
  3
Flat
350
2B
  3
FlatWithEdges
350
2C
  3
Gouraud
350
2D
  3
GouraudWithEdges
350
2E
  3
Linepattern
350
38
  3
Realistic
350
33
  3
Thicken
350
37
  0
LAYOUT
  5
1E
102
{ACAD_REACTORS
330
1A
102
}
330
1A
100
AcDbPlotSettings
  1

  2
none_device
  4

  6

 40
0.0
 41
0.0
 42
0.0
 43
0.0
 44
0.0
 45
0.0
 46
0.0
 47
0.0
 48
0.0
 49
0.0
140
0.0
141
0.0
142
1.0
143
1.0
 70
   688
 72
     0
 73
     0
 74
     5
  7

 75
    16
 76
     0
 77
     2
 78
   300
147
1.0
148
0.0
149
0.0
100
AcDbLayout
  1
Layout1
 70
     1
 71
     1
 10
0.0
 20
0.0
 11
12.0
 21
9.0
 12
0.0
 22
0.0
 32
0.0
 14
1.000000000000000E+20
 24
1.000000000000000E+20
 34
1.000000000000000E+20
 15
-1.000000000000000E+20
 25
-1.000000000000000E+20
 35
-1.000000000000000E+20
146
0.0
 13
0.0
 23
0.0
 33
0.0
 16
1.0
 26
0.0
 36
0.0
 17
0.0
 27
1.0
 37
0.0
 76
     0
330
1B
  0
LAYOUT
  5
26
102
{ACAD_REACTORS
330
1A
102
}
330
1A
100
AcDbPlotSettings
  1

  2
none_device
  4

  6

 40
0.0
 41
0.0
 42
0.0
 43
0.0
 44
0.0
 45
0.0
 46
0.0
 47
0.0
 48
0.0
 49
0.0
140
0.0
141
0.0
142
1.0
143
1.0
 70
   688
 72
     0
 73
     0
 74
     5
  7

 75
    16
 76
     0
 77
     2
 78
   300
147
1.0
148
0.0
149
0.0
100
AcDbLayout
  1
Layout2
 70
     1
 71
     2
 10
0.0
 20
0.0
 11
0.0
 21
0.0
 12
0.0
 22
0.0
 32
0.0
 14
0.0
 24
0.0
 34
0.0
 15
0.0
 25
0.0
 35
0.0
146
0.0
 13
0.0
 23
0.0
 33
0.0
 16
1.0
 26
0.0
 36
0.0
 17
0.0
 27
1.0
 37
0.0
 76
     0
330
23
  0
LAYOUT
  5
22
102
{ACAD_REACTORS
330
1A
102
}
330
1A
100
AcDbPlotSettings
  1

  2
none_device
  4

  6

 40
0.0
 41
0.0
 42
0.0
 43
0.0
 44
0.0
 45
0.0
 46
0.0
 47
0.0
 48
0.0
 49
0.0
140
0.0
141
0.0
142
1.0
143
1.0
 70
  1712
 72
     0
 73
     0
 74
     0
  7

 75
     0
 76
     0
 77
     2
 78
   300
147
1.0
148
0.0
149
0.0
100
AcDbLayout
  1
Model
 70
     1
 71
     0
 10
0.0
 20
0.0
 11
12.0
 21
9.0
 12
0.0
 22
0.0
 32
0.0
 14
1.000000000000000E+20
 24
1.000000000000000E+20
 34
1.000000000000000E+20
 15
-1.000000000000000E+20
 25
-1.000000000000000E+20
 35
-1.000000000000000E+20
146
0.0
 13
0.0
 23
0.0
 33
0.0
 16
1.0
 26
0.0
 36
0.0
 17
0.0
 27
1.0
 37
0.0
 76
     0
330
1F
331
29
  0
MATERIAL
  5
3D
102
{ACAD_REACTORS
330
3B
102
}
330
3B
100
AcDbMaterial
  1
ByBlock
 72
     1
 94
      127
  0
MATERIAL
  5
3C
102
{ACAD_REACTORS
330
3B
102
}
330
3B
100
AcDbMaterial
  1
ByLayer
 72
     1
 94
      127
  0
MATERIAL
  5
3E
102
{ACAD_REACTORS
330
3B
102
}
330
3B
100
AcDbMaterial
  1
Global
 72
     1
 94
      127
  0
MLINESTYLE
  5
18
102
{ACAD_REACTORS
330
17
102
}
330
17
100
AcDbMlineStyle
  2
Standard
 70
     0
  3

 62
   256
 51
90.0
 52
90.0
 71
     2
 49
0.5
 62
   256
  6
BYLAYER
 49
-0.5
 62
   256
  6
BYLAYER
  0
ACDBPLACEHOLDER
  5
F
102
{ACAD_REACTORS
330
E
102
}
330
E
  0
VISUALSTYLE
  5
2F
102
{ACAD_REACTORS
330
2A
102
}
330
2A
100
AcDbVisualStyle
  2
2dWireframe
 70
     4
177
     2
291
     0
 71
     0
176
     1
 72
     2
176
     1
 73
     0
176
     1
 90
        0
176
     1
 40
-0.6
176
     1
 41
-30.0
176
     1
 62
     5
 63
     7
421
 16777215
176
     1
 74
     1
176
     1
 91
        4
176
     1
 64
     7
176
     1
 65
   257
176
     1
 75
     1
176
     1
175
     1
176
     1
 42
1.0
176
     1
 92
        0
176
     1
 66
   257
176
     1
 43
1.0
176
     1
 76
     1
176
     1
 77
     6
176
     1
 78
     2
176
     1
 67
     7
176
     1
 79
     5
176
     1
170
     0
176
     1
171
     0
176
     1
290
     0
176
     1
 93
        1
176
     1
 44
0.0
176
     1
173
     0
176
     1
  0
VISUALSTYLE
  5
31
102
{ACAD_REACTORS
330
2A
102
}
330
2A
100
AcDbVisualStyle
  2
3D Hidden
 70
     6
177
     2
291
     0
 71
     1
176
     1
 72
     2
176
     1
 73
     2
176
     1
 90
        0
176
     1
 40
-0.6
176
     1
 41
-30.0
176
     1
 62
     5
 63
     7
421
 16777215
176
     1
 74
     2
176
     1
 91
        2
176
     1
 64
     7
176
     1
 65
   257
176
     1
 75
     2
176
     1
175
     1
176
     1
 42
40.0
176
     1
 92
        0
176
     1
 66
   257
176
     1
 43
1.0
176
     1
 76
     1
176
     1
 77
     6
176
     1
 78
     2
176
     1
 67
     7
176
     1
 79
     3
176
     1
170
     0
176
     1
171
     0
176
     1
290
     0
176
     1
 93
        1
176
     1
 44
0.0
176
     1
173
     0
176
     1
  0
VISUALSTYLE
  5
30
102
{ACAD_REACTORS
330
2A
102
}
330
2A
100
AcDbVisualStyle
  2
3dWireframe
 70
     5
177
     2
291
     0
 71
     0
176
     1
 72
     2
176
     1
 73
     0
176
     1
 90
        0
176
     1
 40
-0.6
176
     1
 41
-30.0
176
     1
 62
     5
 63
     7
421
 16777215
176
     1
 74
     1
176
     1
 91
        4
176
     1
 64
     7
176
     1
 65
   257
176
     1
 75
     1
176
     1
175
     1
176
     1
 42
1.0
176
     1
 92
        0
176
     1
 66
   257
176
     1
 43
1.0
176
     1
 76
     1
176
     1
 77
     6
176
     1
 78
     2
176
     1
 67
     7
176
     1
 79
     5
176
     1
170
     0
176
     1
171
     0
176
     1
290
     0
176
     1
 93
        1
176
     1
 44
0.0
176
     1
173
     0
176
     1
  0
VISUALSTYLE
  5
32
102
{ACAD_REACTORS
330
2A
102
}
330
2A
100
AcDbVisualStyle
  2
Basic
 70
     7
177
     2
291
     1
 71
     1
176
     1
 72
     0
176
     1
 73
     1
176
     1
 90
        0
176
     1
 40
-0.6
176
     1
 41
-30.0
176
     1
 62
     5
 63
     7
421
 16777215
176
     1
 74
     0
176
     1
 91
        4
176
     1
 64
     7
176
     1
 65
   257
176
     1
 75
     1
176
     1
175
     1
176
     1
 42
1.0
176
     1
 92
        8
176
     1
 66
     7
176
     1
 43
1.0
176
     1
 76
     1
176
     1
 77
     6
176
     1
 78
     2
176
     1
 67
     7
176
     1
 79
     5
176
     1
170
     0
176
     1
171
     0
176
     1
290
     0
176
     1
 93
        1
176
     1
 44
0.0
176
     1
173
     0
176
     1
  0
VISUALSTYLE
  5
36
102
{ACAD_REACTORS
330
2A
102
}
330
2A
100
AcDbVisualStyle
  2
Brighten
 70
    12
177
     2
291
     1
 71
     2
176
     1
 72
     2
176
     1
 73
     0
176
     1
 90
        0
176
     1
 40
-0.6
176
     1
 41
-30.0
176
     1
 62
     5
 63
     7
421
 16777215
176
     1
 74
     1
176
     1
 91
        4
176
     1
 64
     7
176
     1
 65
   257
176
     1
 75
     1
176
     1
175
     1
176
     1
 42
1.0
176
     1
 92
        8
176
     1
 66
     7
176
     1
 43
1.0
176
     1
 76
     1
176
     1
 77
     6
176
     1
 78
     2
176
     1
 67
     7
176
     1
 79
     5
176
     1
170
     0
176
     1
171
     0
176
     1
290
     0
176
     1
 93
        1
176
     1
 44
50.0
176
     1
173
     0
176
     1
  0
VISUALSTYLE
  5
3A
102
{ACAD_REACTORS
330
2A
102
}
330
2A
100
AcDbVisualStyle
  2
ColorChange
 70
    16
177
     2
291
     1
 71
     2
176
     1
 72
     2
176
     1
 73
     3
176
     1
 90
        0
176
     1
 40
-0.6
176
     1
 41
-30.0
176
     1
 62
     5
 63
     8
421
  8421504
176
     1
 74
     1
176
     1
 91
        4
176
     1
 64
     7
176
     1
 65
   257
176
     1
 75
     1
176
     1
175
     1
176
     1
 42
1.0
176
     1
 92
        8
176
     1
 66
     8
424
  8421504
176
     1
 43
1.0
176
     1
 76
     1
176
     1
 77
     6
176
     1
 78
     2
176
     1
 67
     7
176
     1
 79
     5
176
     1
170
     0
176
     1
171
     0
176
     1
290
     0
176
     1
 93
        1
176
     1
 44
0.0
176
     1
173
     0
176
     1
  0
VISUALSTYLE
  5
34
102
{ACAD_REACTORS
330
2A
102
}
330
2A
100
AcDbVisualStyle
  2
Conceptual
 70
     9
177
     2
291
     0
 71
     3
176
     1
 72
     2
176
     1
 73
     0
176
     1
 90
        0
176
     1
 40
-0.6
176
     1
 41
-30.0
176
     1
 62
     5
 63
     7
421
 16777215
176
     1
 74
     2
176
     1
 91
        2
176
     1
 64
     7
176
     1
 65
   257
176
     1
 75
     1
176
     1
175
     1
176
     1
 42
40.0
176
     1
 92
        8
176
     1
 66
     7
176
     1
 43
1.0
176
     1
 76
     1
176
     1
 77
     6
176
     1
 78
     2
176
     1
 67
     7
176
     1
 79
     3
176
     1
170
     0
176
     1
171
     0
176
     1
290
     0
176
     1
 93
        1
176
     1
 44
0.0
176
     1
173
     0
176
     1
  0
VISUALSTYLE
  5
35
102
{ACAD_REACTORS
330
2A
102
}
330
2A
100
AcDbVisualStyle
  2
Dim
 70
    11
177
     2
291
     1
 71
     2
176
     1
 72
     2
176
     1
 73
     0
176
     1
 90
        0
176
     1
 40
-0.6
176
     1
 41
-30.0
176
     1
 62
     5
 63
     7
421
 16777215
176
     1
 74
     1
176
     1
 91
        4
176
     1
 64
     7
176
     1
 65
   257
176
     1
 75
     1
176
     1
175
     1
176
     1
 42
1.0
176
     1
 92
        8
176
     1
 66
     7
176
     1
 43
1.0
176
     1
 76
     1
176
     1
 77
     6
176
     1
 78
     2
176
     1
 67
     7
176
     1
 79
     5
176
     1
170
     0
176
     1
171
     0
176
     1
290
     0
176
     1
 93
        1
176
     1
 44
-50.0
176
     1
173
     0
176
     1
  0
VISUALSTYLE
  5
39
102
{ACAD_REACTORS
330
2A
102
}
330
2A
100
AcDbVisualStyle
  2
Facepattern
 70
    15
177
     2
291
     1
 71
     2
176
     1
 72
     2
176
     1
 73
     0
176
     1
 90
        0
176
     1
 40
-0.6
176
     1
 41
-30.0
176
     1
 62
     5
 63
     7
421
 16777215
176
     1
 74
     1
176
     1
 91
        4
176
     1
 64
     7
176
     1
 65
   257
176
     1
 75
     1
176
     1
175
     1
176
     1
 42
1.0
176
     1
 92
        8
176
     1
 66
     7
176
     1
 43
1.0
176
     1
 76
     1
176
     1
 77
     6
176
     1
 78
     2
176
     1
 67
     7
176
     1
 79
     5
176
     1
170
     0
176
     1
171
     0
176
     1
290
     0
176
     1
 93
        1
176
     1
 44
0.0
176
     1
173
     0
176
     1
  0
VISUALSTYLE
  5
2B
102
{ACAD_REACTORS
330
2A
102
}
330
2A
100
AcDbVisualStyle
  2
Flat
 70
     0
177
     2
291
     1
 71
     2
176
     1
 72
     1
176
     1
 73
     1
176
     1
 90
        2
176
     1
 40
-0.6
176
     1
 41
30.0
176
     1
 62
     5
 63
     7
421
 16777215
176
     1
 74
     0
176
     1
 91
        4
176
     1
 64
     7
176
     1
 65
   257
176
     1
 75
     1
176
     1
175
     1
176
     1
 42
1.0
176
     1
 92
        8
176
     1
 66
     7
176
     1
 43
1.0
176
     1
 76
     1
176
     1
 77
     6
176
     1
 78
     2
176
     1
 67
     7
176
     1
 79
     5
176
     1
170
     0
176
     1
171
     0
176
     1
290
     0
176
     1
 93
       13
176
     1
 44
0.0
176
     1
173
     0
176
     1
  0
VISUALSTYLE
  5
2C
102
{ACAD_REACTORS
330
2A
102
}
330
2A
100
AcDbVisualStyle
  2
FlatWithEdges
 70
     1
177
     2
291
     1
 71
     2
176
     1
 72
     1
176
     1
 73
     1
176
     1
 90
        2
176
     1
 40
-0.6
176
     1
 41
30.0
176
     1
 62
     5
 63
     7
421
 16777215
176
     1
 74
     1
176
     1
 91
        4
176
     1
 64
     7
176
     1
 65
   257
176
     1
 75
     1
176
     1
175
     1
176
     1
 42
1.0
176
     1
 92
        0
176
     1
 66
   257
176
     1
 43
1.0
176
     1
 76
     1
176
     1
 77
     6
176
     1
 78
     2
176
     1
 67
     7
176
     1
 79
     5
176
     1
170
     0
176
     1
171
     0
176
     1
290
     0
176
     1
 93
       13
176
     1
 44
0.0
176
     1
173
     0
176
     1
  0
VISUALSTYLE
  5
2D
102
{ACAD_REACTORS
330
2A
102
}
330
2A
100
AcDbVisualStyle
  2
Gouraud
 70
     2
177
     2
291
     1
 71
     2
176
     1
 72
     2
176
     1
 73
     1
176
     1
 90
        2
176
     1
 40
-0.6
176
     1
 41
30.0
176
     1
 62
     5
 63
     7
421
 16777215
176
     1
 74
     0
176
     1
 91
        4
176
     1
 64
     7
176
     1
 65
   257
176
     1
 75
     1
176
     1
175
     1
176
     1
 42
1.0
176
     1
 92
        0
176
     1
 66
     7
176
     1
 43
1.0
176
     1
 76
     1
176
     1
 77
     6
176
     1
 78
     2
176
     1
 67
     7
176
     1
 79
     5
176
     1
170
     0
176
     1
171
     0
176
     1
290
     0
176
     1
 93
       13
176
     1
 44
0.0
176
     1
173
     0
176
     1
  0
VISUALSTYLE
  5
2E
102
{ACAD_REACTORS
330
2A
102
}
330
2A
100
AcDbVisualStyle
  2
GouraudWithEdges
 70
     3
177
     2
291
     1
 71
     2
176
     1
 72
     2
176
     1
 73
     1
176
     1
 90
        2
176
     1
 40
-0.6
176
     1
 41
30.0
176
     1
 62
     5
 63
     7
421
 16777215
176
     1
 74
     1
176
     1
 91
        4
176
     1
 64
     7
176
     1
 65
   257
176
     1
 75
     1
176
     1
175
     1
176
     1
 42
1.0
176
     1
 92
        0
176
     1
 66
   257
176
     1
 43
1.0
176
     1
 76
     1
176
     1
 77
     6
176
     1
 78
     2
176
     1
 67
     7
176
     1
 79
     5
176
     1
170
     0
176
     1
171
     0
176
     1
290
     0
176
     1
 93
       13
176
     1
 44
0.0
176
     1
173
     0
176
     1
  0
VISUALSTYLE
  5
38
102
{ACAD_REACTORS
330
2A
102
}
330
2A
100
AcDbVisualStyle
  2
Linepattern
 70
    14
177
     2
291
     1
 71
     2
176
     1
 72
     2
176
     1
 73
     0
176
     1
 90
        0
176
     1
 40
-0.6
176
     1
 41
-30.0
176
     1
 62
     5
 63
     7
421
 16777215
176
     1
 74
     1
176
     1
 91
        4
176
     1
 64
     7
176
     1
 65
   257
176
     1
 75
     7
176
     1
175
     7
176
     1
 42
1.0
176
     1
 92
        8
176
     1
 66
     7
176
     1
 43
1.0
176
     1
 76
     1
176
     1
 77
     6
176
     1
 78
     2
176
     1
 67
     7
176
     1
 79
     5
176
     1
170
     0
176
     1
171
     0
176
     1
290
     0
176
     1
 93
        1
176
     1
 44
0.0
176
     1
173
     0
176
     1
  0
VISUALSTYLE
  5
33
102
{ACAD_REACTORS
330
2A
102
}
330
2A
100
AcDbVisualStyle
  2
Realistic
 70
     8
177
     2
291
     0
 71
     2
176
     1
 72
     2
176
     1
 73
     0
176
     1
 90
        0
176
     1
 40
-0.6
176
     1
 41
-30.0
176
     1
 62
     5
 63
     7
421
 16777215
176
     1
 74
     1
176
     1
 91
        0
176
     1
 64
     7
176
     1
 65
   257
176
     1
 75
     1
176
     1
175
     1
176
     1
 42
1.0
176
     1
 92
        8
176
     1
 66
     8
424
  7895160
176
     1
 43
1.0
176
     1
 76
     1
176
     1
 77
     6
176
     1
 78
     2
176
     1
 67
     7
176
     1
 79
     5
176
     1
170
     0
176
     1
171
     0
176
     1
290
     0
176
     1
 93
       13
176
     1
 44
0.0
176
     1
173
     0
176
     1
  0
VISUALSTYLE
  5
37
102
{ACAD_REACTORS
330
2A
102
}
330
2A
100
AcDbVisualStyle
  2
Thicken
 70
    13
177
     2
291
     1
 71
     2
176
     1
 72
     2
176
     1
 73
     0
176
     1
 90
        0
176
     1
 40
-0.6
176
     1
 41
-30.0
176
     1
 62
     5
 63
     7
421
 16777215
176
     1
 74
     1
176
     1
 91
        4
176
     1
 64
     7
176
     1
 65
   257
176
     1
 75
     1
176
     1
175
     1
176
     1
 42
1.0
176
     1
 92
       12
176
     1
 66
     7
176
     1
 43
1.0
176
     1
 76
     1
176
     1
 77
     6
176
     1
 78
     2
176
     1
 67
     7
176
     1
 79
     5
176
     1
170
     0
176
     1
171
     0
176
     1
290
     0
176
     1
 93
        1
176
     1
 44
0.0
176
     1
173
     0
176
     1
  0
ENDSEC
  0
EOF
