  0
SECTION
  2
HEADER
  9
$ACADVER
  1
AC1024
  9
$ACADMAINTVER
 70
     6
  9
$DWGCODEPAGE
  3
UNDEFINED
  9
$INSBASE
 10
0.0
 20
0.0
 30
0.0
  9
$EXTMIN
 10
1.000000000000000E+20
 20
1.000000000000000E+20
 30
1.000000000000000E+20
  9
$EXTMAX
 10
-1.000000000000000E+20
 20
-1.000000000000000E+20
 30
-1.000000000000000E+20
  9
$LIMMIN
 10
0.0
 20
0.0
  9
$LIMMAX
 10
12.0
 20
9.0
  9
$ORTHOMODE
 70
     0
  9
$REGENMODE
 70
     1
  9
$FILLMODE
 70
     1
  9
$QTEXTMODE
 70
     0
  9
$MIRRTEXT
 70
     1
  9
$LTSCALE
 40
1.0
  9
$ATTMODE
 70
     1
  9
$TEXTSIZE
 40
0.2
  9
$TRACEWID
 40
0.05
  9
$TEXTSTYLE
  7
Standard
  9
$CLAYER
  8
0
  9
$CELTYPE
  6
ByLayer
  9
$CECOLOR
 62
   256
  9
$CELTSCALE
 40
1.0
  9
$DISPSILH
 70
     0
  9
$DIMSCALE
 40
1.0
  9
$DIMASZ
 40
0.18
  9
$DIMEXO
 40
0.0625
  9
$DIMDLI
 40
0.38
  9
$DIMRND
 40
0.0
  9
$DIMDLE
 40
0.0
  9
$DIMEXE
 40
0.18
  9
$DIMTP
 40
0.0
  9
$DIMTM
 40
0.0
  9
$DIMTXT
 40
0.18
  9
$DIMCEN
 40
0.09
  9
$DIMTSZ
 40
0.0
  9
$DIMTOL
 70
     0
  9
$DIMLIM
 70
     0
  9
$DIMTIH
 70
     1
  9
$DIMTOH
 70
     1
  9
$DIMSE1
 70
     0
  9
$DIMSE2
 70
     0
  9
$DIMTAD
 70
     0
  9
$DIMZIN
 70
     0
  9
$DIMBLK
  1

  9
$DIMASO
 70
     1
  9
$DIMSHO
 70
     1
  9
$DIMPOST
  1

  9
$DIMAPOST
  1

  9
$DIMALT
 70
     0
  9
$DIMALTD
 70
     2
  9
$DIMALTF
 40
25.4
  9
$DIMLFAC
 40
1.0
  9
$DIMTOFL
 70
     0
  9
$DIMTVP
 40
0.0
  9
$DIMTIX
 70
     0
  9
$DIMSOXD
 70
     0
  9
$DIMSAH
 70
     0
  9
$DIMBLK1
  1

  9
$DIMBLK2
  1

  9
$DIMSTYLE
  2
Standard
  9
$DIMCLRD
 70
     0
  9
$DIMCLRE
 70
     0
  9
$DIMCLRT
 70
     0
  9
$DIMTFAC
 40
1.0
  9
$DIMGAP
 40
0.09
  9
$DIMJUST
 70
     0
  9
$DIMSD1
 70
     0
  9
$DIMSD2
 70
     0
  9
$DIMTOLJ
 70
     1
  9
$DIMTZIN
 70
     0
  9
$DIMALTZ
 70
     0
  9
$DIMALTTZ
 70
     0
  9
$DIMUPT
 70
     0
  9
$DIMDEC
 70
     4
  9
$DIMTDEC
 70
     4
  9
$DIMALTU
 70
     2
  9
$DIMALTTD
 70
     2
  9
$DIMTXSTY
  7
Standard
  9
$DIMAUNIT
 70
     0
  9
$DIMADEC
 70
     0
  9
$DIMALTRND
 40
0.0
  9
$DIMAZIN
 70
     0
  9
$DIMDSEP
 70
    46
  9
$DIMATFIT
 70
     3
  9
$DIMFRAC
 70
     0
  9
$DIMLDRBLK
  1

  9
$DIMLUNIT
 70
     2
  9
$DIMLWD
 70
    -2
  9
$DIMLWE
 70
    -2
  9
$DIMTMOVE
 70
     0
  9
$DIMFXL
 40
1.0
  9
$DIMFXLON
 70
     0
  9
$DIMJOGANG
 40
0.7853981633974483
  9
$DIMTFILL
 70
     0
  9
$DIMTFILLCLR
 70
     0
  9
$DIMARCSYM
 70
     0
  9
$DIMLTYPE
  6

  9
$DIMLTEX1
  6

  9
$DIMLTEX2
  6

  9
$DIMTXTDIRECTION
 70
     0
  9
$LUNITS
 70
     2
  9
$LUPREC
 70
     4
  9
$SKETCHINC
 40
0.1
  9
$FILLETRAD
 40
0.5
  9
$AUNITS
 70
     0
  9
$AUPREC
 70
     0
  9
$MENU
  1
.
  9
$ELEVATION
 40
0.0
  9
$PELEVATION
 40
0.0
  9
$THICKNESS
 40
0.0
  9
$LIMCHECK
 70
     0
  9
$CHAMFERA
 40
0.5
  9
$CHAMFERB
 40
0.5
  9
$CHAMFERC
 40
1.0
  9
$CHAMFERD
 40
0.0
  9
$SKPOLY
 70
     0
  9
$TDCREATE
 40
2457917.628819433
  9
$TDUCREATE
 40
2457917.253819444
  9
$TDUPDATE
 40
2457917.628819433
  9
$TDUUPDATE
 40
2457917.253819444
  9
$TDINDWG
 40
0.0000000116
  9
$TDUSRTIMER
 40
0.0000000116
  9
$USRTIMER
 70
     1
  9
$ANGBASE
 50
0.0
  9
$ANGDIR
 70
     0
  9
$PDMODE
 70
     0
  9
$PDSIZE
 40
0.0
  9
$PLINEWID
 40
0.0
  9
$SPLFRAME
 70
     0
  9
$SPLINETYPE
 70
     6
  9
$SPLINESEGS
 70
     8
  9
$HANDSEED
  5
221
  9
$SURFTAB1
 70
     6
  9
$SURFTAB2
 70
     6
  9
$SURFTYPE
 70
     6
  9
$SURFU
 70
     6
  9
$SURFV
 70
     6
  9
$UCSBASE
  2

  9
$UCSNAME
  2

  9
$UCSORG
 10
0.0
 20
0.0
 30
0.0
  9
$UCSXDIR
 10
1.0
 20
0.0
 30
0.0
  9
$UCSYDIR
 10
0.0
 20
1.0
 30
0.0
  9
$UCSORTHOREF
  2

  9
$UCSORTHOVIEW
 70
     0
  9
$UCSORGTOP
 10
0.0
 20
0.0
 30
0.0
  9
$UCSORGBOTTOM
 10
0.0
 20
0.0
 30
0.0
  9
$UCSORGLEFT
 10
0.0
 20
0.0
 30
0.0
  9
$UCSORGRIGHT
 10
0.0
 20
0.0
 30
0.0
  9
$UCSORGFRONT
 10
0.0
 20
0.0
 30
0.0
  9
$UCSORGBACK
 10
0.0
 20
0.0
 30
0.0
  9
$PUCSBASE
  2

  9
$PUCSNAME
  2

  9
$PUCSORG
 10
0.0
 20
0.0
 30
0.0
  9
$PUCSXDIR
 10
1.0
 20
0.0
 30
0.0
  9
$PUCSYDIR
 10
0.0
 20
1.0
 30
0.0
  9
$PUCSORTHOREF
  2

  9
$PUCSORTHOVIEW
 70
     0
  9
$PUCSORGTOP
 10
0.0
 20
0.0
 30
0.0
  9
$PUCSORGBOTTOM
 10
0.0
 20
0.0
 30
0.0
  9
$PUCSORGLEFT
 10
0.0
 20
0.0
 30
0.0
  9
$PUCSORGRIGHT
 10
0.0
 20
0.0
 30
0.0
  9
$PUCSORGFRONT
 10
0.0
 20
0.0
 30
0.0
  9
$PUCSORGBACK
 10
0.0
 20
0.0
 30
0.0
  9
$USERI1
 70
     0
  9
$USERI2
 70
     0
  9
$USERI3
 70
     0
  9
$USERI4
 70
     0
  9
$USERI5
 70
     0
  9
$USERR1
 40
0.0
  9
$USERR2
 40
0.0
  9
$USERR3
 40
0.0
  9
$USERR4
 40
0.0
  9
$USERR5
 40
0.0
  9
$WORLDVIEW
 70
     1
  9
$SHADEDGE
 70
     3
  9
$SHADEDIF
 70
    70
  9
$TILEMODE
 70
     1
  9
$MAXACTVP
 70
    64
  9
$PINSBASE
 10
0.0
 20
0.0
 30
0.0
  9
$PLIMCHECK
 70
     0
  9
$PEXTMIN
 10
1.000000000000000E+20
 20
1.000000000000000E+20
 30
1.000000000000000E+20
  9
$PEXTMAX
 10
-1.000000000000000E+20
 20
-1.000000000000000E+20
 30
-1.000000000000000E+20
  9
$PLIMMIN
 10
0.0
 20
0.0
  9
$PLIMMAX
 10
12.0
 20
9.0
  9
$UNITMODE
 70
     0
  9
$VISRETAIN
 70
     1
  9
$PLINEGEN
 70
     0
  9
$PSLTSCALE
 70
     1
  9
$TREEDEPTH
 70
  3020
  9
$CMLSTYLE
  2
Standard
  9
$CMLJUST
 70
     0
  9
$CMLSCALE
 40
1.0
  9
$PROXYGRAPHICS
 70
     1
  9
$MEASUREMENT
 70
     0
  9
$CELWEIGHT
370
    -1
  9
$ENDCAPS
280
     0
  9
$JOINSTYLE
280
     0
  9
$LWDISPLAY
290
     1
  9
$INSUNITS
 70
     1
  9
$HYPERLINKBASE
  1

  9
$STYLESHEET
  1

  9
$XEDIT
290
     1
  9
$CEPSNTYPE
380
     0
  9
$PSTYLEMODE
290
     1
  9
$FINGERPRINTGUID
  2
{2F4FC6D5-B7A0-291E-ABEF-A2AE0EAD6D97}
  9
$VERSIONGUID
  2
{FAEB1C32-E019-11D5-929B-00C0DF256EC4}
  9
$EXTNAMES
290
     1
  9
$PSVPSCALE
 40
0.0
  9
$OLESTARTUP
290
     0
  9
$SORTENTS
280
   127
  9
$INDEXCTL
280
     0
  9
$HIDETEXT
280
     1
  9
$XCLIPFRAME
280
     2
  9
$HALOGAP
280
     0
  9
$OBSCOLOR
 70
   257
  9
$OBSLTYPE
280
     0
  9
$INTERSECTIONDISPLAY
280
     0
  9
$INTERSECTIONCOLOR
 70
   257
  9
$DIMASSOC
280
     2
  9
$PROJECTNAME
  1

  9
$CAMERADISPLAY
290
     0
  9
$LENSLENGTH
 40
50.0
  9
$CAMERAHEIGHT
 40
0.0
  9
$STEPSPERSEC
 40
2.0
  9
$STEPSIZE
 40
6.0
  9
$3DDWFPREC
 40
2.0
  9
$PSOLWIDTH
 40
0.25
  9
$PSOLHEIGHT
 40
4.0
  9
$LOFTANG1
 40
1.570796326794897
  9
$LOFTANG2
 40
1.570796326794897
  9
$LOFTMAG1
 40
0.0
  9
$LOFTMAG2
 40
0.0
  9
$LOFTPARAM
 70
     7
  9
$LOFTNORMALS
280
     1
  9
$LATITUDE
 40
37.795
  9
$LONGITUDE
 40
-122.394
  9
$NORTHDIRECTION
 40
0.0
  9
$TIMEZONE
 70
 -8000
  9
$LIGHTGLYPHDISPLAY
280
     1
  9
$TILEMODELIGHTSYNCH
280
     1
  9
$CMATERIAL
347
3C
  9
$SOLIDHIST
280
     1
  9
$SHOWHIST
280
     1
  9
$DWFFRAME
280
     2
  9
$DGNFRAME
280
     2
  9
$REALWORLDSCALE
290
     1
  9
$INTERFERECOLOR
 62
   256
  9
$CSHADOW
280
     0
  9
$SHADOWPLANELOCATION
 40
0.0
  0
ENDSEC
  0
SECTION
  2
CLASSES
  0
CLASS
  1
ACDBDICTIONARYWDFLT
  2
AcDbDictionaryWithDefault
  3
ObjectDBX Classes
 90
        0
 91
        4
280
     0
281
     0
  0
CLASS
  1
VISUALSTYLE
  2
AcDbVisualStyle
  3
ObjectDBX Classes
 90
     4095
 91
        4
280
     0
281
     0
  0
CLASS
  1
MATERIAL
  2
AcDbMaterial
  3
ObjectDBX Classes
 90
     1153
 91
        4
280
     0
281
     0
  0
CLASS
  1
SUN
  2
AcDbSun
  3
SCENEOE
 90
     1024
 91
        4
280
     0
281
     0
  0
ENDSEC
  0
SECTION
  2
TABLES
  0
TABLE
  2
VPORT
  5
8
330
0
100
AcDbSymbolTable
 70
     1
  0
VPORT
  5
29
330
8
100
AcDbSymbolTableRecord
100
AcDbViewportTableRecord
  2
*Active
 70
     0
 10
0.0
 20
0.0
 11
1.0
 21
1.0
 12
0.0
 22
0.0
 13
0.0
 23
0.0
 14
0.5
 24
0.5
 15
0.5
 25
0.5
 16
0.0
 26
0.0
 36
1.0
 17
91.00082462281999
 27
-128.4993055234307
 37
0.0
 40
256.9986110468615
 41
0.7081814508812795
 42
50.0
 43
0.0
 44
0.0
 50
0.0
 51
0.0
 71
     0
 72
   100
 73
     1
 74
     3
 75
     0
 76
     0
 77
     0
 78
     0
281
     0
 65
     1
110
0.0
120
0.0
130
0.0
111
1.0
121
0.0
131
0.0
112
0.0
122
1.0
132
0.0
 79
     0
146
0.0
 60
     3
 61
     5
292
     1
282
     1
141
0.0
142
0.0
 63
   250
361
3F
  0
ENDTAB
  0
TABLE
  2
LTYPE
  5
5
330
0
100
AcDbSymbolTable
 70
     2
  0
LTYPE
  5
14
330
5
100
AcDbSymbolTableRecord
100
AcDbLinetypeTableRecord
  2
ByBlock
 70
     0
  3

 72
    65
 73
     0
 40
0.0
  0
LTYPE
  5
15
330
5
100
AcDbSymbolTableRecord
100
AcDbLinetypeTableRecord
  2
ByLayer
 70
     0
  3

 72
    65
 73
     0
 40
0.0
  0
LTYPE
  5
16
330
5
100
AcDbSymbolTableRecord
100
AcDbLinetypeTableRecord
  2
Continuous
 70
     0
  3
Solid line
 72
    65
 73
     0
 40
0.0
  0
LTYPE
  5
B0
330
5
100
AcDbSymbolTableRecord
100
AcDbLinetypeTableRecord
  2
AI-Linetype-1
 70
     0
  3
Adobe Illustrator Linetype No. 1
 72
    65
 73
     6
 40
2.999994026864595
 49
0.4999990044774325
 74
     0
 49
-0.4999990044774325
 74
     0
 49
0.4999990044774325
 74
     0
 49
-0.4999990044774325
 74
     0
 49
0.4999990044774325
 74
     0
 49
-0.4999990044774325
 74
     0
  0
ENDTAB
  0
TABLE
  2
LAYER
  5
2
330
0
100
AcDbSymbolTable
 70
     2
  0
LAYER
  5
10
330
2
100
AcDbSymbolTableRecord
100
AcDbLayerTableRecord
  2
0
 70
     0
 62
     7
  6
Continuous
370
    -3
390
F
347
3E
  0
LAYER
  5
40
330
2
100
AcDbSymbolTableRecord
100
AcDbLayerTableRecord
  2
_U+30EC_U+30A4_U+30E4_U+30FC 1
 70
     0
 62
     7
  6
Continuous
370
    -3
390
F
347
3E
  0
ENDTAB
  0
TABLE
  2
STYLE
  5
3
330
0
100
AcDbSymbolTable
 70
     1
  0
STYLE
  5
11
330
3
100
AcDbSymbolTableRecord
100
AcDbTextStyleTableRecord
  2
Standard
 70
     0
 40
0.0
 41
1.0
 50
0.0
 71
     0
 42
0.2
  3
txt
  4

  0
ENDTAB
  0
TABLE
  2
VIEW
  5
6
330
0
100
AcDbSymbolTable
 70
     0
  0
ENDTAB
  0
TABLE
  2
UCS
  5
7
330
0
100
AcDbSymbolTable
 70
     0
  0
ENDTAB
  0
TABLE
  2
APPID
  5
9
330
0
100
AcDbSymbolTable
 70
     1
  0
APPID
  5
12
330
9
100
AcDbSymbolTableRecord
100
AcDbRegAppTableRecord
  2
ACAD
 70
     0
  0
ENDTAB
  0
TABLE
  2
DIMSTYLE
  5
A
330
0
100
AcDbSymbolTable
 70
     1
100
AcDbDimStyleTable
  0
DIMSTYLE
105
27
330
A
100
AcDbSymbolTableRecord
100
AcDbDimStyleTableRecord
  2
Standard
 70
     0
178
     0
340
11
  0
ENDTAB
  0
TABLE
  2
BLOCK_RECORD
  5
1
330
0
100
AcDbSymbolTable
 70
     7
  0
BLOCK_RECORD
  5
1F
330
1
100
AcDbSymbolTableRecord
100
AcDbBlockTableRecord
  2
*Model_Space
340
22
 70
     0
280
     1
281
     0
  0
BLOCK_RECORD
  5
1B
330
1
100
AcDbSymbolTableRecord
100
AcDbBlockTableRecord
  2
*Paper_Space
340
1E
 70
     0
280
     1
281
     0
  0
BLOCK_RECORD
  5
23
330
1
100
AcDbSymbolTableRecord
100
AcDbBlockTableRecord
  2
*Paper_Space0
340
26
 70
     0
280
     1
281
     0
  0
BLOCK_RECORD
  5
45
330
1
100
AcDbSymbolTableRecord
100
AcDbBlockTableRecord
  2
block 2
340
0
102
{BLKREFS
331
46
102
}
 70
     0
280
     1
281
     0
  0
BLOCK_RECORD
  5
5A
330
1
100
AcDbSymbolTableRecord
100
AcDbBlockTableRecord
  2
block 3
340
0
102
{BLKREFS
331
5B
102
}
 70
     0
280
     1
281
     0
  0
BLOCK_RECORD
  5
17B
330
1
100
AcDbSymbolTableRecord
100
AcDbBlockTableRecord
  2
block 4
340
0
102
{BLKREFS
331
17C
102
}
 70
     0
280
     1
281
     0
  0
BLOCK_RECORD
  5
1D9
330
1
100
AcDbSymbolTableRecord
100
AcDbBlockTableRecord
  2
block 5
340
0
102
{BLKREFS
331
1DA
102
}
 70
     0
280
     1
281
     0
  0
BLOCK_RECORD
  5
1FC
330
1
100
AcDbSymbolTableRecord
100
AcDbBlockTableRecord
  2
block 6
340
0
102
{BLKREFS
331
1FD
102
}
 70
     0
280
     1
281
     0
  0
BLOCK_RECORD
  5
213
330
1
100
AcDbSymbolTableRecord
100
AcDbBlockTableRecord
  2
block 7
340
0
102
{BLKREFS
331
214
102
}
 70
     0
280
     1
281
     0
  0
ENDTAB
  0
ENDSEC
  0
SECTION
  2
BLOCKS
  0
BLOCK
  5
20
330
1F
100
AcDbEntity
  8
0
100
AcDbBlockBegin
  2
*Model_Space
 70
     0
 10
0.0
 20
0.0
 30
0.0
  3
*Model_Space
  1

  0
ENDBLK
  5
21
330
1F
100
AcDbEntity
  8
0
100
AcDbBlockEnd
  0
BLOCK
  5
1C
330
1B
100
AcDbEntity
 67
     1
  8
0
100
AcDbBlockBegin
  2
*Paper_Space
 70
     0
 10
0.0
 20
0.0
 30
0.0
  3
*Paper_Space
  1

  0
ENDBLK
  5
1D
330
1B
100
AcDbEntity
 67
     1
  8
0
100
AcDbBlockEnd
  0
BLOCK
  5
24
330
23
100
AcDbEntity
  8
0
100
AcDbBlockBegin
  2
*Paper_Space0
 70
     0
 10
0.0
 20
0.0
 30
0.0
  3
*Paper_Space0
  1

  0
ENDBLK
  5
25
330
23
100
AcDbEntity
  8
0
100
AcDbBlockEnd
  0
BLOCK
  5
47
330
45
100
AcDbEntity
  8
0
100
AcDbBlockBegin
  2
block 2
 70
     0
 10
0.0
 20
0.0
 30
0.0
  3
block 2
  1

  0
SPLINE
  5
49
330
45
100
AcDbEntity
  8
_U+30EC_U+30A4_U+30E4_U+30FC 1
370
     0
100
AcDbSpline
210
0.0
220
0.0
230
1.0
 70
    11
 71
     3
 72
    35
 73
    31
 74
     0
 42
0.0000000001
 43
0.0000000001
 12
1.0
 22
0.0
 32
0.0
 13
1.0
 23
0.0
 33
0.0
 40
0.0
 40
0.0
 40
0.0
 40
0.0
 40
1.0
 40
1.0
 40
1.0
 40
2.0
 40
2.0
 40
2.0
 40
3.0
 40
3.0
 40
3.0
 40
4.0
 40
4.0
 40
4.0
 40
5.0
 40
5.0
 40
5.0
 40
6.0
 40
6.0
 40
6.0
 40
7.0
 40
7.0
 40
7.0
 40
8.0
 40
8.0
 40
8.0
 40
9.0
 40
9.0
 40
9.0
 40
10.0
 40
10.0
 40
10.0
 40
10.0
 10
102.0530300309104
 20
-159.0431775861073
 30
0.0
 10
102.0530300309104
 20
-159.0431775861073
 30
0.0
 10
102.0030761463742
 20
-159.3022487665981
 30
0.0
 10
102.0030761463742
 20
-159.3022487665981
 30
0.0
 10
102.1398464371387
 20
-159.314651110345
 30
0.0
 10
102.4612738459125
 20
-159.4038790834129
 30
0.0
 10
102.4612738459125
 20
-159.7869737013727
 30
0.0
 10
102.4612738459125
 20
-160.2555066873667
 30
0.0
 10
102.0633653173661
 20
-160.3778075770931
 30
0.0
 10
101.7939588504196
 20
-160.3778075770931
 30
0.0
 10
101.7939588504196
 20
-160.3778075770931
 30
0.0
 10
101.7274685075542
 20
-160.7240396733607
 30
0.0
 10
101.7274685075542
 20
-160.7240396733607
 30
0.0
 10
101.7274685075542
 20
-160.7240396733607
 30
0.0
 10
101.524552383473
 20
-160.7240396733607
 30
0.0
 10
101.524552383473
 20
-160.7240396733607
 30
0.0
 10
101.524552383473
 20
-160.7240396733607
 30
0.0
 10
101.5948323313721
 20
-160.363338176055
 30
0.0
 10
101.5948323313721
 20
-160.363338176055
 30
0.0
 10
101.489067899975
 20
-160.3447346604347
 30
0.0
 10
101.145247370547
 20
-160.2844454894428
 30
0.0
 10
101.145247370547
 20
-159.8762016744407
 30
0.0
 10
101.145247370547
 20
-159.4369520000713
 30
0.0
 10
101.4932020145573
 20
-159.2898464228512
 30
0.0
 10
101.8022270795842
 20
-159.2898464228512
 30
0.0
 10
101.8022270795842
 20
-159.2898464228512
 30
0.0
 10
101.8497693972806
 20
-159.0431775861073
 30
0.0
 10
101.8497693972806
 20
-159.0431775861073
 30
0.0
 10
101.8497693972806
 20
-159.0431775861073
 30
0.0
 10
102.0530300309104
 20
-159.0431775861073
 30
0.0
 10
102.0530300309104
 20
-159.0431775861073
 30
0.0
  0
SPLINE
  5
4A
330
45
100
AcDbEntity
  8
_U+30EC_U+30A4_U+30E4_U+30FC 1
370
     0
100
AcDbSpline
210
0.0
220
0.0
230
1.0
 70
    11
 71
     3
 72
    14
 73
    10
 74
     0
 42
0.0000000001
 43
0.0000000001
 12
1.0
 22
0.0
 32
0.0
 13
1.0
 23
0.0
 33
0.0
 40
0.0
 40
0.0
 40
0.0
 40
0.0
 40
1.0
 40
1.0
 40
1.0
 40
2.0
 40
2.0
 40
2.0
 40
3.0
 40
3.0
 40
3.0
 40
3.0
 10
101.7691541629258
 20
-159.459689630274
 30
0.0
 10
101.6509873877817
 20
-159.4679578594386
 30
0.0
 10
101.3626328956663
 20
-159.4906954896412
 30
0.0
 10
101.3626328956663
 20
-159.880335789023
 30
0.0
 10
101.3626328956663
 20
-159.942692017306
 30
0.0
 10
101.3626328956663
 20
-160.1518093132607
 30
0.0
 10
101.6258381907394
 20
-160.1955620259234
 30
0.0
 10
101.6258381907394
 20
-160.1955620259234
 30
0.0
 10
101.7691541629258
 20
-159.459689630274
 30
0.0
 10
101.7691541629258
 20
-159.459689630274
 30
0.0
  0
SPLINE
  5
4B
330
45
100
AcDbEntity
  8
_U+30EC_U+30A4_U+30E4_U+30FC 1
370
     0
100
AcDbSpline
210
0.0
220
0.0
230
1.0
 70
    11
 71
     3
 72
    14
 73
    10
 74
     0
 42
0.0000000001
 43
0.0000000001
 12
1.0
 22
0.0
 32
0.0
 13
1.0
 23
0.0
 33
0.0
 40
0.0
 40
0.0
 40
0.0
 40
0.0
 40
1.0
 40
1.0
 40
1.0
 40
2.0
 40
2.0
 40
2.0
 40
3.0
 40
3.0
 40
3.0
 40
3.0
 10
101.8290988243691
 20
-160.203830255088
 30
0.0
 10
102.0072102609565
 20
-160.1996961405056
 30
0.0
 10
102.2456108685358
 20
-160.1208034538934
 30
0.0
 10
102.2456108685358
 20
-159.7725043003346
 30
0.0
 10
102.2456108685358
 20
-159.6815537795241
 30
0.0
 10
102.2332085247889
 20
-159.4968966615147
 30
0.0
 10
101.9679361724247
 20
-159.4700249167297
 30
0.0
 10
101.9679361724247
 20
-159.4700249167297
 30
0.0
 10
101.8290988243691
 20
-160.203830255088
 30
0.0
 10
101.8290988243691
 20
-160.203830255088
 30
0.0
  0
HATCH
  5
4C
330
45
100
AcDbEntity
  8
_U+30EC_U+30A4_U+30E4_U+30FC 1
 62
   179
420
  2234388
100
AcDbHatch
 10
0.0
 20
0.0
 30
0.0
210
0.0
220
0.0
230
1.0
  2
SOLID
 70
     1
 71
     0
 91
        3
 92
        1
 93
        1
 72
     4
 94
        3
 73
     0
 74
     1
 95
       35
 96
       31
 40
0.0
 40
0.0
 40
0.0
 40
0.0
 40
1.0
 40
1.0
 40
1.0
 40
2.0
 40
2.0
 40
2.0
 40
3.0
 40
3.0
 40
3.0
 40
4.0
 40
4.0
 40
4.0
 40
5.0
 40
5.0
 40
5.0
 40
6.0
 40
6.0
 40
6.0
 40
7.0
 40
7.0
 40
7.0
 40
8.0
 40
8.0
 40
8.0
 40
9.0
 40
9.0
 40
9.0
 40
10.0
 40
10.0
 40
10.0
 40
10.0
 10
102.0530300309104
 20
-159.0431775861073
 10
102.0530300309104
 20
-159.0431775861073
 10
102.0030761463742
 20
-159.3022487665981
 10
102.0030761463742
 20
-159.3022487665981
 10
102.1398464371387
 20
-159.314651110345
 10
102.4612738459125
 20
-159.4038790834129
 10
102.4612738459125
 20
-159.7869737013727
 10
102.4612738459125
 20
-160.2555066873667
 10
102.0633653173661
 20
-160.3778075770931
 10
101.7939588504196
 20
-160.3778075770931
 10
101.7939588504196
 20
-160.3778075770931
 10
101.7274685075542
 20
-160.7240396733607
 10
101.7274685075542
 20
-160.7240396733607
 10
101.7274685075542
 20
-160.7240396733607
 10
101.524552383473
 20
-160.7240396733607
 10
101.524552383473
 20
-160.7240396733607
 10
101.524552383473
 20
-160.7240396733607
 10
101.5948323313721
 20
-160.363338176055
 10
101.5948323313721
 20
-160.363338176055
 10
101.489067899975
 20
-160.3447346604347
 10
101.145247370547
 20
-160.2844454894428
 10
101.145247370547
 20
-159.8762016744407
 10
101.145247370547
 20
-159.4369520000713
 10
101.4932020145573
 20
-159.2898464228512
 10
101.8022270795842
 20
-159.2898464228512
 10
101.8022270795842
 20
-159.2898464228512
 10
101.8497693972806
 20
-159.0431775861073
 10
101.8497693972806
 20
-159.0431775861073
 10
101.8497693972806
 20
-159.0431775861073
 10
102.0530300309104
 20
-159.0431775861073
 10
102.0530300309104
 20
-159.0431775861073
 97
        0
 97
        0
 92
        1
 93
        1
 72
     4
 94
        3
 73
     0
 74
     1
 95
       14
 96
       10
 40
0.0
 40
0.0
 40
0.0
 40
0.0
 40
1.0
 40
1.0
 40
1.0
 40
2.0
 40
2.0
 40
2.0
 40
3.0
 40
3.0
 40
3.0
 40
3.0
 10
101.7691541629258
 20
-159.459689630274
 10
101.6509873877817
 20
-159.4679578594386
 10
101.3626328956663
 20
-159.4906954896412
 10
101.3626328956663
 20
-159.880335789023
 10
101.3626328956663
 20
-159.942692017306
 10
101.3626328956663
 20
-160.1518093132607
 10
101.6258381907394
 20
-160.1955620259234
 10
101.6258381907394
 20
-160.1955620259234
 10
101.7691541629258
 20
-159.459689630274
 10
101.7691541629258
 20
-159.459689630274
 97
        0
 97
        0
 92
        1
 93
        1
 72
     4
 94
        3
 73
     0
 74
     1
 95
       14
 96
       10
 40
0.0
 40
0.0
 40
0.0
 40
0.0
 40
1.0
 40
1.0
 40
1.0
 40
2.0
 40
2.0
 40
2.0
 40
3.0
 40
3.0
 40
3.0
 40
3.0
 10
101.8290988243691
 20
-160.203830255088
 10
102.0072102609565
 20
-160.1996961405056
 10
102.2456108685358
 20
-160.1208034538934
 10
102.2456108685358
 20
-159.7725043003346
 10
102.2456108685358
 20
-159.6815537795241
 10
102.2332085247889
 20
-159.4968966615147
 10
101.9679361724247
 20
-159.4700249167297
 10
101.9679361724247
 20
-159.4700249167297
 10
101.8290988243691
 20
-160.203830255088
 10
101.8290988243691
 20
-160.203830255088
 97
        0
 97
        0
 75
     2
 76
     1
 98
        0
  0
SPLINE
  5
4D
330
45
100
AcDbEntity
  8
_U+30EC_U+30A4_U+30E4_U+30FC 1
370
     0
100
AcDbSpline
210
0.0
220
0.0
230
1.0
 70
    11
 71
     3
 72
    32
 73
    28
 74
     0
 42
0.0000000001
 43
0.0000000001
 12
1.0
 22
0.0
 32
0.0
 13
1.0
 23
0.0
 33
0.0
 40
0.0
 40
0.0
 40
0.0
 40
0.0
 40
1.0
 40
1.0
 40
1.0
 40
2.0
 40
2.0
 40
2.0
 40
3.0
 40
3.0
 40
3.0
 40
4.0
 40
4.0
 40
4.0
 40
5.0
 40
5.0
 40
5.0
 40
6.0
 40
6.0
 40
6.0
 40
7.0
 40
7.0
 40
7.0
 40
8.0
 40
8.0
 40
8.0
 40
9.0
 40
9.0
 40
9.0
 40
9.0
 10
103.4369248873352
 20
-160.4367187098908
 30
0.0
 10
102.9208495836448
 20
-160.4367187098908
 30
0.0
 10
102.9122368449317
 20
-159.8827473558626
 30
0.0
 10
102.9122368449317
 20
-159.6688069262286
 30
0.0
 10
102.9122368449317
 20
-159.4383300382654
 30
0.0
 10
102.9315293796491
 20
-158.790996596587
 30
0.0
 10
103.4751654472215
 20
-158.790996596587
 30
0.0
 10
103.6484537501296
 20
-158.790996596587
 30
0.0
 10
103.8940890582279
 20
-158.8609320349375
 30
0.0
 10
103.9319851085656
 20
-159.1930392397156
 30
0.0
 10
103.9319851085656
 20
-159.1930392397156
 30
0.0
 10
103.7183891884801
 20
-159.1930392397156
 30
0.0
 10
103.7183891884801
 20
-159.1930392397156
 30
0.0
 10
103.7077093924758
 20
-159.1358506546605
 30
0.0
 10
103.6760145140116
 20
-158.9877115487947
 30
0.0
 10
103.4730983899303
 20
-158.9877115487947
 30
0.0
 10
103.1809542927812
 20
-158.9877115487947
 30
0.0
 10
103.1409911851523
 20
-159.3156846389905
 30
0.0
 10
103.1282443318568
 20
-159.5206678203629
 30
0.0
 10
103.2212619099586
 20
-159.4424641528477
 30
0.0
 10
103.289130291018
 20
-159.3832085105014
 30
0.0
 10
103.4710313326392
 20
-159.3832085105014
 30
0.0
 10
103.6508653169692
 20
-159.3832085105014
 30
0.0
 10
103.9533447005742
 20
-159.4913845087383
 30
0.0
 10
103.9533447005742
 20
-159.8975612664492
 30
0.0
 10
103.9533447005742
 20
-160.2169216179319
 30
0.0
 10
103.7542181815267
 20
-160.4367187098908
 30
0.0
 10
103.4369248873352
 20
-160.4367187098908
 30
0.0
  0
SPLINE
  5
4E
330
45
100
AcDbEntity
  8
_U+30EC_U+30A4_U+30E4_U+30FC 1
370
     0
100
AcDbSpline
210
0.0
220
0.0
230
1.0
 70
    11
 71
     3
 72
    17
 73
    13
 74
     0
 42
0.0000000001
 43
0.0000000001
 12
1.0
 22
0.0
 32
0.0
 13
1.0
 23
0.0
 33
0.0
 40
0.0
 40
0.0
 40
0.0
 40
0.0
 40
1.0
 40
1.0
 40
1.0
 40
2.0
 40
2.0
 40
2.0
 40
3.0
 40
3.0
 40
3.0
 40
4.0
 40
4.0
 40
4.0
 40
4.0
 10
103.4538058552129
 20
-159.577856405418
 30
0.0
 10
103.1916340887854
 20
-159.577856405418
 30
0.0
 10
103.1537380384477
 20
-159.7893852682124
 30
0.0
 10
103.1537380384477
 20
-159.9058294956138
 30
0.0
 10
103.1537380384477
 20
-160.0815293653616
 30
0.0
 10
103.2488226738406
 20
-160.2444823818139
 30
0.0
 10
103.4327907727529
 20
-160.2444823818139
 30
0.0
 10
103.5533691147367
 20
-160.2444823818139
 30
0.0
 10
103.7290689844844
 20
-160.1852267394676
 30
0.0
 10
103.7290689844844
 20
-159.8996283237404
 30
0.0
 10
103.7290689844844
 20
-159.6753526076506
 30
0.0
 10
103.5895426173318
 20
-159.577856405418
 30
0.0
 10
103.4538058552129
 20
-159.577856405418
 30
0.0
  0
HATCH
  5
4F
330
45
100
AcDbEntity
  8
_U+30EC_U+30A4_U+30E4_U+30FC 1
 62
   179
420
  2234388
100
AcDbHatch
 10
0.0
 20
0.0
 30
0.0
210
0.0
220
0.0
230
1.0
  2
SOLID
 70
     1
 71
     0
 91
        2
 92
        1
 93
        1
 72
     4
 94
        3
 73
     0
 74
     1
 95
       32
 96
       28
 40
0.0
 40
0.0
 40
0.0
 40
0.0
 40
1.0
 40
1.0
 40
1.0
 40
2.0
 40
2.0
 40
2.0
 40
3.0
 40
3.0
 40
3.0
 40
4.0
 40
4.0
 40
4.0
 40
5.0
 40
5.0
 40
5.0
 40
6.0
 40
6.0
 40
6.0
 40
7.0
 40
7.0
 40
7.0
 40
8.0
 40
8.0
 40
8.0
 40
9.0
 40
9.0
 40
9.0
 40
9.0
 10
103.4369248873352
 20
-160.4367187098908
 10
102.9208495836448
 20
-160.4367187098908
 10
102.9122368449317
 20
-159.8827473558626
 10
102.9122368449317
 20
-159.6688069262286
 10
102.9122368449317
 20
-159.4383300382654
 10
102.9315293796491
 20
-158.790996596587
 10
103.4751654472215
 20
-158.790996596587
 10
103.6484537501296
 20
-158.790996596587
 10
103.8940890582279
 20
-158.8609320349375
 10
103.9319851085656
 20
-159.1930392397156
 10
103.9319851085656
 20
-159.1930392397156
 10
103.7183891884801
 20
-159.1930392397156
 10
103.7183891884801
 20
-159.1930392397156
 10
103.7077093924758
 20
-159.1358506546605
 10
103.6760145140116
 20
-158.9877115487947
 10
103.4730983899303
 20
-158.9877115487947
 10
103.1809542927812
 20
-158.9877115487947
 10
103.1409911851523
 20
-159.3156846389905
 10
103.1282443318568
 20
-159.5206678203629
 10
103.2212619099586
 20
-159.4424641528477
 10
103.289130291018
 20
-159.3832085105014
 10
103.4710313326392
 20
-159.3832085105014
 10
103.6508653169692
 20
-159.3832085105014
 10
103.9533447005742
 20
-159.4913845087383
 10
103.9533447005742
 20
-159.8975612664492
 10
103.9533447005742
 20
-160.2169216179319
 10
103.7542181815267
 20
-160.4367187098908
 10
103.4369248873352
 20
-160.4367187098908
 97
        0
 97
        0
 92
        1
 93
        1
 72
     4
 94
        3
 73
     0
 74
     1
 95
       17
 96
       13
 40
0.0
 40
0.0
 40
0.0
 40
0.0
 40
1.0
 40
1.0
 40
1.0
 40
2.0
 40
2.0
 40
2.0
 40
3.0
 40
3.0
 40
3.0
 40
4.0
 40
4.0
 40
4.0
 40
4.0
 10
103.4538058552129
 20
-159.577856405418
 10
103.1916340887854
 20
-159.577856405418
 10
103.1537380384477
 20
-159.7893852682124
 10
103.1537380384477
 20
-159.9058294956138
 10
103.1537380384477
 20
-160.0815293653616
 10
103.2488226738406
 20
-160.2444823818139
 10
103.4327907727529
 20
-160.2444823818139
 10
103.5533691147367
 20
-160.2444823818139
 10
103.7290689844844
 20
-160.1852267394676
 10
103.7290689844844
 20
-159.8996283237404
 10
103.7290689844844
 20
-159.6753526076506
 10
103.5895426173318
 20
-159.577856405418
 10
103.4538058552129
 20
-159.577856405418
 97
        0
 97
        0
 75
     2
 76
     1
 98
        0
  0
POLYLINE
  5
50
330
45
100
AcDbEntity
  8
_U+30EC_U+30A4_U+30E4_U+30FC 1
370
     0
100
AcDb2dPolyline
 66
     1
 10
0.0
 20
0.0
 30
0.0
  0
VERTEX
  5
51
330
50
100
AcDbEntity
  8
_U+30EC_U+30A4_U+30E4_U+30FC 1
370
     0
100
AcDbVertex
100
AcDb2dVertex
 10
104.1696966970479
 20
-160.3860758062577
 30
0.0
  0
VERTEX
  5
52
330
50
100
AcDbEntity
  8
_U+30EC_U+30A4_U+30E4_U+30FC 1
370
     0
100
AcDbVertex
100
AcDb2dVertex
 10
104.1696966970479
 20
-160.1342393262859
 30
0.0
  0
VERTEX
  5
53
330
50
100
AcDbEntity
  8
_U+30EC_U+30A4_U+30E4_U+30FC 1
370
     0
100
AcDbVertex
100
AcDb2dVertex
 10
104.4215331770196
 20
-160.1342393262859
 30
0.0
  0
VERTEX
  5
54
330
50
100
AcDbEntity
  8
_U+30EC_U+30A4_U+30E4_U+30FC 1
370
     0
100
AcDbVertex
100
AcDb2dVertex
 10
104.4215331770196
 20
-160.3860758062577
 30
0.0
  0
VERTEX
  5
55
330
50
100
AcDbEntity
  8
_U+30EC_U+30A4_U+30E4_U+30FC 1
370
     0
100
AcDbVertex
100
AcDb2dVertex
 10
104.1696966970479
 20
-160.3860758062577
 30
0.0
  0
SEQEND
  5
56
330
50
100
AcDbEntity
  8
_U+30EC_U+30A4_U+30E4_U+30FC 1
370
     0
  0
HATCH
  5
57
330
45
100
AcDbEntity
  8
_U+30EC_U+30A4_U+30E4_U+30FC 1
 62
   179
420
  2234388
100
AcDbHatch
 10
0.0
 20
0.0
 30
0.0
210
0.0
220
0.0
230
1.0
  2
SOLID
 70
     1
 71
     0
 91
        1
 92
        1
 93
        4
 72
     1
 10
104.1696966970479
 20
-160.3860758062577
 11
104.1696966970479
 21
-160.1342393262859
 72
     1
 10
104.1696966970479
 20
-160.1342393262859
 11
104.4215331770196
 21
-160.1342393262859
 72
     1
 10
104.4215331770196
 20
-160.1342393262859
 11
104.4215331770196
 21
-160.3860758062577
 72
     1
 10
104.4215331770196
 20
-160.3860758062577
 11
104.1696966970479
 21
-160.3860758062577
 97
        0
 75
     2
 76
     1
 98
        0
  0
SPLINE
  5
58
330
45
100
AcDbEntity
  8
_U+30EC_U+30A4_U+30E4_U+30FC 1
370
     0
100
AcDbSpline
210
0.0
220
0.0
230
1.0
 70
    11
 71
     3
 72
    53
 73
    49
 74
     0
 42
0.0000000001
 43
0.0000000001
 12
1.0
 22
0.0
 32
0.0
 13
1.0
 23
0.0
 33
0.0
 40
0.0
 40
0.0
 40
0.0
 40
0.0
 40
1.0
 40
1.0
 40
1.0
 40
2.0
 40
2.0
 40
2.0
 40
3.0
 40
3.0
 40
3.0
 40
4.0
 40
4.0
 40
4.0
 40
5.0
 40
5.0
 40
5.0
 40
6.0
 40
6.0
 40
6.0
 40
7.0
 40
7.0
 40
7.0
 40
8.0
 40
8.0
 40
8.0
 40
9.0
 40
9.0
 40
9.0
 40
10.0
 40
10.0
 40
10.0
 40
11.0
 40
11.0
 40
11.0
 40
12.0
 40
12.0
 40
12.0
 40
13.0
 40
13.0
 40
13.0
 40
14.0
 40
14.0
 40
14.0
 40
15.0
 40
15.0
 40
15.0
 40
16.0
 40
16.0
 40
16.0
 40
16.0
 10
105.1388020570486
 20
-160.4367187098908
 30
0.0
 10
105.0605983895335
 20
-160.4367187098908
 30
0.0
 10
104.9589680727186
 20
-160.4198377420131
 30
0.0
 10
104.8573377559037
 20
-160.3564479850845
 30
0.0
 10
104.6840494529957
 20
-160.246549439105
 30
0.0
 10
104.6626898609871
 20
-160.115291301117
 30
0.0
 10
104.6437418358182
 20
-160.0074598124287
 30
0.0
 10
104.6437418358182
 20
-160.0074598124287
 30
0.0
 10
104.8659504946169
 20
-160.0074598124287
 30
0.0
 10
104.8659504946169
 20
-160.0074598124287
 30
0.0
 10
104.9207275128323
 20
-160.2062418219276
 30
0.0
 10
105.047851536238
 20
-160.2358696431008
 30
0.0
 10
105.1408691143398
 20
-160.2358696431008
 30
0.0
 10
105.2803954814924
 20
-160.2358696431008
 30
0.0
 10
105.4326687019404
 20
-160.1363063835771
 30
0.0
 10
105.4326687019404
 20
-159.9037624383227
 30
0.0
 10
105.4326687019404
 20
-159.6477918437686
 30
0.0
 10
105.2528347176104
 20
-159.577856405418
 30
0.0
 10
105.1322563756267
 20
-159.577856405418
 30
0.0
 10
105.1005614971624
 20
-159.577856405418
 30
0.0
 10
104.9589680727186
 20
-159.577856405418
 30
0.0
 10
104.8700846091992
 20
-159.7070474861149
 30
0.0
 10
104.8700846091992
 20
-159.7070474861149
 30
0.0
 10
104.6943847394514
 20
-159.688099460946
 30
0.0
 10
104.6943847394514
 20
-159.688099460946
 30
0.0
 10
104.6943847394514
 20
-159.688099460946
 30
0.0
 10
104.8149630814352
 20
-158.8416395002201
 30
0.0
 10
104.8149630814352
 20
-158.8416395002201
 30
0.0
 10
104.8149630814352
 20
-158.8416395002201
 30
0.0
 10
105.5935546611016
 20
-158.8416395002201
 30
0.0
 10
105.5935546611016
 20
-158.8416395002201
 30
0.0
 10
105.5935546611016
 20
-158.8416395002201
 30
0.0
 10
105.5935546611016
 20
-159.0362873951368
 30
0.0
 10
105.5935546611016
 20
-159.0362873951368
 30
0.0
 10
105.5935546611016
 20
-159.0362873951368
 30
0.0
 10
104.9779160978875
 20
-159.0362873951368
 30
0.0
 10
104.9779160978875
 20
-159.0362873951368
 30
0.0
 10
104.9779160978875
 20
-159.0362873951368
 30
0.0
 10
104.9124592836677
 20
-159.4593451207255
 30
0.0
 10
104.9124592836677
 20
-159.4593451207255
 30
0.0
 10
104.9737819833052
 20
-159.42558318497
 30
0.0
 10
105.0561197654026
 20
-159.3852755677926
 30
0.0
 10
105.1746310500952
 20
-159.3852755677926
 30
0.0
 10
105.4285345873581
 20
-159.3852755677926
 30
0.0
 10
105.6655571567433
 20
-159.5716552335446
 30
0.0
 10
105.6655571567433
 20
-159.8848144131538
 30
0.0
 10
105.6655571567433
 20
-160.2021077073453
 30
0.0
 10
105.4412814406536
 20
-160.4367187098908
 30
0.0
 10
105.1388020570486
 20
-160.4367187098908
 30
0.0
  0
HATCH
  5
59
330
45
100
AcDbEntity
  8
_U+30EC_U+30A4_U+30E4_U+30FC 1
 62
   179
420
  2234388
100
AcDbHatch
 10
0.0
 20
0.0
 30
0.0
210
0.0
220
0.0
230
1.0
  2
SOLID
 70
     1
 71
     0
 91
        1
 92
        1
 93
        1
 72
     4
 94
        3
 73
     0
 74
     1
 95
       53
 96
       49
 40
0.0
 40
0.0
 40
0.0
 40
0.0
 40
1.0
 40
1.0
 40
1.0
 40
2.0
 40
2.0
 40
2.0
 40
3.0
 40
3.0
 40
3.0
 40
4.0
 40
4.0
 40
4.0
 40
5.0
 40
5.0
 40
5.0
 40
6.0
 40
6.0
 40
6.0
 40
7.0
 40
7.0
 40
7.0
 40
8.0
 40
8.0
 40
8.0
 40
9.0
 40
9.0
 40
9.0
 40
10.0
 40
10.0
 40
10.0
 40
11.0
 40
11.0
 40
11.0
 40
12.0
 40
12.0
 40
12.0
 40
13.0
 40
13.0
 40
13.0
 40
14.0
 40
14.0
 40
14.0
 40
15.0
 40
15.0
 40
15.0
 40
16.0
 40
16.0
 40
16.0
 40
16.0
 10
105.1388020570486
 20
-160.4367187098908
 10
105.0605983895335
 20
-160.4367187098908
 10
104.9589680727186
 20
-160.4198377420131
 10
104.8573377559037
 20
-160.3564479850845
 10
104.6840494529957
 20
-160.246549439105
 10
104.6626898609871
 20
-160.115291301117
 10
104.6437418358182
 20
-160.0074598124287
 10
104.6437418358182
 20
-160.0074598124287
 10
104.8659504946169
 20
-160.0074598124287
 10
104.8659504946169
 20
-160.0074598124287
 10
104.9207275128323
 20
-160.2062418219276
 10
105.047851536238
 20
-160.2358696431008
 10
105.1408691143398
 20
-160.2358696431008
 10
105.2803954814924
 20
-160.2358696431008
 10
105.4326687019404
 20
-160.1363063835771
 10
105.4326687019404
 20
-159.9037624383227
 10
105.4326687019404
 20
-159.6477918437686
 10
105.2528347176104
 20
-159.577856405418
 10
105.1322563756267
 20
-159.577856405418
 10
105.1005614971624
 20
-159.577856405418
 10
104.9589680727186
 20
-159.577856405418
 10
104.8700846091992
 20
-159.7070474861149
 10
104.8700846091992
 20
-159.7070474861149
 10
104.6943847394514
 20
-159.688099460946
 10
104.6943847394514
 20
-159.688099460946
 10
104.6943847394514
 20
-159.688099460946
 10
104.8149630814352
 20
-158.8416395002201
 10
104.8149630814352
 20
-158.8416395002201
 10
104.8149630814352
 20
-158.8416395002201
 10
105.5935546611016
 20
-158.8416395002201
 10
105.5935546611016
 20
-158.8416395002201
 10
105.5935546611016
 20
-158.8416395002201
 10
105.5935546611016
 20
-159.0362873951368
 10
105.5935546611016
 20
-159.0362873951368
 10
105.5935546611016
 20
-159.0362873951368
 10
104.9779160978875
 20
-159.0362873951368
 10
104.9779160978875
 20
-159.0362873951368
 10
104.9779160978875
 20
-159.0362873951368
 10
104.9124592836677
 20
-159.4593451207255
 10
104.9124592836677
 20
-159.4593451207255
 10
104.9737819833052
 20
-159.42558318497
 10
105.0561197654026
 20
-159.3852755677926
 10
105.1746310500952
 20
-159.3852755677926
 10
105.4285345873581
 20
-159.3852755677926
 10
105.6655571567433
 20
-159.5716552335446
 10
105.6655571567433
 20
-159.8848144131538
 10
105.6655571567433
 20
-160.2021077073453
 10
105.4412814406536
 20
-160.4367187098908
 10
105.1388020570486
 20
-160.4367187098908
 97
        0
 97
        0
 75
     2
 76
     1
 98
        0
  0
ENDBLK
  5
48
330
45
100
AcDbEntity
  8
0
100
AcDbBlockEnd
  0
BLOCK
  5
5C
330
5A
100
AcDbEntity
  8
0
100
AcDbBlockBegin
  2
block 3
 70
     0
 10
0.0
 20
0.0
 30
0.0
  3
block 3
  1

  0
SPLINE
  5
5E
330
5A
100
AcDbEntity
  8
_U+30EC_U+30A4_U+30E4_U+30FC 1
370
     0
100
AcDbSpline
210
0.0
220
0.0
230
1.0
 70
    11
 71
     3
 72
    35
 73
    31
 74
     0
 42
0.0000000001
 43
0.0000000001
 12
1.0
 22
0.0
 32
0.0
 13
1.0
 23
0.0
 33
0.0
 40
0.0
 40
0.0
 40
0.0
 40
0.0
 40
1.0
 40
1.0
 40
1.0
 40
2.0
 40
2.0
 40
2.0
 40
3.0
 40
3.0
 40
3.0
 40
4.0
 40
4.0
 40
4.0
 40
5.0
 40
5.0
 40
5.0
 40
6.0
 40
6.0
 40
6.0
 40
7.0
 40
7.0
 40
7.0
 40
8.0
 40
8.0
 40
8.0
 40
9.0
 40
9.0
 40
9.0
 40
10.0
 40
10.0
 40
10.0
 40
10.0
 10
85.56015215959955
 20
-144.1231580585873
 30
0.0
 10
85.56015215959955
 20
-144.1231580585873
 30
0.0
 10
85.51054278461196
 20
-144.3822292390781
 30
0.0
 10
85.51054278461196
 20
-144.3822292390781
 30
0.0
 10
85.64731307537637
 20
-144.394631582825
 30
0.0
 10
85.96856822937592
 20
-144.4838595558929
 30
0.0
 10
85.96856822937592
 20
-144.8669541738527
 30
0.0
 10
85.96856822937592
 20
-145.3354871598467
 30
0.0
 10
85.57065970082957
 20
-145.4577880495731
 30
0.0
 10
85.30108097910876
 20
-145.4577880495731
 30
0.0
 10
85.30108097910876
 20
-145.4577880495731
 30
0.0
 10
85.2347628910177
 20
-145.8040201458407
 30
0.0
 10
85.2347628910177
 20
-145.8040201458407
 30
0.0
 10
85.2347628910177
 20
-145.8040201458407
 30
0.0
 10
85.03167451216223
 20
-145.8040201458407
 30
0.0
 10
85.03167451216223
 20
-145.8040201458407
 30
0.0
 10
85.03167451216223
 20
-145.8040201458407
 30
0.0
 10
85.10212671483558
 20
-145.443318648535
 30
0.0
 10
85.10212671483558
 20
-145.443318648535
 30
0.0
 10
84.99653453821267
 20
-145.4247151329147
 30
0.0
 10
84.65254175401049
 20
-145.3644259619228
 30
0.0
 10
84.65254175401049
 20
-144.9561821469207
 30
0.0
 10
84.65254175401049
 20
-144.5169324725513
 30
0.0
 10
85.00066865279497
 20
-144.3698268953312
 30
0.0
 10
85.30952146304763
 20
-144.3698268953312
 30
0.0
 10
85.30952146304763
 20
-144.3698268953312
 30
0.0
 10
85.35706378074407
 20
-144.1231580585873
 30
0.0
 10
85.35706378074407
 20
-144.1231580585873
 30
0.0
 10
85.35706378074407
 20
-144.1231580585873
 30
0.0
 10
85.56015215959955
 20
-144.1231580585873
 30
0.0
 10
85.56015215959955
 20
-144.1231580585873
 30
0.0
  0
SPLINE
  5
5F
330
5A
100
AcDbEntity
  8
_U+30EC_U+30A4_U+30E4_U+30FC 1
370
     0
100
AcDbSpline
210
0.0
220
0.0
230
1.0
 70
    11
 71
     3
 72
    14
 73
    10
 74
     0
 42
0.0000000001
 43
0.0000000001
 12
1.0
 22
0.0
 32
0.0
 13
1.0
 23
0.0
 33
0.0
 40
0.0
 40
0.0
 40
0.0
 40
0.0
 40
1.0
 40
1.0
 40
1.0
 40
2.0
 40
2.0
 40
2.0
 40
3.0
 40
3.0
 40
3.0
 40
3.0
 10
85.27627629161496
 20
-144.539670102754
 30
0.0
 10
85.15810951647089
 20
-144.5479383319186
 30
0.0
 10
84.87009953390401
 20
-144.5706759621212
 30
0.0
 10
84.87009953390401
 20
-144.960316261503
 30
0.0
 10
84.87009953390401
 20
-145.022672489786
 30
0.0
 10
84.87009953390401
 20
-145.2317897857407
 30
0.0
 10
85.13330482897709
 20
-145.2755424984034
 30
0.0
 10
85.13330482897709
 20
-145.2755424984034
 30
0.0
 10
85.27627629161496
 20
-144.539670102754
 30
0.0
 10
85.27627629161496
 20
-144.539670102754
 30
0.0
  0
SPLINE
  5
60
330
5A
100
AcDbEntity
  8
_U+30EC_U+30A4_U+30E4_U+30FC 1
370
     0
100
AcDbSpline
210
0.0
220
0.0
230
1.0
 70
    11
 71
     3
 72
    14
 73
    10
 74
     0
 42
0.0000000001
 43
0.0000000001
 12
1.0
 22
0.0
 32
0.0
 13
1.0
 23
0.0
 33
0.0
 40
0.0
 40
0.0
 40
0.0
 40
0.0
 40
1.0
 40
1.0
 40
1.0
 40
2.0
 40
2.0
 40
2.0
 40
3.0
 40
3.0
 40
3.0
 40
3.0
 10
85.33639320783257
 20
-145.283810727568
 30
0.0
 10
85.51467689919426
 20
-145.2796766129856
 30
0.0
 10
85.75290525199928
 20
-145.2007839263734
 30
0.0
 10
85.75290525199928
 20
-144.8524847728147
 30
0.0
 10
85.75290525199928
 20
-144.7615342520041
 30
0.0
 10
85.74050290825238
 20
-144.5768771339947
 30
0.0
 10
85.47523055588815
 20
-144.5500053892097
 30
0.0
 10
85.47523055588815
 20
-144.5500053892097
 30
0.0
 10
85.33639320783257
 20
-145.283810727568
 30
0.0
 10
85.33639320783257
 20
-145.283810727568
 30
0.0
  0
HATCH
  5
61
330
5A
100
AcDbEntity
  8
_U+30EC_U+30A4_U+30E4_U+30FC 1
 62
   179
420
  2234388
100
AcDbHatch
 10
0.0
 20
0.0
 30
0.0
210
0.0
220
0.0
230
1.0
  2
SOLID
 70
     1
 71
     0
 91
        3
 92
        1
 93
        1
 72
     4
 94
        3
 73
     0
 74
     1
 95
       35
 96
       31
 40
0.0
 40
0.0
 40
0.0
 40
0.0
 40
1.0
 40
1.0
 40
1.0
 40
2.0
 40
2.0
 40
2.0
 40
3.0
 40
3.0
 40
3.0
 40
4.0
 40
4.0
 40
4.0
 40
5.0
 40
5.0
 40
5.0
 40
6.0
 40
6.0
 40
6.0
 40
7.0
 40
7.0
 40
7.0
 40
8.0
 40
8.0
 40
8.0
 40
9.0
 40
9.0
 40
9.0
 40
10.0
 40
10.0
 40
10.0
 40
10.0
 10
85.56015215959955
 20
-144.1231580585873
 10
85.56015215959955
 20
-144.1231580585873
 10
85.51054278461196
 20
-144.3822292390781
 10
85.51054278461196
 20
-144.3822292390781
 10
85.64731307537637
 20
-144.394631582825
 10
85.96856822937592
 20
-144.4838595558929
 10
85.96856822937592
 20
-144.8669541738527
 10
85.96856822937592
 20
-145.3354871598467
 10
85.57065970082957
 20
-145.4577880495731
 10
85.30108097910876
 20
-145.4577880495731
 10
85.30108097910876
 20
-145.4577880495731
 10
85.2347628910177
 20
-145.8040201458407
 10
85.2347628910177
 20
-145.8040201458407
 10
85.2347628910177
 20
-145.8040201458407
 10
85.03167451216223
 20
-145.8040201458407
 10
85.03167451216223
 20
-145.8040201458407
 10
85.03167451216223
 20
-145.8040201458407
 10
85.10212671483558
 20
-145.443318648535
 10
85.10212671483558
 20
-145.443318648535
 10
84.99653453821267
 20
-145.4247151329147
 10
84.65254175401049
 20
-145.3644259619228
 10
84.65254175401049
 20
-144.9561821469207
 10
84.65254175401049
 20
-144.5169324725513
 10
85.00066865279497
 20
-144.3698268953312
 10
85.30952146304763
 20
-144.3698268953312
 10
85.30952146304763
 20
-144.3698268953312
 10
85.35706378074407
 20
-144.1231580585873
 10
85.35706378074407
 20
-144.1231580585873
 10
85.35706378074407
 20
-144.1231580585873
 10
85.56015215959955
 20
-144.1231580585873
 10
85.56015215959955
 20
-144.1231580585873
 97
        0
 97
        0
 92
        1
 93
        1
 72
     4
 94
        3
 73
     0
 74
     1
 95
       14
 96
       10
 40
0.0
 40
0.0
 40
0.0
 40
0.0
 40
1.0
 40
1.0
 40
1.0
 40
2.0
 40
2.0
 40
2.0
 40
3.0
 40
3.0
 40
3.0
 40
3.0
 10
85.27627629161496
 20
-144.539670102754
 10
85.15810951647089
 20
-144.5479383319186
 10
84.87009953390401
 20
-144.5706759621212
 10
84.87009953390401
 20
-144.960316261503
 10
84.87009953390401
 20
-145.022672489786
 10
84.87009953390401
 20
-145.2317897857407
 10
85.13330482897709
 20
-145.2755424984034
 10
85.13330482897709
 20
-145.2755424984034
 10
85.27627629161496
 20
-144.539670102754
 10
85.27627629161496
 20
-144.539670102754
 97
        0
 97
        0
 92
        1
 93
        1
 72
     4
 94
        3
 73
     0
 74
     1
 95
       14
 96
       10
 40
0.0
 40
0.0
 40
0.0
 40
0.0
 40
1.0
 40
1.0
 40
1.0
 40
2.0
 40
2.0
 40
2.0
 40
3.0
 40
3.0
 40
3.0
 40
3.0
 10
85.33639320783257
 20
-145.283810727568
 10
85.51467689919426
 20
-145.2796766129856
 10
85.75290525199928
 20
-145.2007839263734
 10
85.75290525199928
 20
-144.8524847728147
 10
85.75290525199928
 20
-144.7615342520041
 10
85.74050290825238
 20
-144.5768771339947
 10
85.47523055588815
 20
-144.5500053892097
 10
85.47523055588815
 20
-144.5500053892097
 10
85.33639320783257
 20
-145.283810727568
 10
85.33639320783257
 20
-145.283810727568
 97
        0
 97
        0
 75
     2
 76
     1
 98
        0
  0
SPLINE
  5
62
330
5A
100
AcDbEntity
  8
_U+30EC_U+30A4_U+30E4_U+30FC 1
370
     0
100
AcDbSpline
210
0.0
220
0.0
230
1.0
 70
    11
 71
     3
 72
    32
 73
    28
 74
     0
 42
0.0000000001
 43
0.0000000001
 12
1.0
 22
0.0
 32
0.0
 13
1.0
 23
0.0
 33
0.0
 40
0.0
 40
0.0
 40
0.0
 40
0.0
 40
1.0
 40
1.0
 40
1.0
 40
2.0
 40
2.0
 40
2.0
 40
3.0
 40
3.0
 40
3.0
 40
4.0
 40
4.0
 40
4.0
 40
5.0
 40
5.0
 40
5.0
 40
6.0
 40
6.0
 40
6.0
 40
7.0
 40
7.0
 40
7.0
 40
8.0
 40
8.0
 40
8.0
 40
9.0
 40
9.0
 40
9.0
 40
9.0
 10
86.88651392142074
 20
-145.5156656537253
 30
0.0
 10
86.71649845922366
 20
-145.5156656537253
 30
0.0
 10
86.47620304912748
 20
-145.4474527631173
 30
0.0
 10
86.43882376311252
 20
-145.1218912397612
 30
0.0
 10
86.43882376311252
 20
-145.1218912397612
 30
0.0
 10
86.64811331384145
 20
-145.1218912397612
 30
0.0
 10
86.64811331384145
 20
-145.1218912397612
 30
0.0
 10
86.65862085507146
 20
-145.1801133534619
 30
0.0
 10
86.6896267144387
 20
-145.325151873391
 30
0.0
 10
86.88858097871189
 20
-145.325151873391
 30
0.0
 10
87.17452390398762
 20
-145.325151873391
 30
0.0
 10
87.21190319000259
 20
-145.001657407326
 30
0.0
 10
87.22430553374949
 20
-144.8008083405359
 30
0.0
 10
87.13524981545578
 20
-144.8797010271481
 30
0.0
 10
87.06893172736471
 20
-144.9355115740092
 30
0.0
 10
86.89064803600304
 20
-144.9355115740092
 30
0.0
 10
86.7144314019325
 20
-144.9355115740092
 30
0.0
 10
86.41815319020102
 20
-144.8318141999032
 30
0.0
 10
86.41815319020102
 20
-144.4339056713568
 30
0.0
 10
86.41815319020102
 20
-144.1210910012961
 30
0.0
 10
86.6129733398919
 20
-143.9054280239195
 30
0.0
 10
86.9238932074357
 20
-143.9054280239195
 30
0.0
 10
87.42739391260496
 20
-143.9054280239195
 30
0.0
 10
87.43772919906071
 20
-144.4483750723949
 30
0.0
 10
87.43772919906071
 20
-144.657836877898
 30
0.0
 10
87.43772919906071
 20
-144.8838351417304
 30
0.0
 10
87.41912568344036
 20
-145.5156656537253
 30
0.0
 10
86.88651392142074
 20
-145.5156656537253
 30
0.0
  0
SPLINE
  5
63
330
5A
100
AcDbEntity
  8
_U+30EC_U+30A4_U+30E4_U+30FC 1
370
     0
100
AcDbSpline
210
0.0
220
0.0
230
1.0
 70
    11
 71
     3
 72
    17
 73
    13
 74
     0
 42
0.0000000001
 43
0.0000000001
 12
1.0
 22
0.0
 32
0.0
 13
1.0
 23
0.0
 33
0.0
 40
0.0
 40
0.0
 40
0.0
 40
0.0
 40
1.0
 40
1.0
 40
1.0
 40
2.0
 40
2.0
 40
2.0
 40
3.0
 40
3.0
 40
3.0
 40
4.0
 40
4.0
 40
4.0
 40
4.0
 10
86.92596026472685
 20
-144.0942192565112
 30
0.0
 10
86.80986054687392
 20
-144.0942192565112
 30
0.0
 10
86.63777802738569
 20
-144.1500298033722
 30
0.0
 10
86.63777802738569
 20
-144.4297715567745
 30
0.0
 10
86.63777802738569
 20
-144.6516357060246
 30
0.0
 10
86.77454831815011
 20
-144.7449977936749
 30
0.0
 10
86.90718449433224
 20
-144.7449977936749
 30
0.0
 10
87.16418861753188
 20
-144.7449977936749
 30
0.0
 10
87.20156790354683
 20
-144.539670102754
 30
0.0
 10
87.20156790354683
 20
-144.4256374421922
 30
0.0
 10
87.20156790354683
 20
-144.2537271774783
 30
0.0
 10
87.10820581589657
 20
-144.0942192565112
 30
0.0
 10
86.92596026472685
 20
-144.0942192565112
 30
0.0
  0
HATCH
  5
64
330
5A
100
AcDbEntity
  8
_U+30EC_U+30A4_U+30E4_U+30FC 1
 62
   179
420
  2234388
100
AcDbHatch
 10
0.0
 20
0.0
 30
0.0
210
0.0
220
0.0
230
1.0
  2
SOLID
 70
     1
 71
     0
 91
        2
 92
        1
 93
        1
 72
     4
 94
        3
 73
     0
 74
     1
 95
       32
 96
       28
 40
0.0
 40
0.0
 40
0.0
 40
0.0
 40
1.0
 40
1.0
 40
1.0
 40
2.0
 40
2.0
 40
2.0
 40
3.0
 40
3.0
 40
3.0
 40
4.0
 40
4.0
 40
4.0
 40
5.0
 40
5.0
 40
5.0
 40
6.0
 40
6.0
 40
6.0
 40
7.0
 40
7.0
 40
7.0
 40
8.0
 40
8.0
 40
8.0
 40
9.0
 40
9.0
 40
9.0
 40
9.0
 10
86.88651392142074
 20
-145.5156656537253
 10
86.71649845922366
 20
-145.5156656537253
 10
86.47620304912748
 20
-145.4474527631173
 10
86.43882376311252
 20
-145.1218912397612
 10
86.43882376311252
 20
-145.1218912397612
 10
86.64811331384145
 20
-145.1218912397612
 10
86.64811331384145
 20
-145.1218912397612
 10
86.65862085507146
 20
-145.1801133534619
 10
86.6896267144387
 20
-145.325151873391
 10
86.88858097871189
 20
-145.325151873391
 10
87.17452390398762
 20
-145.325151873391
 10
87.21190319000259
 20
-145.001657407326
 10
87.22430553374949
 20
-144.8008083405359
 10
87.13524981545578
 20
-144.8797010271481
 10
87.06893172736471
 20
-144.9355115740092
 10
86.89064803600304
 20
-144.9355115740092
 10
86.7144314019325
 20
-144.9355115740092
 10
86.41815319020102
 20
-144.8318141999032
 10
86.41815319020102
 20
-144.4339056713568
 10
86.41815319020102
 20
-144.1210910012961
 10
86.6129733398919
 20
-143.9054280239195
 10
86.9238932074357
 20
-143.9054280239195
 10
87.42739391260496
 20
-143.9054280239195
 10
87.43772919906071
 20
-144.4483750723949
 10
87.43772919906071
 20
-144.657836877898
 10
87.43772919906071
 20
-144.8838351417304
 10
87.41912568344036
 20
-145.5156656537253
 10
86.88651392142074
 20
-145.5156656537253
 97
        0
 97
        0
 92
        1
 93
        1
 72
     4
 94
        3
 73
     0
 74
     1
 95
       17
 96
       13
 40
0.0
 40
0.0
 40
0.0
 40
0.0
 40
1.0
 40
1.0
 40
1.0
 40
2.0
 40
2.0
 40
2.0
 40
3.0
 40
3.0
 40
3.0
 40
4.0
 40
4.0
 40
4.0
 40
4.0
 10
86.92596026472685
 20
-144.0942192565112
 10
86.80986054687392
 20
-144.0942192565112
 10
86.63777802738569
 20
-144.1500298033722
 10
86.63777802738569
 20
-144.4297715567745
 10
86.63777802738569
 20
-144.6516357060246
 10
86.77454831815011
 20
-144.7449977936749
 10
86.90718449433224
 20
-144.7449977936749
 10
87.16418861753188
 20
-144.7449977936749
 10
87.20156790354683
 20
-144.539670102754
 10
87.20156790354683
 20
-144.4256374421922
 10
87.20156790354683
 20
-144.2537271774783
 10
87.10820581589657
 20
-144.0942192565112
 10
86.92596026472685
 20
-144.0942192565112
 97
        0
 97
        0
 75
     2
 76
     1
 98
        0
  0
ENDBLK
  5
5D
330
5A
100
AcDbEntity
  8
0
100
AcDbBlockEnd
  0
BLOCK
  5
17D
330
17B
100
AcDbEntity
  8
0
100
AcDbBlockBegin
  2
block 4
 70
     0
 10
0.0
 20
0.0
 30
0.0
  3
block 4
  1

  0
SPLINE
  5
17F
330
17B
100
AcDbEntity
  8
_U+30EC_U+30A4_U+30E4_U+30FC 1
370
     0
100
AcDbSpline
210
0.0
220
0.0
230
1.0
 70
    11
 71
     3
 72
    35
 73
    31
 74
     0
 42
0.0000000001
 43
0.0000000001
 12
1.0
 22
0.0
 32
0.0
 13
1.0
 23
0.0
 33
0.0
 40
0.0
 40
0.0
 40
0.0
 40
0.0
 40
1.0
 40
1.0
 40
1.0
 40
2.0
 40
2.0
 40
2.0
 40
3.0
 40
3.0
 40
3.0
 40
4.0
 40
4.0
 40
4.0
 40
5.0
 40
5.0
 40
5.0
 40
6.0
 40
6.0
 40
6.0
 40
7.0
 40
7.0
 40
7.0
 40
8.0
 40
8.0
 40
8.0
 40
9.0
 40
9.0
 40
9.0
 40
10.0
 40
10.0
 40
10.0
 40
10.0
 10
76.54605982244335
 20
-109.8022555606571
 30
0.0
 10
76.54605982244335
 20
-109.8022555606571
 30
0.0
 10
76.49524466403591
 20
-110.06666663915
 30
0.0
 10
76.49524466403591
 20
-110.06666663915
 30
0.0
 10
76.63494328596279
 20
-110.0794134924454
 30
0.0
 10
76.96274412138432
 20
-110.170364013256
 30
0.0
 10
76.96274412138432
 20
-110.5617268603804
 30
0.0
 10
76.96274412138432
 20
-111.0397338589588
 30
0.0
 10
76.55656736367337
 20
-111.1646185702991
 30
0.0
 10
76.28164874395043
 20
-111.1646185702991
 30
0.0
 10
76.28164874395043
 20
-111.1646185702991
 30
0.0
 10
76.21395261766527
 20
-111.5179131123115
 30
0.0
 10
76.21395261766527
 20
-111.5179131123115
 30
0.0
 10
76.21395261766527
 20
-111.5179131123115
 30
0.0
 10
76.00655786945323
 20
-111.5179131123115
 30
0.0
 10
76.00655786945323
 20
-111.5179131123115
 30
0.0
 10
76.00655786945323
 20
-111.5179131123115
 30
0.0
 10
76.07856036509494
 20
-111.1498046597126
 30
0.0
 10
76.07856036509494
 20
-111.1498046597126
 30
0.0
 10
75.97072887640662
 20
-111.1306843797694
 30
0.0
 10
75.6195013916854
 20
-111.069361680132
 30
0.0
 10
75.6195013916854
 20
-110.652677381191
 30
0.0
 10
75.6195013916854
 20
-110.2041259490115
 30
0.0
 10
75.97486299098892
 20
-110.0539197858546
 30
0.0
 10
76.29008922788928
 20
-110.0539197858546
 30
0.0
 10
76.29008922788928
 20
-110.0539197858546
 30
0.0
 10
76.33883732900557
 20
-109.8022555606571
 30
0.0
 10
76.33883732900557
 20
-109.8022555606571
 30
0.0
 10
76.33883732900557
 20
-109.8022555606571
 30
0.0
 10
76.54605982244335
 20
-109.8022555606571
 30
0.0
 10
76.54605982244335
 20
-109.8022555606571
 30
0.0
  0
SPLINE
  5
180
330
17B
100
AcDbEntity
  8
_U+30EC_U+30A4_U+30E4_U+30FC 1
370
     0
100
AcDbSpline
210
0.0
220
0.0
230
1.0
 70
    11
 71
     3
 72
    14
 73
    10
 74
     0
 42
0.0000000001
 43
0.0000000001
 12
1.0
 22
0.0
 32
0.0
 13
1.0
 23
0.0
 33
0.0
 40
0.0
 40
0.0
 40
0.0
 40
0.0
 40
1.0
 40
1.0
 40
1.0
 40
2.0
 40
2.0
 40
2.0
 40
3.0
 40
3.0
 40
3.0
 40
3.0
 10
76.25632729213383
 20
-110.2273803435369
 30
0.0
 10
76.13574895015009
 20
-110.2358208274758
 30
0.0
 10
75.84153779570975
 20
-110.2592474767755
 30
0.0
 10
75.84153779570975
 20
-110.6568114957733
 30
0.0
 10
75.84153779570975
 20
-110.7203735074762
 30
0.0
 10
75.84153779570975
 20
-110.9339694275616
 30
0.0
 10
76.11025524355925
 20
-110.9784111593214
 30
0.0
 10
76.11025524355925
 20
-110.9784111593214
 30
0.0
 10
76.25632729213383
 20
-110.2273803435369
 30
0.0
 10
76.25632729213383
 20
-110.2273803435369
 30
0.0
  0
SPLINE
  5
181
330
17B
100
AcDbEntity
  8
_U+30EC_U+30A4_U+30E4_U+30FC 1
370
     0
100
AcDbSpline
210
0.0
220
0.0
230
1.0
 70
    11
 71
     3
 72
    14
 73
    10
 74
     0
 42
0.0000000001
 43
0.0000000001
 12
1.0
 22
0.0
 32
0.0
 13
1.0
 23
0.0
 33
0.0
 40
0.0
 40
0.0
 40
0.0
 40
0.0
 40
1.0
 40
1.0
 40
1.0
 40
2.0
 40
2.0
 40
2.0
 40
3.0
 40
3.0
 40
3.0
 40
3.0
 10
76.31764999177129
 20
-110.9868516432602
 30
0.0
 10
76.49955103339248
 20
-110.9827175286779
 30
0.0
 10
76.74277477465111
 20
-110.9022745490974
 30
0.0
 10
76.74277477465111
 20
-110.5469129497938
 30
0.0
 10
76.74277477465111
 20
-110.4537231169178
 30
0.0
 10
76.73020017612996
 20
-110.2654486486489
 30
0.0
 10
76.45941567098932
 20
-110.2380601395412
 30
0.0
 10
76.45941567098932
 20
-110.2380601395412
 30
0.0
 10
76.31764999177129
 20
-110.9868516432602
 30
0.0
 10
76.31764999177129
 20
-110.9868516432602
 30
0.0
  0
HATCH
  5
182
330
17B
100
AcDbEntity
  8
_U+30EC_U+30A4_U+30E4_U+30FC 1
 62
   179
420
  2234388
100
AcDbHatch
 10
0.0
 20
0.0
 30
0.0
210
0.0
220
0.0
230
1.0
  2
SOLID
 70
     1
 71
     0
 91
        3
 92
        1
 93
        1
 72
     4
 94
        3
 73
     0
 74
     1
 95
       35
 96
       31
 40
0.0
 40
0.0
 40
0.0
 40
0.0
 40
1.0
 40
1.0
 40
1.0
 40
2.0
 40
2.0
 40
2.0
 40
3.0
 40
3.0
 40
3.0
 40
4.0
 40
4.0
 40
4.0
 40
5.0
 40
5.0
 40
5.0
 40
6.0
 40
6.0
 40
6.0
 40
7.0
 40
7.0
 40
7.0
 40
8.0
 40
8.0
 40
8.0
 40
9.0
 40
9.0
 40
9.0
 40
10.0
 40
10.0
 40
10.0
 40
10.0
 10
76.54605982244335
 20
-109.8022555606571
 10
76.54605982244335
 20
-109.8022555606571
 10
76.49524466403591
 20
-110.06666663915
 10
76.49524466403591
 20
-110.06666663915
 10
76.63494328596279
 20
-110.0794134924454
 10
76.96274412138432
 20
-110.170364013256
 10
76.96274412138432
 20
-110.5617268603804
 10
76.96274412138432
 20
-111.0397338589588
 10
76.55656736367337
 20
-111.1646185702991
 10
76.28164874395043
 20
-111.1646185702991
 10
76.28164874395043
 20
-111.1646185702991
 10
76.21395261766527
 20
-111.5179131123115
 10
76.21395261766527
 20
-111.5179131123115
 10
76.21395261766527
 20
-111.5179131123115
 10
76.00655786945323
 20
-111.5179131123115
 10
76.00655786945323
 20
-111.5179131123115
 10
76.00655786945323
 20
-111.5179131123115
 10
76.07856036509494
 20
-111.1498046597126
 10
76.07856036509494
 20
-111.1498046597126
 10
75.97072887640662
 20
-111.1306843797694
 10
75.6195013916854
 20
-111.069361680132
 10
75.6195013916854
 20
-110.652677381191
 10
75.6195013916854
 20
-110.2041259490115
 10
75.97486299098892
 20
-110.0539197858546
 10
76.29008922788928
 20
-110.0539197858546
 10
76.29008922788928
 20
-110.0539197858546
 10
76.33883732900557
 20
-109.8022555606571
 10
76.33883732900557
 20
-109.8022555606571
 10
76.33883732900557
 20
-109.8022555606571
 10
76.54605982244335
 20
-109.8022555606571
 10
76.54605982244335
 20
-109.8022555606571
 97
        0
 97
        0
 92
        1
 93
        1
 72
     4
 94
        3
 73
     0
 74
     1
 95
       14
 96
       10
 40
0.0
 40
0.0
 40
0.0
 40
0.0
 40
1.0
 40
1.0
 40
1.0
 40
2.0
 40
2.0
 40
2.0
 40
3.0
 40
3.0
 40
3.0
 40
3.0
 10
76.25632729213383
 20
-110.2273803435369
 10
76.13574895015009
 20
-110.2358208274758
 10
75.84153779570975
 20
-110.2592474767755
 10
75.84153779570975
 20
-110.6568114957733
 10
75.84153779570975
 20
-110.7203735074762
 10
75.84153779570975
 20
-110.9339694275616
 10
76.11025524355925
 20
-110.9784111593214
 10
76.11025524355925
 20
-110.9784111593214
 10
76.25632729213383
 20
-110.2273803435369
 10
76.25632729213383
 20
-110.2273803435369
 97
        0
 97
        0
 92
        1
 93
        1
 72
     4
 94
        3
 73
     0
 74
     1
 95
       14
 96
       10
 40
0.0
 40
0.0
 40
0.0
 40
0.0
 40
1.0
 40
1.0
 40
1.0
 40
2.0
 40
2.0
 40
2.0
 40
3.0
 40
3.0
 40
3.0
 40
3.0
 10
76.31764999177129
 20
-110.9868516432602
 10
76.49955103339248
 20
-110.9827175286779
 10
76.74277477465111
 20
-110.9022745490974
 10
76.74277477465111
 20
-110.5469129497938
 10
76.74277477465111
 20
-110.4537231169178
 10
76.73020017612996
 20
-110.2654486486489
 10
76.45941567098932
 20
-110.2380601395412
 10
76.45941567098932
 20
-110.2380601395412
 10
76.31764999177129
 20
-110.9868516432602
 10
76.31764999177129
 20
-110.9868516432602
 97
        0
 97
        0
 75
     2
 76
     1
 98
        0
  0
SPLINE
  5
183
330
17B
100
AcDbEntity
  8
_U+30EC_U+30A4_U+30E4_U+30FC 1
370
     0
100
AcDbSpline
210
0.0
220
0.0
230
1.0
 70
    11
 71
     3
 72
    26
 73
    22
 74
     0
 42
0.0000000001
 43
0.0000000001
 12
1.0
 22
0.0
 32
0.0
 13
1.0
 23
0.0
 33
0.0
 40
0.0
 40
0.0
 40
0.0
 40
0.0
 40
1.0
 40
1.0
 40
1.0
 40
2.0
 40
2.0
 40
2.0
 40
3.0
 40
3.0
 40
3.0
 40
4.0
 40
4.0
 40
4.0
 40
5.0
 40
5.0
 40
5.0
 40
6.0
 40
6.0
 40
6.0
 40
7.0
 40
7.0
 40
7.0
 40
7.0
 10
77.51172008695887
 20
-110.0687336964412
 30
0.0
 10
77.51172008695887
 20
-110.0687336964412
 30
0.0
 10
77.51172008695887
 20
-109.9205945905754
 30
0.0
 10
77.51172008695887
 20
-109.9205945905754
 30
0.0
 10
77.82281220927693
 20
-109.8995795081154
 30
0.0
 10
77.8629475716801
 20
-109.7429999183108
 30
0.0
 10
77.89257539285325
 20
-109.6287950029748
 30
0.0
 10
77.89257539285325
 20
-109.6287950029748
 30
0.0
 10
78.05328909724015
 20
-109.6287950029748
 30
0.0
 10
78.05328909724015
 20
-109.6287950029748
 30
0.0
 10
78.05328909724015
 20
-109.6287950029748
 30
0.0
 10
78.05328909724015
 20
-111.173059054238
 30
0.0
 10
78.05328909724015
 20
-111.173059054238
 30
0.0
 10
78.05328909724015
 20
-111.173059054238
 30
0.0
 10
77.81419947056382
 20
-111.173059054238
 30
0.0
 10
77.81419947056382
 20
-111.173059054238
 30
0.0
 10
77.81419947056382
 20
-111.173059054238
 30
0.0
 10
77.81419947056382
 20
-110.0687336964412
 30
0.0
 10
77.81419947056382
 20
-110.0687336964412
 30
0.0
 10
77.81419947056382
 20
-110.0687336964412
 30
0.0
 10
77.51172008695887
 20
-110.0687336964412
 30
0.0
 10
77.51172008695887
 20
-110.0687336964412
 30
0.0
  0
HATCH
  5
184
330
17B
100
AcDbEntity
  8
_U+30EC_U+30A4_U+30E4_U+30FC 1
 62
   179
420
  2234388
100
AcDbHatch
 10
0.0
 20
0.0
 30
0.0
210
0.0
220
0.0
230
1.0
  2
SOLID
 70
     1
 71
     0
 91
        1
 92
        1
 93
        1
 72
     4
 94
        3
 73
     0
 74
     1
 95
       26
 96
       22
 40
0.0
 40
0.0
 40
0.0
 40
0.0
 40
1.0
 40
1.0
 40
1.0
 40
2.0
 40
2.0
 40
2.0
 40
3.0
 40
3.0
 40
3.0
 40
4.0
 40
4.0
 40
4.0
 40
5.0
 40
5.0
 40
5.0
 40
6.0
 40
6.0
 40
6.0
 40
7.0
 40
7.0
 40
7.0
 40
7.0
 10
77.51172008695887
 20
-110.0687336964412
 10
77.51172008695887
 20
-110.0687336964412
 10
77.51172008695887
 20
-109.9205945905754
 10
77.51172008695887
 20
-109.9205945905754
 10
77.82281220927693
 20
-109.8995795081154
 10
77.8629475716801
 20
-109.7429999183108
 10
77.89257539285325
 20
-109.6287950029748
 10
77.89257539285325
 20
-109.6287950029748
 10
78.05328909724015
 20
-109.6287950029748
 10
78.05328909724015
 20
-109.6287950029748
 10
78.05328909724015
 20
-109.6287950029748
 10
78.05328909724015
 20
-111.173059054238
 10
78.05328909724015
 20
-111.173059054238
 10
78.05328909724015
 20
-111.173059054238
 10
77.81419947056382
 20
-111.173059054238
 10
77.81419947056382
 20
-111.173059054238
 10
77.81419947056382
 20
-111.173059054238
 10
77.81419947056382
 20
-110.0687336964412
 10
77.81419947056382
 20
-110.0687336964412
 10
77.81419947056382
 20
-110.0687336964412
 10
77.51172008695887
 20
-110.0687336964412
 10
77.51172008695887
 20
-110.0687336964412
 97
        0
 97
        0
 75
     2
 76
     1
 98
        0
  0
POLYLINE
  5
185
330
17B
100
AcDbEntity
  8
_U+30EC_U+30A4_U+30E4_U+30FC 1
370
     0
100
AcDb2dPolyline
 66
     1
 10
0.0
 20
0.0
 30
0.0
  0
VERTEX
  5
186
330
185
100
AcDbEntity
  8
_U+30EC_U+30A4_U+30E4_U+30FC 1
370
     0
100
AcDbVertex
100
AcDb2dVertex
 10
79.05271129751114
 20
-110.9213948290405
 30
0.0
  0
VERTEX
  5
187
330
185
100
AcDbEntity
  8
_U+30EC_U+30A4_U+30E4_U+30FC 1
370
     0
100
AcDbVertex
100
AcDb2dVertex
 10
79.05271129751114
 20
-111.173059054238
 30
0.0
  0
VERTEX
  5
188
330
185
100
AcDbEntity
  8
_U+30EC_U+30A4_U+30E4_U+30FC 1
370
     0
100
AcDbVertex
100
AcDb2dVertex
 10
78.80087481753937
 20
-111.173059054238
 30
0.0
  0
VERTEX
  5
189
330
185
100
AcDbEntity
  8
_U+30EC_U+30A4_U+30E4_U+30FC 1
370
     0
100
AcDbVertex
100
AcDb2dVertex
 10
78.80087481753937
 20
-110.9213948290405
 30
0.0
  0
VERTEX
  5
18A
330
185
100
AcDbEntity
  8
_U+30EC_U+30A4_U+30E4_U+30FC 1
370
     0
100
AcDbVertex
100
AcDb2dVertex
 10
79.05271129751114
 20
-110.9213948290405
 30
0.0
  0
SEQEND
  5
18B
330
185
100
AcDbEntity
  8
_U+30EC_U+30A4_U+30E4_U+30FC 1
370
     0
  0
HATCH
  5
18C
330
17B
100
AcDbEntity
  8
_U+30EC_U+30A4_U+30E4_U+30FC 1
 62
   179
420
  2234388
100
AcDbHatch
 10
0.0
 20
0.0
 30
0.0
210
0.0
220
0.0
230
1.0
  2
SOLID
 70
     1
 71
     0
 91
        1
 92
        1
 93
        4
 72
     1
 10
79.05271129751114
 20
-110.9213948290405
 11
79.05271129751114
 21
-111.173059054238
 72
     1
 10
79.05271129751114
 20
-111.173059054238
 11
78.80087481753937
 21
-111.173059054238
 72
     1
 10
78.80087481753937
 20
-111.173059054238
 11
78.80087481753937
 21
-110.9213948290405
 72
     1
 10
78.80087481753937
 20
-110.9213948290405
 11
79.05271129751114
 21
-110.9213948290405
 97
        0
 75
     2
 76
     1
 98
        0
  0
SPLINE
  5
18D
330
17B
100
AcDbEntity
  8
_U+30EC_U+30A4_U+30E4_U+30FC 1
370
     0
100
AcDbSpline
210
0.0
220
0.0
230
1.0
 70
    11
 71
     3
 72
    50
 73
    46
 74
     0
 42
0.0000000001
 43
0.0000000001
 12
1.0
 22
0.0
 32
0.0
 13
1.0
 23
0.0
 33
0.0
 40
0.0
 40
0.0
 40
0.0
 40
0.0
 40
1.0
 40
1.0
 40
1.0
 40
2.0
 40
2.0
 40
2.0
 40
3.0
 40
3.0
 40
3.0
 40
4.0
 40
4.0
 40
4.0
 40
5.0
 40
5.0
 40
5.0
 40
6.0
 40
6.0
 40
6.0
 40
7.0
 40
7.0
 40
7.0
 40
8.0
 40
8.0
 40
8.0
 40
9.0
 40
9.0
 40
9.0
 40
10.0
 40
10.0
 40
10.0
 40
11.0
 40
11.0
 40
11.0
 40
12.0
 40
12.0
 40
12.0
 40
13.0
 40
13.0
 40
13.0
 40
14.0
 40
14.0
 40
14.0
 40
15.0
 40
15.0
 40
15.0
 40
15.0
 10
79.7913397695487
 20
-109.8466972924168
 30
0.0
 10
79.7913397695487
 20
-109.8466972924168
 30
0.0
 10
79.71933727390697
 20
-110.24650062348
 30
0.0
 10
79.71933727390697
 20
-110.24650062348
 30
0.0
 10
79.795473884131
 20
-110.2125664329503
 30
0.0
 10
79.89503714365472
 20
-110.1724310705472
 30
0.0
 10
80.05368379075047
 20
-110.1724310705472
 30
0.0
 10
80.37941756888084
 20
-110.1724310705472
 30
0.0
 10
80.67776283790349
 20
-110.3501979975861
 30
0.0
 10
80.67776283790349
 20
-110.6800658902987
 30
0.0
 10
80.67776283790349
 20
-110.9234618863316
 30
0.0
 10
80.52325030539002
 20
-111.2238742126454
 30
0.0
 10
80.02612302686848
 20
-111.2238742126454
 30
0.0
 10
79.67713485421267
 20
-111.2238742126454
 30
0.0
 10
79.43804522753632
 20
-111.0545477695454
 30
0.0
 10
79.40635034907203
 20
-110.794443060409
 30
0.0
 10
79.40635034907203
 20
-110.794443060409
 30
0.0
 10
79.65164114762182
 20
-110.794443060409
 30
0.0
 10
79.65164114762182
 20
-110.794443060409
 30
0.0
 10
79.67076142756495
 20
-110.8557657600465
 30
0.0
 10
79.71933727390697
 20
-111.0059719232034
 30
0.0
 10
80.0388698801639
 20
-111.0059719232034
 30
0.0
 10
80.38992511011085
 20
-111.0059719232034
 30
0.0
 10
80.43023272728828
 20
-110.766882296527
 30
0.0
 10
80.43023272728828
 20
-110.6948798008853
 30
0.0
 10
80.43023272728828
 20
-110.5681002870281
 30
0.0
 10
80.34341632105998
 20
-110.3882663026981
 30
0.0
 10
80.0430039947462
 20
-110.3882663026981
 30
0.0
 10
79.833542189243
 20
-110.3882663026981
 30
0.0
 10
79.72157658597239
 20
-110.4621636008567
 30
0.0
 10
79.67489554214725
 20
-110.4940307340952
 30
0.0
 10
79.67489554214725
 20
-110.4940307340952
 30
0.0
 10
79.46767304870947
 20
-110.4749104541521
 30
0.0
 10
79.46767304870947
 20
-110.4749104541521
 30
0.0
 10
79.46767304870947
 20
-110.4749104541521
 30
0.0
 10
79.61787921186637
 20
-109.6287950029748
 30
0.0
 10
79.61787921186637
 20
-109.6287950029748
 30
0.0
 10
79.61787921186637
 20
-109.6287950029748
 30
0.0
 10
80.58681231709288
 20
-109.6287950029748
 30
0.0
 10
80.58681231709288
 20
-109.6287950029748
 30
0.0
 10
80.58681231709288
 20
-109.6287950029748
 30
0.0
 10
80.58681231709288
 20
-109.8466972924168
 30
0.0
 10
80.58681231709288
 20
-109.8466972924168
 30
0.0
 10
80.58681231709288
 20
-109.8466972924168
 30
0.0
 10
79.7913397695487
 20
-109.8466972924168
 30
0.0
 10
79.7913397695487
 20
-109.8466972924168
 30
0.0
  0
HATCH
  5
18E
330
17B
100
AcDbEntity
  8
_U+30EC_U+30A4_U+30E4_U+30FC 1
 62
   179
420
  2234388
100
AcDbHatch
 10
0.0
 20
0.0
 30
0.0
210
0.0
220
0.0
230
1.0
  2
SOLID
 70
     1
 71
     0
 91
        1
 92
        1
 93
        1
 72
     4
 94
        3
 73
     0
 74
     1
 95
       50
 96
       46
 40
0.0
 40
0.0
 40
0.0
 40
0.0
 40
1.0
 40
1.0
 40
1.0
 40
2.0
 40
2.0
 40
2.0
 40
3.0
 40
3.0
 40
3.0
 40
4.0
 40
4.0
 40
4.0
 40
5.0
 40
5.0
 40
5.0
 40
6.0
 40
6.0
 40
6.0
 40
7.0
 40
7.0
 40
7.0
 40
8.0
 40
8.0
 40
8.0
 40
9.0
 40
9.0
 40
9.0
 40
10.0
 40
10.0
 40
10.0
 40
11.0
 40
11.0
 40
11.0
 40
12.0
 40
12.0
 40
12.0
 40
13.0
 40
13.0
 40
13.0
 40
14.0
 40
14.0
 40
14.0
 40
15.0
 40
15.0
 40
15.0
 40
15.0
 10
79.7913397695487
 20
-109.8466972924168
 10
79.7913397695487
 20
-109.8466972924168
 10
79.71933727390697
 20
-110.24650062348
 10
79.71933727390697
 20
-110.24650062348
 10
79.795473884131
 20
-110.2125664329503
 10
79.89503714365472
 20
-110.1724310705472
 10
80.05368379075047
 20
-110.1724310705472
 10
80.37941756888084
 20
-110.1724310705472
 10
80.67776283790349
 20
-110.3501979975861
 10
80.67776283790349
 20
-110.6800658902987
 10
80.67776283790349
 20
-110.9234618863316
 10
80.52325030539002
 20
-111.2238742126454
 10
80.02612302686848
 20
-111.2238742126454
 10
79.67713485421267
 20
-111.2238742126454
 10
79.43804522753632
 20
-111.0545477695454
 10
79.40635034907203
 20
-110.794443060409
 10
79.40635034907203
 20
-110.794443060409
 10
79.65164114762182
 20
-110.794443060409
 10
79.65164114762182
 20
-110.794443060409
 10
79.67076142756495
 20
-110.8557657600465
 10
79.71933727390697
 20
-111.0059719232034
 10
80.0388698801639
 20
-111.0059719232034
 10
80.38992511011085
 20
-111.0059719232034
 10
80.43023272728828
 20
-110.766882296527
 10
80.43023272728828
 20
-110.6948798008853
 10
80.43023272728828
 20
-110.5681002870281
 10
80.34341632105998
 20
-110.3882663026981
 10
80.0430039947462
 20
-110.3882663026981
 10
79.833542189243
 20
-110.3882663026981
 10
79.72157658597239
 20
-110.4621636008567
 10
79.67489554214725
 20
-110.4940307340952
 10
79.67489554214725
 20
-110.4940307340952
 10
79.46767304870947
 20
-110.4749104541521
 10
79.46767304870947
 20
-110.4749104541521
 10
79.46767304870947
 20
-110.4749104541521
 10
79.61787921186637
 20
-109.6287950029748
 10
79.61787921186637
 20
-109.6287950029748
 10
79.61787921186637
 20
-109.6287950029748
 10
80.58681231709288
 20
-109.6287950029748
 10
80.58681231709288
 20
-109.6287950029748
 10
80.58681231709288
 20
-109.6287950029748
 10
80.58681231709288
 20
-109.8466972924168
 10
80.58681231709288
 20
-109.8466972924168
 10
80.58681231709288
 20
-109.8466972924168
 10
79.7913397695487
 20
-109.8466972924168
 10
79.7913397695487
 20
-109.8466972924168
 97
        0
 97
        0
 75
     2
 76
     1
 98
        0
  0
ENDBLK
  5
17E
330
17B
100
AcDbEntity
  8
0
100
AcDbBlockEnd
  0
BLOCK
  5
1DB
330
1D9
100
AcDbEntity
  8
0
100
AcDbBlockBegin
  2
block 5
 70
     0
 10
0.0
 20
0.0
 30
0.0
  3
block 5
  1

  0
SPLINE
  5
1DD
330
1D9
100
AcDbEntity
  8
_U+30EC_U+30A4_U+30E4_U+30FC 1
370
     0
100
AcDbSpline
210
0.0
220
0.0
230
1.0
 70
    11
 71
     3
 72
    44
 73
    40
 74
     0
 42
0.0000000001
 43
0.0000000001
 12
1.0
 22
0.0
 32
0.0
 13
1.0
 23
0.0
 33
0.0
 40
0.0
 40
0.0
 40
0.0
 40
0.0
 40
1.0
 40
1.0
 40
1.0
 40
2.0
 40
2.0
 40
2.0
 40
3.0
 40
3.0
 40
3.0
 40
4.0
 40
4.0
 40
4.0
 40
5.0
 40
5.0
 40
5.0
 40
6.0
 40
6.0
 40
6.0
 40
7.0
 40
7.0
 40
7.0
 40
8.0
 40
8.0
 40
8.0
 40
9.0
 40
9.0
 40
9.0
 40
10.0
 40
10.0
 40
10.0
 40
11.0
 40
11.0
 40
11.0
 40
12.0
 40
12.0
 40
12.0
 40
13.0
 40
13.0
 40
13.0
 40
13.0
 10
83.2352294713787
 20
-160.0956542568511
 30
0.0
 10
83.0367919714283
 20
-160.2544731587211
 30
0.0
 10
82.95204262249116
 20
-160.328542711654
 30
0.0
 10
82.90760089073143
 20
-160.4722031933889
 30
0.0
 10
82.90760089073143
 20
-160.4722031933889
 30
0.0
 10
83.61694605114438
 20
-160.4722031933889
 30
0.0
 10
83.61694605114438
 20
-160.4722031933889
 30
0.0
 10
83.61694605114438
 20
-160.4722031933889
 30
0.0
 10
83.61694605114438
 20
-160.6775308843098
 30
0.0
 10
83.61694605114438
 20
-160.6775308843098
 30
0.0
 10
83.61694605114438
 20
-160.6775308843098
 30
0.0
 10
82.68022458870495
 20
-160.6775308843098
 30
0.0
 10
82.68022458870495
 20
-160.6775308843098
 30
0.0
 10
82.70916339078104
 20
-160.3199299729409
 30
0.0
 10
82.7691080522244
 20
-160.2417263054257
 30
0.0
 10
83.11981877262282
 20
-159.9433810364031
 30
0.0
 10
83.35270722742571
 20
-159.7445990269041
 30
0.0
 10
83.41265188886906
 20
-159.6767306458447
 30
0.0
 10
83.41265188886906
 20
-159.5392713359832
 30
0.0
 10
83.41265188886906
 20
-159.4207600512906
 30
0.0
 10
83.34719507464932
 20
-159.2898464228512
 30
0.0
 10
83.1677055998678
 20
-159.2898464228512
 30
0.0
 10
82.93068303048261
 20
-159.2898464228512
 30
0.0
 10
82.92310382041507
 20
-159.5203233108144
 30
0.0
 10
82.91931421538129
 20
-159.6367675382158
 30
0.0
 10
82.91931421538129
 20
-159.6367675382158
 30
0.0
 10
82.71502005310597
 20
-159.6367675382158
 30
0.0
 10
82.71502005310597
 20
-159.6367675382158
 30
0.0
 10
82.72259926317352
 20
-159.5096435148101
 30
0.0
 10
82.73224553053223
 20
-159.3976779115395
 30
0.0
 10
82.80562606436804
 20
-159.2791666268469
 30
0.0
 10
82.90587834298881
 20
-159.1182806676857
 30
0.0
 10
83.0753770408631
 20
-159.0845187319303
 30
0.0
 10
83.1814859818088
 20
-159.0845187319303
 30
0.0
 10
83.43366697132909
 20
-159.0845187319303
 30
0.0
 10
83.6228027134693
 20
-159.2684868308426
 30
0.0
 10
83.6228027134693
 20
-159.5413383932744
 30
0.0
 10
83.6228027134693
 20
-159.770092733495
 30
0.0
 10
83.51669377252361
 20
-159.8693114834702
 30
0.0
 10
83.2352294713787
 20
-160.0956542568511
 30
0.0
  0
HATCH
  5
1DE
330
1D9
100
AcDbEntity
  8
_U+30EC_U+30A4_U+30E4_U+30FC 1
 62
   179
420
  2234388
100
AcDbHatch
 10
0.0
 20
0.0
 30
0.0
210
0.0
220
0.0
230
1.0
  2
SOLID
 70
     1
 71
     0
 91
        1
 92
        1
 93
        1
 72
     4
 94
        3
 73
     0
 74
     1
 95
       44
 96
       40
 40
0.0
 40
0.0
 40
0.0
 40
0.0
 40
1.0
 40
1.0
 40
1.0
 40
2.0
 40
2.0
 40
2.0
 40
3.0
 40
3.0
 40
3.0
 40
4.0
 40
4.0
 40
4.0
 40
5.0
 40
5.0
 40
5.0
 40
6.0
 40
6.0
 40
6.0
 40
7.0
 40
7.0
 40
7.0
 40
8.0
 40
8.0
 40
8.0
 40
9.0
 40
9.0
 40
9.0
 40
10.0
 40
10.0
 40
10.0
 40
11.0
 40
11.0
 40
11.0
 40
12.0
 40
12.0
 40
12.0
 40
13.0
 40
13.0
 40
13.0
 40
13.0
 10
83.2352294713787
 20
-160.0956542568511
 10
83.0367919714283
 20
-160.2544731587211
 10
82.95204262249116
 20
-160.328542711654
 10
82.90760089073143
 20
-160.4722031933889
 10
82.90760089073143
 20
-160.4722031933889
 10
83.61694605114438
 20
-160.4722031933889
 10
83.61694605114438
 20
-160.4722031933889
 10
83.61694605114438
 20
-160.4722031933889
 10
83.61694605114438
 20
-160.6775308843098
 10
83.61694605114438
 20
-160.6775308843098
 10
83.61694605114438
 20
-160.6775308843098
 10
82.68022458870495
 20
-160.6775308843098
 10
82.68022458870495
 20
-160.6775308843098
 10
82.70916339078104
 20
-160.3199299729409
 10
82.7691080522244
 20
-160.2417263054257
 10
83.11981877262282
 20
-159.9433810364031
 10
83.35270722742571
 20
-159.7445990269041
 10
83.41265188886906
 20
-159.6767306458447
 10
83.41265188886906
 20
-159.5392713359832
 10
83.41265188886906
 20
-159.4207600512906
 10
83.34719507464932
 20
-159.2898464228512
 10
83.1677055998678
 20
-159.2898464228512
 10
82.93068303048261
 20
-159.2898464228512
 10
82.92310382041507
 20
-159.5203233108144
 10
82.91931421538129
 20
-159.6367675382158
 10
82.91931421538129
 20
-159.6367675382158
 10
82.71502005310597
 20
-159.6367675382158
 10
82.71502005310597
 20
-159.6367675382158
 10
82.72259926317352
 20
-159.5096435148101
 10
82.73224553053223
 20
-159.3976779115395
 10
82.80562606436804
 20
-159.2791666268469
 10
82.90587834298881
 20
-159.1182806676857
 10
83.0753770408631
 20
-159.0845187319303
 10
83.1814859818088
 20
-159.0845187319303
 10
83.43366697132909
 20
-159.0845187319303
 10
83.6228027134693
 20
-159.2684868308426
 10
83.6228027134693
 20
-159.5413383932744
 10
83.6228027134693
 20
-159.770092733495
 10
83.51669377252361
 20
-159.8693114834702
 10
83.2352294713787
 20
-160.0956542568511
 97
        0
 97
        0
 75
     2
 76
     1
 98
        0
  0
SPLINE
  5
1DF
330
1D9
100
AcDbEntity
  8
_U+30EC_U+30A4_U+30E4_U+30FC 1
370
     0
100
AcDbSpline
210
0.0
220
0.0
230
1.0
 70
    11
 71
     3
 72
    62
 73
    58
 74
     0
 42
0.0000000001
 43
0.0000000001
 12
1.0
 22
0.0
 32
0.0
 13
1.0
 23
0.0
 33
0.0
 40
0.0
 40
0.0
 40
0.0
 40
0.0
 40
1.0
 40
1.0
 40
1.0
 40
2.0
 40
2.0
 40
2.0
 40
3.0
 40
3.0
 40
3.0
 40
4.0
 40
4.0
 40
4.0
 40
5.0
 40
5.0
 40
5.0
 40
6.0
 40
6.0
 40
6.0
 40
7.0
 40
7.0
 40
7.0
 40
8.0
 40
8.0
 40
8.0
 40
9.0
 40
9.0
 40
9.0
 40
10.0
 40
10.0
 40
10.0
 40
11.0
 40
11.0
 40
11.0
 40
12.0
 40
12.0
 40
12.0
 40
13.0
 40
13.0
 40
13.0
 40
14.0
 40
14.0
 40
14.0
 40
15.0
 40
15.0
 40
15.0
 40
16.0
 40
16.0
 40
16.0
 40
17.0
 40
17.0
 40
17.0
 40
18.0
 40
18.0
 40
18.0
 40
19.0
 40
19.0
 40
19.0
 40
19.0
 10
84.21398109873817
 20
-160.7281737879429
 30
0.0
 10
84.12716469250988
 20
-160.7281737879429
 30
0.0
 10
83.92872719255949
 20
-160.707158705483
 30
0.0
 10
83.81503904154624
 20
-160.5211235492795
 30
0.0
 10
83.74751517003534
 20
-160.4088134364603
 30
0.0
 10
83.74372556500157
 20
-160.3095946864851
 30
0.0
 10
83.7399359599678
 20
-160.224845337548
 30
0.0
 10
83.7399359599678
 20
-160.224845337548
 30
0.0
 10
83.94009600766081
 20
-160.224845337548
 30
0.0
 10
83.94009600766081
 20
-160.224845337548
 30
0.0
 10
83.94216306495197
 20
-160.2989148904808
 30
0.0
 10
83.95180933231066
 20
-160.5335258930263
 30
0.0
 10
84.20984698415587
 20
-160.5335258930263
 30
0.0
 10
84.33524845981897
 20
-160.5335258930263
 30
0.0
 10
84.47408580787454
 20
-160.4639349642243
 30
0.0
 10
84.47408580787454
 20
-160.2355251335522
 30
0.0
 10
84.47408580787454
 20
-160.1190809061508
 30
0.0
 10
84.43929034347352
 20
-160.0705050598088
 30
0.0
 10
84.41035154139742
 20
-160.0388101813445
 30
0.0
 10
84.34282766988652
 20
-159.9647406284116
 30
0.0
 10
84.23706323848936
 20
-159.9519937751162
 30
0.0
 10
84.1867648444047
 20
-159.9519937751162
 30
0.0
 10
84.16953936697846
 20
-159.9519937751162
 30
0.0
 10
84.13681095986858
 20
-159.9540608324073
 30
0.0
 10
84.11166176282626
 20
-159.9581949469896
 30
0.0
 10
84.11166176282626
 20
-159.9581949469896
 30
0.0
 10
84.11166176282626
 20
-159.763547052073
 30
0.0
 10
84.11166176282626
 20
-159.763547052073
 30
0.0
 10
84.14645722722727
 20
-159.770092733495
 30
0.0
 10
84.18504229666208
 20
-159.7721597907861
 30
0.0
 10
84.190898958987
 20
-159.7721597907861
 30
0.0
 10
84.25049911088182
 20
-159.7721597907861
 30
0.0
 10
84.43171113340597
 20
-159.7508001987776
 30
0.0
 10
84.43171113340597
 20
-159.5141221389409
 30
0.0
 10
84.43171113340597
 20
-159.336355211902
 30
0.0
 10
84.31216632006779
 20
-159.281233684138
 30
0.0
 10
84.21191404144703
 20
-159.281233684138
 30
0.0
 10
83.97110186702807
 20
-159.281233684138
 30
0.0
 10
83.96317814741198
 20
-159.5141221389409
 30
0.0
 10
83.9593885423782
 20
-159.5857801250341
 30
0.0
 10
83.9593885423782
 20
-159.5857801250341
 30
0.0
 10
83.7743869148203
 20
-159.5857801250341
 30
0.0
 10
83.7743869148203
 20
-159.5857801250341
 30
0.0
 10
83.78231063443637
 20
-159.4610676684681
 30
0.0
 10
83.80711532193017
 20
-159.0845187319303
 30
0.0
 10
84.22362736609688
 20
-159.0845187319303
 30
0.0
 10
84.4279215283722
 20
-159.0845187319303
 30
0.0
 10
84.64737411078261
 20
-159.211642755336
 30
0.0
 10
84.64737411078261
 20
-159.507576457519
 30
0.0
 10
84.64737411078261
 20
-159.693956123271
 30
0.0
 10
84.56090221410284
 20
-159.7762939053684
 30
0.0
 10
84.47029620284076
 20
-159.8376166050059
 30
0.0
 10
84.52610674970181
 20
-159.8651773688879
 30
0.0
 10
84.69181584254233
 20
-159.9454480936942
 30
0.0
 10
84.69181584254233
 20
-160.2227782802568
 30
0.0
 10
84.69181584254233
 20
-160.5610866569083
 30
0.0
 10
84.46616208825846
 20
-160.7281737879429
 30
0.0
 10
84.21398109873817
 20
-160.7281737879429
 30
0.0
  0
HATCH
  5
1E0
330
1D9
100
AcDbEntity
  8
_U+30EC_U+30A4_U+30E4_U+30FC 1
 62
   179
420
  2234388
100
AcDbHatch
 10
0.0
 20
0.0
 30
0.0
210
0.0
220
0.0
230
1.0
  2
SOLID
 70
     1
 71
     0
 91
        1
 92
        1
 93
        1
 72
     4
 94
        3
 73
     0
 74
     1
 95
       62
 96
       58
 40
0.0
 40
0.0
 40
0.0
 40
0.0
 40
1.0
 40
1.0
 40
1.0
 40
2.0
 40
2.0
 40
2.0
 40
3.0
 40
3.0
 40
3.0
 40
4.0
 40
4.0
 40
4.0
 40
5.0
 40
5.0
 40
5.0
 40
6.0
 40
6.0
 40
6.0
 40
7.0
 40
7.0
 40
7.0
 40
8.0
 40
8.0
 40
8.0
 40
9.0
 40
9.0
 40
9.0
 40
10.0
 40
10.0
 40
10.0
 40
11.0
 40
11.0
 40
11.0
 40
12.0
 40
12.0
 40
12.0
 40
13.0
 40
13.0
 40
13.0
 40
14.0
 40
14.0
 40
14.0
 40
15.0
 40
15.0
 40
15.0
 40
16.0
 40
16.0
 40
16.0
 40
17.0
 40
17.0
 40
17.0
 40
18.0
 40
18.0
 40
18.0
 40
19.0
 40
19.0
 40
19.0
 40
19.0
 10
84.21398109873817
 20
-160.7281737879429
 10
84.12716469250988
 20
-160.7281737879429
 10
83.92872719255949
 20
-160.707158705483
 10
83.81503904154624
 20
-160.5211235492795
 10
83.74751517003534
 20
-160.4088134364603
 10
83.74372556500157
 20
-160.3095946864851
 10
83.7399359599678
 20
-160.224845337548
 10
83.7399359599678
 20
-160.224845337548
 10
83.94009600766081
 20
-160.224845337548
 10
83.94009600766081
 20
-160.224845337548
 10
83.94216306495197
 20
-160.2989148904808
 10
83.95180933231066
 20
-160.5335258930263
 10
84.20984698415587
 20
-160.5335258930263
 10
84.33524845981897
 20
-160.5335258930263
 10
84.47408580787454
 20
-160.4639349642243
 10
84.47408580787454
 20
-160.2355251335522
 10
84.47408580787454
 20
-160.1190809061508
 10
84.43929034347352
 20
-160.0705050598088
 10
84.41035154139742
 20
-160.0388101813445
 10
84.34282766988652
 20
-159.9647406284116
 10
84.23706323848936
 20
-159.9519937751162
 10
84.1867648444047
 20
-159.9519937751162
 10
84.16953936697846
 20
-159.9519937751162
 10
84.13681095986858
 20
-159.9540608324073
 10
84.11166176282626
 20
-159.9581949469896
 10
84.11166176282626
 20
-159.9581949469896
 10
84.11166176282626
 20
-159.763547052073
 10
84.11166176282626
 20
-159.763547052073
 10
84.14645722722727
 20
-159.770092733495
 10
84.18504229666208
 20
-159.7721597907861
 10
84.190898958987
 20
-159.7721597907861
 10
84.25049911088182
 20
-159.7721597907861
 10
84.43171113340597
 20
-159.7508001987776
 10
84.43171113340597
 20
-159.5141221389409
 10
84.43171113340597
 20
-159.336355211902
 10
84.31216632006779
 20
-159.281233684138
 10
84.21191404144703
 20
-159.281233684138
 10
83.97110186702807
 20
-159.281233684138
 10
83.96317814741198
 20
-159.5141221389409
 10
83.9593885423782
 20
-159.5857801250341
 10
83.9593885423782
 20
-159.5857801250341
 10
83.7743869148203
 20
-159.5857801250341
 10
83.7743869148203
 20
-159.5857801250341
 10
83.78231063443637
 20
-159.4610676684681
 10
83.80711532193017
 20
-159.0845187319303
 10
84.22362736609688
 20
-159.0845187319303
 10
84.4279215283722
 20
-159.0845187319303
 10
84.64737411078261
 20
-159.211642755336
 10
84.64737411078261
 20
-159.507576457519
 10
84.64737411078261
 20
-159.693956123271
 10
84.56090221410284
 20
-159.7762939053684
 10
84.47029620284076
 20
-159.8376166050059
 10
84.52610674970181
 20
-159.8651773688879
 10
84.69181584254233
 20
-159.9454480936942
 10
84.69181584254233
 20
-160.2227782802568
 10
84.69181584254233
 20
-160.5610866569083
 10
84.46616208825846
 20
-160.7281737879429
 10
84.21398109873817
 20
-160.7281737879429
 97
        0
 97
        0
 75
     2
 76
     1
 98
        0
  0
POLYLINE
  5
1E1
330
1D9
100
AcDbEntity
  8
_U+30EC_U+30A4_U+30E4_U+30FC 1
370
     0
100
AcDb2dPolyline
 66
     1
 10
0.0
 20
0.0
 30
0.0
  0
VERTEX
  5
1E2
330
1E1
100
AcDbEntity
  8
_U+30EC_U+30A4_U+30E4_U+30FC 1
370
     0
100
AcDbVertex
100
AcDb2dVertex
 10
84.89197589023534
 20
-160.6775308843098
 30
0.0
  0
VERTEX
  5
1E3
330
1E1
100
AcDbEntity
  8
_U+30EC_U+30A4_U+30E4_U+30FC 1
370
     0
100
AcDbVertex
100
AcDb2dVertex
 10
84.89197589023534
 20
-160.425694404338
 30
0.0
  0
VERTEX
  5
1E4
330
1E1
100
AcDbEntity
  8
_U+30EC_U+30A4_U+30E4_U+30FC 1
370
     0
100
AcDbVertex
100
AcDb2dVertex
 10
85.12107474000446
 20
-160.425694404338
 30
0.0
  0
VERTEX
  5
1E5
330
1E1
100
AcDbEntity
  8
_U+30EC_U+30A4_U+30E4_U+30FC 1
370
     0
100
AcDbVertex
100
AcDb2dVertex
 10
85.12107474000446
 20
-160.6775308843098
 30
0.0
  0
VERTEX
  5
1E6
330
1E1
100
AcDbEntity
  8
_U+30EC_U+30A4_U+30E4_U+30FC 1
370
     0
100
AcDbVertex
100
AcDb2dVertex
 10
84.89197589023534
 20
-160.6775308843098
 30
0.0
  0
SEQEND
  5
1E7
330
1E1
100
AcDbEntity
  8
_U+30EC_U+30A4_U+30E4_U+30FC 1
370
     0
  0
HATCH
  5
1E8
330
1D9
100
AcDbEntity
  8
_U+30EC_U+30A4_U+30E4_U+30FC 1
 62
   179
420
  2234388
100
AcDbHatch
 10
0.0
 20
0.0
 30
0.0
210
0.0
220
0.0
230
1.0
  2
SOLID
 70
     1
 71
     0
 91
        1
 92
        1
 93
        4
 72
     1
 10
84.89197589023534
 20
-160.6775308843098
 11
84.89197589023534
 21
-160.425694404338
 72
     1
 10
84.89197589023534
 20
-160.425694404338
 11
85.12107474000446
 21
-160.425694404338
 72
     1
 10
85.12107474000446
 20
-160.425694404338
 11
85.12107474000446
 21
-160.6775308843098
 72
     1
 10
85.12107474000446
 20
-160.6775308843098
 11
84.89197589023534
 21
-160.6775308843098
 97
        0
 75
     2
 76
     1
 98
        0
  0
SPLINE
  5
1E9
330
1D9
100
AcDbEntity
  8
_U+30EC_U+30A4_U+30E4_U+30FC 1
370
     0
100
AcDbSpline
210
0.0
220
0.0
230
1.0
 70
    11
 71
     3
 72
    29
 73
    25
 74
     0
 42
0.0000000001
 43
0.0000000001
 12
1.0
 22
0.0
 32
0.0
 13
1.0
 23
0.0
 33
0.0
 40
0.0
 40
0.0
 40
0.0
 40
0.0
 40
1.0
 40
1.0
 40
1.0
 40
2.0
 40
2.0
 40
2.0
 40
3.0
 40
3.0
 40
3.0
 40
4.0
 40
4.0
 40
4.0
 40
5.0
 40
5.0
 40
5.0
 40
6.0
 40
6.0
 40
6.0
 40
7.0
 40
7.0
 40
7.0
 40
8.0
 40
8.0
 40
8.0
 40
8.0
 10
85.79149032143408
 20
-160.7281737879429
 30
0.0
 10
85.54861108972396
 20
-160.7281737879429
 30
0.0
 10
85.3174451826637
 20
-160.5907144780815
 30
0.0
 10
85.3174451826637
 20
-160.2417263054257
 30
0.0
 10
85.3174451826637
 20
-159.9857557108716
 30
0.0
 10
85.44663626336057
 20
-159.8906710754787
 30
0.0
 10
85.54275442739903
 20
-159.8293483758413
 30
0.0
 10
85.4290662763858
 20
-159.770092733495
 30
0.0
 10
85.35981985713227
 20
-159.6557155633847
 30
0.0
 10
85.35981985713227
 20
-159.4948296042235
 30
0.0
 10
85.35981985713227
 20
-159.2199109845006
 30
0.0
 10
85.54103187965642
 20
-159.0845187319303
 30
0.0
 10
85.79149032143408
 20
-159.0845187319303
 30
0.0
 10
86.04987248282781
 20
-159.0845187319303
 30
0.0
 10
86.22316078573589
 20
-159.2285237232137
 30
0.0
 10
86.22316078573589
 20
-159.4948296042235
 30
0.0
 10
86.22316078573589
 20
-159.6557155633847
 30
0.0
 10
86.15184730919121
 20
-159.770092733495
 30
0.0
 10
86.03815915817796
 20
-159.8293483758413
 30
0.0
 10
86.11911890208134
 20
-159.8799912794745
 30
0.0
 10
86.26381291246183
 20
-159.9750759148673
 30
0.0
 10
86.26381291246183
 20
-160.2375921908434
 30
0.0
 10
86.26381291246183
 20
-160.61207407009
 30
0.0
 10
86.00922035610186
 20
-160.7281737879429
 30
0.0
 10
85.79149032143408
 20
-160.7281737879429
 30
0.0
  0
SPLINE
  5
1EA
330
1D9
100
AcDbEntity
  8
_U+30EC_U+30A4_U+30E4_U+30FC 1
370
     0
100
AcDbSpline
210
0.0
220
0.0
230
1.0
 70
    11
 71
     3
 72
    17
 73
    13
 74
     0
 42
0.0000000001
 43
0.0000000001
 12
1.0
 22
0.0
 32
0.0
 13
1.0
 23
0.0
 33
0.0
 40
0.0
 40
0.0
 40
0.0
 40
0.0
 40
1.0
 40
1.0
 40
1.0
 40
2.0
 40
2.0
 40
2.0
 40
3.0
 40
3.0
 40
3.0
 40
4.0
 40
4.0
 40
4.0
 40
4.0
 10
85.79149032143408
 20
-159.9371798645296
 30
0.0
 10
85.66057669299458
 20
-159.9371798645296
 30
0.0
 10
85.52173934493901
 20
-160.0239962707579
 30
0.0
 10
85.52173934493901
 20
-160.2269123948391
 30
0.0
 10
85.52173934493901
 20
-160.43224008576
 30
0.0
 10
85.63749455324341
 20
-160.5335258930263
 30
0.0
 10
85.79149032143408
 20
-160.5335258930263
 30
0.0
 10
85.96098901930837
 20
-160.5335258930263
 30
0.0
 10
86.06124129792914
 20
-160.4108804937514
 30
0.0
 10
86.06124129792914
 20
-160.2331135667126
 30
0.0
 10
86.06124129792914
 20
-160.0112494174625
 30
0.0
 10
85.91275768251487
 20
-159.9371798645296
 30
0.0
 10
85.79149032143408
 20
-159.9371798645296
 30
0.0
  0
SPLINE
  5
1EB
330
1D9
100
AcDbEntity
  8
_U+30EC_U+30A4_U+30E4_U+30FC 1
370
     0
100
AcDbSpline
210
0.0
220
0.0
230
1.0
 70
    11
 71
     3
 72
    17
 73
    13
 74
     0
 42
0.0000000001
 43
0.0000000001
 12
1.0
 22
0.0
 32
0.0
 13
1.0
 23
0.0
 33
0.0
 40
0.0
 40
0.0
 40
0.0
 40
0.0
 40
1.0
 40
1.0
 40
1.0
 40
2.0
 40
2.0
 40
2.0
 40
3.0
 40
3.0
 40
3.0
 40
4.0
 40
4.0
 40
4.0
 40
4.0
 10
85.79149032143408
 20
-159.2770995695557
 30
0.0
 10
85.64128415827719
 20
-159.2770995695557
 30
0.0
 10
85.56411401940758
 20
-159.3721842049486
 30
0.0
 10
85.56411401940758
 20
-159.507576457519
 30
0.0
 10
85.56411401940758
 20
-159.6302218567938
 30
0.0
 10
85.62957083362733
 20
-159.7487331414864
 30
0.0
 10
85.79149032143408
 20
-159.7487331414864
 30
0.0
 10
85.95340980924082
 20
-159.7487331414864
 30
0.0
 10
86.01886662346057
 20
-159.6302218567938
 30
0.0
 10
86.01886662346057
 20
-159.507576457519
 30
0.0
 10
86.01886662346057
 20
-159.3721842049486
 30
0.0
 10
85.93997393684835
 20
-159.2770995695557
 30
0.0
 10
85.79149032143408
 20
-159.2770995695557
 30
0.0
  0
HATCH
  5
1EC
330
1D9
100
AcDbEntity
  8
_U+30EC_U+30A4_U+30E4_U+30FC 1
 62
   179
420
  2234388
100
AcDbHatch
 10
0.0
 20
0.0
 30
0.0
210
0.0
220
0.0
230
1.0
  2
SOLID
 70
     1
 71
     0
 91
        3
 92
        1
 93
        1
 72
     4
 94
        3
 73
     0
 74
     1
 95
       29
 96
       25
 40
0.0
 40
0.0
 40
0.0
 40
0.0
 40
1.0
 40
1.0
 40
1.0
 40
2.0
 40
2.0
 40
2.0
 40
3.0
 40
3.0
 40
3.0
 40
4.0
 40
4.0
 40
4.0
 40
5.0
 40
5.0
 40
5.0
 40
6.0
 40
6.0
 40
6.0
 40
7.0
 40
7.0
 40
7.0
 40
8.0
 40
8.0
 40
8.0
 40
8.0
 10
85.79149032143408
 20
-160.7281737879429
 10
85.54861108972396
 20
-160.7281737879429
 10
85.3174451826637
 20
-160.5907144780815
 10
85.3174451826637
 20
-160.2417263054257
 10
85.3174451826637
 20
-159.9857557108716
 10
85.44663626336057
 20
-159.8906710754787
 10
85.54275442739903
 20
-159.8293483758413
 10
85.4290662763858
 20
-159.770092733495
 10
85.35981985713227
 20
-159.6557155633847
 10
85.35981985713227
 20
-159.4948296042235
 10
85.35981985713227
 20
-159.2199109845006
 10
85.54103187965642
 20
-159.0845187319303
 10
85.79149032143408
 20
-159.0845187319303
 10
86.04987248282781
 20
-159.0845187319303
 10
86.22316078573589
 20
-159.2285237232137
 10
86.22316078573589
 20
-159.4948296042235
 10
86.22316078573589
 20
-159.6557155633847
 10
86.15184730919121
 20
-159.770092733495
 10
86.03815915817796
 20
-159.8293483758413
 10
86.11911890208134
 20
-159.8799912794745
 10
86.26381291246183
 20
-159.9750759148673
 10
86.26381291246183
 20
-160.2375921908434
 10
86.26381291246183
 20
-160.61207407009
 10
86.00922035610186
 20
-160.7281737879429
 10
85.79149032143408
 20
-160.7281737879429
 97
        0
 97
        0
 92
        1
 93
        1
 72
     4
 94
        3
 73
     0
 74
     1
 95
       17
 96
       13
 40
0.0
 40
0.0
 40
0.0
 40
0.0
 40
1.0
 40
1.0
 40
1.0
 40
2.0
 40
2.0
 40
2.0
 40
3.0
 40
3.0
 40
3.0
 40
4.0
 40
4.0
 40
4.0
 40
4.0
 10
85.79149032143408
 20
-159.9371798645296
 10
85.66057669299458
 20
-159.9371798645296
 10
85.52173934493901
 20
-160.0239962707579
 10
85.52173934493901
 20
-160.2269123948391
 10
85.52173934493901
 20
-160.43224008576
 10
85.63749455324341
 20
-160.5335258930263
 10
85.79149032143408
 20
-160.5335258930263
 10
85.96098901930837
 20
-160.5335258930263
 10
86.06124129792914
 20
-160.4108804937514
 10
86.06124129792914
 20
-160.2331135667126
 10
86.06124129792914
 20
-160.0112494174625
 10
85.91275768251487
 20
-159.9371798645296
 10
85.79149032143408
 20
-159.9371798645296
 97
        0
 97
        0
 92
        1
 93
        1
 72
     4
 94
        3
 73
     0
 74
     1
 95
       17
 96
       13
 40
0.0
 40
0.0
 40
0.0
 40
0.0
 40
1.0
 40
1.0
 40
1.0
 40
2.0
 40
2.0
 40
2.0
 40
3.0
 40
3.0
 40
3.0
 40
4.0
 40
4.0
 40
4.0
 40
4.0
 10
85.79149032143408
 20
-159.2770995695557
 10
85.64128415827719
 20
-159.2770995695557
 10
85.56411401940758
 20
-159.3721842049486
 10
85.56411401940758
 20
-159.507576457519
 10
85.56411401940758
 20
-159.6302218567938
 10
85.62957083362733
 20
-159.7487331414864
 10
85.79149032143408
 20
-159.7487331414864
 10
85.95340980924082
 20
-159.7487331414864
 10
86.01886662346057
 20
-159.6302218567938
 10
86.01886662346057
 20
-159.507576457519
 10
86.01886662346057
 20
-159.3721842049486
 10
85.93997393684835
 20
-159.2770995695557
 10
85.79149032143408
 20
-159.2770995695557
 97
        0
 97
        0
 75
     2
 76
     1
 98
        0
  0
ENDBLK
  5
1DC
330
1D9
100
AcDbEntity
  8
0
100
AcDbBlockEnd
  0
BLOCK
  5
1FE
330
1FC
100
AcDbEntity
  8
0
100
AcDbBlockBegin
  2
block 6
 70
     0
 10
0.0
 20
0.0
 30
0.0
  3
block 6
  1

  0
SPLINE
  5
200
330
1FC
100
AcDbEntity
  8
_U+30EC_U+30A4_U+30E4_U+30FC 1
370
     0
100
AcDbSpline
210
0.0
220
0.0
230
1.0
 70
    11
 71
     3
 72
    44
 73
    40
 74
     0
 42
0.0000000001
 43
0.0000000001
 12
1.0
 22
0.0
 32
0.0
 13
1.0
 23
0.0
 33
0.0
 40
0.0
 40
0.0
 40
0.0
 40
0.0
 40
1.0
 40
1.0
 40
1.0
 40
2.0
 40
2.0
 40
2.0
 40
3.0
 40
3.0
 40
3.0
 40
4.0
 40
4.0
 40
4.0
 40
5.0
 40
5.0
 40
5.0
 40
6.0
 40
6.0
 40
6.0
 40
7.0
 40
7.0
 40
7.0
 40
8.0
 40
8.0
 40
8.0
 40
9.0
 40
9.0
 40
9.0
 40
10.0
 40
10.0
 40
10.0
 40
11.0
 40
11.0
 40
11.0
 40
12.0
 40
12.0
 40
12.0
 40
13.0
 40
13.0
 40
13.0
 40
13.0
 10
90.7581122277445
 20
-154.013682687191
 30
0.0
 10
90.91693112961453
 20
-154.2121201871414
 30
0.0
 10
90.9910006825474
 20
-154.2968695360786
 30
0.0
 10
91.1346611642823
 20
-154.3413112678383
 30
0.0
 10
91.1346611642823
 20
-154.3413112678383
 30
0.0
 10
91.1346611642823
 20
-153.6319661074253
 30
0.0
 10
91.1346611642823
 20
-153.6319661074253
 30
0.0
 10
91.1346611642823
 20
-153.6319661074253
 30
0.0
 10
91.3399888552032
 20
-153.6319661074253
 30
0.0
 10
91.3399888552032
 20
-153.6319661074253
 30
0.0
 10
91.3399888552032
 20
-153.6319661074253
 30
0.0
 10
91.3399888552032
 20
-154.5686875698648
 30
0.0
 10
91.3399888552032
 20
-154.5686875698648
 30
0.0
 10
90.98238794383427
 20
-154.5397487677887
 30
0.0
 10
90.9041842763191
 20
-154.4801486158939
 30
0.0
 10
90.60583900729647
 20
-154.1290933859469
 30
0.0
 10
90.40705699779754
 20
-153.896204931144
 30
0.0
 10
90.33918861673813
 20
-153.8362602697007
 30
0.0
 10
90.20172930687666
 20
-153.8362602697007
 30
0.0
 10
90.08321802218406
 20
-153.8362602697007
 30
0.0
 10
89.95230439374457
 20
-153.9017170839204
 30
0.0
 10
89.95230439374457
 20
-154.0812065587019
 30
0.0
 10
89.95230439374457
 20
-154.3182291280871
 30
0.0
 10
90.18278128170778
 20
-154.3258083381547
 30
0.0
 10
90.29922550910922
 20
-154.3295979431884
 30
0.0
 10
90.29922550910922
 20
-154.3295979431884
 30
0.0
 10
90.29922550910922
 20
-154.5338921054638
 30
0.0
 10
90.29922550910922
 20
-154.5338921054638
 30
0.0
 10
90.17210148570351
 20
-154.5263128953962
 30
0.0
 10
90.06013588243289
 20
-154.5166666280375
 30
0.0
 10
89.94162459774029
 20
-154.4432860942017
 30
0.0
 10
89.78073863857912
 20
-154.3430338155809
 30
0.0
 10
89.74697670282367
 20
-154.1735351177066
 30
0.0
 10
89.74697670282367
 20
-154.0674261767609
 30
0.0
 10
89.74697670282367
 20
-153.8152451872406
 30
0.0
 10
89.93094480173602
 20
-153.6261094451004
 30
0.0
 10
90.2037963641678
 20
-153.6261094451004
 30
0.0
 10
90.43255070438839
 20
-153.6261094451004
 30
0.0
 10
90.53176945436358
 20
-153.7322183860461
 30
0.0
 10
90.7581122277445
 20
-154.013682687191
 30
0.0
  0
HATCH
  5
201
330
1FC
100
AcDbEntity
  8
_U+30EC_U+30A4_U+30E4_U+30FC 1
 62
   179
420
  2234388
100
AcDbHatch
 10
0.0
 20
0.0
 30
0.0
210
0.0
220
0.0
230
1.0
  2
SOLID
 70
     1
 71
     0
 91
        1
 92
        1
 93
        1
 72
     4
 94
        3
 73
     0
 74
     1
 95
       44
 96
       40
 40
0.0
 40
0.0
 40
0.0
 40
0.0
 40
1.0
 40
1.0
 40
1.0
 40
2.0
 40
2.0
 40
2.0
 40
3.0
 40
3.0
 40
3.0
 40
4.0
 40
4.0
 40
4.0
 40
5.0
 40
5.0
 40
5.0
 40
6.0
 40
6.0
 40
6.0
 40
7.0
 40
7.0
 40
7.0
 40
8.0
 40
8.0
 40
8.0
 40
9.0
 40
9.0
 40
9.0
 40
10.0
 40
10.0
 40
10.0
 40
11.0
 40
11.0
 40
11.0
 40
12.0
 40
12.0
 40
12.0
 40
13.0
 40
13.0
 40
13.0
 40
13.0
 10
90.7581122277445
 20
-154.013682687191
 10
90.91693112961453
 20
-154.2121201871414
 10
90.9910006825474
 20
-154.2968695360786
 10
91.1346611642823
 20
-154.3413112678383
 10
91.1346611642823
 20
-154.3413112678383
 10
91.1346611642823
 20
-153.6319661074253
 10
91.1346611642823
 20
-153.6319661074253
 10
91.1346611642823
 20
-153.6319661074253
 10
91.3399888552032
 20
-153.6319661074253
 10
91.3399888552032
 20
-153.6319661074253
 10
91.3399888552032
 20
-153.6319661074253
 10
91.3399888552032
 20
-154.5686875698648
 10
91.3399888552032
 20
-154.5686875698648
 10
90.98238794383427
 20
-154.5397487677887
 10
90.9041842763191
 20
-154.4801486158939
 10
90.60583900729647
 20
-154.1290933859469
 10
90.40705699779754
 20
-153.896204931144
 10
90.33918861673813
 20
-153.8362602697007
 10
90.20172930687666
 20
-153.8362602697007
 10
90.08321802218406
 20
-153.8362602697007
 10
89.95230439374457
 20
-153.9017170839204
 10
89.95230439374457
 20
-154.0812065587019
 10
89.95230439374457
 20
-154.3182291280871
 10
90.18278128170778
 20
-154.3258083381547
 10
90.29922550910922
 20
-154.3295979431884
 10
90.29922550910922
 20
-154.3295979431884
 10
90.29922550910922
 20
-154.5338921054638
 10
90.29922550910922
 20
-154.5338921054638
 10
90.17210148570351
 20
-154.5263128953962
 10
90.06013588243289
 20
-154.5166666280375
 10
89.94162459774029
 20
-154.4432860942017
 10
89.78073863857912
 20
-154.3430338155809
 10
89.74697670282367
 20
-154.1735351177066
 10
89.74697670282367
 20
-154.0674261767609
 10
89.74697670282367
 20
-153.8152451872406
 10
89.93094480173602
 20
-153.6261094451004
 10
90.2037963641678
 20
-153.6261094451004
 10
90.43255070438839
 20
-153.6261094451004
 10
90.53176945436358
 20
-153.7322183860461
 10
90.7581122277445
 20
-154.013682687191
 97
        0
 97
        0
 75
     2
 76
     1
 98
        0
  0
SPLINE
  5
202
330
1FC
100
AcDbEntity
  8
_U+30EC_U+30A4_U+30E4_U+30FC 1
370
     0
100
AcDbSpline
210
0.0
220
0.0
230
1.0
 70
    11
 71
     3
 72
    44
 73
    40
 74
     0
 42
0.0000000001
 43
0.0000000001
 12
1.0
 22
0.0
 32
0.0
 13
1.0
 23
0.0
 33
0.0
 40
0.0
 40
0.0
 40
0.0
 40
0.0
 40
1.0
 40
1.0
 40
1.0
 40
2.0
 40
2.0
 40
2.0
 40
3.0
 40
3.0
 40
3.0
 40
4.0
 40
4.0
 40
4.0
 40
5.0
 40
5.0
 40
5.0
 40
6.0
 40
6.0
 40
6.0
 40
7.0
 40
7.0
 40
7.0
 40
8.0
 40
8.0
 40
8.0
 40
9.0
 40
9.0
 40
9.0
 40
10.0
 40
10.0
 40
10.0
 40
11.0
 40
11.0
 40
11.0
 40
12.0
 40
12.0
 40
12.0
 40
13.0
 40
13.0
 40
13.0
 40
13.0
 10
90.7581122277445
 20
-152.9426025008269
 30
0.0
 10
90.91693112961453
 20
-153.1410400007773
 30
0.0
 10
90.9910006825474
 20
-153.2257893497144
 30
0.0
 10
91.1346611642823
 20
-153.2702310814741
 30
0.0
 10
91.1346611642823
 20
-153.2702310814741
 30
0.0
 10
91.1346611642823
 20
-152.5608859210612
 30
0.0
 10
91.1346611642823
 20
-152.5608859210612
 30
0.0
 10
91.1346611642823
 20
-152.5608859210612
 30
0.0
 10
91.3399888552032
 20
-152.5608859210612
 30
0.0
 10
91.3399888552032
 20
-152.5608859210612
 30
0.0
 10
91.3399888552032
 20
-152.5608859210612
 30
0.0
 10
91.3399888552032
 20
-153.4976073835006
 30
0.0
 10
91.3399888552032
 20
-153.4976073835006
 30
0.0
 10
90.98238794383427
 20
-153.4686685814245
 30
0.0
 10
90.9041842763191
 20
-153.4087239199812
 30
0.0
 10
90.60583900729647
 20
-153.0580131995827
 30
0.0
 10
90.40705699779754
 20
-152.8251247447798
 30
0.0
 10
90.33918861673813
 20
-152.7651800833365
 30
0.0
 10
90.20172930687666
 20
-152.7651800833365
 30
0.0
 10
90.08321802218406
 20
-152.7651800833365
 30
0.0
 10
89.95230439374457
 20
-152.8306368975562
 30
0.0
 10
89.95230439374457
 20
-153.0101263723378
 30
0.0
 10
89.95230439374457
 20
-153.2471489417229
 30
0.0
 10
90.18278128170778
 20
-153.2547281517905
 30
0.0
 10
90.29922550910922
 20
-153.2585177568243
 30
0.0
 10
90.29922550910922
 20
-153.2585177568243
 30
0.0
 10
90.29922550910922
 20
-153.4628119190996
 30
0.0
 10
90.29922550910922
 20
-153.4628119190996
 30
0.0
 10
90.17210148570351
 20
-153.455232709032
 30
0.0
 10
90.06013588243289
 20
-153.4455864416733
 30
0.0
 10
89.94162459774029
 20
-153.3722059078375
 30
0.0
 10
89.78073863857912
 20
-153.2719536292167
 30
0.0
 10
89.74697670282367
 20
-153.1024549313424
 30
0.0
 10
89.74697670282367
 20
-152.9963459903967
 30
0.0
 10
89.74697670282367
 20
-152.7441650008765
 30
0.0
 10
89.93094480173602
 20
-152.5550292587363
 30
0.0
 10
90.2037963641678
 20
-152.5550292587363
 30
0.0
 10
90.43255070438839
 20
-152.5550292587363
 30
0.0
 10
90.53176945436358
 20
-152.6611381996819
 30
0.0
 10
90.7581122277445
 20
-152.9426025008269
 30
0.0
  0
HATCH
  5
203
330
1FC
100
AcDbEntity
  8
_U+30EC_U+30A4_U+30E4_U+30FC 1
 62
   179
420
  2234388
100
AcDbHatch
 10
0.0
 20
0.0
 30
0.0
210
0.0
220
0.0
230
1.0
  2
SOLID
 70
     1
 71
     0
 91
        1
 92
        1
 93
        1
 72
     4
 94
        3
 73
     0
 74
     1
 95
       44
 96
       40
 40
0.0
 40
0.0
 40
0.0
 40
0.0
 40
1.0
 40
1.0
 40
1.0
 40
2.0
 40
2.0
 40
2.0
 40
3.0
 40
3.0
 40
3.0
 40
4.0
 40
4.0
 40
4.0
 40
5.0
 40
5.0
 40
5.0
 40
6.0
 40
6.0
 40
6.0
 40
7.0
 40
7.0
 40
7.0
 40
8.0
 40
8.0
 40
8.0
 40
9.0
 40
9.0
 40
9.0
 40
10.0
 40
10.0
 40
10.0
 40
11.0
 40
11.0
 40
11.0
 40
12.0
 40
12.0
 40
12.0
 40
13.0
 40
13.0
 40
13.0
 40
13.0
 10
90.7581122277445
 20
-152.9426025008269
 10
90.91693112961453
 20
-153.1410400007773
 10
90.9910006825474
 20
-153.2257893497144
 10
91.1346611642823
 20
-153.2702310814741
 10
91.1346611642823
 20
-153.2702310814741
 10
91.1346611642823
 20
-152.5608859210612
 10
91.1346611642823
 20
-152.5608859210612
 10
91.1346611642823
 20
-152.5608859210612
 10
91.3399888552032
 20
-152.5608859210612
 10
91.3399888552032
 20
-152.5608859210612
 10
91.3399888552032
 20
-152.5608859210612
 10
91.3399888552032
 20
-153.4976073835006
 10
91.3399888552032
 20
-153.4976073835006
 10
90.98238794383427
 20
-153.4686685814245
 10
90.9041842763191
 20
-153.4087239199812
 10
90.60583900729647
 20
-153.0580131995827
 10
90.40705699779754
 20
-152.8251247447798
 10
90.33918861673813
 20
-152.7651800833365
 10
90.20172930687666
 20
-152.7651800833365
 10
90.08321802218406
 20
-152.7651800833365
 10
89.95230439374457
 20
-152.8306368975562
 10
89.95230439374457
 20
-153.0101263723378
 10
89.95230439374457
 20
-153.2471489417229
 10
90.18278128170778
 20
-153.2547281517905
 10
90.29922550910922
 20
-153.2585177568243
 10
90.29922550910922
 20
-153.2585177568243
 10
90.29922550910922
 20
-153.4628119190996
 10
90.29922550910922
 20
-153.4628119190996
 10
90.17210148570351
 20
-153.455232709032
 10
90.06013588243289
 20
-153.4455864416733
 10
89.94162459774029
 20
-153.3722059078375
 10
89.78073863857912
 20
-153.2719536292167
 10
89.74697670282367
 20
-153.1024549313424
 10
89.74697670282367
 20
-152.9963459903967
 10
89.74697670282367
 20
-152.7441650008765
 10
89.93094480173602
 20
-152.5550292587363
 10
90.2037963641678
 20
-152.5550292587363
 10
90.43255070438839
 20
-152.5550292587363
 10
90.53176945436358
 20
-152.6611381996819
 10
90.7581122277445
 20
-152.9426025008269
 97
        0
 97
        0
 75
     2
 76
     1
 98
        0
  0
ENDBLK
  5
1FF
330
1FC
100
AcDbEntity
  8
0
100
AcDbBlockEnd
  0
BLOCK
  5
215
330
213
100
AcDbEntity
  8
0
100
AcDbBlockBegin
  2
block 7
 70
     0
 10
0.0
 20
0.0
 30
0.0
  3
block 7
  1

  0
SPLINE
  5
217
330
213
100
AcDbEntity
  8
_U+30EC_U+30A4_U+30E4_U+30FC 1
370
     0
100
AcDbSpline
210
0.0
220
0.0
230
1.0
 70
    11
 71
     3
 72
    32
 73
    28
 74
     0
 42
0.0000000001
 43
0.0000000001
 12
1.0
 22
0.0
 32
0.0
 13
1.0
 23
0.0
 33
0.0
 40
0.0
 40
0.0
 40
0.0
 40
0.0
 40
1.0
 40
1.0
 40
1.0
 40
2.0
 40
2.0
 40
2.0
 40
3.0
 40
3.0
 40
3.0
 40
4.0
 40
4.0
 40
4.0
 40
5.0
 40
5.0
 40
5.0
 40
6.0
 40
6.0
 40
6.0
 40
7.0
 40
7.0
 40
7.0
 40
8.0
 40
8.0
 40
8.0
 40
9.0
 40
9.0
 40
9.0
 40
9.0
 10
94.49690210311189
 20
-144.5696424334757
 30
0.0
 10
94.49690210311189
 20
-145.0398979672123
 30
0.0
 10
93.94293074908371
 20
-145.0474771772798
 30
0.0
 10
93.72899031944971
 20
-145.0474771772798
 30
0.0
 10
93.49851343148649
 20
-145.0474771772798
 30
0.0
 10
92.85117998980805
 20
-145.0302516998536
 30
0.0
 10
92.85117998980805
 20
-144.5348469690746
 30
0.0
 10
92.85117998980805
 20
-144.3767170863017
 30
0.0
 10
92.92111542815861
 20
-144.153130389309
 30
0.0
 10
93.2532226329367
 20
-144.1186794344565
 30
0.0
 10
93.2532226329367
 20
-144.1186794344565
 30
0.0
 10
93.2532226329367
 20
-144.3133273293731
 30
0.0
 10
93.2532226329367
 20
-144.3133273293731
 30
0.0
 10
93.19603404788155
 20
-144.3229735967318
 30
0.0
 10
93.0478949420158
 20
-144.3519123988079
 30
0.0
 10
93.0478949420158
 20
-144.5369140263658
 30
0.0
 10
93.0478949420158
 20
-144.8028753978271
 30
0.0
 10
93.3758680322116
 20
-144.8393934099707
 30
0.0
 10
93.58085121358395
 20
-144.850762225072
 30
0.0
 10
93.50264754606879
 20
-144.7660128761349
 30
0.0
 10
93.44339190372249
 20
-144.7043456669489
 30
0.0
 10
93.44339190372249
 20
-144.5386365741084
 30
0.0
 10
93.44339190372249
 20
-144.374994538559
 30
0.0
 10
93.55156790195933
 20
-144.099386899739
 30
0.0
 10
93.9577446596703
 20
-144.099386899739
 30
0.0
 10
94.27710501115295
 20
-144.099386899739
 30
0.0
 10
94.49690210311189
 20
-144.2805989222632
 30
0.0
 10
94.49690210311189
 20
-144.5696424334757
 30
0.0
  0
SPLINE
  5
218
330
213
100
AcDbEntity
  8
_U+30EC_U+30A4_U+30E4_U+30FC 1
370
     0
100
AcDbSpline
210
0.0
220
0.0
230
1.0
 70
    11
 71
     3
 72
    17
 73
    13
 74
     0
 42
0.0000000001
 43
0.0000000001
 12
1.0
 22
0.0
 32
0.0
 13
1.0
 23
0.0
 33
0.0
 40
0.0
 40
0.0
 40
0.0
 40
0.0
 40
1.0
 40
1.0
 40
1.0
 40
2.0
 40
2.0
 40
2.0
 40
3.0
 40
3.0
 40
3.0
 40
4.0
 40
4.0
 40
4.0
 40
4.0
 10
93.6380397986391
 20
-144.554139503792
 30
0.0
 10
93.6380397986391
 20
-144.7932291304684
 30
0.0
 10
93.84956866143345
 20
-144.8276800853209
 30
0.0
 10
93.9660128888349
 20
-144.8276800853209
 30
0.0
 10
94.14171275858263
 20
-144.8276800853209
 30
0.0
 10
94.30466577503495
 20
-144.7412081886411
 30
0.0
 10
94.30466577503495
 20
-144.5734320385094
 30
0.0
 10
94.30466577503495
 20
-144.46353349253
 30
0.0
 10
94.24541013268865
 20
-144.3036810620144
 30
0.0
 10
93.95981171696144
 20
-144.3036810620144
 30
0.0
 10
93.73553600087168
 20
-144.3036810620144
 30
0.0
 10
93.6380397986391
 20
-144.4308050854201
 30
0.0
 10
93.6380397986391
 20
-144.554139503792
 30
0.0
  0
HATCH
  5
219
330
213
100
AcDbEntity
  8
_U+30EC_U+30A4_U+30E4_U+30FC 1
 62
   179
420
  2234388
100
AcDbHatch
 10
0.0
 20
0.0
 30
0.0
210
0.0
220
0.0
230
1.0
  2
SOLID
 70
     1
 71
     0
 91
        2
 92
        1
 93
        1
 72
     4
 94
        3
 73
     0
 74
     1
 95
       32
 96
       28
 40
0.0
 40
0.0
 40
0.0
 40
0.0
 40
1.0
 40
1.0
 40
1.0
 40
2.0
 40
2.0
 40
2.0
 40
3.0
 40
3.0
 40
3.0
 40
4.0
 40
4.0
 40
4.0
 40
5.0
 40
5.0
 40
5.0
 40
6.0
 40
6.0
 40
6.0
 40
7.0
 40
7.0
 40
7.0
 40
8.0
 40
8.0
 40
8.0
 40
9.0
 40
9.0
 40
9.0
 40
9.0
 10
94.49690210311189
 20
-144.5696424334757
 10
94.49690210311189
 20
-145.0398979672123
 10
93.94293074908371
 20
-145.0474771772798
 10
93.72899031944971
 20
-145.0474771772798
 10
93.49851343148649
 20
-145.0474771772798
 10
92.85117998980805
 20
-145.0302516998536
 10
92.85117998980805
 20
-144.5348469690746
 10
92.85117998980805
 20
-144.3767170863017
 10
92.92111542815861
 20
-144.153130389309
 10
93.2532226329367
 20
-144.1186794344565
 10
93.2532226329367
 20
-144.1186794344565
 10
93.2532226329367
 20
-144.3133273293731
 10
93.2532226329367
 20
-144.3133273293731
 10
93.19603404788155
 20
-144.3229735967318
 10
93.0478949420158
 20
-144.3519123988079
 10
93.0478949420158
 20
-144.5369140263658
 10
93.0478949420158
 20
-144.8028753978271
 10
93.3758680322116
 20
-144.8393934099707
 10
93.58085121358395
 20
-144.850762225072
 10
93.50264754606879
 20
-144.7660128761349
 10
93.44339190372249
 20
-144.7043456669489
 10
93.44339190372249
 20
-144.5386365741084
 10
93.44339190372249
 20
-144.374994538559
 10
93.55156790195933
 20
-144.099386899739
 10
93.9577446596703
 20
-144.099386899739
 10
94.27710501115295
 20
-144.099386899739
 10
94.49690210311189
 20
-144.2805989222632
 10
94.49690210311189
 20
-144.5696424334757
 97
        0
 97
        0
 92
        1
 93
        1
 72
     4
 94
        3
 73
     0
 74
     1
 95
       17
 96
       13
 40
0.0
 40
0.0
 40
0.0
 40
0.0
 40
1.0
 40
1.0
 40
1.0
 40
2.0
 40
2.0
 40
2.0
 40
3.0
 40
3.0
 40
3.0
 40
4.0
 40
4.0
 40
4.0
 40
4.0
 10
93.6380397986391
 20
-144.554139503792
 10
93.6380397986391
 20
-144.7932291304684
 10
93.84956866143345
 20
-144.8276800853209
 10
93.9660128888349
 20
-144.8276800853209
 10
94.14171275858263
 20
-144.8276800853209
 10
94.30466577503495
 20
-144.7412081886411
 10
94.30466577503495
 20
-144.5734320385094
 10
94.30466577503495
 20
-144.46353349253
 10
94.24541013268865
 20
-144.3036810620144
 10
93.95981171696144
 20
-144.3036810620144
 10
93.73553600087168
 20
-144.3036810620144
 10
93.6380397986391
 20
-144.4308050854201
 10
93.6380397986391
 20
-144.554139503792
 97
        0
 97
        0
 75
     2
 76
     1
 98
        0
  0
SPLINE
  5
21A
330
213
100
AcDbEntity
  8
_U+30EC_U+30A4_U+30E4_U+30FC 1
370
     0
100
AcDbSpline
210
0.0
220
0.0
230
1.0
 70
    11
 71
     3
 72
    32
 73
    28
 74
     0
 42
0.0000000001
 43
0.0000000001
 12
1.0
 22
0.0
 32
0.0
 13
1.0
 23
0.0
 33
0.0
 40
0.0
 40
0.0
 40
0.0
 40
0.0
 40
1.0
 40
1.0
 40
1.0
 40
2.0
 40
2.0
 40
2.0
 40
3.0
 40
3.0
 40
3.0
 40
4.0
 40
4.0
 40
4.0
 40
5.0
 40
5.0
 40
5.0
 40
6.0
 40
6.0
 40
6.0
 40
7.0
 40
7.0
 40
7.0
 40
8.0
 40
8.0
 40
8.0
 40
9.0
 40
9.0
 40
9.0
 40
9.0
 10
94.49690210311189
 20
-143.5409369215801
 30
0.0
 10
94.49690210311189
 20
-143.699066804353
 30
0.0
 10
94.42731117430985
 20
-143.9223089917972
 30
0.0
 10
94.09520396953175
 20
-143.9571044561982
 30
0.0
 10
94.09520396953175
 20
-143.9571044561982
 30
0.0
 10
94.09520396953175
 20
-143.7624565612816
 30
0.0
 10
94.09520396953175
 20
-143.7624565612816
 30
0.0
 10
94.15445961187805
 20
-143.7528102939229
 30
0.0
 10
94.30225420819528
 20
-143.7238714918468
 30
0.0
 10
94.30225420819528
 20
-143.5388698642889
 30
0.0
 10
94.30225420819528
 20
-143.2729084928276
 30
0.0
 10
93.97221406070834
 20
-143.2384575379751
 30
0.0
 10
93.76723087933597
 20
-143.2267442133253
 30
0.0
 10
93.8475016041423
 20
-143.3097710145198
 30
0.0
 10
93.90469018919744
 20
-143.3714382237058
 30
0.0
 10
93.90469018919744
 20
-143.5371473165463
 30
0.0
 10
93.90469018919744
 20
-143.7007893520957
 30
0.0
 10
93.79892575780028
 20
-143.9763969909156
 30
0.0
 10
93.39274900008931
 20
-143.9763969909156
 30
0.0
 10
93.07338864860665
 20
-143.9763969909156
 30
0.0
 10
92.85324704709919
 20
-143.7951849683915
 30
0.0
 10
92.85324704709919
 20
-143.506141457179
 30
0.0
 10
92.85324704709919
 20
-143.0379529807336
 30
0.0
 10
93.40756291067589
 20
-143.0283067133749
 30
0.0
 10
93.62115883076139
 20
-143.0283067133749
 30
0.0
 10
93.8516357187246
 20
-143.0283067133749
 30
0.0
 10
94.49690210311189
 20
-143.0455321908011
 30
0.0
 10
94.49690210311189
 20
-143.5409369215801
 30
0.0
  0
SPLINE
  5
21B
330
213
100
AcDbEntity
  8
_U+30EC_U+30A4_U+30E4_U+30FC 1
370
     0
100
AcDbSpline
210
0.0
220
0.0
230
1.0
 70
    11
 71
     3
 72
    17
 73
    13
 74
     0
 42
0.0000000001
 43
0.0000000001
 12
1.0
 22
0.0
 32
0.0
 13
1.0
 23
0.0
 33
0.0
 40
0.0
 40
0.0
 40
0.0
 40
0.0
 40
1.0
 40
1.0
 40
1.0
 40
2.0
 40
2.0
 40
2.0
 40
3.0
 40
3.0
 40
3.0
 40
4.0
 40
4.0
 40
4.0
 40
4.0
 10
93.04582788472466
 20
-143.5044189094364
 30
0.0
 10
93.04582788472466
 20
-143.6122503981247
 30
0.0
 10
93.1030164697798
 20
-143.7721028286403
 30
0.0
 10
93.38861488550701
 20
-143.7721028286403
 30
0.0
 10
93.61495765888793
 20
-143.7721028286403
 30
0.0
 10
93.71004229428083
 20
-143.6449788052346
 30
0.0
 10
93.71004229428083
 20
-143.5216443868626
 30
0.0
 10
93.71004229428083
 20
-143.2825547601863
 30
0.0
 10
93.50058048877764
 20
-143.2481038053338
 30
0.0
 10
93.3841362613762
 20
-143.2481038053338
 30
0.0
 10
93.20878090117698
 20
-143.2481038053338
 30
0.0
 10
93.04582788472466
 20
-143.3345757020136
 30
0.0
 10
93.04582788472466
 20
-143.5044189094364
 30
0.0
  0
HATCH
  5
21C
330
213
100
AcDbEntity
  8
_U+30EC_U+30A4_U+30E4_U+30FC 1
 62
   179
420
  2234388
100
AcDbHatch
 10
0.0
 20
0.0
 30
0.0
210
0.0
220
0.0
230
1.0
  2
SOLID
 70
     1
 71
     0
 91
        2
 92
        1
 93
        1
 72
     4
 94
        3
 73
     0
 74
     1
 95
       32
 96
       28
 40
0.0
 40
0.0
 40
0.0
 40
0.0
 40
1.0
 40
1.0
 40
1.0
 40
2.0
 40
2.0
 40
2.0
 40
3.0
 40
3.0
 40
3.0
 40
4.0
 40
4.0
 40
4.0
 40
5.0
 40
5.0
 40
5.0
 40
6.0
 40
6.0
 40
6.0
 40
7.0
 40
7.0
 40
7.0
 40
8.0
 40
8.0
 40
8.0
 40
9.0
 40
9.0
 40
9.0
 40
9.0
 10
94.49690210311189
 20
-143.5409369215801
 10
94.49690210311189
 20
-143.699066804353
 10
94.42731117430985
 20
-143.9223089917972
 10
94.09520396953175
 20
-143.9571044561982
 10
94.09520396953175
 20
-143.9571044561982
 10
94.09520396953175
 20
-143.7624565612816
 10
94.09520396953175
 20
-143.7624565612816
 10
94.15445961187805
 20
-143.7528102939229
 10
94.30225420819528
 20
-143.7238714918468
 10
94.30225420819528
 20
-143.5388698642889
 10
94.30225420819528
 20
-143.2729084928276
 10
93.97221406070834
 20
-143.2384575379751
 10
93.76723087933597
 20
-143.2267442133253
 10
93.8475016041423
 20
-143.3097710145198
 10
93.90469018919744
 20
-143.3714382237058
 10
93.90469018919744
 20
-143.5371473165463
 10
93.90469018919744
 20
-143.7007893520957
 10
93.79892575780028
 20
-143.9763969909156
 10
93.39274900008931
 20
-143.9763969909156
 10
93.07338864860665
 20
-143.9763969909156
 10
92.85324704709919
 20
-143.7951849683915
 10
92.85324704709919
 20
-143.506141457179
 10
92.85324704709919
 20
-143.0379529807336
 10
93.40756291067589
 20
-143.0283067133749
 10
93.62115883076139
 20
-143.0283067133749
 10
93.8516357187246
 20
-143.0283067133749
 10
94.49690210311189
 20
-143.0455321908011
 10
94.49690210311189
 20
-143.5409369215801
 97
        0
 97
        0
 92
        1
 93
        1
 72
     4
 94
        3
 73
     0
 74
     1
 95
       17
 96
       13
 40
0.0
 40
0.0
 40
0.0
 40
0.0
 40
1.0
 40
1.0
 40
1.0
 40
2.0
 40
2.0
 40
2.0
 40
3.0
 40
3.0
 40
3.0
 40
4.0
 40
4.0
 40
4.0
 40
4.0
 10
93.04582788472466
 20
-143.5044189094364
 10
93.04582788472466
 20
-143.6122503981247
 10
93.1030164697798
 20
-143.7721028286403
 10
93.38861488550701
 20
-143.7721028286403
 10
93.61495765888793
 20
-143.7721028286403
 10
93.71004229428083
 20
-143.6449788052346
 10
93.71004229428083
 20
-143.5216443868626
 10
93.71004229428083
 20
-143.2825547601863
 10
93.50058048877764
 20
-143.2481038053338
 10
93.3841362613762
 20
-143.2481038053338
 10
93.20878090117698
 20
-143.2481038053338
 10
93.04582788472466
 20
-143.3345757020136
 10
93.04582788472466
 20
-143.5044189094364
 97
        0
 97
        0
 75
     2
 76
     1
 98
        0
  0
ENDBLK
  5
216
330
213
100
AcDbEntity
  8
0
100
AcDbBlockEnd
  0
ENDSEC
  0
SECTION
  2
ENTITIES
  0
POLYLINE
  5
41
330
1F
100
AcDbEntity
  8
_U+30EC_U+30A4_U+30E4_U+30FC 1
 62
   179
420
  2234388
370
     9
100
AcDb2dPolyline
 66
     1
 10
0.0
 20
0.0
 30
0.0
  0
VERTEX
  5
42
330
41
100
AcDbEntity
  8
_U+30EC_U+30A4_U+30E4_U+30FC 1
 62
   179
420
  2234388
370
     9
100
AcDbVertex
100
AcDb2dVertex
 10
100.8124563169489
 20
-160.8935482931098
 30
0.0
  0
VERTEX
  5
43
330
41
100
AcDbEntity
  8
_U+30EC_U+30A4_U+30E4_U+30FC 1
 62
   179
420
  2234388
370
     9
100
AcDbVertex
100
AcDb2dVertex
 10
106.0300395171706
 20
-160.8935482931098
 30
0.0
  0
SEQEND
  5
44
330
41
100
AcDbEntity
  8
_U+30EC_U+30A4_U+30E4_U+30FC 1
 62
   179
420
  2234388
370
     9
  0
INSERT
  5
46
330
1F
100
AcDbEntity
  8
_U+30EC_U+30A4_U+30E4_U+30FC 1
100
AcDbBlockReference
  2
block 2
 10
0.0
 20
0.0
 30
0.0
  0
INSERT
  5
5B
330
1F
100
AcDbEntity
  8
_U+30EC_U+30A4_U+30E4_U+30FC 1
100
AcDbBlockReference
  2
block 3
 10
0.0
 20
0.0
 30
0.0
  0
POLYLINE
  5
65
330
1F
100
AcDbEntity
  8
_U+30EC_U+30A4_U+30E4_U+30FC 1
 62
   179
420
  2234388
370
     9
100
AcDb2dPolyline
 66
     1
 10
0.0
 20
0.0
 30
0.0
  0
VERTEX
  5
66
330
65
100
AcDbEntity
  8
_U+30EC_U+30A4_U+30E4_U+30FC 1
 62
   179
420
  2234388
370
     9
100
AcDbVertex
100
AcDb2dVertex
 10
80.3328954505371
 20
-145.8167785746571
 30
0.0
  0
VERTEX
  5
67
330
65
100
AcDbEntity
  8
_U+30EC_U+30A4_U+30E4_U+30FC 1
 62
   179
420
  2234388
370
     9
100
AcDbVertex
100
AcDb2dVertex
 10
80.3328954505371
 20
-147.5703310742187
 30
0.0
  0
SEQEND
  5
68
330
65
100
AcDbEntity
  8
_U+30EC_U+30A4_U+30E4_U+30FC 1
 62
   179
420
  2234388
370
     9
  0
POLYLINE
  5
69
330
1F
100
AcDbEntity
  8
_U+30EC_U+30A4_U+30E4_U+30FC 1
 62
   179
420
  2234388
370
     9
100
AcDb2dPolyline
 66
     1
 10
0.0
 20
0.0
 30
0.0
  0
VERTEX
  5
6A
330
69
100
AcDbEntity
  8
_U+30EC_U+30A4_U+30E4_U+30FC 1
 62
   179
420
  2234388
370
     9
100
AcDbVertex
100
AcDb2dVertex
 10
80.83313432666382
 20
-145.8167785746571
 30
0.0
  0
VERTEX
  5
6B
330
69
100
AcDbEntity
  8
_U+30EC_U+30A4_U+30E4_U+30FC 1
 62
   179
420
  2234388
370
     9
100
AcDbVertex
100
AcDb2dVertex
 10
80.83313432666382
 20
-147.5703310742187
 30
0.0
  0
SEQEND
  5
6C
330
69
100
AcDbEntity
  8
_U+30EC_U+30A4_U+30E4_U+30FC 1
 62
   179
420
  2234388
370
     9
  0
POLYLINE
  5
6D
330
1F
100
AcDbEntity
  8
_U+30EC_U+30A4_U+30E4_U+30FC 1
 62
   179
420
  2234388
370
     9
100
AcDb2dPolyline
 66
     1
 10
0.0
 20
0.0
 30
0.0
  0
VERTEX
  5
6E
330
6D
100
AcDbEntity
  8
_U+30EC_U+30A4_U+30E4_U+30FC 1
 62
   179
420
  2234388
370
     9
100
AcDbVertex
100
AcDb2dVertex
 10
79.50506713832343
 20
-154.736447183538
 30
0.0
  0
VERTEX
  5
6F
330
6D
100
AcDbEntity
  8
_U+30EC_U+30A4_U+30E4_U+30FC 1
 62
   179
420
  2234388
370
     9
100
AcDbVertex
100
AcDb2dVertex
 10
79.03823631689994
 20
-154.5573066280274
 30
0.0
  0
SEQEND
  5
70
330
6D
100
AcDbEntity
  8
_U+30EC_U+30A4_U+30E4_U+30FC 1
 62
   179
420
  2234388
370
     9
  0
POLYLINE
  5
71
330
1F
100
AcDbEntity
  8
_U+30EC_U+30A4_U+30E4_U+30FC 1
 62
   179
420
  2234388
370
     9
100
AcDb2dPolyline
 66
     1
 10
0.0
 20
0.0
 30
0.0
  0
VERTEX
  5
72
330
71
100
AcDbEntity
  8
_U+30EC_U+30A4_U+30E4_U+30FC 1
 62
   179
420
  2234388
370
     9
100
AcDbVertex
100
AcDb2dVertex
 10
79.08028742693823
 20
-154.5731816280235
 30
0.0
  0
VERTEX
  5
73
330
71
100
AcDbEntity
  8
_U+30EC_U+30A4_U+30E4_U+30FC 1
 62
   179
420
  2234388
370
     9
100
AcDbVertex
100
AcDb2dVertex
 10
79.83061046335145
 20
-153.8235288504331
 30
0.0
  0
SEQEND
  5
74
330
71
100
AcDbEntity
  8
_U+30EC_U+30A4_U+30E4_U+30FC 1
 62
   179
420
  2234388
370
     9
  0
POLYLINE
  5
75
330
1F
100
AcDbEntity
  8
_U+30EC_U+30A4_U+30E4_U+30FC 1
 62
   179
420
  2234388
370
     9
100
AcDb2dPolyline
 66
     1
 10
0.0
 20
0.0
 30
0.0
  0
VERTEX
  5
76
330
75
100
AcDbEntity
  8
_U+30EC_U+30A4_U+30E4_U+30FC 1
 62
   179
420
  2234388
370
     9
100
AcDbVertex
100
AcDb2dVertex
 10
79.39203714120706
 20
-153.5547827393891
 30
0.0
  0
VERTEX
  5
77
330
75
100
AcDbEntity
  8
_U+30EC_U+30A4_U+30E4_U+30FC 1
 62
   179
420
  2234388
370
     9
100
AcDbVertex
100
AcDb2dVertex
 10
80.13378767783898
 20
-152.8127146840193
 30
0.0
  0
SEQEND
  5
78
330
75
100
AcDbEntity
  8
_U+30EC_U+30A4_U+30E4_U+30FC 1
 62
   179
420
  2234388
370
     9
  0
POLYLINE
  5
79
330
1F
100
AcDbEntity
  8
_U+30EC_U+30A4_U+30E4_U+30FC 1
 62
   179
420
  2234388
370
     9
100
AcDb2dPolyline
 66
     1
 10
0.0
 20
0.0
 30
0.0
  0
VERTEX
  5
7A
330
79
100
AcDbEntity
  8
_U+30EC_U+30A4_U+30E4_U+30FC 1
 62
   179
420
  2234388
370
     9
100
AcDbVertex
100
AcDb2dVertex
 10
79.68523074483818
 20
-152.5543402396392
 30
0.0
  0
VERTEX
  5
7B
330
79
100
AcDbEntity
  8
_U+30EC_U+30A4_U+30E4_U+30FC 1
 62
   179
420
  2234388
370
     9
100
AcDbVertex
100
AcDb2dVertex
 10
80.2419493417462
 20
-151.9969160731122
 30
0.0
  0
SEQEND
  5
7C
330
79
100
AcDbEntity
  8
_U+30EC_U+30A4_U+30E4_U+30FC 1
 62
   179
420
  2234388
370
     9
  0
POLYLINE
  5
7D
330
1F
100
AcDbEntity
  8
_U+30EC_U+30A4_U+30E4_U+30FC 1
 62
   179
420
  2234388
370
     9
100
AcDb2dPolyline
 66
     1
 10
0.0
 20
0.0
 30
0.0
  0
VERTEX
  5
7E
330
7D
100
AcDbEntity
  8
_U+30EC_U+30A4_U+30E4_U+30FC 1
 62
   179
420
  2234388
370
     9
100
AcDbVertex
100
AcDb2dVertex
 10
79.90673990585367
 20
-151.6255469065383
 30
0.0
  0
VERTEX
  5
7F
330
7D
100
AcDbEntity
  8
_U+30EC_U+30A4_U+30E4_U+30FC 1
 62
   179
420
  2234388
370
     9
100
AcDbVertex
100
AcDb2dVertex
 10
80.37907406047009
 20
-151.1528599622117
 30
0.0
  0
SEQEND
  5
80
330
7D
100
AcDbEntity
  8
_U+30EC_U+30A4_U+30E4_U+30FC 1
 62
   179
420
  2234388
370
     9
  0
POLYLINE
  5
81
330
1F
100
AcDbEntity
  8
_U+30EC_U+30A4_U+30E4_U+30FC 1
 62
   179
420
  2234388
370
     9
100
AcDb2dPolyline
 66
     1
 10
0.0
 20
0.0
 30
0.0
  0
VERTEX
  5
82
330
81
100
AcDbEntity
  8
_U+30EC_U+30A4_U+30E4_U+30FC 1
 62
   179
420
  2234388
370
     9
100
AcDbVertex
100
AcDb2dVertex
 10
80.0714165683191
 20
-150.7539388512007
 30
0.0
  0
VERTEX
  5
83
330
81
100
AcDbEntity
  8
_U+30EC_U+30A4_U+30E4_U+30FC 1
 62
   179
420
  2234388
370
     9
100
AcDbVertex
100
AcDb2dVertex
 10
80.55027711165789
 20
-150.2750782957646
 30
0.0
  0
SEQEND
  5
84
330
81
100
AcDbEntity
  8
_U+30EC_U+30A4_U+30E4_U+30FC 1
 62
   179
420
  2234388
370
     9
  0
POLYLINE
  5
85
330
1F
100
AcDbEntity
  8
_U+30EC_U+30A4_U+30E4_U+30FC 1
 62
   179
420
  2234388
370
     9
100
AcDb2dPolyline
 66
     1
 10
0.0
 20
0.0
 30
0.0
  0
VERTEX
  5
86
330
85
100
AcDbEntity
  8
_U+30EC_U+30A4_U+30E4_U+30FC 1
 62
   179
420
  2234388
370
     9
100
AcDbVertex
100
AcDb2dVertex
 10
80.18994989862838
 20
-149.9284741291845
 30
0.0
  0
VERTEX
  5
87
330
85
100
AcDbEntity
  8
_U+30EC_U+30A4_U+30E4_U+30FC 1
 62
   179
420
  2234388
370
     9
100
AcDbVertex
100
AcDb2dVertex
 10
80.7211626628538
 20
-149.397614129317
 30
0.0
  0
SEQEND
  5
88
330
85
100
AcDbEntity
  8
_U+30EC_U+30A4_U+30E4_U+30FC 1
 62
   179
420
  2234388
370
     9
  0
POLYLINE
  5
89
330
1F
100
AcDbEntity
  8
_U+30EC_U+30A4_U+30E4_U+30FC 1
 62
   179
420
  2234388
370
     9
100
AcDb2dPolyline
 66
     1
 10
0.0
 20
0.0
 30
0.0
  0
VERTEX
  5
8A
330
89
100
AcDbEntity
  8
_U+30EC_U+30A4_U+30E4_U+30FC 1
 62
   179
420
  2234388
370
     9
100
AcDbVertex
100
AcDb2dVertex
 10
80.26950128548775
 20
-149.1419560738258
 30
0.0
  0
VERTEX
  5
8B
330
89
100
AcDbEntity
  8
_U+30EC_U+30A4_U+30E4_U+30FC 1
 62
   179
420
  2234388
370
     9
100
AcDbVertex
100
AcDb2dVertex
 10
80.80625266068297
 20
-148.605239962849
 30
0.0
  0
SEQEND
  5
8C
330
89
100
AcDbEntity
  8
_U+30EC_U+30A4_U+30E4_U+30FC 1
 62
   179
420
  2234388
370
     9
  0
POLYLINE
  5
8D
330
1F
100
AcDbEntity
  8
_U+30EC_U+30A4_U+30E4_U+30FC 1
 62
   179
420
  2234388
370
     9
100
AcDb2dPolyline
 66
     1
 10
0.0
 20
0.0
 30
0.0
  0
VERTEX
  5
8E
330
8D
100
AcDbEntity
  8
_U+30EC_U+30A4_U+30E4_U+30FC 1
 62
   179
420
  2234388
370
     9
100
AcDbVertex
100
AcDb2dVertex
 10
80.31567989542074
 20
-148.3881757962361
 30
0.0
  0
VERTEX
  5
8F
330
8D
100
AcDbEntity
  8
_U+30EC_U+30A4_U+30E4_U+30FC 1
 62
   179
420
  2234388
370
     9
100
AcDbVertex
100
AcDb2dVertex
 10
80.83073543783614
 20
-147.8734730185874
 30
0.0
  0
SEQEND
  5
90
330
8D
100
AcDbEntity
  8
_U+30EC_U+30A4_U+30E4_U+30FC 1
 62
   179
420
  2234388
370
     9
  0
POLYLINE
  5
91
330
1F
100
AcDbEntity
  8
_U+30EC_U+30A4_U+30E4_U+30FC 1
 62
   179
420
  2234388
370
     9
100
AcDb2dPolyline
 66
     1
 10
0.0
 20
0.0
 30
0.0
  0
VERTEX
  5
92
330
91
100
AcDbEntity
  8
_U+30EC_U+30A4_U+30E4_U+30FC 1
 62
   179
420
  2234388
370
     9
100
AcDbVertex
100
AcDb2dVertex
 10
80.3328954505371
 20
-147.6640288519727
 30
0.0
  0
VERTEX
  5
93
330
91
100
AcDbEntity
  8
_U+30EC_U+30A4_U+30E4_U+30FC 1
 62
   179
420
  2234388
370
     9
100
AcDbVertex
100
AcDb2dVertex
 10
80.83313432666382
 20
-147.1637899632089
 30
0.0
  0
SEQEND
  5
94
330
91
100
AcDbEntity
  8
_U+30EC_U+30A4_U+30E4_U+30FC 1
 62
   179
420
  2234388
370
     9
  0
POLYLINE
  5
95
330
1F
100
AcDbEntity
  8
_U+30EC_U+30A4_U+30E4_U+30FC 1
 62
   179
420
  2234388
370
     9
100
AcDb2dPolyline
 66
     1
 10
0.0
 20
0.0
 30
0.0
  0
VERTEX
  5
96
330
95
100
AcDbEntity
  8
_U+30EC_U+30A4_U+30E4_U+30FC 1
 62
   179
420
  2234388
370
     9
100
AcDbVertex
100
AcDb2dVertex
 10
80.3328954505371
 20
-146.9570974632606
 30
0.0
  0
VERTEX
  5
97
330
95
100
AcDbEntity
  8
_U+30EC_U+30A4_U+30E4_U+30FC 1
 62
   179
420
  2234388
370
     9
100
AcDbVertex
100
AcDb2dVertex
 10
80.83313432666382
 20
-146.4568585744969
 30
0.0
  0
SEQEND
  5
98
330
95
100
AcDbEntity
  8
_U+30EC_U+30A4_U+30E4_U+30FC 1
 62
   179
420
  2234388
370
     9
  0
POLYLINE
  5
99
330
1F
100
AcDbEntity
  8
_U+30EC_U+30A4_U+30E4_U+30FC 1
 62
   179
420
  2234388
370
     9
100
AcDb2dPolyline
 66
     1
 10
0.0
 20
0.0
 30
0.0
  0
VERTEX
  5
9A
330
99
100
AcDbEntity
  8
_U+30EC_U+30A4_U+30E4_U+30FC 1
 62
   179
420
  2234388
370
     9
100
AcDbVertex
100
AcDb2dVertex
 10
80.3328954505371
 20
-146.2501660745485
 30
0.0
  0
VERTEX
  5
9B
330
99
100
AcDbEntity
  8
_U+30EC_U+30A4_U+30E4_U+30FC 1
 62
   179
420
  2234388
370
     9
100
AcDbVertex
100
AcDb2dVertex
 10
80.76596543948855
 20
-145.8167785746571
 30
0.0
  0
SEQEND
  5
9C
330
99
100
AcDbEntity
  8
_U+30EC_U+30A4_U+30E4_U+30FC 1
 62
   179
420
  2234388
370
     9
  0
SPLINE
  5
9D
330
1F
100
AcDbEntity
  8
_U+30EC_U+30A4_U+30E4_U+30FC 1
 62
   179
420
  2234388
370
     9
100
AcDbSpline
210
0.0
220
0.0
230
1.0
 70
     8
 71
     3
 72
     8
 73
     4
 74
     0
 42
0.0000000001
 43
0.0000000001
 12
1.0
 22
0.0
 32
0.0
 13
1.0
 23
0.0
 33
0.0
 40
0.0
 40
0.0
 40
0.0
 40
0.0
 40
1.0
 40
1.0
 40
1.0
 40
1.0
 10
79.50506713832343
 20
-154.736447183538
 30
0.0
 10
79.79995407524467
 20
-153.9682030170633
 30
0.0
 10
80.0469690689428
 20
-153.1827432950379
 30
0.0
 10
80.24505378611146
 20
-152.3841602396815
 30
0.0
  0
SPLINE
  5
9E
330
1F
100
AcDbEntity
  8
_U+30EC_U+30A4_U+30E4_U+30FC 1
 62
   179
420
  2234388
370
     9
100
AcDbSpline
210
0.0
220
0.0
230
1.0
 70
     8
 71
     3
 72
     8
 73
     4
 74
     0
 42
0.0000000001
 43
0.0000000001
 12
1.0
 22
0.0
 32
0.0
 13
1.0
 23
0.0
 33
0.0
 40
0.0
 40
0.0
 40
0.0
 40
0.0
 40
1.0
 40
1.0
 40
1.0
 40
1.0
 10
80.77146877268149
 20
-149.1392044071594
 30
0.0
 10
80.81246154941346
 20
-148.6169521850682
 30
0.0
 10
80.83313432666382
 20
-148.0939591296434
 30
0.0
 10
80.83313432666382
 20
-147.5703310742187
 30
0.0
  0
SPLINE
  5
9F
330
1F
100
AcDbEntity
  8
_U+30EC_U+30A4_U+30E4_U+30FC 1
 62
   179
420
  2234388
370
     9
100
AcDbSpline
210
0.0
220
0.0
230
1.0
 70
     8
 71
     3
 72
     8
 73
     4
 74
     0
 42
0.0000000001
 43
0.0000000001
 12
1.0
 22
0.0
 32
0.0
 13
1.0
 23
0.0
 33
0.0
 40
0.0
 40
0.0
 40
0.0
 40
0.0
 40
1.0
 40
1.0
 40
1.0
 40
1.0
 10
79.03823631689994
 20
-154.5573066280274
 30
0.0
 10
79.8940046284008
 20
-152.3269749619182
 30
0.0
 10
80.3328954505371
 20
-149.9588130180656
 30
0.0
 10
80.3328954505371
 20
-147.5703310742187
 30
0.0
  0
SPLINE
  5
A0
330
1F
100
AcDbEntity
  8
_U+30EC_U+30A4_U+30E4_U+30FC 1
 62
   179
420
  2234388
370
     9
100
AcDbSpline
210
0.0
220
0.0
230
1.0
 70
     8
 71
     3
 72
    38
 73
    34
 74
     0
 42
0.0000000001
 43
0.0000000001
 12
1.0
 22
0.0
 32
0.0
 13
1.0
 23
0.0
 33
0.0
 40
0.0
 40
0.0
 40
0.0
 40
0.0
 40
1.0
 40
1.0
 40
1.0
 40
2.0
 40
2.0
 40
2.0
 40
3.0
 40
3.0
 40
3.0
 40
4.0
 40
4.0
 40
4.0
 40
5.0
 40
5.0
 40
5.0
 40
6.0
 40
6.0
 40
6.0
 40
7.0
 40
7.0
 40
7.0
 40
8.0
 40
8.0
 40
8.0
 40
9.0
 40
9.0
 40
9.0
 40
10.0
 40
10.0
 40
10.0
 40
11.0
 40
11.0
 40
11.0
 40
11.0
 10
84.16455590833885
 20
-145.7922957968854
 30
0.0
 10
84.16455590833885
 20
-145.7922957968854
 30
0.0
 10
84.16455590833885
 20
-147.2988332965089
 30
0.0
 10
84.16455590833885
 20
-147.2988332965089
 30
0.0
 10
84.16455590833885
 20
-147.2988332965089
 30
0.0
 10
82.85832775706312
 20
-153.5320638505061
 30
0.0
 10
82.85832775706312
 20
-153.5320638505061
 30
0.0
 10
82.85832775706312
 20
-154.4236391280609
 30
0.0
 10
83.57146592346983
 20
-155.1457399612135
 30
0.0
 10
84.45101145658631
 20
-155.1457399612135
 30
0.0
 10
85.3308744896947
 20
-155.1457399612135
 30
0.0
 10
85.8879458643715
 20
-154.5814366280214
 30
0.0
 10
86.04401474927874
 20
-153.5320638505061
 30
0.0
 10
86.04401474927874
 20
-153.5320638505061
 30
0.0
 10
86.64726473388856
 20
-150.7518574623123
 30
0.0
 10
86.64726473388856
 20
-150.7518574623123
 30
0.0
 10
86.64726473388856
 20
-150.5403319068091
 30
0.0
 10
86.95972220048229
 20
-149.4603027404125
 30
0.0
 10
87.85097775873484
 20
-149.6528841292536
 30
0.0
 10
88.87138745492423
 20
-149.9539799625114
 30
0.0
 10
88.62747690559137
 20
-151.0626194066791
 30
0.0
 10
88.62747690559137
 20
-151.0626194066791
 30
0.0
 10
88.47934552048162
 20
-151.7640474620589
 30
0.0
 10
88.26714969256184
 20
-152.9532966284284
 30
0.0
 10
88.26714969256184
 20
-152.9532966284284
 30
0.0
 10
87.47717443493802
 20
-156.6195396830674
 30
0.0
 10
86.5097872373959
 20
-157.2582791273524
 30
0.0
 10
84.11407340962677
 20
-157.3154644051157
 30
0.0
 10
82.06838568403883
 20
-157.3154644051157
 30
0.0
 10
80.31395128435373
 20
-155.4875110722394
 30
0.0
 10
80.31395128435373
 20
-153.0269919061876
 30
0.0
 10
80.31395128435373
 20
-153.0269919061876
 30
0.0
 10
80.31395128435373
 20
-145.7922957968854
 30
0.0
 10
80.31395128435373
 20
-145.7922957968854
 30
0.0
  0
HATCH
  5
A1
330
1F
100
AcDbEntity
  8
_U+30EC_U+30A4_U+30E4_U+30FC 1
 62
     7
420
 16711422
100
AcDbHatch
 10
0.0
 20
0.0
 30
0.0
210
0.0
220
0.0
230
1.0
  2
SOLID
 70
     1
 71
     0
 91
        1
 92
        1
 93
        2
 72
     4
 94
        3
 73
     0
 74
     0
 95
       38
 96
       34
 40
0.0
 40
0.0
 40
0.0
 40
0.0
 40
0.3527777776895833
 40
0.3527777776895833
 40
0.3527777776895833
 40
0.7055555553791667
 40
0.7055555553791667
 40
0.7055555553791667
 40
1.05833333306875
 40
1.05833333306875
 40
1.05833333306875
 40
1.411111110758333
 40
1.411111110758333
 40
1.411111110758333
 40
1.763888888447917
 40
1.763888888447917
 40
1.763888888447917
 40
2.1166666661375
 40
2.1166666661375
 40
2.1166666661375
 40
2.469444443827083
 40
2.469444443827083
 40
2.469444443827083
 40
2.822222221516667
 40
2.822222221516667
 40
2.822222221516667
 40
3.17499999920625
 40
3.17499999920625
 40
3.17499999920625
 40
3.527777776895833
 40
3.527777776895833
 40
3.527777776895833
 40
3.880555554585417
 40
3.880555554585417
 40
3.880555554585417
 40
3.880555554585417
 10
84.16455590833885
 20
-145.7922957968854
 10
84.16455590833885
 20
-145.7922957968854
 10
84.16455590833885
 20
-147.2988332965089
 10
84.16455590833885
 20
-147.2988332965089
 10
84.16455590833885
 20
-147.2988332965089
 10
82.85832775706312
 20
-153.5320638505061
 10
82.85832775706312
 20
-153.5320638505061
 10
82.85832775706312
 20
-154.4236391280609
 10
83.57146592346983
 20
-155.1457399612135
 10
84.45101145658631
 20
-155.1457399612135
 10
85.3308744896947
 20
-155.1457399612135
 10
85.8879458643715
 20
-154.5814366280214
 10
86.04401474927874
 20
-153.5320638505061
 10
86.04401474927874
 20
-153.5320638505061
 10
86.64726473388856
 20
-150.7518574623123
 10
86.64726473388856
 20
-150.7518574623123
 10
86.64726473388856
 20
-150.5403319068091
 10
86.95972220048229
 20
-149.4603027404125
 10
87.85097775873484
 20
-149.6528841292536
 10
88.87138745492423
 20
-149.9539799625114
 10
88.62747690559137
 20
-151.0626194066791
 10
88.62747690559137
 20
-151.0626194066791
 10
88.47934552048162
 20
-151.7640474620589
 10
88.26714969256184
 20
-152.9532966284284
 10
88.26714969256184
 20
-152.9532966284284
 10
87.47717443493802
 20
-156.6195396830674
 10
86.5097872373959
 20
-157.2582791273524
 10
84.11407340962677
 20
-157.3154644051157
 10
82.06838568403883
 20
-157.3154644051157
 10
80.31395128435373
 20
-155.4875110722394
 10
80.31395128435373
 20
-153.0269919061876
 10
80.31395128435373
 20
-153.0269919061876
 10
80.31395128435373
 20
-145.7922957968854
 10
80.31395128435373
 20
-145.7922957968854
 97
        0
 72
     1
 10
80.31395128435373
 20
-145.7922957968854
 11
84.16455590833885
 21
-145.7922957968854
 97
        0
 75
     2
 76
     1
 98
        0
  0
POLYLINE
  5
A2
330
1F
100
AcDbEntity
  8
_U+30EC_U+30A4_U+30E4_U+30FC 1
 62
   179
420
  2234388
370
     9
100
AcDb2dPolyline
 66
     1
 10
0.0
 20
0.0
 30
0.0
  0
VERTEX
  5
A3
330
A2
100
AcDbEntity
  8
_U+30EC_U+30A4_U+30E4_U+30FC 1
 62
   179
420
  2234388
370
     9
100
AcDbVertex
100
AcDb2dVertex
 10
80.84932682625072
 20
-136.5329374658665
 30
0.0
  0
VERTEX
  5
A4
330
A2
100
AcDbEntity
  8
_U+30EC_U+30A4_U+30E4_U+30FC 1
 62
   179
420
  2234388
370
     9
100
AcDbVertex
100
AcDb2dVertex
 10
80.84932682625072
 20
-132.4952546890986
 30
0.0
  0
VERTEX
  5
A5
330
A2
100
AcDbEntity
  8
_U+30EC_U+30A4_U+30E4_U+30FC 1
 62
   179
420
  2234388
370
     9
100
AcDbVertex
100
AcDb2dVertex
 10
83.64502220131106
 20
-132.4952546890986
 30
0.0
  0
VERTEX
  5
A6
330
A2
100
AcDbEntity
  8
_U+30EC_U+30A4_U+30E4_U+30FC 1
 62
   179
420
  2234388
370
     9
100
AcDbVertex
100
AcDb2dVertex
 10
83.64502220131106
 20
-136.5329374658665
 30
0.0
  0
SEQEND
  5
A7
330
A2
100
AcDbEntity
  8
_U+30EC_U+30A4_U+30E4_U+30FC 1
 62
   179
420
  2234388
370
     9
  0
POLYLINE
  5
A8
330
1F
100
AcDbEntity
  8
_U+30EC_U+30A4_U+30E4_U+30FC 1
 62
   179
420
  2234388
370
     9
100
AcDb2dPolyline
 66
     1
 10
0.0
 20
0.0
 30
0.0
  0
VERTEX
  5
A9
330
A8
100
AcDbEntity
  8
_U+30EC_U+30A4_U+30E4_U+30FC 1
 62
   179
420
  2234388
370
     9
100
AcDbVertex
100
AcDb2dVertex
 10
84.16455590833885
 20
-145.7922957968854
 30
0.0
  0
VERTEX
  5
AA
330
A8
100
AcDbEntity
  8
_U+30EC_U+30A4_U+30E4_U+30FC 1
 62
   179
420
  2234388
370
     9
100
AcDbVertex
100
AcDb2dVertex
 10
80.3144804510069
 20
-145.7922957968854
 30
0.0
  0
VERTEX
  5
AB
330
A8
100
AcDbEntity
  8
_U+30EC_U+30A4_U+30E4_U+30FC 1
 62
   179
420
  2234388
370
     9
100
AcDbVertex
100
AcDb2dVertex
 10
80.3144804510069
 20
-136.5508232991959
 30
0.0
  0
VERTEX
  5
AC
330
A8
100
AcDbEntity
  8
_U+30EC_U+30A4_U+30E4_U+30FC 1
 62
   179
420
  2234388
370
     9
100
AcDbVertex
100
AcDb2dVertex
 10
84.16455590833885
 20
-136.5508232991959
 30
0.0
  0
VERTEX
  5
AD
330
A8
100
AcDbEntity
  8
_U+30EC_U+30A4_U+30E4_U+30FC 1
 62
   179
420
  2234388
370
     9
100
AcDbVertex
100
AcDb2dVertex
 10
84.16455590833885
 20
-145.7922957968854
 30
0.0
  0
SEQEND
  5
AE
330
A8
100
AcDbEntity
  8
_U+30EC_U+30A4_U+30E4_U+30FC 1
 62
   179
420
  2234388
370
     9
  0
SPLINE
  5
AF
330
1F
100
AcDbEntity
  8
_U+30EC_U+30A4_U+30E4_U+30FC 1
  6
AI-Linetype-1
 62
   179
420
  2234388
370
     9
100
AcDbSpline
210
0.0
220
0.0
230
1.0
 70
    11
 71
     3
 72
    17
 73
    13
 74
     0
 42
0.0000000001
 43
0.0000000001
 12
1.0
 22
0.0
 32
0.0
 13
1.0
 23
0.0
 33
0.0
 40
0.0
 40
0.0
 40
0.0
 40
0.0
 40
1.0
 40
1.0
 40
1.0
 40
2.0
 40
2.0
 40
2.0
 40
3.0
 40
3.0
 40
3.0
 40
4.0
 40
4.0
 40
4.0
 40
4.0
 10
84.48441951128956
 20
-147.5561846853333
 30
0.0
 10
84.48441951128956
 20
-146.7118110744332
 30
0.0
 10
85.16877310494135
 20
-146.0272457968264
 30
0.0
 10
86.01335836117197
 20
-146.0272457968264
 30
0.0
 10
86.85773195074131
 20
-146.0272457968264
 30
0.0
 10
87.5419444332856
 20
-146.7118110744332
 30
0.0
 10
87.5419444332856
 20
-147.5561846853333
 30
0.0
 10
87.5419444332856
 20
-148.4002407962331
 30
0.0
 10
86.85773195074131
 20
-149.0847707960625
 30
0.0
 10
86.01335836117197
 20
-149.0847707960625
 30
0.0
 10
85.16877310494135
 20
-149.0847707960625
 30
0.0
 10
84.48441951128956
 20
-148.4002407962331
 30
0.0
 10
84.48441951128956
 20
-147.5561846853333
 30
0.0
  0
POLYLINE
  5
B1
330
1F
100
AcDbEntity
  8
_U+30EC_U+30A4_U+30E4_U+30FC 1
 62
   179
420
  2234388
370
     9
100
AcDb2dPolyline
 66
     1
 10
0.0
 20
0.0
 30
0.0
  0
VERTEX
  5
B2
330
B1
100
AcDbEntity
  8
_U+30EC_U+30A4_U+30E4_U+30FC 1
 62
   179
420
  2234388
370
     9
100
AcDbVertex
100
AcDb2dVertex
 10
80.3144804510069
 20
-136.7795996880274
 30
0.0
  0
VERTEX
  5
B3
330
B1
100
AcDbEntity
  8
_U+30EC_U+30A4_U+30E4_U+30FC 1
 62
   179
420
  2234388
370
     9
100
AcDbVertex
100
AcDb2dVertex
 10
84.16455590833885
 20
-136.7795996880274
 30
0.0
  0
SEQEND
  5
B4
330
B1
100
AcDbEntity
  8
_U+30EC_U+30A4_U+30E4_U+30FC 1
 62
   179
420
  2234388
370
     9
  0
POLYLINE
  5
B5
330
1F
100
AcDbEntity
  8
_U+30EC_U+30A4_U+30E4_U+30FC 1
 62
   179
420
  2234388
370
     9
100
AcDb2dPolyline
 66
     1
 10
0.0
 20
0.0
 30
0.0
  0
VERTEX
  5
B6
330
B5
100
AcDbEntity
  8
_U+30EC_U+30A4_U+30E4_U+30FC 1
 62
   179
420
  2234388
370
     9
100
AcDbVertex
100
AcDb2dVertex
 10
98.177982495271
 20
-136.5329374658665
 30
0.0
  0
VERTEX
  5
B7
330
B5
100
AcDbEntity
  8
_U+30EC_U+30A4_U+30E4_U+30FC 1
 62
   179
420
  2234388
370
     9
100
AcDbVertex
100
AcDb2dVertex
 10
98.177982495271
 20
-132.4952546890986
 30
0.0
  0
VERTEX
  5
B8
330
B5
100
AcDbEntity
  8
_U+30EC_U+30A4_U+30E4_U+30FC 1
 62
   179
420
  2234388
370
     9
100
AcDbVertex
100
AcDb2dVertex
 10
100.9736757572802
 20
-132.4952546890986
 30
0.0
  0
VERTEX
  5
B9
330
B5
100
AcDbEntity
  8
_U+30EC_U+30A4_U+30E4_U+30FC 1
 62
   179
420
  2234388
370
     9
100
AcDbVertex
100
AcDb2dVertex
 10
100.9736757572802
 20
-136.5329374658665
 30
0.0
  0
SEQEND
  5
BA
330
B5
100
AcDbEntity
  8
_U+30EC_U+30A4_U+30E4_U+30FC 1
 62
   179
420
  2234388
370
     9
  0
POLYLINE
  5
BB
330
1F
100
AcDbEntity
  8
_U+30EC_U+30A4_U+30E4_U+30FC 1
 62
   179
420
  2234388
370
     9
100
AcDb2dPolyline
 66
     1
 10
0.0
 20
0.0
 30
0.0
  0
VERTEX
  5
BC
330
BB
100
AcDbEntity
  8
_U+30EC_U+30A4_U+30E4_U+30FC 1
 62
   179
420
  2234388
370
     9
100
AcDbVertex
100
AcDb2dVertex
 10
101.5376262984482
 20
-145.7922957968854
 30
0.0
  0
VERTEX
  5
BD
330
BB
100
AcDbEntity
  8
_U+30EC_U+30A4_U+30E4_U+30FC 1
 62
   179
420
  2234388
370
     9
100
AcDbVertex
100
AcDb2dVertex
 10
97.69153722990347
 20
-145.7922957968854
 30
0.0
  0
VERTEX
  5
BE
330
BB
100
AcDbEntity
  8
_U+30EC_U+30A4_U+30E4_U+30FC 1
 62
   179
420
  2234388
370
     9
100
AcDbVertex
100
AcDb2dVertex
 10
97.69153722990347
 20
-136.5508232991959
 30
0.0
  0
VERTEX
  5
BF
330
BB
100
AcDbEntity
  8
_U+30EC_U+30A4_U+30E4_U+30FC 1
 62
   179
420
  2234388
370
     9
100
AcDbVertex
100
AcDb2dVertex
 10
101.5376262984482
 20
-136.5508232991959
 30
0.0
  0
VERTEX
  5
C0
330
BB
100
AcDbEntity
  8
_U+30EC_U+30A4_U+30E4_U+30FC 1
 62
   179
420
  2234388
370
     9
100
AcDbVertex
100
AcDb2dVertex
 10
101.5376262984482
 20
-145.7922957968854
 30
0.0
  0
SEQEND
  5
C1
330
BB
100
AcDbEntity
  8
_U+30EC_U+30A4_U+30E4_U+30FC 1
 62
   179
420
  2234388
370
     9
  0
POLYLINE
  5
C2
330
1F
100
AcDbEntity
  8
_U+30EC_U+30A4_U+30E4_U+30FC 1
 62
   179
420
  2234388
370
     9
100
AcDb2dPolyline
 66
     1
 10
0.0
 20
0.0
 30
0.0
  0
VERTEX
  5
C3
330
C2
100
AcDbEntity
  8
_U+30EC_U+30A4_U+30E4_U+30FC 1
 62
   179
420
  2234388
370
     9
100
AcDbVertex
100
AcDb2dVertex
 10
97.69153722990347
 20
-136.7795996880274
 30
0.0
  0
VERTEX
  5
C4
330
C2
100
AcDbEntity
  8
_U+30EC_U+30A4_U+30E4_U+30FC 1
 62
   179
420
  2234388
370
     9
100
AcDbVertex
100
AcDb2dVertex
 10
101.5376262984482
 20
-136.7795996880274
 30
0.0
  0
SEQEND
  5
C5
330
C2
100
AcDbEntity
  8
_U+30EC_U+30A4_U+30E4_U+30FC 1
 62
   179
420
  2234388
370
     9
  0
SPLINE
  5
C6
330
1F
100
AcDbEntity
  8
_U+30EC_U+30A4_U+30E4_U+30FC 1
 62
   179
420
  2234388
370
     9
100
AcDbSpline
210
0.0
220
0.0
230
1.0
 70
    11
 71
     3
 72
    17
 73
    13
 74
     0
 42
0.0000000001
 43
0.0000000001
 12
1.0
 22
0.0
 32
0.0
 13
1.0
 23
0.0
 33
0.0
 40
0.0
 40
0.0
 40
0.0
 40
0.0
 40
1.0
 40
1.0
 40
1.0
 40
2.0
 40
2.0
 40
2.0
 40
3.0
 40
3.0
 40
3.0
 40
4.0
 40
4.0
 40
4.0
 40
4.0
 10
83.44778203773639
 20
-146.2505188523263
 30
0.0
 10
83.44778203773639
 20
-146.0968488523645
 30
0.0
 10
83.5721714790074
 20
-145.9724946857292
 30
0.0
 10
83.72580831240175
 20
-145.9724946857292
 30
0.0
 10
83.87912341562084
 20
-145.9724946857292
 30
0.0
 10
84.00365396799936
 20
-146.0968488523645
 30
0.0
 10
84.00365396799936
 20
-146.2505188523263
 30
0.0
 10
84.00365396799936
 20
-146.4038007967322
 30
0.0
 10
83.87912341562084
 20
-146.5281902411456
 30
0.0
 10
83.72580831240175
 20
-146.5281902411456
 30
0.0
 10
83.5721714790074
 20
-146.5281902411456
 30
0.0
 10
83.44778203773639
 20
-146.4038007967322
 30
0.0
 10
83.44778203773639
 20
-146.2505188523263
 30
0.0
  0
SPLINE
  5
C7
330
1F
100
AcDbEntity
  8
_U+30EC_U+30A4_U+30E4_U+30FC 1
 62
   179
420
  2234388
370
     9
100
AcDbSpline
210
0.0
220
0.0
230
1.0
 70
    11
 71
     3
 72
    17
 73
    13
 74
     0
 42
0.0000000001
 43
0.0000000001
 12
1.0
 22
0.0
 32
0.0
 13
1.0
 23
0.0
 33
0.0
 40
0.0
 40
0.0
 40
0.0
 40
0.0
 40
1.0
 40
1.0
 40
1.0
 40
2.0
 40
2.0
 40
2.0
 40
3.0
 40
3.0
 40
3.0
 40
4.0
 40
4.0
 40
4.0
 40
4.0
 10
100.7621527525872
 20
-146.2505188523263
 30
0.0
 10
100.7621527525872
 20
-146.0968488523645
 30
0.0
 10
100.8868571483841
 20
-145.9724946857292
 30
0.0
 10
101.0401743666948
 20
-145.9724946857292
 30
0.0
 10
101.1938090849975
 20
-145.9724946857292
 30
0.0
 10
101.3181985262685
 20
-146.0968488523645
 30
0.0
 10
101.3181985262685
 20
-146.2505188523263
 30
0.0
 10
101.3181985262685
 20
-146.4038007967322
 30
0.0
 10
101.1938090849975
 20
-146.5281902411456
 30
0.0
 10
101.0401743666948
 20
-146.5281902411456
 30
0.0
 10
100.8868571483841
 20
-146.5281902411456
 30
0.0
 10
100.7621527525872
 20
-146.4038007967322
 30
0.0
 10
100.7621527525872
 20
-146.2505188523263
 30
0.0
  0
POLYLINE
  5
C8
330
1F
100
AcDbEntity
  8
_U+30EC_U+30A4_U+30E4_U+30FC 1
 62
   179
420
  2234388
370
     9
100
AcDb2dPolyline
 66
     1
 10
0.0
 20
0.0
 30
0.0
  0
VERTEX
  5
C9
330
C8
100
AcDbEntity
  8
_U+30EC_U+30A4_U+30E4_U+30FC 1
 62
   179
420
  2234388
370
     9
100
AcDbVertex
100
AcDb2dVertex
 10
99.38582302001197
 20
-157.3133830162273
 30
0.0
  0
VERTEX
  5
21E
330
C8
100
AcDbEntity
  8
0
100
AcDbVertex
100
AcDb2dVertex
 10
99.38582302001197
 20
-157.3133830162273
 30
0.0
  0
SEQEND
  5
CA
330
C8
100
AcDbEntity
  8
_U+30EC_U+30A4_U+30E4_U+30FC 1
 62
   179
420
  2234388
370
     9
  0
POLYLINE
  5
CB
330
1F
100
AcDbEntity
  8
_U+30EC_U+30A4_U+30E4_U+30FC 1
 62
   179
420
  2234388
370
     9
100
AcDb2dPolyline
 66
     1
 10
0.0
 20
0.0
 30
0.0
  0
VERTEX
  5
CC
330
CB
100
AcDbEntity
  8
_U+30EC_U+30A4_U+30E4_U+30FC 1
 62
   179
420
  2234388
370
     9
100
AcDbVertex
100
AcDb2dVertex
 10
101.5376262984482
 20
-145.7922957968854
 30
0.0
  0
VERTEX
  5
CD
330
CB
100
AcDbEntity
  8
_U+30EC_U+30A4_U+30E4_U+30FC 1
 62
   179
420
  2234388
370
     9
100
AcDbVertex
100
AcDb2dVertex
 10
100.774885484574
 20
-154.2348677392189
 30
0.0
  0
SEQEND
  5
CE
330
CB
100
AcDbEntity
  8
_U+30EC_U+30A4_U+30E4_U+30FC 1
 62
   179
420
  2234388
370
     9
  0
SPLINE
  5
CF
330
1F
100
AcDbEntity
  8
_U+30EC_U+30A4_U+30E4_U+30FC 1
 62
   179
420
  2234388
370
     9
100
AcDbSpline
210
0.0
220
0.0
230
1.0
 70
    11
 71
     3
 72
    17
 73
    13
 74
     0
 42
0.0000000001
 43
0.0000000001
 12
1.0
 22
0.0
 32
0.0
 13
1.0
 23
0.0
 33
0.0
 40
0.0
 40
0.0
 40
0.0
 40
0.0
 40
1.0
 40
1.0
 40
1.0
 40
2.0
 40
2.0
 40
2.0
 40
3.0
 40
3.0
 40
3.0
 40
4.0
 40
4.0
 40
4.0
 40
4.0
 10
98.46701332123054
 20
-146.2505188523263
 30
0.0
 10
98.46701332123054
 20
-146.0968488523645
 30
0.0
 10
98.3426591577364
 20
-145.9724946857292
 30
0.0
 10
98.18902443943374
 20
-145.9724946857292
 30
0.0
 10
98.03570722112296
 20
-145.9724946857292
 30
0.0
 10
97.91100275329991
 20
-146.0968488523645
 30
0.0
 10
97.91100275329991
 20
-146.2505188523263
 30
0.0
 10
97.91100275329991
 20
-146.4038007967322
 30
0.0
 10
98.03570722112296
 20
-146.5281902411456
 30
0.0
 10
98.18902443943374
 20
-146.5281902411456
 30
0.0
 10
98.3426591577364
 20
-146.5281902411456
 30
0.0
 10
98.46701332123054
 20
-146.4038007967322
 30
0.0
 10
98.46701332123054
 20
-146.2505188523263
 30
0.0
  0
POLYLINE
  5
D0
330
1F
100
AcDbEntity
  8
_U+30EC_U+30A4_U+30E4_U+30FC 1
 62
   179
420
  2234388
370
     9
100
AcDb2dPolyline
 66
     1
 10
0.0
 20
0.0
 30
0.0
  0
VERTEX
  5
D1
330
D0
100
AcDbEntity
  8
_U+30EC_U+30A4_U+30E4_U+30FC 1
 62
   179
420
  2234388
370
     9
100
AcDbVertex
100
AcDb2dVertex
 10
97.69153722990347
 20
-145.7922957968854
 30
0.0
  0
VERTEX
  5
D2
330
D0
100
AcDbEntity
  8
_U+30EC_U+30A4_U+30E4_U+30FC 1
 62
   179
420
  2234388
370
     9
100
AcDbVertex
100
AcDb2dVertex
 10
98.45428053094219
 20
-154.2348677392189
 30
0.0
  0
SEQEND
  5
D3
330
D0
100
AcDbEntity
  8
_U+30EC_U+30A4_U+30E4_U+30FC 1
 62
   179
420
  2234388
370
     9
  0
SPLINE
  5
D4
330
1F
100
AcDbEntity
  8
_U+30EC_U+30A4_U+30E4_U+30FC 1
 62
   179
420
  2234388
370
     9
100
AcDbSpline
210
0.0
220
0.0
230
1.0
 70
    11
 71
     3
 72
    29
 73
    25
 74
     0
 42
0.0000000001
 43
0.0000000001
 12
1.0
 22
0.0
 32
0.0
 13
1.0
 23
0.0
 33
0.0
 40
0.0
 40
0.0
 40
0.0
 40
0.0
 40
1.0
 40
1.0
 40
1.0
 40
2.0
 40
2.0
 40
2.0
 40
3.0
 40
3.0
 40
3.0
 40
4.0
 40
4.0
 40
4.0
 40
5.0
 40
5.0
 40
5.0
 40
6.0
 40
6.0
 40
6.0
 40
7.0
 40
7.0
 40
7.0
 40
8.0
 40
8.0
 40
8.0
 40
8.0
 10
100.8124563169489
 20
-156.1096699609728
 30
0.0
 10
100.8124563169489
 20
-156.6167880164016
 30
0.0
 10
100.6119374331756
 20
-157.1246116273852
 30
0.0
 10
100.1565013336837
 20
-157.3154644051157
 30
0.0
 10
100.1565013336837
 20
-157.3154644051157
 30
0.0
 10
100.1888888638417
 20
-156.6002780164057
 30
0.0
 10
99.73757773326018
 20
-156.6002780164057
 30
0.0
 10
99.24700496799797
 20
-156.6002780164057
 30
0.0
 10
99.32828496592434
 20
-157.309255516228
 30
0.0
 10
99.32828496592434
 20
-157.309255516228
 30
0.0
 10
98.79259441974611
 20
-157.1728363495957
 30
0.0
 10
98.45290221047944
 20
-156.6877669052726
 30
0.0
 10
98.45290221047944
 20
-156.1103755165277
 30
0.0
 10
98.45290221047944
 20
-156.1103755165277
 30
0.0
 10
98.50906443126884
 20
-150.6719532956653
 30
0.0
 10
98.50906443126884
 20
-150.6719532956653
 30
0.0
 10
98.50906443126884
 20
-150.0876474624779
 30
0.0
 10
99.01547691834918
 20
-149.6142902403739
 30
0.0
 10
99.64006995797004
 20
-149.6142902403739
 30
0.0
 10
100.2646629975909
 20
-149.6142902403739
 30
0.0
 10
100.7711107624481
 20
-150.0876474624779
 30
0.0
 10
100.7711107624481
 20
-150.6719532956653
 30
0.0
 10
100.7711107624481
 20
-150.6719532956653
 30
0.0
 10
100.8124563169489
 20
-156.1096699609728
 30
0.0
 10
100.8124563169489
 20
-156.1096699609728
 30
0.0
  0
HATCH
  5
D5
330
1F
100
AcDbEntity
  8
_U+30EC_U+30A4_U+30E4_U+30FC 1
 62
     7
420
 16711422
100
AcDbHatch
 10
0.0
 20
0.0
 30
0.0
210
0.0
220
0.0
230
1.0
  2
SOLID
 70
     1
 71
     0
 91
        1
 92
        1
 93
        2
 72
     4
 94
        3
 73
     0
 74
     0
 95
       29
 96
       25
 40
0.0
 40
0.0
 40
0.0
 40
0.0
 40
0.3527777776895833
 40
0.3527777776895833
 40
0.3527777776895833
 40
0.7055555553791667
 40
0.7055555553791667
 40
0.7055555553791667
 40
1.05833333306875
 40
1.05833333306875
 40
1.05833333306875
 40
1.411111110758333
 40
1.411111110758333
 40
1.411111110758333
 40
1.763888888447917
 40
1.763888888447917
 40
1.763888888447917
 40
2.1166666661375
 40
2.1166666661375
 40
2.1166666661375
 40
2.469444443827083
 40
2.469444443827083
 40
2.469444443827083
 40
2.822222221516667
 40
2.822222221516667
 40
2.822222221516667
 40
2.822222221516667
 10
100.8124563169489
 20
-156.1096699609728
 10
100.8124563169489
 20
-156.6167880164016
 10
100.6119374331756
 20
-157.1246116273852
 10
100.1565013336837
 20
-157.3154644051157
 10
100.1565013336837
 20
-157.3154644051157
 10
100.1888888638417
 20
-156.6002780164057
 10
99.73757773326018
 20
-156.6002780164057
 10
99.24700496799797
 20
-156.6002780164057
 10
99.32828496592434
 20
-157.309255516228
 10
99.32828496592434
 20
-157.309255516228
 10
98.79259441974611
 20
-157.1728363495957
 10
98.45290221047944
 20
-156.6877669052726
 10
98.45290221047944
 20
-156.1103755165277
 10
98.45290221047944
 20
-156.1103755165277
 10
98.50906443126884
 20
-150.6719532956653
 10
98.50906443126884
 20
-150.6719532956653
 10
98.50906443126884
 20
-150.0876474624779
 10
99.01547691834918
 20
-149.6142902403739
 10
99.64006995797004
 20
-149.6142902403739
 10
100.2646629975909
 20
-149.6142902403739
 10
100.7711107624481
 20
-150.0876474624779
 10
100.7711107624481
 20
-150.6719532956653
 10
100.7711107624481
 20
-150.6719532956653
 10
100.8124563169489
 20
-156.1096699609728
 10
100.8124563169489
 20
-156.1096699609728
 97
        0
 72
     1
 10
100.8124563169489
 20
-156.1096699609728
 11
100.8124563169489
 21
-156.1096699609728
 97
        0
 75
     2
 76
     1
 98
        0
  0
SPLINE
  5
D6
330
1F
100
AcDbEntity
  8
_U+30EC_U+30A4_U+30E4_U+30FC 1
 62
   179
420
  2234388
370
     9
100
AcDbSpline
210
0.0
220
0.0
230
1.0
 70
     8
 71
     3
 72
    17
 73
    13
 74
     0
 42
0.0000000001
 43
0.0000000001
 12
1.0
 22
0.0
 32
0.0
 13
1.0
 23
0.0
 33
0.0
 40
0.0
 40
0.0
 40
0.0
 40
0.0
 40
1.0
 40
1.0
 40
1.0
 40
2.0
 40
2.0
 40
2.0
 40
3.0
 40
3.0
 40
3.0
 40
4.0
 40
4.0
 40
4.0
 40
4.0
 10
100.1578771669819
 20
-157.3133830162273
 30
0.0
 10
100.1578771669819
 20
-157.3133830162273
 30
0.0
 10
99.78305078765563
 20
-151.1976627399784
 30
0.0
 10
99.78305078765563
 20
-151.1087627400005
 30
0.0
 10
99.78305078765563
 20
-151.0205682955781
 30
0.0
 10
99.73069856676902
 20
-150.9737194067012
 30
0.0
 10
99.63767106914234
 20
-150.9737194067012
 30
0.0
 10
99.54499634928446
 20
-150.9737194067012
 30
0.0
 10
99.51709162777414
 20
-151.0626194066791
 30
0.0
 10
99.51709162777414
 20
-151.1322224622172
 30
0.0
 10
99.51709162777414
 20
-151.1322224622172
 30
0.0
 10
99.3248630215672
 20
-157.3133830162273
 30
0.0
 10
99.3248630215672
 20
-157.3133830162273
 30
0.0
  0
POLYLINE
  5
D7
330
1F
100
AcDbEntity
  8
_U+30EC_U+30A4_U+30E4_U+30FC 1
 62
   179
420
  2234388
370
     9
100
AcDb2dPolyline
 66
     1
 10
0.0
 20
0.0
 30
0.0
  0
VERTEX
  5
D8
330
D7
100
AcDbEntity
  8
_U+30EC_U+30A4_U+30E4_U+30FC 1
 62
   179
420
  2234388
370
     9
100
AcDbVertex
100
AcDb2dVertex
 10
81.88166041102481
 20
-131.1082735783342
 30
0.0
  0
VERTEX
  5
D9
330
D7
100
AcDbEntity
  8
_U+30EC_U+30A4_U+30E4_U+30FC 1
 62
   179
420
  2234388
370
     9
100
AcDbVertex
100
AcDb2dVertex
 10
82.63131316967736
 20
-130.3579505229659
 30
0.0
  0
SEQEND
  5
DA
330
D7
100
AcDbEntity
  8
_U+30EC_U+30A4_U+30E4_U+30FC 1
 62
   179
420
  2234388
370
     9
  0
POLYLINE
  5
DB
330
1F
100
AcDbEntity
  8
_U+30EC_U+30A4_U+30E4_U+30FC 1
 62
   179
420
  2234388
370
     9
100
AcDb2dPolyline
 66
     1
 10
0.0
 20
0.0
 30
0.0
  0
VERTEX
  5
DC
330
DB
100
AcDbEntity
  8
_U+30EC_U+30A4_U+30E4_U+30FC 1
 62
   179
420
  2234388
370
     9
100
AcDbVertex
100
AcDb2dVertex
 10
81.88166041102481
 20
-130.4006366340667
 30
0.0
  0
VERTEX
  5
DD
330
DB
100
AcDbEntity
  8
_U+30EC_U+30A4_U+30E4_U+30FC 1
 62
   179
420
  2234388
370
     9
100
AcDbVertex
100
AcDb2dVertex
 10
82.63131316967736
 20
-129.6509838564763
 30
0.0
  0
SEQEND
  5
DE
330
DB
100
AcDbEntity
  8
_U+30EC_U+30A4_U+30E4_U+30FC 1
 62
   179
420
  2234388
370
     9
  0
POLYLINE
  5
DF
330
1F
100
AcDbEntity
  8
_U+30EC_U+30A4_U+30E4_U+30FC 1
 62
   179
420
  2234388
370
     9
100
AcDb2dPolyline
 66
     1
 10
0.0
 20
0.0
 30
0.0
  0
VERTEX
  5
E0
330
DF
100
AcDbEntity
  8
_U+30EC_U+30A4_U+30E4_U+30FC 1
 62
   179
420
  2234388
370
     9
100
AcDbVertex
100
AcDb2dVertex
 10
81.88166041102481
 20
-129.6937052453546
 30
0.0
  0
VERTEX
  5
E1
330
DF
100
AcDbEntity
  8
_U+30EC_U+30A4_U+30E4_U+30FC 1
 62
   179
420
  2234388
370
     9
100
AcDbVertex
100
AcDb2dVertex
 10
82.63131316967736
 20
-128.9440524677642
 30
0.0
  0
SEQEND
  5
E2
330
DF
100
AcDbEntity
  8
_U+30EC_U+30A4_U+30E4_U+30FC 1
 62
   179
420
  2234388
370
     9
  0
POLYLINE
  5
E3
330
1F
100
AcDbEntity
  8
_U+30EC_U+30A4_U+30E4_U+30FC 1
 62
   179
420
  2234388
370
     9
100
AcDb2dPolyline
 66
     1
 10
0.0
 20
0.0
 30
0.0
  0
VERTEX
  5
E4
330
E3
100
AcDbEntity
  8
_U+30EC_U+30A4_U+30E4_U+30FC 1
 62
   179
420
  2234388
370
     9
100
AcDbVertex
100
AcDb2dVertex
 10
81.93454179856458
 20
-132.4690785779937
 30
0.0
  0
VERTEX
  5
E5
330
E3
100
AcDbEntity
  8
_U+30EC_U+30A4_U+30E4_U+30FC 1
 62
   179
420
  2234388
370
     9
100
AcDbVertex
100
AcDb2dVertex
 10
82.63131316967736
 20
-131.772483578168
 30
0.0
  0
SEQEND
  5
E6
330
E3
100
AcDbEntity
  8
_U+30EC_U+30A4_U+30E4_U+30FC 1
 62
   179
420
  2234388
370
     9
  0
POLYLINE
  5
E7
330
1F
100
AcDbEntity
  8
_U+30EC_U+30A4_U+30E4_U+30FC 1
 62
   179
420
  2234388
370
     9
100
AcDb2dPolyline
 66
     1
 10
0.0
 20
0.0
 30
0.0
  0
VERTEX
  5
E8
330
E7
100
AcDbEntity
  8
_U+30EC_U+30A4_U+30E4_U+30FC 1
 62
   179
420
  2234388
370
     9
100
AcDbVertex
100
AcDb2dVertex
 10
81.88166041102481
 20
-131.8152049670463
 30
0.0
  0
VERTEX
  5
E9
330
E7
100
AcDbEntity
  8
_U+30EC_U+30A4_U+30E4_U+30FC 1
 62
   179
420
  2234388
370
     9
100
AcDbVertex
100
AcDb2dVertex
 10
82.63131316967736
 20
-131.0648819116779
 30
0.0
  0
SEQEND
  5
EA
330
E7
100
AcDbEntity
  8
_U+30EC_U+30A4_U+30E4_U+30FC 1
 62
   179
420
  2234388
370
     9
  0
POLYLINE
  5
EB
330
1F
100
AcDbEntity
  8
_U+30EC_U+30A4_U+30E4_U+30FC 1
 62
   179
420
  2234388
370
     9
100
AcDb2dPolyline
 66
     1
 10
0.0
 20
0.0
 30
0.0
  0
VERTEX
  5
EC
330
EB
100
AcDbEntity
  8
_U+30EC_U+30A4_U+30E4_U+30FC 1
 62
   179
420
  2234388
370
     9
100
AcDbVertex
100
AcDb2dVertex
 10
81.88166041102481
 20
-128.9867738566419
 30
0.0
  0
VERTEX
  5
ED
330
EB
100
AcDbEntity
  8
_U+30EC_U+30A4_U+30E4_U+30FC 1
 62
   179
420
  2234388
370
     9
100
AcDbVertex
100
AcDb2dVertex
 10
82.63131316967736
 20
-128.2364508012742
 30
0.0
  0
SEQEND
  5
EE
330
EB
100
AcDbEntity
  8
_U+30EC_U+30A4_U+30E4_U+30FC 1
 62
   179
420
  2234388
370
     9
  0
POLYLINE
  5
EF
330
1F
100
AcDbEntity
  8
_U+30EC_U+30A4_U+30E4_U+30FC 1
 62
   179
420
  2234388
370
     9
100
AcDb2dPolyline
 66
     1
 10
0.0
 20
0.0
 30
0.0
  0
VERTEX
  5
F0
330
EF
100
AcDbEntity
  8
_U+30EC_U+30A4_U+30E4_U+30FC 1
 62
   179
420
  2234388
370
     9
100
AcDbVertex
100
AcDb2dVertex
 10
81.88166041102481
 20
-128.2798424679302
 30
0.0
  0
VERTEX
  5
F1
330
EF
100
AcDbEntity
  8
_U+30EC_U+30A4_U+30E4_U+30FC 1
 62
   179
420
  2234388
370
     9
100
AcDbVertex
100
AcDb2dVertex
 10
82.63131316967736
 20
-127.5295194125621
 30
0.0
  0
SEQEND
  5
F2
330
EF
100
AcDbEntity
  8
_U+30EC_U+30A4_U+30E4_U+30FC 1
 62
   179
420
  2234388
370
     9
  0
POLYLINE
  5
F3
330
1F
100
AcDbEntity
  8
_U+30EC_U+30A4_U+30E4_U+30FC 1
 62
   179
420
  2234388
370
     9
100
AcDb2dPolyline
 66
     1
 10
0.0
 20
0.0
 30
0.0
  0
VERTEX
  5
F4
330
F3
100
AcDbEntity
  8
_U+30EC_U+30A4_U+30E4_U+30FC 1
 62
   179
420
  2234388
370
     9
100
AcDbVertex
100
AcDb2dVertex
 10
81.88166041102481
 20
-127.5722408014401
 30
0.0
  0
VERTEX
  5
F5
330
F3
100
AcDbEntity
  8
_U+30EC_U+30A4_U+30E4_U+30FC 1
 62
   179
420
  2234388
370
     9
100
AcDbVertex
100
AcDb2dVertex
 10
82.63131316967736
 20
-126.8225880238498
 30
0.0
  0
SEQEND
  5
F6
330
F3
100
AcDbEntity
  8
_U+30EC_U+30A4_U+30E4_U+30FC 1
 62
   179
420
  2234388
370
     9
  0
POLYLINE
  5
F7
330
1F
100
AcDbEntity
  8
_U+30EC_U+30A4_U+30E4_U+30FC 1
 62
   179
420
  2234388
370
     9
100
AcDb2dPolyline
 66
     1
 10
0.0
 20
0.0
 30
0.0
  0
VERTEX
  5
F8
330
F7
100
AcDbEntity
  8
_U+30EC_U+30A4_U+30E4_U+30FC 1
 62
   179
420
  2234388
370
     9
100
AcDbVertex
100
AcDb2dVertex
 10
81.88166041102481
 20
-126.8653094127281
 30
0.0
  0
VERTEX
  5
F9
330
F7
100
AcDbEntity
  8
_U+30EC_U+30A4_U+30E4_U+30FC 1
 62
   179
420
  2234388
370
     9
100
AcDbVertex
100
AcDb2dVertex
 10
82.63131316967736
 20
-126.1156566351377
 30
0.0
  0
SEQEND
  5
FA
330
F7
100
AcDbEntity
  8
_U+30EC_U+30A4_U+30E4_U+30FC 1
 62
   179
420
  2234388
370
     9
  0
POLYLINE
  5
FB
330
1F
100
AcDbEntity
  8
_U+30EC_U+30A4_U+30E4_U+30FC 1
 62
   179
420
  2234388
370
     9
100
AcDb2dPolyline
 66
     1
 10
0.0
 20
0.0
 30
0.0
  0
VERTEX
  5
FC
330
FB
100
AcDbEntity
  8
_U+30EC_U+30A4_U+30E4_U+30FC 1
 62
   179
420
  2234388
370
     9
100
AcDbVertex
100
AcDb2dVertex
 10
81.88166041102481
 20
-126.158378024016
 30
0.0
  0
VERTEX
  5
FD
330
FB
100
AcDbEntity
  8
_U+30EC_U+30A4_U+30E4_U+30FC 1
 62
   179
420
  2234388
370
     9
100
AcDbVertex
100
AcDb2dVertex
 10
82.63131316967736
 20
-125.4080196908701
 30
0.0
  0
SEQEND
  5
FE
330
FB
100
AcDbEntity
  8
_U+30EC_U+30A4_U+30E4_U+30FC 1
 62
   179
420
  2234388
370
     9
  0
POLYLINE
  5
FF
330
1F
100
AcDbEntity
  8
_U+30EC_U+30A4_U+30E4_U+30FC 1
 62
   179
420
  2234388
370
     9
100
AcDb2dPolyline
 66
     1
 10
0.0
 20
0.0
 30
0.0
  0
VERTEX
  5
100
330
FF
100
AcDbEntity
  8
_U+30EC_U+30A4_U+30E4_U+30FC 1
 62
   179
420
  2234388
370
     9
100
AcDbVertex
100
AcDb2dVertex
 10
81.88166041102481
 20
-125.4514466353037
 30
0.0
  0
VERTEX
  5
101
330
FF
100
AcDbEntity
  8
_U+30EC_U+30A4_U+30E4_U+30FC 1
 62
   179
420
  2234388
370
     9
100
AcDbVertex
100
AcDb2dVertex
 10
82.63131316967736
 20
-124.7010883021581
 30
0.0
  0
SEQEND
  5
102
330
FF
100
AcDbEntity
  8
_U+30EC_U+30A4_U+30E4_U+30FC 1
 62
   179
420
  2234388
370
     9
  0
POLYLINE
  5
103
330
1F
100
AcDbEntity
  8
_U+30EC_U+30A4_U+30E4_U+30FC 1
 62
   179
420
  2234388
370
     9
100
AcDb2dPolyline
 66
     1
 10
0.0
 20
0.0
 30
0.0
  0
VERTEX
  5
104
330
103
100
AcDbEntity
  8
_U+30EC_U+30A4_U+30E4_U+30FC 1
 62
   179
420
  2234388
370
     9
100
AcDbVertex
100
AcDb2dVertex
 10
81.88166041102481
 20
-124.7438096910364
 30
0.0
  0
VERTEX
  5
105
330
103
100
AcDbEntity
  8
_U+30EC_U+30A4_U+30E4_U+30FC 1
 62
   179
420
  2234388
370
     9
100
AcDbVertex
100
AcDb2dVertex
 10
82.63131316967736
 20
-123.994156913446
 30
0.0
  0
SEQEND
  5
106
330
103
100
AcDbEntity
  8
_U+30EC_U+30A4_U+30E4_U+30FC 1
 62
   179
420
  2234388
370
     9
  0
POLYLINE
  5
107
330
1F
100
AcDbEntity
  8
_U+30EC_U+30A4_U+30E4_U+30FC 1
 62
   179
420
  2234388
370
     9
100
AcDb2dPolyline
 66
     1
 10
0.0
 20
0.0
 30
0.0
  0
VERTEX
  5
108
330
107
100
AcDbEntity
  8
_U+30EC_U+30A4_U+30E4_U+30FC 1
 62
   179
420
  2234388
370
     9
100
AcDbVertex
100
AcDb2dVertex
 10
81.88166041102481
 20
-124.036878302324
 30
0.0
  0
VERTEX
  5
109
330
107
100
AcDbEntity
  8
_U+30EC_U+30A4_U+30E4_U+30FC 1
 62
   179
420
  2234388
370
     9
100
AcDbVertex
100
AcDb2dVertex
 10
82.63131316967736
 20
-123.2872255247337
 30
0.0
  0
SEQEND
  5
10A
330
107
100
AcDbEntity
  8
_U+30EC_U+30A4_U+30E4_U+30FC 1
 62
   179
420
  2234388
370
     9
  0
POLYLINE
  5
10B
330
1F
100
AcDbEntity
  8
_U+30EC_U+30A4_U+30E4_U+30FC 1
 62
   179
420
  2234388
370
     9
100
AcDb2dPolyline
 66
     1
 10
0.0
 20
0.0
 30
0.0
  0
VERTEX
  5
10C
330
10B
100
AcDbEntity
  8
_U+30EC_U+30A4_U+30E4_U+30FC 1
 62
   179
420
  2234388
370
     9
100
AcDbVertex
100
AcDb2dVertex
 10
81.88166041102481
 20
-123.329946913612
 30
0.0
  0
VERTEX
  5
10D
330
10B
100
AcDbEntity
  8
_U+30EC_U+30A4_U+30E4_U+30FC 1
 62
   179
420
  2234388
370
     9
100
AcDbVertex
100
AcDb2dVertex
 10
82.63131316967736
 20
-122.5795885804661
 30
0.0
  0
SEQEND
  5
10E
330
10B
100
AcDbEntity
  8
_U+30EC_U+30A4_U+30E4_U+30FC 1
 62
   179
420
  2234388
370
     9
  0
POLYLINE
  5
10F
330
1F
100
AcDbEntity
  8
_U+30EC_U+30A4_U+30E4_U+30FC 1
 62
   179
420
  2234388
370
     9
100
AcDb2dPolyline
 66
     1
 10
0.0
 20
0.0
 30
0.0
  0
VERTEX
  5
110
330
10F
100
AcDbEntity
  8
_U+30EC_U+30A4_U+30E4_U+30FC 1
 62
   179
420
  2234388
370
     9
100
AcDbVertex
100
AcDb2dVertex
 10
81.88166041102481
 20
-122.6230155248999
 30
0.0
  0
VERTEX
  5
111
330
10F
100
AcDbEntity
  8
_U+30EC_U+30A4_U+30E4_U+30FC 1
 62
   179
420
  2234388
370
     9
100
AcDbVertex
100
AcDb2dVertex
 10
82.63131316967736
 20
-121.872657191754
 30
0.0
  0
SEQEND
  5
112
330
10F
100
AcDbEntity
  8
_U+30EC_U+30A4_U+30E4_U+30FC 1
 62
   179
420
  2234388
370
     9
  0
POLYLINE
  5
113
330
1F
100
AcDbEntity
  8
_U+30EC_U+30A4_U+30E4_U+30FC 1
 62
   179
420
  2234388
370
     9
100
AcDb2dPolyline
 66
     1
 10
0.0
 20
0.0
 30
0.0
  0
VERTEX
  5
114
330
113
100
AcDbEntity
  8
_U+30EC_U+30A4_U+30E4_U+30FC 1
 62
   179
420
  2234388
370
     9
100
AcDbVertex
100
AcDb2dVertex
 10
81.88166041102481
 20
-121.9153785806324
 30
0.0
  0
VERTEX
  5
115
330
113
100
AcDbEntity
  8
_U+30EC_U+30A4_U+30E4_U+30FC 1
 62
   179
420
  2234388
370
     9
100
AcDbVertex
100
AcDb2dVertex
 10
82.63131316967736
 20
-121.165725803042
 30
0.0
  0
SEQEND
  5
116
330
113
100
AcDbEntity
  8
_U+30EC_U+30A4_U+30E4_U+30FC 1
 62
   179
420
  2234388
370
     9
  0
POLYLINE
  5
117
330
1F
100
AcDbEntity
  8
_U+30EC_U+30A4_U+30E4_U+30FC 1
 62
   179
420
  2234388
370
     9
100
AcDb2dPolyline
 66
     1
 10
0.0
 20
0.0
 30
0.0
  0
VERTEX
  5
118
330
117
100
AcDbEntity
  8
_U+30EC_U+30A4_U+30E4_U+30FC 1
 62
   179
420
  2234388
370
     9
100
AcDbVertex
100
AcDb2dVertex
 10
81.88166041102481
 20
-121.20844719192
 30
0.0
  0
VERTEX
  5
119
330
117
100
AcDbEntity
  8
_U+30EC_U+30A4_U+30E4_U+30FC 1
 62
   179
420
  2234388
370
     9
100
AcDbVertex
100
AcDb2dVertex
 10
82.63131316967736
 20
-120.4587944143296
 30
0.0
  0
SEQEND
  5
11A
330
117
100
AcDbEntity
  8
_U+30EC_U+30A4_U+30E4_U+30FC 1
 62
   179
420
  2234388
370
     9
  0
POLYLINE
  5
11B
330
1F
100
AcDbEntity
  8
_U+30EC_U+30A4_U+30E4_U+30FC 1
 62
   179
420
  2234388
370
     9
100
AcDb2dPolyline
 66
     1
 10
0.0
 20
0.0
 30
0.0
  0
VERTEX
  5
11C
330
11B
100
AcDbEntity
  8
_U+30EC_U+30A4_U+30E4_U+30FC 1
 62
   179
420
  2234388
370
     9
100
AcDbVertex
100
AcDb2dVertex
 10
81.88166041102481
 20
-120.5015158032079
 30
0.0
  0
VERTEX
  5
11D
330
11B
100
AcDbEntity
  8
_U+30EC_U+30A4_U+30E4_U+30FC 1
 62
   179
420
  2234388
370
     9
100
AcDbVertex
100
AcDb2dVertex
 10
82.63131316967736
 20
-119.7511574700624
 30
0.0
  0
SEQEND
  5
11E
330
11B
100
AcDbEntity
  8
_U+30EC_U+30A4_U+30E4_U+30FC 1
 62
   179
420
  2234388
370
     9
  0
POLYLINE
  5
11F
330
1F
100
AcDbEntity
  8
_U+30EC_U+30A4_U+30E4_U+30FC 1
 62
   179
420
  2234388
370
     9
100
AcDb2dPolyline
 66
     1
 10
0.0
 20
0.0
 30
0.0
  0
VERTEX
  5
120
330
11F
100
AcDbEntity
  8
_U+30EC_U+30A4_U+30E4_U+30FC 1
 62
   179
420
  2234388
370
     9
100
AcDbVertex
100
AcDb2dVertex
 10
81.88166041102481
 20
-119.7945844144959
 30
0.0
  0
VERTEX
  5
121
330
11F
100
AcDbEntity
  8
_U+30EC_U+30A4_U+30E4_U+30FC 1
 62
   179
420
  2234388
370
     9
100
AcDbVertex
100
AcDb2dVertex
 10
82.63131316967736
 20
-119.04422608135
 30
0.0
  0
SEQEND
  5
122
330
11F
100
AcDbEntity
  8
_U+30EC_U+30A4_U+30E4_U+30FC 1
 62
   179
420
  2234388
370
     9
  0
POLYLINE
  5
123
330
1F
100
AcDbEntity
  8
_U+30EC_U+30A4_U+30E4_U+30FC 1
 62
   179
420
  2234388
370
     9
100
AcDb2dPolyline
 66
     1
 10
0.0
 20
0.0
 30
0.0
  0
VERTEX
  5
124
330
123
100
AcDbEntity
  8
_U+30EC_U+30A4_U+30E4_U+30FC 1
 62
   179
420
  2234388
370
     9
100
AcDbVertex
100
AcDb2dVertex
 10
81.88166041102481
 20
-119.0869474702283
 30
0.0
  0
VERTEX
  5
125
330
123
100
AcDbEntity
  8
_U+30EC_U+30A4_U+30E4_U+30FC 1
 62
   179
420
  2234388
370
     9
100
AcDbVertex
100
AcDb2dVertex
 10
82.63131316967736
 20
-118.3372946926379
 30
0.0
  0
SEQEND
  5
126
330
123
100
AcDbEntity
  8
_U+30EC_U+30A4_U+30E4_U+30FC 1
 62
   179
420
  2234388
370
     9
  0
POLYLINE
  5
127
330
1F
100
AcDbEntity
  8
_U+30EC_U+30A4_U+30E4_U+30FC 1
 62
   179
420
  2234388
370
     9
100
AcDb2dPolyline
 66
     1
 10
0.0
 20
0.0
 30
0.0
  0
VERTEX
  5
128
330
127
100
AcDbEntity
  8
_U+30EC_U+30A4_U+30E4_U+30FC 1
 62
   179
420
  2234388
370
     9
100
AcDbVertex
100
AcDb2dVertex
 10
81.88166041102481
 20
-118.3800160815163
 30
0.0
  0
VERTEX
  5
129
330
127
100
AcDbEntity
  8
_U+30EC_U+30A4_U+30E4_U+30FC 1
 62
   179
420
  2234388
370
     9
100
AcDbVertex
100
AcDb2dVertex
 10
82.63131316967736
 20
-117.6303633039259
 30
0.0
  0
SEQEND
  5
12A
330
127
100
AcDbEntity
  8
_U+30EC_U+30A4_U+30E4_U+30FC 1
 62
   179
420
  2234388
370
     9
  0
POLYLINE
  5
12B
330
1F
100
AcDbEntity
  8
_U+30EC_U+30A4_U+30E4_U+30FC 1
 62
   179
420
  2234388
370
     9
100
AcDb2dPolyline
 66
     1
 10
0.0
 20
0.0
 30
0.0
  0
VERTEX
  5
12C
330
12B
100
AcDbEntity
  8
_U+30EC_U+30A4_U+30E4_U+30FC 1
 62
   179
420
  2234388
370
     9
100
AcDbVertex
100
AcDb2dVertex
 10
81.88166041102481
 20
-117.6730846928039
 30
0.0
  0
VERTEX
  5
12D
330
12B
100
AcDbEntity
  8
_U+30EC_U+30A4_U+30E4_U+30FC 1
 62
   179
420
  2234388
370
     9
100
AcDbVertex
100
AcDb2dVertex
 10
82.63131316967736
 20
-116.9227616374358
 30
0.0
  0
SEQEND
  5
12E
330
12B
100
AcDbEntity
  8
_U+30EC_U+30A4_U+30E4_U+30FC 1
 62
   179
420
  2234388
370
     9
  0
POLYLINE
  5
12F
330
1F
100
AcDbEntity
  8
_U+30EC_U+30A4_U+30E4_U+30FC 1
 62
   179
420
  2234388
370
     9
100
AcDb2dPolyline
 66
     1
 10
0.0
 20
0.0
 30
0.0
  0
VERTEX
  5
130
330
12F
100
AcDbEntity
  8
_U+30EC_U+30A4_U+30E4_U+30FC 1
 62
   179
420
  2234388
370
     9
100
AcDbVertex
100
AcDb2dVertex
 10
81.88166041102481
 20
-116.9661533040918
 30
0.0
  0
VERTEX
  5
131
330
12F
100
AcDbEntity
  8
_U+30EC_U+30A4_U+30E4_U+30FC 1
 62
   179
420
  2234388
370
     9
100
AcDbVertex
100
AcDb2dVertex
 10
82.63131316967736
 20
-116.2158302487238
 30
0.0
  0
SEQEND
  5
132
330
12F
100
AcDbEntity
  8
_U+30EC_U+30A4_U+30E4_U+30FC 1
 62
   179
420
  2234388
370
     9
  0
POLYLINE
  5
133
330
1F
100
AcDbEntity
  8
_U+30EC_U+30A4_U+30E4_U+30FC 1
 62
   179
420
  2234388
370
     9
100
AcDb2dPolyline
 66
     1
 10
0.0
 20
0.0
 30
0.0
  0
VERTEX
  5
134
330
133
100
AcDbEntity
  8
_U+30EC_U+30A4_U+30E4_U+30FC 1
 62
   179
420
  2234388
370
     9
100
AcDbVertex
100
AcDb2dVertex
 10
81.88166041102481
 20
-116.2585516376021
 30
0.0
  0
VERTEX
  5
135
330
133
100
AcDbEntity
  8
_U+30EC_U+30A4_U+30E4_U+30FC 1
 62
   179
420
  2234388
370
     9
100
AcDbVertex
100
AcDb2dVertex
 10
82.63131316967736
 20
-115.5088988600117
 30
0.0
  0
SEQEND
  5
136
330
133
100
AcDbEntity
  8
_U+30EC_U+30A4_U+30E4_U+30FC 1
 62
   179
420
  2234388
370
     9
  0
POLYLINE
  5
137
330
1F
100
AcDbEntity
  8
_U+30EC_U+30A4_U+30E4_U+30FC 1
 62
   179
420
  2234388
370
     9
100
AcDb2dPolyline
 66
     1
 10
0.0
 20
0.0
 30
0.0
  0
VERTEX
  5
138
330
137
100
AcDbEntity
  8
_U+30EC_U+30A4_U+30E4_U+30FC 1
 62
   179
420
  2234388
370
     9
100
AcDbVertex
100
AcDb2dVertex
 10
81.88166041102481
 20
-115.5516202488897
 30
0.0
  0
VERTEX
  5
139
330
137
100
AcDbEntity
  8
_U+30EC_U+30A4_U+30E4_U+30FC 1
 62
   179
420
  2234388
370
     9
100
AcDbVertex
100
AcDb2dVertex
 10
82.63131316967736
 20
-114.8019674712994
 30
0.0
  0
SEQEND
  5
13A
330
137
100
AcDbEntity
  8
_U+30EC_U+30A4_U+30E4_U+30FC 1
 62
   179
420
  2234388
370
     9
  0
POLYLINE
  5
13B
330
1F
100
AcDbEntity
  8
_U+30EC_U+30A4_U+30E4_U+30FC 1
 62
   179
420
  2234388
370
     9
100
AcDb2dPolyline
 66
     1
 10
0.0
 20
0.0
 30
0.0
  0
VERTEX
  5
13C
330
13B
100
AcDbEntity
  8
_U+30EC_U+30A4_U+30E4_U+30FC 1
 62
   179
420
  2234388
370
     9
100
AcDbVertex
100
AcDb2dVertex
 10
81.88166041102481
 20
-114.8446535823998
 30
0.0
  0
VERTEX
  5
13D
330
13B
100
AcDbEntity
  8
_U+30EC_U+30A4_U+30E4_U+30FC 1
 62
   179
420
  2234388
370
     9
100
AcDbVertex
100
AcDb2dVertex
 10
82.63131316967736
 20
-114.0943305270321
 30
0.0
  0
SEQEND
  5
13E
330
13B
100
AcDbEntity
  8
_U+30EC_U+30A4_U+30E4_U+30FC 1
 62
   179
420
  2234388
370
     9
  0
POLYLINE
  5
13F
330
1F
100
AcDbEntity
  8
_U+30EC_U+30A4_U+30E4_U+30FC 1
 62
   179
420
  2234388
370
     9
100
AcDb2dPolyline
 66
     1
 10
0.0
 20
0.0
 30
0.0
  0
VERTEX
  5
140
330
13F
100
AcDbEntity
  8
_U+30EC_U+30A4_U+30E4_U+30FC 1
 62
   179
420
  2234388
370
     9
100
AcDbVertex
100
AcDb2dVertex
 10
81.88166041102481
 20
-114.1377221936878
 30
0.0
  0
VERTEX
  5
141
330
13F
100
AcDbEntity
  8
_U+30EC_U+30A4_U+30E4_U+30FC 1
 62
   179
420
  2234388
370
     9
100
AcDbVertex
100
AcDb2dVertex
 10
82.63131316967736
 20
-113.3873991383197
 30
0.0
  0
SEQEND
  5
142
330
13F
100
AcDbEntity
  8
_U+30EC_U+30A4_U+30E4_U+30FC 1
 62
   179
420
  2234388
370
     9
  0
POLYLINE
  5
143
330
1F
100
AcDbEntity
  8
_U+30EC_U+30A4_U+30E4_U+30FC 1
 62
   179
420
  2234388
370
     9
100
AcDb2dPolyline
 66
     1
 10
0.0
 20
0.0
 30
0.0
  0
VERTEX
  5
144
330
143
100
AcDbEntity
  8
_U+30EC_U+30A4_U+30E4_U+30FC 1
 62
   179
420
  2234388
370
     9
100
AcDbVertex
100
AcDb2dVertex
 10
81.88166041102481
 20
-113.4301205271981
 30
0.0
  0
VERTEX
  5
145
330
143
100
AcDbEntity
  8
_U+30EC_U+30A4_U+30E4_U+30FC 1
 62
   179
420
  2234388
370
     9
100
AcDbVertex
100
AcDb2dVertex
 10
82.63131316967736
 20
-112.6804677496077
 30
0.0
  0
SEQEND
  5
146
330
143
100
AcDbEntity
  8
_U+30EC_U+30A4_U+30E4_U+30FC 1
 62
   179
420
  2234388
370
     9
  0
POLYLINE
  5
147
330
1F
100
AcDbEntity
  8
_U+30EC_U+30A4_U+30E4_U+30FC 1
 62
   179
420
  2234388
370
     9
100
AcDb2dPolyline
 66
     1
 10
0.0
 20
0.0
 30
0.0
  0
VERTEX
  5
148
330
147
100
AcDbEntity
  8
_U+30EC_U+30A4_U+30E4_U+30FC 1
 62
   179
420
  2234388
370
     9
100
AcDbVertex
100
AcDb2dVertex
 10
81.88166041102481
 20
-112.723189138486
 30
0.0
  0
VERTEX
  5
149
330
147
100
AcDbEntity
  8
_U+30EC_U+30A4_U+30E4_U+30FC 1
 62
   179
420
  2234388
370
     9
100
AcDbVertex
100
AcDb2dVertex
 10
82.63131316967736
 20
-111.9735363608956
 30
0.0
  0
SEQEND
  5
14A
330
147
100
AcDbEntity
  8
_U+30EC_U+30A4_U+30E4_U+30FC 1
 62
   179
420
  2234388
370
     9
  0
POLYLINE
  5
14B
330
1F
100
AcDbEntity
  8
_U+30EC_U+30A4_U+30E4_U+30FC 1
 62
   179
420
  2234388
370
     9
100
AcDb2dPolyline
 66
     1
 10
0.0
 20
0.0
 30
0.0
  0
VERTEX
  5
14C
330
14B
100
AcDbEntity
  8
_U+30EC_U+30A4_U+30E4_U+30FC 1
 62
   179
420
  2234388
370
     9
100
AcDbVertex
100
AcDb2dVertex
 10
81.88166041102481
 20
-112.0162577497736
 30
0.0
  0
VERTEX
  5
14D
330
14B
100
AcDbEntity
  8
_U+30EC_U+30A4_U+30E4_U+30FC 1
 62
   179
420
  2234388
370
     9
100
AcDbVertex
100
AcDb2dVertex
 10
82.63131316967736
 20
-111.2658994166281
 30
0.0
  0
SEQEND
  5
14E
330
14B
100
AcDbEntity
  8
_U+30EC_U+30A4_U+30E4_U+30FC 1
 62
   179
420
  2234388
370
     9
  0
POLYLINE
  5
14F
330
1F
100
AcDbEntity
  8
_U+30EC_U+30A4_U+30E4_U+30FC 1
 62
   179
420
  2234388
370
     9
100
AcDb2dPolyline
 66
     1
 10
0.0
 20
0.0
 30
0.0
  0
VERTEX
  5
150
330
14F
100
AcDbEntity
  8
_U+30EC_U+30A4_U+30E4_U+30FC 1
 62
   179
420
  2234388
370
     9
100
AcDbVertex
100
AcDb2dVertex
 10
81.88166041102481
 20
-111.3093263610616
 30
0.0
  0
VERTEX
  5
151
330
14F
100
AcDbEntity
  8
_U+30EC_U+30A4_U+30E4_U+30FC 1
 62
   179
420
  2234388
370
     9
100
AcDbVertex
100
AcDb2dVertex
 10
82.63131316967736
 20
-110.5589680279157
 30
0.0
  0
SEQEND
  5
152
330
14F
100
AcDbEntity
  8
_U+30EC_U+30A4_U+30E4_U+30FC 1
 62
   179
420
  2234388
370
     9
  0
POLYLINE
  5
153
330
1F
100
AcDbEntity
  8
_U+30EC_U+30A4_U+30E4_U+30FC 1
 62
   179
420
  2234388
370
     9
100
AcDb2dPolyline
 66
     1
 10
0.0
 20
0.0
 30
0.0
  0
VERTEX
  5
154
330
153
100
AcDbEntity
  8
_U+30EC_U+30A4_U+30E4_U+30FC 1
 62
   179
420
  2234388
370
     9
100
AcDbVertex
100
AcDb2dVertex
 10
81.88166041102481
 20
-110.601689416794
 30
0.0
  0
VERTEX
  5
155
330
153
100
AcDbEntity
  8
_U+30EC_U+30A4_U+30E4_U+30FC 1
 62
   179
420
  2234388
370
     9
100
AcDbVertex
100
AcDb2dVertex
 10
82.63131316967736
 20
-109.8520366392036
 30
0.0
  0
SEQEND
  5
156
330
153
100
AcDbEntity
  8
_U+30EC_U+30A4_U+30E4_U+30FC 1
 62
   179
420
  2234388
370
     9
  0
POLYLINE
  5
157
330
1F
100
AcDbEntity
  8
_U+30EC_U+30A4_U+30E4_U+30FC 1
 62
   179
420
  2234388
370
     9
100
AcDb2dPolyline
 66
     1
 10
0.0
 20
0.0
 30
0.0
  0
VERTEX
  5
158
330
157
100
AcDbEntity
  8
_U+30EC_U+30A4_U+30E4_U+30FC 1
 62
   179
420
  2234388
370
     9
100
AcDbVertex
100
AcDb2dVertex
 10
81.88166041102481
 20
-109.894758028082
 30
0.0
  0
VERTEX
  5
159
330
157
100
AcDbEntity
  8
_U+30EC_U+30A4_U+30E4_U+30FC 1
 62
   179
420
  2234388
370
     9
100
AcDbVertex
100
AcDb2dVertex
 10
82.63131316967736
 20
-109.1451052504916
 30
0.0
  0
SEQEND
  5
15A
330
157
100
AcDbEntity
  8
_U+30EC_U+30A4_U+30E4_U+30FC 1
 62
   179
420
  2234388
370
     9
  0
POLYLINE
  5
15B
330
1F
100
AcDbEntity
  8
_U+30EC_U+30A4_U+30E4_U+30FC 1
 62
   179
420
  2234388
370
     9
100
AcDb2dPolyline
 66
     1
 10
0.0
 20
0.0
 30
0.0
  0
VERTEX
  5
15C
330
15B
100
AcDbEntity
  8
_U+30EC_U+30A4_U+30E4_U+30FC 1
 62
   179
420
  2234388
370
     9
100
AcDbVertex
100
AcDb2dVertex
 10
81.88166041102481
 20
-109.1878266393696
 30
0.0
  0
VERTEX
  5
15D
330
15B
100
AcDbEntity
  8
_U+30EC_U+30A4_U+30E4_U+30FC 1
 62
   179
420
  2234388
370
     9
100
AcDbVertex
100
AcDb2dVertex
 10
82.63131316967736
 20
-108.437468306224
 30
0.0
  0
SEQEND
  5
15E
330
15B
100
AcDbEntity
  8
_U+30EC_U+30A4_U+30E4_U+30FC 1
 62
   179
420
  2234388
370
     9
  0
POLYLINE
  5
15F
330
1F
100
AcDbEntity
  8
_U+30EC_U+30A4_U+30E4_U+30FC 1
 62
   179
420
  2234388
370
     9
100
AcDb2dPolyline
 66
     1
 10
0.0
 20
0.0
 30
0.0
  0
VERTEX
  5
160
330
15F
100
AcDbEntity
  8
_U+30EC_U+30A4_U+30E4_U+30FC 1
 62
   179
420
  2234388
370
     9
100
AcDbVertex
100
AcDb2dVertex
 10
81.88166041102481
 20
-108.4808952506575
 30
0.0
  0
VERTEX
  5
161
330
15F
100
AcDbEntity
  8
_U+30EC_U+30A4_U+30E4_U+30FC 1
 62
   179
420
  2234388
370
     9
100
AcDbVertex
100
AcDb2dVertex
 10
82.63131316967736
 20
-107.730536917512
 30
0.0
  0
SEQEND
  5
162
330
15F
100
AcDbEntity
  8
_U+30EC_U+30A4_U+30E4_U+30FC 1
 62
   179
420
  2234388
370
     9
  0
POLYLINE
  5
163
330
1F
100
AcDbEntity
  8
_U+30EC_U+30A4_U+30E4_U+30FC 1
 62
   179
420
  2234388
370
     9
100
AcDb2dPolyline
 66
     1
 10
0.0
 20
0.0
 30
0.0
  0
VERTEX
  5
164
330
163
100
AcDbEntity
  8
_U+30EC_U+30A4_U+30E4_U+30FC 1
 62
   179
420
  2234388
370
     9
100
AcDbVertex
100
AcDb2dVertex
 10
81.88166041102481
 20
-107.7732583063899
 30
0.0
  0
VERTEX
  5
165
330
163
100
AcDbEntity
  8
_U+30EC_U+30A4_U+30E4_U+30FC 1
 62
   179
420
  2234388
370
     9
100
AcDbVertex
100
AcDb2dVertex
 10
82.63131316967736
 20
-107.0236055287996
 30
0.0
  0
SEQEND
  5
166
330
163
100
AcDbEntity
  8
_U+30EC_U+30A4_U+30E4_U+30FC 1
 62
   179
420
  2234388
370
     9
  0
POLYLINE
  5
167
330
1F
100
AcDbEntity
  8
_U+30EC_U+30A4_U+30E4_U+30FC 1
 62
   179
420
  2234388
370
     9
100
AcDb2dPolyline
 66
     1
 10
0.0
 20
0.0
 30
0.0
  0
VERTEX
  5
168
330
167
100
AcDbEntity
  8
_U+30EC_U+30A4_U+30E4_U+30FC 1
 62
   179
420
  2234388
370
     9
100
AcDbVertex
100
AcDb2dVertex
 10
81.88166041102481
 20
-107.0663269176779
 30
0.0
  0
VERTEX
  5
169
330
167
100
AcDbEntity
  8
_U+30EC_U+30A4_U+30E4_U+30FC 1
 62
   179
420
  2234388
370
     9
100
AcDbVertex
100
AcDb2dVertex
 10
82.63131316967736
 20
-106.3166741400875
 30
0.0
  0
SEQEND
  5
16A
330
167
100
AcDbEntity
  8
_U+30EC_U+30A4_U+30E4_U+30FC 1
 62
   179
420
  2234388
370
     9
  0
POLYLINE
  5
16B
330
1F
100
AcDbEntity
  8
_U+30EC_U+30A4_U+30E4_U+30FC 1
 62
   179
420
  2234388
370
     9
100
AcDb2dPolyline
 66
     1
 10
0.0
 20
0.0
 30
0.0
  0
VERTEX
  5
16C
330
16B
100
AcDbEntity
  8
_U+30EC_U+30A4_U+30E4_U+30FC 1
 62
   179
420
  2234388
370
     9
100
AcDbVertex
100
AcDb2dVertex
 10
81.88166041102481
 20
-106.3593955289658
 30
0.0
  0
VERTEX
  5
16D
330
16B
100
AcDbEntity
  8
_U+30EC_U+30A4_U+30E4_U+30FC 1
 62
   179
420
  2234388
370
     9
100
AcDbVertex
100
AcDb2dVertex
 10
82.1696681814549
 20
-106.0707174734822
 30
0.0
  0
SEQEND
  5
16E
330
16B
100
AcDbEntity
  8
_U+30EC_U+30A4_U+30E4_U+30FC 1
 62
   179
420
  2234388
370
     9
  0
POLYLINE
  5
16F
330
1F
100
AcDbEntity
  8
_U+30EC_U+30A4_U+30E4_U+30FC 1
 62
   179
420
  2234388
370
     9
100
AcDb2dPolyline
 66
     1
 10
0.0
 20
0.0
 30
0.0
  0
VERTEX
  5
170
330
16F
100
AcDbEntity
  8
_U+30EC_U+30A4_U+30E4_U+30FC 1
 62
   179
420
  2234388
370
     9
100
AcDbVertex
100
AcDb2dVertex
 10
80.14669934417624
 20
-111.7785208053887
 30
0.0
  0
VERTEX
  5
171
330
16F
100
AcDbEntity
  8
_U+30EC_U+30A4_U+30E4_U+30FC 1
 62
   179
420
  2234388
370
     9
100
AcDbVertex
100
AcDb2dVertex
 10
81.86373930037091
 20
-113.2661141383502
 30
0.0
  0
SEQEND
  5
172
330
16F
100
AcDbEntity
  8
_U+30EC_U+30A4_U+30E4_U+30FC 1
 62
   179
420
  2234388
370
     9
  0
POLYLINE
  5
173
330
1F
100
AcDbEntity
  8
_U+30EC_U+30A4_U+30E4_U+30FC 1
 62
   179
420
  2234388
370
     9
100
AcDb2dPolyline
 66
     1
 10
0.0
 20
0.0
 30
0.0
  0
VERTEX
  5
174
330
173
100
AcDbEntity
  8
_U+30EC_U+30A4_U+30E4_U+30FC 1
 62
   179
420
  2234388
370
     9
100
AcDbVertex
100
AcDb2dVertex
 10
81.88166041102481
 20
-105.8150594179906
 30
0.0
  0
VERTEX
  5
175
330
173
100
AcDbEntity
  8
_U+30EC_U+30A4_U+30E4_U+30FC 1
 62
   179
420
  2234388
370
     9
100
AcDbVertex
100
AcDb2dVertex
 10
81.88166041102481
 20
-132.4856238557677
 30
0.0
  0
SEQEND
  5
176
330
173
100
AcDbEntity
  8
_U+30EC_U+30A4_U+30E4_U+30FC 1
 62
   179
420
  2234388
370
     9
  0
POLYLINE
  5
177
330
1F
100
AcDbEntity
  8
_U+30EC_U+30A4_U+30E4_U+30FC 1
 62
   179
420
  2234388
370
     9
100
AcDb2dPolyline
 66
     1
 10
0.0
 20
0.0
 30
0.0
  0
VERTEX
  5
178
330
177
100
AcDbEntity
  8
_U+30EC_U+30A4_U+30E4_U+30FC 1
 62
   179
420
  2234388
370
     9
100
AcDbVertex
100
AcDb2dVertex
 10
82.63131316967736
 20
-105.8150594179906
 30
0.0
  0
VERTEX
  5
179
330
177
100
AcDbEntity
  8
_U+30EC_U+30A4_U+30E4_U+30FC 1
 62
   179
420
  2234388
370
     9
100
AcDbVertex
100
AcDb2dVertex
 10
82.63131316967736
 20
-132.4856238557677
 30
0.0
  0
SEQEND
  5
17A
330
177
100
AcDbEntity
  8
_U+30EC_U+30A4_U+30E4_U+30FC 1
 62
   179
420
  2234388
370
     9
  0
INSERT
  5
17C
330
1F
100
AcDbEntity
  8
_U+30EC_U+30A4_U+30E4_U+30FC 1
100
AcDbBlockReference
  2
block 4
 10
0.0
 20
0.0
 30
0.0
  0
SPLINE
  5
18F
330
1F
100
AcDbEntity
  8
_U+30EC_U+30A4_U+30E4_U+30FC 1
 62
   253
420
 11711154
370
     9
100
AcDbSpline
210
0.0
220
0.0
230
1.0
 70
    11
 71
     3
 72
    23
 73
    19
 74
     0
 42
0.0000000001
 43
0.0000000001
 12
1.0
 22
0.0
 32
0.0
 13
1.0
 23
0.0
 33
0.0
 40
0.0
 40
0.0
 40
0.0
 40
0.0
 40
1.0
 40
1.0
 40
1.0
 40
2.0
 40
2.0
 40
2.0
 40
3.0
 40
3.0
 40
3.0
 40
4.0
 40
4.0
 40
4.0
 40
5.0
 40
5.0
 40
5.0
 40
6.0
 40
6.0
 40
6.0
 40
6.0
 10
81.6363740283937
 20
-102.472631085493
 30
0.0
 10
81.6363740283937
 20
-102.472631085493
 30
0.0
 10
82.87331871905883
 20
-102.472631085493
 30
0.0
 10
82.87331871905883
 20
-102.472631085493
 30
0.0
 10
82.87331871905883
 20
-102.472631085493
 30
0.0
 10
84.74607478239196
 20
-102.1543196966835
 30
0.0
 10
85.01549116440746
 20
-98.17523330878966
 30
0.0
 10
85.01549116440746
 20
-98.17523330878966
 30
0.0
 10
84.85631783513497
 20
-94.07419164314825
 30
0.0
 10
82.27317317881426
 20
-93.96394858762027
 30
0.0
 10
82.27317317881426
 20
-93.96394858762027
 30
0.0
 10
80.64450405369841
 20
-93.91501830985456
 30
0.0
 10
79.81219546382125
 20
-96.27767692037494
 30
0.0
 10
79.81219546382125
 20
-96.27767692037494
 30
0.0
 10
78.91885831360374
 20
-99.24044580852315
 30
0.0
 10
80.30206267354593
 20
-101.285463308012
 30
0.0
 10
80.30206267354593
 20
-101.285463308012
 30
0.0
 10
80.9259854354061
 20
-102.2521449744371
 30
0.0
 10
81.6363740283937
 20
-102.472631085493
 30
0.0
  0
HATCH
  5
190
330
1F
100
AcDbEntity
  8
_U+30EC_U+30A4_U+30E4_U+30FC 1
 62
   253
420
 11711154
100
AcDbHatch
 10
0.0
 20
0.0
 30
0.0
210
0.0
220
0.0
230
1.0
  2
SOLID
 70
     1
 71
     0
 91
        1
 92
        1
 93
        1
 72
     4
 94
        3
 73
     0
 74
     1
 95
       23
 96
       19
 40
0.0
 40
0.0
 40
0.0
 40
0.0
 40
1.0
 40
1.0
 40
1.0
 40
2.0
 40
2.0
 40
2.0
 40
3.0
 40
3.0
 40
3.0
 40
4.0
 40
4.0
 40
4.0
 40
5.0
 40
5.0
 40
5.0
 40
6.0
 40
6.0
 40
6.0
 40
6.0
 10
81.6363740283937
 20
-102.472631085493
 10
81.6363740283937
 20
-102.472631085493
 10
82.87331871905883
 20
-102.472631085493
 10
82.87331871905883
 20
-102.472631085493
 10
82.87331871905883
 20
-102.472631085493
 10
84.74607478239196
 20
-102.1543196966835
 10
85.01549116440746
 20
-98.17523330878966
 10
85.01549116440746
 20
-98.17523330878966
 10
84.85631783513497
 20
-94.07419164314825
 10
82.27317317881426
 20
-93.96394858762027
 10
82.27317317881426
 20
-93.96394858762027
 10
80.64450405369841
 20
-93.91501830985456
 10
79.81219546382125
 20
-96.27767692037494
 10
79.81219546382125
 20
-96.27767692037494
 10
78.91885831360374
 20
-99.24044580852315
 10
80.30206267354593
 20
-101.285463308012
 10
80.30206267354593
 20
-101.285463308012
 10
80.9259854354061
 20
-102.2521449744371
 10
81.6363740283937
 20
-102.472631085493
 97
        0
 97
        0
 75
     2
 76
     1
 98
        0
  0
SPLINE
  5
191
330
1F
100
AcDbEntity
  8
_U+30EC_U+30A4_U+30E4_U+30FC 1
370
     0
100
AcDbSpline
210
0.0
220
0.0
230
1.0
 70
    11
 71
     3
 72
    29
 73
    25
 74
     0
 42
0.0000000001
 43
0.0000000001
 12
1.0
 22
0.0
 32
0.0
 13
1.0
 23
0.0
 33
0.0
 40
0.0
 40
0.0
 40
0.0
 40
0.0
 40
1.0
 40
1.0
 40
1.0
 40
2.0
 40
2.0
 40
2.0
 40
3.0
 40
3.0
 40
3.0
 40
4.0
 40
4.0
 40
4.0
 40
5.0
 40
5.0
 40
5.0
 40
6.0
 40
6.0
 40
6.0
 40
7.0
 40
7.0
 40
7.0
 40
8.0
 40
8.0
 40
8.0
 40
8.0
 10
81.65909291670297
 20
-95.5266483094517
 30
0.0
 10
81.65909291670297
 20
-95.5266483094517
 30
0.0
 10
83.22884815443297
 20
-95.15386803176708
 30
0.0
 10
83.5499464795744
 20
-96.21290692039135
 30
0.0
 10
83.5499464795744
 20
-96.21290692039135
 30
0.0
 10
83.6526048102887
 20
-96.749658309146
 30
0.0
 10
83.48584675898749
 20
-97.37597997565592
 30
0.0
 10
83.48584675898749
 20
-97.37597997565592
 30
0.0
 10
82.803715665279
 20
-99.4051224751487
 30
0.0
 10
82.49503511759853
 20
-99.6890027528554
 30
0.0
 10
82.49503511759853
 20
-99.6890027528554
 30
0.0
 10
81.92917957647916
 20
-99.70346664174073
 30
0.0
 10
81.92917957647916
 20
-99.70346664174073
 30
0.0
 10
81.92917957647916
 20
-99.70346664174073
 30
0.0
 10
81.49166664629375
 20
-98.86770080861638
 30
0.0
 10
81.49166664629375
 20
-98.86770080861638
 30
0.0
 10
81.49166664629375
 20
-98.86770080861638
 30
0.0
 10
80.96457932331039
 20
-97.28640969790064
 30
0.0
 10
80.96457932331039
 20
-97.28640969790064
 30
0.0
 10
80.96457932331039
 20
-97.28640969790064
 30
0.0
 10
80.7068751632183
 20
-96.46644830921666
 30
0.0
 10
80.96457932331039
 20
-96.12333664263575
 30
0.0
 10
80.96457932331039
 20
-96.12333664263575
 30
0.0
 10
81.19571931741352
 20
-95.61551303165177
 30
0.0
 10
81.65909291670297
 20
-95.5266483094517
 30
0.0
  0
POLYLINE
  5
192
330
1F
100
AcDbEntity
  8
_U+30EC_U+30A4_U+30E4_U+30FC 1
 62
   179
420
  2234388
370
     9
100
AcDb2dPolyline
 66
     1
 10
0.0
 20
0.0
 30
0.0
  0
VERTEX
  5
193
330
192
100
AcDbEntity
  8
_U+30EC_U+30A4_U+30E4_U+30FC 1
 62
   179
420
  2234388
370
     9
100
AcDbVertex
100
AcDb2dVertex
 10
81.94572485383483
 20
-99.72346914173576
 30
0.0
  0
VERTEX
  5
194
330
192
100
AcDbEntity
  8
_U+30EC_U+30A4_U+30E4_U+30FC 1
 62
   179
420
  2234388
370
     9
100
AcDbVertex
100
AcDb2dVertex
 10
82.50745289505952
 20
-99.72346914173576
 30
0.0
  0
SEQEND
  5
195
330
192
100
AcDbEntity
  8
_U+30EC_U+30A4_U+30E4_U+30FC 1
 62
   179
420
  2234388
370
     9
  0
POLYLINE
  5
196
330
1F
100
AcDbEntity
  8
_U+30EC_U+30A4_U+30E4_U+30FC 1
 62
   179
420
  2234388
370
     9
100
AcDb2dPolyline
 66
     1
 10
0.0
 20
0.0
 30
0.0
  0
VERTEX
  5
197
330
196
100
AcDbEntity
  8
_U+30EC_U+30A4_U+30E4_U+30FC 1
 62
   179
420
  2234388
370
     9
100
AcDbVertex
100
AcDb2dVertex
 10
82.14691401536874
 20
-95.42123830947787
 30
0.0
  0
VERTEX
  5
198
330
196
100
AcDbEntity
  8
_U+30EC_U+30A4_U+30E4_U+30FC 1
 62
   179
420
  2234388
370
     9
100
AcDbVertex
100
AcDb2dVertex
 10
82.30626373352561
 20
-95.42123830947787
 30
0.0
  0
SEQEND
  5
199
330
196
100
AcDbEntity
  8
_U+30EC_U+30A4_U+30E4_U+30FC 1
 62
   179
420
  2234388
370
     9
  0
SPLINE
  5
19A
330
1F
100
AcDbEntity
  8
_U+30EC_U+30A4_U+30E4_U+30FC 1
 62
   179
420
  2234388
370
     9
100
AcDbSpline
210
0.0
220
0.0
230
1.0
 70
     8
 71
     3
 72
     8
 73
     4
 74
     0
 42
0.0000000001
 43
0.0000000001
 12
1.0
 22
0.0
 32
0.0
 13
1.0
 23
0.0
 33
0.0
 40
0.0
 40
0.0
 40
0.0
 40
0.0
 40
1.0
 40
1.0
 40
1.0
 40
1.0
 10
82.50745289505952
 20
-99.72346914173576
 30
0.0
 10
83.04420427025474
 20
-98.78638553085905
 30
0.0
 10
83.41211620531296
 20
-97.78181553111017
 30
0.0
 10
83.59541953396983
 20
-96.74553080914703
 30
0.0
  0
SPLINE
  5
19B
330
1F
100
AcDbEntity
  8
_U+30EC_U+30A4_U+30E4_U+30FC 1
 62
   179
420
  2234388
370
     9
100
AcDbSpline
210
0.0
220
0.0
230
1.0
 70
     8
 71
     3
 72
    11
 73
     7
 74
     0
 42
0.0000000001
 43
0.0000000001
 12
1.0
 22
0.0
 32
0.0
 13
1.0
 23
0.0
 33
0.0
 40
0.0
 40
0.0
 40
0.0
 40
0.0
 40
1.0
 40
1.0
 40
1.0
 40
2.0
 40
2.0
 40
2.0
 40
2.0
 10
83.59541953396983
 20
-96.74553080914703
 30
0.0
 10
83.70770869777176
 20
-96.11920914263678
 30
0.0
 10
83.22059315464357
 20
-95.53285719833907
 30
0.0
 10
82.50745289505952
 20
-95.43432636503033
 30
0.0
 10
82.4413070634137
 20
-95.42536580947686
 30
0.0
 10
82.37378539846965
 20
-95.42123830947787
 30
0.0
 10
82.30626373352561
 20
-95.42123830947787
 30
0.0
  0
SPLINE
  5
19C
330
1F
100
AcDbEntity
  8
_U+30EC_U+30A4_U+30E4_U+30FC 1
 62
   179
420
  2234388
370
     9
100
AcDbSpline
210
0.0
220
0.0
230
1.0
 70
     8
 71
     3
 72
     8
 73
     4
 74
     0
 42
0.0000000001
 43
0.0000000001
 12
1.0
 22
0.0
 32
0.0
 13
1.0
 23
0.0
 33
0.0
 40
0.0
 40
0.0
 40
0.0
 40
0.0
 40
1.0
 40
1.0
 40
1.0
 40
1.0
 10
80.85846377046207
 20
-96.74553080914703
 30
0.0
 10
81.04173182134205
 20
-97.78181553111017
 30
0.0
 10
81.40932625640839
 20
-98.78638553085905
 30
0.0
 10
81.94572485383483
 20
-99.72346914173576
 30
0.0
  0
SPLINE
  5
19D
330
1F
100
AcDbEntity
  8
_U+30EC_U+30A4_U+30E4_U+30FC 1
 62
   179
420
  2234388
370
     9
100
AcDbSpline
210
0.0
220
0.0
230
1.0
 70
     8
 71
     3
 72
    11
 73
     7
 74
     0
 42
0.0000000001
 43
0.0000000001
 12
1.0
 22
0.0
 32
0.0
 13
1.0
 23
0.0
 33
0.0
 40
0.0
 40
0.0
 40
0.0
 40
0.0
 40
1.0
 40
1.0
 40
1.0
 40
2.0
 40
2.0
 40
2.0
 40
2.0
 10
82.14691401536874
 20
-95.42123830947787
 30
0.0
 10
81.42654181152474
 20
-95.42123830947787
 30
0.0
 10
80.84191849310639
 20
-95.93452997601652
 30
0.0
 10
80.84191849310639
 20
-96.5684363647467
 30
0.0
 10
80.84191849310639
 20
-96.62699747584324
 30
0.0
 10
80.84710432630742
 20
-96.68693442027265
 30
0.0
 10
80.85846377046207
 20
-96.74553080914703
 30
0.0
  0
POLYLINE
  5
19E
330
1F
100
AcDbEntity
  8
_U+30EC_U+30A4_U+30E4_U+30FC 1
 62
   179
420
  2234388
370
     9
100
AcDb2dPolyline
 66
     1
 10
0.0
 20
0.0
 30
0.0
  0
VERTEX
  5
19F
330
19E
100
AcDbEntity
  8
_U+30EC_U+30A4_U+30E4_U+30FC 1
 62
   179
420
  2234388
370
     9
100
AcDbVertex
100
AcDb2dVertex
 10
81.64290041711608
 20
-105.4919149736269
 30
0.0
  0
VERTEX
  5
1A0
330
19E
100
AcDbEntity
  8
_U+30EC_U+30A4_U+30E4_U+30FC 1
 62
   179
420
  2234388
370
     9
100
AcDbVertex
100
AcDb2dVertex
 10
82.89261566301097
 20
-105.4919149736269
 30
0.0
  0
SEQEND
  5
1A1
330
19E
100
AcDbEntity
  8
_U+30EC_U+30A4_U+30E4_U+30FC 1
 62
   179
420
  2234388
370
     9
  0
POLYLINE
  5
1A2
330
1F
100
AcDbEntity
  8
_U+30EC_U+30A4_U+30E4_U+30FC 1
 62
   179
420
  2234388
370
     9
100
AcDb2dPolyline
 66
     1
 10
0.0
 20
0.0
 30
0.0
  0
VERTEX
  5
1A3
330
1A2
100
AcDbEntity
  8
_U+30EC_U+30A4_U+30E4_U+30FC 1
 62
   179
420
  2234388
370
     9
100
AcDbVertex
100
AcDb2dVertex
 10
81.64290041711608
 20
-105.2555891403527
 30
0.0
  0
VERTEX
  5
1A4
330
1A2
100
AcDbEntity
  8
_U+30EC_U+30A4_U+30E4_U+30FC 1
 62
   179
420
  2234388
370
     9
100
AcDbVertex
100
AcDb2dVertex
 10
82.89261566301097
 20
-105.2555891403527
 30
0.0
  0
SEQEND
  5
1A5
330
1A2
100
AcDbEntity
  8
_U+30EC_U+30A4_U+30E4_U+30FC 1
 62
   179
420
  2234388
370
     9
  0
POLYLINE
  5
1A6
330
1F
100
AcDbEntity
  8
_U+30EC_U+30A4_U+30E4_U+30FC 1
 62
   179
420
  2234388
370
     9
100
AcDb2dPolyline
 66
     1
 10
0.0
 20
0.0
 30
0.0
  0
VERTEX
  5
1A7
330
1A6
100
AcDbEntity
  8
_U+30EC_U+30A4_U+30E4_U+30FC 1
 62
   179
420
  2234388
370
     9
100
AcDbVertex
100
AcDb2dVertex
 10
82.89261566301097
 20
-102.4919280299326
 30
0.0
  0
VERTEX
  5
1A8
330
1A6
100
AcDbEntity
  8
_U+30EC_U+30A4_U+30E4_U+30FC 1
 62
   179
420
  2234388
370
     9
100
AcDbVertex
100
AcDb2dVertex
 10
82.89261566301097
 20
-105.4919149736269
 30
0.0
  0
SEQEND
  5
1A9
330
1A6
100
AcDbEntity
  8
_U+30EC_U+30A4_U+30E4_U+30FC 1
 62
   179
420
  2234388
370
     9
  0
POLYLINE
  5
1AA
330
1F
100
AcDbEntity
  8
_U+30EC_U+30A4_U+30E4_U+30FC 1
 62
   179
420
  2234388
370
     9
100
AcDb2dPolyline
 66
     1
 10
0.0
 20
0.0
 30
0.0
  0
VERTEX
  5
1AB
330
1AA
100
AcDbEntity
  8
_U+30EC_U+30A4_U+30E4_U+30FC 1
 62
   179
420
  2234388
370
     9
100
AcDbVertex
100
AcDb2dVertex
 10
81.64290041711608
 20
-102.4919280299326
 30
0.0
  0
VERTEX
  5
1AC
330
1AA
100
AcDbEntity
  8
_U+30EC_U+30A4_U+30E4_U+30FC 1
 62
   179
420
  2234388
370
     9
100
AcDbVertex
100
AcDb2dVertex
 10
81.64290041711608
 20
-105.4919149736269
 30
0.0
  0
SEQEND
  5
1AD
330
1AA
100
AcDbEntity
  8
_U+30EC_U+30A4_U+30E4_U+30FC 1
 62
   179
420
  2234388
370
     9
  0
POLYLINE
  5
1AE
330
1F
100
AcDbEntity
  8
_U+30EC_U+30A4_U+30E4_U+30FC 1
 62
   179
420
  2234388
370
     9
100
AcDb2dPolyline
 66
     1
 10
0.0
 20
0.0
 30
0.0
  0
VERTEX
  5
1AF
330
1AE
100
AcDbEntity
  8
_U+30EC_U+30A4_U+30E4_U+30FC 1
 62
   179
420
  2234388
370
     9
100
AcDbVertex
100
AcDb2dVertex
 10
82.44476428554772
 20
-105.9398016401818
 30
0.0
  0
VERTEX
  5
1B0
330
1AE
100
AcDbEntity
  8
_U+30EC_U+30A4_U+30E4_U+30FC 1
 62
   179
420
  2234388
370
     9
100
AcDbVertex
100
AcDb2dVertex
 10
82.89261566301097
 20
-105.4919149736269
 30
0.0
  0
SEQEND
  5
1B1
330
1AE
100
AcDbEntity
  8
_U+30EC_U+30A4_U+30E4_U+30FC 1
 62
   179
420
  2234388
370
     9
  0
POLYLINE
  5
1B2
330
1F
100
AcDbEntity
  8
_U+30EC_U+30A4_U+30E4_U+30FC 1
 62
   179
420
  2234388
370
     9
100
AcDb2dPolyline
 66
     1
 10
0.0
 20
0.0
 30
0.0
  0
VERTEX
  5
1B3
330
1B2
100
AcDbEntity
  8
_U+30EC_U+30A4_U+30E4_U+30FC 1
 62
   179
420
  2234388
370
     9
100
AcDbVertex
100
AcDb2dVertex
 10
81.64290041711608
 20
-105.4919149736269
 30
0.0
  0
VERTEX
  5
1B4
330
1B2
100
AcDbEntity
  8
_U+30EC_U+30A4_U+30E4_U+30FC 1
 62
   179
420
  2234388
370
     9
100
AcDbVertex
100
AcDb2dVertex
 10
82.09075179457933
 20
-105.9398016401818
 30
0.0
  0
SEQEND
  5
1B5
330
1B2
100
AcDbEntity
  8
_U+30EC_U+30A4_U+30E4_U+30FC 1
 62
   179
420
  2234388
370
     9
  0
POLYLINE
  5
1B6
330
1F
100
AcDbEntity
  8
_U+30EC_U+30A4_U+30E4_U+30FC 1
 62
   179
420
  2234388
370
     9
100
AcDb2dPolyline
 66
     1
 10
0.0
 20
0.0
 30
0.0
  0
VERTEX
  5
1B7
330
1B6
100
AcDbEntity
  8
_U+30EC_U+30A4_U+30E4_U+30FC 1
 62
   179
420
  2234388
370
     9
100
AcDbVertex
100
AcDb2dVertex
 10
81.64290041711608
 20
-102.4919280299326
 30
0.0
  0
VERTEX
  5
1B8
330
1B6
100
AcDbEntity
  8
_U+30EC_U+30A4_U+30E4_U+30FC 1
 62
   179
420
  2234388
370
     9
100
AcDbVertex
100
AcDb2dVertex
 10
82.89261566301097
 20
-102.4919280299326
 30
0.0
  0
SEQEND
  5
1B9
330
1B6
100
AcDbEntity
  8
_U+30EC_U+30A4_U+30E4_U+30FC 1
 62
   179
420
  2234388
370
     9
  0
SPLINE
  5
1BA
330
1F
100
AcDbEntity
  8
_U+30EC_U+30A4_U+30E4_U+30FC 1
 62
   179
420
  2234388
370
     9
100
AcDbSpline
210
0.0
220
0.0
230
1.0
 70
     8
 71
     3
 72
     8
 73
     4
 74
     0
 42
0.0000000001
 43
0.0000000001
 12
1.0
 22
0.0
 32
0.0
 13
1.0
 23
0.0
 33
0.0
 40
0.0
 40
0.0
 40
0.0
 40
0.0
 40
1.0
 40
1.0
 40
1.0
 40
1.0
 10
82.09075179457933
 20
-105.9398016401818
 30
0.0
 10
82.18843595875387
 20
-106.037626917935
 30
0.0
 10
82.3469037324888
 20
-106.037626917935
 30
0.0
 10
82.44476428554772
 20
-105.9398016401818
 30
0.0
  0
SPLINE
  5
1BB
330
1F
100
AcDbEntity
  8
_U+30EC_U+30A4_U+30E4_U+30FC 1
 62
   179
420
  2234388
370
     9
100
AcDbSpline
210
0.0
220
0.0
230
1.0
 70
     8
 71
     3
 72
    17
 73
    13
 74
     0
 42
0.0000000001
 43
0.0000000001
 12
1.0
 22
0.0
 32
0.0
 13
1.0
 23
0.0
 33
0.0
 40
0.0
 40
0.0
 40
0.0
 40
0.0
 40
1.0
 40
1.0
 40
1.0
 40
2.0
 40
2.0
 40
2.0
 40
3.0
 40
3.0
 40
3.0
 40
4.0
 40
4.0
 40
4.0
 40
4.0
 10
81.62293319540326
 20
-102.4636705299396
 30
0.0
 10
80.4171387817212
 20
-102.0068585856094
 30
0.0
 10
79.52140275789742
 20
-100.2981088638142
 30
0.0
 10
79.52140275789742
 20
-98.25997053099044
 30
0.0
 10
79.52140275789742
 20
-95.8725116426987
 30
0.0
 10
80.7509723843155
 20
-93.93706692096016
 30
0.0
 10
82.26837540115889
 20
-93.93706692096016
 30
0.0
 10
83.78489647358032
 20
-93.93706692096016
 30
0.0
 10
85.01411533110922
 20
-95.8725116426987
 30
0.0
 10
85.01411533110922
 20
-98.25997053099044
 30
0.0
 10
85.01411533110922
 20
-100.3104913638112
 30
0.0
 10
84.10804090978067
 20
-102.0268610856044
 30
0.0
 10
82.89123982971273
 20
-102.4719608077154
 30
0.0
  0
SPLINE
  5
1BC
330
1F
100
AcDbEntity
  8
_U+30EC_U+30A4_U+30E4_U+30FC 1
 62
   179
420
  2234388
370
     9
100
AcDbSpline
210
0.0
220
0.0
230
1.0
 70
    11
 71
     3
 72
    17
 73
    13
 74
     0
 42
0.0000000001
 43
0.0000000001
 12
1.0
 22
0.0
 32
0.0
 13
1.0
 23
0.0
 33
0.0
 40
0.0
 40
0.0
 40
0.0
 40
0.0
 40
1.0
 40
1.0
 40
1.0
 40
2.0
 40
2.0
 40
2.0
 40
3.0
 40
3.0
 40
3.0
 40
4.0
 40
4.0
 40
4.0
 40
4.0
 10
100.862056871239
 20
-160.8928427375542
 30
0.0
 10
100.862056871239
 20
-160.8652907931171
 30
0.0
 10
100.8400082606904
 20
-160.8432421820115
 30
0.0
 10
100.8124563169489
 20
-160.8432421820115
 30
0.0
 10
100.7849043732073
 20
-160.8432421820115
 30
0.0
 10
100.7621527525872
 20
-160.8652907931171
 30
0.0
 10
100.7621527525872
 20
-160.8928427375542
 30
0.0
 10
100.7621527525872
 20
-160.920394681992
 30
0.0
 10
100.7849043732073
 20
-160.9431488486532
 30
0.0
 10
100.8124563169489
 20
-160.9431488486532
 30
0.0
 10
100.8400082606904
 20
-160.9431488486532
 30
0.0
 10
100.862056871239
 20
-160.920394681992
 30
0.0
 10
100.862056871239
 20
-160.8928427375542
 30
0.0
  0
SPLINE
  5
1BD
330
1F
100
AcDbEntity
  8
_U+30EC_U+30A4_U+30E4_U+30FC 1
 62
   179
420
  2234388
370
     9
100
AcDbSpline
210
0.0
220
0.0
230
1.0
 70
    11
 71
     3
 72
    17
 73
    13
 74
     0
 42
0.0000000001
 43
0.0000000001
 12
1.0
 22
0.0
 32
0.0
 13
1.0
 23
0.0
 33
0.0
 40
0.0
 40
0.0
 40
0.0
 40
0.0
 40
1.0
 40
1.0
 40
1.0
 40
2.0
 40
2.0
 40
2.0
 40
3.0
 40
3.0
 40
3.0
 40
4.0
 40
4.0
 40
4.0
 40
4.0
 10
98.50320832030712
 20
-160.8928427375542
 30
0.0
 10
98.50320832030712
 20
-160.8652907931171
 30
0.0
 10
98.48080693198975
 20
-160.8432421820115
 30
0.0
 10
98.45290221047944
 20
-160.8432421820115
 30
0.0
 10
98.42535275317151
 20
-160.8432421820115
 30
0.0
 10
98.40330165618929
 20
-160.8652907931171
 30
0.0
 10
98.40330165618929
 20
-160.8928427375542
 30
0.0
 10
98.40330165618929
 20
-160.920394681992
 30
0.0
 10
98.42535275317151
 20
-160.9431488486532
 30
0.0
 10
98.45290221047944
 20
-160.9431488486532
 30
0.0
 10
98.48080693198975
 20
-160.9431488486532
 30
0.0
 10
98.50320832030712
 20
-160.920394681992
 30
0.0
 10
98.50320832030712
 20
-160.8928427375542
 30
0.0
  0
POLYLINE
  5
1BE
330
1F
100
AcDbEntity
  8
_U+30EC_U+30A4_U+30E4_U+30FC 1
 62
   179
420
  2234388
370
     9
100
AcDb2dPolyline
 66
     1
 10
0.0
 20
0.0
 30
0.0
  0
VERTEX
  5
1BF
330
1BE
100
AcDbEntity
  8
_U+30EC_U+30A4_U+30E4_U+30FC 1
 62
   179
420
  2234388
370
     9
100
AcDbVertex
100
AcDb2dVertex
 10
98.45290221047944
 20
-160.8928427375542
 30
0.0
  0
VERTEX
  5
1C0
330
1BE
100
AcDbEntity
  8
_U+30EC_U+30A4_U+30E4_U+30FC 1
 62
   179
420
  2234388
370
     9
100
AcDbVertex
100
AcDb2dVertex
 10
100.8117507614113
 20
-160.8928427375542
 30
0.0
  0
SEQEND
  5
1C1
330
1BE
100
AcDbEntity
  8
_U+30EC_U+30A4_U+30E4_U+30FC 1
 62
   179
420
  2234388
370
     9
  0
POLYLINE
  5
1C2
330
1F
100
AcDbEntity
  8
_U+30EC_U+30A4_U+30E4_U+30FC 1
 62
   179
420
  2234388
370
     9
100
AcDb2dPolyline
 66
     1
 10
0.0
 20
0.0
 30
0.0
  0
VERTEX
  5
1C3
330
1C2
100
AcDbEntity
  8
_U+30EC_U+30A4_U+30E4_U+30FC 1
 62
   179
420
  2234388
370
     9
100
AcDbVertex
100
AcDb2dVertex
 10
98.45290221047944
 20
-159.6443621823112
 30
0.0
  0
VERTEX
  5
1C4
330
1C2
100
AcDbEntity
  8
_U+30EC_U+30A4_U+30E4_U+30FC 1
 62
   179
420
  2234388
370
     9
100
AcDbVertex
100
AcDb2dVertex
 10
98.45290221047944
 20
-161.3930816263186
 30
0.0
  0
SEQEND
  5
1C5
330
1C2
100
AcDbEntity
  8
_U+30EC_U+30A4_U+30E4_U+30FC 1
 62
   179
420
  2234388
370
     9
  0
POLYLINE
  5
1C6
330
1F
100
AcDbEntity
  8
_U+30EC_U+30A4_U+30E4_U+30FC 1
 62
   179
420
  2234388
370
     9
100
AcDb2dPolyline
 66
     1
 10
0.0
 20
0.0
 30
0.0
  0
VERTEX
  5
1C7
330
1C6
100
AcDbEntity
  8
_U+30EC_U+30A4_U+30E4_U+30FC 1
 62
   179
420
  2234388
370
     9
100
AcDbVertex
100
AcDb2dVertex
 10
100.8124563169489
 20
-159.6443621823112
 30
0.0
  0
VERTEX
  5
1C8
330
1C6
100
AcDbEntity
  8
_U+30EC_U+30A4_U+30E4_U+30FC 1
 62
   179
420
  2234388
370
     9
100
AcDbVertex
100
AcDb2dVertex
 10
100.8124563169489
 20
-161.3930816263186
 30
0.0
  0
SEQEND
  5
1C9
330
1C6
100
AcDbEntity
  8
_U+30EC_U+30A4_U+30E4_U+30FC 1
 62
   179
420
  2234388
370
     9
  0
SPLINE
  5
1CA
330
1F
100
AcDbEntity
  8
_U+30EC_U+30A4_U+30E4_U+30FC 1
 62
   179
420
  2234388
370
     9
100
AcDbSpline
210
0.0
220
0.0
230
1.0
 70
    11
 71
     3
 72
    17
 73
    13
 74
     0
 42
0.0000000001
 43
0.0000000001
 12
1.0
 22
0.0
 32
0.0
 13
1.0
 23
0.0
 33
0.0
 40
0.0
 40
0.0
 40
0.0
 40
0.0
 40
1.0
 40
1.0
 40
1.0
 40
2.0
 40
2.0
 40
2.0
 40
3.0
 40
3.0
 40
3.0
 40
4.0
 40
4.0
 40
4.0
 40
4.0
 10
100.8296718720652
 20
-160.8928427375542
 30
0.0
 10
100.8296718720652
 20
-160.9025088486632
 30
0.0
 10
100.8220871500365
 20
-160.9107638486612
 30
0.0
 10
100.8124563169489
 20
-160.9107638486612
 30
0.0
 10
100.8027902060844
 20
-160.9107638486612
 30
0.0
 10
100.794535206295
 20
-160.9025088486632
 30
0.0
 10
100.794535206295
 20
-160.8928427375542
 30
0.0
 10
100.794535206295
 20
-160.8832119042234
 30
0.0
 10
100.8027902060844
 20
-160.8756271820035
 30
0.0
 10
100.8124563169489
 20
-160.8756271820035
 30
0.0
 10
100.8220871500365
 20
-160.8756271820035
 30
0.0
 10
100.8296718720652
 20
-160.8832119042234
 30
0.0
 10
100.8296718720652
 20
-160.8928427375542
 30
0.0
  0
SPLINE
  5
1CB
330
1F
100
AcDbEntity
  8
_U+30EC_U+30A4_U+30E4_U+30FC 1
 62
   179
420
  2234388
370
     9
100
AcDbSpline
210
0.0
220
0.0
230
1.0
 70
    11
 71
     3
 72
    17
 73
    13
 74
     0
 42
0.0000000001
 43
0.0000000001
 12
1.0
 22
0.0
 32
0.0
 13
1.0
 23
0.0
 33
0.0
 40
0.0
 40
0.0
 40
0.0
 40
0.0
 40
1.0
 40
1.0
 40
1.0
 40
2.0
 40
2.0
 40
2.0
 40
3.0
 40
3.0
 40
3.0
 40
4.0
 40
4.0
 40
4.0
 40
4.0
 10
88.63421496097502
 20
-160.8756271820035
 30
0.0
 10
88.63421496097502
 20
-160.8480752375657
 30
0.0
 10
88.6121663504264
 20
-160.8260266264601
 30
0.0
 10
88.58461664452044
 20
-160.8260266264601
 30
0.0
 10
88.55702718516646
 20
-160.8260266264601
 30
0.0
 10
88.53430829685718
 20
-160.8480752375657
 30
0.0
 10
88.53430829685718
 20
-160.8756271820035
 30
0.0
 10
88.53430829685718
 20
-160.9031791264406
 30
0.0
 10
88.55702718516646
 20
-160.9259332931017
 30
0.0
 10
88.58461664452044
 20
-160.9259332931017
 30
0.0
 10
88.6121663504264
 20
-160.9259332931017
 30
0.0
 10
88.63421496097502
 20
-160.9031791264406
 30
0.0
 10
88.63421496097502
 20
-160.8756271820035
 30
0.0
  0
SPLINE
  5
1CC
330
1F
100
AcDbEntity
  8
_U+30EC_U+30A4_U+30E4_U+30FC 1
 62
   179
420
  2234388
370
     9
100
AcDbSpline
210
0.0
220
0.0
230
1.0
 70
    11
 71
     3
 72
    17
 73
    13
 74
     0
 42
0.0000000001
 43
0.0000000001
 12
1.0
 22
0.0
 32
0.0
 13
1.0
 23
0.0
 33
0.0
 40
0.0
 40
0.0
 40
0.0
 40
0.0
 40
1.0
 40
1.0
 40
1.0
 40
2.0
 40
2.0
 40
2.0
 40
3.0
 40
3.0
 40
3.0
 40
4.0
 40
4.0
 40
4.0
 40
4.0
 10
80.3647865608346
 20
-160.8756271820035
 30
0.0
 10
80.3647865608346
 20
-160.8480752375657
 30
0.0
 10
80.34238517251721
 20
-160.8260266264601
 30
0.0
 10
80.3144804510069
 20
-160.8260266264601
 30
0.0
 10
80.28693053548383
 20
-160.8260266264601
 30
0.0
 10
80.26487989671676
 20
-160.8480752375657
 30
0.0
 10
80.26487989671676
 20
-160.8756271820035
 30
0.0
 10
80.26487989671676
 20
-160.9031791264406
 30
0.0
 10
80.28693053548383
 20
-160.9259332931017
 30
0.0
 10
80.3144804510069
 20
-160.9259332931017
 30
0.0
 10
80.34238517251721
 20
-160.9259332931017
 30
0.0
 10
80.3647865608346
 20
-160.9031791264406
 30
0.0
 10
80.3647865608346
 20
-160.8756271820035
 30
0.0
  0
POLYLINE
  5
1CD
330
1F
100
AcDbEntity
  8
_U+30EC_U+30A4_U+30E4_U+30FC 1
 62
   179
420
  2234388
370
     9
100
AcDb2dPolyline
 66
     1
 10
0.0
 20
0.0
 30
0.0
  0
VERTEX
  5
1CE
330
1CD
100
AcDbEntity
  8
_U+30EC_U+30A4_U+30E4_U+30FC 1
 62
   179
420
  2234388
370
     9
100
AcDbVertex
100
AcDb2dVertex
 10
80.3144804510069
 20
-160.8756271820035
 30
0.0
  0
VERTEX
  5
1CF
330
1CD
100
AcDbEntity
  8
_U+30EC_U+30A4_U+30E4_U+30FC 1
 62
   179
420
  2234388
370
     9
100
AcDbVertex
100
AcDb2dVertex
 10
88.58426386674267
 20
-160.8756271820035
 30
0.0
  0
SEQEND
  5
1D0
330
1CD
100
AcDbEntity
  8
_U+30EC_U+30A4_U+30E4_U+30FC 1
 62
   179
420
  2234388
370
     9
  0
POLYLINE
  5
1D1
330
1F
100
AcDbEntity
  8
_U+30EC_U+30A4_U+30E4_U+30FC 1
 62
   179
420
  2234388
370
     9
100
AcDb2dPolyline
 66
     1
 10
0.0
 20
0.0
 30
0.0
  0
VERTEX
  5
1D2
330
1D1
100
AcDbEntity
  8
_U+30EC_U+30A4_U+30E4_U+30FC 1
 62
   179
420
  2234388
370
     9
100
AcDbVertex
100
AcDb2dVertex
 10
80.3144804510069
 20
-159.6264410712043
 30
0.0
  0
VERTEX
  5
1D3
330
1D1
100
AcDbEntity
  8
_U+30EC_U+30A4_U+30E4_U+30FC 1
 62
   179
420
  2234388
370
     9
100
AcDbVertex
100
AcDb2dVertex
 10
80.3144804510069
 20
-161.3758660707672
 30
0.0
  0
SEQEND
  5
1D4
330
1D1
100
AcDbEntity
  8
_U+30EC_U+30A4_U+30E4_U+30FC 1
 62
   179
420
  2234388
370
     9
  0
POLYLINE
  5
1D5
330
1F
100
AcDbEntity
  8
_U+30EC_U+30A4_U+30E4_U+30FC 1
 62
   179
420
  2234388
370
     9
100
AcDb2dPolyline
 66
     1
 10
0.0
 20
0.0
 30
0.0
  0
VERTEX
  5
1D6
330
1D5
100
AcDbEntity
  8
_U+30EC_U+30A4_U+30E4_U+30FC 1
 62
   179
420
  2234388
370
     9
100
AcDbVertex
100
AcDb2dVertex
 10
88.58461664452044
 20
-159.6264410712043
 30
0.0
  0
VERTEX
  5
1D7
330
1D5
100
AcDbEntity
  8
_U+30EC_U+30A4_U+30E4_U+30FC 1
 62
   179
420
  2234388
370
     9
100
AcDbVertex
100
AcDb2dVertex
 10
88.58461664452044
 20
-161.3758660707672
 30
0.0
  0
SEQEND
  5
1D8
330
1D5
100
AcDbEntity
  8
_U+30EC_U+30A4_U+30E4_U+30FC 1
 62
   179
420
  2234388
370
     9
  0
INSERT
  5
1DA
330
1F
100
AcDbEntity
  8
_U+30EC_U+30A4_U+30E4_U+30FC 1
100
AcDbBlockReference
  2
block 5
 10
0.0
 20
0.0
 30
0.0
  0
SPLINE
  5
1ED
330
1F
100
AcDbEntity
  8
_U+30EC_U+30A4_U+30E4_U+30FC 1
 62
   179
420
  2234388
370
     9
100
AcDbSpline
210
0.0
220
0.0
230
1.0
 70
    11
 71
     3
 72
    17
 73
    13
 74
     0
 42
0.0000000001
 43
0.0000000001
 12
1.0
 22
0.0
 32
0.0
 13
1.0
 23
0.0
 33
0.0
 40
0.0
 40
0.0
 40
0.0
 40
0.0
 40
1.0
 40
1.0
 40
1.0
 40
2.0
 40
2.0
 40
2.0
 40
3.0
 40
3.0
 40
3.0
 40
4.0
 40
4.0
 40
4.0
 40
4.0
 10
88.60182996180123
 20
-160.8756271820035
 30
0.0
 10
88.60182996180123
 20
-160.8852580153343
 30
0.0
 10
88.5942452397725
 20
-160.8935482931098
 30
0.0
 10
88.58461664452044
 20
-160.8935482931098
 30
0.0
 10
88.57494829582036
 20
-160.8935482931098
 30
0.0
 10
88.56669329603096
 20
-160.8852580153343
 30
0.0
 10
88.56669329603096
 20
-160.8756271820035
 30
0.0
 10
88.56669329603096
 20
-160.8659610708945
 30
0.0
 10
88.57494829582036
 20
-160.8584116264521
 30
0.0
 10
88.58461664452044
 20
-160.8584116264521
 30
0.0
 10
88.5942452397725
 20
-160.8584116264521
 30
0.0
 10
88.60182996180123
 20
-160.8659610708945
 30
0.0
 10
88.60182996180123
 20
-160.8756271820035
 30
0.0
  0
SPLINE
  5
1EE
330
1F
100
AcDbEntity
  8
_U+30EC_U+30A4_U+30E4_U+30FC 1
 62
   179
420
  2234388
370
     9
100
AcDbSpline
210
0.0
220
0.0
230
1.0
 70
    11
 71
     3
 72
    17
 73
    13
 74
     0
 42
0.0000000001
 43
0.0000000001
 12
1.0
 22
0.0
 32
0.0
 13
1.0
 23
0.0
 33
0.0
 40
0.0
 40
0.0
 40
0.0
 40
0.0
 40
1.0
 40
1.0
 40
1.0
 40
2.0
 40
2.0
 40
2.0
 40
3.0
 40
3.0
 40
3.0
 40
4.0
 40
4.0
 40
4.0
 40
4.0
 10
91.53722322024643
 20
-149.6032835737102
 30
0.0
 10
91.5096712765049
 20
-149.6032835737102
 30
0.0
 10
91.4876249771278
 20
-149.6253321848158
 30
0.0
 10
91.4876249771278
 20
-149.6528841292536
 30
0.0
 10
91.4876249771278
 20
-149.6804360736907
 30
0.0
 10
91.5096712765049
 20
-149.7031902403519
 30
0.0
 10
91.53722322024643
 20
-149.7031902403519
 30
0.0
 10
91.56477516398797
 20
-149.7031902403519
 30
0.0
 10
91.58752933007413
 20
-149.6804360736907
 30
0.0
 10
91.58752933007413
 20
-149.6528841292536
 30
0.0
 10
91.58752933007413
 20
-149.6253321848158
 30
0.0
 10
91.56477516398797
 20
-149.6032835737102
 30
0.0
 10
91.53722322024643
 20
-149.6032835737102
 30
0.0
  0
SPLINE
  5
1EF
330
1F
100
AcDbEntity
  8
_U+30EC_U+30A4_U+30E4_U+30FC 1
 62
   179
420
  2234388
370
     9
100
AcDbSpline
210
0.0
220
0.0
230
1.0
 70
    11
 71
     3
 72
    17
 73
    13
 74
     0
 42
0.0000000001
 43
0.0000000001
 12
1.0
 22
0.0
 32
0.0
 13
1.0
 23
0.0
 33
0.0
 40
0.0
 40
0.0
 40
0.0
 40
0.0
 40
1.0
 40
1.0
 40
1.0
 40
2.0
 40
2.0
 40
2.0
 40
3.0
 40
3.0
 40
3.0
 40
4.0
 40
4.0
 40
4.0
 40
4.0
 10
91.53722322024643
 20
-157.2692857940161
 30
0.0
 10
91.5096712765049
 20
-157.2692857940161
 30
0.0
 10
91.4876249771278
 20
-157.2913344051217
 30
0.0
 10
91.4876249771278
 20
-157.3195919051144
 30
0.0
 10
91.4876249771278
 20
-157.3471438495521
 30
0.0
 10
91.5096712765049
 20
-157.3691924606577
 30
0.0
 10
91.53722322024643
 20
-157.3691924606577
 30
0.0
 10
91.56477516398797
 20
-157.3691924606577
 30
0.0
 10
91.58752933007413
 20
-157.3471438495521
 30
0.0
 10
91.58752933007413
 20
-157.3195919051144
 30
0.0
 10
91.58752933007413
 20
-157.2913344051217
 30
0.0
 10
91.56477516398797
 20
-157.2692857940161
 30
0.0
 10
91.53722322024643
 20
-157.2692857940161
 30
0.0
  0
POLYLINE
  5
1F0
330
1F
100
AcDbEntity
  8
_U+30EC_U+30A4_U+30E4_U+30FC 1
 62
   179
420
  2234388
370
     9
100
AcDb2dPolyline
 66
     1
 10
0.0
 20
0.0
 30
0.0
  0
VERTEX
  5
1F1
330
1F0
100
AcDbEntity
  8
_U+30EC_U+30A4_U+30E4_U+30FC 1
 62
   179
420
  2234388
370
     9
100
AcDbVertex
100
AcDb2dVertex
 10
91.53722322024643
 20
-157.3195919051144
 30
0.0
  0
VERTEX
  5
1F2
330
1F0
100
AcDbEntity
  8
_U+30EC_U+30A4_U+30E4_U+30FC 1
 62
   179
420
  2234388
370
     9
100
AcDbVertex
100
AcDb2dVertex
 10
91.53722322024643
 20
-149.6528841292536
 30
0.0
  0
SEQEND
  5
1F3
330
1F0
100
AcDbEntity
  8
_U+30EC_U+30A4_U+30E4_U+30FC 1
 62
   179
420
  2234388
370
     9
  0
POLYLINE
  5
1F4
330
1F
100
AcDbEntity
  8
_U+30EC_U+30A4_U+30E4_U+30FC 1
 62
   179
420
  2234388
370
     9
100
AcDb2dPolyline
 66
     1
 10
0.0
 20
0.0
 30
0.0
  0
VERTEX
  5
1F5
330
1F4
100
AcDbEntity
  8
_U+30EC_U+30A4_U+30E4_U+30FC 1
 62
   179
420
  2234388
370
     9
100
AcDbVertex
100
AcDb2dVertex
 10
89.98969298194945
 20
-157.3195919051144
 30
0.0
  0
VERTEX
  5
1F6
330
1F4
100
AcDbEntity
  8
_U+30EC_U+30A4_U+30E4_U+30FC 1
 62
   179
420
  2234388
370
     9
100
AcDbVertex
100
AcDb2dVertex
 10
93.31522317488587
 20
-157.3195919051144
 30
0.0
  0
SEQEND
  5
1F7
330
1F4
100
AcDbEntity
  8
_U+30EC_U+30A4_U+30E4_U+30FC 1
 62
   179
420
  2234388
370
     9
  0
POLYLINE
  5
1F8
330
1F
100
AcDbEntity
  8
_U+30EC_U+30A4_U+30E4_U+30FC 1
 62
   179
420
  2234388
370
     9
100
AcDb2dPolyline
 66
     1
 10
0.0
 20
0.0
 30
0.0
  0
VERTEX
  5
1F9
330
1F8
100
AcDbEntity
  8
_U+30EC_U+30A4_U+30E4_U+30FC 1
 62
   179
420
  2234388
370
     9
100
AcDbVertex
100
AcDb2dVertex
 10
89.98969298194945
 20
-149.6528841292536
 30
0.0
  0
VERTEX
  5
1FA
330
1F8
100
AcDbEntity
  8
_U+30EC_U+30A4_U+30E4_U+30FC 1
 62
   179
420
  2234388
370
     9
100
AcDbVertex
100
AcDb2dVertex
 10
92.03746209637316
 20
-149.6528841292536
 30
0.0
  0
SEQEND
  5
1FB
330
1F8
100
AcDbEntity
  8
_U+30EC_U+30A4_U+30E4_U+30FC 1
 62
   179
420
  2234388
370
     9
  0
INSERT
  5
1FD
330
1F
100
AcDbEntity
  8
_U+30EC_U+30A4_U+30E4_U+30FC 1
100
AcDbBlockReference
  2
block 6
 10
0.0
 20
0.0
 30
0.0
  0
SPLINE
  5
204
330
1F
100
AcDbEntity
  8
_U+30EC_U+30A4_U+30E4_U+30FC 1
 62
   179
420
  2234388
370
     9
100
AcDbSpline
210
0.0
220
0.0
230
1.0
 70
    11
 71
     3
 72
    17
 73
    13
 74
     0
 42
0.0000000001
 43
0.0000000001
 12
1.0
 22
0.0
 32
0.0
 13
1.0
 23
0.0
 33
0.0
 40
0.0
 40
0.0
 40
0.0
 40
0.0
 40
1.0
 40
1.0
 40
1.0
 40
2.0
 40
2.0
 40
2.0
 40
3.0
 40
3.0
 40
3.0
 40
4.0
 40
4.0
 40
4.0
 40
4.0
 10
91.53722322024643
 20
-149.6356685737022
 30
0.0
 10
91.54685405333406
 20
-149.6356685737022
 30
0.0
 10
91.55514433090033
 20
-149.6432180181446
 30
0.0
 10
91.55514433090033
 20
-149.6528841292536
 30
0.0
 10
91.55514433090033
 20
-149.6625149625845
 30
0.0
 10
91.54685405333406
 20
-149.6708052403599
 30
0.0
 10
91.53722322024643
 20
-149.6708052403599
 30
0.0
 10
91.52755710938193
 20
-149.6708052403599
 30
0.0
 10
91.52000766513008
 20
-149.6625149625845
 30
0.0
 10
91.52000766513008
 20
-149.6528841292536
 30
0.0
 10
91.52000766513008
 20
-149.6432180181446
 30
0.0
 10
91.52755710938193
 20
-149.6356685737022
 30
0.0
 10
91.53722322024643
 20
-149.6356685737022
 30
0.0
  0
SPLINE
  5
205
330
1F
100
AcDbEntity
  8
_U+30EC_U+30A4_U+30E4_U+30FC 1
 62
   179
420
  2234388
370
     9
100
AcDbSpline
210
0.0
220
0.0
230
1.0
 70
    11
 71
     3
 72
    17
 73
    13
 74
     0
 42
0.0000000001
 43
0.0000000001
 12
1.0
 22
0.0
 32
0.0
 13
1.0
 23
0.0
 33
0.0
 40
0.0
 40
0.0
 40
0.0
 40
0.0
 40
1.0
 40
1.0
 40
1.0
 40
2.0
 40
2.0
 40
2.0
 40
3.0
 40
3.0
 40
3.0
 40
4.0
 40
4.0
 40
4.0
 40
4.0
 10
94.64367841877194
 20
-132.4456541335552
 30
0.0
 10
94.61609119725352
 20
-132.4456541335552
 30
0.0
 10
94.59404258670492
 20
-132.4677027446608
 30
0.0
 10
94.59404258670492
 20
-132.4952546890986
 30
0.0
 10
94.59404258670492
 20
-132.5228419113139
 30
0.0
 10
94.61609119725352
 20
-132.5455608001968
 30
0.0
 10
94.64367841877194
 20
-132.5455608001968
 30
0.0
 10
94.67123036251347
 20
-132.5455608001968
 30
0.0
 10
94.69394925082275
 20
-132.5228419113139
 30
0.0
 10
94.69394925082275
 20
-132.4952546890986
 30
0.0
 10
94.69394925082275
 20
-132.4677027446608
 30
0.0
 10
94.67123036251347
 20
-132.4456541335552
 30
0.0
 10
94.64367841877194
 20
-132.4456541335552
 30
0.0
  0
SPLINE
  5
206
330
1F
100
AcDbEntity
  8
_U+30EC_U+30A4_U+30E4_U+30FC 1
 62
   179
420
  2234388
370
     9
100
AcDbSpline
210
0.0
220
0.0
230
1.0
 70
    11
 71
     3
 72
    17
 73
    13
 74
     0
 42
0.0000000001
 43
0.0000000001
 12
1.0
 22
0.0
 32
0.0
 13
1.0
 23
0.0
 33
0.0
 40
0.0
 40
0.0
 40
0.0
 40
0.0
 40
1.0
 40
1.0
 40
1.0
 40
2.0
 40
2.0
 40
2.0
 40
3.0
 40
3.0
 40
3.0
 40
4.0
 40
4.0
 40
4.0
 40
4.0
 10
94.64367841877194
 20
-157.2692857940161
 30
0.0
 10
94.61609119725352
 20
-157.2692857940161
 30
0.0
 10
94.59404258670492
 20
-157.2913344051217
 30
0.0
 10
94.59404258670492
 20
-157.3195919051144
 30
0.0
 10
94.59404258670492
 20
-157.3471438495521
 30
0.0
 10
94.61609119725352
 20
-157.3691924606577
 30
0.0
 10
94.64367841877194
 20
-157.3691924606577
 30
0.0
 10
94.67123036251347
 20
-157.3691924606577
 30
0.0
 10
94.69394925082275
 20
-157.3471438495521
 30
0.0
 10
94.69394925082275
 20
-157.3195919051144
 30
0.0
 10
94.69394925082275
 20
-157.2913344051217
 30
0.0
 10
94.67123036251347
 20
-157.2692857940161
 30
0.0
 10
94.64367841877194
 20
-157.2692857940161
 30
0.0
  0
POLYLINE
  5
207
330
1F
100
AcDbEntity
  8
_U+30EC_U+30A4_U+30E4_U+30FC 1
 62
   179
420
  2234388
370
     9
100
AcDb2dPolyline
 66
     1
 10
0.0
 20
0.0
 30
0.0
  0
VERTEX
  5
208
330
207
100
AcDbEntity
  8
_U+30EC_U+30A4_U+30E4_U+30FC 1
 62
   179
420
  2234388
370
     9
100
AcDbVertex
100
AcDb2dVertex
 10
94.64367841877194
 20
-157.3195919051144
 30
0.0
  0
VERTEX
  5
209
330
207
100
AcDbEntity
  8
_U+30EC_U+30A4_U+30E4_U+30FC 1
 62
   179
420
  2234388
370
     9
100
AcDbVertex
100
AcDb2dVertex
 10
94.64367841877194
 20
-132.4959602446541
 30
0.0
  0
SEQEND
  5
20A
330
207
100
AcDbEntity
  8
_U+30EC_U+30A4_U+30E4_U+30FC 1
 62
   179
420
  2234388
370
     9
  0
POLYLINE
  5
20B
330
1F
100
AcDbEntity
  8
_U+30EC_U+30A4_U+30E4_U+30FC 1
 62
   179
420
  2234388
370
     9
100
AcDb2dPolyline
 66
     1
 10
0.0
 20
0.0
 30
0.0
  0
VERTEX
  5
20C
330
20B
100
AcDbEntity
  8
_U+30EC_U+30A4_U+30E4_U+30FC 1
 62
   179
420
  2234388
370
     9
100
AcDbVertex
100
AcDb2dVertex
 10
93.09611290269807
 20
-157.3195919051144
 30
0.0
  0
VERTEX
  5
20D
330
20B
100
AcDbEntity
  8
_U+30EC_U+30A4_U+30E4_U+30FC 1
 62
   179
420
  2234388
370
     9
100
AcDbVertex
100
AcDb2dVertex
 10
95.1438820171218
 20
-157.3195919051144
 30
0.0
  0
SEQEND
  5
20E
330
20B
100
AcDbEntity
  8
_U+30EC_U+30A4_U+30E4_U+30FC 1
 62
   179
420
  2234388
370
     9
  0
POLYLINE
  5
20F
330
1F
100
AcDbEntity
  8
_U+30EC_U+30A4_U+30E4_U+30FC 1
 62
   179
420
  2234388
370
     9
100
AcDb2dPolyline
 66
     1
 10
0.0
 20
0.0
 30
0.0
  0
VERTEX
  5
210
330
20F
100
AcDbEntity
  8
_U+30EC_U+30A4_U+30E4_U+30FC 1
 62
   179
420
  2234388
370
     9
100
AcDbVertex
100
AcDb2dVertex
 10
89.98969298194945
 20
-132.4952546890986
 30
0.0
  0
VERTEX
  5
211
330
20F
100
AcDbEntity
  8
_U+30EC_U+30A4_U+30E4_U+30FC 1
 62
   179
420
  2234388
370
     9
100
AcDbVertex
100
AcDb2dVertex
 10
95.1438820171218
 20
-132.4952546890986
 30
0.0
  0
SEQEND
  5
212
330
20F
100
AcDbEntity
  8
_U+30EC_U+30A4_U+30E4_U+30FC 1
 62
   179
420
  2234388
370
     9
  0
INSERT
  5
214
330
1F
100
AcDbEntity
  8
_U+30EC_U+30A4_U+30E4_U+30FC 1
100
AcDbBlockReference
  2
block 7
 10
0.0
 20
0.0
 30
0.0
  0
SPLINE
  5
21D
330
1F
100
AcDbEntity
  8
_U+30EC_U+30A4_U+30E4_U+30FC 1
 62
   179
420
  2234388
370
     9
100
AcDbSpline
210
0.0
220
0.0
230
1.0
 70
    11
 71
     3
 72
    17
 73
    13
 74
     0
 42
0.0000000001
 43
0.0000000001
 12
1.0
 22
0.0
 32
0.0
 13
1.0
 23
0.0
 33
0.0
 40
0.0
 40
0.0
 40
0.0
 40
0.0
 40
1.0
 40
1.0
 40
1.0
 40
2.0
 40
2.0
 40
2.0
 40
3.0
 40
3.0
 40
3.0
 40
4.0
 40
4.0
 40
4.0
 40
4.0
 10
94.64367841877194
 20
-132.4780391335472
 30
0.0
 10
94.65330925185957
 20
-132.4780391335472
 30
0.0
 10
94.6615666430014
 20
-132.4856238557677
 30
0.0
 10
94.6615666430014
 20
-132.4952546890986
 30
0.0
 10
94.6615666430014
 20
-132.5049208002069
 30
0.0
 10
94.65330925185957
 20
-132.5131758002049
 30
0.0
 10
94.64367841877194
 20
-132.5131758002049
 30
0.0
 10
94.63401230790743
 20
-132.5131758002049
 30
0.0
 10
94.62642758587872
 20
-132.5049208002069
 30
0.0
 10
94.62642758587872
 20
-132.4952546890986
 30
0.0
 10
94.62642758587872
 20
-132.4856238557677
 30
0.0
 10
94.63401230790743
 20
-132.4780391335472
 30
0.0
 10
94.64367841877194
 20
-132.4780391335472
 30
0.0
  0
ENDSEC
  0
SECTION
  2
OBJECTS
  0
DICTIONARY
  5
C
330
0
100
AcDbDictionary
281
     1
  3
ACAD_GROUP
350
D
  3
ACAD_LAYOUT
350
1A
  3
ACAD_MATERIAL
350
3B
  3
ACAD_MLEADERSTYLE
350
220
  3
ACAD_MLINESTYLE
350
17
  3
ACAD_PLOTSETTINGS
350
19
  3
ACAD_PLOTSTYLENAME
350
E
  3
ACAD_TABLESTYLE
350
21F
  3
ACAD_VISUALSTYLE
350
2A
  0
SUN
  5
3F
330
29
100
AcDbSun
 90
        1
290
     0
 63
     7
421
 16777215
 40
1.0
291
     1
 91
  2455826
 92
 54000000
292
     0
 70
     2
 71
   256
280
     1
  0
DICTIONARY
  5
D
102
{ACAD_REACTORS
330
C
102
}
330
C
100
AcDbDictionary
281
     1
  0
DICTIONARY
  5
1A
102
{ACAD_REACTORS
330
C
102
}
330
C
100
AcDbDictionary
281
     1
  3
Layout1
350
1E
  3
Layout2
350
26
  3
Model
350
22
  0
DICTIONARY
  5
3B
102
{ACAD_REACTORS
330
C
102
}
330
C
100
AcDbDictionary
281
     1
  3
ByBlock
350
3D
  3
ByLayer
350
3C
  3
Global
350
3E
  0
DICTIONARY
  5
220
102
{ACAD_REACTORS
330
C
102
}
330
C
100
AcDbDictionary
281
     1
  0
DICTIONARY
  5
17
102
{ACAD_REACTORS
330
C
102
}
330
C
100
AcDbDictionary
281
     1
  3
Standard
350
18
  0
DICTIONARY
  5
19
102
{ACAD_REACTORS
330
C
102
}
330
C
100
AcDbDictionary
281
     1
  0
ACDBDICTIONARYWDFLT
  5
E
102
{ACAD_REACTORS
330
C
102
}
330
C
100
AcDbDictionary
281
     1
  3
Normal
350
F
100
AcDbDictionaryWithDefault
340
F
  0
DICTIONARY
  5
21F
102
{ACAD_REACTORS
330
C
102
}
330
C
100
AcDbDictionary
281
     1
  0
DICTIONARY
  5
2A
102
{ACAD_REACTORS
330
C
102
}
330
C
100
AcDbDictionary
281
     1
  3
2dWireframe
350
2F
  3
3D Hidden
350
31
  3
3dWireframe
350
30
  3
Basic
350
32
  3
Brighten
350
36
  3
ColorChange
350
3A
  3
Conceptual
350
34
  3
Dim
350
35
  3
Facepattern
350
39
  3
Flat
350
2B
  3
FlatWithEdges
350
2C
  3
Gouraud
350
2D
  3
GouraudWithEdges
350
2E
  3
Linepattern
350
38
  3
Realistic
350
33
  3
Thicken
350
37
  0
LAYOUT
  5
1E
102
{ACAD_REACTORS
330
1A
102
}
330
1A
100
AcDbPlotSettings
  1

  2
none_device
  4

  6

 40
0.0
 41
0.0
 42
0.0
 43
0.0
 44
0.0
 45
0.0
 46
0.0
 47
0.0
 48
0.0
 49
0.0
140
0.0
141
0.0
142
1.0
143
1.0
 70
   688
 72
     0
 73
     0
 74
     5
  7

 75
    16
 76
     0
 77
     2
 78
   300
147
1.0
148
0.0
149
0.0
100
AcDbLayout
  1
Layout1
 70
     1
 71
     1
 10
0.0
 20
0.0
 11
12.0
 21
9.0
 12
0.0
 22
0.0
 32
0.0
 14
1.000000000000000E+20
 24
1.000000000000000E+20
 34
1.000000000000000E+20
 15
-1.000000000000000E+20
 25
-1.000000000000000E+20
 35
-1.000000000000000E+20
146
0.0
 13
0.0
 23
0.0
 33
0.0
 16
1.0
 26
0.0
 36
0.0
 17
0.0
 27
1.0
 37
0.0
 76
     0
330
1B
  0
LAYOUT
  5
26
102
{ACAD_REACTORS
330
1A
102
}
330
1A
100
AcDbPlotSettings
  1

  2
none_device
  4

  6

 40
0.0
 41
0.0
 42
0.0
 43
0.0
 44
0.0
 45
0.0
 46
0.0
 47
0.0
 48
0.0
 49
0.0
140
0.0
141
0.0
142
1.0
143
1.0
 70
   688
 72
     0
 73
     0
 74
     5
  7

 75
    16
 76
     0
 77
     2
 78
   300
147
1.0
148
0.0
149
0.0
100
AcDbLayout
  1
Layout2
 70
     1
 71
     2
 10
0.0
 20
0.0
 11
0.0
 21
0.0
 12
0.0
 22
0.0
 32
0.0
 14
0.0
 24
0.0
 34
0.0
 15
0.0
 25
0.0
 35
0.0
146
0.0
 13
0.0
 23
0.0
 33
0.0
 16
1.0
 26
0.0
 36
0.0
 17
0.0
 27
1.0
 37
0.0
 76
     0
330
23
  0
LAYOUT
  5
22
102
{ACAD_REACTORS
330
1A
102
}
330
1A
100
AcDbPlotSettings
  1

  2
none_device
  4

  6

 40
0.0
 41
0.0
 42
0.0
 43
0.0
 44
0.0
 45
0.0
 46
0.0
 47
0.0
 48
0.0
 49
0.0
140
0.0
141
0.0
142
1.0
143
1.0
 70
  1712
 72
     0
 73
     0
 74
     0
  7

 75
     0
 76
     0
 77
     2
 78
   300
147
1.0
148
0.0
149
0.0
100
AcDbLayout
  1
Model
 70
     1
 71
     0
 10
0.0
 20
0.0
 11
12.0
 21
9.0
 12
0.0
 22
0.0
 32
0.0
 14
1.000000000000000E+20
 24
1.000000000000000E+20
 34
1.000000000000000E+20
 15
-1.000000000000000E+20
 25
-1.000000000000000E+20
 35
-1.000000000000000E+20
146
0.0
 13
0.0
 23
0.0
 33
0.0
 16
1.0
 26
0.0
 36
0.0
 17
0.0
 27
1.0
 37
0.0
 76
     0
330
1F
331
29
  0
MATERIAL
  5
3D
102
{ACAD_REACTORS
330
3B
102
}
330
3B
100
AcDbMaterial
  1
ByBlock
 72
     1
 94
      127
  0
MATERIAL
  5
3C
102
{ACAD_REACTORS
330
3B
102
}
330
3B
100
AcDbMaterial
  1
ByLayer
 72
     1
 94
      127
  0
MATERIAL
  5
3E
102
{ACAD_REACTORS
330
3B
102
}
330
3B
100
AcDbMaterial
  1
Global
 72
     1
 94
      127
  0
MLINESTYLE
  5
18
102
{ACAD_REACTORS
330
17
102
}
330
17
100
AcDbMlineStyle
  2
Standard
 70
     0
  3

 62
   256
 51
90.0
 52
90.0
 71
     2
 49
0.5
 62
   256
  6
BYLAYER
 49
-0.5
 62
   256
  6
BYLAYER
  0
ACDBPLACEHOLDER
  5
F
102
{ACAD_REACTORS
330
E
102
}
330
E
  0
VISUALSTYLE
  5
2F
102
{ACAD_REACTORS
330
2A
102
}
330
2A
100
AcDbVisualStyle
  2
2dWireframe
 70
     4
177
     2
291
     0
 71
     0
176
     1
 72
     2
176
     1
 73
     0
176
     1
 90
        0
176
     1
 40
-0.6
176
     1
 41
-30.0
176
     1
 62
     5
 63
     7
421
 16777215
176
     1
 74
     1
176
     1
 91
        4
176
     1
 64
     7
176
     1
 65
   257
176
     1
 75
     1
176
     1
175
     1
176
     1
 42
1.0
176
     1
 92
        0
176
     1
 66
   257
176
     1
 43
1.0
176
     1
 76
     1
176
     1
 77
     6
176
     1
 78
     2
176
     1
 67
     7
176
     1
 79
     5
176
     1
170
     0
176
     1
171
     0
176
     1
290
     0
176
     1
 93
        1
176
     1
 44
0.0
176
     1
173
     0
176
     1
  0
VISUALSTYLE
  5
31
102
{ACAD_REACTORS
330
2A
102
}
330
2A
100
AcDbVisualStyle
  2
3D Hidden
 70
     6
177
     2
291
     0
 71
     1
176
     1
 72
     2
176
     1
 73
     2
176
     1
 90
        0
176
     1
 40
-0.6
176
     1
 41
-30.0
176
     1
 62
     5
 63
     7
421
 16777215
176
     1
 74
     2
176
     1
 91
        2
176
     1
 64
     7
176
     1
 65
   257
176
     1
 75
     2
176
     1
175
     1
176
     1
 42
40.0
176
     1
 92
        0
176
     1
 66
   257
176
     1
 43
1.0
176
     1
 76
     1
176
     1
 77
     6
176
     1
 78
     2
176
     1
 67
     7
176
     1
 79
     3
176
     1
170
     0
176
     1
171
     0
176
     1
290
     0
176
     1
 93
        1
176
     1
 44
0.0
176
     1
173
     0
176
     1
  0
VISUALSTYLE
  5
30
102
{ACAD_REACTORS
330
2A
102
}
330
2A
100
AcDbVisualStyle
  2
3dWireframe
 70
     5
177
     2
291
     0
 71
     0
176
     1
 72
     2
176
     1
 73
     0
176
     1
 90
        0
176
     1
 40
-0.6
176
     1
 41
-30.0
176
     1
 62
     5
 63
     7
421
 16777215
176
     1
 74
     1
176
     1
 91
        4
176
     1
 64
     7
176
     1
 65
   257
176
     1
 75
     1
176
     1
175
     1
176
     1
 42
1.0
176
     1
 92
        0
176
     1
 66
   257
176
     1
 43
1.0
176
     1
 76
     1
176
     1
 77
     6
176
     1
 78
     2
176
     1
 67
     7
176
     1
 79
     5
176
     1
170
     0
176
     1
171
     0
176
     1
290
     0
176
     1
 93
        1
176
     1
 44
0.0
176
     1
173
     0
176
     1
  0
VISUALSTYLE
  5
32
102
{ACAD_REACTORS
330
2A
102
}
330
2A
100
AcDbVisualStyle
  2
Basic
 70
     7
177
     2
291
     1
 71
     1
176
     1
 72
     0
176
     1
 73
     1
176
     1
 90
        0
176
     1
 40
-0.6
176
     1
 41
-30.0
176
     1
 62
     5
 63
     7
421
 16777215
176
     1
 74
     0
176
     1
 91
        4
176
     1
 64
     7
176
     1
 65
   257
176
     1
 75
     1
176
     1
175
     1
176
     1
 42
1.0
176
     1
 92
        8
176
     1
 66
     7
176
     1
 43
1.0
176
     1
 76
     1
176
     1
 77
     6
176
     1
 78
     2
176
     1
 67
     7
176
     1
 79
     5
176
     1
170
     0
176
     1
171
     0
176
     1
290
     0
176
     1
 93
        1
176
     1
 44
0.0
176
     1
173
     0
176
     1
  0
VISUALSTYLE
  5
36
102
{ACAD_REACTORS
330
2A
102
}
330
2A
100
AcDbVisualStyle
  2
Brighten
 70
    12
177
     2
291
     1
 71
     2
176
     1
 72
     2
176
     1
 73
     0
176
     1
 90
        0
176
     1
 40
-0.6
176
     1
 41
-30.0
176
     1
 62
     5
 63
     7
421
 16777215
176
     1
 74
     1
176
     1
 91
        4
176
     1
 64
     7
176
     1
 65
   257
176
     1
 75
     1
176
     1
175
     1
176
     1
 42
1.0
176
     1
 92
        8
176
     1
 66
     7
176
     1
 43
1.0
176
     1
 76
     1
176
     1
 77
     6
176
     1
 78
     2
176
     1
 67
     7
176
     1
 79
     5
176
     1
170
     0
176
     1
171
     0
176
     1
290
     0
176
     1
 93
        1
176
     1
 44
50.0
176
     1
173
     0
176
     1
  0
VISUALSTYLE
  5
3A
102
{ACAD_REACTORS
330
2A
102
}
330
2A
100
AcDbVisualStyle
  2
ColorChange
 70
    16
177
     2
291
     1
 71
     2
176
     1
 72
     2
176
     1
 73
     3
176
     1
 90
        0
176
     1
 40
-0.6
176
     1
 41
-30.0
176
     1
 62
     5
 63
     8
421
  8421504
176
     1
 74
     1
176
     1
 91
        4
176
     1
 64
     7
176
     1
 65
   257
176
     1
 75
     1
176
     1
175
     1
176
     1
 42
1.0
176
     1
 92
        8
176
     1
 66
     8
424
  8421504
176
     1
 43
1.0
176
     1
 76
     1
176
     1
 77
     6
176
     1
 78
     2
176
     1
 67
     7
176
     1
 79
     5
176
     1
170
     0
176
     1
171
     0
176
     1
290
     0
176
     1
 93
        1
176
     1
 44
0.0
176
     1
173
     0
176
     1
  0
VISUALSTYLE
  5
34
102
{ACAD_REACTORS
330
2A
102
}
330
2A
100
AcDbVisualStyle
  2
Conceptual
 70
     9
177
     2
291
     0
 71
     3
176
     1
 72
     2
176
     1
 73
     0
176
     1
 90
        0
176
     1
 40
-0.6
176
     1
 41
-30.0
176
     1
 62
     5
 63
     7
421
 16777215
176
     1
 74
     2
176
     1
 91
        2
176
     1
 64
     7
176
     1
 65
   257
176
     1
 75
     1
176
     1
175
     1
176
     1
 42
40.0
176
     1
 92
        8
176
     1
 66
     7
176
     1
 43
1.0
176
     1
 76
     1
176
     1
 77
     6
176
     1
 78
     2
176
     1
 67
     7
176
     1
 79
     3
176
     1
170
     0
176
     1
171
     0
176
     1
290
     0
176
     1
 93
        1
176
     1
 44
0.0
176
     1
173
     0
176
     1
  0
VISUALSTYLE
  5
35
102
{ACAD_REACTORS
330
2A
102
}
330
2A
100
AcDbVisualStyle
  2
Dim
 70
    11
177
     2
291
     1
 71
     2
176
     1
 72
     2
176
     1
 73
     0
176
     1
 90
        0
176
     1
 40
-0.6
176
     1
 41
-30.0
176
     1
 62
     5
 63
     7
421
 16777215
176
     1
 74
     1
176
     1
 91
        4
176
     1
 64
     7
176
     1
 65
   257
176
     1
 75
     1
176
     1
175
     1
176
     1
 42
1.0
176
     1
 92
        8
176
     1
 66
     7
176
     1
 43
1.0
176
     1
 76
     1
176
     1
 77
     6
176
     1
 78
     2
176
     1
 67
     7
176
     1
 79
     5
176
     1
170
     0
176
     1
171
     0
176
     1
290
     0
176
     1
 93
        1
176
     1
 44
-50.0
176
     1
173
     0
176
     1
  0
VISUALSTYLE
  5
39
102
{ACAD_REACTORS
330
2A
102
}
330
2A
100
AcDbVisualStyle
  2
Facepattern
 70
    15
177
     2
291
     1
 71
     2
176
     1
 72
     2
176
     1
 73
     0
176
     1
 90
        0
176
     1
 40
-0.6
176
     1
 41
-30.0
176
     1
 62
     5
 63
     7
421
 16777215
176
     1
 74
     1
176
     1
 91
        4
176
     1
 64
     7
176
     1
 65
   257
176
     1
 75
     1
176
     1
175
     1
176
     1
 42
1.0
176
     1
 92
        8
176
     1
 66
     7
176
     1
 43
1.0
176
     1
 76
     1
176
     1
 77
     6
176
     1
 78
     2
176
     1
 67
     7
176
     1
 79
     5
176
     1
170
     0
176
     1
171
     0
176
     1
290
     0
176
     1
 93
        1
176
     1
 44
0.0
176
     1
173
     0
176
     1
  0
VISUALSTYLE
  5
2B
102
{ACAD_REACTORS
330
2A
102
}
330
2A
100
AcDbVisualStyle
  2
Flat
 70
     0
177
     2
291
     1
 71
     2
176
     1
 72
     1
176
     1
 73
     1
176
     1
 90
        2
176
     1
 40
-0.6
176
     1
 41
30.0
176
     1
 62
     5
 63
     7
421
 16777215
176
     1
 74
     0
176
     1
 91
        4
176
     1
 64
     7
176
     1
 65
   257
176
     1
 75
     1
176
     1
175
     1
176
     1
 42
1.0
176
     1
 92
        8
176
     1
 66
     7
176
     1
 43
1.0
176
     1
 76
     1
176
     1
 77
     6
176
     1
 78
     2
176
     1
 67
     7
176
     1
 79
     5
176
     1
170
     0
176
     1
171
     0
176
     1
290
     0
176
     1
 93
       13
176
     1
 44
0.0
176
     1
173
     0
176
     1
  0
VISUALSTYLE
  5
2C
102
{ACAD_REACTORS
330
2A
102
}
330
2A
100
AcDbVisualStyle
  2
FlatWithEdges
 70
     1
177
     2
291
     1
 71
     2
176
     1
 72
     1
176
     1
 73
     1
176
     1
 90
        2
176
     1
 40
-0.6
176
     1
 41
30.0
176
     1
 62
     5
 63
     7
421
 16777215
176
     1
 74
     1
176
     1
 91
        4
176
     1
 64
     7
176
     1
 65
   257
176
     1
 75
     1
176
     1
175
     1
176
     1
 42
1.0
176
     1
 92
        0
176
     1
 66
   257
176
     1
 43
1.0
176
     1
 76
     1
176
     1
 77
     6
176
     1
 78
     2
176
     1
 67
     7
176
     1
 79
     5
176
     1
170
     0
176
     1
171
     0
176
     1
290
     0
176
     1
 93
       13
176
     1
 44
0.0
176
     1
173
     0
176
     1
  0
VISUALSTYLE
  5
2D
102
{ACAD_REACTORS
330
2A
102
}
330
2A
100
AcDbVisualStyle
  2
Gouraud
 70
     2
177
     2
291
     1
 71
     2
176
     1
 72
     2
176
     1
 73
     1
176
     1
 90
        2
176
     1
 40
-0.6
176
     1
 41
30.0
176
     1
 62
     5
 63
     7
421
 16777215
176
     1
 74
     0
176
     1
 91
        4
176
     1
 64
     7
176
     1
 65
   257
176
     1
 75
     1
176
     1
175
     1
176
     1
 42
1.0
176
     1
 92
        0
176
     1
 66
     7
176
     1
 43
1.0
176
     1
 76
     1
176
     1
 77
     6
176
     1
 78
     2
176
     1
 67
     7
176
     1
 79
     5
176
     1
170
     0
176
     1
171
     0
176
     1
290
     0
176
     1
 93
       13
176
     1
 44
0.0
176
     1
173
     0
176
     1
  0
VISUALSTYLE
  5
2E
102
{ACAD_REACTORS
330
2A
102
}
330
2A
100
AcDbVisualStyle
  2
GouraudWithEdges
 70
     3
177
     2
291
     1
 71
     2
176
     1
 72
     2
176
     1
 73
     1
176
     1
 90
        2
176
     1
 40
-0.6
176
     1
 41
30.0
176
     1
 62
     5
 63
     7
421
 16777215
176
     1
 74
     1
176
     1
 91
        4
176
     1
 64
     7
176
     1
 65
   257
176
     1
 75
     1
176
     1
175
     1
176
     1
 42
1.0
176
     1
 92
        0
176
     1
 66
   257
176
     1
 43
1.0
176
     1
 76
     1
176
     1
 77
     6
176
     1
 78
     2
176
     1
 67
     7
176
     1
 79
     5
176
     1
170
     0
176
     1
171
     0
176
     1
290
     0
176
     1
 93
       13
176
     1
 44
0.0
176
     1
173
     0
176
     1
  0
VISUALSTYLE
  5
38
102
{ACAD_REACTORS
330
2A
102
}
330
2A
100
AcDbVisualStyle
  2
Linepattern
 70
    14
177
     2
291
     1
 71
     2
176
     1
 72
     2
176
     1
 73
     0
176
     1
 90
        0
176
     1
 40
-0.6
176
     1
 41
-30.0
176
     1
 62
     5
 63
     7
421
 16777215
176
     1
 74
     1
176
     1
 91
        4
176
     1
 64
     7
176
     1
 65
   257
176
     1
 75
     7
176
     1
175
     7
176
     1
 42
1.0
176
     1
 92
        8
176
     1
 66
     7
176
     1
 43
1.0
176
     1
 76
     1
176
     1
 77
     6
176
     1
 78
     2
176
     1
 67
     7
176
     1
 79
     5
176
     1
170
     0
176
     1
171
     0
176
     1
290
     0
176
     1
 93
        1
176
     1
 44
0.0
176
     1
173
     0
176
     1
  0
VISUALSTYLE
  5
33
102
{ACAD_REACTORS
330
2A
102
}
330
2A
100
AcDbVisualStyle
  2
Realistic
 70
     8
177
     2
291
     0
 71
     2
176
     1
 72
     2
176
     1
 73
     0
176
     1
 90
        0
176
     1
 40
-0.6
176
     1
 41
-30.0
176
     1
 62
     5
 63
     7
421
 16777215
176
     1
 74
     1
176
     1
 91
        0
176
     1
 64
     7
176
     1
 65
   257
176
     1
 75
     1
176
     1
175
     1
176
     1
 42
1.0
176
     1
 92
        8
176
     1
 66
     8
424
  7895160
176
     1
 43
1.0
176
     1
 76
     1
176
     1
 77
     6
176
     1
 78
     2
176
     1
 67
     7
176
     1
 79
     5
176
     1
170
     0
176
     1
171
     0
176
     1
290
     0
176
     1
 93
       13
176
     1
 44
0.0
176
     1
173
     0
176
     1
  0
VISUALSTYLE
  5
37
102
{ACAD_REACTORS
330
2A
102
}
330
2A
100
AcDbVisualStyle
  2
Thicken
 70
    13
177
     2
291
     1
 71
     2
176
     1
 72
     2
176
     1
 73
     0
176
     1
 90
        0
176
     1
 40
-0.6
176
     1
 41
-30.0
176
     1
 62
     5
 63
     7
421
 16777215
176
     1
 74
     1
176
     1
 91
        4
176
     1
 64
     7
176
     1
 65
   257
176
     1
 75
     1
176
     1
175
     1
176
     1
 42
1.0
176
     1
 92
       12
176
     1
 66
     7
176
     1
 43
1.0
176
     1
 76
     1
176
     1
 77
     6
176
     1
 78
     2
176
     1
 67
     7
176
     1
 79
     5
176
     1
170
     0
176
     1
171
     0
176
     1
290
     0
176
     1
 93
        1
176
     1
 44
0.0
176
     1
173
     0
176
     1
  0
ENDSEC
  0
EOF
