  0
SECTION
  2
HEADER
  9
$ACADVER
  1
AC1024
  9
$ACADMAINTVER
 70
     6
  9
$DWGCODEPAGE
  3
UNDEFINED
  9
$INSBASE
 10
0.0
 20
0.0
 30
0.0
  9
$EXTMIN
 10
1.000000000000000E+20
 20
1.000000000000000E+20
 30
1.000000000000000E+20
  9
$EXTMAX
 10
-1.000000000000000E+20
 20
-1.000000000000000E+20
 30
-1.000000000000000E+20
  9
$LIMMIN
 10
0.0
 20
0.0
  9
$LIMMAX
 10
12.0
 20
9.0
  9
$ORTHOMODE
 70
     0
  9
$REGENMODE
 70
     1
  9
$FILLMODE
 70
     1
  9
$QTEXTMODE
 70
     0
  9
$MIRRTEXT
 70
     1
  9
$LTSCALE
 40
1.0
  9
$ATTMODE
 70
     1
  9
$TEXTSIZE
 40
0.2
  9
$TRACEWID
 40
0.05
  9
$TEXTSTYLE
  7
Standard
  9
$CLAYER
  8
0
  9
$CELTYPE
  6
ByLayer
  9
$CECOLOR
 62
   256
  9
$CELTSCALE
 40
1.0
  9
$DISPSILH
 70
     0
  9
$DIMSCALE
 40
1.0
  9
$DIMASZ
 40
0.18
  9
$DIMEXO
 40
0.0625
  9
$DIMDLI
 40
0.38
  9
$DIMRND
 40
0.0
  9
$DIMDLE
 40
0.0
  9
$DIMEXE
 40
0.18
  9
$DIMTP
 40
0.0
  9
$DIMTM
 40
0.0
  9
$DIMTXT
 40
0.18
  9
$DIMCEN
 40
0.09
  9
$DIMTSZ
 40
0.0
  9
$DIMTOL
 70
     0
  9
$DIMLIM
 70
     0
  9
$DIMTIH
 70
     1
  9
$DIMTOH
 70
     1
  9
$DIMSE1
 70
     0
  9
$DIMSE2
 70
     0
  9
$DIMTAD
 70
     0
  9
$DIMZIN
 70
     0
  9
$DIMBLK
  1

  9
$DIMASO
 70
     1
  9
$DIMSHO
 70
     1
  9
$DIMPOST
  1

  9
$DIMAPOST
  1

  9
$DIMALT
 70
     0
  9
$DIMALTD
 70
     2
  9
$DIMALTF
 40
25.4
  9
$DIMLFAC
 40
1.0
  9
$DIMTOFL
 70
     0
  9
$DIMTVP
 40
0.0
  9
$DIMTIX
 70
     0
  9
$DIMSOXD
 70
     0
  9
$DIMSAH
 70
     0
  9
$DIMBLK1
  1

  9
$DIMBLK2
  1

  9
$DIMSTYLE
  2
Standard
  9
$DIMCLRD
 70
     0
  9
$DIMCLRE
 70
     0
  9
$DIMCLRT
 70
     0
  9
$DIMTFAC
 40
1.0
  9
$DIMGAP
 40
0.09
  9
$DIMJUST
 70
     0
  9
$DIMSD1
 70
     0
  9
$DIMSD2
 70
     0
  9
$DIMTOLJ
 70
     1
  9
$DIMTZIN
 70
     0
  9
$DIMALTZ
 70
     0
  9
$DIMALTTZ
 70
     0
  9
$DIMUPT
 70
     0
  9
$DIMDEC
 70
     4
  9
$DIMTDEC
 70
     4
  9
$DIMALTU
 70
     2
  9
$DIMALTTD
 70
     2
  9
$DIMTXSTY
  7
Standard
  9
$DIMAUNIT
 70
     0
  9
$DIMADEC
 70
     0
  9
$DIMALTRND
 40
0.0
  9
$DIMAZIN
 70
     0
  9
$DIMDSEP
 70
    46
  9
$DIMATFIT
 70
     3
  9
$DIMFRAC
 70
     0
  9
$DIMLDRBLK
  1

  9
$DIMLUNIT
 70
     2
  9
$DIMLWD
 70
    -2
  9
$DIMLWE
 70
    -2
  9
$DIMTMOVE
 70
     0
  9
$DIMFXL
 40
1.0
  9
$DIMFXLON
 70
     0
  9
$DIMJOGANG
 40
0.7853981633974483
  9
$DIMTFILL
 70
     0
  9
$DIMTFILLCLR
 70
     0
  9
$DIMARCSYM
 70
     0
  9
$DIMLTYPE
  6

  9
$DIMLTEX1
  6

  9
$DIMLTEX2
  6

  9
$DIMTXTDIRECTION
 70
     0
  9
$LUNITS
 70
     2
  9
$LUPREC
 70
     4
  9
$SKETCHINC
 40
0.1
  9
$FILLETRAD
 40
0.5
  9
$AUNITS
 70
     0
  9
$AUPREC
 70
     0
  9
$MENU
  1
.
  9
$ELEVATION
 40
0.0
  9
$PELEVATION
 40
0.0
  9
$THICKNESS
 40
0.0
  9
$LIMCHECK
 70
     0
  9
$CHAMFERA
 40
0.5
  9
$CHAMFERB
 40
0.5
  9
$CHAMFERC
 40
1.0
  9
$CHAMFERD
 40
0.0
  9
$SKPOLY
 70
     0
  9
$TDCREATE
 40
2457917.628796285
  9
$TDUCREATE
 40
2457917.253796296
  9
$TDUPDATE
 40
2457917.628796285
  9
$TDUUPDATE
 40
2457917.253796296
  9
$TDINDWG
 40
0.0000000116
  9
$TDUSRTIMER
 40
0.0000000116
  9
$USRTIMER
 70
     1
  9
$ANGBASE
 50
0.0
  9
$ANGDIR
 70
     0
  9
$PDMODE
 70
     0
  9
$PDSIZE
 40
0.0
  9
$PLINEWID
 40
0.0
  9
$SPLFRAME
 70
     0
  9
$SPLINETYPE
 70
     6
  9
$SPLINESEGS
 70
     8
  9
$HANDSEED
  5
28B
  9
$SURFTAB1
 70
     6
  9
$SURFTAB2
 70
     6
  9
$SURFTYPE
 70
     6
  9
$SURFU
 70
     6
  9
$SURFV
 70
     6
  9
$UCSBASE
  2

  9
$UCSNAME
  2

  9
$UCSORG
 10
0.0
 20
0.0
 30
0.0
  9
$UCSXDIR
 10
1.0
 20
0.0
 30
0.0
  9
$UCSYDIR
 10
0.0
 20
1.0
 30
0.0
  9
$UCSORTHOREF
  2

  9
$UCSORTHOVIEW
 70
     0
  9
$UCSORGTOP
 10
0.0
 20
0.0
 30
0.0
  9
$UCSORGBOTTOM
 10
0.0
 20
0.0
 30
0.0
  9
$UCSORGLEFT
 10
0.0
 20
0.0
 30
0.0
  9
$UCSORGRIGHT
 10
0.0
 20
0.0
 30
0.0
  9
$UCSORGFRONT
 10
0.0
 20
0.0
 30
0.0
  9
$UCSORGBACK
 10
0.0
 20
0.0
 30
0.0
  9
$PUCSBASE
  2

  9
$PUCSNAME
  2

  9
$PUCSORG
 10
0.0
 20
0.0
 30
0.0
  9
$PUCSXDIR
 10
1.0
 20
0.0
 30
0.0
  9
$PUCSYDIR
 10
0.0
 20
1.0
 30
0.0
  9
$PUCSORTHOREF
  2

  9
$PUCSORTHOVIEW
 70
     0
  9
$PUCSORGTOP
 10
0.0
 20
0.0
 30
0.0
  9
$PUCSORGBOTTOM
 10
0.0
 20
0.0
 30
0.0
  9
$PUCSORGLEFT
 10
0.0
 20
0.0
 30
0.0
  9
$PUCSORGRIGHT
 10
0.0
 20
0.0
 30
0.0
  9
$PUCSORGFRONT
 10
0.0
 20
0.0
 30
0.0
  9
$PUCSORGBACK
 10
0.0
 20
0.0
 30
0.0
  9
$USERI1
 70
     0
  9
$USERI2
 70
     0
  9
$USERI3
 70
     0
  9
$USERI4
 70
     0
  9
$USERI5
 70
     0
  9
$USERR1
 40
0.0
  9
$USERR2
 40
0.0
  9
$USERR3
 40
0.0
  9
$USERR4
 40
0.0
  9
$USERR5
 40
0.0
  9
$WORLDVIEW
 70
     1
  9
$SHADEDGE
 70
     3
  9
$SHADEDIF
 70
    70
  9
$TILEMODE
 70
     1
  9
$MAXACTVP
 70
    64
  9
$PINSBASE
 10
0.0
 20
0.0
 30
0.0
  9
$PLIMCHECK
 70
     0
  9
$PEXTMIN
 10
1.000000000000000E+20
 20
1.000000000000000E+20
 30
1.000000000000000E+20
  9
$PEXTMAX
 10
-1.000000000000000E+20
 20
-1.000000000000000E+20
 30
-1.000000000000000E+20
  9
$PLIMMIN
 10
0.0
 20
0.0
  9
$PLIMMAX
 10
12.0
 20
9.0
  9
$UNITMODE
 70
     0
  9
$VISRETAIN
 70
     1
  9
$PLINEGEN
 70
     0
  9
$PSLTSCALE
 70
     1
  9
$TREEDEPTH
 70
  3020
  9
$CMLSTYLE
  2
Standard
  9
$CMLJUST
 70
     0
  9
$CMLSCALE
 40
1.0
  9
$PROXYGRAPHICS
 70
     1
  9
$MEASUREMENT
 70
     0
  9
$CELWEIGHT
370
    -1
  9
$ENDCAPS
280
     0
  9
$JOINSTYLE
280
     0
  9
$LWDISPLAY
290
     1
  9
$INSUNITS
 70
     1
  9
$HYPERLINKBASE
  1

  9
$STYLESHEET
  1

  9
$XEDIT
290
     1
  9
$CEPSNTYPE
380
     0
  9
$PSTYLEMODE
290
     1
  9
$FINGERPRINTGUID
  2
{F4D32F9C-DFE4-8E90-A6CB-94A7AEB692CF}
  9
$VERSIONGUID
  2
{FAEB1C32-E019-11D5-929B-00C0DF256EC4}
  9
$EXTNAMES
290
     1
  9
$PSVPSCALE
 40
0.0
  9
$OLESTARTUP
290
     0
  9
$SORTENTS
280
   127
  9
$INDEXCTL
280
     0
  9
$HIDETEXT
280
     1
  9
$XCLIPFRAME
280
     2
  9
$HALOGAP
280
     0
  9
$OBSCOLOR
 70
   257
  9
$OBSLTYPE
280
     0
  9
$INTERSECTIONDISPLAY
280
     0
  9
$INTERSECTIONCOLOR
 70
   257
  9
$DIMASSOC
280
     2
  9
$PROJECTNAME
  1

  9
$CAMERADISPLAY
290
     0
  9
$LENSLENGTH
 40
50.0
  9
$CAMERAHEIGHT
 40
0.0
  9
$STEPSPERSEC
 40
2.0
  9
$STEPSIZE
 40
6.0
  9
$3DDWFPREC
 40
2.0
  9
$PSOLWIDTH
 40
0.25
  9
$PSOLHEIGHT
 40
4.0
  9
$LOFTANG1
 40
1.570796326794897
  9
$LOFTANG2
 40
1.570796326794897
  9
$LOFTMAG1
 40
0.0
  9
$LOFTMAG2
 40
0.0
  9
$LOFTPARAM
 70
     7
  9
$LOFTNORMALS
280
     1
  9
$LATITUDE
 40
37.795
  9
$LONGITUDE
 40
-122.394
  9
$NORTHDIRECTION
 40
0.0
  9
$TIMEZONE
 70
 -8000
  9
$LIGHTGLYPHDISPLAY
280
     1
  9
$TILEMODELIGHTSYNCH
280
     1
  9
$CMATERIAL
347
3C
  9
$SOLIDHIST
280
     1
  9
$SHOWHIST
280
     1
  9
$DWFFRAME
280
     2
  9
$DGNFRAME
280
     2
  9
$REALWORLDSCALE
290
     1
  9
$INTERFERECOLOR
 62
   256
  9
$CSHADOW
280
     0
  9
$SHADOWPLANELOCATION
 40
0.0
  0
ENDSEC
  0
SECTION
  2
CLASSES
  0
CLASS
  1
ACDBDICTIONARYWDFLT
  2
AcDbDictionaryWithDefault
  3
ObjectDBX Classes
 90
        0
 91
        4
280
     0
281
     0
  0
CLASS
  1
VISUALSTYLE
  2
AcDbVisualStyle
  3
ObjectDBX Classes
 90
     4095
 91
        4
280
     0
281
     0
  0
CLASS
  1
MATERIAL
  2
AcDbMaterial
  3
ObjectDBX Classes
 90
     1153
 91
        4
280
     0
281
     0
  0
CLASS
  1
SUN
  2
AcDbSun
  3
SCENEOE
 90
     1024
 91
        4
280
     0
281
     0
  0
ENDSEC
  0
SECTION
  2
TABLES
  0
TABLE
  2
VPORT
  5
8
330
0
100
AcDbSymbolTable
 70
     1
  0
VPORT
  5
29
330
8
100
AcDbSymbolTableRecord
100
AcDbViewportTableRecord
  2
*Active
 70
     0
 10
0.0
 20
0.0
 11
1.0
 21
1.0
 12
0.0
 22
0.0
 13
0.0
 23
0.0
 14
0.5
 24
0.5
 15
0.5
 25
0.5
 16
0.0
 26
0.0
 36
1.0
 17
91.00082462281999
 27
-128.4993055234307
 37
0.0
 40
256.9986110468615
 41
0.7081814508812795
 42
50.0
 43
0.0
 44
0.0
 50
0.0
 51
0.0
 71
     0
 72
   100
 73
     1
 74
     3
 75
     0
 76
     0
 77
     0
 78
     0
281
     0
 65
     1
110
0.0
120
0.0
130
0.0
111
1.0
121
0.0
131
0.0
112
0.0
122
1.0
132
0.0
 79
     0
146
0.0
 60
     3
 61
     5
292
     1
282
     1
141
0.0
142
0.0
 63
   250
361
3F
  0
ENDTAB
  0
TABLE
  2
LTYPE
  5
5
330
0
100
AcDbSymbolTable
 70
     1
  0
LTYPE
  5
14
330
5
100
AcDbSymbolTableRecord
100
AcDbLinetypeTableRecord
  2
ByBlock
 70
     0
  3

 72
    65
 73
     0
 40
0.0
  0
LTYPE
  5
15
330
5
100
AcDbSymbolTableRecord
100
AcDbLinetypeTableRecord
  2
ByLayer
 70
     0
  3

 72
    65
 73
     0
 40
0.0
  0
LTYPE
  5
16
330
5
100
AcDbSymbolTableRecord
100
AcDbLinetypeTableRecord
  2
Continuous
 70
     0
  3
Solid line
 72
    65
 73
     0
 40
0.0
  0
ENDTAB
  0
TABLE
  2
LAYER
  5
2
330
0
100
AcDbSymbolTable
 70
     2
  0
LAYER
  5
10
330
2
100
AcDbSymbolTableRecord
100
AcDbLayerTableRecord
  2
0
 70
     0
 62
     7
  6
Continuous
370
    -3
390
F
347
3E
  0
LAYER
  5
40
330
2
100
AcDbSymbolTableRecord
100
AcDbLayerTableRecord
  2
_U+30EC_U+30A4_U+30E4_U+30FC 1
 70
     0
 62
     7
  6
Continuous
370
    -3
390
F
347
3E
  0
ENDTAB
  0
TABLE
  2
STYLE
  5
3
330
0
100
AcDbSymbolTable
 70
     1
  0
STYLE
  5
11
330
3
100
AcDbSymbolTableRecord
100
AcDbTextStyleTableRecord
  2
Standard
 70
     0
 40
0.0
 41
1.0
 50
0.0
 71
     0
 42
0.2
  3
txt
  4

  0
ENDTAB
  0
TABLE
  2
VIEW
  5
6
330
0
100
AcDbSymbolTable
 70
     0
  0
ENDTAB
  0
TABLE
  2
UCS
  5
7
330
0
100
AcDbSymbolTable
 70
     0
  0
ENDTAB
  0
TABLE
  2
APPID
  5
9
330
0
100
AcDbSymbolTable
 70
     1
  0
APPID
  5
12
330
9
100
AcDbSymbolTableRecord
100
AcDbRegAppTableRecord
  2
ACAD
 70
     0
  0
ENDTAB
  0
TABLE
  2
DIMSTYLE
  5
A
330
0
100
AcDbSymbolTable
 70
     1
100
AcDbDimStyleTable
  0
DIMSTYLE
105
27
330
A
100
AcDbSymbolTableRecord
100
AcDbDimStyleTableRecord
  2
Standard
 70
     0
178
     0
340
11
  0
ENDTAB
  0
TABLE
  2
BLOCK_RECORD
  5
1
330
0
100
AcDbSymbolTable
 70
    48
  0
BLOCK_RECORD
  5
1F
330
1
100
AcDbSymbolTableRecord
100
AcDbBlockTableRecord
  2
*Model_Space
340
22
 70
     0
280
     1
281
     0
  0
BLOCK_RECORD
  5
1B
330
1
100
AcDbSymbolTableRecord
100
AcDbBlockTableRecord
  2
*Paper_Space
340
1E
 70
     0
280
     1
281
     0
  0
BLOCK_RECORD
  5
23
330
1
100
AcDbSymbolTableRecord
100
AcDbBlockTableRecord
  2
*Paper_Space0
340
26
 70
     0
280
     1
281
     0
  0
BLOCK_RECORD
  5
44
330
1
100
AcDbSymbolTableRecord
100
AcDbBlockTableRecord
  2
block 2
340
0
102
{BLKREFS
331
45
102
}
 70
     0
280
     1
281
     0
  0
BLOCK_RECORD
  5
D8
330
1
100
AcDbSymbolTableRecord
100
AcDbBlockTableRecord
  2
block 3
340
0
102
{BLKREFS
331
D9
102
}
 70
     0
280
     1
281
     0
  0
BLOCK_RECORD
  5
E8
330
1
100
AcDbSymbolTableRecord
100
AcDbBlockTableRecord
  2
block 4
340
0
102
{BLKREFS
331
E9
102
}
 70
     0
280
     1
281
     0
  0
BLOCK_RECORD
  5
F1
330
1
100
AcDbSymbolTableRecord
100
AcDbBlockTableRecord
  2
block 5
340
0
102
{BLKREFS
331
F2
102
}
 70
     0
280
     1
281
     0
  0
BLOCK_RECORD
  5
F6
330
1
100
AcDbSymbolTableRecord
100
AcDbBlockTableRecord
  2
block 6
340
0
102
{BLKREFS
331
F7
102
}
 70
     0
280
     1
281
     0
  0
BLOCK_RECORD
  5
FB
330
1
100
AcDbSymbolTableRecord
100
AcDbBlockTableRecord
  2
block 7
340
0
102
{BLKREFS
331
FC
102
}
 70
     0
280
     1
281
     0
  0
BLOCK_RECORD
  5
100
330
1
100
AcDbSymbolTableRecord
100
AcDbBlockTableRecord
  2
block 8
340
0
102
{BLKREFS
331
101
102
}
 70
     0
280
     1
281
     0
  0
BLOCK_RECORD
  5
10C
330
1
100
AcDbSymbolTableRecord
100
AcDbBlockTableRecord
  2
block 9
340
0
102
{BLKREFS
331
10D
102
}
 70
     0
280
     1
281
     0
  0
BLOCK_RECORD
  5
114
330
1
100
AcDbSymbolTableRecord
100
AcDbBlockTableRecord
  2
block 10
340
0
102
{BLKREFS
331
115
102
}
 70
     0
280
     1
281
     0
  0
BLOCK_RECORD
  5
119
330
1
100
AcDbSymbolTableRecord
100
AcDbBlockTableRecord
  2
block 11
340
0
102
{BLKREFS
331
11A
102
}
 70
     0
280
     1
281
     0
  0
BLOCK_RECORD
  5
11E
330
1
100
AcDbSymbolTableRecord
100
AcDbBlockTableRecord
  2
block 12
340
0
102
{BLKREFS
331
11F
102
}
 70
     0
280
     1
281
     0
  0
BLOCK_RECORD
  5
123
330
1
100
AcDbSymbolTableRecord
100
AcDbBlockTableRecord
  2
block 13
340
0
102
{BLKREFS
331
124
102
}
 70
     0
280
     1
281
     0
  0
BLOCK_RECORD
  5
127
330
1
100
AcDbSymbolTableRecord
100
AcDbBlockTableRecord
  2
block 14
340
0
102
{BLKREFS
331
128
102
}
 70
     0
280
     1
281
     0
  0
BLOCK_RECORD
  5
12C
330
1
100
AcDbSymbolTableRecord
100
AcDbBlockTableRecord
  2
block 15
340
0
102
{BLKREFS
331
12D
102
}
 70
     0
280
     1
281
     0
  0
BLOCK_RECORD
  5
15F
330
1
100
AcDbSymbolTableRecord
100
AcDbBlockTableRecord
  2
block 16
340
0
102
{BLKREFS
331
160
102
}
 70
     0
280
     1
281
     0
  0
BLOCK_RECORD
  5
178
330
1
100
AcDbSymbolTableRecord
100
AcDbBlockTableRecord
  2
block 17
340
0
102
{BLKREFS
331
179
102
}
 70
     0
280
     1
281
     0
  0
BLOCK_RECORD
  5
193
330
1
100
AcDbSymbolTableRecord
100
AcDbBlockTableRecord
  2
block 18
340
0
102
{BLKREFS
331
194
102
}
 70
     0
280
     1
281
     0
  0
BLOCK_RECORD
  5
1AC
330
1
100
AcDbSymbolTableRecord
100
AcDbBlockTableRecord
  2
block 19
340
0
102
{BLKREFS
331
1AD
102
}
 70
     0
280
     1
281
     0
  0
BLOCK_RECORD
  5
1B1
330
1
100
AcDbSymbolTableRecord
100
AcDbBlockTableRecord
  2
block 20
340
0
102
{BLKREFS
331
1B2
102
}
 70
     0
280
     1
281
     0
  0
BLOCK_RECORD
  5
1B6
330
1
100
AcDbSymbolTableRecord
100
AcDbBlockTableRecord
  2
block 21
340
0
102
{BLKREFS
331
1B7
102
}
 70
     0
280
     1
281
     0
  0
BLOCK_RECORD
  5
1BB
330
1
100
AcDbSymbolTableRecord
100
AcDbBlockTableRecord
  2
block 22
340
0
102
{BLKREFS
331
1BC
102
}
 70
     0
280
     1
281
     0
  0
BLOCK_RECORD
  5
1BF
330
1
100
AcDbSymbolTableRecord
100
AcDbBlockTableRecord
  2
block 23
340
0
102
{BLKREFS
331
1C0
102
}
 70
     0
280
     1
281
     0
  0
BLOCK_RECORD
  5
1C4
330
1
100
AcDbSymbolTableRecord
100
AcDbBlockTableRecord
  2
block 24
340
0
102
{BLKREFS
331
1C5
102
}
 70
     0
280
     1
281
     0
  0
BLOCK_RECORD
  5
1C8
330
1
100
AcDbSymbolTableRecord
100
AcDbBlockTableRecord
  2
block 25
340
0
102
{BLKREFS
331
1C9
102
}
 70
     0
280
     1
281
     0
  0
BLOCK_RECORD
  5
1CD
330
1
100
AcDbSymbolTableRecord
100
AcDbBlockTableRecord
  2
block 26
340
0
102
{BLKREFS
331
1CE
102
}
 70
     0
280
     1
281
     0
  0
BLOCK_RECORD
  5
1D2
330
1
100
AcDbSymbolTableRecord
100
AcDbBlockTableRecord
  2
block 27
340
0
102
{BLKREFS
331
1D3
102
}
 70
     0
280
     1
281
     0
  0
BLOCK_RECORD
  5
1E2
330
1
100
AcDbSymbolTableRecord
100
AcDbBlockTableRecord
  2
block 28
340
0
102
{BLKREFS
331
1E3
102
}
 70
     0
280
     1
281
     0
  0
BLOCK_RECORD
  5
1EB
330
1
100
AcDbSymbolTableRecord
100
AcDbBlockTableRecord
  2
block 29
340
0
102
{BLKREFS
331
1EC
102
}
 70
     0
280
     1
281
     0
  0
BLOCK_RECORD
  5
1F0
330
1
100
AcDbSymbolTableRecord
100
AcDbBlockTableRecord
  2
block 30
340
0
102
{BLKREFS
331
1F1
102
}
 70
     0
280
     1
281
     0
  0
BLOCK_RECORD
  5
1F5
330
1
100
AcDbSymbolTableRecord
100
AcDbBlockTableRecord
  2
block 31
340
0
102
{BLKREFS
331
1F6
102
}
 70
     0
280
     1
281
     0
  0
BLOCK_RECORD
  5
1FA
330
1
100
AcDbSymbolTableRecord
100
AcDbBlockTableRecord
  2
block 32
340
0
102
{BLKREFS
331
1FB
102
}
 70
     0
280
     1
281
     0
  0
BLOCK_RECORD
  5
206
330
1
100
AcDbSymbolTableRecord
100
AcDbBlockTableRecord
  2
block 33
340
0
102
{BLKREFS
331
207
102
}
 70
     0
280
     1
281
     0
  0
BLOCK_RECORD
  5
20F
330
1
100
AcDbSymbolTableRecord
100
AcDbBlockTableRecord
  2
block 34
340
0
102
{BLKREFS
331
210
102
}
 70
     0
280
     1
281
     0
  0
BLOCK_RECORD
  5
214
330
1
100
AcDbSymbolTableRecord
100
AcDbBlockTableRecord
  2
block 35
340
0
102
{BLKREFS
331
215
102
}
 70
     0
280
     1
281
     0
  0
BLOCK_RECORD
  5
219
330
1
100
AcDbSymbolTableRecord
100
AcDbBlockTableRecord
  2
block 36
340
0
102
{BLKREFS
331
21A
102
}
 70
     0
280
     1
281
     0
  0
BLOCK_RECORD
  5
21E
330
1
100
AcDbSymbolTableRecord
100
AcDbBlockTableRecord
  2
block 37
340
0
102
{BLKREFS
331
21F
102
}
 70
     0
280
     1
281
     0
  0
BLOCK_RECORD
  5
22A
330
1
100
AcDbSymbolTableRecord
100
AcDbBlockTableRecord
  2
block 38
340
0
102
{BLKREFS
331
22B
102
}
 70
     0
280
     1
281
     0
  0
BLOCK_RECORD
  5
232
330
1
100
AcDbSymbolTableRecord
100
AcDbBlockTableRecord
  2
block 39
340
0
102
{BLKREFS
331
233
102
}
 70
     0
280
     1
281
     0
  0
BLOCK_RECORD
  5
237
330
1
100
AcDbSymbolTableRecord
100
AcDbBlockTableRecord
  2
block 40
340
0
102
{BLKREFS
331
238
102
}
 70
     0
280
     1
281
     0
  0
BLOCK_RECORD
  5
23C
330
1
100
AcDbSymbolTableRecord
100
AcDbBlockTableRecord
  2
block 41
340
0
102
{BLKREFS
331
23D
102
}
 70
     0
280
     1
281
     0
  0
BLOCK_RECORD
  5
241
330
1
100
AcDbSymbolTableRecord
100
AcDbBlockTableRecord
  2
block 42
340
0
102
{BLKREFS
331
242
102
}
 70
     0
280
     1
281
     0
  0
BLOCK_RECORD
  5
24D
330
1
100
AcDbSymbolTableRecord
100
AcDbBlockTableRecord
  2
block 43
340
0
102
{BLKREFS
331
24E
102
}
 70
     0
280
     1
281
     0
  0
BLOCK_RECORD
  5
266
330
1
100
AcDbSymbolTableRecord
100
AcDbBlockTableRecord
  2
block 44
340
0
102
{BLKREFS
331
267
102
}
 70
     0
280
     1
281
     0
  0
BLOCK_RECORD
  5
26C
330
1
100
AcDbSymbolTableRecord
100
AcDbBlockTableRecord
  2
block 45
340
0
102
{BLKREFS
331
26D
102
}
 70
     0
280
     1
281
     0
  0
BLOCK_RECORD
  5
271
330
1
100
AcDbSymbolTableRecord
100
AcDbBlockTableRecord
  2
block 46
340
0
102
{BLKREFS
331
272
102
}
 70
     0
280
     1
281
     0
  0
BLOCK_RECORD
  5
276
330
1
100
AcDbSymbolTableRecord
100
AcDbBlockTableRecord
  2
block 47
340
0
102
{BLKREFS
331
277
102
}
 70
     0
280
     1
281
     0
  0
BLOCK_RECORD
  5
284
330
1
100
AcDbSymbolTableRecord
100
AcDbBlockTableRecord
  2
block 48
340
0
102
{BLKREFS
331
285
102
}
 70
     0
280
     1
281
     0
  0
ENDTAB
  0
ENDSEC
  0
SECTION
  2
BLOCKS
  0
BLOCK
  5
20
330
1F
100
AcDbEntity
  8
0
100
AcDbBlockBegin
  2
*Model_Space
 70
     0
 10
0.0
 20
0.0
 30
0.0
  3
*Model_Space
  1

  0
ENDBLK
  5
21
330
1F
100
AcDbEntity
  8
0
100
AcDbBlockEnd
  0
BLOCK
  5
1C
330
1B
100
AcDbEntity
 67
     1
  8
0
100
AcDbBlockBegin
  2
*Paper_Space
 70
     0
 10
0.0
 20
0.0
 30
0.0
  3
*Paper_Space
  1

  0
ENDBLK
  5
1D
330
1B
100
AcDbEntity
 67
     1
  8
0
100
AcDbBlockEnd
  0
BLOCK
  5
24
330
23
100
AcDbEntity
  8
0
100
AcDbBlockBegin
  2
*Paper_Space0
 70
     0
 10
0.0
 20
0.0
 30
0.0
  3
*Paper_Space0
  1

  0
ENDBLK
  5
25
330
23
100
AcDbEntity
  8
0
100
AcDbBlockEnd
  0
BLOCK
  5
46
330
44
100
AcDbEntity
  8
0
100
AcDbBlockBegin
  2
block 2
 70
     0
 10
0.0
 20
0.0
 30
0.0
  3
block 2
  1

  0
SPLINE
  5
48
330
44
100
AcDbEntity
  8
_U+30EC_U+30A4_U+30E4_U+30FC 1
370
     0
100
AcDbSpline
210
0.0
220
0.0
230
1.0
 70
    11
 71
     3
 72
   185
 73
   181
 74
     0
 42
0.0000000001
 43
0.0000000001
 12
1.0
 22
0.0
 32
0.0
 13
1.0
 23
0.0
 33
0.0
 40
0.0
 40
0.0
 40
0.0
 40
0.0
 40
1.0
 40
1.0
 40
1.0
 40
2.0
 40
2.0
 40
2.0
 40
3.0
 40
3.0
 40
3.0
 40
4.0
 40
4.0
 40
4.0
 40
5.0
 40
5.0
 40
5.0
 40
6.0
 40
6.0
 40
6.0
 40
7.0
 40
7.0
 40
7.0
 40
8.0
 40
8.0
 40
8.0
 40
9.0
 40
9.0
 40
9.0
 40
10.0
 40
10.0
 40
10.0
 40
11.0
 40
11.0
 40
11.0
 40
12.0
 40
12.0
 40
12.0
 40
13.0
 40
13.0
 40
13.0
 40
14.0
 40
14.0
 40
14.0
 40
15.0
 40
15.0
 40
15.0
 40
16.0
 40
16.0
 40
16.0
 40
17.0
 40
17.0
 40
17.0
 40
18.0
 40
18.0
 40
18.0
 40
19.0
 40
19.0
 40
19.0
 40
20.0
 40
20.0
 40
20.0
 40
21.0
 40
21.0
 40
21.0
 40
22.0
 40
22.0
 40
22.0
 40
23.0
 40
23.0
 40
23.0
 40
24.0
 40
24.0
 40
24.0
 40
25.0
 40
25.0
 40
25.0
 40
26.0
 40
26.0
 40
26.0
 40
27.0
 40
27.0
 40
27.0
 40
28.0
 40
28.0
 40
28.0
 40
29.0
 40
29.0
 40
29.0
 40
30.0
 40
30.0
 40
30.0
 40
31.0
 40
31.0
 40
31.0
 40
32.0
 40
32.0
 40
32.0
 40
33.0
 40
33.0
 40
33.0
 40
34.0
 40
34.0
 40
34.0
 40
35.0
 40
35.0
 40
35.0
 40
36.0
 40
36.0
 40
36.0
 40
37.0
 40
37.0
 40
37.0
 40
38.0
 40
38.0
 40
38.0
 40
39.0
 40
39.0
 40
39.0
 40
40.0
 40
40.0
 40
40.0
 40
41.0
 40
41.0
 40
41.0
 40
42.0
 40
42.0
 40
42.0
 40
43.0
 40
43.0
 40
43.0
 40
44.0
 40
44.0
 40
44.0
 40
45.0
 40
45.0
 40
45.0
 40
46.0
 40
46.0
 40
46.0
 40
47.0
 40
47.0
 40
47.0
 40
48.0
 40
48.0
 40
48.0
 40
49.0
 40
49.0
 40
49.0
 40
50.0
 40
50.0
 40
50.0
 40
51.0
 40
51.0
 40
51.0
 40
52.0
 40
52.0
 40
52.0
 40
53.0
 40
53.0
 40
53.0
 40
54.0
 40
54.0
 40
54.0
 40
55.0
 40
55.0
 40
55.0
 40
56.0
 40
56.0
 40
56.0
 40
57.0
 40
57.0
 40
57.0
 40
58.0
 40
58.0
 40
58.0
 40
59.0
 40
59.0
 40
59.0
 40
60.0
 40
60.0
 40
60.0
 40
60.0
 10
98.58657219757578
 20
-121.2425608030226
 30
0.0
 10
98.58657219757578
 20
-121.2425608030226
 30
0.0
 10
97.60574167653674
 20
-120.86152552534
 30
0.0
 10
97.60574167653674
 20
-120.86152552534
 30
0.0
 10
97.45073112493583
 20
-121.1323177474946
 30
0.0
 10
97.22611751955509
 20
-121.3569313585496
 30
0.0
 10
96.95532775353921
 20
-121.5119771918443
 30
0.0
 10
96.11610227009616
 20
-121.9915080250578
 30
0.0
 10
95.04707979736921
 20
-121.7000783029083
 30
0.0
 10
94.56751369849285
 20
-120.86152552534
 30
0.0
 10
94.08763009962458
 20
-120.0223024699944
 30
0.0
 10
94.37909509218869
 20
-118.9529624702619
 30
0.0
 10
95.2179653485651
 20
-118.4733963592706
 30
0.0
 10
96.0571883827103
 20
-117.9938302482793
 30
0.0
 10
97.12621085543726
 20
-118.2852952482066
 30
0.0
 10
97.60574167653674
 20
-119.123812747997
 30
0.0
 10
97.60574167653674
 20
-119.123812747997
 30
0.0
 10
98.58657219757578
 20
-118.7428127480919
 30
0.0
 10
98.58657219757578
 20
-118.7428127480919
 30
0.0
 10
98.58657219757578
 20
-118.7428127480919
 30
0.0
 10
98.58657219757578
 20
-111.9924805275574
 30
0.0
 10
98.58657219757578
 20
-111.9924805275574
 30
0.0
 10
98.58657219757578
 20
-111.9924805275574
 30
0.0
 10
94.5864578646762
 20
-111.9924805275574
 30
0.0
 10
94.5864578646762
 20
-111.9924805275574
 30
0.0
 10
94.5864578646762
 20
-111.9924805275574
 30
0.0
 10
94.5864578646762
 20
-113.9926952492795
 30
0.0
 10
94.5864578646762
 20
-113.9926952492795
 30
0.0
 10
94.5864578646762
 20
-113.9926952492795
 30
0.0
 10
96.58670781364557
 20
-113.9926952492795
 30
0.0
 10
96.58670781364557
 20
-113.9926952492795
 30
0.0
 10
96.58670781364557
 20
-113.9926952492795
 30
0.0
 10
96.58670781364557
 20
-116.9926821929742
 30
0.0
 10
96.58670781364557
 20
-116.9926821929742
 30
0.0
 10
96.58670781364557
 20
-116.9926821929742
 30
0.0
 10
84.58672506423508
 20
-116.9926821929742
 30
0.0
 10
84.58672506423508
 20
-116.9926821929742
 30
0.0
 10
84.58672506423508
 20
-116.9926821929742
 30
0.0
 10
84.58672506423508
 20
-113.9926952492795
 30
0.0
 10
84.58672506423508
 20
-113.9926952492795
 30
0.0
 10
84.58672506423508
 20
-113.9926952492795
 30
0.0
 10
86.58662223543568
 20
-113.9926952492795
 30
0.0
 10
86.58662223543568
 20
-113.9926952492795
 30
0.0
 10
86.58662223543568
 20
-113.9926952492795
 30
0.0
 10
86.58662223543568
 20
-111.9924805275574
 30
0.0
 10
86.58662223543568
 20
-111.9924805275574
 30
0.0
 10
86.58662223543568
 20
-111.9924805275574
 30
0.0
 10
82.58651039304259
 20
-111.9924805275574
 30
0.0
 10
82.58651039304259
 20
-111.9924805275574
 30
0.0
 10
82.58651039304259
 20
-111.9924805275574
 30
0.0
 10
82.58651039304259
 20
-118.7428127480919
 30
0.0
 10
82.58651039304259
 20
-118.7428127480919
 30
0.0
 10
82.58651039304259
 20
-118.7428127480919
 30
0.0
 10
83.56733842357514
 20
-119.123812747997
 30
0.0
 10
83.56733842357514
 20
-119.123812747997
 30
0.0
 10
83.72234897517605
 20
-118.85305580362
 30
0.0
 10
83.94699997901327
 20
-118.6284069147875
 30
0.0
 10
84.2181075736393
 20
-118.4733963592706
 30
0.0
 10
85.05697783001571
 20
-117.9938302482793
 30
0.0
 10
86.12600030274268
 20
-118.2852952482066
 30
0.0
 10
86.60591917938781
 20
-119.123812747997
 30
0.0
 10
87.0854500004873
 20
-119.9630358033426
 30
0.0
 10
86.79437306346884
 20
-121.032411080853
 30
0.0
 10
85.95511475154677
 20
-121.5119771918443
 30
0.0
 10
85.11624449517036
 20
-121.9915080250578
 30
0.0
 10
84.04722202244339
 20
-121.7000783029083
 30
0.0
 10
83.56733842357514
 20
-120.86152552534
 30
0.0
 10
83.56733842357514
 20
-120.86152552534
 30
0.0
 10
82.58651039304259
 20
-121.2425608030226
 30
0.0
 10
82.58651039304259
 20
-121.2425608030226
 30
0.0
 10
82.58651039304259
 20
-121.2425608030226
 30
0.0
 10
82.58651039304259
 20
-128.9926299677519
 30
0.0
 10
82.58651039304259
 20
-128.9926299677519
 30
0.0
 10
82.58651039304259
 20
-128.9926299677519
 30
0.0
 10
74.58667476380207
 20
-128.9926299677519
 30
0.0
 10
74.58667476380207
 20
-128.9926299677519
 30
0.0
 10
74.58667476380207
 20
-128.9926299677519
 30
0.0
 10
74.58667476380207
 20
-144.2423666306061
 30
0.0
 10
74.58667476380207
 20
-144.2423666306061
 30
0.0
 10
74.58667476380207
 20
-144.7453571860356
 30
0.0
 10
74.33482671467169
 20
-145.2145516303628
 30
0.0
 10
73.91590311424821
 20
-145.4922230191827
 30
0.0
 10
73.22551702075032
 20
-145.9504460746236
 30
0.0
 10
72.29464232227669
 20
-145.7616394080041
 30
0.0
 10
71.83645455618824
 20
-145.0712532970655
 30
0.0
 10
71.37858609326634
 20
-144.3808671861268
 30
0.0
 10
71.56703817417275
 20
-143.4499924641375
 30
0.0
 10
72.25742426767064
 20
-142.9924749642521
 30
0.0
 10
72.25742426767064
 20
-142.9924749642521
 30
0.0
 10
69.81726044103551
 20
-142.9924749642521
 30
0.0
 10
69.81726044103551
 20
-142.9924749642521
 30
0.0
 10
69.54202498261463
 20
-143.7124944085162
 30
0.0
 10
69.51203887151101
 20
-144.5034927416521
 30
0.0
 10
69.732524982567
 20
-145.2421388525781
 30
0.0
 10
69.732524982567
 20
-145.2421388525781
 30
0.0
 10
68.08646387186735
 20
-145.2421388525781
 30
0.0
 10
68.08646387186735
 20
-145.2421388525781
 30
0.0
 10
68.08646387186735
 20
-145.2421388525781
 30
0.0
 10
68.08646387186735
 20
-143.992247186224
 30
0.0
 10
68.08646387186735
 20
-143.992247186224
 30
0.0
 10
68.08646387186735
 20
-143.992247186224
 30
0.0
 10
68.58666575020838
 20
-143.992247186224
 30
0.0
 10
68.58666575020838
 20
-143.992247186224
 30
0.0
 10
68.58666575020838
 20
-143.992247186224
 30
0.0
 10
68.58666575020838
 20
-142.9924749642521
 30
0.0
 10
68.58666575020838
 20
-142.9924749642521
 30
0.0
 10
68.58666575020838
 20
-142.9924749642521
 30
0.0
 10
66.5864527611311
 20
-142.9924749642521
 30
0.0
 10
66.5864527611311
 20
-142.9924749642521
 30
0.0
 10
66.5864527611311
 20
-142.9924749642521
 30
0.0
 10
66.5864527611311
 20
-146.9922341299183
 30
0.0
 10
66.5864527611311
 20
-146.9922341299183
 30
0.0
 10
66.5864527611311
 20
-146.9922341299183
 30
0.0
 10
76.58653665722578
 20
-146.9922341299183
 30
0.0
 10
76.58653665722578
 20
-146.9922341299183
 30
0.0
 10
76.58653665722578
 20
-146.9922341299183
 30
0.0
 10
76.58653665722578
 20
-130.9921744116963
 30
0.0
 10
76.58653665722578
 20
-130.9921744116963
 30
0.0
 10
76.58653665722578
 20
-130.9921744116963
 30
0.0
 10
86.58662223543568
 20
-130.9921744116963
 30
0.0
 10
86.58662223543568
 20
-130.9921744116963
 30
0.0
 10
86.58662223543568
 20
-130.9921744116963
 30
0.0
 10
86.58662223543568
 20
-128.9926299677519
 30
0.0
 10
86.58662223543568
 20
-128.9926299677519
 30
0.0
 10
86.58662223543568
 20
-128.9926299677519
 30
0.0
 10
84.58672506423508
 20
-128.9926299677519
 30
0.0
 10
84.58672506423508
 20
-128.9926299677519
 30
0.0
 10
84.58672506423508
 20
-128.9926299677519
 30
0.0
 10
84.58672506423508
 20
-123.3054641358402
 30
0.0
 10
84.58672506423508
 20
-123.3054641358402
 30
0.0
 10
86.4160916450626
 20
-123.5810894135493
 30
0.0
 10
88.12279302957803
 20
-122.3222371916417
 30
0.0
 10
88.3990885780847
 20
-120.4929080254322
 30
0.0
 10
88.47486524281814
 20
-119.9906230255579
 30
0.0
 10
88.43560107715318
 20
-119.4772960812418
 30
0.0
 10
88.28401246990943
 20
-118.9928969146963
 30
0.0
 10
88.28401246990943
 20
-118.9928969146963
 30
0.0
 10
90.21155492073372
 20
-118.9928969146963
 30
0.0
 10
90.21155492073372
 20
-118.9928969146963
 30
0.0
 10
90.21155492073372
 20
-118.9928969146963
 30
0.0
 10
90.58673407782877
 20
-118.3431508037476
 30
0.0
 10
90.58673407782877
 20
-118.3431508037476
 30
0.0
 10
90.58673407782877
 20
-118.3431508037476
 30
0.0
 10
90.96156045715503
 20
-118.9928969146963
 30
0.0
 10
90.96156045715503
 20
-118.9928969146963
 30
0.0
 10
90.96156045715503
 20
-118.9928969146963
 30
0.0
 10
92.88942040797123
 20
-118.9928969146963
 30
0.0
 10
92.88942040797123
 20
-118.9928969146963
 30
0.0
 10
92.33718208872668
 20
-120.7581616364771
 30
0.0
 10
93.32076178585568
 20
-122.6378321915627
 30
0.0
 10
95.08669674080294
 20
-123.1897177469804
 30
0.0
 10
95.57141339510345
 20
-123.3413063580535
 30
0.0
 10
96.08438754868305
 20
-123.3812760802657
 30
0.0
 10
96.58670781364557
 20
-123.3054641358402
 30
0.0
 10
96.58670781364557
 20
-123.3054641358402
 30
0.0
 10
96.58670781364557
 20
-128.9926299677519
 30
0.0
 10
96.58670781364557
 20
-128.9926299677519
 30
0.0
 10
96.58670781364557
 20
-128.9926299677519
 30
0.0
 10
94.5864578646762
 20
-128.9926299677519
 30
0.0
 10
94.5864578646762
 20
-128.9926299677519
 30
0.0
 10
94.5864578646762
 20
-128.9926299677519
 30
0.0
 10
94.5864578646762
 20
-130.9921744116963
 30
0.0
 10
94.5864578646762
 20
-130.9921744116963
 30
0.0
 10
94.5864578646762
 20
-130.9921744116963
 30
0.0
 10
98.58657219757578
 20
-130.9921744116963
 30
0.0
 10
98.58657219757578
 20
-130.9921744116963
 30
0.0
 10
98.58657219757578
 20
-130.9921744116963
 30
0.0
 10
98.58657219757578
 20
-126.9924152460297
 30
0.0
 10
98.58657219757578
 20
-126.9924152460297
 30
0.0
 10
98.58657219757578
 20
-126.9924152460297
 30
0.0
 10
99.83646386392985
 20
-126.9924152460297
 30
0.0
 10
99.83646386392985
 20
-126.9924152460297
 30
0.0
 10
99.83646386392985
 20
-126.9924152460297
 30
0.0
 10
99.83646386392985
 20
-125.7425235796753
 30
0.0
 10
99.83646386392985
 20
-125.7425235796753
 30
0.0
 10
99.83646386392985
 20
-125.7425235796753
 30
0.0
 10
98.58657219757578
 20
-125.7425235796753
 30
0.0
 10
98.58657219757578
 20
-125.7425235796753
 30
0.0
 10
98.58657219757578
 20
-125.7425235796753
 30
0.0
 10
98.58657219757578
 20
-121.2425608030226
 30
0.0
 10
98.58657219757578
 20
-121.2425608030226
 30
0.0
  0
HATCH
  5
49
330
44
100
AcDbEntity
  8
_U+30EC_U+30A4_U+30E4_U+30FC 1
 62
   253
420
 11711154
100
AcDbHatch
 10
0.0
 20
0.0
 30
0.0
210
0.0
220
0.0
230
1.0
  2
SOLID
 70
     1
 71
     0
 91
        1
 92
        1
 93
        1
 72
     4
 94
        3
 73
     0
 74
     1
 95
      185
 96
      181
 40
0.0
 40
0.0
 40
0.0
 40
0.0
 40
1.0
 40
1.0
 40
1.0
 40
2.0
 40
2.0
 40
2.0
 40
3.0
 40
3.0
 40
3.0
 40
4.0
 40
4.0
 40
4.0
 40
5.0
 40
5.0
 40
5.0
 40
6.0
 40
6.0
 40
6.0
 40
7.0
 40
7.0
 40
7.0
 40
8.0
 40
8.0
 40
8.0
 40
9.0
 40
9.0
 40
9.0
 40
10.0
 40
10.0
 40
10.0
 40
11.0
 40
11.0
 40
11.0
 40
12.0
 40
12.0
 40
12.0
 40
13.0
 40
13.0
 40
13.0
 40
14.0
 40
14.0
 40
14.0
 40
15.0
 40
15.0
 40
15.0
 40
16.0
 40
16.0
 40
16.0
 40
17.0
 40
17.0
 40
17.0
 40
18.0
 40
18.0
 40
18.0
 40
19.0
 40
19.0
 40
19.0
 40
20.0
 40
20.0
 40
20.0
 40
21.0
 40
21.0
 40
21.0
 40
22.0
 40
22.0
 40
22.0
 40
23.0
 40
23.0
 40
23.0
 40
24.0
 40
24.0
 40
24.0
 40
25.0
 40
25.0
 40
25.0
 40
26.0
 40
26.0
 40
26.0
 40
27.0
 40
27.0
 40
27.0
 40
28.0
 40
28.0
 40
28.0
 40
29.0
 40
29.0
 40
29.0
 40
30.0
 40
30.0
 40
30.0
 40
31.0
 40
31.0
 40
31.0
 40
32.0
 40
32.0
 40
32.0
 40
33.0
 40
33.0
 40
33.0
 40
34.0
 40
34.0
 40
34.0
 40
35.0
 40
35.0
 40
35.0
 40
36.0
 40
36.0
 40
36.0
 40
37.0
 40
37.0
 40
37.0
 40
38.0
 40
38.0
 40
38.0
 40
39.0
 40
39.0
 40
39.0
 40
40.0
 40
40.0
 40
40.0
 40
41.0
 40
41.0
 40
41.0
 40
42.0
 40
42.0
 40
42.0
 40
43.0
 40
43.0
 40
43.0
 40
44.0
 40
44.0
 40
44.0
 40
45.0
 40
45.0
 40
45.0
 40
46.0
 40
46.0
 40
46.0
 40
47.0
 40
47.0
 40
47.0
 40
48.0
 40
48.0
 40
48.0
 40
49.0
 40
49.0
 40
49.0
 40
50.0
 40
50.0
 40
50.0
 40
51.0
 40
51.0
 40
51.0
 40
52.0
 40
52.0
 40
52.0
 40
53.0
 40
53.0
 40
53.0
 40
54.0
 40
54.0
 40
54.0
 40
55.0
 40
55.0
 40
55.0
 40
56.0
 40
56.0
 40
56.0
 40
57.0
 40
57.0
 40
57.0
 40
58.0
 40
58.0
 40
58.0
 40
59.0
 40
59.0
 40
59.0
 40
60.0
 40
60.0
 40
60.0
 40
60.0
 10
98.58657219757578
 20
-121.2425608030226
 10
98.58657219757578
 20
-121.2425608030226
 10
97.60574167653674
 20
-120.86152552534
 10
97.60574167653674
 20
-120.86152552534
 10
97.45073112493583
 20
-121.1323177474946
 10
97.22611751955509
 20
-121.3569313585496
 10
96.95532775353921
 20
-121.5119771918443
 10
96.11610227009616
 20
-121.9915080250578
 10
95.04707979736921
 20
-121.7000783029083
 10
94.56751369849285
 20
-120.86152552534
 10
94.08763009962458
 20
-120.0223024699944
 10
94.37909509218869
 20
-118.9529624702619
 10
95.2179653485651
 20
-118.4733963592706
 10
96.0571883827103
 20
-117.9938302482793
 10
97.12621085543726
 20
-118.2852952482066
 10
97.60574167653674
 20
-119.123812747997
 10
97.60574167653674
 20
-119.123812747997
 10
98.58657219757578
 20
-118.7428127480919
 10
98.58657219757578
 20
-118.7428127480919
 10
98.58657219757578
 20
-118.7428127480919
 10
98.58657219757578
 20
-111.9924805275574
 10
98.58657219757578
 20
-111.9924805275574
 10
98.58657219757578
 20
-111.9924805275574
 10
94.5864578646762
 20
-111.9924805275574
 10
94.5864578646762
 20
-111.9924805275574
 10
94.5864578646762
 20
-111.9924805275574
 10
94.5864578646762
 20
-113.9926952492795
 10
94.5864578646762
 20
-113.9926952492795
 10
94.5864578646762
 20
-113.9926952492795
 10
96.58670781364557
 20
-113.9926952492795
 10
96.58670781364557
 20
-113.9926952492795
 10
96.58670781364557
 20
-113.9926952492795
 10
96.58670781364557
 20
-116.9926821929742
 10
96.58670781364557
 20
-116.9926821929742
 10
96.58670781364557
 20
-116.9926821929742
 10
84.58672506423508
 20
-116.9926821929742
 10
84.58672506423508
 20
-116.9926821929742
 10
84.58672506423508
 20
-116.9926821929742
 10
84.58672506423508
 20
-113.9926952492795
 10
84.58672506423508
 20
-113.9926952492795
 10
84.58672506423508
 20
-113.9926952492795
 10
86.58662223543568
 20
-113.9926952492795
 10
86.58662223543568
 20
-113.9926952492795
 10
86.58662223543568
 20
-113.9926952492795
 10
86.58662223543568
 20
-111.9924805275574
 10
86.58662223543568
 20
-111.9924805275574
 10
86.58662223543568
 20
-111.9924805275574
 10
82.58651039304259
 20
-111.9924805275574
 10
82.58651039304259
 20
-111.9924805275574
 10
82.58651039304259
 20
-111.9924805275574
 10
82.58651039304259
 20
-118.7428127480919
 10
82.58651039304259
 20
-118.7428127480919
 10
82.58651039304259
 20
-118.7428127480919
 10
83.56733842357514
 20
-119.123812747997
 10
83.56733842357514
 20
-119.123812747997
 10
83.72234897517605
 20
-118.85305580362
 10
83.94699997901327
 20
-118.6284069147875
 10
84.2181075736393
 20
-118.4733963592706
 10
85.05697783001571
 20
-117.9938302482793
 10
86.12600030274268
 20
-118.2852952482066
 10
86.60591917938781
 20
-119.123812747997
 10
87.0854500004873
 20
-119.9630358033426
 10
86.79437306346884
 20
-121.032411080853
 10
85.95511475154677
 20
-121.5119771918443
 10
85.11624449517036
 20
-121.9915080250578
 10
84.04722202244339
 20
-121.7000783029083
 10
83.56733842357514
 20
-120.86152552534
 10
83.56733842357514
 20
-120.86152552534
 10
82.58651039304259
 20
-121.2425608030226
 10
82.58651039304259
 20
-121.2425608030226
 10
82.58651039304259
 20
-121.2425608030226
 10
82.58651039304259
 20
-128.9926299677519
 10
82.58651039304259
 20
-128.9926299677519
 10
82.58651039304259
 20
-128.9926299677519
 10
74.58667476380207
 20
-128.9926299677519
 10
74.58667476380207
 20
-128.9926299677519
 10
74.58667476380207
 20
-128.9926299677519
 10
74.58667476380207
 20
-144.2423666306061
 10
74.58667476380207
 20
-144.2423666306061
 10
74.58667476380207
 20
-144.7453571860356
 10
74.33482671467169
 20
-145.2145516303628
 10
73.91590311424821
 20
-145.4922230191827
 10
73.22551702075032
 20
-145.9504460746236
 10
72.29464232227669
 20
-145.7616394080041
 10
71.83645455618824
 20
-145.0712532970655
 10
71.37858609326634
 20
-144.3808671861268
 10
71.56703817417275
 20
-143.4499924641375
 10
72.25742426767064
 20
-142.9924749642521
 10
72.25742426767064
 20
-142.9924749642521
 10
69.81726044103551
 20
-142.9924749642521
 10
69.81726044103551
 20
-142.9924749642521
 10
69.54202498261463
 20
-143.7124944085162
 10
69.51203887151101
 20
-144.5034927416521
 10
69.732524982567
 20
-145.2421388525781
 10
69.732524982567
 20
-145.2421388525781
 10
68.08646387186735
 20
-145.2421388525781
 10
68.08646387186735
 20
-145.2421388525781
 10
68.08646387186735
 20
-145.2421388525781
 10
68.08646387186735
 20
-143.992247186224
 10
68.08646387186735
 20
-143.992247186224
 10
68.08646387186735
 20
-143.992247186224
 10
68.58666575020838
 20
-143.992247186224
 10
68.58666575020838
 20
-143.992247186224
 10
68.58666575020838
 20
-143.992247186224
 10
68.58666575020838
 20
-142.9924749642521
 10
68.58666575020838
 20
-142.9924749642521
 10
68.58666575020838
 20
-142.9924749642521
 10
66.5864527611311
 20
-142.9924749642521
 10
66.5864527611311
 20
-142.9924749642521
 10
66.5864527611311
 20
-142.9924749642521
 10
66.5864527611311
 20
-146.9922341299183
 10
66.5864527611311
 20
-146.9922341299183
 10
66.5864527611311
 20
-146.9922341299183
 10
76.58653665722578
 20
-146.9922341299183
 10
76.58653665722578
 20
-146.9922341299183
 10
76.58653665722578
 20
-146.9922341299183
 10
76.58653665722578
 20
-130.9921744116963
 10
76.58653665722578
 20
-130.9921744116963
 10
76.58653665722578
 20
-130.9921744116963
 10
86.58662223543568
 20
-130.9921744116963
 10
86.58662223543568
 20
-130.9921744116963
 10
86.58662223543568
 20
-130.9921744116963
 10
86.58662223543568
 20
-128.9926299677519
 10
86.58662223543568
 20
-128.9926299677519
 10
86.58662223543568
 20
-128.9926299677519
 10
84.58672506423508
 20
-128.9926299677519
 10
84.58672506423508
 20
-128.9926299677519
 10
84.58672506423508
 20
-128.9926299677519
 10
84.58672506423508
 20
-123.3054641358402
 10
84.58672506423508
 20
-123.3054641358402
 10
86.4160916450626
 20
-123.5810894135493
 10
88.12279302957803
 20
-122.3222371916417
 10
88.3990885780847
 20
-120.4929080254322
 10
88.47486524281814
 20
-119.9906230255579
 10
88.43560107715318
 20
-119.4772960812418
 10
88.28401246990943
 20
-118.9928969146963
 10
88.28401246990943
 20
-118.9928969146963
 10
90.21155492073372
 20
-118.9928969146963
 10
90.21155492073372
 20
-118.9928969146963
 10
90.21155492073372
 20
-118.9928969146963
 10
90.58673407782877
 20
-118.3431508037476
 10
90.58673407782877
 20
-118.3431508037476
 10
90.58673407782877
 20
-118.3431508037476
 10
90.96156045715503
 20
-118.9928969146963
 10
90.96156045715503
 20
-118.9928969146963
 10
90.96156045715503
 20
-118.9928969146963
 10
92.88942040797123
 20
-118.9928969146963
 10
92.88942040797123
 20
-118.9928969146963
 10
92.33718208872668
 20
-120.7581616364771
 10
93.32076178585568
 20
-122.6378321915627
 10
95.08669674080294
 20
-123.1897177469804
 10
95.57141339510345
 20
-123.3413063580535
 10
96.08438754868305
 20
-123.3812760802657
 10
96.58670781364557
 20
-123.3054641358402
 10
96.58670781364557
 20
-123.3054641358402
 10
96.58670781364557
 20
-128.9926299677519
 10
96.58670781364557
 20
-128.9926299677519
 10
96.58670781364557
 20
-128.9926299677519
 10
94.5864578646762
 20
-128.9926299677519
 10
94.5864578646762
 20
-128.9926299677519
 10
94.5864578646762
 20
-128.9926299677519
 10
94.5864578646762
 20
-130.9921744116963
 10
94.5864578646762
 20
-130.9921744116963
 10
94.5864578646762
 20
-130.9921744116963
 10
98.58657219757578
 20
-130.9921744116963
 10
98.58657219757578
 20
-130.9921744116963
 10
98.58657219757578
 20
-130.9921744116963
 10
98.58657219757578
 20
-126.9924152460297
 10
98.58657219757578
 20
-126.9924152460297
 10
98.58657219757578
 20
-126.9924152460297
 10
99.83646386392985
 20
-126.9924152460297
 10
99.83646386392985
 20
-126.9924152460297
 10
99.83646386392985
 20
-126.9924152460297
 10
99.83646386392985
 20
-125.7425235796753
 10
99.83646386392985
 20
-125.7425235796753
 10
99.83646386392985
 20
-125.7425235796753
 10
98.58657219757578
 20
-125.7425235796753
 10
98.58657219757578
 20
-125.7425235796753
 10
98.58657219757578
 20
-125.7425235796753
 10
98.58657219757578
 20
-121.2425608030226
 10
98.58657219757578
 20
-121.2425608030226
 97
        0
 97
        0
 75
     2
 76
     1
 98
        0
  0
POLYLINE
  5
4A
330
44
100
AcDbEntity
  8
_U+30EC_U+30A4_U+30E4_U+30FC 1
 62
   179
420
  2234388
370
    25
100
AcDb2dPolyline
 66
     1
 10
0.0
 20
0.0
 30
0.0
  0
VERTEX
  5
4B
330
4A
100
AcDbEntity
  8
_U+30EC_U+30A4_U+30E4_U+30FC 1
 62
   179
420
  2234388
370
    25
100
AcDbVertex
100
AcDb2dVertex
 10
98.58657219757578
 20
-111.9924805275574
 30
0.0
  0
VERTEX
  5
4C
330
4A
100
AcDbEntity
  8
_U+30EC_U+30A4_U+30E4_U+30FC 1
 62
   179
420
  2234388
370
    25
100
AcDbVertex
100
AcDb2dVertex
 10
98.58657219757578
 20
-118.7428127480919
 30
0.0
  0
SEQEND
  5
4D
330
4A
100
AcDbEntity
  8
_U+30EC_U+30A4_U+30E4_U+30FC 1
 62
   179
420
  2234388
370
    25
  0
POLYLINE
  5
4E
330
44
100
AcDbEntity
  8
_U+30EC_U+30A4_U+30E4_U+30FC 1
 62
   179
420
  2234388
370
    25
100
AcDb2dPolyline
 66
     1
 10
0.0
 20
0.0
 30
0.0
  0
VERTEX
  5
4F
330
4E
100
AcDbEntity
  8
_U+30EC_U+30A4_U+30E4_U+30FC 1
 62
   179
420
  2234388
370
    25
100
AcDbVertex
100
AcDb2dVertex
 10
94.5864578646762
 20
-128.9926299677519
 30
0.0
  0
VERTEX
  5
50
330
4E
100
AcDbEntity
  8
_U+30EC_U+30A4_U+30E4_U+30FC 1
 62
   179
420
  2234388
370
    25
100
AcDbVertex
100
AcDb2dVertex
 10
94.5864578646762
 20
-130.9921744116963
 30
0.0
  0
SEQEND
  5
51
330
4E
100
AcDbEntity
  8
_U+30EC_U+30A4_U+30E4_U+30FC 1
 62
   179
420
  2234388
370
    25
  0
POLYLINE
  5
52
330
44
100
AcDbEntity
  8
_U+30EC_U+30A4_U+30E4_U+30FC 1
 62
   179
420
  2234388
370
    25
100
AcDb2dPolyline
 66
     1
 10
0.0
 20
0.0
 30
0.0
  0
VERTEX
  5
53
330
52
100
AcDbEntity
  8
_U+30EC_U+30A4_U+30E4_U+30FC 1
 62
   179
420
  2234388
370
    25
100
AcDbVertex
100
AcDb2dVertex
 10
96.58670781364557
 20
-123.3054641358402
 30
0.0
  0
VERTEX
  5
54
330
52
100
AcDbEntity
  8
_U+30EC_U+30A4_U+30E4_U+30FC 1
 62
   179
420
  2234388
370
    25
100
AcDbVertex
100
AcDb2dVertex
 10
96.58670781364557
 20
-128.9926299677519
 30
0.0
  0
SEQEND
  5
55
330
52
100
AcDbEntity
  8
_U+30EC_U+30A4_U+30E4_U+30FC 1
 62
   179
420
  2234388
370
    25
  0
POLYLINE
  5
56
330
44
100
AcDbEntity
  8
_U+30EC_U+30A4_U+30E4_U+30FC 1
 62
   179
420
  2234388
370
    25
100
AcDb2dPolyline
 66
     1
 10
0.0
 20
0.0
 30
0.0
  0
VERTEX
  5
57
330
56
100
AcDbEntity
  8
_U+30EC_U+30A4_U+30E4_U+30FC 1
 62
   179
420
  2234388
370
    25
100
AcDbVertex
100
AcDb2dVertex
 10
97.60574167653674
 20
-119.123812747997
 30
0.0
  0
VERTEX
  5
58
330
56
100
AcDbEntity
  8
_U+30EC_U+30A4_U+30E4_U+30FC 1
 62
   179
420
  2234388
370
    25
100
AcDbVertex
100
AcDb2dVertex
 10
98.58657219757578
 20
-118.7428127480919
 30
0.0
  0
SEQEND
  5
59
330
56
100
AcDbEntity
  8
_U+30EC_U+30A4_U+30E4_U+30FC 1
 62
   179
420
  2234388
370
    25
  0
POLYLINE
  5
5A
330
44
100
AcDbEntity
  8
_U+30EC_U+30A4_U+30E4_U+30FC 1
 62
   179
420
  2234388
370
    25
100
AcDb2dPolyline
 66
     1
 10
0.0
 20
0.0
 30
0.0
  0
VERTEX
  5
5B
330
5A
100
AcDbEntity
  8
_U+30EC_U+30A4_U+30E4_U+30FC 1
 62
   179
420
  2234388
370
    25
100
AcDbVertex
100
AcDb2dVertex
 10
97.60574167653674
 20
-120.86152552534
 30
0.0
  0
VERTEX
  5
5C
330
5A
100
AcDbEntity
  8
_U+30EC_U+30A4_U+30E4_U+30FC 1
 62
   179
420
  2234388
370
    25
100
AcDbVertex
100
AcDb2dVertex
 10
98.58657219757578
 20
-121.2425608030226
 30
0.0
  0
SEQEND
  5
5D
330
5A
100
AcDbEntity
  8
_U+30EC_U+30A4_U+30E4_U+30FC 1
 62
   179
420
  2234388
370
    25
  0
POLYLINE
  5
5E
330
44
100
AcDbEntity
  8
_U+30EC_U+30A4_U+30E4_U+30FC 1
 62
   179
420
  2234388
370
    25
100
AcDb2dPolyline
 66
     1
 10
0.0
 20
0.0
 30
0.0
  0
VERTEX
  5
5F
330
5E
100
AcDbEntity
  8
_U+30EC_U+30A4_U+30E4_U+30FC 1
 62
   179
420
  2234388
370
    25
100
AcDbVertex
100
AcDb2dVertex
 10
98.58657219757578
 20
-121.2425608030226
 30
0.0
  0
VERTEX
  5
60
330
5E
100
AcDbEntity
  8
_U+30EC_U+30A4_U+30E4_U+30FC 1
 62
   179
420
  2234388
370
    25
100
AcDbVertex
100
AcDb2dVertex
 10
98.58657219757578
 20
-125.7425235796753
 30
0.0
  0
SEQEND
  5
61
330
5E
100
AcDbEntity
  8
_U+30EC_U+30A4_U+30E4_U+30FC 1
 62
   179
420
  2234388
370
    25
  0
POLYLINE
  5
62
330
44
100
AcDbEntity
  8
_U+30EC_U+30A4_U+30E4_U+30FC 1
 62
   179
420
  2234388
370
    25
100
AcDb2dPolyline
 66
     1
 10
0.0
 20
0.0
 30
0.0
  0
VERTEX
  5
63
330
62
100
AcDbEntity
  8
_U+30EC_U+30A4_U+30E4_U+30FC 1
 62
   179
420
  2234388
370
    25
100
AcDbVertex
100
AcDb2dVertex
 10
96.58670781364557
 20
-113.9926952492795
 30
0.0
  0
VERTEX
  5
64
330
62
100
AcDbEntity
  8
_U+30EC_U+30A4_U+30E4_U+30FC 1
 62
   179
420
  2234388
370
    25
100
AcDbVertex
100
AcDb2dVertex
 10
96.58670781364557
 20
-116.9926821929742
 30
0.0
  0
SEQEND
  5
65
330
62
100
AcDbEntity
  8
_U+30EC_U+30A4_U+30E4_U+30FC 1
 62
   179
420
  2234388
370
    25
  0
POLYLINE
  5
66
330
44
100
AcDbEntity
  8
_U+30EC_U+30A4_U+30E4_U+30FC 1
 62
   179
420
  2234388
370
    25
100
AcDb2dPolyline
 66
     1
 10
0.0
 20
0.0
 30
0.0
  0
VERTEX
  5
67
330
66
100
AcDbEntity
  8
_U+30EC_U+30A4_U+30E4_U+30FC 1
 62
   179
420
  2234388
370
    25
100
AcDbVertex
100
AcDb2dVertex
 10
82.58651039304259
 20
-121.2425608030226
 30
0.0
  0
VERTEX
  5
68
330
66
100
AcDbEntity
  8
_U+30EC_U+30A4_U+30E4_U+30FC 1
 62
   179
420
  2234388
370
    25
100
AcDbVertex
100
AcDb2dVertex
 10
82.58651039304259
 20
-128.9926299677519
 30
0.0
  0
SEQEND
  5
69
330
66
100
AcDbEntity
  8
_U+30EC_U+30A4_U+30E4_U+30FC 1
 62
   179
420
  2234388
370
    25
  0
POLYLINE
  5
6A
330
44
100
AcDbEntity
  8
_U+30EC_U+30A4_U+30E4_U+30FC 1
 62
   179
420
  2234388
370
    25
100
AcDb2dPolyline
 66
     1
 10
0.0
 20
0.0
 30
0.0
  0
VERTEX
  5
6B
330
6A
100
AcDbEntity
  8
_U+30EC_U+30A4_U+30E4_U+30FC 1
 62
   179
420
  2234388
370
    25
100
AcDbVertex
100
AcDb2dVertex
 10
83.56733842357514
 20
-120.86152552534
 30
0.0
  0
VERTEX
  5
6C
330
6A
100
AcDbEntity
  8
_U+30EC_U+30A4_U+30E4_U+30FC 1
 62
   179
420
  2234388
370
    25
100
AcDbVertex
100
AcDb2dVertex
 10
82.58651039304259
 20
-121.2425608030226
 30
0.0
  0
SEQEND
  5
6D
330
6A
100
AcDbEntity
  8
_U+30EC_U+30A4_U+30E4_U+30FC 1
 62
   179
420
  2234388
370
    25
  0
POLYLINE
  5
6E
330
44
100
AcDbEntity
  8
_U+30EC_U+30A4_U+30E4_U+30FC 1
 62
   179
420
  2234388
370
    25
100
AcDb2dPolyline
 66
     1
 10
0.0
 20
0.0
 30
0.0
  0
VERTEX
  5
6F
330
6E
100
AcDbEntity
  8
_U+30EC_U+30A4_U+30E4_U+30FC 1
 62
   179
420
  2234388
370
    25
100
AcDbVertex
100
AcDb2dVertex
 10
83.56733842357514
 20
-119.123812747997
 30
0.0
  0
VERTEX
  5
70
330
6E
100
AcDbEntity
  8
_U+30EC_U+30A4_U+30E4_U+30FC 1
 62
   179
420
  2234388
370
    25
100
AcDbVertex
100
AcDb2dVertex
 10
82.58651039304259
 20
-118.7428127480919
 30
0.0
  0
SEQEND
  5
71
330
6E
100
AcDbEntity
  8
_U+30EC_U+30A4_U+30E4_U+30FC 1
 62
   179
420
  2234388
370
    25
  0
POLYLINE
  5
72
330
44
100
AcDbEntity
  8
_U+30EC_U+30A4_U+30E4_U+30FC 1
 62
   179
420
  2234388
370
    25
100
AcDb2dPolyline
 66
     1
 10
0.0
 20
0.0
 30
0.0
  0
VERTEX
  5
73
330
72
100
AcDbEntity
  8
_U+30EC_U+30A4_U+30E4_U+30FC 1
 62
   179
420
  2234388
370
    25
100
AcDbVertex
100
AcDb2dVertex
 10
84.58672506423508
 20
-123.3054641358402
 30
0.0
  0
VERTEX
  5
74
330
72
100
AcDbEntity
  8
_U+30EC_U+30A4_U+30E4_U+30FC 1
 62
   179
420
  2234388
370
    25
100
AcDbVertex
100
AcDb2dVertex
 10
84.58672506423508
 20
-128.9926299677519
 30
0.0
  0
SEQEND
  5
75
330
72
100
AcDbEntity
  8
_U+30EC_U+30A4_U+30E4_U+30FC 1
 62
   179
420
  2234388
370
    25
  0
POLYLINE
  5
76
330
44
100
AcDbEntity
  8
_U+30EC_U+30A4_U+30E4_U+30FC 1
 62
   179
420
  2234388
370
    25
100
AcDb2dPolyline
 66
     1
 10
0.0
 20
0.0
 30
0.0
  0
VERTEX
  5
77
330
76
100
AcDbEntity
  8
_U+30EC_U+30A4_U+30E4_U+30FC 1
 62
   179
420
  2234388
370
    25
100
AcDbVertex
100
AcDb2dVertex
 10
86.58662223543568
 20
-128.9926299677519
 30
0.0
  0
VERTEX
  5
78
330
76
100
AcDbEntity
  8
_U+30EC_U+30A4_U+30E4_U+30FC 1
 62
   179
420
  2234388
370
    25
100
AcDbVertex
100
AcDb2dVertex
 10
86.58662223543568
 20
-130.9921744116963
 30
0.0
  0
SEQEND
  5
79
330
76
100
AcDbEntity
  8
_U+30EC_U+30A4_U+30E4_U+30FC 1
 62
   179
420
  2234388
370
    25
  0
POLYLINE
  5
7A
330
44
100
AcDbEntity
  8
_U+30EC_U+30A4_U+30E4_U+30FC 1
 62
   179
420
  2234388
370
    25
100
AcDb2dPolyline
 66
     1
 10
0.0
 20
0.0
 30
0.0
  0
VERTEX
  5
7B
330
7A
100
AcDbEntity
  8
_U+30EC_U+30A4_U+30E4_U+30FC 1
 62
   179
420
  2234388
370
    25
100
AcDbVertex
100
AcDb2dVertex
 10
82.58651039304259
 20
-111.9924805275574
 30
0.0
  0
VERTEX
  5
7C
330
7A
100
AcDbEntity
  8
_U+30EC_U+30A4_U+30E4_U+30FC 1
 62
   179
420
  2234388
370
    25
100
AcDbVertex
100
AcDb2dVertex
 10
82.58651039304259
 20
-118.7428127480919
 30
0.0
  0
SEQEND
  5
7D
330
7A
100
AcDbEntity
  8
_U+30EC_U+30A4_U+30E4_U+30FC 1
 62
   179
420
  2234388
370
    25
  0
POLYLINE
  5
7E
330
44
100
AcDbEntity
  8
_U+30EC_U+30A4_U+30E4_U+30FC 1
 62
   179
420
  2234388
370
    25
100
AcDb2dPolyline
 66
     1
 10
0.0
 20
0.0
 30
0.0
  0
VERTEX
  5
7F
330
7E
100
AcDbEntity
  8
_U+30EC_U+30A4_U+30E4_U+30FC 1
 62
   179
420
  2234388
370
    25
100
AcDbVertex
100
AcDb2dVertex
 10
84.58672506423508
 20
-113.9926952492795
 30
0.0
  0
VERTEX
  5
80
330
7E
100
AcDbEntity
  8
_U+30EC_U+30A4_U+30E4_U+30FC 1
 62
   179
420
  2234388
370
    25
100
AcDbVertex
100
AcDb2dVertex
 10
84.58672506423508
 20
-116.9926821929742
 30
0.0
  0
SEQEND
  5
81
330
7E
100
AcDbEntity
  8
_U+30EC_U+30A4_U+30E4_U+30FC 1
 62
   179
420
  2234388
370
    25
  0
POLYLINE
  5
82
330
44
100
AcDbEntity
  8
_U+30EC_U+30A4_U+30E4_U+30FC 1
 62
   179
420
  2234388
370
    25
100
AcDb2dPolyline
 66
     1
 10
0.0
 20
0.0
 30
0.0
  0
VERTEX
  5
83
330
82
100
AcDbEntity
  8
_U+30EC_U+30A4_U+30E4_U+30FC 1
 62
   179
420
  2234388
370
    25
100
AcDbVertex
100
AcDb2dVertex
 10
84.58672506423508
 20
-116.9926821929742
 30
0.0
  0
VERTEX
  5
84
330
82
100
AcDbEntity
  8
_U+30EC_U+30A4_U+30E4_U+30FC 1
 62
   179
420
  2234388
370
    25
100
AcDbVertex
100
AcDb2dVertex
 10
96.58670781364557
 20
-116.9926821929742
 30
0.0
  0
SEQEND
  5
85
330
82
100
AcDbEntity
  8
_U+30EC_U+30A4_U+30E4_U+30FC 1
 62
   179
420
  2234388
370
    25
  0
POLYLINE
  5
86
330
44
100
AcDbEntity
  8
_U+30EC_U+30A4_U+30E4_U+30FC 1
 62
   179
420
  2234388
370
    25
100
AcDb2dPolyline
 66
     1
 10
0.0
 20
0.0
 30
0.0
  0
VERTEX
  5
87
330
86
100
AcDbEntity
  8
_U+30EC_U+30A4_U+30E4_U+30FC 1
 62
   179
420
  2234388
370
    25
100
AcDbVertex
100
AcDb2dVertex
 10
88.28401246990943
 20
-118.9928969146963
 30
0.0
  0
VERTEX
  5
88
330
86
100
AcDbEntity
  8
_U+30EC_U+30A4_U+30E4_U+30FC 1
 62
   179
420
  2234388
370
    25
100
AcDbVertex
100
AcDb2dVertex
 10
90.21155492073372
 20
-118.9928969146963
 30
0.0
  0
SEQEND
  5
89
330
86
100
AcDbEntity
  8
_U+30EC_U+30A4_U+30E4_U+30FC 1
 62
   179
420
  2234388
370
    25
  0
POLYLINE
  5
8A
330
44
100
AcDbEntity
  8
_U+30EC_U+30A4_U+30E4_U+30FC 1
 62
   179
420
  2234388
370
    25
100
AcDb2dPolyline
 66
     1
 10
0.0
 20
0.0
 30
0.0
  0
VERTEX
  5
8B
330
8A
100
AcDbEntity
  8
_U+30EC_U+30A4_U+30E4_U+30FC 1
 62
   179
420
  2234388
370
    25
100
AcDbVertex
100
AcDb2dVertex
 10
90.21155492073372
 20
-118.9928969146963
 30
0.0
  0
VERTEX
  5
8C
330
8A
100
AcDbEntity
  8
_U+30EC_U+30A4_U+30E4_U+30FC 1
 62
   179
420
  2234388
370
    25
100
AcDbVertex
100
AcDb2dVertex
 10
90.58673407782877
 20
-118.3431508037476
 30
0.0
  0
SEQEND
  5
8D
330
8A
100
AcDbEntity
  8
_U+30EC_U+30A4_U+30E4_U+30FC 1
 62
   179
420
  2234388
370
    25
  0
POLYLINE
  5
8E
330
44
100
AcDbEntity
  8
_U+30EC_U+30A4_U+30E4_U+30FC 1
 62
   179
420
  2234388
370
    25
100
AcDb2dPolyline
 66
     1
 10
0.0
 20
0.0
 30
0.0
  0
VERTEX
  5
8F
330
8E
100
AcDbEntity
  8
_U+30EC_U+30A4_U+30E4_U+30FC 1
 62
   179
420
  2234388
370
    25
100
AcDbVertex
100
AcDb2dVertex
 10
90.58673407782877
 20
-118.3431508037476
 30
0.0
  0
VERTEX
  5
90
330
8E
100
AcDbEntity
  8
_U+30EC_U+30A4_U+30E4_U+30FC 1
 62
   179
420
  2234388
370
    25
100
AcDbVertex
100
AcDb2dVertex
 10
90.96156045715503
 20
-118.9928969146963
 30
0.0
  0
SEQEND
  5
91
330
8E
100
AcDbEntity
  8
_U+30EC_U+30A4_U+30E4_U+30FC 1
 62
   179
420
  2234388
370
    25
  0
POLYLINE
  5
92
330
44
100
AcDbEntity
  8
_U+30EC_U+30A4_U+30E4_U+30FC 1
 62
   179
420
  2234388
370
    25
100
AcDb2dPolyline
 66
     1
 10
0.0
 20
0.0
 30
0.0
  0
VERTEX
  5
93
330
92
100
AcDbEntity
  8
_U+30EC_U+30A4_U+30E4_U+30FC 1
 62
   179
420
  2234388
370
    25
100
AcDbVertex
100
AcDb2dVertex
 10
90.96156045715503
 20
-118.9928969146963
 30
0.0
  0
VERTEX
  5
94
330
92
100
AcDbEntity
  8
_U+30EC_U+30A4_U+30E4_U+30FC 1
 62
   179
420
  2234388
370
    25
100
AcDbVertex
100
AcDb2dVertex
 10
92.88942040797123
 20
-118.9928969146963
 30
0.0
  0
SEQEND
  5
95
330
92
100
AcDbEntity
  8
_U+30EC_U+30A4_U+30E4_U+30FC 1
 62
   179
420
  2234388
370
    25
  0
POLYLINE
  5
96
330
44
100
AcDbEntity
  8
_U+30EC_U+30A4_U+30E4_U+30FC 1
 62
   179
420
  2234388
370
    25
100
AcDb2dPolyline
 66
     1
 10
0.0
 20
0.0
 30
0.0
  0
VERTEX
  5
97
330
96
100
AcDbEntity
  8
_U+30EC_U+30A4_U+30E4_U+30FC 1
 62
   179
420
  2234388
370
    25
100
AcDbVertex
100
AcDb2dVertex
 10
82.58651039304259
 20
-111.9924805275574
 30
0.0
  0
VERTEX
  5
98
330
96
100
AcDbEntity
  8
_U+30EC_U+30A4_U+30E4_U+30FC 1
 62
   179
420
  2234388
370
    25
100
AcDbVertex
100
AcDb2dVertex
 10
86.58662223543568
 20
-111.9924805275574
 30
0.0
  0
SEQEND
  5
99
330
96
100
AcDbEntity
  8
_U+30EC_U+30A4_U+30E4_U+30FC 1
 62
   179
420
  2234388
370
    25
  0
POLYLINE
  5
9A
330
44
100
AcDbEntity
  8
_U+30EC_U+30A4_U+30E4_U+30FC 1
 62
   179
420
  2234388
370
    25
100
AcDb2dPolyline
 66
     1
 10
0.0
 20
0.0
 30
0.0
  0
VERTEX
  5
9B
330
9A
100
AcDbEntity
  8
_U+30EC_U+30A4_U+30E4_U+30FC 1
 62
   179
420
  2234388
370
    25
100
AcDbVertex
100
AcDb2dVertex
 10
94.5864578646762
 20
-111.9924805275574
 30
0.0
  0
VERTEX
  5
9C
330
9A
100
AcDbEntity
  8
_U+30EC_U+30A4_U+30E4_U+30FC 1
 62
   179
420
  2234388
370
    25
100
AcDbVertex
100
AcDb2dVertex
 10
94.5864578646762
 20
-113.9926952492795
 30
0.0
  0
SEQEND
  5
9D
330
9A
100
AcDbEntity
  8
_U+30EC_U+30A4_U+30E4_U+30FC 1
 62
   179
420
  2234388
370
    25
  0
POLYLINE
  5
9E
330
44
100
AcDbEntity
  8
_U+30EC_U+30A4_U+30E4_U+30FC 1
 62
   179
420
  2234388
370
    25
100
AcDb2dPolyline
 66
     1
 10
0.0
 20
0.0
 30
0.0
  0
VERTEX
  5
9F
330
9E
100
AcDbEntity
  8
_U+30EC_U+30A4_U+30E4_U+30FC 1
 62
   179
420
  2234388
370
    25
100
AcDbVertex
100
AcDb2dVertex
 10
86.58662223543568
 20
-111.9924805275574
 30
0.0
  0
VERTEX
  5
A0
330
9E
100
AcDbEntity
  8
_U+30EC_U+30A4_U+30E4_U+30FC 1
 62
   179
420
  2234388
370
    25
100
AcDbVertex
100
AcDb2dVertex
 10
86.58662223543568
 20
-113.9926952492795
 30
0.0
  0
SEQEND
  5
A1
330
9E
100
AcDbEntity
  8
_U+30EC_U+30A4_U+30E4_U+30FC 1
 62
   179
420
  2234388
370
    25
  0
POLYLINE
  5
A2
330
44
100
AcDbEntity
  8
_U+30EC_U+30A4_U+30E4_U+30FC 1
 62
   179
420
  2234388
370
    25
100
AcDb2dPolyline
 66
     1
 10
0.0
 20
0.0
 30
0.0
  0
VERTEX
  5
A3
330
A2
100
AcDbEntity
  8
_U+30EC_U+30A4_U+30E4_U+30FC 1
 62
   179
420
  2234388
370
    25
100
AcDbVertex
100
AcDb2dVertex
 10
84.58672506423508
 20
-113.9926952492795
 30
0.0
  0
VERTEX
  5
A4
330
A2
100
AcDbEntity
  8
_U+30EC_U+30A4_U+30E4_U+30FC 1
 62
   179
420
  2234388
370
    25
100
AcDbVertex
100
AcDb2dVertex
 10
86.58662223543568
 20
-113.9926952492795
 30
0.0
  0
SEQEND
  5
A5
330
A2
100
AcDbEntity
  8
_U+30EC_U+30A4_U+30E4_U+30FC 1
 62
   179
420
  2234388
370
    25
  0
POLYLINE
  5
A6
330
44
100
AcDbEntity
  8
_U+30EC_U+30A4_U+30E4_U+30FC 1
 62
   179
420
  2234388
370
    25
100
AcDb2dPolyline
 66
     1
 10
0.0
 20
0.0
 30
0.0
  0
VERTEX
  5
A7
330
A6
100
AcDbEntity
  8
_U+30EC_U+30A4_U+30E4_U+30FC 1
 62
   179
420
  2234388
370
    25
100
AcDbVertex
100
AcDb2dVertex
 10
94.5864578646762
 20
-113.9926952492795
 30
0.0
  0
VERTEX
  5
A8
330
A6
100
AcDbEntity
  8
_U+30EC_U+30A4_U+30E4_U+30FC 1
 62
   179
420
  2234388
370
    25
100
AcDbVertex
100
AcDb2dVertex
 10
96.58670781364557
 20
-113.9926952492795
 30
0.0
  0
SEQEND
  5
A9
330
A6
100
AcDbEntity
  8
_U+30EC_U+30A4_U+30E4_U+30FC 1
 62
   179
420
  2234388
370
    25
  0
POLYLINE
  5
AA
330
44
100
AcDbEntity
  8
_U+30EC_U+30A4_U+30E4_U+30FC 1
 62
   179
420
  2234388
370
    25
100
AcDb2dPolyline
 66
     1
 10
0.0
 20
0.0
 30
0.0
  0
VERTEX
  5
AB
330
AA
100
AcDbEntity
  8
_U+30EC_U+30A4_U+30E4_U+30FC 1
 62
   179
420
  2234388
370
    25
100
AcDbVertex
100
AcDb2dVertex
 10
94.5864578646762
 20
-111.9924805275574
 30
0.0
  0
VERTEX
  5
AC
330
AA
100
AcDbEntity
  8
_U+30EC_U+30A4_U+30E4_U+30FC 1
 62
   179
420
  2234388
370
    25
100
AcDbVertex
100
AcDb2dVertex
 10
98.58657219757578
 20
-111.9924805275574
 30
0.0
  0
SEQEND
  5
AD
330
AA
100
AcDbEntity
  8
_U+30EC_U+30A4_U+30E4_U+30FC 1
 62
   179
420
  2234388
370
    25
  0
POLYLINE
  5
AE
330
44
100
AcDbEntity
  8
_U+30EC_U+30A4_U+30E4_U+30FC 1
 62
   179
420
  2234388
370
    25
100
AcDb2dPolyline
 66
     1
 10
0.0
 20
0.0
 30
0.0
  0
VERTEX
  5
AF
330
AE
100
AcDbEntity
  8
_U+30EC_U+30A4_U+30E4_U+30FC 1
 62
   179
420
  2234388
370
    25
100
AcDbVertex
100
AcDb2dVertex
 10
76.58653665722578
 20
-130.9921744116963
 30
0.0
  0
VERTEX
  5
B0
330
AE
100
AcDbEntity
  8
_U+30EC_U+30A4_U+30E4_U+30FC 1
 62
   179
420
  2234388
370
    25
100
AcDbVertex
100
AcDb2dVertex
 10
86.58662223543568
 20
-130.9921744116963
 30
0.0
  0
SEQEND
  5
B1
330
AE
100
AcDbEntity
  8
_U+30EC_U+30A4_U+30E4_U+30FC 1
 62
   179
420
  2234388
370
    25
  0
POLYLINE
  5
B2
330
44
100
AcDbEntity
  8
_U+30EC_U+30A4_U+30E4_U+30FC 1
 62
   179
420
  2234388
370
    25
100
AcDb2dPolyline
 66
     1
 10
0.0
 20
0.0
 30
0.0
  0
VERTEX
  5
B3
330
B2
100
AcDbEntity
  8
_U+30EC_U+30A4_U+30E4_U+30FC 1
 62
   179
420
  2234388
370
    25
100
AcDbVertex
100
AcDb2dVertex
 10
94.5864578646762
 20
-130.9921744116963
 30
0.0
  0
VERTEX
  5
B4
330
B2
100
AcDbEntity
  8
_U+30EC_U+30A4_U+30E4_U+30FC 1
 62
   179
420
  2234388
370
    25
100
AcDbVertex
100
AcDb2dVertex
 10
98.58657219757578
 20
-130.9921744116963
 30
0.0
  0
SEQEND
  5
B5
330
B2
100
AcDbEntity
  8
_U+30EC_U+30A4_U+30E4_U+30FC 1
 62
   179
420
  2234388
370
    25
  0
POLYLINE
  5
B6
330
44
100
AcDbEntity
  8
_U+30EC_U+30A4_U+30E4_U+30FC 1
 62
   179
420
  2234388
370
    25
100
AcDb2dPolyline
 66
     1
 10
0.0
 20
0.0
 30
0.0
  0
VERTEX
  5
B7
330
B6
100
AcDbEntity
  8
_U+30EC_U+30A4_U+30E4_U+30FC 1
 62
   179
420
  2234388
370
    25
100
AcDbVertex
100
AcDb2dVertex
 10
94.5864578646762
 20
-128.9926299677519
 30
0.0
  0
VERTEX
  5
B8
330
B6
100
AcDbEntity
  8
_U+30EC_U+30A4_U+30E4_U+30FC 1
 62
   179
420
  2234388
370
    25
100
AcDbVertex
100
AcDb2dVertex
 10
96.58670781364557
 20
-128.9926299677519
 30
0.0
  0
SEQEND
  5
B9
330
B6
100
AcDbEntity
  8
_U+30EC_U+30A4_U+30E4_U+30FC 1
 62
   179
420
  2234388
370
    25
  0
POLYLINE
  5
BA
330
44
100
AcDbEntity
  8
_U+30EC_U+30A4_U+30E4_U+30FC 1
 62
   179
420
  2234388
370
    25
100
AcDb2dPolyline
 66
     1
 10
0.0
 20
0.0
 30
0.0
  0
VERTEX
  5
BB
330
BA
100
AcDbEntity
  8
_U+30EC_U+30A4_U+30E4_U+30FC 1
 62
   179
420
  2234388
370
    25
100
AcDbVertex
100
AcDb2dVertex
 10
98.58657219757578
 20
-126.9924152460297
 30
0.0
  0
VERTEX
  5
BC
330
BA
100
AcDbEntity
  8
_U+30EC_U+30A4_U+30E4_U+30FC 1
 62
   179
420
  2234388
370
    25
100
AcDbVertex
100
AcDb2dVertex
 10
99.83646386392985
 20
-126.9924152460297
 30
0.0
  0
SEQEND
  5
BD
330
BA
100
AcDbEntity
  8
_U+30EC_U+30A4_U+30E4_U+30FC 1
 62
   179
420
  2234388
370
    25
  0
POLYLINE
  5
BE
330
44
100
AcDbEntity
  8
_U+30EC_U+30A4_U+30E4_U+30FC 1
 62
   179
420
  2234388
370
    25
100
AcDb2dPolyline
 66
     1
 10
0.0
 20
0.0
 30
0.0
  0
VERTEX
  5
BF
330
BE
100
AcDbEntity
  8
_U+30EC_U+30A4_U+30E4_U+30FC 1
 62
   179
420
  2234388
370
    25
100
AcDbVertex
100
AcDb2dVertex
 10
98.58657219757578
 20
-126.9924152460297
 30
0.0
  0
VERTEX
  5
C0
330
BE
100
AcDbEntity
  8
_U+30EC_U+30A4_U+30E4_U+30FC 1
 62
   179
420
  2234388
370
    25
100
AcDbVertex
100
AcDb2dVertex
 10
98.58657219757578
 20
-130.9921744116963
 30
0.0
  0
SEQEND
  5
C1
330
BE
100
AcDbEntity
  8
_U+30EC_U+30A4_U+30E4_U+30FC 1
 62
   179
420
  2234388
370
    25
  0
POLYLINE
  5
C2
330
44
100
AcDbEntity
  8
_U+30EC_U+30A4_U+30E4_U+30FC 1
 62
   179
420
  2234388
370
    25
100
AcDb2dPolyline
 66
     1
 10
0.0
 20
0.0
 30
0.0
  0
VERTEX
  5
C3
330
C2
100
AcDbEntity
  8
_U+30EC_U+30A4_U+30E4_U+30FC 1
 62
   179
420
  2234388
370
    25
100
AcDbVertex
100
AcDb2dVertex
 10
84.58672506423508
 20
-128.9926299677519
 30
0.0
  0
VERTEX
  5
C4
330
C2
100
AcDbEntity
  8
_U+30EC_U+30A4_U+30E4_U+30FC 1
 62
   179
420
  2234388
370
    25
100
AcDbVertex
100
AcDb2dVertex
 10
86.58662223543568
 20
-128.9926299677519
 30
0.0
  0
SEQEND
  5
C5
330
C2
100
AcDbEntity
  8
_U+30EC_U+30A4_U+30E4_U+30FC 1
 62
   179
420
  2234388
370
    25
  0
POLYLINE
  5
C6
330
44
100
AcDbEntity
  8
_U+30EC_U+30A4_U+30E4_U+30FC 1
 62
   179
420
  2234388
370
    25
100
AcDb2dPolyline
 66
     1
 10
0.0
 20
0.0
 30
0.0
  0
VERTEX
  5
C7
330
C6
100
AcDbEntity
  8
_U+30EC_U+30A4_U+30E4_U+30FC 1
 62
   179
420
  2234388
370
    25
100
AcDbVertex
100
AcDb2dVertex
 10
74.58667476380207
 20
-128.9926299677519
 30
0.0
  0
VERTEX
  5
C8
330
C6
100
AcDbEntity
  8
_U+30EC_U+30A4_U+30E4_U+30FC 1
 62
   179
420
  2234388
370
    25
100
AcDbVertex
100
AcDb2dVertex
 10
82.58651039304259
 20
-128.9926299677519
 30
0.0
  0
SEQEND
  5
C9
330
C6
100
AcDbEntity
  8
_U+30EC_U+30A4_U+30E4_U+30FC 1
 62
   179
420
  2234388
370
    25
  0
POLYLINE
  5
CA
330
44
100
AcDbEntity
  8
_U+30EC_U+30A4_U+30E4_U+30FC 1
 62
   179
420
  2234388
370
    25
100
AcDb2dPolyline
 66
     1
 10
0.0
 20
0.0
 30
0.0
  0
VERTEX
  5
CB
330
CA
100
AcDbEntity
  8
_U+30EC_U+30A4_U+30E4_U+30FC 1
 62
   179
420
  2234388
370
    25
100
AcDbVertex
100
AcDb2dVertex
 10
98.58657219757578
 20
-125.7425235796753
 30
0.0
  0
VERTEX
  5
CC
330
CA
100
AcDbEntity
  8
_U+30EC_U+30A4_U+30E4_U+30FC 1
 62
   179
420
  2234388
370
    25
100
AcDbVertex
100
AcDb2dVertex
 10
99.83646386392985
 20
-125.7425235796753
 30
0.0
  0
SEQEND
  5
CD
330
CA
100
AcDbEntity
  8
_U+30EC_U+30A4_U+30E4_U+30FC 1
 62
   179
420
  2234388
370
    25
  0
POLYLINE
  5
CE
330
44
100
AcDbEntity
  8
_U+30EC_U+30A4_U+30E4_U+30FC 1
 62
   179
420
  2234388
370
    25
100
AcDb2dPolyline
 66
     1
 10
0.0
 20
0.0
 30
0.0
  0
VERTEX
  5
CF
330
CE
100
AcDbEntity
  8
_U+30EC_U+30A4_U+30E4_U+30FC 1
 62
   179
420
  2234388
370
    25
100
AcDbVertex
100
AcDb2dVertex
 10
99.83646386392985
 20
-125.7425235796753
 30
0.0
  0
VERTEX
  5
D0
330
CE
100
AcDbEntity
  8
_U+30EC_U+30A4_U+30E4_U+30FC 1
 62
   179
420
  2234388
370
    25
100
AcDbVertex
100
AcDb2dVertex
 10
99.83646386392985
 20
-126.9924152460297
 30
0.0
  0
SEQEND
  5
D1
330
CE
100
AcDbEntity
  8
_U+30EC_U+30A4_U+30E4_U+30FC 1
 62
   179
420
  2234388
370
    25
  0
SPLINE
  5
D2
330
44
100
AcDbEntity
  8
_U+30EC_U+30A4_U+30E4_U+30FC 1
 62
   179
420
  2234388
370
    25
100
AcDbSpline
210
0.0
220
0.0
230
1.0
 70
     8
 71
     3
 72
    17
 73
    13
 74
     0
 42
0.0000000001
 43
0.0000000001
 12
1.0
 22
0.0
 32
0.0
 13
1.0
 23
0.0
 33
0.0
 40
0.0
 40
0.0
 40
0.0
 40
0.0
 40
1.0
 40
1.0
 40
1.0
 40
2.0
 40
2.0
 40
2.0
 40
3.0
 40
3.0
 40
3.0
 40
4.0
 40
4.0
 40
4.0
 40
4.0
 10
97.60574167653674
 20
-119.123812747997
 30
0.0
 10
97.12621085543726
 20
-118.2852952482066
 30
0.0
 10
96.0571883827103
 20
-117.9938302482793
 30
0.0
 10
95.2179653485651
 20
-118.4733963592706
 30
0.0
 10
94.37909509218869
 20
-118.9529624702619
 30
0.0
 10
94.08763009962458
 20
-120.0223024699944
 30
0.0
 10
94.56751369849285
 20
-120.86152552534
 30
0.0
 10
95.04707979736921
 20
-121.7000783029083
 30
0.0
 10
96.11610227009616
 20
-121.9915080250578
 30
0.0
 10
96.95532775353921
 20
-121.5119771918443
 30
0.0
 10
97.22611751955509
 20
-121.3569313585496
 30
0.0
 10
97.45073112493583
 20
-121.1323177474946
 30
0.0
 10
97.60574167653674
 20
-120.86152552534
 30
0.0
  0
SPLINE
  5
D3
330
44
100
AcDbEntity
  8
_U+30EC_U+30A4_U+30E4_U+30FC 1
 62
   179
420
  2234388
370
    25
100
AcDbSpline
210
0.0
220
0.0
230
1.0
 70
     8
 71
     3
 72
    17
 73
    13
 74
     0
 42
0.0000000001
 43
0.0000000001
 12
1.0
 22
0.0
 32
0.0
 13
1.0
 23
0.0
 33
0.0
 40
0.0
 40
0.0
 40
0.0
 40
0.0
 40
1.0
 40
1.0
 40
1.0
 40
2.0
 40
2.0
 40
2.0
 40
3.0
 40
3.0
 40
3.0
 40
4.0
 40
4.0
 40
4.0
 40
4.0
 10
83.56733842357514
 20
-120.86152552534
 30
0.0
 10
84.04722202244339
 20
-121.7000783029083
 30
0.0
 10
85.11624449517036
 20
-121.9915080250578
 30
0.0
 10
85.95511475154677
 20
-121.5119771918443
 30
0.0
 10
86.79437306346884
 20
-121.032411080853
 30
0.0
 10
87.0854500004873
 20
-119.9630358033426
 30
0.0
 10
86.60591917938781
 20
-119.123812747997
 30
0.0
 10
86.12600030274268
 20
-118.2852952482066
 30
0.0
 10
85.05697783001571
 20
-117.9938302482793
 30
0.0
 10
84.2181075736393
 20
-118.4733963592706
 30
0.0
 10
83.94699997901327
 20
-118.6284069147875
 30
0.0
 10
83.72234897517605
 20
-118.85305580362
 30
0.0
 10
83.56733842357514
 20
-119.123812747997
 30
0.0
  0
SPLINE
  5
D4
330
44
100
AcDbEntity
  8
_U+30EC_U+30A4_U+30E4_U+30FC 1
 62
   179
420
  2234388
370
    25
100
AcDbSpline
210
0.0
220
0.0
230
1.0
 70
     8
 71
     3
 72
    11
 73
     7
 74
     0
 42
0.0000000001
 43
0.0000000001
 12
1.0
 22
0.0
 32
0.0
 13
1.0
 23
0.0
 33
0.0
 40
0.0
 40
0.0
 40
0.0
 40
0.0
 40
1.0
 40
1.0
 40
1.0
 40
2.0
 40
2.0
 40
2.0
 40
2.0
 10
84.58672506423508
 20
-123.3054641358402
 30
0.0
 10
86.4160916450626
 20
-123.5810894135493
 30
0.0
 10
88.12279302957803
 20
-122.3222371916417
 30
0.0
 10
88.3990885780847
 20
-120.4929080254322
 30
0.0
 10
88.47486524281814
 20
-119.9906230255579
 30
0.0
 10
88.43560107715318
 20
-119.4772960812418
 30
0.0
 10
88.28401246990943
 20
-118.9928969146963
 30
0.0
  0
SPLINE
  5
D5
330
44
100
AcDbEntity
  8
_U+30EC_U+30A4_U+30E4_U+30FC 1
 62
   179
420
  2234388
370
    25
100
AcDbSpline
210
0.0
220
0.0
230
1.0
 70
     8
 71
     3
 72
    11
 73
     7
 74
     0
 42
0.0000000001
 43
0.0000000001
 12
1.0
 22
0.0
 32
0.0
 13
1.0
 23
0.0
 33
0.0
 40
0.0
 40
0.0
 40
0.0
 40
0.0
 40
1.0
 40
1.0
 40
1.0
 40
2.0
 40
2.0
 40
2.0
 40
2.0
 10
92.88942040797123
 20
-118.9928969146963
 30
0.0
 10
92.33718208872668
 20
-120.7581616364771
 30
0.0
 10
93.32076178585568
 20
-122.6378321915627
 30
0.0
 10
95.08669674080294
 20
-123.1897177469804
 30
0.0
 10
95.57141339510345
 20
-123.3413063580535
 30
0.0
 10
96.08438754868305
 20
-123.3812760802657
 30
0.0
 10
96.58670781364557
 20
-123.3054641358402
 30
0.0
  0
SPLINE
  5
D6
330
44
100
AcDbEntity
  8
_U+30EC_U+30A4_U+30E4_U+30FC 1
 62
   179
420
  2234388
370
     9
100
AcDbSpline
210
0.0
220
0.0
230
1.0
 70
    11
 71
     3
 72
    17
 73
    13
 74
     0
 42
0.0000000001
 43
0.0000000001
 12
1.0
 22
0.0
 32
0.0
 13
1.0
 23
0.0
 33
0.0
 40
0.0
 40
0.0
 40
0.0
 40
0.0
 40
1.0
 40
1.0
 40
1.0
 40
2.0
 40
2.0
 40
2.0
 40
3.0
 40
3.0
 40
3.0
 40
4.0
 40
4.0
 40
4.0
 40
4.0
 10
98.68647637118713
 20
-107.9927213618908
 30
0.0
 10
98.68647637118713
 20
-107.9375821952377
 30
0.0
 10
98.64170887232923
 20
-107.8928146952492
 30
0.0
 10
98.58657219757578
 20
-107.8928146952492
 30
0.0
 10
98.53146581958622
 20
-107.8928146952492
 30
0.0
 10
98.48666304295145
 20
-107.9375821952377
 30
0.0
 10
98.48666304295145
 20
-107.9927213618908
 30
0.0
 10
98.48666304295145
 20
-108.0478252507657
 30
0.0
 10
98.53146581958622
 20
-108.0926280285325
 30
0.0
 10
98.58657219757578
 20
-108.0926280285325
 30
0.0
 10
98.64170887232923
 20
-108.0926280285325
 30
0.0
 10
98.68647637118713
 20
-108.0478252507657
 30
0.0
 10
98.68647637118713
 20
-107.9927213618908
 30
0.0
  0
SPLINE
  5
D7
330
44
100
AcDbEntity
  8
_U+30EC_U+30A4_U+30E4_U+30FC 1
 62
   179
420
  2234388
370
     9
100
AcDbSpline
210
0.0
220
0.0
230
1.0
 70
    11
 71
     3
 72
    17
 73
    13
 74
     0
 42
0.0000000001
 43
0.0000000001
 12
1.0
 22
0.0
 32
0.0
 13
1.0
 23
0.0
 33
0.0
 40
0.0
 40
0.0
 40
0.0
 40
0.0
 40
1.0
 40
1.0
 40
1.0
 40
2.0
 40
2.0
 40
2.0
 40
3.0
 40
3.0
 40
3.0
 40
4.0
 40
4.0
 40
4.0
 40
4.0
 10
82.68641705716043
 20
-107.9927213618908
 30
0.0
 10
82.68641705716043
 20
-107.9375821952377
 30
0.0
 10
82.64196705829444
 20
-107.8928146952492
 30
0.0
 10
82.58651039304259
 20
-107.8928146952492
 30
0.0
 10
82.53140650555952
 20
-107.8928146952492
 30
0.0
 10
82.48660372892475
 20
-107.9375821952377
 30
0.0
 10
82.48660372892475
 20
-107.9927213618908
 30
0.0
 10
82.48660372892475
 20
-108.0478252507657
 30
0.0
 10
82.53140650555952
 20
-108.0926280285325
 30
0.0
 10
82.58651039304259
 20
-108.0926280285325
 30
0.0
 10
82.64196705829444
 20
-108.0926280285325
 30
0.0
 10
82.68641705716043
 20
-108.0478252507657
 30
0.0
 10
82.68641705716043
 20
-107.9927213618908
 30
0.0
  0
INSERT
  5
D9
330
44
100
AcDbEntity
  8
_U+30EC_U+30A4_U+30E4_U+30FC 1
100
AcDbBlockReference
  2
block 3
 10
0.0
 20
0.0
 30
0.0
  0
INSERT
  5
101
330
44
100
AcDbEntity
  8
_U+30EC_U+30A4_U+30E4_U+30FC 1
100
AcDbBlockReference
  2
block 8
 10
0.0
 20
0.0
 30
0.0
  0
INSERT
  5
124
330
44
100
AcDbEntity
  8
_U+30EC_U+30A4_U+30E4_U+30FC 1
100
AcDbBlockReference
  2
block 13
 10
0.0
 20
0.0
 30
0.0
  0
ENDBLK
  5
47
330
44
100
AcDbEntity
  8
0
100
AcDbBlockEnd
  0
BLOCK
  5
DA
330
D8
100
AcDbEntity
  8
0
100
AcDbBlockBegin
  2
block 3
 70
     0
 10
0.0
 20
0.0
 30
0.0
  3
block 3
  1

  0
POLYLINE
  5
DC
330
D8
100
AcDbEntity
  8
_U+30EC_U+30A4_U+30E4_U+30FC 1
 62
   179
420
  2234388
370
     9
100
AcDb2dPolyline
 66
     1
 10
0.0
 20
0.0
 30
0.0
  0
VERTEX
  5
DD
330
DC
100
AcDbEntity
  8
_U+30EC_U+30A4_U+30E4_U+30FC 1
 62
   179
420
  2234388
370
     9
100
AcDbVertex
100
AcDb2dVertex
 10
82.58651039304259
 20
-107.9927213618908
 30
0.0
  0
VERTEX
  5
DE
330
DC
100
AcDbEntity
  8
_U+30EC_U+30A4_U+30E4_U+30FC 1
 62
   179
420
  2234388
370
     9
100
AcDbVertex
100
AcDb2dVertex
 10
98.58657219757578
 20
-107.9927213618908
 30
0.0
  0
SEQEND
  5
DF
330
DC
100
AcDbEntity
  8
_U+30EC_U+30A4_U+30E4_U+30FC 1
 62
   179
420
  2234388
370
     9
  0
POLYLINE
  5
E0
330
D8
100
AcDbEntity
  8
_U+30EC_U+30A4_U+30E4_U+30FC 1
 62
   179
420
  2234388
370
     9
100
AcDb2dPolyline
 66
     1
 10
0.0
 20
0.0
 30
0.0
  0
VERTEX
  5
E1
330
E0
100
AcDbEntity
  8
_U+30EC_U+30A4_U+30E4_U+30FC 1
 62
   179
420
  2234388
370
     9
100
AcDbVertex
100
AcDb2dVertex
 10
82.58651039304259
 20
-109.4527627504145
 30
0.0
  0
VERTEX
  5
E2
330
E0
100
AcDbEntity
  8
_U+30EC_U+30A4_U+30E4_U+30FC 1
 62
   179
420
  2234388
370
     9
100
AcDbVertex
100
AcDb2dVertex
 10
82.58651039304259
 20
-106.9929491399183
 30
0.0
  0
SEQEND
  5
E3
330
E0
100
AcDbEntity
  8
_U+30EC_U+30A4_U+30E4_U+30FC 1
 62
   179
420
  2234388
370
     9
  0
POLYLINE
  5
E4
330
D8
100
AcDbEntity
  8
_U+30EC_U+30A4_U+30E4_U+30FC 1
 62
   179
420
  2234388
370
     9
100
AcDb2dPolyline
 66
     1
 10
0.0
 20
0.0
 30
0.0
  0
VERTEX
  5
E5
330
E4
100
AcDbEntity
  8
_U+30EC_U+30A4_U+30E4_U+30FC 1
 62
   179
420
  2234388
370
     9
100
AcDbVertex
100
AcDb2dVertex
 10
98.58657219757578
 20
-109.4527627504145
 30
0.0
  0
VERTEX
  5
E6
330
E4
100
AcDbEntity
  8
_U+30EC_U+30A4_U+30E4_U+30FC 1
 62
   179
420
  2234388
370
     9
100
AcDbVertex
100
AcDb2dVertex
 10
98.58657219757578
 20
-106.9929491399183
 30
0.0
  0
SEQEND
  5
E7
330
E4
100
AcDbEntity
  8
_U+30EC_U+30A4_U+30E4_U+30FC 1
 62
   179
420
  2234388
370
     9
  0
INSERT
  5
E9
330
D8
100
AcDbEntity
  8
_U+30EC_U+30A4_U+30E4_U+30FC 1
100
AcDbBlockReference
  2
block 4
 10
0.0
 20
0.0
 30
0.0
  0
INSERT
  5
F2
330
D8
100
AcDbEntity
  8
_U+30EC_U+30A4_U+30E4_U+30FC 1
100
AcDbBlockReference
  2
block 5
 10
0.0
 20
0.0
 30
0.0
  0
INSERT
  5
F7
330
D8
100
AcDbEntity
  8
_U+30EC_U+30A4_U+30E4_U+30FC 1
100
AcDbBlockReference
  2
block 6
 10
0.0
 20
0.0
 30
0.0
  0
INSERT
  5
FC
330
D8
100
AcDbEntity
  8
_U+30EC_U+30A4_U+30E4_U+30FC 1
100
AcDbBlockReference
  2
block 7
 10
0.0
 20
0.0
 30
0.0
  0
ENDBLK
  5
DB
330
D8
100
AcDbEntity
  8
0
100
AcDbBlockEnd
  0
BLOCK
  5
EA
330
E8
100
AcDbEntity
  8
0
100
AcDbBlockBegin
  2
block 4
 70
     0
 10
0.0
 20
0.0
 30
0.0
  3
block 4
  1

  0
SPLINE
  5
EC
330
E8
100
AcDbEntity
  8
_U+30EC_U+30A4_U+30E4_U+30FC 1
370
     0
100
AcDbSpline
210
0.0
220
0.0
230
1.0
 70
    11
 71
     3
 72
    26
 73
    22
 74
     0
 42
0.0000000001
 43
0.0000000001
 12
1.0
 22
0.0
 32
0.0
 13
1.0
 23
0.0
 33
0.0
 40
0.0
 40
0.0
 40
0.0
 40
0.0
 40
1.0
 40
1.0
 40
1.0
 40
2.0
 40
2.0
 40
2.0
 40
3.0
 40
3.0
 40
3.0
 40
4.0
 40
4.0
 40
4.0
 40
5.0
 40
5.0
 40
5.0
 40
6.0
 40
6.0
 40
6.0
 40
7.0
 40
7.0
 40
7.0
 40
7.0
 10
89.94920380780785
 20
-107.6197875707513
 30
0.0
 10
89.94920380780785
 20
-107.6197875707513
 30
0.0
 10
89.94920380780785
 20
-106.5154622129545
 30
0.0
 10
89.94920380780785
 20
-106.5154622129545
 30
0.0
 10
89.94920380780785
 20
-106.5154622129545
 30
0.0
 10
89.61916366032091
 20
-106.5154622129545
 30
0.0
 10
89.61916366032091
 20
-106.5154622129545
 30
0.0
 10
89.61916366032091
 20
-106.5154622129545
 30
0.0
 10
89.61916366032091
 20
-106.367495361863
 30
0.0
 10
89.61916366032091
 20
-106.367495361863
 30
0.0
 10
89.95127086509899
 20
-106.3526814512764
 30
0.0
 10
89.99777965414987
 20
-106.1897284348241
 30
0.0
 10
90.02740747532302
 20
-106.0755235194881
 30
0.0
 10
90.02740747532302
 20
-106.0755235194881
 30
0.0
 10
90.17330726912334
 20
-106.0755235194881
 30
0.0
 10
90.17330726912334
 20
-106.0755235194881
 30
0.0
 10
90.17330726912334
 20
-106.0755235194881
 30
0.0
 10
90.17330726912334
 20
-107.6197875707513
 30
0.0
 10
90.17330726912334
 20
-107.6197875707513
 30
0.0
 10
90.17330726912334
 20
-107.6197875707513
 30
0.0
 10
89.94920380780785
 20
-107.6197875707513
 30
0.0
 10
89.94920380780785
 20
-107.6197875707513
 30
0.0
  0
HATCH
  5
ED
330
E8
100
AcDbEntity
  8
_U+30EC_U+30A4_U+30E4_U+30FC 1
 62
   179
420
  2234388
100
AcDbHatch
 10
0.0
 20
0.0
 30
0.0
210
0.0
220
0.0
230
1.0
  2
SOLID
 70
     1
 71
     0
 91
        1
 92
        1
 93
        1
 72
     4
 94
        3
 73
     0
 74
     1
 95
       26
 96
       22
 40
0.0
 40
0.0
 40
0.0
 40
0.0
 40
1.0
 40
1.0
 40
1.0
 40
2.0
 40
2.0
 40
2.0
 40
3.0
 40
3.0
 40
3.0
 40
4.0
 40
4.0
 40
4.0
 40
5.0
 40
5.0
 40
5.0
 40
6.0
 40
6.0
 40
6.0
 40
7.0
 40
7.0
 40
7.0
 40
7.0
 10
89.94920380780785
 20
-107.6197875707513
 10
89.94920380780785
 20
-107.6197875707513
 10
89.94920380780785
 20
-106.5154622129545
 10
89.94920380780785
 20
-106.5154622129545
 10
89.94920380780785
 20
-106.5154622129545
 10
89.61916366032091
 20
-106.5154622129545
 10
89.61916366032091
 20
-106.5154622129545
 10
89.61916366032091
 20
-106.5154622129545
 10
89.61916366032091
 20
-106.367495361863
 10
89.61916366032091
 20
-106.367495361863
 10
89.95127086509899
 20
-106.3526814512764
 10
89.99777965414987
 20
-106.1897284348241
 10
90.02740747532302
 20
-106.0755235194881
 10
90.02740747532302
 20
-106.0755235194881
 10
90.17330726912334
 20
-106.0755235194881
 10
90.17330726912334
 20
-106.0755235194881
 10
90.17330726912334
 20
-106.0755235194881
 10
90.17330726912334
 20
-107.6197875707513
 10
90.17330726912334
 20
-107.6197875707513
 10
90.17330726912334
 20
-107.6197875707513
 10
89.94920380780785
 20
-107.6197875707513
 10
89.94920380780785
 20
-107.6197875707513
 97
        0
 97
        0
 75
     2
 76
     1
 98
        0
  0
SPLINE
  5
EE
330
E8
100
AcDbEntity
  8
_U+30EC_U+30A4_U+30E4_U+30FC 1
370
     0
100
AcDbSpline
210
0.0
220
0.0
230
1.0
 70
    11
 71
     3
 72
    32
 73
    28
 74
     0
 42
0.0000000001
 43
0.0000000001
 12
1.0
 22
0.0
 32
0.0
 13
1.0
 23
0.0
 33
0.0
 40
0.0
 40
0.0
 40
0.0
 40
0.0
 40
1.0
 40
1.0
 40
1.0
 40
2.0
 40
2.0
 40
2.0
 40
3.0
 40
3.0
 40
3.0
 40
4.0
 40
4.0
 40
4.0
 40
5.0
 40
5.0
 40
5.0
 40
6.0
 40
6.0
 40
6.0
 40
7.0
 40
7.0
 40
7.0
 40
8.0
 40
8.0
 40
8.0
 40
9.0
 40
9.0
 40
9.0
 40
9.0
 10
91.17893064126777
 20
-107.6706027291587
 30
0.0
 10
90.66268308280308
 20
-107.6706027291587
 30
0.0
 10
90.65424259886422
 20
-107.116286865582
 30
0.0
 10
90.65424259886422
 20
-106.9026909454966
 30
0.0
 10
90.65424259886422
 20
-106.6720418027591
 30
0.0
 10
90.67336287880735
 20
-106.0247083610806
 30
0.0
 10
91.21699894637979
 20
-106.0247083610806
 30
0.0
 10
91.39045950406211
 20
-106.0247083610806
 30
0.0
 10
91.6357503026119
 20
-106.0944715446569
 30
0.0
 10
91.67399086249817
 20
-106.4267510042093
 30
0.0
 10
91.67399086249817
 20
-106.4267510042093
 30
0.0
 10
91.46039494241268
 20
-106.4267510042093
 30
0.0
 10
91.46039494241268
 20
-106.4267510042093
 30
0.0
 10
91.44971514640841
 20
-106.3695624191541
 30
0.0
 10
91.41802026794412
 20
-106.2214233132884
 30
0.0
 10
91.21493188908863
 20
-106.2214233132884
 30
0.0
 10
90.92296004671371
 20
-106.2214233132884
 30
0.0
 10
90.88265242953628
 20
-106.5493964034842
 30
0.0
 10
90.87007783101512
 20
-106.7545518396308
 30
0.0
 10
90.96309540911687
 20
-106.6763481721156
 30
0.0
 10
91.03079153540203
 20
-106.6170925297693
 30
0.0
 10
91.21269257702322
 20
-106.6170925297693
 30
0.0
 10
91.39252656135326
 20
-106.6170925297693
 30
0.0
 10
91.6950059449582
 20
-106.7249240184577
 30
0.0
 10
91.6950059449582
 20
-107.1311007761686
 30
0.0
 10
91.6950059449582
 20
-107.4506333824255
 30
0.0
 10
91.49622393545928
 20
-107.6706027291587
 30
0.0
 10
91.17893064126777
 20
-107.6706027291587
 30
0.0
  0
SPLINE
  5
EF
330
E8
100
AcDbEntity
  8
_U+30EC_U+30A4_U+30E4_U+30FC 1
370
     0
100
AcDbSpline
210
0.0
220
0.0
230
1.0
 70
    11
 71
     3
 72
    17
 73
    13
 74
     0
 42
0.0000000001
 43
0.0000000001
 12
1.0
 22
0.0
 32
0.0
 13
1.0
 23
0.0
 33
0.0
 40
0.0
 40
0.0
 40
0.0
 40
0.0
 40
1.0
 40
1.0
 40
1.0
 40
2.0
 40
2.0
 40
2.0
 40
3.0
 40
3.0
 40
3.0
 40
4.0
 40
4.0
 40
4.0
 40
4.0
 10
91.1958116091455
 20
-106.811740424686
 30
0.0
 10
90.93346758794372
 20
-106.811740424686
 30
0.0
 10
90.8953992828317
 20
-107.0232692874803
 30
0.0
 10
90.8953992828317
 20
-107.1395412601075
 30
0.0
 10
90.8953992828317
 20
-107.3152411298552
 30
0.0
 10
90.99065617299887
 20
-107.4780218915333
 30
0.0
 10
91.17462427191121
 20
-107.4780218915333
 30
0.0
 10
91.29520261389496
 20
-107.4780218915333
 30
0.0
 10
91.47073022886843
 20
-107.418766249187
 30
0.0
 10
91.47073022886843
 20
-107.1331678334598
 30
0.0
 10
91.47073022886843
 20
-106.9090643721443
 30
0.0
 10
91.33120386171582
 20
-106.811740424686
 30
0.0
 10
91.1958116091455
 20
-106.811740424686
 30
0.0
  0
HATCH
  5
F0
330
E8
100
AcDbEntity
  8
_U+30EC_U+30A4_U+30E4_U+30FC 1
 62
   179
420
  2234388
100
AcDbHatch
 10
0.0
 20
0.0
 30
0.0
210
0.0
220
0.0
230
1.0
  2
SOLID
 70
     1
 71
     0
 91
        2
 92
        1
 93
        1
 72
     4
 94
        3
 73
     0
 74
     1
 95
       32
 96
       28
 40
0.0
 40
0.0
 40
0.0
 40
0.0
 40
1.0
 40
1.0
 40
1.0
 40
2.0
 40
2.0
 40
2.0
 40
3.0
 40
3.0
 40
3.0
 40
4.0
 40
4.0
 40
4.0
 40
5.0
 40
5.0
 40
5.0
 40
6.0
 40
6.0
 40
6.0
 40
7.0
 40
7.0
 40
7.0
 40
8.0
 40
8.0
 40
8.0
 40
9.0
 40
9.0
 40
9.0
 40
9.0
 10
91.17893064126777
 20
-107.6706027291587
 10
90.66268308280308
 20
-107.6706027291587
 10
90.65424259886422
 20
-107.116286865582
 10
90.65424259886422
 20
-106.9026909454966
 10
90.65424259886422
 20
-106.6720418027591
 10
90.67336287880735
 20
-106.0247083610806
 10
91.21699894637979
 20
-106.0247083610806
 10
91.39045950406211
 20
-106.0247083610806
 10
91.6357503026119
 20
-106.0944715446569
 10
91.67399086249817
 20
-106.4267510042093
 10
91.67399086249817
 20
-106.4267510042093
 10
91.46039494241268
 20
-106.4267510042093
 10
91.46039494241268
 20
-106.4267510042093
 10
91.44971514640841
 20
-106.3695624191541
 10
91.41802026794412
 20
-106.2214233132884
 10
91.21493188908863
 20
-106.2214233132884
 10
90.92296004671371
 20
-106.2214233132884
 10
90.88265242953628
 20
-106.5493964034842
 10
90.87007783101512
 20
-106.7545518396308
 10
90.96309540911687
 20
-106.6763481721156
 10
91.03079153540203
 20
-106.6170925297693
 10
91.21269257702322
 20
-106.6170925297693
 10
91.39252656135326
 20
-106.6170925297693
 10
91.6950059449582
 20
-106.7249240184577
 10
91.6950059449582
 20
-107.1311007761686
 10
91.6950059449582
 20
-107.4506333824255
 10
91.49622393545928
 20
-107.6706027291587
 10
91.17893064126777
 20
-107.6706027291587
 97
        0
 97
        0
 92
        1
 93
        1
 72
     4
 94
        3
 73
     0
 74
     1
 95
       17
 96
       13
 40
0.0
 40
0.0
 40
0.0
 40
0.0
 40
1.0
 40
1.0
 40
1.0
 40
2.0
 40
2.0
 40
2.0
 40
3.0
 40
3.0
 40
3.0
 40
4.0
 40
4.0
 40
4.0
 40
4.0
 10
91.1958116091455
 20
-106.811740424686
 10
90.93346758794372
 20
-106.811740424686
 10
90.8953992828317
 20
-107.0232692874803
 10
90.8953992828317
 20
-107.1395412601075
 10
90.8953992828317
 20
-107.3152411298552
 10
90.99065617299887
 20
-107.4780218915333
 10
91.17462427191121
 20
-107.4780218915333
 10
91.29520261389496
 20
-107.4780218915333
 10
91.47073022886843
 20
-107.418766249187
 10
91.47073022886843
 20
-107.1331678334598
 10
91.47073022886843
 20
-106.9090643721443
 10
91.33120386171582
 20
-106.811740424686
 10
91.1958116091455
 20
-106.811740424686
 97
        0
 97
        0
 75
     2
 76
     1
 98
        0
  0
ENDBLK
  5
EB
330
E8
100
AcDbEntity
  8
0
100
AcDbBlockEnd
  0
BLOCK
  5
F3
330
F1
100
AcDbEntity
  8
0
100
AcDbBlockBegin
  2
block 5
 70
     0
 10
0.0
 20
0.0
 30
0.0
  3
block 5
  1

  0
SPLINE
  5
F5
330
F1
100
AcDbEntity
  8
_U+30EC_U+30A4_U+30E4_U+30FC 1
 62
   179
420
  2234388
370
    25
100
AcDbSpline
210
0.0
220
0.0
230
1.0
 70
    11
 71
     3
 72
    17
 73
    13
 74
     0
 42
0.0000000001
 43
0.0000000001
 12
1.0
 22
0.0
 32
0.0
 13
1.0
 23
0.0
 33
0.0
 40
0.0
 40
0.0
 40
0.0
 40
0.0
 40
1.0
 40
1.0
 40
1.0
 40
2.0
 40
2.0
 40
2.0
 40
3.0
 40
3.0
 40
3.0
 40
4.0
 40
4.0
 40
4.0
 40
4.0
 10
82.62199983658162
 20
-111.9924805275574
 30
0.0
 10
82.62199983658162
 20
-112.0124477497746
 30
0.0
 10
82.6061601147635
 20
-112.0276171942154
 30
0.0
 10
82.58651039304259
 20
-112.0276171942154
 30
0.0
 10
82.56721344909045
 20
-112.0276171942154
 30
0.0
 10
82.55137372727233
 20
-112.0124477497746
 30
0.0
 10
82.55137372727233
 20
-111.9924805275574
 30
0.0
 10
82.55137372727233
 20
-111.9731835831179
 30
0.0
 10
82.56721344909045
 20
-111.9573438608997
 30
0.0
 10
82.58651039304259
 20
-111.9573438608997
 30
0.0
 10
82.6061601147635
 20
-111.9573438608997
 30
0.0
 10
82.62199983658162
 20
-111.9731835831179
 30
0.0
 10
82.62199983658162
 20
-111.9924805275574
 30
0.0
  0
ENDBLK
  5
F4
330
F1
100
AcDbEntity
  8
0
100
AcDbBlockEnd
  0
BLOCK
  5
F8
330
F6
100
AcDbEntity
  8
0
100
AcDbBlockBegin
  2
block 6
 70
     0
 10
0.0
 20
0.0
 30
0.0
  3
block 6
  1

  0
SPLINE
  5
FA
330
F6
100
AcDbEntity
  8
_U+30EC_U+30A4_U+30E4_U+30FC 1
 62
   179
420
  2234388
370
    25
100
AcDbSpline
210
0.0
220
0.0
230
1.0
 70
    11
 71
     3
 72
    17
 73
    13
 74
     0
 42
0.0000000001
 43
0.0000000001
 12
1.0
 22
0.0
 32
0.0
 13
1.0
 23
0.0
 33
0.0
 40
0.0
 40
0.0
 40
0.0
 40
0.0
 40
1.0
 40
1.0
 40
1.0
 40
2.0
 40
2.0
 40
2.0
 40
3.0
 40
3.0
 40
3.0
 40
4.0
 40
4.0
 40
4.0
 40
4.0
 10
98.62170637283954
 20
-111.9924805275574
 30
0.0
 10
98.62170637283954
 20
-112.0124477497746
 30
0.0
 10
98.60621942879021
 20
-112.0276171942154
 30
0.0
 10
98.58657219757578
 20
-112.0276171942154
 30
0.0
 10
98.56727276311715
 20
-112.0276171942154
 30
0.0
 10
98.55143304129903
 20
-112.0124477497746
 30
0.0
 10
98.55143304129903
 20
-111.9924805275574
 30
0.0
 10
98.55143304129903
 20
-111.9731835831179
 30
0.0
 10
98.56727276311715
 20
-111.9573438608997
 30
0.0
 10
98.58657219757578
 20
-111.9573438608997
 30
0.0
 10
98.60621942879021
 20
-111.9573438608997
 30
0.0
 10
98.62170637283954
 20
-111.9731835831179
 30
0.0
 10
98.62170637283954
 20
-111.9924805275574
 30
0.0
  0
ENDBLK
  5
F9
330
F6
100
AcDbEntity
  8
0
100
AcDbBlockEnd
  0
BLOCK
  5
FD
330
FB
100
AcDbEntity
  8
0
100
AcDbBlockBegin
  2
block 7
 70
     0
 10
0.0
 20
0.0
 30
0.0
  3
block 7
  1

  0
SPLINE
  5
FF
330
FB
100
AcDbEntity
  8
_U+30EC_U+30A4_U+30E4_U+30FC 1
 62
   179
420
  2234388
370
     9
100
AcDbSpline
210
0.0
220
0.0
230
1.0
 70
    11
 71
     3
 72
    17
 73
    13
 74
     0
 42
0.0000000001
 43
0.0000000001
 12
1.0
 22
0.0
 32
0.0
 13
1.0
 23
0.0
 33
0.0
 40
0.0
 40
0.0
 40
0.0
 40
0.0
 40
1.0
 40
1.0
 40
1.0
 40
2.0
 40
2.0
 40
2.0
 40
3.0
 40
3.0
 40
3.0
 40
4.0
 40
4.0
 40
4.0
 40
4.0
 10
98.62170637283954
 20
-107.9927213618908
 30
0.0
 10
98.62170637283954
 20
-108.0120183063303
 30
0.0
 10
98.60621942879021
 20
-108.0278580285486
 30
0.0
 10
98.58657219757578
 20
-108.0278580285486
 30
0.0
 10
98.56727276311715
 20
-108.0278580285486
 30
0.0
 10
98.55143304129903
 20
-108.0120183063303
 30
0.0
 10
98.55143304129903
 20
-107.9927213618908
 30
0.0
 10
98.55143304129903
 20
-107.973424417451
 30
0.0
 10
98.56727276311715
 20
-107.9575846952328
 30
0.0
 10
98.58657219757578
 20
-107.9575846952328
 30
0.0
 10
98.60621942879021
 20
-107.9575846952328
 30
0.0
 10
98.62170637283954
 20
-107.973424417451
 30
0.0
 10
98.62170637283954
 20
-107.9927213618908
 30
0.0
  0
ENDBLK
  5
FE
330
FB
100
AcDbEntity
  8
0
100
AcDbBlockEnd
  0
BLOCK
  5
102
330
100
100
AcDbEntity
  8
0
100
AcDbBlockBegin
  2
block 8
 70
     0
 10
0.0
 20
0.0
 30
0.0
  3
block 8
  1

  0
POLYLINE
  5
104
330
100
100
AcDbEntity
  8
_U+30EC_U+30A4_U+30E4_U+30FC 1
 62
   179
420
  2234388
370
     9
100
AcDb2dPolyline
 66
     1
 10
0.0
 20
0.0
 30
0.0
  0
VERTEX
  5
105
330
104
100
AcDbEntity
  8
_U+30EC_U+30A4_U+30E4_U+30FC 1
 62
   179
420
  2234388
370
     9
100
AcDbVertex
100
AcDb2dVertex
 10
62.58669201439157
 20
-128.9926299677519
 30
0.0
  0
VERTEX
  5
106
330
104
100
AcDbEntity
  8
_U+30EC_U+30A4_U+30E4_U+30FC 1
 62
   179
420
  2234388
370
     9
100
AcDbVertex
100
AcDb2dVertex
 10
62.58669201439157
 20
-111.9924805275574
 30
0.0
  0
SEQEND
  5
107
330
104
100
AcDbEntity
  8
_U+30EC_U+30A4_U+30E4_U+30FC 1
 62
   179
420
  2234388
370
     9
  0
POLYLINE
  5
108
330
100
100
AcDbEntity
  8
_U+30EC_U+30A4_U+30E4_U+30FC 1
 62
   179
420
  2234388
370
     9
100
AcDb2dPolyline
 66
     1
 10
0.0
 20
0.0
 30
0.0
  0
VERTEX
  5
109
330
108
100
AcDbEntity
  8
_U+30EC_U+30A4_U+30E4_U+30FC 1
 62
   179
420
  2234388
370
     9
100
AcDbVertex
100
AcDb2dVertex
 10
80.04643990228963
 20
-111.9924805275574
 30
0.0
  0
VERTEX
  5
10A
330
108
100
AcDbEntity
  8
_U+30EC_U+30A4_U+30E4_U+30FC 1
 62
   179
420
  2234388
370
     9
100
AcDbVertex
100
AcDb2dVertex
 10
61.58660231768376
 20
-111.9924805275574
 30
0.0
  0
SEQEND
  5
10B
330
108
100
AcDbEntity
  8
_U+30EC_U+30A4_U+30E4_U+30FC 1
 62
   179
420
  2234388
370
     9
  0
INSERT
  5
10D
330
100
100
AcDbEntity
  8
_U+30EC_U+30A4_U+30E4_U+30FC 1
100
AcDbBlockReference
  2
block 9
 10
0.0
 20
0.0
 30
0.0
  0
INSERT
  5
115
330
100
100
AcDbEntity
  8
_U+30EC_U+30A4_U+30E4_U+30FC 1
100
AcDbBlockReference
  2
block 10
 10
0.0
 20
0.0
 30
0.0
  0
INSERT
  5
11A
330
100
100
AcDbEntity
  8
_U+30EC_U+30A4_U+30E4_U+30FC 1
100
AcDbBlockReference
  2
block 11
 10
0.0
 20
0.0
 30
0.0
  0
INSERT
  5
11F
330
100
100
AcDbEntity
  8
_U+30EC_U+30A4_U+30E4_U+30FC 1
100
AcDbBlockReference
  2
block 12
 10
0.0
 20
0.0
 30
0.0
  0
ENDBLK
  5
103
330
100
100
AcDbEntity
  8
0
100
AcDbBlockEnd
  0
BLOCK
  5
10E
330
10C
100
AcDbEntity
  8
0
100
AcDbBlockBegin
  2
block 9
 70
     0
 10
0.0
 20
0.0
 30
0.0
  3
block 9
  1

  0
SPLINE
  5
110
330
10C
100
AcDbEntity
  8
_U+30EC_U+30A4_U+30E4_U+30FC 1
370
     0
100
AcDbSpline
210
0.0
220
0.0
230
1.0
 70
    11
 71
     3
 72
    26
 73
    22
 74
     0
 42
0.0000000001
 43
0.0000000001
 12
1.0
 22
0.0
 32
0.0
 13
1.0
 23
0.0
 33
0.0
 40
0.0
 40
0.0
 40
0.0
 40
0.0
 40
1.0
 40
1.0
 40
1.0
 40
2.0
 40
2.0
 40
2.0
 40
3.0
 40
3.0
 40
3.0
 40
4.0
 40
4.0
 40
4.0
 40
5.0
 40
5.0
 40
5.0
 40
6.0
 40
6.0
 40
6.0
 40
7.0
 40
7.0
 40
7.0
 40
7.0
 10
62.2141180942555
 20
-121.0716796572321
 30
0.0
 10
62.2141180942555
 20
-121.0716796572321
 30
0.0
 10
61.10979273645867
 20
-121.0716796572321
 30
0.0
 10
61.10979273645867
 20
-121.0716796572321
 30
0.0
 10
61.10979273645867
 20
-121.0716796572321
 30
0.0
 10
61.10979273645867
 20
-121.401719804719
 30
0.0
 10
61.10979273645867
 20
-121.401719804719
 30
0.0
 10
61.10979273645867
 20
-121.401719804719
 30
0.0
 10
60.96182588536718
 20
-121.401719804719
 30
0.0
 10
60.96182588536718
 20
-121.401719804719
 30
0.0
 10
60.94701197478061
 20
-121.0696125999409
 30
0.0
 10
60.78405895832829
 20
-121.0231038108901
 30
0.0
 10
60.66985404299226
 20
-120.9934759897169
 30
0.0
 10
60.66985404299226
 20
-120.9934759897169
 30
0.0
 10
60.66985404299226
 20
-120.8475761959166
 30
0.0
 10
60.66985404299226
 20
-120.8475761959166
 30
0.0
 10
60.66985404299226
 20
-120.8475761959166
 30
0.0
 10
62.2141180942555
 20
-120.8475761959166
 30
0.0
 10
62.2141180942555
 20
-120.8475761959166
 30
0.0
 10
62.2141180942555
 20
-120.8475761959166
 30
0.0
 10
62.2141180942555
 20
-121.0716796572321
 30
0.0
 10
62.2141180942555
 20
-121.0716796572321
 30
0.0
  0
HATCH
  5
111
330
10C
100
AcDbEntity
  8
_U+30EC_U+30A4_U+30E4_U+30FC 1
 62
   179
420
  2234388
100
AcDbHatch
 10
0.0
 20
0.0
 30
0.0
210
0.0
220
0.0
230
1.0
  2
SOLID
 70
     1
 71
     0
 91
        1
 92
        1
 93
        1
 72
     4
 94
        3
 73
     0
 74
     1
 95
       26
 96
       22
 40
0.0
 40
0.0
 40
0.0
 40
0.0
 40
1.0
 40
1.0
 40
1.0
 40
2.0
 40
2.0
 40
2.0
 40
3.0
 40
3.0
 40
3.0
 40
4.0
 40
4.0
 40
4.0
 40
5.0
 40
5.0
 40
5.0
 40
6.0
 40
6.0
 40
6.0
 40
7.0
 40
7.0
 40
7.0
 40
7.0
 10
62.2141180942555
 20
-121.0716796572321
 10
62.2141180942555
 20
-121.0716796572321
 10
61.10979273645867
 20
-121.0716796572321
 10
61.10979273645867
 20
-121.0716796572321
 10
61.10979273645867
 20
-121.0716796572321
 10
61.10979273645867
 20
-121.401719804719
 10
61.10979273645867
 20
-121.401719804719
 10
61.10979273645867
 20
-121.401719804719
 10
60.96182588536718
 20
-121.401719804719
 10
60.96182588536718
 20
-121.401719804719
 10
60.94701197478061
 20
-121.0696125999409
 10
60.78405895832829
 20
-121.0231038108901
 10
60.66985404299226
 20
-120.9934759897169
 10
60.66985404299226
 20
-120.9934759897169
 10
60.66985404299226
 20
-120.8475761959166
 10
60.66985404299226
 20
-120.8475761959166
 10
60.66985404299226
 20
-120.8475761959166
 10
62.2141180942555
 20
-120.8475761959166
 10
62.2141180942555
 20
-120.8475761959166
 10
62.2141180942555
 20
-120.8475761959166
 10
62.2141180942555
 20
-121.0716796572321
 10
62.2141180942555
 20
-121.0716796572321
 97
        0
 97
        0
 75
     2
 76
     1
 98
        0
  0
SPLINE
  5
112
330
10C
100
AcDbEntity
  8
_U+30EC_U+30A4_U+30E4_U+30FC 1
370
     0
100
AcDbSpline
210
0.0
220
0.0
230
1.0
 70
    11
 71
     3
 72
    26
 73
    22
 74
     0
 42
0.0000000001
 43
0.0000000001
 12
1.0
 22
0.0
 32
0.0
 13
1.0
 23
0.0
 33
0.0
 40
0.0
 40
0.0
 40
0.0
 40
0.0
 40
1.0
 40
1.0
 40
1.0
 40
2.0
 40
2.0
 40
2.0
 40
3.0
 40
3.0
 40
3.0
 40
4.0
 40
4.0
 40
4.0
 40
5.0
 40
5.0
 40
5.0
 40
6.0
 40
6.0
 40
6.0
 40
7.0
 40
7.0
 40
7.0
 40
7.0
 10
62.2141180942555
 20
-119.9351426566482
 30
0.0
 10
62.2141180942555
 20
-119.9351426566482
 30
0.0
 10
62.2141180942555
 20
-120.1719929712591
 30
0.0
 10
62.2141180942555
 20
-120.1719929712591
 30
0.0
 10
61.90526528400285
 20
-120.1466715194425
 30
0.0
 10
61.38695066824702
 20
-119.954090681817
 30
0.0
 10
60.8813829057866
 20
-119.5479139241061
 30
0.0
 10
60.8813829057866
 20
-119.5479139241061
 30
0.0
 10
60.8813829057866
 20
-120.3857611461188
 30
0.0
 10
60.8813829057866
 20
-120.3857611461188
 30
0.0
 10
60.8813829057866
 20
-120.3857611461188
 30
0.0
 10
60.66985404299226
 20
-120.3857611461188
 30
0.0
 10
60.66985404299226
 20
-120.3857611461188
 30
0.0
 10
60.66985404299226
 20
-120.3857611461188
 30
0.0
 10
60.66985404299226
 20
-119.3110636094952
 30
0.0
 10
60.66985404299226
 20
-119.3110636094952
 30
0.0
 10
60.66985404299226
 20
-119.3110636094952
 30
0.0
 10
60.8813829057866
 20
-119.3110636094952
 30
0.0
 10
60.8813829057866
 20
-119.3110636094952
 30
0.0
 10
61.17128769087037
 20
-119.6347303303344
 30
0.0
 10
61.76349960478482
 20
-119.9012084661184
 30
0.0
 10
62.2141180942555
 20
-119.9351426566482
 30
0.0
  0
HATCH
  5
113
330
10C
100
AcDbEntity
  8
_U+30EC_U+30A4_U+30E4_U+30FC 1
 62
   179
420
  2234388
100
AcDbHatch
 10
0.0
 20
0.0
 30
0.0
210
0.0
220
0.0
230
1.0
  2
SOLID
 70
     1
 71
     0
 91
        1
 92
        1
 93
        1
 72
     4
 94
        3
 73
     0
 74
     1
 95
       26
 96
       22
 40
0.0
 40
0.0
 40
0.0
 40
0.0
 40
1.0
 40
1.0
 40
1.0
 40
2.0
 40
2.0
 40
2.0
 40
3.0
 40
3.0
 40
3.0
 40
4.0
 40
4.0
 40
4.0
 40
5.0
 40
5.0
 40
5.0
 40
6.0
 40
6.0
 40
6.0
 40
7.0
 40
7.0
 40
7.0
 40
7.0
 10
62.2141180942555
 20
-119.9351426566482
 10
62.2141180942555
 20
-119.9351426566482
 10
62.2141180942555
 20
-120.1719929712591
 10
62.2141180942555
 20
-120.1719929712591
 10
61.90526528400285
 20
-120.1466715194425
 10
61.38695066824702
 20
-119.954090681817
 10
60.8813829057866
 20
-119.5479139241061
 10
60.8813829057866
 20
-119.5479139241061
 10
60.8813829057866
 20
-120.3857611461188
 10
60.8813829057866
 20
-120.3857611461188
 10
60.8813829057866
 20
-120.3857611461188
 10
60.66985404299226
 20
-120.3857611461188
 10
60.66985404299226
 20
-120.3857611461188
 10
60.66985404299226
 20
-120.3857611461188
 10
60.66985404299226
 20
-119.3110636094952
 10
60.66985404299226
 20
-119.3110636094952
 10
60.66985404299226
 20
-119.3110636094952
 10
60.8813829057866
 20
-119.3110636094952
 10
60.8813829057866
 20
-119.3110636094952
 10
61.17128769087037
 20
-119.6347303303344
 10
61.76349960478482
 20
-119.9012084661184
 10
62.2141180942555
 20
-119.9351426566482
 97
        0
 97
        0
 75
     2
 76
     1
 98
        0
  0
ENDBLK
  5
10F
330
10C
100
AcDbEntity
  8
0
100
AcDbBlockEnd
  0
BLOCK
  5
116
330
114
100
AcDbEntity
  8
0
100
AcDbBlockBegin
  2
block 10
 70
     0
 10
0.0
 20
0.0
 30
0.0
  3
block 10
  1

  0
SPLINE
  5
118
330
114
100
AcDbEntity
  8
_U+30EC_U+30A4_U+30E4_U+30FC 1
 62
   179
420
  2234388
370
    25
100
AcDbSpline
210
0.0
220
0.0
230
1.0
 70
    11
 71
     3
 72
    17
 73
    13
 74
     0
 42
0.0000000001
 43
0.0000000001
 12
1.0
 22
0.0
 32
0.0
 13
1.0
 23
0.0
 33
0.0
 40
0.0
 40
0.0
 40
0.0
 40
0.0
 40
1.0
 40
1.0
 40
1.0
 40
2.0
 40
2.0
 40
2.0
 40
3.0
 40
3.0
 40
3.0
 40
4.0
 40
4.0
 40
4.0
 40
4.0
 10
74.62181142957232
 20
-128.9926299677519
 30
0.0
 10
74.62181142957232
 20
-129.0119269121917
 30
0.0
 10
74.60593642997732
 20
-129.0277666344096
 30
0.0
 10
74.58667476380207
 20
-129.0277666344096
 30
0.0
 10
74.56702504208114
 20
-129.0277666344096
 30
0.0
 10
74.55118532026303
 20
-129.0119269121917
 30
0.0
 10
74.55118532026303
 20
-128.9926299677519
 30
0.0
 10
74.55118532026303
 20
-128.9726627455347
 30
0.0
 10
74.56702504208114
 20
-128.9574933010941
 30
0.0
 10
74.58667476380207
 20
-128.9574933010941
 30
0.0
 10
74.60593642997732
 20
-128.9574933010941
 30
0.0
 10
74.62181142957232
 20
-128.9726627455347
 30
0.0
 10
74.62181142957232
 20
-128.9926299677519
 30
0.0
  0
ENDBLK
  5
117
330
114
100
AcDbEntity
  8
0
100
AcDbBlockEnd
  0
BLOCK
  5
11B
330
119
100
AcDbEntity
  8
0
100
AcDbBlockBegin
  2
block 11
 70
     0
 10
0.0
 20
0.0
 30
0.0
  3
block 11
  1

  0
SPLINE
  5
11D
330
119
100
AcDbEntity
  8
_U+30EC_U+30A4_U+30E4_U+30FC 1
 62
   179
420
  2234388
370
    25
100
AcDbSpline
210
0.0
220
0.0
230
1.0
 70
    11
 71
     3
 72
    17
 73
    13
 74
     0
 42
0.0000000001
 43
0.0000000001
 12
1.0
 22
0.0
 32
0.0
 13
1.0
 23
0.0
 33
0.0
 40
0.0
 40
0.0
 40
0.0
 40
0.0
 40
1.0
 40
1.0
 40
1.0
 40
2.0
 40
2.0
 40
2.0
 40
3.0
 40
3.0
 40
3.0
 40
4.0
 40
4.0
 40
4.0
 40
4.0
 10
82.62199983658162
 20
-111.9924805275574
 30
0.0
 10
82.62199983658162
 20
-112.0124477497746
 30
0.0
 10
82.6061601147635
 20
-112.0276171942154
 30
0.0
 10
82.58651039304259
 20
-112.0276171942154
 30
0.0
 10
82.56721344909045
 20
-112.0276171942154
 30
0.0
 10
82.55137372727233
 20
-112.0124477497746
 30
0.0
 10
82.55137372727233
 20
-111.9924805275574
 30
0.0
 10
82.55137372727233
 20
-111.9731835831179
 30
0.0
 10
82.56721344909045
 20
-111.9573438608997
 30
0.0
 10
82.58651039304259
 20
-111.9573438608997
 30
0.0
 10
82.6061601147635
 20
-111.9573438608997
 30
0.0
 10
82.62199983658162
 20
-111.9731835831179
 30
0.0
 10
82.62199983658162
 20
-111.9924805275574
 30
0.0
  0
ENDBLK
  5
11C
330
119
100
AcDbEntity
  8
0
100
AcDbBlockEnd
  0
BLOCK
  5
120
330
11E
100
AcDbEntity
  8
0
100
AcDbBlockBegin
  2
block 12
 70
     0
 10
0.0
 20
0.0
 30
0.0
  3
block 12
  1

  0
SPLINE
  5
122
330
11E
100
AcDbEntity
  8
_U+30EC_U+30A4_U+30E4_U+30FC 1
 62
   179
420
  2234388
370
     9
100
AcDbSpline
210
0.0
220
0.0
230
1.0
 70
    11
 71
     3
 72
    17
 73
    13
 74
     0
 42
0.0000000001
 43
0.0000000001
 12
1.0
 22
0.0
 32
0.0
 13
1.0
 23
0.0
 33
0.0
 40
0.0
 40
0.0
 40
0.0
 40
0.0
 40
1.0
 40
1.0
 40
1.0
 40
2.0
 40
2.0
 40
2.0
 40
3.0
 40
3.0
 40
3.0
 40
4.0
 40
4.0
 40
4.0
 40
4.0
 10
62.62182868016183
 20
-111.9924805275574
 30
0.0
 10
62.62182868016183
 20
-112.0124477497746
 30
0.0
 10
62.60598895834372
 20
-112.0276171942154
 30
0.0
 10
62.58669201439157
 20
-112.0276171942154
 30
0.0
 10
62.56707757044754
 20
-112.0276171942154
 30
0.0
 10
62.55120257085254
 20
-112.0124477497746
 30
0.0
 10
62.55120257085254
 20
-111.9924805275574
 30
0.0
 10
62.55120257085254
 20
-111.9731835831179
 30
0.0
 10
62.56707757044754
 20
-111.9573438608997
 30
0.0
 10
62.58669201439157
 20
-111.9573438608997
 30
0.0
 10
62.60598895834372
 20
-111.9573438608997
 30
0.0
 10
62.62182868016183
 20
-111.9731835831179
 30
0.0
 10
62.62182868016183
 20
-111.9924805275574
 30
0.0
  0
ENDBLK
  5
121
330
11E
100
AcDbEntity
  8
0
100
AcDbBlockEnd
  0
BLOCK
  5
125
330
123
100
AcDbEntity
  8
0
100
AcDbBlockBegin
  2
block 13
 70
     0
 10
0.0
 20
0.0
 30
0.0
  3
block 13
  1

  0
INSERT
  5
128
330
123
100
AcDbEntity
  8
_U+30EC_U+30A4_U+30E4_U+30FC 1
100
AcDbBlockReference
  2
block 14
 10
0.0
 20
0.0
 30
0.0
  0
ENDBLK
  5
126
330
123
100
AcDbEntity
  8
0
100
AcDbBlockEnd
  0
BLOCK
  5
129
330
127
100
AcDbEntity
  8
0
100
AcDbBlockBegin
  2
block 14
 70
     0
 10
0.0
 20
0.0
 30
0.0
  3
block 14
  1

  0
SPLINE
  5
12B
330
127
100
AcDbEntity
  8
_U+30EC_U+30A4_U+30E4_U+30FC 1
 62
   179
420
  2234388
370
    25
100
AcDbSpline
210
0.0
220
0.0
230
1.0
 70
    11
 71
     3
 72
    17
 73
    13
 74
     0
 42
0.0000000001
 43
0.0000000001
 12
1.0
 22
0.0
 32
0.0
 13
1.0
 23
0.0
 33
0.0
 40
0.0
 40
0.0
 40
0.0
 40
0.0
 40
1.0
 40
1.0
 40
1.0
 40
2.0
 40
2.0
 40
2.0
 40
3.0
 40
3.0
 40
3.0
 40
4.0
 40
4.0
 40
4.0
 40
4.0
 10
98.62170637283954
 20
-111.9924805275574
 30
0.0
 10
98.62170637283954
 20
-112.0124477497746
 30
0.0
 10
98.60621942879021
 20
-112.0276171942154
 30
0.0
 10
98.58657219757578
 20
-112.0276171942154
 30
0.0
 10
98.56727276311715
 20
-112.0276171942154
 30
0.0
 10
98.55143304129903
 20
-112.0124477497746
 30
0.0
 10
98.55143304129903
 20
-111.9924805275574
 30
0.0
 10
98.55143304129903
 20
-111.9731835831179
 30
0.0
 10
98.56727276311715
 20
-111.9573438608997
 30
0.0
 10
98.58657219757578
 20
-111.9573438608997
 30
0.0
 10
98.60621942879021
 20
-111.9573438608997
 30
0.0
 10
98.62170637283954
 20
-111.9731835831179
 30
0.0
 10
98.62170637283954
 20
-111.9924805275574
 30
0.0
  0
ENDBLK
  5
12A
330
127
100
AcDbEntity
  8
0
100
AcDbBlockEnd
  0
BLOCK
  5
12E
330
12C
100
AcDbEntity
  8
0
100
AcDbBlockBegin
  2
block 15
 70
     0
 10
0.0
 20
0.0
 30
0.0
  3
block 15
  1

  0
POLYLINE
  5
130
330
12C
100
AcDbEntity
  8
_U+30EC_U+30A4_U+30E4_U+30FC 1
 62
   179
420
  2234388
370
    25
100
AcDb2dPolyline
 66
     1
 10
0.0
 20
0.0
 30
0.0
  0
VERTEX
  5
131
330
130
100
AcDbEntity
  8
_U+30EC_U+30A4_U+30E4_U+30FC 1
 62
   179
420
  2234388
370
    25
100
AcDbVertex
100
AcDb2dVertex
 10
66.5864527611311
 20
-142.9924749642521
 30
0.0
  0
VERTEX
  5
132
330
130
100
AcDbEntity
  8
_U+30EC_U+30A4_U+30E4_U+30FC 1
 62
   179
420
  2234388
370
    25
100
AcDbVertex
100
AcDb2dVertex
 10
68.58666575020838
 20
-142.9924749642521
 30
0.0
  0
SEQEND
  5
133
330
130
100
AcDbEntity
  8
_U+30EC_U+30A4_U+30E4_U+30FC 1
 62
   179
420
  2234388
370
    25
  0
POLYLINE
  5
134
330
12C
100
AcDbEntity
  8
_U+30EC_U+30A4_U+30E4_U+30FC 1
 62
   179
420
  2234388
370
    25
100
AcDb2dPolyline
 66
     1
 10
0.0
 20
0.0
 30
0.0
  0
VERTEX
  5
135
330
134
100
AcDbEntity
  8
_U+30EC_U+30A4_U+30E4_U+30FC 1
 62
   179
420
  2234388
370
    25
100
AcDbVertex
100
AcDb2dVertex
 10
66.5864527611311
 20
-146.9922341299183
 30
0.0
  0
VERTEX
  5
136
330
134
100
AcDbEntity
  8
_U+30EC_U+30A4_U+30E4_U+30FC 1
 62
   179
420
  2234388
370
    25
100
AcDbVertex
100
AcDb2dVertex
 10
76.58653665722578
 20
-146.9922341299183
 30
0.0
  0
SEQEND
  5
137
330
134
100
AcDbEntity
  8
_U+30EC_U+30A4_U+30E4_U+30FC 1
 62
   179
420
  2234388
370
    25
  0
POLYLINE
  5
138
330
12C
100
AcDbEntity
  8
_U+30EC_U+30A4_U+30E4_U+30FC 1
 62
   179
420
  2234388
370
    25
100
AcDb2dPolyline
 66
     1
 10
0.0
 20
0.0
 30
0.0
  0
VERTEX
  5
139
330
138
100
AcDbEntity
  8
_U+30EC_U+30A4_U+30E4_U+30FC 1
 62
   179
420
  2234388
370
    25
100
AcDbVertex
100
AcDb2dVertex
 10
76.58653665722578
 20
-130.9921744116963
 30
0.0
  0
VERTEX
  5
13A
330
138
100
AcDbEntity
  8
_U+30EC_U+30A4_U+30E4_U+30FC 1
 62
   179
420
  2234388
370
    25
100
AcDbVertex
100
AcDb2dVertex
 10
76.58653665722578
 20
-146.9922341299183
 30
0.0
  0
SEQEND
  5
13B
330
138
100
AcDbEntity
  8
_U+30EC_U+30A4_U+30E4_U+30FC 1
 62
   179
420
  2234388
370
    25
  0
POLYLINE
  5
13C
330
12C
100
AcDbEntity
  8
_U+30EC_U+30A4_U+30E4_U+30FC 1
 62
   179
420
  2234388
370
    25
100
AcDb2dPolyline
 66
     1
 10
0.0
 20
0.0
 30
0.0
  0
VERTEX
  5
13D
330
13C
100
AcDbEntity
  8
_U+30EC_U+30A4_U+30E4_U+30FC 1
 62
   179
420
  2234388
370
    25
100
AcDbVertex
100
AcDb2dVertex
 10
66.5864527611311
 20
-142.9924749642521
 30
0.0
  0
VERTEX
  5
13E
330
13C
100
AcDbEntity
  8
_U+30EC_U+30A4_U+30E4_U+30FC 1
 62
   179
420
  2234388
370
    25
100
AcDbVertex
100
AcDb2dVertex
 10
66.5864527611311
 20
-146.9922341299183
 30
0.0
  0
SEQEND
  5
13F
330
13C
100
AcDbEntity
  8
_U+30EC_U+30A4_U+30E4_U+30FC 1
 62
   179
420
  2234388
370
    25
  0
POLYLINE
  5
140
330
12C
100
AcDbEntity
  8
_U+30EC_U+30A4_U+30E4_U+30FC 1
 62
   179
420
  2234388
370
    25
100
AcDb2dPolyline
 66
     1
 10
0.0
 20
0.0
 30
0.0
  0
VERTEX
  5
141
330
140
100
AcDbEntity
  8
_U+30EC_U+30A4_U+30E4_U+30FC 1
 62
   179
420
  2234388
370
    25
100
AcDbVertex
100
AcDb2dVertex
 10
74.58667476380207
 20
-128.9926299677519
 30
0.0
  0
VERTEX
  5
142
330
140
100
AcDbEntity
  8
_U+30EC_U+30A4_U+30E4_U+30FC 1
 62
   179
420
  2234388
370
    25
100
AcDbVertex
100
AcDb2dVertex
 10
74.58667476380207
 20
-144.2423666306061
 30
0.0
  0
SEQEND
  5
143
330
140
100
AcDbEntity
  8
_U+30EC_U+30A4_U+30E4_U+30FC 1
 62
   179
420
  2234388
370
    25
  0
POLYLINE
  5
144
330
12C
100
AcDbEntity
  8
_U+30EC_U+30A4_U+30E4_U+30FC 1
 62
   179
420
  2234388
370
    25
100
AcDb2dPolyline
 66
     1
 10
0.0
 20
0.0
 30
0.0
  0
VERTEX
  5
145
330
144
100
AcDbEntity
  8
_U+30EC_U+30A4_U+30E4_U+30FC 1
 62
   179
420
  2234388
370
    25
100
AcDbVertex
100
AcDb2dVertex
 10
68.08646387186735
 20
-143.992247186224
 30
0.0
  0
VERTEX
  5
146
330
144
100
AcDbEntity
  8
_U+30EC_U+30A4_U+30E4_U+30FC 1
 62
   179
420
  2234388
370
    25
100
AcDbVertex
100
AcDb2dVertex
 10
68.08646387186735
 20
-145.2421388525781
 30
0.0
  0
SEQEND
  5
147
330
144
100
AcDbEntity
  8
_U+30EC_U+30A4_U+30E4_U+30FC 1
 62
   179
420
  2234388
370
    25
  0
POLYLINE
  5
148
330
12C
100
AcDbEntity
  8
_U+30EC_U+30A4_U+30E4_U+30FC 1
 62
   179
420
  2234388
370
    25
100
AcDb2dPolyline
 66
     1
 10
0.0
 20
0.0
 30
0.0
  0
VERTEX
  5
149
330
148
100
AcDbEntity
  8
_U+30EC_U+30A4_U+30E4_U+30FC 1
 62
   179
420
  2234388
370
    25
100
AcDbVertex
100
AcDb2dVertex
 10
68.08646387186735
 20
-143.992247186224
 30
0.0
  0
VERTEX
  5
14A
330
148
100
AcDbEntity
  8
_U+30EC_U+30A4_U+30E4_U+30FC 1
 62
   179
420
  2234388
370
    25
100
AcDbVertex
100
AcDb2dVertex
 10
68.58666575020838
 20
-143.992247186224
 30
0.0
  0
SEQEND
  5
14B
330
148
100
AcDbEntity
  8
_U+30EC_U+30A4_U+30E4_U+30FC 1
 62
   179
420
  2234388
370
    25
  0
POLYLINE
  5
14C
330
12C
100
AcDbEntity
  8
_U+30EC_U+30A4_U+30E4_U+30FC 1
 62
   179
420
  2234388
370
    25
100
AcDb2dPolyline
 66
     1
 10
0.0
 20
0.0
 30
0.0
  0
VERTEX
  5
14D
330
14C
100
AcDbEntity
  8
_U+30EC_U+30A4_U+30E4_U+30FC 1
 62
   179
420
  2234388
370
    25
100
AcDbVertex
100
AcDb2dVertex
 10
68.08646387186735
 20
-145.2421388525781
 30
0.0
  0
VERTEX
  5
14E
330
14C
100
AcDbEntity
  8
_U+30EC_U+30A4_U+30E4_U+30FC 1
 62
   179
420
  2234388
370
    25
100
AcDbVertex
100
AcDb2dVertex
 10
69.732524982567
 20
-145.2421388525781
 30
0.0
  0
SEQEND
  5
14F
330
14C
100
AcDbEntity
  8
_U+30EC_U+30A4_U+30E4_U+30FC 1
 62
   179
420
  2234388
370
    25
  0
POLYLINE
  5
150
330
12C
100
AcDbEntity
  8
_U+30EC_U+30A4_U+30E4_U+30FC 1
 62
   179
420
  2234388
370
    25
100
AcDb2dPolyline
 66
     1
 10
0.0
 20
0.0
 30
0.0
  0
VERTEX
  5
151
330
150
100
AcDbEntity
  8
_U+30EC_U+30A4_U+30E4_U+30FC 1
 62
   179
420
  2234388
370
    25
100
AcDbVertex
100
AcDb2dVertex
 10
68.58666575020838
 20
-142.9924749642521
 30
0.0
  0
VERTEX
  5
152
330
150
100
AcDbEntity
  8
_U+30EC_U+30A4_U+30E4_U+30FC 1
 62
   179
420
  2234388
370
    25
100
AcDbVertex
100
AcDb2dVertex
 10
68.58666575020838
 20
-143.992247186224
 30
0.0
  0
SEQEND
  5
153
330
150
100
AcDbEntity
  8
_U+30EC_U+30A4_U+30E4_U+30FC 1
 62
   179
420
  2234388
370
    25
  0
POLYLINE
  5
154
330
12C
100
AcDbEntity
  8
_U+30EC_U+30A4_U+30E4_U+30FC 1
 62
   179
420
  2234388
370
    25
100
AcDb2dPolyline
 66
     1
 10
0.0
 20
0.0
 30
0.0
  0
VERTEX
  5
155
330
154
100
AcDbEntity
  8
_U+30EC_U+30A4_U+30E4_U+30FC 1
 62
   179
420
  2234388
370
    25
100
AcDbVertex
100
AcDb2dVertex
 10
69.81726044103551
 20
-142.9924749642521
 30
0.0
  0
VERTEX
  5
156
330
154
100
AcDbEntity
  8
_U+30EC_U+30A4_U+30E4_U+30FC 1
 62
   179
420
  2234388
370
    25
100
AcDbVertex
100
AcDb2dVertex
 10
72.25742426767064
 20
-142.9924749642521
 30
0.0
  0
SEQEND
  5
157
330
154
100
AcDbEntity
  8
_U+30EC_U+30A4_U+30E4_U+30FC 1
 62
   179
420
  2234388
370
    25
  0
SPLINE
  5
158
330
12C
100
AcDbEntity
  8
_U+30EC_U+30A4_U+30E4_U+30FC 1
 62
   179
420
  2234388
370
    25
100
AcDbSpline
210
0.0
220
0.0
230
1.0
 70
     8
 71
     3
 72
    14
 73
    10
 74
     0
 42
0.0000000001
 43
0.0000000001
 12
1.0
 22
0.0
 32
0.0
 13
1.0
 23
0.0
 33
0.0
 40
0.0
 40
0.0
 40
0.0
 40
0.0
 40
1.0
 40
1.0
 40
1.0
 40
2.0
 40
2.0
 40
2.0
 40
3.0
 40
3.0
 40
3.0
 40
3.0
 10
72.25742426767064
 20
-142.9924749642521
 30
0.0
 10
71.56703817417275
 20
-143.4499924641375
 30
0.0
 10
71.37858609326634
 20
-144.3808671861268
 30
0.0
 10
71.83645455618824
 20
-145.0712532970655
 30
0.0
 10
72.29464232227669
 20
-145.7616394080041
 30
0.0
 10
73.22551702075032
 20
-145.9504460746236
 30
0.0
 10
73.91590311424821
 20
-145.4922230191827
 30
0.0
 10
74.33482671467169
 20
-145.2145516303628
 30
0.0
 10
74.58667476380207
 20
-144.7453571860356
 30
0.0
 10
74.58667476380207
 20
-144.2423666306061
 30
0.0
  0
SPLINE
  5
159
330
12C
100
AcDbEntity
  8
_U+30EC_U+30A4_U+30E4_U+30FC 1
 62
   179
420
  2234388
370
    25
100
AcDbSpline
210
0.0
220
0.0
230
1.0
 70
     8
 71
     3
 72
     8
 73
     4
 74
     0
 42
0.0000000001
 43
0.0000000001
 12
1.0
 22
0.0
 32
0.0
 13
1.0
 23
0.0
 33
0.0
 40
0.0
 40
0.0
 40
0.0
 40
0.0
 40
1.0
 40
1.0
 40
1.0
 40
1.0
 10
69.81726044103551
 20
-142.9924749642521
 30
0.0
 10
69.54202498261463
 20
-143.7124944085162
 30
0.0
 10
69.51203887151101
 20
-144.5034927416521
 30
0.0
 10
69.732524982567
 20
-145.2421388525781
 30
0.0
  0
SPLINE
  5
15A
330
12C
100
AcDbEntity
  8
_U+30EC_U+30A4_U+30E4_U+30FC 1
 62
   179
420
  2234388
370
     9
100
AcDbSpline
210
0.0
220
0.0
230
1.0
 70
    11
 71
     3
 72
    17
 73
    13
 74
     0
 42
0.0000000001
 43
0.0000000001
 12
1.0
 22
0.0
 32
0.0
 13
1.0
 23
0.0
 33
0.0
 40
0.0
 40
0.0
 40
0.0
 40
0.0
 40
1.0
 40
1.0
 40
1.0
 40
2.0
 40
2.0
 40
2.0
 40
3.0
 40
3.0
 40
3.0
 40
4.0
 40
4.0
 40
4.0
 40
4.0
 10
66.6867105209025
 20
-150.9919932955852
 30
0.0
 10
66.6867105209025
 20
-150.9368541289328
 30
0.0
 10
66.64194302204461
 20
-150.8920866289436
 30
0.0
 10
66.5864527611311
 20
-150.8920866289436
 30
0.0
 10
66.53134719153282
 20
-150.8920866289436
 30
0.0
 10
66.48654441489805
 20
-150.9368541289328
 30
0.0
 10
66.48654441489805
 20
-150.9919932955852
 30
0.0
 10
66.48654441489805
 20
-151.0478027400156
 30
0.0
 10
66.53134719153282
 20
-151.0925702400048
 30
0.0
 10
66.5864527611311
 20
-151.0925702400048
 30
0.0
 10
66.64194302204461
 20
-151.0925702400048
 30
0.0
 10
66.6867105209025
 20
-151.0478027400156
 30
0.0
 10
66.6867105209025
 20
-150.9919932955852
 30
0.0
  0
SPLINE
  5
15B
330
12C
100
AcDbEntity
  8
_U+30EC_U+30A4_U+30E4_U+30FC 1
 62
   179
420
  2234388
370
     9
100
AcDbSpline
210
0.0
220
0.0
230
1.0
 70
    11
 71
     3
 72
    17
 73
    13
 74
     0
 42
0.0000000001
 43
0.0000000001
 12
1.0
 22
0.0
 32
0.0
 13
1.0
 23
0.0
 33
0.0
 40
0.0
 40
0.0
 40
0.0
 40
0.0
 40
1.0
 40
1.0
 40
1.0
 40
2.0
 40
2.0
 40
2.0
 40
3.0
 40
3.0
 40
3.0
 40
4.0
 40
4.0
 40
4.0
 40
4.0
 10
76.68644332134362
 20
-150.9919932955852
 30
0.0
 10
76.68644332134362
 20
-150.9368541289328
 30
0.0
 10
76.6416777586175
 20
-150.8920866289436
 30
0.0
 10
76.58653665722578
 20
-150.8920866289436
 30
0.0
 10
76.53143276974271
 20
-150.8920866289436
 30
0.0
 10
76.48662999310794
 20
-150.9368541289328
 30
0.0
 10
76.48662999310794
 20
-150.9919932955852
 30
0.0
 10
76.48662999310794
 20
-151.0478027400156
 30
0.0
 10
76.53143276974271
 20
-151.0925702400048
 30
0.0
 10
76.58653665722578
 20
-151.0925702400048
 30
0.0
 10
76.6416777586175
 20
-151.0925702400048
 30
0.0
 10
76.68644332134362
 20
-151.0478027400156
 30
0.0
 10
76.68644332134362
 20
-150.9919932955852
 30
0.0
  0
SPLINE
  5
15C
330
12C
100
AcDbEntity
  8
_U+30EC_U+30A4_U+30E4_U+30FC 1
 62
   179
420
  2234388
370
     9
100
AcDbSpline
210
0.0
220
0.0
230
1.0
 70
    11
 71
     3
 72
    17
 73
    13
 74
     0
 42
0.0000000001
 43
0.0000000001
 12
1.0
 22
0.0
 32
0.0
 13
1.0
 23
0.0
 33
0.0
 40
0.0
 40
0.0
 40
0.0
 40
0.0
 40
1.0
 40
1.0
 40
1.0
 40
2.0
 40
2.0
 40
2.0
 40
3.0
 40
3.0
 40
3.0
 40
4.0
 40
4.0
 40
4.0
 40
4.0
 10
86.68652889955351
 20
-150.9919932955852
 30
0.0
 10
86.68652889955351
 20
-150.9368541289328
 30
0.0
 10
86.64172612291875
 20
-150.8920866289436
 30
0.0
 10
86.58662223543568
 20
-150.8920866289436
 30
0.0
 10
86.53148307017572
 20
-150.8920866289436
 30
0.0
 10
86.48671557131784
 20
-150.9368541289328
 30
0.0
 10
86.48671557131784
 20
-150.9919932955852
 30
0.0
 10
86.48671557131784
 20
-151.0478027400156
 30
0.0
 10
86.53148307017572
 20
-151.0925702400048
 30
0.0
 10
86.58662223543568
 20
-151.0925702400048
 30
0.0
 10
86.64172612291875
 20
-151.0925702400048
 30
0.0
 10
86.68652889955351
 20
-151.0478027400156
 30
0.0
 10
86.68652889955351
 20
-150.9919932955852
 30
0.0
  0
SPLINE
  5
15D
330
12C
100
AcDbEntity
  8
_U+30EC_U+30A4_U+30E4_U+30FC 1
 62
   179
420
  2234388
370
     9
100
AcDbSpline
210
0.0
220
0.0
230
1.0
 70
    11
 71
     3
 72
    17
 73
    13
 74
     0
 42
0.0000000001
 43
0.0000000001
 12
1.0
 22
0.0
 32
0.0
 13
1.0
 23
0.0
 33
0.0
 40
0.0
 40
0.0
 40
0.0
 40
0.0
 40
1.0
 40
1.0
 40
1.0
 40
2.0
 40
2.0
 40
2.0
 40
3.0
 40
3.0
 40
3.0
 40
4.0
 40
4.0
 40
4.0
 40
4.0
 10
94.68671730656281
 20
-150.9919932955852
 30
0.0
 10
94.68671730656281
 20
-150.9368541289328
 30
0.0
 10
94.64194980770493
 20
-150.8920866289436
 30
0.0
 10
94.5864578646762
 20
-150.8920866289436
 30
0.0
 10
94.53135397719313
 20
-150.8920866289436
 30
0.0
 10
94.48655120055837
 20
-150.9368541289328
 30
0.0
 10
94.48655120055837
 20
-150.9919932955852
 30
0.0
 10
94.48655120055837
 20
-151.0478027400156
 30
0.0
 10
94.53135397719313
 20
-151.0925702400048
 30
0.0
 10
94.5864578646762
 20
-151.0925702400048
 30
0.0
 10
94.64194980770493
 20
-151.0925702400048
 30
0.0
 10
94.68671730656281
 20
-151.0478027400156
 30
0.0
 10
94.68671730656281
 20
-150.9919932955852
 30
0.0
  0
SPLINE
  5
15E
330
12C
100
AcDbEntity
  8
_U+30EC_U+30A4_U+30E4_U+30FC 1
 62
   179
420
  2234388
370
     9
100
AcDbSpline
210
0.0
220
0.0
230
1.0
 70
    11
 71
     3
 72
    17
 73
    13
 74
     0
 42
0.0000000001
 43
0.0000000001
 12
1.0
 22
0.0
 32
0.0
 13
1.0
 23
0.0
 33
0.0
 40
0.0
 40
0.0
 40
0.0
 40
0.0
 40
1.0
 40
1.0
 40
1.0
 40
2.0
 40
2.0
 40
2.0
 40
3.0
 40
3.0
 40
3.0
 40
4.0
 40
4.0
 40
4.0
 40
4.0
 10
98.68647637118713
 20
-150.9919932955852
 30
0.0
 10
98.68647637118713
 20
-150.9368541289328
 30
0.0
 10
98.64170887232923
 20
-150.8920866289436
 30
0.0
 10
98.58657219757578
 20
-150.8920866289436
 30
0.0
 10
98.53146581958622
 20
-150.8920866289436
 30
0.0
 10
98.48666304295145
 20
-150.9368541289328
 30
0.0
 10
98.48666304295145
 20
-150.9919932955852
 30
0.0
 10
98.48666304295145
 20
-151.0478027400156
 30
0.0
 10
98.53146581958622
 20
-151.0925702400048
 30
0.0
 10
98.58657219757578
 20
-151.0925702400048
 30
0.0
 10
98.64170887232923
 20
-151.0925702400048
 30
0.0
 10
98.68647637118713
 20
-151.0478027400156
 30
0.0
 10
98.68647637118713
 20
-150.9919932955852
 30
0.0
  0
INSERT
  5
160
330
12C
100
AcDbEntity
  8
_U+30EC_U+30A4_U+30E4_U+30FC 1
100
AcDbBlockReference
  2
block 16
 10
0.0
 20
0.0
 30
0.0
  0
INSERT
  5
1BC
330
12C
100
AcDbEntity
  8
_U+30EC_U+30A4_U+30E4_U+30FC 1
100
AcDbBlockReference
  2
block 22
 10
0.0
 20
0.0
 30
0.0
  0
INSERT
  5
1C5
330
12C
100
AcDbEntity
  8
_U+30EC_U+30A4_U+30E4_U+30FC 1
100
AcDbBlockReference
  2
block 24
 10
0.0
 20
0.0
 30
0.0
  0
INSERT
  5
1D3
330
12C
100
AcDbEntity
  8
_U+30EC_U+30A4_U+30E4_U+30FC 1
100
AcDbBlockReference
  2
block 27
 10
0.0
 20
0.0
 30
0.0
  0
INSERT
  5
1FB
330
12C
100
AcDbEntity
  8
_U+30EC_U+30A4_U+30E4_U+30FC 1
100
AcDbBlockReference
  2
block 32
 10
0.0
 20
0.0
 30
0.0
  0
INSERT
  5
21F
330
12C
100
AcDbEntity
  8
_U+30EC_U+30A4_U+30E4_U+30FC 1
100
AcDbBlockReference
  2
block 37
 10
0.0
 20
0.0
 30
0.0
  0
INSERT
  5
242
330
12C
100
AcDbEntity
  8
_U+30EC_U+30A4_U+30E4_U+30FC 1
100
AcDbBlockReference
  2
block 42
 10
0.0
 20
0.0
 30
0.0
  0
ENDBLK
  5
12F
330
12C
100
AcDbEntity
  8
0
100
AcDbBlockEnd
  0
BLOCK
  5
161
330
15F
100
AcDbEntity
  8
0
100
AcDbBlockBegin
  2
block 16
 70
     0
 10
0.0
 20
0.0
 30
0.0
  3
block 16
  1

  0
POLYLINE
  5
163
330
15F
100
AcDbEntity
  8
_U+30EC_U+30A4_U+30E4_U+30FC 1
 62
   179
420
  2234388
370
     9
100
AcDb2dPolyline
 66
     1
 10
0.0
 20
0.0
 30
0.0
  0
VERTEX
  5
164
330
163
100
AcDbEntity
  8
_U+30EC_U+30A4_U+30E4_U+30FC 1
 62
   179
420
  2234388
370
     9
100
AcDbVertex
100
AcDb2dVertex
 10
62.58669201439157
 20
-146.9922341299183
 30
0.0
  0
VERTEX
  5
165
330
163
100
AcDbEntity
  8
_U+30EC_U+30A4_U+30E4_U+30FC 1
 62
   179
420
  2234388
370
     9
100
AcDbVertex
100
AcDb2dVertex
 10
62.58669201439157
 20
-128.9926299677519
 30
0.0
  0
SEQEND
  5
166
330
163
100
AcDbEntity
  8
_U+30EC_U+30A4_U+30E4_U+30FC 1
 62
   179
420
  2234388
370
     9
  0
POLYLINE
  5
167
330
15F
100
AcDbEntity
  8
_U+30EC_U+30A4_U+30E4_U+30FC 1
 62
   179
420
  2234388
370
     9
100
AcDb2dPolyline
 66
     1
 10
0.0
 20
0.0
 30
0.0
  0
VERTEX
  5
168
330
167
100
AcDbEntity
  8
_U+30EC_U+30A4_U+30E4_U+30FC 1
 62
   179
420
  2234388
370
     9
100
AcDbVertex
100
AcDb2dVertex
 10
64.0467333660317
 20
-146.9922341299183
 30
0.0
  0
VERTEX
  5
169
330
167
100
AcDbEntity
  8
_U+30EC_U+30A4_U+30E4_U+30FC 1
 62
   179
420
  2234388
370
     9
100
AcDbVertex
100
AcDb2dVertex
 10
61.58660231768376
 20
-146.9922341299183
 30
0.0
  0
SEQEND
  5
16A
330
167
100
AcDbEntity
  8
_U+30EC_U+30A4_U+30E4_U+30FC 1
 62
   179
420
  2234388
370
     9
  0
SPLINE
  5
16B
330
15F
100
AcDbEntity
  8
_U+30EC_U+30A4_U+30E4_U+30FC 1
 62
   179
420
  2234388
370
     9
100
AcDbSpline
210
0.0
220
0.0
230
1.0
 70
    11
 71
     3
 72
    17
 73
    13
 74
     0
 42
0.0000000001
 43
0.0000000001
 12
1.0
 22
0.0
 32
0.0
 13
1.0
 23
0.0
 33
0.0
 40
0.0
 40
0.0
 40
0.0
 40
0.0
 40
1.0
 40
1.0
 40
1.0
 40
2.0
 40
2.0
 40
2.0
 40
3.0
 40
3.0
 40
3.0
 40
4.0
 40
4.0
 40
4.0
 40
4.0
 10
62.68659867850941
 20
-142.9918046864741
 30
0.0
 10
62.68659867850941
 20
-142.9366655198216
 30
0.0
 10
62.64183117965153
 20
-142.8918980198324
 30
0.0
 10
62.58669201439157
 20
-142.8918980198324
 30
0.0
 10
62.53123534913973
 20
-142.8918980198324
 30
0.0
 10
62.48646942882297
 20
-142.9366655198216
 30
0.0
 10
62.48646942882297
 20
-142.9918046864741
 30
0.0
 10
62.48646942882297
 20
-143.0469085753496
 30
0.0
 10
62.53123534913973
 20
-143.0917113531157
 30
0.0
 10
62.58669201439157
 20
-143.0917113531157
 30
0.0
 10
62.64183117965153
 20
-143.0917113531157
 30
0.0
 10
62.68659867850941
 20
-143.0469085753496
 30
0.0
 10
62.68659867850941
 20
-142.9918046864741
 30
0.0
  0
POLYLINE
  5
16C
330
15F
100
AcDbEntity
  8
_U+30EC_U+30A4_U+30E4_U+30FC 1
 62
   179
420
  2234388
370
     9
100
AcDb2dPolyline
 66
     1
 10
0.0
 20
0.0
 30
0.0
  0
VERTEX
  5
16D
330
16C
100
AcDbEntity
  8
_U+30EC_U+30A4_U+30E4_U+30FC 1
 62
   179
420
  2234388
370
     9
100
AcDbVertex
100
AcDb2dVertex
 10
62.58669201439157
 20
-142.9918046864741
 30
0.0
  0
VERTEX
  5
16E
330
16C
100
AcDbEntity
  8
_U+30EC_U+30A4_U+30E4_U+30FC 1
 62
   179
420
  2234388
370
     9
100
AcDbVertex
100
AcDb2dVertex
 10
62.58669201439157
 20
-125.9923255240576
 30
0.0
  0
SEQEND
  5
16F
330
16C
100
AcDbEntity
  8
_U+30EC_U+30A4_U+30E4_U+30FC 1
 62
   179
420
  2234388
370
     9
  0
POLYLINE
  5
170
330
15F
100
AcDbEntity
  8
_U+30EC_U+30A4_U+30E4_U+30FC 1
 62
   179
420
  2234388
370
     9
100
AcDb2dPolyline
 66
     1
 10
0.0
 20
0.0
 30
0.0
  0
VERTEX
  5
171
330
170
100
AcDbEntity
  8
_U+30EC_U+30A4_U+30E4_U+30FC 1
 62
   179
420
  2234388
370
     9
100
AcDbVertex
100
AcDb2dVertex
 10
64.0467333660317
 20
-142.9918046864741
 30
0.0
  0
VERTEX
  5
172
330
170
100
AcDbEntity
  8
_U+30EC_U+30A4_U+30E4_U+30FC 1
 62
   179
420
  2234388
370
     9
100
AcDbVertex
100
AcDb2dVertex
 10
61.58660231768376
 20
-142.9918046864741
 30
0.0
  0
SEQEND
  5
173
330
170
100
AcDbEntity
  8
_U+30EC_U+30A4_U+30E4_U+30FC 1
 62
   179
420
  2234388
370
     9
  0
POLYLINE
  5
174
330
15F
100
AcDbEntity
  8
_U+30EC_U+30A4_U+30E4_U+30FC 1
 62
   179
420
  2234388
370
     9
100
AcDb2dPolyline
 66
     1
 10
0.0
 20
0.0
 30
0.0
  0
VERTEX
  5
175
330
174
100
AcDbEntity
  8
_U+30EC_U+30A4_U+30E4_U+30FC 1
 62
   179
420
  2234388
370
     9
100
AcDbVertex
100
AcDb2dVertex
 10
72.04660427304911
 20
-128.9926299677519
 30
0.0
  0
VERTEX
  5
176
330
174
100
AcDbEntity
  8
_U+30EC_U+30A4_U+30E4_U+30FC 1
 62
   179
420
  2234388
370
     9
100
AcDbVertex
100
AcDb2dVertex
 10
61.58660231768376
 20
-128.9926299677519
 30
0.0
  0
SEQEND
  5
177
330
174
100
AcDbEntity
  8
_U+30EC_U+30A4_U+30E4_U+30FC 1
 62
   179
420
  2234388
370
     9
  0
INSERT
  5
179
330
15F
100
AcDbEntity
  8
_U+30EC_U+30A4_U+30E4_U+30FC 1
100
AcDbBlockReference
  2
block 17
 10
0.0
 20
0.0
 30
0.0
  0
INSERT
  5
194
330
15F
100
AcDbEntity
  8
_U+30EC_U+30A4_U+30E4_U+30FC 1
100
AcDbBlockReference
  2
block 18
 10
0.0
 20
0.0
 30
0.0
  0
INSERT
  5
1AD
330
15F
100
AcDbEntity
  8
_U+30EC_U+30A4_U+30E4_U+30FC 1
100
AcDbBlockReference
  2
block 19
 10
0.0
 20
0.0
 30
0.0
  0
INSERT
  5
1B2
330
15F
100
AcDbEntity
  8
_U+30EC_U+30A4_U+30E4_U+30FC 1
100
AcDbBlockReference
  2
block 20
 10
0.0
 20
0.0
 30
0.0
  0
INSERT
  5
1B7
330
15F
100
AcDbEntity
  8
_U+30EC_U+30A4_U+30E4_U+30FC 1
100
AcDbBlockReference
  2
block 21
 10
0.0
 20
0.0
 30
0.0
  0
ENDBLK
  5
162
330
15F
100
AcDbEntity
  8
0
100
AcDbBlockEnd
  0
BLOCK
  5
17A
330
178
100
AcDbEntity
  8
0
100
AcDbBlockBegin
  2
block 17
 70
     0
 10
0.0
 20
0.0
 30
0.0
  3
block 17
  1

  0
SPLINE
  5
17C
330
178
100
AcDbEntity
  8
_U+30EC_U+30A4_U+30E4_U+30FC 1
370
     0
100
AcDbSpline
210
0.0
220
0.0
230
1.0
 70
    11
 71
     3
 72
    26
 73
    22
 74
     0
 42
0.0000000001
 43
0.0000000001
 12
1.0
 22
0.0
 32
0.0
 13
1.0
 23
0.0
 33
0.0
 40
0.0
 40
0.0
 40
0.0
 40
0.0
 40
1.0
 40
1.0
 40
1.0
 40
2.0
 40
2.0
 40
2.0
 40
3.0
 40
3.0
 40
3.0
 40
4.0
 40
4.0
 40
4.0
 40
5.0
 40
5.0
 40
5.0
 40
6.0
 40
6.0
 40
6.0
 40
7.0
 40
7.0
 40
7.0
 40
7.0
 10
62.2141180942555
 20
-136.6231851871984
 30
0.0
 10
62.2141180942555
 20
-136.6231851871984
 30
0.0
 10
61.10979273645867
 20
-136.6231851871984
 30
0.0
 10
61.10979273645867
 20
-136.6231851871984
 30
0.0
 10
61.10979273645867
 20
-136.6231851871984
 30
0.0
 10
61.10979273645867
 20
-136.9532253346853
 30
0.0
 10
61.10979273645867
 20
-136.9532253346853
 30
0.0
 10
61.10979273645867
 20
-136.9532253346853
 30
0.0
 10
60.96182588536718
 20
-136.9532253346853
 30
0.0
 10
60.96182588536718
 20
-136.9532253346853
 30
0.0
 10
60.94701197478061
 20
-136.6211181299072
 30
0.0
 10
60.78405895832829
 20
-136.5746093408563
 30
0.0
 10
60.66985404299226
 20
-136.5449815196832
 30
0.0
 10
60.66985404299226
 20
-136.5449815196832
 30
0.0
 10
60.66985404299226
 20
-136.3989094711086
 30
0.0
 10
60.66985404299226
 20
-136.3989094711086
 30
0.0
 10
60.66985404299226
 20
-136.3989094711086
 30
0.0
 10
62.2141180942555
 20
-136.3989094711086
 30
0.0
 10
62.2141180942555
 20
-136.3989094711086
 30
0.0
 10
62.2141180942555
 20
-136.3989094711086
 30
0.0
 10
62.2141180942555
 20
-136.6231851871984
 30
0.0
 10
62.2141180942555
 20
-136.6231851871984
 30
0.0
  0
HATCH
  5
17D
330
178
100
AcDbEntity
  8
_U+30EC_U+30A4_U+30E4_U+30FC 1
 62
   179
420
  2234388
100
AcDbHatch
 10
0.0
 20
0.0
 30
0.0
210
0.0
220
0.0
230
1.0
  2
SOLID
 70
     1
 71
     0
 91
        1
 92
        1
 93
        1
 72
     4
 94
        3
 73
     0
 74
     1
 95
       26
 96
       22
 40
0.0
 40
0.0
 40
0.0
 40
0.0
 40
1.0
 40
1.0
 40
1.0
 40
2.0
 40
2.0
 40
2.0
 40
3.0
 40
3.0
 40
3.0
 40
4.0
 40
4.0
 40
4.0
 40
5.0
 40
5.0
 40
5.0
 40
6.0
 40
6.0
 40
6.0
 40
7.0
 40
7.0
 40
7.0
 40
7.0
 10
62.2141180942555
 20
-136.6231851871984
 10
62.2141180942555
 20
-136.6231851871984
 10
61.10979273645867
 20
-136.6231851871984
 10
61.10979273645867
 20
-136.6231851871984
 10
61.10979273645867
 20
-136.6231851871984
 10
61.10979273645867
 20
-136.9532253346853
 10
61.10979273645867
 20
-136.9532253346853
 10
61.10979273645867
 20
-136.9532253346853
 10
60.96182588536718
 20
-136.9532253346853
 10
60.96182588536718
 20
-136.9532253346853
 10
60.94701197478061
 20
-136.6211181299072
 10
60.78405895832829
 20
-136.5746093408563
 10
60.66985404299226
 20
-136.5449815196832
 10
60.66985404299226
 20
-136.5449815196832
 10
60.66985404299226
 20
-136.3989094711086
 10
60.66985404299226
 20
-136.3989094711086
 10
60.66985404299226
 20
-136.3989094711086
 10
62.2141180942555
 20
-136.3989094711086
 10
62.2141180942555
 20
-136.3989094711086
 10
62.2141180942555
 20
-136.3989094711086
 10
62.2141180942555
 20
-136.6231851871984
 10
62.2141180942555
 20
-136.6231851871984
 97
        0
 97
        0
 75
     2
 76
     1
 98
        0
  0
POLYLINE
  5
17E
330
178
100
AcDbEntity
  8
_U+30EC_U+30A4_U+30E4_U+30FC 1
370
     0
100
AcDb2dPolyline
 66
     1
 10
0.0
 20
0.0
 30
0.0
  0
VERTEX
  5
17F
330
17E
100
AcDbEntity
  8
_U+30EC_U+30A4_U+30E4_U+30FC 1
370
     0
100
AcDbVertex
100
AcDb2dVertex
 10
61.86719697889085
 20
-135.0656575183169
 30
0.0
  0
VERTEX
  5
180
330
17E
100
AcDbEntity
  8
_U+30EC_U+30A4_U+30E4_U+30FC 1
370
     0
100
AcDbVertex
100
AcDb2dVertex
 10
62.2141180942555
 20
-135.0656575183169
 30
0.0
  0
VERTEX
  5
181
330
17E
100
AcDbEntity
  8
_U+30EC_U+30A4_U+30E4_U+30FC 1
370
     0
100
AcDbVertex
100
AcDb2dVertex
 10
62.2141180942555
 20
-135.2833875529847
 30
0.0
  0
VERTEX
  5
182
330
17E
100
AcDbEntity
  8
_U+30EC_U+30A4_U+30E4_U+30FC 1
370
     0
100
AcDbVertex
100
AcDb2dVertex
 10
61.86719697889085
 20
-135.2833875529847
 30
0.0
  0
VERTEX
  5
183
330
17E
100
AcDbEntity
  8
_U+30EC_U+30A4_U+30E4_U+30FC 1
370
     0
100
AcDbVertex
100
AcDb2dVertex
 10
61.86719697889085
 20
-135.9393337333763
 30
0.0
  0
VERTEX
  5
184
330
17E
100
AcDbEntity
  8
_U+30EC_U+30A4_U+30E4_U+30FC 1
370
     0
100
AcDbVertex
100
AcDb2dVertex
 10
61.64292126280107
 20
-135.9393337333763
 30
0.0
  0
VERTEX
  5
185
330
17E
100
AcDbEntity
  8
_U+30EC_U+30A4_U+30E4_U+30FC 1
370
     0
100
AcDbVertex
100
AcDb2dVertex
 10
60.66985404299226
 20
-135.2603054132335
 30
0.0
  0
VERTEX
  5
186
330
17E
100
AcDbEntity
  8
_U+30EC_U+30A4_U+30E4_U+30FC 1
370
     0
100
AcDbVertex
100
AcDb2dVertex
 10
60.66985404299226
 20
-135.0656575183169
 30
0.0
  0
VERTEX
  5
187
330
17E
100
AcDbEntity
  8
_U+30EC_U+30A4_U+30E4_U+30FC 1
370
     0
100
AcDbVertex
100
AcDb2dVertex
 10
61.66841496939193
 20
-135.0656575183169
 30
0.0
  0
VERTEX
  5
188
330
17E
100
AcDbEntity
  8
_U+30EC_U+30A4_U+30E4_U+30FC 1
370
     0
100
AcDbVertex
100
AcDb2dVertex
 10
61.66841496939193
 20
-134.8582627701049
 30
0.0
  0
VERTEX
  5
189
330
17E
100
AcDbEntity
  8
_U+30EC_U+30A4_U+30E4_U+30FC 1
370
     0
100
AcDbVertex
100
AcDb2dVertex
 10
61.86719697889085
 20
-134.8582627701049
 30
0.0
  0
VERTEX
  5
18A
330
17E
100
AcDbEntity
  8
_U+30EC_U+30A4_U+30E4_U+30FC 1
370
     0
100
AcDbVertex
100
AcDb2dVertex
 10
61.86719697889085
 20
-135.0656575183169
 30
0.0
  0
SEQEND
  5
18B
330
17E
100
AcDbEntity
  8
_U+30EC_U+30A4_U+30E4_U+30FC 1
370
     0
  0
POLYLINE
  5
18C
330
178
100
AcDbEntity
  8
_U+30EC_U+30A4_U+30E4_U+30FC 1
370
     0
100
AcDb2dPolyline
 66
     1
 10
0.0
 20
0.0
 30
0.0
  0
VERTEX
  5
18D
330
18C
100
AcDbEntity
  8
_U+30EC_U+30A4_U+30E4_U+30FC 1
370
     0
100
AcDbVertex
100
AcDb2dVertex
 10
61.01246878900036
 20
-135.2833875529847
 30
0.0
  0
VERTEX
  5
18E
330
18C
100
AcDbEntity
  8
_U+30EC_U+30A4_U+30E4_U+30FC 1
370
     0
100
AcDbVertex
100
AcDb2dVertex
 10
61.66841496939193
 20
-135.7405517238774
 30
0.0
  0
VERTEX
  5
18F
330
18C
100
AcDbEntity
  8
_U+30EC_U+30A4_U+30E4_U+30FC 1
370
     0
100
AcDbVertex
100
AcDb2dVertex
 10
61.66841496939193
 20
-135.2833875529847
 30
0.0
  0
VERTEX
  5
190
330
18C
100
AcDbEntity
  8
_U+30EC_U+30A4_U+30E4_U+30FC 1
370
     0
100
AcDbVertex
100
AcDb2dVertex
 10
61.01246878900036
 20
-135.2833875529847
 30
0.0
  0
SEQEND
  5
191
330
18C
100
AcDbEntity
  8
_U+30EC_U+30A4_U+30E4_U+30FC 1
370
     0
  0
HATCH
  5
192
330
178
100
AcDbEntity
  8
_U+30EC_U+30A4_U+30E4_U+30FC 1
 62
   179
420
  2234388
100
AcDbHatch
 10
0.0
 20
0.0
 30
0.0
210
0.0
220
0.0
230
1.0
  2
SOLID
 70
     1
 71
     0
 91
        2
 92
        1
 93
       11
 72
     1
 10
61.86719697889085
 20
-135.0656575183169
 11
62.2141180942555
 21
-135.0656575183169
 72
     1
 10
62.2141180942555
 20
-135.0656575183169
 11
62.2141180942555
 21
-135.2833875529847
 72
     1
 10
62.2141180942555
 20
-135.2833875529847
 11
61.86719697889085
 21
-135.2833875529847
 72
     1
 10
61.86719697889085
 20
-135.2833875529847
 11
61.86719697889085
 21
-135.9393337333763
 72
     1
 10
61.86719697889085
 20
-135.9393337333763
 11
61.64292126280107
 21
-135.9393337333763
 72
     1
 10
61.64292126280107
 20
-135.9393337333763
 11
60.66985404299226
 21
-135.2603054132335
 72
     1
 10
60.66985404299226
 20
-135.2603054132335
 11
60.66985404299226
 21
-135.0656575183169
 72
     1
 10
60.66985404299226
 20
-135.0656575183169
 11
61.66841496939193
 21
-135.0656575183169
 72
     1
 10
61.66841496939193
 20
-135.0656575183169
 11
61.66841496939193
 21
-134.8582627701049
 72
     1
 10
61.66841496939193
 20
-134.8582627701049
 11
61.86719697889085
 21
-134.8582627701049
 72
     1
 10
61.86719697889085
 20
-134.8582627701049
 11
61.86719697889085
 21
-135.0656575183169
 97
        0
 92
        1
 93
        3
 72
     1
 10
61.01246878900036
 20
-135.2833875529847
 11
61.66841496939193
 21
-135.7405517238774
 72
     1
 10
61.66841496939193
 20
-135.7405517238774
 11
61.66841496939193
 21
-135.2833875529847
 72
     1
 10
61.66841496939193
 20
-135.2833875529847
 11
61.01246878900036
 21
-135.2833875529847
 97
        0
 75
     2
 76
     1
 98
        0
  0
ENDBLK
  5
17B
330
178
100
AcDbEntity
  8
0
100
AcDbBlockEnd
  0
BLOCK
  5
195
330
193
100
AcDbEntity
  8
0
100
AcDbBlockBegin
  2
block 18
 70
     0
 10
0.0
 20
0.0
 30
0.0
  3
block 18
  1

  0
POLYLINE
  5
197
330
193
100
AcDbEntity
  8
_U+30EC_U+30A4_U+30E4_U+30FC 1
370
     0
100
AcDb2dPolyline
 66
     1
 10
0.0
 20
0.0
 30
0.0
  0
VERTEX
  5
198
330
197
100
AcDbEntity
  8
_U+30EC_U+30A4_U+30E4_U+30FC 1
370
     0
100
AcDbVertex
100
AcDb2dVertex
 10
61.86719697889085
 20
-144.6581813874466
 30
0.0
  0
VERTEX
  5
199
330
197
100
AcDbEntity
  8
_U+30EC_U+30A4_U+30E4_U+30FC 1
370
     0
100
AcDbVertex
100
AcDb2dVertex
 10
62.2141180942555
 20
-144.6581813874466
 30
0.0
  0
VERTEX
  5
19A
330
197
100
AcDbEntity
  8
_U+30EC_U+30A4_U+30E4_U+30FC 1
370
     0
100
AcDbVertex
100
AcDb2dVertex
 10
62.2141180942555
 20
-144.8759114221144
 30
0.0
  0
VERTEX
  5
19B
330
197
100
AcDbEntity
  8
_U+30EC_U+30A4_U+30E4_U+30FC 1
370
     0
100
AcDbVertex
100
AcDb2dVertex
 10
61.86719697889085
 20
-144.8759114221144
 30
0.0
  0
VERTEX
  5
19C
330
197
100
AcDbEntity
  8
_U+30EC_U+30A4_U+30E4_U+30FC 1
370
     0
100
AcDbVertex
100
AcDb2dVertex
 10
61.86719697889085
 20
-145.5318576025059
 30
0.0
  0
VERTEX
  5
19D
330
197
100
AcDbEntity
  8
_U+30EC_U+30A4_U+30E4_U+30FC 1
370
     0
100
AcDbVertex
100
AcDb2dVertex
 10
61.64292126280107
 20
-145.5318576025059
 30
0.0
  0
VERTEX
  5
19E
330
197
100
AcDbEntity
  8
_U+30EC_U+30A4_U+30E4_U+30FC 1
370
     0
100
AcDbVertex
100
AcDb2dVertex
 10
60.66985404299226
 20
-144.8528292823632
 30
0.0
  0
VERTEX
  5
19F
330
197
100
AcDbEntity
  8
_U+30EC_U+30A4_U+30E4_U+30FC 1
370
     0
100
AcDbVertex
100
AcDb2dVertex
 10
60.66985404299226
 20
-144.6581813874466
 30
0.0
  0
VERTEX
  5
1A0
330
197
100
AcDbEntity
  8
_U+30EC_U+30A4_U+30E4_U+30FC 1
370
     0
100
AcDbVertex
100
AcDb2dVertex
 10
61.66841496939193
 20
-144.6581813874466
 30
0.0
  0
VERTEX
  5
1A1
330
197
100
AcDbEntity
  8
_U+30EC_U+30A4_U+30E4_U+30FC 1
370
     0
100
AcDbVertex
100
AcDb2dVertex
 10
61.66841496939193
 20
-144.4507866392345
 30
0.0
  0
VERTEX
  5
1A2
330
197
100
AcDbEntity
  8
_U+30EC_U+30A4_U+30E4_U+30FC 1
370
     0
100
AcDbVertex
100
AcDb2dVertex
 10
61.86719697889085
 20
-144.4507866392345
 30
0.0
  0
VERTEX
  5
1A3
330
197
100
AcDbEntity
  8
_U+30EC_U+30A4_U+30E4_U+30FC 1
370
     0
100
AcDbVertex
100
AcDb2dVertex
 10
61.86719697889085
 20
-144.6581813874466
 30
0.0
  0
SEQEND
  5
1A4
330
197
100
AcDbEntity
  8
_U+30EC_U+30A4_U+30E4_U+30FC 1
370
     0
  0
POLYLINE
  5
1A5
330
193
100
AcDbEntity
  8
_U+30EC_U+30A4_U+30E4_U+30FC 1
370
     0
100
AcDb2dPolyline
 66
     1
 10
0.0
 20
0.0
 30
0.0
  0
VERTEX
  5
1A6
330
1A5
100
AcDbEntity
  8
_U+30EC_U+30A4_U+30E4_U+30FC 1
370
     0
100
AcDbVertex
100
AcDb2dVertex
 10
61.01246878900036
 20
-144.8759114221144
 30
0.0
  0
VERTEX
  5
1A7
330
1A5
100
AcDbEntity
  8
_U+30EC_U+30A4_U+30E4_U+30FC 1
370
     0
100
AcDbVertex
100
AcDb2dVertex
 10
61.66841496939193
 20
-145.333075593007
 30
0.0
  0
VERTEX
  5
1A8
330
1A5
100
AcDbEntity
  8
_U+30EC_U+30A4_U+30E4_U+30FC 1
370
     0
100
AcDbVertex
100
AcDb2dVertex
 10
61.66841496939193
 20
-144.8759114221144
 30
0.0
  0
VERTEX
  5
1A9
330
1A5
100
AcDbEntity
  8
_U+30EC_U+30A4_U+30E4_U+30FC 1
370
     0
100
AcDbVertex
100
AcDb2dVertex
 10
61.01246878900036
 20
-144.8759114221144
 30
0.0
  0
SEQEND
  5
1AA
330
1A5
100
AcDbEntity
  8
_U+30EC_U+30A4_U+30E4_U+30FC 1
370
     0
  0
HATCH
  5
1AB
330
193
100
AcDbEntity
  8
_U+30EC_U+30A4_U+30E4_U+30FC 1
 62
   179
420
  2234388
100
AcDbHatch
 10
0.0
 20
0.0
 30
0.0
210
0.0
220
0.0
230
1.0
  2
SOLID
 70
     1
 71
     0
 91
        2
 92
        1
 93
       11
 72
     1
 10
61.86719697889085
 20
-144.6581813874466
 11
62.2141180942555
 21
-144.6581813874466
 72
     1
 10
62.2141180942555
 20
-144.6581813874466
 11
62.2141180942555
 21
-144.8759114221144
 72
     1
 10
62.2141180942555
 20
-144.8759114221144
 11
61.86719697889085
 21
-144.8759114221144
 72
     1
 10
61.86719697889085
 20
-144.8759114221144
 11
61.86719697889085
 21
-145.5318576025059
 72
     1
 10
61.86719697889085
 20
-145.5318576025059
 11
61.64292126280107
 21
-145.5318576025059
 72
     1
 10
61.64292126280107
 20
-145.5318576025059
 11
60.66985404299226
 21
-144.8528292823632
 72
     1
 10
60.66985404299226
 20
-144.8528292823632
 11
60.66985404299226
 21
-144.6581813874466
 72
     1
 10
60.66985404299226
 20
-144.6581813874466
 11
61.66841496939193
 21
-144.6581813874466
 72
     1
 10
61.66841496939193
 20
-144.6581813874466
 11
61.66841496939193
 21
-144.4507866392345
 72
     1
 10
61.66841496939193
 20
-144.4507866392345
 11
61.86719697889085
 21
-144.4507866392345
 72
     1
 10
61.86719697889085
 20
-144.4507866392345
 11
61.86719697889085
 21
-144.6581813874466
 97
        0
 92
        1
 93
        3
 72
     1
 10
61.01246878900036
 20
-144.8759114221144
 11
61.66841496939193
 21
-145.333075593007
 72
     1
 10
61.66841496939193
 20
-145.333075593007
 11
61.66841496939193
 21
-144.8759114221144
 72
     1
 10
61.66841496939193
 20
-144.8759114221144
 11
61.01246878900036
 21
-144.8759114221144
 97
        0
 75
     2
 76
     1
 98
        0
  0
ENDBLK
  5
196
330
193
100
AcDbEntity
  8
0
100
AcDbBlockEnd
  0
BLOCK
  5
1AE
330
1AC
100
AcDbEntity
  8
0
100
AcDbBlockBegin
  2
block 19
 70
     0
 10
0.0
 20
0.0
 30
0.0
  3
block 19
  1

  0
SPLINE
  5
1B0
330
1AC
100
AcDbEntity
  8
_U+30EC_U+30A4_U+30E4_U+30FC 1
 62
   179
420
  2234388
370
    25
100
AcDbSpline
210
0.0
220
0.0
230
1.0
 70
    11
 71
     3
 72
    17
 73
    13
 74
     0
 42
0.0000000001
 43
0.0000000001
 12
1.0
 22
0.0
 32
0.0
 13
1.0
 23
0.0
 33
0.0
 40
0.0
 40
0.0
 40
0.0
 40
0.0
 40
1.0
 40
1.0
 40
1.0
 40
2.0
 40
2.0
 40
2.0
 40
3.0
 40
3.0
 40
3.0
 40
4.0
 40
4.0
 40
4.0
 40
4.0
 10
66.62194052255492
 20
-146.9922341299183
 30
0.0
 10
66.62194052255492
 20
-147.0115310743581
 30
0.0
 10
66.6061008007368
 20
-147.0273707965767
 30
0.0
 10
66.5864527611311
 20
-147.0273707965767
 30
0.0
 10
66.56715413506375
 20
-147.0273707965767
 30
0.0
 10
66.55131441324563
 20
-147.0115310743581
 30
0.0
 10
66.55131441324563
 20
-146.9922341299183
 30
0.0
 10
66.55131441324563
 20
-146.9729371854791
 30
0.0
 10
66.56715413506375
 20
-146.9570974632606
 30
0.0
 10
66.5864527611311
 20
-146.9570974632606
 30
0.0
 10
66.6061008007368
 20
-146.9570974632606
 30
0.0
 10
66.62194052255492
 20
-146.9729371854791
 30
0.0
 10
66.62194052255492
 20
-146.9922341299183
 30
0.0
  0
ENDBLK
  5
1AF
330
1AC
100
AcDbEntity
  8
0
100
AcDbBlockEnd
  0
BLOCK
  5
1B3
330
1B1
100
AcDbEntity
  8
0
100
AcDbBlockBegin
  2
block 20
 70
     0
 10
0.0
 20
0.0
 30
0.0
  3
block 20
  1

  0
SPLINE
  5
1B5
330
1B1
100
AcDbEntity
  8
_U+30EC_U+30A4_U+30E4_U+30FC 1
 62
   179
420
  2234388
370
    25
100
AcDbSpline
210
0.0
220
0.0
230
1.0
 70
    11
 71
     3
 72
    17
 73
    13
 74
     0
 42
0.0000000001
 43
0.0000000001
 12
1.0
 22
0.0
 32
0.0
 13
1.0
 23
0.0
 33
0.0
 40
0.0
 40
0.0
 40
0.0
 40
0.0
 40
1.0
 40
1.0
 40
1.0
 40
2.0
 40
2.0
 40
2.0
 40
3.0
 40
3.0
 40
3.0
 40
4.0
 40
4.0
 40
4.0
 40
4.0
 10
74.62181142957232
 20
-128.9926299677519
 30
0.0
 10
74.62181142957232
 20
-129.0119269121917
 30
0.0
 10
74.60593642997732
 20
-129.0277666344096
 30
0.0
 10
74.58667476380207
 20
-129.0277666344096
 30
0.0
 10
74.56702504208114
 20
-129.0277666344096
 30
0.0
 10
74.55118532026303
 20
-129.0119269121917
 30
0.0
 10
74.55118532026303
 20
-128.9926299677519
 30
0.0
 10
74.55118532026303
 20
-128.9726627455347
 30
0.0
 10
74.56702504208114
 20
-128.9574933010941
 30
0.0
 10
74.58667476380207
 20
-128.9574933010941
 30
0.0
 10
74.60593642997732
 20
-128.9574933010941
 30
0.0
 10
74.62181142957232
 20
-128.9726627455347
 30
0.0
 10
74.62181142957232
 20
-128.9926299677519
 30
0.0
  0
ENDBLK
  5
1B4
330
1B1
100
AcDbEntity
  8
0
100
AcDbBlockEnd
  0
BLOCK
  5
1B8
330
1B6
100
AcDbEntity
  8
0
100
AcDbBlockBegin
  2
block 21
 70
     0
 10
0.0
 20
0.0
 30
0.0
  3
block 21
  1

  0
SPLINE
  5
1BA
330
1B6
100
AcDbEntity
  8
_U+30EC_U+30A4_U+30E4_U+30FC 1
 62
   179
420
  2234388
370
     9
100
AcDbSpline
210
0.0
220
0.0
230
1.0
 70
    11
 71
     3
 72
    17
 73
    13
 74
     0
 42
0.0000000001
 43
0.0000000001
 12
1.0
 22
0.0
 32
0.0
 13
1.0
 23
0.0
 33
0.0
 40
0.0
 40
0.0
 40
0.0
 40
0.0
 40
1.0
 40
1.0
 40
1.0
 40
2.0
 40
2.0
 40
2.0
 40
3.0
 40
3.0
 40
3.0
 40
4.0
 40
4.0
 40
4.0
 40
4.0
 10
62.62182868016183
 20
-128.9926299677519
 30
0.0
 10
62.62182868016183
 20
-129.0119269121917
 30
0.0
 10
62.60598895834372
 20
-129.0277666344096
 30
0.0
 10
62.58669201439157
 20
-129.0277666344096
 30
0.0
 10
62.56707757044754
 20
-129.0277666344096
 30
0.0
 10
62.55120257085254
 20
-129.0119269121917
 30
0.0
 10
62.55120257085254
 20
-128.9926299677519
 30
0.0
 10
62.55120257085254
 20
-128.9726627455347
 30
0.0
 10
62.56707757044754
 20
-128.9574933010941
 30
0.0
 10
62.58669201439157
 20
-128.9574933010941
 30
0.0
 10
62.60598895834372
 20
-128.9574933010941
 30
0.0
 10
62.62182868016183
 20
-128.9726627455347
 30
0.0
 10
62.62182868016183
 20
-128.9926299677519
 30
0.0
  0
ENDBLK
  5
1B9
330
1B6
100
AcDbEntity
  8
0
100
AcDbBlockEnd
  0
BLOCK
  5
1BD
330
1BB
100
AcDbEntity
  8
0
100
AcDbBlockBegin
  2
block 22
 70
     0
 10
0.0
 20
0.0
 30
0.0
  3
block 22
  1

  0
INSERT
  5
1C0
330
1BB
100
AcDbEntity
  8
_U+30EC_U+30A4_U+30E4_U+30FC 1
100
AcDbBlockReference
  2
block 23
 10
0.0
 20
0.0
 30
0.0
  0
ENDBLK
  5
1BE
330
1BB
100
AcDbEntity
  8
0
100
AcDbBlockEnd
  0
BLOCK
  5
1C1
330
1BF
100
AcDbEntity
  8
0
100
AcDbBlockBegin
  2
block 23
 70
     0
 10
0.0
 20
0.0
 30
0.0
  3
block 23
  1

  0
SPLINE
  5
1C3
330
1BF
100
AcDbEntity
  8
_U+30EC_U+30A4_U+30E4_U+30FC 1
 62
   179
420
  2234388
370
    25
100
AcDbSpline
210
0.0
220
0.0
230
1.0
 70
    11
 71
     3
 72
    17
 73
    13
 74
     0
 42
0.0000000001
 43
0.0000000001
 12
1.0
 22
0.0
 32
0.0
 13
1.0
 23
0.0
 33
0.0
 40
0.0
 40
0.0
 40
0.0
 40
0.0
 40
1.0
 40
1.0
 40
1.0
 40
2.0
 40
2.0
 40
2.0
 40
3.0
 40
3.0
 40
3.0
 40
4.0
 40
4.0
 40
4.0
 40
4.0
 10
72.2925609334409
 20
-142.9924749642521
 30
0.0
 10
72.2925609334409
 20
-143.0117719086913
 30
0.0
 10
72.27707398939155
 20
-143.0276116309098
 30
0.0
 10
72.25742426767064
 20
-143.0276116309098
 30
0.0
 10
72.23780982372661
 20
-143.0276116309098
 30
0.0
 10
72.22228760190039
 20
-143.0117719086913
 30
0.0
 10
72.22228760190039
 20
-142.9924749642521
 30
0.0
 10
72.22228760190039
 20
-142.9725077420349
 30
0.0
 10
72.23780982372661
 20
-142.9573382975937
 30
0.0
 10
72.25742426767064
 20
-142.9573382975937
 30
0.0
 10
72.27707398939155
 20
-142.9573382975937
 30
0.0
 10
72.2925609334409
 20
-142.9725077420349
 30
0.0
 10
72.2925609334409
 20
-142.9924749642521
 30
0.0
  0
ENDBLK
  5
1C2
330
1BF
100
AcDbEntity
  8
0
100
AcDbBlockEnd
  0
BLOCK
  5
1C6
330
1C4
100
AcDbEntity
  8
0
100
AcDbBlockBegin
  2
block 24
 70
     0
 10
0.0
 20
0.0
 30
0.0
  3
block 24
  1

  0
INSERT
  5
1C9
330
1C4
100
AcDbEntity
  8
_U+30EC_U+30A4_U+30E4_U+30FC 1
100
AcDbBlockReference
  2
block 25
 10
0.0
 20
0.0
 30
0.0
  0
INSERT
  5
1CE
330
1C4
100
AcDbEntity
  8
_U+30EC_U+30A4_U+30E4_U+30FC 1
100
AcDbBlockReference
  2
block 26
 10
0.0
 20
0.0
 30
0.0
  0
ENDBLK
  5
1C7
330
1C4
100
AcDbEntity
  8
0
100
AcDbBlockEnd
  0
BLOCK
  5
1CA
330
1C8
100
AcDbEntity
  8
0
100
AcDbBlockBegin
  2
block 25
 70
     0
 10
0.0
 20
0.0
 30
0.0
  3
block 25
  1

  0
SPLINE
  5
1CC
330
1C8
100
AcDbEntity
  8
_U+30EC_U+30A4_U+30E4_U+30FC 1
 62
   179
420
  2234388
370
    25
100
AcDbSpline
210
0.0
220
0.0
230
1.0
 70
    11
 71
     3
 72
    17
 73
    13
 74
     0
 42
0.0000000001
 43
0.0000000001
 12
1.0
 22
0.0
 32
0.0
 13
1.0
 23
0.0
 33
0.0
 40
0.0
 40
0.0
 40
0.0
 40
0.0
 40
1.0
 40
1.0
 40
1.0
 40
2.0
 40
2.0
 40
2.0
 40
3.0
 40
3.0
 40
3.0
 40
4.0
 40
4.0
 40
4.0
 40
4.0
 10
72.2925609334409
 20
-142.9924749642521
 30
0.0
 10
72.2925609334409
 20
-143.0117719086913
 30
0.0
 10
72.27707398939155
 20
-143.0276116309098
 30
0.0
 10
72.25742426767064
 20
-143.0276116309098
 30
0.0
 10
72.23780982372661
 20
-143.0276116309098
 30
0.0
 10
72.22228760190039
 20
-143.0117719086913
 30
0.0
 10
72.22228760190039
 20
-142.9924749642521
 30
0.0
 10
72.22228760190039
 20
-142.9725077420349
 30
0.0
 10
72.23780982372661
 20
-142.9573382975937
 30
0.0
 10
72.25742426767064
 20
-142.9573382975937
 30
0.0
 10
72.27707398939155
 20
-142.9573382975937
 30
0.0
 10
72.2925609334409
 20
-142.9725077420349
 30
0.0
 10
72.2925609334409
 20
-142.9924749642521
 30
0.0
  0
ENDBLK
  5
1CB
330
1C8
100
AcDbEntity
  8
0
100
AcDbBlockEnd
  0
BLOCK
  5
1CF
330
1CD
100
AcDbEntity
  8
0
100
AcDbBlockBegin
  2
block 26
 70
     0
 10
0.0
 20
0.0
 30
0.0
  3
block 26
  1

  0
SPLINE
  5
1D1
330
1CD
100
AcDbEntity
  8
_U+30EC_U+30A4_U+30E4_U+30FC 1
 62
   179
420
  2234388
370
    25
100
AcDbSpline
210
0.0
220
0.0
230
1.0
 70
    11
 71
     3
 72
    17
 73
    13
 74
     0
 42
0.0000000001
 43
0.0000000001
 12
1.0
 22
0.0
 32
0.0
 13
1.0
 23
0.0
 33
0.0
 40
0.0
 40
0.0
 40
0.0
 40
0.0
 40
1.0
 40
1.0
 40
1.0
 40
2.0
 40
2.0
 40
2.0
 40
3.0
 40
3.0
 40
3.0
 40
4.0
 40
4.0
 40
4.0
 40
4.0
 10
76.62202610076481
 20
-146.9922341299183
 30
0.0
 10
76.62202610076481
 20
-147.0115310743581
 30
0.0
 10
76.6061863789467
 20
-147.0273707965767
 30
0.0
 10
76.58653665722578
 20
-147.0273707965767
 30
0.0
 10
76.56724164752492
 20
-147.0273707965767
 30
0.0
 10
76.55139999145553
 20
-147.0115310743581
 30
0.0
 10
76.55139999145553
 20
-146.9922341299183
 30
0.0
 10
76.55139999145553
 20
-146.9729371854791
 30
0.0
 10
76.56724164752492
 20
-146.9570974632606
 30
0.0
 10
76.58653665722578
 20
-146.9570974632606
 30
0.0
 10
76.6061863789467
 20
-146.9570974632606
 30
0.0
 10
76.62202610076481
 20
-146.9729371854791
 30
0.0
 10
76.62202610076481
 20
-146.9922341299183
 30
0.0
  0
ENDBLK
  5
1D0
330
1CD
100
AcDbEntity
  8
0
100
AcDbBlockEnd
  0
BLOCK
  5
1D4
330
1D2
100
AcDbEntity
  8
0
100
AcDbBlockBegin
  2
block 27
 70
     0
 10
0.0
 20
0.0
 30
0.0
  3
block 27
  1

  0
POLYLINE
  5
1D6
330
1D2
100
AcDbEntity
  8
_U+30EC_U+30A4_U+30E4_U+30FC 1
 62
   179
420
  2234388
370
     9
100
AcDb2dPolyline
 66
     1
 10
0.0
 20
0.0
 30
0.0
  0
VERTEX
  5
1D7
330
1D6
100
AcDbEntity
  8
_U+30EC_U+30A4_U+30E4_U+30FC 1
 62
   179
420
  2234388
370
     9
100
AcDbVertex
100
AcDb2dVertex
 10
66.5864527611311
 20
-150.9919932955852
 30
0.0
  0
VERTEX
  5
1D8
330
1D6
100
AcDbEntity
  8
_U+30EC_U+30A4_U+30E4_U+30FC 1
 62
   179
420
  2234388
370
     9
100
AcDbVertex
100
AcDb2dVertex
 10
76.58653665722578
 20
-150.9919932955852
 30
0.0
  0
SEQEND
  5
1D9
330
1D6
100
AcDbEntity
  8
_U+30EC_U+30A4_U+30E4_U+30FC 1
 62
   179
420
  2234388
370
     9
  0
POLYLINE
  5
1DA
330
1D2
100
AcDbEntity
  8
_U+30EC_U+30A4_U+30E4_U+30FC 1
 62
   179
420
  2234388
370
     9
100
AcDb2dPolyline
 66
     1
 10
0.0
 20
0.0
 30
0.0
  0
VERTEX
  5
1DB
330
1DA
100
AcDbEntity
  8
_U+30EC_U+30A4_U+30E4_U+30FC 1
 62
   179
420
  2234388
370
     9
100
AcDbVertex
100
AcDb2dVertex
 10
66.5864527611311
 20
-149.532657462617
 30
0.0
  0
VERTEX
  5
1DC
330
1DA
100
AcDbEntity
  8
_U+30EC_U+30A4_U+30E4_U+30FC 1
 62
   179
420
  2234388
370
     9
100
AcDbVertex
100
AcDb2dVertex
 10
66.5864527611311
 20
-151.9924357953351
 30
0.0
  0
SEQEND
  5
1DD
330
1DA
100
AcDbEntity
  8
_U+30EC_U+30A4_U+30E4_U+30FC 1
 62
   179
420
  2234388
370
     9
  0
POLYLINE
  5
1DE
330
1D2
100
AcDbEntity
  8
_U+30EC_U+30A4_U+30E4_U+30FC 1
 62
   179
420
  2234388
370
     9
100
AcDb2dPolyline
 66
     1
 10
0.0
 20
0.0
 30
0.0
  0
VERTEX
  5
1DF
330
1DE
100
AcDbEntity
  8
_U+30EC_U+30A4_U+30E4_U+30FC 1
 62
   179
420
  2234388
370
     9
100
AcDbVertex
100
AcDb2dVertex
 10
76.58653665722578
 20
-149.532657462617
 30
0.0
  0
VERTEX
  5
1E0
330
1DE
100
AcDbEntity
  8
_U+30EC_U+30A4_U+30E4_U+30FC 1
 62
   179
420
  2234388
370
     9
100
AcDbVertex
100
AcDb2dVertex
 10
76.58653665722578
 20
-151.9924357953351
 30
0.0
  0
SEQEND
  5
1E1
330
1DE
100
AcDbEntity
  8
_U+30EC_U+30A4_U+30E4_U+30FC 1
 62
   179
420
  2234388
370
     9
  0
INSERT
  5
1E3
330
1D2
100
AcDbEntity
  8
_U+30EC_U+30A4_U+30E4_U+30FC 1
100
AcDbBlockReference
  2
block 28
 10
0.0
 20
0.0
 30
0.0
  0
INSERT
  5
1EC
330
1D2
100
AcDbEntity
  8
_U+30EC_U+30A4_U+30E4_U+30FC 1
100
AcDbBlockReference
  2
block 29
 10
0.0
 20
0.0
 30
0.0
  0
INSERT
  5
1F1
330
1D2
100
AcDbEntity
  8
_U+30EC_U+30A4_U+30E4_U+30FC 1
100
AcDbBlockReference
  2
block 30
 10
0.0
 20
0.0
 30
0.0
  0
INSERT
  5
1F6
330
1D2
100
AcDbEntity
  8
_U+30EC_U+30A4_U+30E4_U+30FC 1
100
AcDbBlockReference
  2
block 31
 10
0.0
 20
0.0
 30
0.0
  0
ENDBLK
  5
1D5
330
1D2
100
AcDbEntity
  8
0
100
AcDbBlockEnd
  0
BLOCK
  5
1E4
330
1E2
100
AcDbEntity
  8
0
100
AcDbBlockBegin
  2
block 28
 70
     0
 10
0.0
 20
0.0
 30
0.0
  3
block 28
  1

  0
SPLINE
  5
1E6
330
1E2
100
AcDbEntity
  8
_U+30EC_U+30A4_U+30E4_U+30FC 1
370
     0
100
AcDbSpline
210
0.0
220
0.0
230
1.0
 70
    11
 71
     3
 72
    26
 73
    22
 74
     0
 42
0.0000000001
 43
0.0000000001
 12
1.0
 22
0.0
 32
0.0
 13
1.0
 23
0.0
 33
0.0
 40
0.0
 40
0.0
 40
0.0
 40
0.0
 40
1.0
 40
1.0
 40
1.0
 40
2.0
 40
2.0
 40
2.0
 40
3.0
 40
3.0
 40
3.0
 40
4.0
 40
4.0
 40
4.0
 40
5.0
 40
5.0
 40
5.0
 40
6.0
 40
6.0
 40
6.0
 40
7.0
 40
7.0
 40
7.0
 40
7.0
 10
70.94932995188073
 20
-150.6199191246714
 30
0.0
 10
70.94932995188073
 20
-150.6199191246714
 30
0.0
 10
70.94932995188073
 20
-149.5154215121003
 30
0.0
 10
70.94932995188073
 20
-149.5154215121003
 30
0.0
 10
70.94932995188073
 20
-149.5154215121003
 30
0.0
 10
70.61928980439379
 20
-149.5154215121003
 30
0.0
 10
70.61928980439379
 20
-149.5154215121003
 30
0.0
 10
70.61928980439379
 20
-149.5154215121003
 30
0.0
 10
70.61928980439379
 20
-149.3672824062346
 30
0.0
 10
70.61928980439379
 20
-149.3672824062346
 30
0.0
 10
70.95139700917187
 20
-149.352468495648
 30
0.0
 10
70.99790579822275
 20
-149.1898599887442
 30
0.0
 10
71.0275336193959
 20
-149.0754828186339
 30
0.0
 10
71.0275336193959
 20
-149.0754828186339
 30
0.0
 10
71.17343341319622
 20
-149.0754828186339
 30
0.0
 10
71.17343341319622
 20
-149.0754828186339
 30
0.0
 10
71.17343341319622
 20
-149.0754828186339
 30
0.0
 10
71.17343341319622
 20
-150.6199191246714
 30
0.0
 10
71.17343341319622
 20
-150.6199191246714
 30
0.0
 10
71.17343341319622
 20
-150.6199191246714
 30
0.0
 10
70.94932995188073
 20
-150.6199191246714
 30
0.0
 10
70.94932995188073
 20
-150.6199191246714
 30
0.0
  0
HATCH
  5
1E7
330
1E2
100
AcDbEntity
  8
_U+30EC_U+30A4_U+30E4_U+30FC 1
 62
   179
420
  2234388
100
AcDbHatch
 10
0.0
 20
0.0
 30
0.0
210
0.0
220
0.0
230
1.0
  2
SOLID
 70
     1
 71
     0
 91
        1
 92
        1
 93
        1
 72
     4
 94
        3
 73
     0
 74
     1
 95
       26
 96
       22
 40
0.0
 40
0.0
 40
0.0
 40
0.0
 40
1.0
 40
1.0
 40
1.0
 40
2.0
 40
2.0
 40
2.0
 40
3.0
 40
3.0
 40
3.0
 40
4.0
 40
4.0
 40
4.0
 40
5.0
 40
5.0
 40
5.0
 40
6.0
 40
6.0
 40
6.0
 40
7.0
 40
7.0
 40
7.0
 40
7.0
 10
70.94932995188073
 20
-150.6199191246714
 10
70.94932995188073
 20
-150.6199191246714
 10
70.94932995188073
 20
-149.5154215121003
 10
70.94932995188073
 20
-149.5154215121003
 10
70.94932995188073
 20
-149.5154215121003
 10
70.61928980439379
 20
-149.5154215121003
 10
70.61928980439379
 20
-149.5154215121003
 10
70.61928980439379
 20
-149.5154215121003
 10
70.61928980439379
 20
-149.3672824062346
 10
70.61928980439379
 20
-149.3672824062346
 10
70.95139700917187
 20
-149.352468495648
 10
70.99790579822275
 20
-149.1898599887442
 10
71.0275336193959
 20
-149.0754828186339
 10
71.0275336193959
 20
-149.0754828186339
 10
71.17343341319622
 20
-149.0754828186339
 10
71.17343341319622
 20
-149.0754828186339
 10
71.17343341319622
 20
-149.0754828186339
 10
71.17343341319622
 20
-150.6199191246714
 10
71.17343341319622
 20
-150.6199191246714
 10
71.17343341319622
 20
-150.6199191246714
 10
70.94932995188073
 20
-150.6199191246714
 10
70.94932995188073
 20
-150.6199191246714
 97
        0
 97
        0
 75
     2
 76
     1
 98
        0
  0
SPLINE
  5
1E8
330
1E2
100
AcDbEntity
  8
_U+30EC_U+30A4_U+30E4_U+30FC 1
370
     0
100
AcDbSpline
210
0.0
220
0.0
230
1.0
 70
    11
 71
     3
 72
    29
 73
    25
 74
     0
 42
0.0000000001
 43
0.0000000001
 12
1.0
 22
0.0
 32
0.0
 13
1.0
 23
0.0
 33
0.0
 40
0.0
 40
0.0
 40
0.0
 40
0.0
 40
1.0
 40
1.0
 40
1.0
 40
2.0
 40
2.0
 40
2.0
 40
3.0
 40
3.0
 40
3.0
 40
4.0
 40
4.0
 40
4.0
 40
5.0
 40
5.0
 40
5.0
 40
6.0
 40
6.0
 40
6.0
 40
7.0
 40
7.0
 40
7.0
 40
8.0
 40
8.0
 40
8.0
 40
8.0
 10
72.57248668975619
 20
-150.4421521976325
 30
0.0
 10
72.46465520106787
 20
-150.6516140031357
 30
0.0
 10
72.29119464338554
 20
-150.6705620283046
 30
0.0
 10
72.1747504159841
 20
-150.6705620283046
 30
0.0
 10
72.01403671159719
 20
-150.6705620283046
 30
0.0
 10
71.87227103237916
 20
-150.6240532392537
 30
0.0
 10
71.777014142212
 20
-150.4421521976325
 30
0.0
 10
71.67348902288025
 20
-150.2475043027159
 30
0.0
 10
71.65436874293711
 20
-150.0104817333307
 30
0.0
 10
71.65436874293711
 20
-149.8475287168784
 30
0.0
 10
71.65436874293711
 20
-149.7038682351435
 30
0.0
 10
71.67124971081483
 20
-149.4520317551717
 30
0.0
 10
71.777014142212
 20
-149.2532497456728
 30
0.0
 10
71.88501788567459
 20
-149.0499891120431
 30
0.0
 10
72.0457315900615
 20
-149.0269069722919
 30
0.0
 10
72.1747504159841
 20
-149.0269069722919
 30
0.0
 10
72.33339706307984
 20
-149.0269069722919
 30
0.0
 10
72.47722979958903
 20
-149.0713487040516
 30
0.0
 10
72.57248668975619
 20
-149.2532497456728
 30
0.0
 10
72.67187769450564
 20
-149.4458305832983
 30
0.0
 10
72.69513208903108
 20
-149.6742404139703
 30
0.0
 10
72.69513208903108
 20
-149.8475287168784
 30
0.0
 10
72.69513208903108
 20
-150.0190944720438
 30
0.0
 10
72.67411700657105
 20
-150.2495713600071
 30
0.0
 10
72.57248668975619
 20
-150.4421521976325
 30
0.0
  0
SPLINE
  5
1E9
330
1E2
100
AcDbEntity
  8
_U+30EC_U+30A4_U+30E4_U+30FC 1
370
     0
100
AcDbSpline
210
0.0
220
0.0
230
1.0
 70
    11
 71
     3
 72
    17
 73
    13
 74
     0
 42
0.0000000001
 43
0.0000000001
 12
1.0
 22
0.0
 32
0.0
 13
1.0
 23
0.0
 33
0.0
 40
0.0
 40
0.0
 40
0.0
 40
0.0
 40
1.0
 40
1.0
 40
1.0
 40
2.0
 40
2.0
 40
2.0
 40
3.0
 40
3.0
 40
3.0
 40
4.0
 40
4.0
 40
4.0
 40
4.0
 10
72.1747504159841
 20
-149.2194878099174
 30
0.0
 10
71.92515324807775
 20
-149.2194878099174
 30
0.0
 10
71.87864445902687
 20
-149.5026746588049
 30
0.0
 10
71.87864445902687
 20
-149.8475287168784
 30
0.0
 10
71.87864445902687
 20
-150.1668890683611
 30
0.0
 10
71.91464570684774
 20
-150.475914133388
 30
0.0
 10
72.1747504159841
 20
-150.475914133388
 30
0.0
 10
72.4222805265993
 20
-150.475914133388
 30
0.0
 10
72.47102862771558
 20
-150.1944498322431
 30
0.0
 10
72.47102862771558
 20
-149.8475287168784
 30
0.0
 10
72.47102862771558
 20
-149.5281683653957
 30
0.0
 10
72.4327880678293
 20
-149.2194878099174
 30
0.0
 10
72.1747504159841
 20
-149.2194878099174
 30
0.0
  0
HATCH
  5
1EA
330
1E2
100
AcDbEntity
  8
_U+30EC_U+30A4_U+30E4_U+30FC 1
 62
   179
420
  2234388
100
AcDbHatch
 10
0.0
 20
0.0
 30
0.0
210
0.0
220
0.0
230
1.0
  2
SOLID
 70
     1
 71
     0
 91
        2
 92
        1
 93
        1
 72
     4
 94
        3
 73
     0
 74
     1
 95
       29
 96
       25
 40
0.0
 40
0.0
 40
0.0
 40
0.0
 40
1.0
 40
1.0
 40
1.0
 40
2.0
 40
2.0
 40
2.0
 40
3.0
 40
3.0
 40
3.0
 40
4.0
 40
4.0
 40
4.0
 40
5.0
 40
5.0
 40
5.0
 40
6.0
 40
6.0
 40
6.0
 40
7.0
 40
7.0
 40
7.0
 40
8.0
 40
8.0
 40
8.0
 40
8.0
 10
72.57248668975619
 20
-150.4421521976325
 10
72.46465520106787
 20
-150.6516140031357
 10
72.29119464338554
 20
-150.6705620283046
 10
72.1747504159841
 20
-150.6705620283046
 10
72.01403671159719
 20
-150.6705620283046
 10
71.87227103237916
 20
-150.6240532392537
 10
71.777014142212
 20
-150.4421521976325
 10
71.67348902288025
 20
-150.2475043027159
 10
71.65436874293711
 20
-150.0104817333307
 10
71.65436874293711
 20
-149.8475287168784
 10
71.65436874293711
 20
-149.7038682351435
 10
71.67124971081483
 20
-149.4520317551717
 10
71.777014142212
 20
-149.2532497456728
 10
71.88501788567459
 20
-149.0499891120431
 10
72.0457315900615
 20
-149.0269069722919
 10
72.1747504159841
 20
-149.0269069722919
 10
72.33339706307984
 20
-149.0269069722919
 10
72.47722979958903
 20
-149.0713487040516
 10
72.57248668975619
 20
-149.2532497456728
 10
72.67187769450564
 20
-149.4458305832983
 10
72.69513208903108
 20
-149.6742404139703
 10
72.69513208903108
 20
-149.8475287168784
 10
72.69513208903108
 20
-150.0190944720438
 10
72.67411700657105
 20
-150.2495713600071
 10
72.57248668975619
 20
-150.4421521976325
 97
        0
 97
        0
 92
        1
 93
        1
 72
     4
 94
        3
 73
     0
 74
     1
 95
       17
 96
       13
 40
0.0
 40
0.0
 40
0.0
 40
0.0
 40
1.0
 40
1.0
 40
1.0
 40
2.0
 40
2.0
 40
2.0
 40
3.0
 40
3.0
 40
3.0
 40
4.0
 40
4.0
 40
4.0
 40
4.0
 10
72.1747504159841
 20
-149.2194878099174
 10
71.92515324807775
 20
-149.2194878099174
 10
71.87864445902687
 20
-149.5026746588049
 10
71.87864445902687
 20
-149.8475287168784
 10
71.87864445902687
 20
-150.1668890683611
 10
71.91464570684774
 20
-150.475914133388
 10
72.1747504159841
 20
-150.475914133388
 10
72.4222805265993
 20
-150.475914133388
 10
72.47102862771558
 20
-150.1944498322431
 10
72.47102862771558
 20
-149.8475287168784
 10
72.47102862771558
 20
-149.5281683653957
 10
72.4327880678293
 20
-149.2194878099174
 10
72.1747504159841
 20
-149.2194878099174
 97
        0
 97
        0
 75
     2
 76
     1
 98
        0
  0
ENDBLK
  5
1E5
330
1E2
100
AcDbEntity
  8
0
100
AcDbBlockEnd
  0
BLOCK
  5
1ED
330
1EB
100
AcDbEntity
  8
0
100
AcDbBlockBegin
  2
block 29
 70
     0
 10
0.0
 20
0.0
 30
0.0
  3
block 29
  1

  0
SPLINE
  5
1EF
330
1EB
100
AcDbEntity
  8
_U+30EC_U+30A4_U+30E4_U+30FC 1
 62
   179
420
  2234388
370
    25
100
AcDbSpline
210
0.0
220
0.0
230
1.0
 70
    11
 71
     3
 72
    17
 73
    13
 74
     0
 42
0.0000000001
 43
0.0000000001
 12
1.0
 22
0.0
 32
0.0
 13
1.0
 23
0.0
 33
0.0
 40
0.0
 40
0.0
 40
0.0
 40
0.0
 40
1.0
 40
1.0
 40
1.0
 40
2.0
 40
2.0
 40
2.0
 40
3.0
 40
3.0
 40
3.0
 40
4.0
 40
4.0
 40
4.0
 40
4.0
 10
66.62194052255492
 20
-146.9922341299183
 30
0.0
 10
66.62194052255492
 20
-147.0115310743581
 30
0.0
 10
66.6061008007368
 20
-147.0273707965767
 30
0.0
 10
66.5864527611311
 20
-147.0273707965767
 30
0.0
 10
66.56715413506375
 20
-147.0273707965767
 30
0.0
 10
66.55131441324563
 20
-147.0115310743581
 30
0.0
 10
66.55131441324563
 20
-146.9922341299183
 30
0.0
 10
66.55131441324563
 20
-146.9729371854791
 30
0.0
 10
66.56715413506375
 20
-146.9570974632606
 30
0.0
 10
66.5864527611311
 20
-146.9570974632606
 30
0.0
 10
66.6061008007368
 20
-146.9570974632606
 30
0.0
 10
66.62194052255492
 20
-146.9729371854791
 30
0.0
 10
66.62194052255492
 20
-146.9922341299183
 30
0.0
  0
ENDBLK
  5
1EE
330
1EB
100
AcDbEntity
  8
0
100
AcDbBlockEnd
  0
BLOCK
  5
1F2
330
1F0
100
AcDbEntity
  8
0
100
AcDbBlockBegin
  2
block 30
 70
     0
 10
0.0
 20
0.0
 30
0.0
  3
block 30
  1

  0
SPLINE
  5
1F4
330
1F0
100
AcDbEntity
  8
_U+30EC_U+30A4_U+30E4_U+30FC 1
 62
   179
420
  2234388
370
    25
100
AcDbSpline
210
0.0
220
0.0
230
1.0
 70
    11
 71
     3
 72
    17
 73
    13
 74
     0
 42
0.0000000001
 43
0.0000000001
 12
1.0
 22
0.0
 32
0.0
 13
1.0
 23
0.0
 33
0.0
 40
0.0
 40
0.0
 40
0.0
 40
0.0
 40
1.0
 40
1.0
 40
1.0
 40
2.0
 40
2.0
 40
2.0
 40
3.0
 40
3.0
 40
3.0
 40
4.0
 40
4.0
 40
4.0
 40
4.0
 10
76.62202610076481
 20
-146.9922341299183
 30
0.0
 10
76.62202610076481
 20
-147.0115310743581
 30
0.0
 10
76.6061863789467
 20
-147.0273707965767
 30
0.0
 10
76.58653665722578
 20
-147.0273707965767
 30
0.0
 10
76.56724164752492
 20
-147.0273707965767
 30
0.0
 10
76.55139999145553
 20
-147.0115310743581
 30
0.0
 10
76.55139999145553
 20
-146.9922341299183
 30
0.0
 10
76.55139999145553
 20
-146.9729371854791
 30
0.0
 10
76.56724164752492
 20
-146.9570974632606
 30
0.0
 10
76.58653665722578
 20
-146.9570974632606
 30
0.0
 10
76.6061863789467
 20
-146.9570974632606
 30
0.0
 10
76.62202610076481
 20
-146.9729371854791
 30
0.0
 10
76.62202610076481
 20
-146.9922341299183
 30
0.0
  0
ENDBLK
  5
1F3
330
1F0
100
AcDbEntity
  8
0
100
AcDbBlockEnd
  0
BLOCK
  5
1F7
330
1F5
100
AcDbEntity
  8
0
100
AcDbBlockBegin
  2
block 31
 70
     0
 10
0.0
 20
0.0
 30
0.0
  3
block 31
  1

  0
SPLINE
  5
1F9
330
1F5
100
AcDbEntity
  8
_U+30EC_U+30A4_U+30E4_U+30FC 1
 62
   179
420
  2234388
370
     9
100
AcDbSpline
210
0.0
220
0.0
230
1.0
 70
    11
 71
     3
 72
    17
 73
    13
 74
     0
 42
0.0000000001
 43
0.0000000001
 12
1.0
 22
0.0
 32
0.0
 13
1.0
 23
0.0
 33
0.0
 40
0.0
 40
0.0
 40
0.0
 40
0.0
 40
1.0
 40
1.0
 40
1.0
 40
2.0
 40
2.0
 40
2.0
 40
3.0
 40
3.0
 40
3.0
 40
4.0
 40
4.0
 40
4.0
 40
4.0
 10
76.62202610076481
 20
-150.9919932955852
 30
0.0
 10
76.62202610076481
 20
-151.0119605178024
 30
0.0
 10
76.6061863789467
 20
-151.0278355177985
 30
0.0
 10
76.58653665722578
 20
-151.0278355177985
 30
0.0
 10
76.56724164752492
 20
-151.0278355177985
 30
0.0
 10
76.55139999145553
 20
-151.0119605178024
 30
0.0
 10
76.55139999145553
 20
-150.9919932955852
 30
0.0
 10
76.55139999145553
 20
-150.972696351146
 30
0.0
 10
76.56724164752492
 20
-150.9568566289275
 30
0.0
 10
76.58653665722578
 20
-150.9568566289275
 30
0.0
 10
76.6061863789467
 20
-150.9568566289275
 30
0.0
 10
76.62202610076481
 20
-150.972696351146
 30
0.0
 10
76.62202610076481
 20
-150.9919932955852
 30
0.0
  0
ENDBLK
  5
1F8
330
1F5
100
AcDbEntity
  8
0
100
AcDbBlockEnd
  0
BLOCK
  5
1FC
330
1FA
100
AcDbEntity
  8
0
100
AcDbBlockBegin
  2
block 32
 70
     0
 10
0.0
 20
0.0
 30
0.0
  3
block 32
  1

  0
POLYLINE
  5
1FE
330
1FA
100
AcDbEntity
  8
_U+30EC_U+30A4_U+30E4_U+30FC 1
 62
   179
420
  2234388
370
     9
100
AcDb2dPolyline
 66
     1
 10
0.0
 20
0.0
 30
0.0
  0
VERTEX
  5
1FF
330
1FE
100
AcDbEntity
  8
_U+30EC_U+30A4_U+30E4_U+30FC 1
 62
   179
420
  2234388
370
     9
100
AcDbVertex
100
AcDb2dVertex
 10
76.58653665722578
 20
-150.9919932955852
 30
0.0
  0
VERTEX
  5
200
330
1FE
100
AcDbEntity
  8
_U+30EC_U+30A4_U+30E4_U+30FC 1
 62
   179
420
  2234388
370
     9
100
AcDbVertex
100
AcDb2dVertex
 10
86.58662223543568
 20
-150.9919932955852
 30
0.0
  0
SEQEND
  5
201
330
1FE
100
AcDbEntity
  8
_U+30EC_U+30A4_U+30E4_U+30FC 1
 62
   179
420
  2234388
370
     9
  0
POLYLINE
  5
202
330
1FA
100
AcDbEntity
  8
_U+30EC_U+30A4_U+30E4_U+30FC 1
 62
   179
420
  2234388
370
     9
100
AcDb2dPolyline
 66
     1
 10
0.0
 20
0.0
 30
0.0
  0
VERTEX
  5
203
330
202
100
AcDbEntity
  8
_U+30EC_U+30A4_U+30E4_U+30FC 1
 62
   179
420
  2234388
370
     9
100
AcDbVertex
100
AcDb2dVertex
 10
86.58662223543568
 20
-133.5325977443944
 30
0.0
  0
VERTEX
  5
204
330
202
100
AcDbEntity
  8
_U+30EC_U+30A4_U+30E4_U+30FC 1
 62
   179
420
  2234388
370
     9
100
AcDbVertex
100
AcDb2dVertex
 10
86.58662223543568
 20
-151.9924357953351
 30
0.0
  0
SEQEND
  5
205
330
202
100
AcDbEntity
  8
_U+30EC_U+30A4_U+30E4_U+30FC 1
 62
   179
420
  2234388
370
     9
  0
INSERT
  5
207
330
1FA
100
AcDbEntity
  8
_U+30EC_U+30A4_U+30E4_U+30FC 1
100
AcDbBlockReference
  2
block 33
 10
0.0
 20
0.0
 30
0.0
  0
INSERT
  5
210
330
1FA
100
AcDbEntity
  8
_U+30EC_U+30A4_U+30E4_U+30FC 1
100
AcDbBlockReference
  2
block 34
 10
0.0
 20
0.0
 30
0.0
  0
INSERT
  5
215
330
1FA
100
AcDbEntity
  8
_U+30EC_U+30A4_U+30E4_U+30FC 1
100
AcDbBlockReference
  2
block 35
 10
0.0
 20
0.0
 30
0.0
  0
INSERT
  5
21A
330
1FA
100
AcDbEntity
  8
_U+30EC_U+30A4_U+30E4_U+30FC 1
100
AcDbBlockReference
  2
block 36
 10
0.0
 20
0.0
 30
0.0
  0
ENDBLK
  5
1FD
330
1FA
100
AcDbEntity
  8
0
100
AcDbBlockEnd
  0
BLOCK
  5
208
330
206
100
AcDbEntity
  8
0
100
AcDbBlockBegin
  2
block 33
 70
     0
 10
0.0
 20
0.0
 30
0.0
  3
block 33
  1

  0
SPLINE
  5
20A
330
206
100
AcDbEntity
  8
_U+30EC_U+30A4_U+30E4_U+30FC 1
370
     0
100
AcDbSpline
210
0.0
220
0.0
230
1.0
 70
    11
 71
     3
 72
    26
 73
    22
 74
     0
 42
0.0000000001
 43
0.0000000001
 12
1.0
 22
0.0
 32
0.0
 13
1.0
 23
0.0
 33
0.0
 40
0.0
 40
0.0
 40
0.0
 40
0.0
 40
1.0
 40
1.0
 40
1.0
 40
2.0
 40
2.0
 40
2.0
 40
3.0
 40
3.0
 40
3.0
 40
4.0
 40
4.0
 40
4.0
 40
5.0
 40
5.0
 40
5.0
 40
6.0
 40
6.0
 40
6.0
 40
7.0
 40
7.0
 40
7.0
 40
7.0
 10
80.94923636214116
 20
-150.6199191246714
 30
0.0
 10
80.94923636214116
 20
-150.6199191246714
 30
0.0
 10
80.94923636214116
 20
-149.5154215121003
 30
0.0
 10
80.94923636214116
 20
-149.5154215121003
 30
0.0
 10
80.94923636214116
 20
-149.5154215121003
 30
0.0
 10
80.61919621465424
 20
-149.5154215121003
 30
0.0
 10
80.61919621465424
 20
-149.5154215121003
 30
0.0
 10
80.61919621465424
 20
-149.5154215121003
 30
0.0
 10
80.61919621465424
 20
-149.3672824062346
 30
0.0
 10
80.61919621465424
 20
-149.3672824062346
 30
0.0
 10
80.95130341943232
 20
-149.352468495648
 30
0.0
 10
80.9978122084832
 20
-149.1898599887442
 30
0.0
 10
81.02744002965633
 20
-149.0754828186339
 30
0.0
 10
81.02744002965633
 20
-149.0754828186339
 30
0.0
 10
81.17333982345667
 20
-149.0754828186339
 30
0.0
 10
81.17333982345667
 20
-149.0754828186339
 30
0.0
 10
81.17333982345667
 20
-149.0754828186339
 30
0.0
 10
81.17333982345667
 20
-150.6199191246714
 30
0.0
 10
81.17333982345667
 20
-150.6199191246714
 30
0.0
 10
81.17333982345667
 20
-150.6199191246714
 30
0.0
 10
80.94923636214116
 20
-150.6199191246714
 30
0.0
 10
80.94923636214116
 20
-150.6199191246714
 30
0.0
  0
HATCH
  5
20B
330
206
100
AcDbEntity
  8
_U+30EC_U+30A4_U+30E4_U+30FC 1
 62
   179
420
  2234388
100
AcDbHatch
 10
0.0
 20
0.0
 30
0.0
210
0.0
220
0.0
230
1.0
  2
SOLID
 70
     1
 71
     0
 91
        1
 92
        1
 93
        1
 72
     4
 94
        3
 73
     0
 74
     1
 95
       26
 96
       22
 40
0.0
 40
0.0
 40
0.0
 40
0.0
 40
1.0
 40
1.0
 40
1.0
 40
2.0
 40
2.0
 40
2.0
 40
3.0
 40
3.0
 40
3.0
 40
4.0
 40
4.0
 40
4.0
 40
5.0
 40
5.0
 40
5.0
 40
6.0
 40
6.0
 40
6.0
 40
7.0
 40
7.0
 40
7.0
 40
7.0
 10
80.94923636214116
 20
-150.6199191246714
 10
80.94923636214116
 20
-150.6199191246714
 10
80.94923636214116
 20
-149.5154215121003
 10
80.94923636214116
 20
-149.5154215121003
 10
80.94923636214116
 20
-149.5154215121003
 10
80.61919621465424
 20
-149.5154215121003
 10
80.61919621465424
 20
-149.5154215121003
 10
80.61919621465424
 20
-149.5154215121003
 10
80.61919621465424
 20
-149.3672824062346
 10
80.61919621465424
 20
-149.3672824062346
 10
80.95130341943232
 20
-149.352468495648
 10
80.9978122084832
 20
-149.1898599887442
 10
81.02744002965633
 20
-149.0754828186339
 10
81.02744002965633
 20
-149.0754828186339
 10
81.17333982345667
 20
-149.0754828186339
 10
81.17333982345667
 20
-149.0754828186339
 10
81.17333982345667
 20
-149.0754828186339
 10
81.17333982345667
 20
-150.6199191246714
 10
81.17333982345667
 20
-150.6199191246714
 10
81.17333982345667
 20
-150.6199191246714
 10
80.94923636214116
 20
-150.6199191246714
 10
80.94923636214116
 20
-150.6199191246714
 97
        0
 97
        0
 75
     2
 76
     1
 98
        0
  0
SPLINE
  5
20C
330
206
100
AcDbEntity
  8
_U+30EC_U+30A4_U+30E4_U+30FC 1
370
     0
100
AcDbSpline
210
0.0
220
0.0
230
1.0
 70
    11
 71
     3
 72
    29
 73
    25
 74
     0
 42
0.0000000001
 43
0.0000000001
 12
1.0
 22
0.0
 32
0.0
 13
1.0
 23
0.0
 33
0.0
 40
0.0
 40
0.0
 40
0.0
 40
0.0
 40
1.0
 40
1.0
 40
1.0
 40
2.0
 40
2.0
 40
2.0
 40
3.0
 40
3.0
 40
3.0
 40
4.0
 40
4.0
 40
4.0
 40
5.0
 40
5.0
 40
5.0
 40
6.0
 40
6.0
 40
6.0
 40
7.0
 40
7.0
 40
7.0
 40
8.0
 40
8.0
 40
8.0
 40
8.0
 10
82.57239310001663
 20
-150.4421521976325
 30
0.0
 10
82.4645616113283
 20
-150.6516140031357
 30
0.0
 10
82.29110105364597
 20
-150.6705620283046
 30
0.0
 10
82.17465682624453
 20
-150.6705620283046
 30
0.0
 10
82.01394312185762
 20
-150.6705620283046
 30
0.0
 10
81.8721774426396
 20
-150.6240532392537
 30
0.0
 10
81.77692055247245
 20
-150.4421521976325
 30
0.0
 10
81.67339543314068
 20
-150.2475043027159
 30
0.0
 10
81.65427515319755
 20
-150.0104817333307
 30
0.0
 10
81.65427515319755
 20
-149.8475287168784
 30
0.0
 10
81.65427515319755
 20
-149.7038682351435
 30
0.0
 10
81.67115612107527
 20
-149.4520317551717
 30
0.0
 10
81.77692055247245
 20
-149.2532497456728
 30
0.0
 10
81.88492429593502
 20
-149.0499891120431
 30
0.0
 10
82.04563800032193
 20
-149.0269069722919
 30
0.0
 10
82.17465682624453
 20
-149.0269069722919
 30
0.0
 10
82.3333034733403
 20
-149.0269069722919
 30
0.0
 10
82.47713620984948
 20
-149.0713487040516
 30
0.0
 10
82.57239310001663
 20
-149.2532497456728
 30
0.0
 10
82.67178410476609
 20
-149.4458305832983
 30
0.0
 10
82.69503849929153
 20
-149.6742404139703
 30
0.0
 10
82.69503849929153
 20
-149.8475287168784
 30
0.0
 10
82.69503849929153
 20
-150.0190944720438
 30
0.0
 10
82.6740234168315
 20
-150.2495713600071
 30
0.0
 10
82.57239310001663
 20
-150.4421521976325
 30
0.0
  0
SPLINE
  5
20D
330
206
100
AcDbEntity
  8
_U+30EC_U+30A4_U+30E4_U+30FC 1
370
     0
100
AcDbSpline
210
0.0
220
0.0
230
1.0
 70
    11
 71
     3
 72
    17
 73
    13
 74
     0
 42
0.0000000001
 43
0.0000000001
 12
1.0
 22
0.0
 32
0.0
 13
1.0
 23
0.0
 33
0.0
 40
0.0
 40
0.0
 40
0.0
 40
0.0
 40
1.0
 40
1.0
 40
1.0
 40
2.0
 40
2.0
 40
2.0
 40
3.0
 40
3.0
 40
3.0
 40
4.0
 40
4.0
 40
4.0
 40
4.0
 10
82.17465682624453
 20
-149.2194878099174
 30
0.0
 10
81.92505965833818
 20
-149.2194878099174
 30
0.0
 10
81.87855086928731
 20
-149.5026746588049
 30
0.0
 10
81.87855086928731
 20
-149.8475287168784
 30
0.0
 10
81.87855086928731
 20
-150.1668890683611
 30
0.0
 10
81.91455211710817
 20
-150.475914133388
 30
0.0
 10
82.17465682624453
 20
-150.475914133388
 30
0.0
 10
82.42218693685973
 20
-150.475914133388
 30
0.0
 10
82.47093503797602
 20
-150.1944498322431
 30
0.0
 10
82.47093503797602
 20
-149.8475287168784
 30
0.0
 10
82.47093503797602
 20
-149.5281683653957
 30
0.0
 10
82.43286673286401
 20
-149.2194878099174
 30
0.0
 10
82.17465682624453
 20
-149.2194878099174
 30
0.0
  0
HATCH
  5
20E
330
206
100
AcDbEntity
  8
_U+30EC_U+30A4_U+30E4_U+30FC 1
 62
   179
420
  2234388
100
AcDbHatch
 10
0.0
 20
0.0
 30
0.0
210
0.0
220
0.0
230
1.0
  2
SOLID
 70
     1
 71
     0
 91
        2
 92
        1
 93
        1
 72
     4
 94
        3
 73
     0
 74
     1
 95
       29
 96
       25
 40
0.0
 40
0.0
 40
0.0
 40
0.0
 40
1.0
 40
1.0
 40
1.0
 40
2.0
 40
2.0
 40
2.0
 40
3.0
 40
3.0
 40
3.0
 40
4.0
 40
4.0
 40
4.0
 40
5.0
 40
5.0
 40
5.0
 40
6.0
 40
6.0
 40
6.0
 40
7.0
 40
7.0
 40
7.0
 40
8.0
 40
8.0
 40
8.0
 40
8.0
 10
82.57239310001663
 20
-150.4421521976325
 10
82.4645616113283
 20
-150.6516140031357
 10
82.29110105364597
 20
-150.6705620283046
 10
82.17465682624453
 20
-150.6705620283046
 10
82.01394312185762
 20
-150.6705620283046
 10
81.8721774426396
 20
-150.6240532392537
 10
81.77692055247245
 20
-150.4421521976325
 10
81.67339543314068
 20
-150.2475043027159
 10
81.65427515319755
 20
-150.0104817333307
 10
81.65427515319755
 20
-149.8475287168784
 10
81.65427515319755
 20
-149.7038682351435
 10
81.67115612107527
 20
-149.4520317551717
 10
81.77692055247245
 20
-149.2532497456728
 10
81.88492429593502
 20
-149.0499891120431
 10
82.04563800032193
 20
-149.0269069722919
 10
82.17465682624453
 20
-149.0269069722919
 10
82.3333034733403
 20
-149.0269069722919
 10
82.47713620984948
 20
-149.0713487040516
 10
82.57239310001663
 20
-149.2532497456728
 10
82.67178410476609
 20
-149.4458305832983
 10
82.69503849929153
 20
-149.6742404139703
 10
82.69503849929153
 20
-149.8475287168784
 10
82.69503849929153
 20
-150.0190944720438
 10
82.6740234168315
 20
-150.2495713600071
 10
82.57239310001663
 20
-150.4421521976325
 97
        0
 97
        0
 92
        1
 93
        1
 72
     4
 94
        3
 73
     0
 74
     1
 95
       17
 96
       13
 40
0.0
 40
0.0
 40
0.0
 40
0.0
 40
1.0
 40
1.0
 40
1.0
 40
2.0
 40
2.0
 40
2.0
 40
3.0
 40
3.0
 40
3.0
 40
4.0
 40
4.0
 40
4.0
 40
4.0
 10
82.17465682624453
 20
-149.2194878099174
 10
81.92505965833818
 20
-149.2194878099174
 10
81.87855086928731
 20
-149.5026746588049
 10
81.87855086928731
 20
-149.8475287168784
 10
81.87855086928731
 20
-150.1668890683611
 10
81.91455211710817
 20
-150.475914133388
 10
82.17465682624453
 20
-150.475914133388
 10
82.42218693685973
 20
-150.475914133388
 10
82.47093503797602
 20
-150.1944498322431
 10
82.47093503797602
 20
-149.8475287168784
 10
82.47093503797602
 20
-149.5281683653957
 10
82.43286673286401
 20
-149.2194878099174
 10
82.17465682624453
 20
-149.2194878099174
 97
        0
 97
        0
 75
     2
 76
     1
 98
        0
  0
ENDBLK
  5
209
330
206
100
AcDbEntity
  8
0
100
AcDbBlockEnd
  0
BLOCK
  5
211
330
20F
100
AcDbEntity
  8
0
100
AcDbBlockBegin
  2
block 34
 70
     0
 10
0.0
 20
0.0
 30
0.0
  3
block 34
  1

  0
SPLINE
  5
213
330
20F
100
AcDbEntity
  8
_U+30EC_U+30A4_U+30E4_U+30FC 1
 62
   179
420
  2234388
370
    25
100
AcDbSpline
210
0.0
220
0.0
230
1.0
 70
    11
 71
     3
 72
    17
 73
    13
 74
     0
 42
0.0000000001
 43
0.0000000001
 12
1.0
 22
0.0
 32
0.0
 13
1.0
 23
0.0
 33
0.0
 40
0.0
 40
0.0
 40
0.0
 40
0.0
 40
1.0
 40
1.0
 40
1.0
 40
2.0
 40
2.0
 40
2.0
 40
3.0
 40
3.0
 40
3.0
 40
4.0
 40
4.0
 40
4.0
 40
4.0
 10
76.62202610076481
 20
-146.9922341299183
 30
0.0
 10
76.62202610076481
 20
-147.0115310743581
 30
0.0
 10
76.6061863789467
 20
-147.0273707965767
 30
0.0
 10
76.58653665722578
 20
-147.0273707965767
 30
0.0
 10
76.56724164752492
 20
-147.0273707965767
 30
0.0
 10
76.55139999145553
 20
-147.0115310743581
 30
0.0
 10
76.55139999145553
 20
-146.9922341299183
 30
0.0
 10
76.55139999145553
 20
-146.9729371854791
 30
0.0
 10
76.56724164752492
 20
-146.9570974632606
 30
0.0
 10
76.58653665722578
 20
-146.9570974632606
 30
0.0
 10
76.6061863789467
 20
-146.9570974632606
 30
0.0
 10
76.62202610076481
 20
-146.9729371854791
 30
0.0
 10
76.62202610076481
 20
-146.9922341299183
 30
0.0
  0
ENDBLK
  5
212
330
20F
100
AcDbEntity
  8
0
100
AcDbBlockEnd
  0
BLOCK
  5
216
330
214
100
AcDbEntity
  8
0
100
AcDbBlockBegin
  2
block 35
 70
     0
 10
0.0
 20
0.0
 30
0.0
  3
block 35
  1

  0
SPLINE
  5
218
330
214
100
AcDbEntity
  8
_U+30EC_U+30A4_U+30E4_U+30FC 1
 62
   179
420
  2234388
370
    25
100
AcDbSpline
210
0.0
220
0.0
230
1.0
 70
    11
 71
     3
 72
    17
 73
    13
 74
     0
 42
0.0000000001
 43
0.0000000001
 12
1.0
 22
0.0
 32
0.0
 13
1.0
 23
0.0
 33
0.0
 40
0.0
 40
0.0
 40
0.0
 40
0.0
 40
1.0
 40
1.0
 40
1.0
 40
2.0
 40
2.0
 40
2.0
 40
3.0
 40
3.0
 40
3.0
 40
4.0
 40
4.0
 40
4.0
 40
4.0
 10
86.6217610894558
 20
-130.9921744116963
 30
0.0
 10
86.6217610894558
 20
-131.0121416339135
 30
0.0
 10
86.60591917938781
 20
-131.0280166339095
 30
0.0
 10
86.58662223543568
 20
-131.0280166339095
 30
0.0
 10
86.56697251371476
 20
-131.0280166339095
 30
0.0
 10
86.55148556966542
 20
-131.0121416339135
 30
0.0
 10
86.55148556966542
 20
-130.9921744116963
 30
0.0
 10
86.55148556966542
 20
-130.9728774672565
 30
0.0
 10
86.56697251371476
 20
-130.9570377450386
 30
0.0
 10
86.58662223543568
 20
-130.9570377450386
 30
0.0
 10
86.60591917938781
 20
-130.9570377450386
 30
0.0
 10
86.6217610894558
 20
-130.9728774672565
 30
0.0
 10
86.6217610894558
 20
-130.9921744116963
 30
0.0
  0
ENDBLK
  5
217
330
214
100
AcDbEntity
  8
0
100
AcDbBlockEnd
  0
BLOCK
  5
21B
330
219
100
AcDbEntity
  8
0
100
AcDbBlockBegin
  2
block 36
 70
     0
 10
0.0
 20
0.0
 30
0.0
  3
block 36
  1

  0
SPLINE
  5
21D
330
219
100
AcDbEntity
  8
_U+30EC_U+30A4_U+30E4_U+30FC 1
 62
   179
420
  2234388
370
     9
100
AcDbSpline
210
0.0
220
0.0
230
1.0
 70
    11
 71
     3
 72
    17
 73
    13
 74
     0
 42
0.0000000001
 43
0.0000000001
 12
1.0
 22
0.0
 32
0.0
 13
1.0
 23
0.0
 33
0.0
 40
0.0
 40
0.0
 40
0.0
 40
0.0
 40
1.0
 40
1.0
 40
1.0
 40
2.0
 40
2.0
 40
2.0
 40
3.0
 40
3.0
 40
3.0
 40
4.0
 40
4.0
 40
4.0
 40
4.0
 10
86.6217610894558
 20
-150.9919932955852
 30
0.0
 10
86.6217610894558
 20
-151.0119605178024
 30
0.0
 10
86.60591917938781
 20
-151.0278355177985
 30
0.0
 10
86.58662223543568
 20
-151.0278355177985
 30
0.0
 10
86.56697251371476
 20
-151.0278355177985
 30
0.0
 10
86.55148556966542
 20
-151.0119605178024
 30
0.0
 10
86.55148556966542
 20
-150.9919932955852
 30
0.0
 10
86.55148556966542
 20
-150.972696351146
 30
0.0
 10
86.56697251371476
 20
-150.9568566289275
 30
0.0
 10
86.58662223543568
 20
-150.9568566289275
 30
0.0
 10
86.60591917938781
 20
-150.9568566289275
 30
0.0
 10
86.6217610894558
 20
-150.972696351146
 30
0.0
 10
86.6217610894558
 20
-150.9919932955852
 30
0.0
  0
ENDBLK
  5
21C
330
219
100
AcDbEntity
  8
0
100
AcDbBlockEnd
  0
BLOCK
  5
220
330
21E
100
AcDbEntity
  8
0
100
AcDbBlockBegin
  2
block 37
 70
     0
 10
0.0
 20
0.0
 30
0.0
  3
block 37
  1

  0
POLYLINE
  5
222
330
21E
100
AcDbEntity
  8
_U+30EC_U+30A4_U+30E4_U+30FC 1
 62
   179
420
  2234388
370
     9
100
AcDb2dPolyline
 66
     1
 10
0.0
 20
0.0
 30
0.0
  0
VERTEX
  5
223
330
222
100
AcDbEntity
  8
_U+30EC_U+30A4_U+30E4_U+30FC 1
 62
   179
420
  2234388
370
     9
100
AcDbVertex
100
AcDb2dVertex
 10
86.58662223543568
 20
-150.9919932955852
 30
0.0
  0
VERTEX
  5
224
330
222
100
AcDbEntity
  8
_U+30EC_U+30A4_U+30E4_U+30FC 1
 62
   179
420
  2234388
370
     9
100
AcDbVertex
100
AcDb2dVertex
 10
94.5864578646762
 20
-150.9919932955852
 30
0.0
  0
SEQEND
  5
225
330
222
100
AcDbEntity
  8
_U+30EC_U+30A4_U+30E4_U+30FC 1
 62
   179
420
  2234388
370
     9
  0
POLYLINE
  5
226
330
21E
100
AcDbEntity
  8
_U+30EC_U+30A4_U+30E4_U+30FC 1
 62
   179
420
  2234388
370
     9
100
AcDb2dPolyline
 66
     1
 10
0.0
 20
0.0
 30
0.0
  0
VERTEX
  5
227
330
226
100
AcDbEntity
  8
_U+30EC_U+30A4_U+30E4_U+30FC 1
 62
   179
420
  2234388
370
     9
100
AcDbVertex
100
AcDb2dVertex
 10
94.5864578646762
 20
-133.5325977443944
 30
0.0
  0
VERTEX
  5
228
330
226
100
AcDbEntity
  8
_U+30EC_U+30A4_U+30E4_U+30FC 1
 62
   179
420
  2234388
370
     9
100
AcDbVertex
100
AcDb2dVertex
 10
94.5864578646762
 20
-151.9924357953351
 30
0.0
  0
SEQEND
  5
229
330
226
100
AcDbEntity
  8
_U+30EC_U+30A4_U+30E4_U+30FC 1
 62
   179
420
  2234388
370
     9
  0
INSERT
  5
22B
330
21E
100
AcDbEntity
  8
_U+30EC_U+30A4_U+30E4_U+30FC 1
100
AcDbBlockReference
  2
block 38
 10
0.0
 20
0.0
 30
0.0
  0
INSERT
  5
233
330
21E
100
AcDbEntity
  8
_U+30EC_U+30A4_U+30E4_U+30FC 1
100
AcDbBlockReference
  2
block 39
 10
0.0
 20
0.0
 30
0.0
  0
INSERT
  5
238
330
21E
100
AcDbEntity
  8
_U+30EC_U+30A4_U+30E4_U+30FC 1
100
AcDbBlockReference
  2
block 40
 10
0.0
 20
0.0
 30
0.0
  0
INSERT
  5
23D
330
21E
100
AcDbEntity
  8
_U+30EC_U+30A4_U+30E4_U+30FC 1
100
AcDbBlockReference
  2
block 41
 10
0.0
 20
0.0
 30
0.0
  0
ENDBLK
  5
221
330
21E
100
AcDbEntity
  8
0
100
AcDbBlockEnd
  0
BLOCK
  5
22C
330
22A
100
AcDbEntity
  8
0
100
AcDbBlockBegin
  2
block 38
 70
     0
 10
0.0
 20
0.0
 30
0.0
  3
block 38
  1

  0
SPLINE
  5
22E
330
22A
100
AcDbEntity
  8
_U+30EC_U+30A4_U+30E4_U+30FC 1
370
     0
100
AcDbSpline
210
0.0
220
0.0
230
1.0
 70
    11
 71
     3
 72
    29
 73
    25
 74
     0
 42
0.0000000001
 43
0.0000000001
 12
1.0
 22
0.0
 32
0.0
 13
1.0
 23
0.0
 33
0.0
 40
0.0
 40
0.0
 40
0.0
 40
0.0
 40
1.0
 40
1.0
 40
1.0
 40
2.0
 40
2.0
 40
2.0
 40
3.0
 40
3.0
 40
3.0
 40
4.0
 40
4.0
 40
4.0
 40
5.0
 40
5.0
 40
5.0
 40
6.0
 40
6.0
 40
6.0
 40
7.0
 40
7.0
 40
7.0
 40
8.0
 40
8.0
 40
8.0
 40
8.0
 10
90.58620196303053
 20
-150.6705620283046
 30
0.0
 10
90.31972382724646
 20
-150.6705620283046
 30
0.0
 10
90.06582028998355
 20
-150.5331027184431
 30
0.0
 10
90.06582028998355
 20
-150.1841145457873
 30
0.0
 10
90.06582028998355
 20
-149.9281439512332
 30
0.0
 10
90.20758596920157
 20
-149.8327148062918
 30
0.0
 10
90.31335040059875
 20
-149.7713921066544
 30
0.0
 10
90.18846568925845
 20
-149.7121364643081
 30
0.0
 10
90.11232907903442
 20
-149.5981038037463
 30
0.0
 10
90.11232907903442
 20
-149.4372178445851
 30
0.0
 10
90.11232907903442
 20
-149.1622992248622
 30
0.0
 10
90.3112833433076
 20
-149.0269069722919
 30
0.0
 10
90.58620196303053
 20
-149.0269069722919
 30
0.0
 10
90.8697333214666
 20
-149.0269069722919
 30
0.0
 10
91.06007484702666
 20
-149.1705674540268
 30
0.0
 10
91.06007484702666
 20
-149.4372178445851
 30
0.0
 10
91.06007484702666
 20
-149.5981038037463
 30
0.0
 10
90.98187117951149
 20
-149.7121364643081
 30
0.0
 10
90.85698646817117
 20
-149.7713921066544
 30
0.0
 10
90.94586993169062
 20
-149.8223795198361
 30
0.0
 10
91.10451657878637
 20
-149.917464155229
 30
0.0
 10
91.10451657878637
 20
-150.1796359216565
 30
0.0
 10
91.10451657878637
 20
-150.5541178009032
 30
0.0
 10
90.82529158970688
 20
-150.6705620283046
 30
0.0
 10
90.58620196303053
 20
-150.6705620283046
 30
0.0
  0
SPLINE
  5
22F
330
22A
100
AcDbEntity
  8
_U+30EC_U+30A4_U+30E4_U+30FC 1
370
     0
100
AcDbSpline
210
0.0
220
0.0
230
1.0
 70
    11
 71
     3
 72
    17
 73
    13
 74
     0
 42
0.0000000001
 43
0.0000000001
 12
1.0
 22
0.0
 32
0.0
 13
1.0
 23
0.0
 33
0.0
 40
0.0
 40
0.0
 40
0.0
 40
0.0
 40
1.0
 40
1.0
 40
1.0
 40
2.0
 40
2.0
 40
2.0
 40
3.0
 40
3.0
 40
3.0
 40
4.0
 40
4.0
 40
4.0
 40
4.0
 10
90.58620196303053
 20
-149.8792235953427
 30
0.0
 10
90.44236922652135
 20
-149.8792235953427
 30
0.0
 10
90.29009600607331
 20
-149.966040001571
 30
0.0
 10
90.29009600607331
 20
-150.1693006352007
 30
0.0
 10
90.29009600607331
 20
-150.3742838165731
 30
0.0
 10
90.41704777470477
 20
-150.475914133388
 30
0.0
 10
90.58620196303053
 20
-150.475914133388
 30
0.0
 10
90.77240937400829
 20
-150.475914133388
 30
0.0
 10
90.88230791998777
 20
-150.3532687341131
 30
0.0
 10
90.88230791998777
 20
-150.1755018070742
 30
0.0
 10
90.88230791998777
 20
-149.9532931482756
 30
0.0
 10
90.7195271583097
 20
-149.8792235953427
 30
0.0
 10
90.58620196303053
 20
-149.8792235953427
 30
0.0
  0
SPLINE
  5
230
330
22A
100
AcDbEntity
  8
_U+30EC_U+30A4_U+30E4_U+30FC 1
370
     0
100
AcDbSpline
210
0.0
220
0.0
230
1.0
 70
    11
 71
     3
 72
    17
 73
    13
 74
     0
 42
0.0000000001
 43
0.0000000001
 12
1.0
 22
0.0
 32
0.0
 13
1.0
 23
0.0
 33
0.0
 40
0.0
 40
0.0
 40
0.0
 40
0.0
 40
1.0
 40
1.0
 40
1.0
 40
2.0
 40
2.0
 40
2.0
 40
3.0
 40
3.0
 40
3.0
 40
4.0
 40
4.0
 40
4.0
 40
4.0
 10
90.58620196303053
 20
-149.2194878099174
 30
0.0
 10
90.42118188928707
 20
-149.2194878099174
 30
0.0
 10
90.33660479512419
 20
-149.3145724453103
 30
0.0
 10
90.33660479512419
 20
-149.4499646978806
 30
0.0
 10
90.33660479512419
 20
-149.5726100971555
 30
0.0
 10
90.40843503599164
 20
-149.6911213818481
 30
0.0
 10
90.58620196303053
 20
-149.6911213818481
 30
0.0
 10
90.76396889006944
 20
-149.6911213818481
 30
0.0
 10
90.83579913093689
 20
-149.5726100971555
 30
0.0
 10
90.83579913093689
 20
-149.4499646978806
 30
0.0
 10
90.83579913093689
 20
-149.3145724453103
 30
0.0
 10
90.74915497948285
 20
-149.2194878099174
 30
0.0
 10
90.58620196303053
 20
-149.2194878099174
 30
0.0
  0
HATCH
  5
231
330
22A
100
AcDbEntity
  8
_U+30EC_U+30A4_U+30E4_U+30FC 1
 62
   179
420
  2234388
100
AcDbHatch
 10
0.0
 20
0.0
 30
0.0
210
0.0
220
0.0
230
1.0
  2
SOLID
 70
     1
 71
     0
 91
        3
 92
        1
 93
        1
 72
     4
 94
        3
 73
     0
 74
     1
 95
       29
 96
       25
 40
0.0
 40
0.0
 40
0.0
 40
0.0
 40
1.0
 40
1.0
 40
1.0
 40
2.0
 40
2.0
 40
2.0
 40
3.0
 40
3.0
 40
3.0
 40
4.0
 40
4.0
 40
4.0
 40
5.0
 40
5.0
 40
5.0
 40
6.0
 40
6.0
 40
6.0
 40
7.0
 40
7.0
 40
7.0
 40
8.0
 40
8.0
 40
8.0
 40
8.0
 10
90.58620196303053
 20
-150.6705620283046
 10
90.31972382724646
 20
-150.6705620283046
 10
90.06582028998355
 20
-150.5331027184431
 10
90.06582028998355
 20
-150.1841145457873
 10
90.06582028998355
 20
-149.9281439512332
 10
90.20758596920157
 20
-149.8327148062918
 10
90.31335040059875
 20
-149.7713921066544
 10
90.18846568925845
 20
-149.7121364643081
 10
90.11232907903442
 20
-149.5981038037463
 10
90.11232907903442
 20
-149.4372178445851
 10
90.11232907903442
 20
-149.1622992248622
 10
90.3112833433076
 20
-149.0269069722919
 10
90.58620196303053
 20
-149.0269069722919
 10
90.8697333214666
 20
-149.0269069722919
 10
91.06007484702666
 20
-149.1705674540268
 10
91.06007484702666
 20
-149.4372178445851
 10
91.06007484702666
 20
-149.5981038037463
 10
90.98187117951149
 20
-149.7121364643081
 10
90.85698646817117
 20
-149.7713921066544
 10
90.94586993169062
 20
-149.8223795198361
 10
91.10451657878637
 20
-149.917464155229
 10
91.10451657878637
 20
-150.1796359216565
 10
91.10451657878637
 20
-150.5541178009032
 10
90.82529158970688
 20
-150.6705620283046
 10
90.58620196303053
 20
-150.6705620283046
 97
        0
 97
        0
 92
        1
 93
        1
 72
     4
 94
        3
 73
     0
 74
     1
 95
       17
 96
       13
 40
0.0
 40
0.0
 40
0.0
 40
0.0
 40
1.0
 40
1.0
 40
1.0
 40
2.0
 40
2.0
 40
2.0
 40
3.0
 40
3.0
 40
3.0
 40
4.0
 40
4.0
 40
4.0
 40
4.0
 10
90.58620196303053
 20
-149.8792235953427
 10
90.44236922652135
 20
-149.8792235953427
 10
90.29009600607331
 20
-149.966040001571
 10
90.29009600607331
 20
-150.1693006352007
 10
90.29009600607331
 20
-150.3742838165731
 10
90.41704777470477
 20
-150.475914133388
 10
90.58620196303053
 20
-150.475914133388
 10
90.77240937400829
 20
-150.475914133388
 10
90.88230791998777
 20
-150.3532687341131
 10
90.88230791998777
 20
-150.1755018070742
 10
90.88230791998777
 20
-149.9532931482756
 10
90.7195271583097
 20
-149.8792235953427
 10
90.58620196303053
 20
-149.8792235953427
 97
        0
 97
        0
 92
        1
 93
        1
 72
     4
 94
        3
 73
     0
 74
     1
 95
       17
 96
       13
 40
0.0
 40
0.0
 40
0.0
 40
0.0
 40
1.0
 40
1.0
 40
1.0
 40
2.0
 40
2.0
 40
2.0
 40
3.0
 40
3.0
 40
3.0
 40
4.0
 40
4.0
 40
4.0
 40
4.0
 10
90.58620196303053
 20
-149.2194878099174
 10
90.42118188928707
 20
-149.2194878099174
 10
90.33660479512419
 20
-149.3145724453103
 10
90.33660479512419
 20
-149.4499646978806
 10
90.33660479512419
 20
-149.5726100971555
 10
90.40843503599164
 20
-149.6911213818481
 10
90.58620196303053
 20
-149.6911213818481
 10
90.76396889006944
 20
-149.6911213818481
 10
90.83579913093689
 20
-149.5726100971555
 10
90.83579913093689
 20
-149.4499646978806
 10
90.83579913093689
 20
-149.3145724453103
 10
90.74915497948285
 20
-149.2194878099174
 10
90.58620196303053
 20
-149.2194878099174
 97
        0
 97
        0
 75
     2
 76
     1
 98
        0
  0
ENDBLK
  5
22D
330
22A
100
AcDbEntity
  8
0
100
AcDbBlockEnd
  0
BLOCK
  5
234
330
232
100
AcDbEntity
  8
0
100
AcDbBlockBegin
  2
block 39
 70
     0
 10
0.0
 20
0.0
 30
0.0
  3
block 39
  1

  0
SPLINE
  5
236
330
232
100
AcDbEntity
  8
_U+30EC_U+30A4_U+30E4_U+30FC 1
 62
   179
420
  2234388
370
    25
100
AcDbSpline
210
0.0
220
0.0
230
1.0
 70
    11
 71
     3
 72
    17
 73
    13
 74
     0
 42
0.0000000001
 43
0.0000000001
 12
1.0
 22
0.0
 32
0.0
 13
1.0
 23
0.0
 33
0.0
 40
0.0
 40
0.0
 40
0.0
 40
0.0
 40
1.0
 40
1.0
 40
1.0
 40
2.0
 40
2.0
 40
2.0
 40
3.0
 40
3.0
 40
3.0
 40
4.0
 40
4.0
 40
4.0
 40
4.0
 10
86.6217610894558
 20
-130.9921744116963
 30
0.0
 10
86.6217610894558
 20
-131.0121416339135
 30
0.0
 10
86.60591917938781
 20
-131.0280166339095
 30
0.0
 10
86.58662223543568
 20
-131.0280166339095
 30
0.0
 10
86.56697251371476
 20
-131.0280166339095
 30
0.0
 10
86.55148556966542
 20
-131.0121416339135
 30
0.0
 10
86.55148556966542
 20
-130.9921744116963
 30
0.0
 10
86.55148556966542
 20
-130.9728774672565
 30
0.0
 10
86.56697251371476
 20
-130.9570377450386
 30
0.0
 10
86.58662223543568
 20
-130.9570377450386
 30
0.0
 10
86.60591917938781
 20
-130.9570377450386
 30
0.0
 10
86.6217610894558
 20
-130.9728774672565
 30
0.0
 10
86.6217610894558
 20
-130.9921744116963
 30
0.0
  0
ENDBLK
  5
235
330
232
100
AcDbEntity
  8
0
100
AcDbBlockEnd
  0
BLOCK
  5
239
330
237
100
AcDbEntity
  8
0
100
AcDbBlockBegin
  2
block 40
 70
     0
 10
0.0
 20
0.0
 30
0.0
  3
block 40
  1

  0
SPLINE
  5
23B
330
237
100
AcDbEntity
  8
_U+30EC_U+30A4_U+30E4_U+30FC 1
 62
   179
420
  2234388
370
    25
100
AcDbSpline
210
0.0
220
0.0
230
1.0
 70
    11
 71
     3
 72
    17
 73
    13
 74
     0
 42
0.0000000001
 43
0.0000000001
 12
1.0
 22
0.0
 32
0.0
 13
1.0
 23
0.0
 33
0.0
 40
0.0
 40
0.0
 40
0.0
 40
0.0
 40
1.0
 40
1.0
 40
1.0
 40
2.0
 40
2.0
 40
2.0
 40
3.0
 40
3.0
 40
3.0
 40
4.0
 40
4.0
 40
4.0
 40
4.0
 10
94.62194730821524
 20
-130.9921744116963
 30
0.0
 10
94.62194730821524
 20
-131.0121416339135
 30
0.0
 10
94.60610758639712
 20
-131.0280166339095
 30
0.0
 10
94.5864578646762
 20
-131.0280166339095
 30
0.0
 10
94.56719619850094
 20
-131.0280166339095
 30
0.0
 10
94.55132119890594
 20
-131.0121416339135
 30
0.0
 10
94.55132119890594
 20
-130.9921744116963
 30
0.0
 10
94.55132119890594
 20
-130.9728774672565
 30
0.0
 10
94.56719619850094
 20
-130.9570377450386
 30
0.0
 10
94.5864578646762
 20
-130.9570377450386
 30
0.0
 10
94.60610758639712
 20
-130.9570377450386
 30
0.0
 10
94.62194730821524
 20
-130.9728774672565
 30
0.0
 10
94.62194730821524
 20
-130.9921744116963
 30
0.0
  0
ENDBLK
  5
23A
330
237
100
AcDbEntity
  8
0
100
AcDbBlockEnd
  0
BLOCK
  5
23E
330
23C
100
AcDbEntity
  8
0
100
AcDbBlockBegin
  2
block 41
 70
     0
 10
0.0
 20
0.0
 30
0.0
  3
block 41
  1

  0
SPLINE
  5
240
330
23C
100
AcDbEntity
  8
_U+30EC_U+30A4_U+30E4_U+30FC 1
 62
   179
420
  2234388
370
     9
100
AcDbSpline
210
0.0
220
0.0
230
1.0
 70
    11
 71
     3
 72
    17
 73
    13
 74
     0
 42
0.0000000001
 43
0.0000000001
 12
1.0
 22
0.0
 32
0.0
 13
1.0
 23
0.0
 33
0.0
 40
0.0
 40
0.0
 40
0.0
 40
0.0
 40
1.0
 40
1.0
 40
1.0
 40
2.0
 40
2.0
 40
2.0
 40
3.0
 40
3.0
 40
3.0
 40
4.0
 40
4.0
 40
4.0
 40
4.0
 10
94.62194730821524
 20
-150.9919932955852
 30
0.0
 10
94.62194730821524
 20
-151.0119605178024
 30
0.0
 10
94.60610758639712
 20
-151.0278355177985
 30
0.0
 10
94.5864578646762
 20
-151.0278355177985
 30
0.0
 10
94.56719619850094
 20
-151.0278355177985
 30
0.0
 10
94.55132119890594
 20
-151.0119605178024
 30
0.0
 10
94.55132119890594
 20
-150.9919932955852
 30
0.0
 10
94.55132119890594
 20
-150.972696351146
 30
0.0
 10
94.56719619850094
 20
-150.9568566289275
 30
0.0
 10
94.5864578646762
 20
-150.9568566289275
 30
0.0
 10
94.60610758639712
 20
-150.9568566289275
 30
0.0
 10
94.62194730821524
 20
-150.972696351146
 30
0.0
 10
94.62194730821524
 20
-150.9919932955852
 30
0.0
  0
ENDBLK
  5
23F
330
23C
100
AcDbEntity
  8
0
100
AcDbBlockEnd
  0
BLOCK
  5
243
330
241
100
AcDbEntity
  8
0
100
AcDbBlockBegin
  2
block 42
 70
     0
 10
0.0
 20
0.0
 30
0.0
  3
block 42
  1

  0
POLYLINE
  5
245
330
241
100
AcDbEntity
  8
_U+30EC_U+30A4_U+30E4_U+30FC 1
 62
   179
420
  2234388
370
     9
100
AcDb2dPolyline
 66
     1
 10
0.0
 20
0.0
 30
0.0
  0
VERTEX
  5
246
330
245
100
AcDbEntity
  8
_U+30EC_U+30A4_U+30E4_U+30FC 1
 62
   179
420
  2234388
370
     9
100
AcDbVertex
100
AcDb2dVertex
 10
94.5864578646762
 20
-150.9919932955852
 30
0.0
  0
VERTEX
  5
247
330
245
100
AcDbEntity
  8
_U+30EC_U+30A4_U+30E4_U+30FC 1
 62
   179
420
  2234388
370
     9
100
AcDbVertex
100
AcDb2dVertex
 10
98.58657219757578
 20
-150.9919932955852
 30
0.0
  0
SEQEND
  5
248
330
245
100
AcDbEntity
  8
_U+30EC_U+30A4_U+30E4_U+30FC 1
 62
   179
420
  2234388
370
     9
  0
POLYLINE
  5
249
330
241
100
AcDbEntity
  8
_U+30EC_U+30A4_U+30E4_U+30FC 1
 62
   179
420
  2234388
370
     9
100
AcDb2dPolyline
 66
     1
 10
0.0
 20
0.0
 30
0.0
  0
VERTEX
  5
24A
330
249
100
AcDbEntity
  8
_U+30EC_U+30A4_U+30E4_U+30FC 1
 62
   179
420
  2234388
370
     9
100
AcDbVertex
100
AcDb2dVertex
 10
98.58657219757578
 20
-133.5325977443944
 30
0.0
  0
VERTEX
  5
24B
330
249
100
AcDbEntity
  8
_U+30EC_U+30A4_U+30E4_U+30FC 1
 62
   179
420
  2234388
370
     9
100
AcDbVertex
100
AcDb2dVertex
 10
98.58657219757578
 20
-151.9924357953351
 30
0.0
  0
SEQEND
  5
24C
330
249
100
AcDbEntity
  8
_U+30EC_U+30A4_U+30E4_U+30FC 1
 62
   179
420
  2234388
370
     9
  0
INSERT
  5
24E
330
241
100
AcDbEntity
  8
_U+30EC_U+30A4_U+30E4_U+30FC 1
100
AcDbBlockReference
  2
block 43
 10
0.0
 20
0.0
 30
0.0
  0
INSERT
  5
267
330
241
100
AcDbEntity
  8
_U+30EC_U+30A4_U+30E4_U+30FC 1
100
AcDbBlockReference
  2
block 44
 10
0.0
 20
0.0
 30
0.0
  0
INSERT
  5
26D
330
241
100
AcDbEntity
  8
_U+30EC_U+30A4_U+30E4_U+30FC 1
100
AcDbBlockReference
  2
block 45
 10
0.0
 20
0.0
 30
0.0
  0
INSERT
  5
272
330
241
100
AcDbEntity
  8
_U+30EC_U+30A4_U+30E4_U+30FC 1
100
AcDbBlockReference
  2
block 46
 10
0.0
 20
0.0
 30
0.0
  0
INSERT
  5
277
330
241
100
AcDbEntity
  8
_U+30EC_U+30A4_U+30E4_U+30FC 1
100
AcDbBlockReference
  2
block 47
 10
0.0
 20
0.0
 30
0.0
  0
SPLINE
  5
27B
330
241
100
AcDbEntity
  8
_U+30EC_U+30A4_U+30E4_U+30FC 1
 62
   179
420
  2234388
370
     9
100
AcDbSpline
210
0.0
220
0.0
230
1.0
 70
    11
 71
     3
 72
    17
 73
    13
 74
     0
 42
0.0000000001
 43
0.0000000001
 12
1.0
 22
0.0
 32
0.0
 13
1.0
 23
0.0
 33
0.0
 40
0.0
 40
0.0
 40
0.0
 40
0.0
 40
1.0
 40
1.0
 40
1.0
 40
2.0
 40
2.0
 40
2.0
 40
3.0
 40
3.0
 40
3.0
 40
4.0
 40
4.0
 40
4.0
 40
4.0
 10
99.93463939489939
 20
-150.9919932955852
 30
0.0
 10
99.93463939489939
 20
-150.9368541289328
 30
0.0
 10
99.88983661826462
 20
-150.8920866289436
 30
0.0
 10
99.83473273078155
 20
-150.8920866289436
 30
0.0
 10
99.77959356552161
 20
-150.8920866289436
 30
0.0
 10
99.73482606666371
 20
-150.9368541289328
 30
0.0
 10
99.73482606666371
 20
-150.9919932955852
 30
0.0
 10
99.73482606666371
 20
-151.0478027400156
 30
0.0
 10
99.77959356552161
 20
-151.0925702400048
 30
0.0
 10
99.83473273078155
 20
-151.0925702400048
 30
0.0
 10
99.88983661826462
 20
-151.0925702400048
 30
0.0
 10
99.93463939489939
 20
-151.0478027400156
 30
0.0
 10
99.93463939489939
 20
-150.9919932955852
 30
0.0
  0
POLYLINE
  5
27C
330
241
100
AcDbEntity
  8
_U+30EC_U+30A4_U+30E4_U+30FC 1
 62
   179
420
  2234388
370
     9
100
AcDb2dPolyline
 66
     1
 10
0.0
 20
0.0
 30
0.0
  0
VERTEX
  5
27D
330
27C
100
AcDbEntity
  8
_U+30EC_U+30A4_U+30E4_U+30FC 1
 62
   179
420
  2234388
370
     9
100
AcDbVertex
100
AcDb2dVertex
 10
94.5864578646762
 20
-150.9919932955852
 30
0.0
  0
VERTEX
  5
27E
330
27C
100
AcDbEntity
  8
_U+30EC_U+30A4_U+30E4_U+30FC 1
 62
   179
420
  2234388
370
     9
100
AcDbVertex
100
AcDb2dVertex
 10
102.8343694187358
 20
-150.9919932955852
 30
0.0
  0
SEQEND
  5
27F
330
27C
100
AcDbEntity
  8
_U+30EC_U+30A4_U+30E4_U+30FC 1
 62
   179
420
  2234388
370
     9
  0
POLYLINE
  5
280
330
241
100
AcDbEntity
  8
_U+30EC_U+30A4_U+30E4_U+30FC 1
 62
   179
420
  2234388
370
     9
100
AcDb2dPolyline
 66
     1
 10
0.0
 20
0.0
 30
0.0
  0
VERTEX
  5
281
330
280
100
AcDbEntity
  8
_U+30EC_U+30A4_U+30E4_U+30FC 1
 62
   179
420
  2234388
370
     9
100
AcDbVertex
100
AcDb2dVertex
 10
99.83473273078155
 20
-133.5325977443944
 30
0.0
  0
VERTEX
  5
282
330
280
100
AcDbEntity
  8
_U+30EC_U+30A4_U+30E4_U+30FC 1
 62
   179
420
  2234388
370
     9
100
AcDbVertex
100
AcDb2dVertex
 10
99.83473273078155
 20
-151.9924357953351
 30
0.0
  0
SEQEND
  5
283
330
280
100
AcDbEntity
  8
_U+30EC_U+30A4_U+30E4_U+30FC 1
 62
   179
420
  2234388
370
     9
  0
INSERT
  5
285
330
241
100
AcDbEntity
  8
_U+30EC_U+30A4_U+30E4_U+30FC 1
100
AcDbBlockReference
  2
block 48
 10
0.0
 20
0.0
 30
0.0
  0
ENDBLK
  5
244
330
241
100
AcDbEntity
  8
0
100
AcDbBlockEnd
  0
BLOCK
  5
24F
330
24D
100
AcDbEntity
  8
0
100
AcDbBlockBegin
  2
block 43
 70
     0
 10
0.0
 20
0.0
 30
0.0
  3
block 43
  1

  0
POLYLINE
  5
251
330
24D
100
AcDbEntity
  8
_U+30EC_U+30A4_U+30E4_U+30FC 1
370
     0
100
AcDb2dPolyline
 66
     1
 10
0.0
 20
0.0
 30
0.0
  0
VERTEX
  5
252
330
251
100
AcDbEntity
  8
_U+30EC_U+30A4_U+30E4_U+30FC 1
370
     0
100
AcDbVertex
100
AcDb2dVertex
 10
96.918459719694
 20
-150.2729980093067
 30
0.0
  0
VERTEX
  5
253
330
251
100
AcDbEntity
  8
_U+30EC_U+30A4_U+30E4_U+30FC 1
370
     0
100
AcDbVertex
100
AcDb2dVertex
 10
96.918459719694
 20
-150.6199191246714
 30
0.0
  0
VERTEX
  5
254
330
251
100
AcDbEntity
  8
_U+30EC_U+30A4_U+30E4_U+30FC 1
370
     0
100
AcDbVertex
100
AcDb2dVertex
 10
96.70038517547769
 20
-150.6199191246714
 30
0.0
  0
VERTEX
  5
255
330
251
100
AcDbEntity
  8
_U+30EC_U+30A4_U+30E4_U+30FC 1
370
     0
100
AcDbVertex
100
AcDb2dVertex
 10
96.70038517547769
 20
-150.2729980093067
 30
0.0
  0
VERTEX
  5
256
330
251
100
AcDbEntity
  8
_U+30EC_U+30A4_U+30E4_U+30FC 1
370
     0
100
AcDbVertex
100
AcDb2dVertex
 10
96.04478350463464
 20
-150.2729980093067
 30
0.0
  0
VERTEX
  5
257
330
251
100
AcDbEntity
  8
_U+30EC_U+30A4_U+30E4_U+30FC 1
370
     0
100
AcDbVertex
100
AcDb2dVertex
 10
96.04478350463464
 20
-150.048722293217
 30
0.0
  0
VERTEX
  5
258
330
251
100
AcDbEntity
  8
_U+30EC_U+30A4_U+30E4_U+30FC 1
370
     0
100
AcDbVertex
100
AcDb2dVertex
 10
96.72381182477739
 20
-149.0754828186339
 30
0.0
  0
VERTEX
  5
259
330
251
100
AcDbEntity
  8
_U+30EC_U+30A4_U+30E4_U+30FC 1
370
     0
100
AcDbVertex
100
AcDb2dVertex
 10
96.918459719694
 20
-149.0754828186339
 30
0.0
  0
VERTEX
  5
25A
330
251
100
AcDbEntity
  8
_U+30EC_U+30A4_U+30E4_U+30FC 1
370
     0
100
AcDbVertex
100
AcDb2dVertex
 10
96.918459719694
 20
-150.0738714902593
 30
0.0
  0
VERTEX
  5
25B
330
251
100
AcDbEntity
  8
_U+30EC_U+30A4_U+30E4_U+30FC 1
370
     0
100
AcDbVertex
100
AcDb2dVertex
 10
97.12550995835751
 20
-150.0738714902593
 30
0.0
  0
VERTEX
  5
25C
330
251
100
AcDbEntity
  8
_U+30EC_U+30A4_U+30E4_U+30FC 1
370
     0
100
AcDbVertex
100
AcDb2dVertex
 10
97.12550995835751
 20
-150.2729980093067
 30
0.0
  0
VERTEX
  5
25D
330
251
100
AcDbEntity
  8
_U+30EC_U+30A4_U+30E4_U+30FC 1
370
     0
100
AcDbVertex
100
AcDb2dVertex
 10
96.918459719694
 20
-150.2729980093067
 30
0.0
  0
SEQEND
  5
25E
330
251
100
AcDbEntity
  8
_U+30EC_U+30A4_U+30E4_U+30FC 1
370
     0
  0
POLYLINE
  5
25F
330
24D
100
AcDbEntity
  8
_U+30EC_U+30A4_U+30E4_U+30FC 1
370
     0
100
AcDb2dPolyline
 66
     1
 10
0.0
 20
0.0
 30
0.0
  0
VERTEX
  5
260
330
25F
100
AcDbEntity
  8
_U+30EC_U+30A4_U+30E4_U+30FC 1
370
     0
100
AcDbVertex
100
AcDb2dVertex
 10
96.70038517547769
 20
-149.4182698194163
 30
0.0
  0
VERTEX
  5
261
330
25F
100
AcDbEntity
  8
_U+30EC_U+30A4_U+30E4_U+30FC 1
370
     0
100
AcDbVertex
100
AcDb2dVertex
 10
96.24356551413356
 20
-150.0738714902593
 30
0.0
  0
VERTEX
  5
262
330
25F
100
AcDbEntity
  8
_U+30EC_U+30A4_U+30E4_U+30FC 1
370
     0
100
AcDbVertex
100
AcDb2dVertex
 10
96.70038517547769
 20
-150.0738714902593
 30
0.0
  0
VERTEX
  5
263
330
25F
100
AcDbEntity
  8
_U+30EC_U+30A4_U+30E4_U+30FC 1
370
     0
100
AcDbVertex
100
AcDb2dVertex
 10
96.70038517547769
 20
-149.4182698194163
 30
0.0
  0
SEQEND
  5
264
330
25F
100
AcDbEntity
  8
_U+30EC_U+30A4_U+30E4_U+30FC 1
370
     0
  0
HATCH
  5
265
330
24D
100
AcDbEntity
  8
_U+30EC_U+30A4_U+30E4_U+30FC 1
 62
   179
420
  2234388
100
AcDbHatch
 10
0.0
 20
0.0
 30
0.0
210
0.0
220
0.0
230
1.0
  2
SOLID
 70
     1
 71
     0
 91
        2
 92
        1
 93
       11
 72
     1
 10
96.918459719694
 20
-150.2729980093067
 11
96.918459719694
 21
-150.6199191246714
 72
     1
 10
96.918459719694
 20
-150.6199191246714
 11
96.70038517547769
 21
-150.6199191246714
 72
     1
 10
96.70038517547769
 20
-150.6199191246714
 11
96.70038517547769
 21
-150.2729980093067
 72
     1
 10
96.70038517547769
 20
-150.2729980093067
 11
96.04478350463464
 21
-150.2729980093067
 72
     1
 10
96.04478350463464
 20
-150.2729980093067
 11
96.04478350463464
 21
-150.048722293217
 72
     1
 10
96.04478350463464
 20
-150.048722293217
 11
96.72381182477739
 21
-149.0754828186339
 72
     1
 10
96.72381182477739
 20
-149.0754828186339
 11
96.918459719694
 21
-149.0754828186339
 72
     1
 10
96.918459719694
 20
-149.0754828186339
 11
96.918459719694
 21
-150.0738714902593
 72
     1
 10
96.918459719694
 20
-150.0738714902593
 11
97.12550995835751
 21
-150.0738714902593
 72
     1
 10
97.12550995835751
 20
-150.0738714902593
 11
97.12550995835751
 21
-150.2729980093067
 72
     1
 10
97.12550995835751
 20
-150.2729980093067
 11
96.918459719694
 21
-150.2729980093067
 97
        0
 92
        1
 93
        3
 72
     1
 10
96.70038517547769
 20
-149.4182698194163
 11
96.24356551413356
 21
-150.0738714902593
 72
     1
 10
96.24356551413356
 20
-150.0738714902593
 11
96.70038517547769
 21
-150.0738714902593
 72
     1
 10
96.70038517547769
 20
-150.0738714902593
 11
96.70038517547769
 21
-149.4182698194163
 97
        0
 75
     2
 76
     1
 98
        0
  0
ENDBLK
  5
250
330
24D
100
AcDbEntity
  8
0
100
AcDbBlockEnd
  0
BLOCK
  5
268
330
266
100
AcDbEntity
  8
0
100
AcDbBlockBegin
  2
block 44
 70
     0
 10
0.0
 20
0.0
 30
0.0
  3
block 44
  1

  0
SPLINE
  5
26A
330
266
100
AcDbEntity
  8
_U+30EC_U+30A4_U+30E4_U+30FC 1
370
     0
100
AcDbSpline
210
0.0
220
0.0
230
1.0
 70
    11
 71
     3
 72
    26
 73
    22
 74
     0
 42
0.0000000001
 43
0.0000000001
 12
1.0
 22
0.0
 32
0.0
 13
1.0
 23
0.0
 33
0.0
 40
0.0
 40
0.0
 40
0.0
 40
0.0
 40
1.0
 40
1.0
 40
1.0
 40
2.0
 40
2.0
 40
2.0
 40
3.0
 40
3.0
 40
3.0
 40
4.0
 40
4.0
 40
4.0
 40
5.0
 40
5.0
 40
5.0
 40
6.0
 40
6.0
 40
6.0
 40
7.0
 40
7.0
 40
7.0
 40
7.0
 10
101.5307535553465
 20
-150.6199191246714
 30
0.0
 10
101.5307535553465
 20
-150.6199191246714
 30
0.0
 10
101.5307535553465
 20
-149.5154215121003
 30
0.0
 10
101.5307535553465
 20
-149.5154215121003
 30
0.0
 10
101.5307535553465
 20
-149.5154215121003
 30
0.0
 10
101.2007134078596
 20
-149.5154215121003
 30
0.0
 10
101.2007134078596
 20
-149.5154215121003
 30
0.0
 10
101.2007134078596
 20
-149.5154215121003
 30
0.0
 10
101.2007134078596
 20
-149.3672824062346
 30
0.0
 10
101.2007134078596
 20
-149.3672824062346
 30
0.0
 10
101.5328206126376
 20
-149.352468495648
 30
0.0
 10
101.579673911237
 20
-149.1898599887442
 30
0.0
 10
101.6093017324102
 20
-149.0754828186339
 30
0.0
 10
101.6093017324102
 20
-149.0754828186339
 30
0.0
 10
101.7550292714362
 20
-149.0754828186339
 30
0.0
 10
101.7550292714362
 20
-149.0754828186339
 30
0.0
 10
101.7550292714362
 20
-149.0754828186339
 30
0.0
 10
101.7550292714362
 20
-150.6199191246714
 30
0.0
 10
101.7550292714362
 20
-150.6199191246714
 30
0.0
 10
101.7550292714362
 20
-150.6199191246714
 30
0.0
 10
101.5307535553465
 20
-150.6199191246714
 30
0.0
 10
101.5307535553465
 20
-150.6199191246714
 30
0.0
  0
HATCH
  5
26B
330
266
100
AcDbEntity
  8
_U+30EC_U+30A4_U+30E4_U+30FC 1
 62
   179
420
  2234388
100
AcDbHatch
 10
0.0
 20
0.0
 30
0.0
210
0.0
220
0.0
230
1.0
  2
SOLID
 70
     1
 71
     0
 91
        1
 92
        1
 93
        1
 72
     4
 94
        3
 73
     0
 74
     1
 95
       26
 96
       22
 40
0.0
 40
0.0
 40
0.0
 40
0.0
 40
1.0
 40
1.0
 40
1.0
 40
2.0
 40
2.0
 40
2.0
 40
3.0
 40
3.0
 40
3.0
 40
4.0
 40
4.0
 40
4.0
 40
5.0
 40
5.0
 40
5.0
 40
6.0
 40
6.0
 40
6.0
 40
7.0
 40
7.0
 40
7.0
 40
7.0
 10
101.5307535553465
 20
-150.6199191246714
 10
101.5307535553465
 20
-150.6199191246714
 10
101.5307535553465
 20
-149.5154215121003
 10
101.5307535553465
 20
-149.5154215121003
 10
101.5307535553465
 20
-149.5154215121003
 10
101.2007134078596
 20
-149.5154215121003
 10
101.2007134078596
 20
-149.5154215121003
 10
101.2007134078596
 20
-149.5154215121003
 10
101.2007134078596
 20
-149.3672824062346
 10
101.2007134078596
 20
-149.3672824062346
 10
101.5328206126376
 20
-149.352468495648
 10
101.579673911237
 20
-149.1898599887442
 10
101.6093017324102
 20
-149.0754828186339
 10
101.6093017324102
 20
-149.0754828186339
 10
101.7550292714362
 20
-149.0754828186339
 10
101.7550292714362
 20
-149.0754828186339
 10
101.7550292714362
 20
-149.0754828186339
 10
101.7550292714362
 20
-150.6199191246714
 10
101.7550292714362
 20
-150.6199191246714
 10
101.7550292714362
 20
-150.6199191246714
 10
101.5307535553465
 20
-150.6199191246714
 10
101.5307535553465
 20
-150.6199191246714
 97
        0
 97
        0
 75
     2
 76
     1
 98
        0
  0
ENDBLK
  5
269
330
266
100
AcDbEntity
  8
0
100
AcDbBlockEnd
  0
BLOCK
  5
26E
330
26C
100
AcDbEntity
  8
0
100
AcDbBlockBegin
  2
block 45
 70
     0
 10
0.0
 20
0.0
 30
0.0
  3
block 45
  1

  0
SPLINE
  5
270
330
26C
100
AcDbEntity
  8
_U+30EC_U+30A4_U+30E4_U+30FC 1
 62
   179
420
  2234388
370
    25
100
AcDbSpline
210
0.0
220
0.0
230
1.0
 70
    11
 71
     3
 72
    17
 73
    13
 74
     0
 42
0.0000000001
 43
0.0000000001
 12
1.0
 22
0.0
 32
0.0
 13
1.0
 23
0.0
 33
0.0
 40
0.0
 40
0.0
 40
0.0
 40
0.0
 40
1.0
 40
1.0
 40
1.0
 40
2.0
 40
2.0
 40
2.0
 40
3.0
 40
3.0
 40
3.0
 40
4.0
 40
4.0
 40
4.0
 40
4.0
 10
94.62194730821524
 20
-130.9921744116963
 30
0.0
 10
94.62194730821524
 20
-131.0121416339135
 30
0.0
 10
94.60610758639712
 20
-131.0280166339095
 30
0.0
 10
94.5864578646762
 20
-131.0280166339095
 30
0.0
 10
94.56719619850094
 20
-131.0280166339095
 30
0.0
 10
94.55132119890594
 20
-131.0121416339135
 30
0.0
 10
94.55132119890594
 20
-130.9921744116963
 30
0.0
 10
94.55132119890594
 20
-130.9728774672565
 30
0.0
 10
94.56719619850094
 20
-130.9570377450386
 30
0.0
 10
94.5864578646762
 20
-130.9570377450386
 30
0.0
 10
94.60610758639712
 20
-130.9570377450386
 30
0.0
 10
94.62194730821524
 20
-130.9728774672565
 30
0.0
 10
94.62194730821524
 20
-130.9921744116963
 30
0.0
  0
ENDBLK
  5
26F
330
26C
100
AcDbEntity
  8
0
100
AcDbBlockEnd
  0
BLOCK
  5
273
330
271
100
AcDbEntity
  8
0
100
AcDbBlockBegin
  2
block 46
 70
     0
 10
0.0
 20
0.0
 30
0.0
  3
block 46
  1

  0
SPLINE
  5
275
330
271
100
AcDbEntity
  8
_U+30EC_U+30A4_U+30E4_U+30FC 1
 62
   179
420
  2234388
370
    25
100
AcDbSpline
210
0.0
220
0.0
230
1.0
 70
    11
 71
     3
 72
    17
 73
    13
 74
     0
 42
0.0000000001
 43
0.0000000001
 12
1.0
 22
0.0
 32
0.0
 13
1.0
 23
0.0
 33
0.0
 40
0.0
 40
0.0
 40
0.0
 40
0.0
 40
1.0
 40
1.0
 40
1.0
 40
2.0
 40
2.0
 40
2.0
 40
3.0
 40
3.0
 40
3.0
 40
4.0
 40
4.0
 40
4.0
 40
4.0
 10
98.62170637283954
 20
-130.9921744116963
 30
0.0
 10
98.62170637283954
 20
-131.0121416339135
 30
0.0
 10
98.60621942879021
 20
-131.0280166339095
 30
0.0
 10
98.58657219757578
 20
-131.0280166339095
 30
0.0
 10
98.56727276311715
 20
-131.0280166339095
 30
0.0
 10
98.55143304129903
 20
-131.0121416339135
 30
0.0
 10
98.55143304129903
 20
-130.9921744116963
 30
0.0
 10
98.55143304129903
 20
-130.9728774672565
 30
0.0
 10
98.56727276311715
 20
-130.9570377450386
 30
0.0
 10
98.58657219757578
 20
-130.9570377450386
 30
0.0
 10
98.60621942879021
 20
-130.9570377450386
 30
0.0
 10
98.62170637283954
 20
-130.9728774672565
 30
0.0
 10
98.62170637283954
 20
-130.9921744116963
 30
0.0
  0
ENDBLK
  5
274
330
271
100
AcDbEntity
  8
0
100
AcDbBlockEnd
  0
BLOCK
  5
278
330
276
100
AcDbEntity
  8
0
100
AcDbBlockBegin
  2
block 47
 70
     0
 10
0.0
 20
0.0
 30
0.0
  3
block 47
  1

  0
SPLINE
  5
27A
330
276
100
AcDbEntity
  8
_U+30EC_U+30A4_U+30E4_U+30FC 1
 62
   179
420
  2234388
370
     9
100
AcDbSpline
210
0.0
220
0.0
230
1.0
 70
    11
 71
     3
 72
    17
 73
    13
 74
     0
 42
0.0000000001
 43
0.0000000001
 12
1.0
 22
0.0
 32
0.0
 13
1.0
 23
0.0
 33
0.0
 40
0.0
 40
0.0
 40
0.0
 40
0.0
 40
1.0
 40
1.0
 40
1.0
 40
2.0
 40
2.0
 40
2.0
 40
3.0
 40
3.0
 40
3.0
 40
4.0
 40
4.0
 40
4.0
 40
4.0
 10
98.62170637283954
 20
-150.9919932955852
 30
0.0
 10
98.62170637283954
 20
-151.0119605178024
 30
0.0
 10
98.60621942879021
 20
-151.0278355177985
 30
0.0
 10
98.58657219757578
 20
-151.0278355177985
 30
0.0
 10
98.56727276311715
 20
-151.0278355177985
 30
0.0
 10
98.55143304129903
 20
-151.0119605178024
 30
0.0
 10
98.55143304129903
 20
-150.9919932955852
 30
0.0
 10
98.55143304129903
 20
-150.972696351146
 30
0.0
 10
98.56727276311715
 20
-150.9568566289275
 30
0.0
 10
98.58657219757578
 20
-150.9568566289275
 30
0.0
 10
98.60621942879021
 20
-150.9568566289275
 30
0.0
 10
98.62170637283954
 20
-150.972696351146
 30
0.0
 10
98.62170637283954
 20
-150.9919932955852
 30
0.0
  0
ENDBLK
  5
279
330
276
100
AcDbEntity
  8
0
100
AcDbBlockEnd
  0
BLOCK
  5
286
330
284
100
AcDbEntity
  8
0
100
AcDbBlockBegin
  2
block 48
 70
     0
 10
0.0
 20
0.0
 30
0.0
  3
block 48
  1

  0
SPLINE
  5
288
330
284
100
AcDbEntity
  8
_U+30EC_U+30A4_U+30E4_U+30FC 1
 62
   179
420
  2234388
370
     9
100
AcDbSpline
210
0.0
220
0.0
230
1.0
 70
    11
 71
     3
 72
    17
 73
    13
 74
     0
 42
0.0000000001
 43
0.0000000001
 12
1.0
 22
0.0
 32
0.0
 13
1.0
 23
0.0
 33
0.0
 40
0.0
 40
0.0
 40
0.0
 40
0.0
 40
1.0
 40
1.0
 40
1.0
 40
2.0
 40
2.0
 40
2.0
 40
3.0
 40
3.0
 40
3.0
 40
4.0
 40
4.0
 40
4.0
 40
4.0
 10
99.8698693965518
 20
-150.9919932955852
 30
0.0
 10
99.8698693965518
 20
-151.0119605178024
 30
0.0
 10
99.8540296747337
 20
-151.0278355177985
 30
0.0
 10
99.83473273078155
 20
-151.0278355177985
 30
0.0
 10
99.81543578682941
 20
-151.0278355177985
 30
0.0
 10
99.7995960650113
 20
-151.0119605178024
 30
0.0
 10
99.7995960650113
 20
-150.9919932955852
 30
0.0
 10
99.7995960650113
 20
-150.972696351146
 30
0.0
 10
99.81543578682941
 20
-150.9568566289275
 30
0.0
 10
99.83473273078155
 20
-150.9568566289275
 30
0.0
 10
99.8540296747337
 20
-150.9568566289275
 30
0.0
 10
99.8698693965518
 20
-150.972696351146
 30
0.0
 10
99.8698693965518
 20
-150.9919932955852
 30
0.0
  0
ENDBLK
  5
287
330
284
100
AcDbEntity
  8
0
100
AcDbBlockEnd
  0
ENDSEC
  0
SECTION
  2
ENTITIES
  0
SPLINE
  5
41
330
1F
100
AcDbEntity
  8
_U+30EC_U+30A4_U+30E4_U+30FC 1
 62
   179
420
  2234388
370
     9
100
AcDbSpline
210
0.0
220
0.0
230
1.0
 70
    11
 71
     3
 72
    17
 73
    13
 74
     0
 42
0.0000000001
 43
0.0000000001
 12
1.0
 22
0.0
 32
0.0
 13
1.0
 23
0.0
 33
0.0
 40
0.0
 40
0.0
 40
0.0
 40
0.0
 40
1.0
 40
1.0
 40
1.0
 40
2.0
 40
2.0
 40
2.0
 40
3.0
 40
3.0
 40
3.0
 40
4.0
 40
4.0
 40
4.0
 40
4.0
 10
62.68659867850941
 20
-111.9924805275574
 30
0.0
 10
62.68659867850941
 20
-111.9373413609046
 30
0.0
 10
62.64183117965153
 20
-111.8925738609157
 30
0.0
 10
62.58669201439157
 20
-111.8925738609157
 30
0.0
 10
62.53123534913973
 20
-111.8925738609157
 30
0.0
 10
62.48646942882297
 20
-111.9373413609046
 30
0.0
 10
62.48646942882297
 20
-111.9924805275574
 30
0.0
 10
62.48646942882297
 20
-112.0475844164326
 30
0.0
 10
62.53123534913973
 20
-112.092387194199
 30
0.0
 10
62.58669201439157
 20
-112.092387194199
 30
0.0
 10
62.64183117965153
 20
-112.092387194199
 30
0.0
 10
62.68659867850941
 20
-112.0475844164326
 30
0.0
 10
62.68659867850941
 20
-111.9924805275574
 30
0.0
  0
SPLINE
  5
42
330
1F
100
AcDbEntity
  8
_U+30EC_U+30A4_U+30E4_U+30FC 1
 62
   179
420
  2234388
370
     9
100
AcDbSpline
210
0.0
220
0.0
230
1.0
 70
    11
 71
     3
 72
    17
 73
    13
 74
     0
 42
0.0000000001
 43
0.0000000001
 12
1.0
 22
0.0
 32
0.0
 13
1.0
 23
0.0
 33
0.0
 40
0.0
 40
0.0
 40
0.0
 40
0.0
 40
1.0
 40
1.0
 40
1.0
 40
2.0
 40
2.0
 40
2.0
 40
3.0
 40
3.0
 40
3.0
 40
4.0
 40
4.0
 40
4.0
 40
4.0
 10
62.68659867850941
 20
-128.9926299677519
 30
0.0
 10
62.68659867850941
 20
-128.9375260788769
 30
0.0
 10
62.64183117965153
 20
-128.8927233011102
 30
0.0
 10
62.58669201439157
 20
-128.8927233011102
 30
0.0
 10
62.53123534913973
 20
-128.8927233011102
 30
0.0
 10
62.48646942882297
 20
-128.9375260788769
 30
0.0
 10
62.48646942882297
 20
-128.9926299677519
 30
0.0
 10
62.48646942882297
 20
-129.0477691344049
 30
0.0
 10
62.53123534913973
 20
-129.0925366343935
 30
0.0
 10
62.58669201439157
 20
-129.0925366343935
 30
0.0
 10
62.64183117965153
 20
-129.0925366343935
 30
0.0
 10
62.68659867850941
 20
-129.0477691344049
 30
0.0
 10
62.68659867850941
 20
-128.9926299677519
 30
0.0
  0
SPLINE
  5
43
330
1F
100
AcDbEntity
  8
_U+30EC_U+30A4_U+30E4_U+30FC 1
 62
   179
420
  2234388
370
     9
100
AcDbSpline
210
0.0
220
0.0
230
1.0
 70
    11
 71
     3
 72
    17
 73
    13
 74
     0
 42
0.0000000001
 43
0.0000000001
 12
1.0
 22
0.0
 32
0.0
 13
1.0
 23
0.0
 33
0.0
 40
0.0
 40
0.0
 40
0.0
 40
0.0
 40
1.0
 40
1.0
 40
1.0
 40
2.0
 40
2.0
 40
2.0
 40
3.0
 40
3.0
 40
3.0
 40
4.0
 40
4.0
 40
4.0
 40
4.0
 10
62.68659867850941
 20
-146.9922341299183
 30
0.0
 10
62.68659867850941
 20
-146.9370949632659
 30
0.0
 10
62.64183117965153
 20
-146.8923274632767
 30
0.0
 10
62.58669201439157
 20
-146.8923274632767
 30
0.0
 10
62.53123534913973
 20
-146.8923274632767
 30
0.0
 10
62.48646942882297
 20
-146.9370949632659
 30
0.0
 10
62.48646942882297
 20
-146.9922341299183
 30
0.0
 10
62.48646942882297
 20
-147.0473380187939
 30
0.0
 10
62.53123534913973
 20
-147.0921407965606
 30
0.0
 10
62.58669201439157
 20
-147.0921407965606
 30
0.0
 10
62.64183117965153
 20
-147.0921407965606
 30
0.0
 10
62.68659867850941
 20
-147.0473380187939
 30
0.0
 10
62.68659867850941
 20
-146.9922341299183
 30
0.0
  0
INSERT
  5
45
330
1F
100
AcDbEntity
  8
_U+30EC_U+30A4_U+30E4_U+30FC 1
100
AcDbBlockReference
  2
block 2
 10
0.0
 20
0.0
 30
0.0
  0
INSERT
  5
12D
330
1F
100
AcDbEntity
  8
_U+30EC_U+30A4_U+30E4_U+30FC 1
100
AcDbBlockReference
  2
block 15
 10
0.0
 20
0.0
 30
0.0
  0
ENDSEC
  0
SECTION
  2
OBJECTS
  0
DICTIONARY
  5
C
330
0
100
AcDbDictionary
281
     1
  3
ACAD_GROUP
350
D
  3
ACAD_LAYOUT
350
1A
  3
ACAD_MATERIAL
350
3B
  3
ACAD_MLEADERSTYLE
350
28A
  3
ACAD_MLINESTYLE
350
17
  3
ACAD_PLOTSETTINGS
350
19
  3
ACAD_PLOTSTYLENAME
350
E
  3
ACAD_TABLESTYLE
350
289
  3
ACAD_VISUALSTYLE
350
2A
  0
SUN
  5
3F
330
29
100
AcDbSun
 90
        1
290
     0
 63
     7
421
 16777215
 40
1.0
291
     1
 91
  2455826
 92
 54000000
292
     0
 70
     2
 71
   256
280
     1
  0
DICTIONARY
  5
D
102
{ACAD_REACTORS
330
C
102
}
330
C
100
AcDbDictionary
281
     1
  0
DICTIONARY
  5
1A
102
{ACAD_REACTORS
330
C
102
}
330
C
100
AcDbDictionary
281
     1
  3
Layout1
350
1E
  3
Layout2
350
26
  3
Model
350
22
  0
DICTIONARY
  5
3B
102
{ACAD_REACTORS
330
C
102
}
330
C
100
AcDbDictionary
281
     1
  3
ByBlock
350
3D
  3
ByLayer
350
3C
  3
Global
350
3E
  0
DICTIONARY
  5
28A
102
{ACAD_REACTORS
330
C
102
}
330
C
100
AcDbDictionary
281
     1
  0
DICTIONARY
  5
17
102
{ACAD_REACTORS
330
C
102
}
330
C
100
AcDbDictionary
281
     1
  3
Standard
350
18
  0
DICTIONARY
  5
19
102
{ACAD_REACTORS
330
C
102
}
330
C
100
AcDbDictionary
281
     1
  0
ACDBDICTIONARYWDFLT
  5
E
102
{ACAD_REACTORS
330
C
102
}
330
C
100
AcDbDictionary
281
     1
  3
Normal
350
F
100
AcDbDictionaryWithDefault
340
F
  0
DICTIONARY
  5
289
102
{ACAD_REACTORS
330
C
102
}
330
C
100
AcDbDictionary
281
     1
  0
DICTIONARY
  5
2A
102
{ACAD_REACTORS
330
C
102
}
330
C
100
AcDbDictionary
281
     1
  3
2dWireframe
350
2F
  3
3D Hidden
350
31
  3
3dWireframe
350
30
  3
Basic
350
32
  3
Brighten
350
36
  3
ColorChange
350
3A
  3
Conceptual
350
34
  3
Dim
350
35
  3
Facepattern
350
39
  3
Flat
350
2B
  3
FlatWithEdges
350
2C
  3
Gouraud
350
2D
  3
GouraudWithEdges
350
2E
  3
Linepattern
350
38
  3
Realistic
350
33
  3
Thicken
350
37
  0
LAYOUT
  5
1E
102
{ACAD_REACTORS
330
1A
102
}
330
1A
100
AcDbPlotSettings
  1

  2
none_device
  4

  6

 40
0.0
 41
0.0
 42
0.0
 43
0.0
 44
0.0
 45
0.0
 46
0.0
 47
0.0
 48
0.0
 49
0.0
140
0.0
141
0.0
142
1.0
143
1.0
 70
   688
 72
     0
 73
     0
 74
     5
  7

 75
    16
 76
     0
 77
     2
 78
   300
147
1.0
148
0.0
149
0.0
100
AcDbLayout
  1
Layout1
 70
     1
 71
     1
 10
0.0
 20
0.0
 11
12.0
 21
9.0
 12
0.0
 22
0.0
 32
0.0
 14
1.000000000000000E+20
 24
1.000000000000000E+20
 34
1.000000000000000E+20
 15
-1.000000000000000E+20
 25
-1.000000000000000E+20
 35
-1.000000000000000E+20
146
0.0
 13
0.0
 23
0.0
 33
0.0
 16
1.0
 26
0.0
 36
0.0
 17
0.0
 27
1.0
 37
0.0
 76
     0
330
1B
  0
LAYOUT
  5
26
102
{ACAD_REACTORS
330
1A
102
}
330
1A
100
AcDbPlotSettings
  1

  2
none_device
  4

  6

 40
0.0
 41
0.0
 42
0.0
 43
0.0
 44
0.0
 45
0.0
 46
0.0
 47
0.0
 48
0.0
 49
0.0
140
0.0
141
0.0
142
1.0
143
1.0
 70
   688
 72
     0
 73
     0
 74
     5
  7

 75
    16
 76
     0
 77
     2
 78
   300
147
1.0
148
0.0
149
0.0
100
AcDbLayout
  1
Layout2
 70
     1
 71
     2
 10
0.0
 20
0.0
 11
0.0
 21
0.0
 12
0.0
 22
0.0
 32
0.0
 14
0.0
 24
0.0
 34
0.0
 15
0.0
 25
0.0
 35
0.0
146
0.0
 13
0.0
 23
0.0
 33
0.0
 16
1.0
 26
0.0
 36
0.0
 17
0.0
 27
1.0
 37
0.0
 76
     0
330
23
  0
LAYOUT
  5
22
102
{ACAD_REACTORS
330
1A
102
}
330
1A
100
AcDbPlotSettings
  1

  2
none_device
  4

  6

 40
0.0
 41
0.0
 42
0.0
 43
0.0
 44
0.0
 45
0.0
 46
0.0
 47
0.0
 48
0.0
 49
0.0
140
0.0
141
0.0
142
1.0
143
1.0
 70
  1712
 72
     0
 73
     0
 74
     0
  7

 75
     0
 76
     0
 77
     2
 78
   300
147
1.0
148
0.0
149
0.0
100
AcDbLayout
  1
Model
 70
     1
 71
     0
 10
0.0
 20
0.0
 11
12.0
 21
9.0
 12
0.0
 22
0.0
 32
0.0
 14
1.000000000000000E+20
 24
1.000000000000000E+20
 34
1.000000000000000E+20
 15
-1.000000000000000E+20
 25
-1.000000000000000E+20
 35
-1.000000000000000E+20
146
0.0
 13
0.0
 23
0.0
 33
0.0
 16
1.0
 26
0.0
 36
0.0
 17
0.0
 27
1.0
 37
0.0
 76
     0
330
1F
331
29
  0
MATERIAL
  5
3D
102
{ACAD_REACTORS
330
3B
102
}
330
3B
100
AcDbMaterial
  1
ByBlock
 72
     1
 94
      127
  0
MATERIAL
  5
3C
102
{ACAD_REACTORS
330
3B
102
}
330
3B
100
AcDbMaterial
  1
ByLayer
 72
     1
 94
      127
  0
MATERIAL
  5
3E
102
{ACAD_REACTORS
330
3B
102
}
330
3B
100
AcDbMaterial
  1
Global
 72
     1
 94
      127
  0
MLINESTYLE
  5
18
102
{ACAD_REACTORS
330
17
102
}
330
17
100
AcDbMlineStyle
  2
Standard
 70
     0
  3

 62
   256
 51
90.0
 52
90.0
 71
     2
 49
0.5
 62
   256
  6
BYLAYER
 49
-0.5
 62
   256
  6
BYLAYER
  0
ACDBPLACEHOLDER
  5
F
102
{ACAD_REACTORS
330
E
102
}
330
E
  0
VISUALSTYLE
  5
2F
102
{ACAD_REACTORS
330
2A
102
}
330
2A
100
AcDbVisualStyle
  2
2dWireframe
 70
     4
177
     2
291
     0
 71
     0
176
     1
 72
     2
176
     1
 73
     0
176
     1
 90
        0
176
     1
 40
-0.6
176
     1
 41
-30.0
176
     1
 62
     5
 63
     7
421
 16777215
176
     1
 74
     1
176
     1
 91
        4
176
     1
 64
     7
176
     1
 65
   257
176
     1
 75
     1
176
     1
175
     1
176
     1
 42
1.0
176
     1
 92
        0
176
     1
 66
   257
176
     1
 43
1.0
176
     1
 76
     1
176
     1
 77
     6
176
     1
 78
     2
176
     1
 67
     7
176
     1
 79
     5
176
     1
170
     0
176
     1
171
     0
176
     1
290
     0
176
     1
 93
        1
176
     1
 44
0.0
176
     1
173
     0
176
     1
  0
VISUALSTYLE
  5
31
102
{ACAD_REACTORS
330
2A
102
}
330
2A
100
AcDbVisualStyle
  2
3D Hidden
 70
     6
177
     2
291
     0
 71
     1
176
     1
 72
     2
176
     1
 73
     2
176
     1
 90
        0
176
     1
 40
-0.6
176
     1
 41
-30.0
176
     1
 62
     5
 63
     7
421
 16777215
176
     1
 74
     2
176
     1
 91
        2
176
     1
 64
     7
176
     1
 65
   257
176
     1
 75
     2
176
     1
175
     1
176
     1
 42
40.0
176
     1
 92
        0
176
     1
 66
   257
176
     1
 43
1.0
176
     1
 76
     1
176
     1
 77
     6
176
     1
 78
     2
176
     1
 67
     7
176
     1
 79
     3
176
     1
170
     0
176
     1
171
     0
176
     1
290
     0
176
     1
 93
        1
176
     1
 44
0.0
176
     1
173
     0
176
     1
  0
VISUALSTYLE
  5
30
102
{ACAD_REACTORS
330
2A
102
}
330
2A
100
AcDbVisualStyle
  2
3dWireframe
 70
     5
177
     2
291
     0
 71
     0
176
     1
 72
     2
176
     1
 73
     0
176
     1
 90
        0
176
     1
 40
-0.6
176
     1
 41
-30.0
176
     1
 62
     5
 63
     7
421
 16777215
176
     1
 74
     1
176
     1
 91
        4
176
     1
 64
     7
176
     1
 65
   257
176
     1
 75
     1
176
     1
175
     1
176
     1
 42
1.0
176
     1
 92
        0
176
     1
 66
   257
176
     1
 43
1.0
176
     1
 76
     1
176
     1
 77
     6
176
     1
 78
     2
176
     1
 67
     7
176
     1
 79
     5
176
     1
170
     0
176
     1
171
     0
176
     1
290
     0
176
     1
 93
        1
176
     1
 44
0.0
176
     1
173
     0
176
     1
  0
VISUALSTYLE
  5
32
102
{ACAD_REACTORS
330
2A
102
}
330
2A
100
AcDbVisualStyle
  2
Basic
 70
     7
177
     2
291
     1
 71
     1
176
     1
 72
     0
176
     1
 73
     1
176
     1
 90
        0
176
     1
 40
-0.6
176
     1
 41
-30.0
176
     1
 62
     5
 63
     7
421
 16777215
176
     1
 74
     0
176
     1
 91
        4
176
     1
 64
     7
176
     1
 65
   257
176
     1
 75
     1
176
     1
175
     1
176
     1
 42
1.0
176
     1
 92
        8
176
     1
 66
     7
176
     1
 43
1.0
176
     1
 76
     1
176
     1
 77
     6
176
     1
 78
     2
176
     1
 67
     7
176
     1
 79
     5
176
     1
170
     0
176
     1
171
     0
176
     1
290
     0
176
     1
 93
        1
176
     1
 44
0.0
176
     1
173
     0
176
     1
  0
VISUALSTYLE
  5
36
102
{ACAD_REACTORS
330
2A
102
}
330
2A
100
AcDbVisualStyle
  2
Brighten
 70
    12
177
     2
291
     1
 71
     2
176
     1
 72
     2
176
     1
 73
     0
176
     1
 90
        0
176
     1
 40
-0.6
176
     1
 41
-30.0
176
     1
 62
     5
 63
     7
421
 16777215
176
     1
 74
     1
176
     1
 91
        4
176
     1
 64
     7
176
     1
 65
   257
176
     1
 75
     1
176
     1
175
     1
176
     1
 42
1.0
176
     1
 92
        8
176
     1
 66
     7
176
     1
 43
1.0
176
     1
 76
     1
176
     1
 77
     6
176
     1
 78
     2
176
     1
 67
     7
176
     1
 79
     5
176
     1
170
     0
176
     1
171
     0
176
     1
290
     0
176
     1
 93
        1
176
     1
 44
50.0
176
     1
173
     0
176
     1
  0
VISUALSTYLE
  5
3A
102
{ACAD_REACTORS
330
2A
102
}
330
2A
100
AcDbVisualStyle
  2
ColorChange
 70
    16
177
     2
291
     1
 71
     2
176
     1
 72
     2
176
     1
 73
     3
176
     1
 90
        0
176
     1
 40
-0.6
176
     1
 41
-30.0
176
     1
 62
     5
 63
     8
421
  8421504
176
     1
 74
     1
176
     1
 91
        4
176
     1
 64
     7
176
     1
 65
   257
176
     1
 75
     1
176
     1
175
     1
176
     1
 42
1.0
176
     1
 92
        8
176
     1
 66
     8
424
  8421504
176
     1
 43
1.0
176
     1
 76
     1
176
     1
 77
     6
176
     1
 78
     2
176
     1
 67
     7
176
     1
 79
     5
176
     1
170
     0
176
     1
171
     0
176
     1
290
     0
176
     1
 93
        1
176
     1
 44
0.0
176
     1
173
     0
176
     1
  0
VISUALSTYLE
  5
34
102
{ACAD_REACTORS
330
2A
102
}
330
2A
100
AcDbVisualStyle
  2
Conceptual
 70
     9
177
     2
291
     0
 71
     3
176
     1
 72
     2
176
     1
 73
     0
176
     1
 90
        0
176
     1
 40
-0.6
176
     1
 41
-30.0
176
     1
 62
     5
 63
     7
421
 16777215
176
     1
 74
     2
176
     1
 91
        2
176
     1
 64
     7
176
     1
 65
   257
176
     1
 75
     1
176
     1
175
     1
176
     1
 42
40.0
176
     1
 92
        8
176
     1
 66
     7
176
     1
 43
1.0
176
     1
 76
     1
176
     1
 77
     6
176
     1
 78
     2
176
     1
 67
     7
176
     1
 79
     3
176
     1
170
     0
176
     1
171
     0
176
     1
290
     0
176
     1
 93
        1
176
     1
 44
0.0
176
     1
173
     0
176
     1
  0
VISUALSTYLE
  5
35
102
{ACAD_REACTORS
330
2A
102
}
330
2A
100
AcDbVisualStyle
  2
Dim
 70
    11
177
     2
291
     1
 71
     2
176
     1
 72
     2
176
     1
 73
     0
176
     1
 90
        0
176
     1
 40
-0.6
176
     1
 41
-30.0
176
     1
 62
     5
 63
     7
421
 16777215
176
     1
 74
     1
176
     1
 91
        4
176
     1
 64
     7
176
     1
 65
   257
176
     1
 75
     1
176
     1
175
     1
176
     1
 42
1.0
176
     1
 92
        8
176
     1
 66
     7
176
     1
 43
1.0
176
     1
 76
     1
176
     1
 77
     6
176
     1
 78
     2
176
     1
 67
     7
176
     1
 79
     5
176
     1
170
     0
176
     1
171
     0
176
     1
290
     0
176
     1
 93
        1
176
     1
 44
-50.0
176
     1
173
     0
176
     1
  0
VISUALSTYLE
  5
39
102
{ACAD_REACTORS
330
2A
102
}
330
2A
100
AcDbVisualStyle
  2
Facepattern
 70
    15
177
     2
291
     1
 71
     2
176
     1
 72
     2
176
     1
 73
     0
176
     1
 90
        0
176
     1
 40
-0.6
176
     1
 41
-30.0
176
     1
 62
     5
 63
     7
421
 16777215
176
     1
 74
     1
176
     1
 91
        4
176
     1
 64
     7
176
     1
 65
   257
176
     1
 75
     1
176
     1
175
     1
176
     1
 42
1.0
176
     1
 92
        8
176
     1
 66
     7
176
     1
 43
1.0
176
     1
 76
     1
176
     1
 77
     6
176
     1
 78
     2
176
     1
 67
     7
176
     1
 79
     5
176
     1
170
     0
176
     1
171
     0
176
     1
290
     0
176
     1
 93
        1
176
     1
 44
0.0
176
     1
173
     0
176
     1
  0
VISUALSTYLE
  5
2B
102
{ACAD_REACTORS
330
2A
102
}
330
2A
100
AcDbVisualStyle
  2
Flat
 70
     0
177
     2
291
     1
 71
     2
176
     1
 72
     1
176
     1
 73
     1
176
     1
 90
        2
176
     1
 40
-0.6
176
     1
 41
30.0
176
     1
 62
     5
 63
     7
421
 16777215
176
     1
 74
     0
176
     1
 91
        4
176
     1
 64
     7
176
     1
 65
   257
176
     1
 75
     1
176
     1
175
     1
176
     1
 42
1.0
176
     1
 92
        8
176
     1
 66
     7
176
     1
 43
1.0
176
     1
 76
     1
176
     1
 77
     6
176
     1
 78
     2
176
     1
 67
     7
176
     1
 79
     5
176
     1
170
     0
176
     1
171
     0
176
     1
290
     0
176
     1
 93
       13
176
     1
 44
0.0
176
     1
173
     0
176
     1
  0
VISUALSTYLE
  5
2C
102
{ACAD_REACTORS
330
2A
102
}
330
2A
100
AcDbVisualStyle
  2
FlatWithEdges
 70
     1
177
     2
291
     1
 71
     2
176
     1
 72
     1
176
     1
 73
     1
176
     1
 90
        2
176
     1
 40
-0.6
176
     1
 41
30.0
176
     1
 62
     5
 63
     7
421
 16777215
176
     1
 74
     1
176
     1
 91
        4
176
     1
 64
     7
176
     1
 65
   257
176
     1
 75
     1
176
     1
175
     1
176
     1
 42
1.0
176
     1
 92
        0
176
     1
 66
   257
176
     1
 43
1.0
176
     1
 76
     1
176
     1
 77
     6
176
     1
 78
     2
176
     1
 67
     7
176
     1
 79
     5
176
     1
170
     0
176
     1
171
     0
176
     1
290
     0
176
     1
 93
       13
176
     1
 44
0.0
176
     1
173
     0
176
     1
  0
VISUALSTYLE
  5
2D
102
{ACAD_REACTORS
330
2A
102
}
330
2A
100
AcDbVisualStyle
  2
Gouraud
 70
     2
177
     2
291
     1
 71
     2
176
     1
 72
     2
176
     1
 73
     1
176
     1
 90
        2
176
     1
 40
-0.6
176
     1
 41
30.0
176
     1
 62
     5
 63
     7
421
 16777215
176
     1
 74
     0
176
     1
 91
        4
176
     1
 64
     7
176
     1
 65
   257
176
     1
 75
     1
176
     1
175
     1
176
     1
 42
1.0
176
     1
 92
        0
176
     1
 66
     7
176
     1
 43
1.0
176
     1
 76
     1
176
     1
 77
     6
176
     1
 78
     2
176
     1
 67
     7
176
     1
 79
     5
176
     1
170
     0
176
     1
171
     0
176
     1
290
     0
176
     1
 93
       13
176
     1
 44
0.0
176
     1
173
     0
176
     1
  0
VISUALSTYLE
  5
2E
102
{ACAD_REACTORS
330
2A
102
}
330
2A
100
AcDbVisualStyle
  2
GouraudWithEdges
 70
     3
177
     2
291
     1
 71
     2
176
     1
 72
     2
176
     1
 73
     1
176
     1
 90
        2
176
     1
 40
-0.6
176
     1
 41
30.0
176
     1
 62
     5
 63
     7
421
 16777215
176
     1
 74
     1
176
     1
 91
        4
176
     1
 64
     7
176
     1
 65
   257
176
     1
 75
     1
176
     1
175
     1
176
     1
 42
1.0
176
     1
 92
        0
176
     1
 66
   257
176
     1
 43
1.0
176
     1
 76
     1
176
     1
 77
     6
176
     1
 78
     2
176
     1
 67
     7
176
     1
 79
     5
176
     1
170
     0
176
     1
171
     0
176
     1
290
     0
176
     1
 93
       13
176
     1
 44
0.0
176
     1
173
     0
176
     1
  0
VISUALSTYLE
  5
38
102
{ACAD_REACTORS
330
2A
102
}
330
2A
100
AcDbVisualStyle
  2
Linepattern
 70
    14
177
     2
291
     1
 71
     2
176
     1
 72
     2
176
     1
 73
     0
176
     1
 90
        0
176
     1
 40
-0.6
176
     1
 41
-30.0
176
     1
 62
     5
 63
     7
421
 16777215
176
     1
 74
     1
176
     1
 91
        4
176
     1
 64
     7
176
     1
 65
   257
176
     1
 75
     7
176
     1
175
     7
176
     1
 42
1.0
176
     1
 92
        8
176
     1
 66
     7
176
     1
 43
1.0
176
     1
 76
     1
176
     1
 77
     6
176
     1
 78
     2
176
     1
 67
     7
176
     1
 79
     5
176
     1
170
     0
176
     1
171
     0
176
     1
290
     0
176
     1
 93
        1
176
     1
 44
0.0
176
     1
173
     0
176
     1
  0
VISUALSTYLE
  5
33
102
{ACAD_REACTORS
330
2A
102
}
330
2A
100
AcDbVisualStyle
  2
Realistic
 70
     8
177
     2
291
     0
 71
     2
176
     1
 72
     2
176
     1
 73
     0
176
     1
 90
        0
176
     1
 40
-0.6
176
     1
 41
-30.0
176
     1
 62
     5
 63
     7
421
 16777215
176
     1
 74
     1
176
     1
 91
        0
176
     1
 64
     7
176
     1
 65
   257
176
     1
 75
     1
176
     1
175
     1
176
     1
 42
1.0
176
     1
 92
        8
176
     1
 66
     8
424
  7895160
176
     1
 43
1.0
176
     1
 76
     1
176
     1
 77
     6
176
     1
 78
     2
176
     1
 67
     7
176
     1
 79
     5
176
     1
170
     0
176
     1
171
     0
176
     1
290
     0
176
     1
 93
       13
176
     1
 44
0.0
176
     1
173
     0
176
     1
  0
VISUALSTYLE
  5
37
102
{ACAD_REACTORS
330
2A
102
}
330
2A
100
AcDbVisualStyle
  2
Thicken
 70
    13
177
     2
291
     1
 71
     2
176
     1
 72
     2
176
     1
 73
     0
176
     1
 90
        0
176
     1
 40
-0.6
176
     1
 41
-30.0
176
     1
 62
     5
 63
     7
421
 16777215
176
     1
 74
     1
176
     1
 91
        4
176
     1
 64
     7
176
     1
 65
   257
176
     1
 75
     1
176
     1
175
     1
176
     1
 42
1.0
176
     1
 92
       12
176
     1
 66
     7
176
     1
 43
1.0
176
     1
 76
     1
176
     1
 77
     6
176
     1
 78
     2
176
     1
 67
     7
176
     1
 79
     5
176
     1
170
     0
176
     1
171
     0
176
     1
290
     0
176
     1
 93
        1
176
     1
 44
0.0
176
     1
173
     0
176
     1
  0
ENDSEC
  0
EOF
