  0
SECTION
  2
HEADER
  9
$ACADVER
  1
AC1024
  9
$ACADMAINTVER
 70
     6
  9
$DWGCODEPAGE
  3
UNDEFINED
  9
$INSBASE
 10
0.0
 20
0.0
 30
0.0
  9
$EXTMIN
 10
1.000000000000000E+20
 20
1.000000000000000E+20
 30
1.000000000000000E+20
  9
$EXTMAX
 10
-1.000000000000000E+20
 20
-1.000000000000000E+20
 30
-1.000000000000000E+20
  9
$LIMMIN
 10
0.0
 20
0.0
  9
$LIMMAX
 10
12.0
 20
9.0
  9
$ORTHOMODE
 70
     0
  9
$REGENMODE
 70
     1
  9
$FILLMODE
 70
     1
  9
$QTEXTMODE
 70
     0
  9
$MIRRTEXT
 70
     1
  9
$LTSCALE
 40
1.0
  9
$ATTMODE
 70
     1
  9
$TEXTSIZE
 40
0.2
  9
$TRACEWID
 40
0.05
  9
$TEXTSTYLE
  7
Standard
  9
$CLAYER
  8
0
  9
$CELTYPE
  6
ByLayer
  9
$CECOLOR
 62
   256
  9
$CELTSCALE
 40
1.0
  9
$DISPSILH
 70
     0
  9
$DIMSCALE
 40
1.0
  9
$DIMASZ
 40
0.18
  9
$DIMEXO
 40
0.0625
  9
$DIMDLI
 40
0.38
  9
$DIMRND
 40
0.0
  9
$DIMDLE
 40
0.0
  9
$DIMEXE
 40
0.18
  9
$DIMTP
 40
0.0
  9
$DIMTM
 40
0.0
  9
$DIMTXT
 40
0.18
  9
$DIMCEN
 40
0.09
  9
$DIMTSZ
 40
0.0
  9
$DIMTOL
 70
     0
  9
$DIMLIM
 70
     0
  9
$DIMTIH
 70
     1
  9
$DIMTOH
 70
     1
  9
$DIMSE1
 70
     0
  9
$DIMSE2
 70
     0
  9
$DIMTAD
 70
     0
  9
$DIMZIN
 70
     0
  9
$DIMBLK
  1

  9
$DIMASO
 70
     1
  9
$DIMSHO
 70
     1
  9
$DIMPOST
  1

  9
$DIMAPOST
  1

  9
$DIMALT
 70
     0
  9
$DIMALTD
 70
     2
  9
$DIMALTF
 40
25.4
  9
$DIMLFAC
 40
1.0
  9
$DIMTOFL
 70
     0
  9
$DIMTVP
 40
0.0
  9
$DIMTIX
 70
     0
  9
$DIMSOXD
 70
     0
  9
$DIMSAH
 70
     0
  9
$DIMBLK1
  1

  9
$DIMBLK2
  1

  9
$DIMSTYLE
  2
Standard
  9
$DIMCLRD
 70
     0
  9
$DIMCLRE
 70
     0
  9
$DIMCLRT
 70
     0
  9
$DIMTFAC
 40
1.0
  9
$DIMGAP
 40
0.09
  9
$DIMJUST
 70
     0
  9
$DIMSD1
 70
     0
  9
$DIMSD2
 70
     0
  9
$DIMTOLJ
 70
     1
  9
$DIMTZIN
 70
     0
  9
$DIMALTZ
 70
     0
  9
$DIMALTTZ
 70
     0
  9
$DIMUPT
 70
     0
  9
$DIMDEC
 70
     4
  9
$DIMTDEC
 70
     4
  9
$DIMALTU
 70
     2
  9
$DIMALTTD
 70
     2
  9
$DIMTXSTY
  7
Standard
  9
$DIMAUNIT
 70
     0
  9
$DIMADEC
 70
     0
  9
$DIMALTRND
 40
0.0
  9
$DIMAZIN
 70
     0
  9
$DIMDSEP
 70
    46
  9
$DIMATFIT
 70
     3
  9
$DIMFRAC
 70
     0
  9
$DIMLDRBLK
  1

  9
$DIMLUNIT
 70
     2
  9
$DIMLWD
 70
    -2
  9
$DIMLWE
 70
    -2
  9
$DIMTMOVE
 70
     0
  9
$DIMFXL
 40
1.0
  9
$DIMFXLON
 70
     0
  9
$DIMJOGANG
 40
0.7853981633974483
  9
$DIMTFILL
 70
     0
  9
$DIMTFILLCLR
 70
     0
  9
$DIMARCSYM
 70
     0
  9
$DIMLTYPE
  6

  9
$DIMLTEX1
  6

  9
$DIMLTEX2
  6

  9
$DIMTXTDIRECTION
 70
     0
  9
$LUNITS
 70
     2
  9
$LUPREC
 70
     4
  9
$SKETCHINC
 40
0.1
  9
$FILLETRAD
 40
0.5
  9
$AUNITS
 70
     0
  9
$AUPREC
 70
     0
  9
$MENU
  1
.
  9
$ELEVATION
 40
0.0
  9
$PELEVATION
 40
0.0
  9
$THICKNESS
 40
0.0
  9
$LIMCHECK
 70
     0
  9
$CHAMFERA
 40
0.5
  9
$CHAMFERB
 40
0.5
  9
$CHAMFERC
 40
1.0
  9
$CHAMFERD
 40
0.0
  9
$SKPOLY
 70
     0
  9
$TDCREATE
 40
2457917.628773148
  9
$TDUCREATE
 40
2457917.253773148
  9
$TDUPDATE
 40
2457917.628773148
  9
$TDUUPDATE
 40
2457917.253773148
  9
$TDINDWG
 40
0.0000000116
  9
$TDUSRTIMER
 40
0.0000000116
  9
$USRTIMER
 70
     1
  9
$ANGBASE
 50
0.0
  9
$ANGDIR
 70
     0
  9
$PDMODE
 70
     0
  9
$PDSIZE
 40
0.0
  9
$PLINEWID
 40
0.0
  9
$SPLFRAME
 70
     0
  9
$SPLINETYPE
 70
     6
  9
$SPLINESEGS
 70
     8
  9
$HANDSEED
  5
23B
  9
$SURFTAB1
 70
     6
  9
$SURFTAB2
 70
     6
  9
$SURFTYPE
 70
     6
  9
$SURFU
 70
     6
  9
$SURFV
 70
     6
  9
$UCSBASE
  2

  9
$UCSNAME
  2

  9
$UCSORG
 10
0.0
 20
0.0
 30
0.0
  9
$UCSXDIR
 10
1.0
 20
0.0
 30
0.0
  9
$UCSYDIR
 10
0.0
 20
1.0
 30
0.0
  9
$UCSORTHOREF
  2

  9
$UCSORTHOVIEW
 70
     0
  9
$UCSORGTOP
 10
0.0
 20
0.0
 30
0.0
  9
$UCSORGBOTTOM
 10
0.0
 20
0.0
 30
0.0
  9
$UCSORGLEFT
 10
0.0
 20
0.0
 30
0.0
  9
$UCSORGRIGHT
 10
0.0
 20
0.0
 30
0.0
  9
$UCSORGFRONT
 10
0.0
 20
0.0
 30
0.0
  9
$UCSORGBACK
 10
0.0
 20
0.0
 30
0.0
  9
$PUCSBASE
  2

  9
$PUCSNAME
  2

  9
$PUCSORG
 10
0.0
 20
0.0
 30
0.0
  9
$PUCSXDIR
 10
1.0
 20
0.0
 30
0.0
  9
$PUCSYDIR
 10
0.0
 20
1.0
 30
0.0
  9
$PUCSORTHOREF
  2

  9
$PUCSORTHOVIEW
 70
     0
  9
$PUCSORGTOP
 10
0.0
 20
0.0
 30
0.0
  9
$PUCSORGBOTTOM
 10
0.0
 20
0.0
 30
0.0
  9
$PUCSORGLEFT
 10
0.0
 20
0.0
 30
0.0
  9
$PUCSORGRIGHT
 10
0.0
 20
0.0
 30
0.0
  9
$PUCSORGFRONT
 10
0.0
 20
0.0
 30
0.0
  9
$PUCSORGBACK
 10
0.0
 20
0.0
 30
0.0
  9
$USERI1
 70
     0
  9
$USERI2
 70
     0
  9
$USERI3
 70
     0
  9
$USERI4
 70
     0
  9
$USERI5
 70
     0
  9
$USERR1
 40
0.0
  9
$USERR2
 40
0.0
  9
$USERR3
 40
0.0
  9
$USERR4
 40
0.0
  9
$USERR5
 40
0.0
  9
$WORLDVIEW
 70
     1
  9
$SHADEDGE
 70
     3
  9
$SHADEDIF
 70
    70
  9
$TILEMODE
 70
     1
  9
$MAXACTVP
 70
    64
  9
$PINSBASE
 10
0.0
 20
0.0
 30
0.0
  9
$PLIMCHECK
 70
     0
  9
$PEXTMIN
 10
1.000000000000000E+20
 20
1.000000000000000E+20
 30
1.000000000000000E+20
  9
$PEXTMAX
 10
-1.000000000000000E+20
 20
-1.000000000000000E+20
 30
-1.000000000000000E+20
  9
$PLIMMIN
 10
0.0
 20
0.0
  9
$PLIMMAX
 10
12.0
 20
9.0
  9
$UNITMODE
 70
     0
  9
$VISRETAIN
 70
     1
  9
$PLINEGEN
 70
     0
  9
$PSLTSCALE
 70
     1
  9
$TREEDEPTH
 70
  3020
  9
$CMLSTYLE
  2
Standard
  9
$CMLJUST
 70
     0
  9
$CMLSCALE
 40
1.0
  9
$PROXYGRAPHICS
 70
     1
  9
$MEASUREMENT
 70
     0
  9
$CELWEIGHT
370
    -1
  9
$ENDCAPS
280
     0
  9
$JOINSTYLE
280
     0
  9
$LWDISPLAY
290
     1
  9
$INSUNITS
 70
     1
  9
$HYPERLINKBASE
  1

  9
$STYLESHEET
  1

  9
$XEDIT
290
     1
  9
$CEPSNTYPE
380
     0
  9
$PSTYLEMODE
290
     1
  9
$FINGERPRINTGUID
  2
{DA49E5AC-262F-A63D-50EF-E9AB21308D75}
  9
$VERSIONGUID
  2
{FAEB1C32-E019-11D5-929B-00C0DF256EC4}
  9
$EXTNAMES
290
     1
  9
$PSVPSCALE
 40
0.0
  9
$OLESTARTUP
290
     0
  9
$SORTENTS
280
   127
  9
$INDEXCTL
280
     0
  9
$HIDETEXT
280
     1
  9
$XCLIPFRAME
280
     2
  9
$HALOGAP
280
     0
  9
$OBSCOLOR
 70
   257
  9
$OBSLTYPE
280
     0
  9
$INTERSECTIONDISPLAY
280
     0
  9
$INTERSECTIONCOLOR
 70
   257
  9
$DIMASSOC
280
     2
  9
$PROJECTNAME
  1

  9
$CAMERADISPLAY
290
     0
  9
$LENSLENGTH
 40
50.0
  9
$CAMERAHEIGHT
 40
0.0
  9
$STEPSPERSEC
 40
2.0
  9
$STEPSIZE
 40
6.0
  9
$3DDWFPREC
 40
2.0
  9
$PSOLWIDTH
 40
0.25
  9
$PSOLHEIGHT
 40
4.0
  9
$LOFTANG1
 40
1.570796326794897
  9
$LOFTANG2
 40
1.570796326794897
  9
$LOFTMAG1
 40
0.0
  9
$LOFTMAG2
 40
0.0
  9
$LOFTPARAM
 70
     7
  9
$LOFTNORMALS
280
     1
  9
$LATITUDE
 40
37.795
  9
$LONGITUDE
 40
-122.394
  9
$NORTHDIRECTION
 40
0.0
  9
$TIMEZONE
 70
 -8000
  9
$LIGHTGLYPHDISPLAY
280
     1
  9
$TILEMODELIGHTSYNCH
280
     1
  9
$CMATERIAL
347
3C
  9
$SOLIDHIST
280
     1
  9
$SHOWHIST
280
     1
  9
$DWFFRAME
280
     2
  9
$DGNFRAME
280
     2
  9
$REALWORLDSCALE
290
     1
  9
$INTERFERECOLOR
 62
   256
  9
$CSHADOW
280
     0
  9
$SHADOWPLANELOCATION
 40
0.0
  0
ENDSEC
  0
SECTION
  2
CLASSES
  0
CLASS
  1
ACDBDICTIONARYWDFLT
  2
AcDbDictionaryWithDefault
  3
ObjectDBX Classes
 90
        0
 91
        4
280
     0
281
     0
  0
CLASS
  1
VISUALSTYLE
  2
AcDbVisualStyle
  3
ObjectDBX Classes
 90
     4095
 91
        4
280
     0
281
     0
  0
CLASS
  1
MATERIAL
  2
AcDbMaterial
  3
ObjectDBX Classes
 90
     1153
 91
        4
280
     0
281
     0
  0
CLASS
  1
SUN
  2
AcDbSun
  3
SCENEOE
 90
     1024
 91
        4
280
     0
281
     0
  0
ENDSEC
  0
SECTION
  2
TABLES
  0
TABLE
  2
VPORT
  5
8
330
0
100
AcDbSymbolTable
 70
     1
  0
VPORT
  5
29
330
8
100
AcDbSymbolTableRecord
100
AcDbViewportTableRecord
  2
*Active
 70
     0
 10
0.0
 20
0.0
 11
1.0
 21
1.0
 12
0.0
 22
0.0
 13
0.0
 23
0.0
 14
0.5
 24
0.5
 15
0.5
 25
0.5
 16
0.0
 26
0.0
 36
1.0
 17
91.00082462281999
 27
-128.4993055234307
 37
0.0
 40
256.9986110468615
 41
0.7081814508812795
 42
50.0
 43
0.0
 44
0.0
 50
0.0
 51
0.0
 71
     0
 72
   100
 73
     1
 74
     3
 75
     0
 76
     0
 77
     0
 78
     0
281
     0
 65
     1
110
0.0
120
0.0
130
0.0
111
1.0
121
0.0
131
0.0
112
0.0
122
1.0
132
0.0
 79
     0
146
0.0
 60
     3
 61
     5
292
     1
282
     1
141
0.0
142
0.0
 63
   250
361
3F
  0
ENDTAB
  0
TABLE
  2
LTYPE
  5
5
330
0
100
AcDbSymbolTable
 70
     2
  0
LTYPE
  5
14
330
5
100
AcDbSymbolTableRecord
100
AcDbLinetypeTableRecord
  2
ByBlock
 70
     0
  3

 72
    65
 73
     0
 40
0.0
  0
LTYPE
  5
15
330
5
100
AcDbSymbolTableRecord
100
AcDbLinetypeTableRecord
  2
ByLayer
 70
     0
  3

 72
    65
 73
     0
 40
0.0
  0
LTYPE
  5
16
330
5
100
AcDbSymbolTableRecord
100
AcDbLinetypeTableRecord
  2
Continuous
 70
     0
  3
Solid line
 72
    65
 73
     0
 40
0.0
  0
LTYPE
  5
C7
330
5
100
AcDbSymbolTableRecord
100
AcDbLinetypeTableRecord
  2
AI-Linetype-1
 70
     0
  3
Adobe Illustrator Linetype No. 1
 72
    65
 73
     6
 40
2.999994026864595
 49
0.4999990044774325
 74
     0
 49
-0.4999990044774325
 74
     0
 49
0.4999990044774325
 74
     0
 49
-0.4999990044774325
 74
     0
 49
0.4999990044774325
 74
     0
 49
-0.4999990044774325
 74
     0
  0
ENDTAB
  0
TABLE
  2
LAYER
  5
2
330
0
100
AcDbSymbolTable
 70
     2
  0
LAYER
  5
10
330
2
100
AcDbSymbolTableRecord
100
AcDbLayerTableRecord
  2
0
 70
     0
 62
     7
  6
Continuous
370
    -3
390
F
347
3E
  0
LAYER
  5
40
330
2
100
AcDbSymbolTableRecord
100
AcDbLayerTableRecord
  2
_U+30EC_U+30A4_U+30E4_U+30FC 1
 70
     0
 62
     7
  6
Continuous
370
    -3
390
F
347
3E
  0
ENDTAB
  0
TABLE
  2
STYLE
  5
3
330
0
100
AcDbSymbolTable
 70
     1
  0
STYLE
  5
11
330
3
100
AcDbSymbolTableRecord
100
AcDbTextStyleTableRecord
  2
Standard
 70
     0
 40
0.0
 41
1.0
 50
0.0
 71
     0
 42
0.2
  3
txt
  4

  0
ENDTAB
  0
TABLE
  2
VIEW
  5
6
330
0
100
AcDbSymbolTable
 70
     0
  0
ENDTAB
  0
TABLE
  2
UCS
  5
7
330
0
100
AcDbSymbolTable
 70
     0
  0
ENDTAB
  0
TABLE
  2
APPID
  5
9
330
0
100
AcDbSymbolTable
 70
     1
  0
APPID
  5
12
330
9
100
AcDbSymbolTableRecord
100
AcDbRegAppTableRecord
  2
ACAD
 70
     0
  0
ENDTAB
  0
TABLE
  2
DIMSTYLE
  5
A
330
0
100
AcDbSymbolTable
 70
     1
100
AcDbDimStyleTable
  0
DIMSTYLE
105
27
330
A
100
AcDbSymbolTableRecord
100
AcDbDimStyleTableRecord
  2
Standard
 70
     0
178
     0
340
11
  0
ENDTAB
  0
TABLE
  2
BLOCK_RECORD
  5
1
330
0
100
AcDbSymbolTable
 70
     7
  0
BLOCK_RECORD
  5
1F
330
1
100
AcDbSymbolTableRecord
100
AcDbBlockTableRecord
  2
*Model_Space
340
22
 70
     0
280
     1
281
     0
  0
BLOCK_RECORD
  5
1B
330
1
100
AcDbSymbolTableRecord
100
AcDbBlockTableRecord
  2
*Paper_Space
340
1E
 70
     0
280
     1
281
     0
  0
BLOCK_RECORD
  5
23
330
1
100
AcDbSymbolTableRecord
100
AcDbBlockTableRecord
  2
*Paper_Space0
340
26
 70
     0
280
     1
281
     0
  0
BLOCK_RECORD
  5
45
330
1
100
AcDbSymbolTableRecord
100
AcDbBlockTableRecord
  2
block 2
340
0
102
{BLKREFS
331
46
102
}
 70
     0
280
     1
281
     0
  0
BLOCK_RECORD
  5
A3
330
1
100
AcDbSymbolTableRecord
100
AcDbBlockTableRecord
  2
block 3
340
0
102
{BLKREFS
331
A4
102
}
 70
     0
280
     1
281
     0
  0
BLOCK_RECORD
  5
AD
330
1
100
AcDbSymbolTableRecord
100
AcDbBlockTableRecord
  2
block 4
340
0
102
{BLKREFS
331
AE
102
}
 70
     0
280
     1
281
     0
  0
BLOCK_RECORD
  5
1A4
330
1
100
AcDbSymbolTableRecord
100
AcDbBlockTableRecord
  2
block 5
340
0
102
{BLKREFS
331
1A5
102
}
 70
     0
280
     1
281
     0
  0
BLOCK_RECORD
  5
1F4
330
1
100
AcDbSymbolTableRecord
100
AcDbBlockTableRecord
  2
block 6
340
0
102
{BLKREFS
331
1F5
102
}
 70
     0
280
     1
281
     0
  0
BLOCK_RECORD
  5
21B
330
1
100
AcDbSymbolTableRecord
100
AcDbBlockTableRecord
  2
block 7
340
0
102
{BLKREFS
331
21C
102
}
 70
     0
280
     1
281
     0
  0
ENDTAB
  0
ENDSEC
  0
SECTION
  2
BLOCKS
  0
BLOCK
  5
20
330
1F
100
AcDbEntity
  8
0
100
AcDbBlockBegin
  2
*Model_Space
 70
     0
 10
0.0
 20
0.0
 30
0.0
  3
*Model_Space
  1

  0
ENDBLK
  5
21
330
1F
100
AcDbEntity
  8
0
100
AcDbBlockEnd
  0
BLOCK
  5
1C
330
1B
100
AcDbEntity
 67
     1
  8
0
100
AcDbBlockBegin
  2
*Paper_Space
 70
     0
 10
0.0
 20
0.0
 30
0.0
  3
*Paper_Space
  1

  0
ENDBLK
  5
1D
330
1B
100
AcDbEntity
 67
     1
  8
0
100
AcDbBlockEnd
  0
BLOCK
  5
24
330
23
100
AcDbEntity
  8
0
100
AcDbBlockBegin
  2
*Paper_Space0
 70
     0
 10
0.0
 20
0.0
 30
0.0
  3
*Paper_Space0
  1

  0
ENDBLK
  5
25
330
23
100
AcDbEntity
  8
0
100
AcDbBlockEnd
  0
BLOCK
  5
47
330
45
100
AcDbEntity
  8
0
100
AcDbBlockBegin
  2
block 2
 70
     0
 10
0.0
 20
0.0
 30
0.0
  3
block 2
  1

  0
POLYLINE
  5
49
330
45
100
AcDbEntity
  8
_U+30EC_U+30A4_U+30E4_U+30FC 1
370
     0
100
AcDb2dPolyline
 66
     1
 10
0.0
 20
0.0
 30
0.0
  0
VERTEX
  5
4A
330
49
100
AcDbEntity
  8
_U+30EC_U+30A4_U+30E4_U+30FC 1
370
     0
100
AcDbVertex
100
AcDb2dVertex
 10
101.1438693323529
 20
-158.2180772173899
 30
0.0
  0
VERTEX
  5
4B
330
49
100
AcDbEntity
  8
_U+30EC_U+30A4_U+30E4_U+30FC 1
370
     0
100
AcDbVertex
100
AcDb2dVertex
 10
101.1438693323529
 20
-158.5649983327546
 30
0.0
  0
VERTEX
  5
4C
330
49
100
AcDbEntity
  8
_U+30EC_U+30A4_U+30E4_U+30FC 1
370
     0
100
AcDbVertex
100
AcDb2dVertex
 10
100.9261392976851
 20
-158.5649983327546
 30
0.0
  0
VERTEX
  5
4D
330
49
100
AcDbEntity
  8
_U+30EC_U+30A4_U+30E4_U+30FC 1
370
     0
100
AcDbVertex
100
AcDb2dVertex
 10
100.9261392976851
 20
-158.2180772173899
 30
0.0
  0
VERTEX
  5
4E
330
49
100
AcDbEntity
  8
_U+30EC_U+30A4_U+30E4_U+30FC 1
370
     0
100
AcDbVertex
100
AcDb2dVertex
 10
100.2701931172936
 20
-158.2180772173899
 30
0.0
  0
VERTEX
  5
4F
330
49
100
AcDbEntity
  8
_U+30EC_U+30A4_U+30E4_U+30FC 1
370
     0
100
AcDbVertex
100
AcDb2dVertex
 10
100.2701931172936
 20
-157.9938015013002
 30
0.0
  0
VERTEX
  5
50
330
49
100
AcDbEntity
  8
_U+30EC_U+30A4_U+30E4_U+30FC 1
370
     0
100
AcDbVertex
100
AcDb2dVertex
 10
100.9488769278878
 20
-157.0205620267171
 30
0.0
  0
VERTEX
  5
51
330
49
100
AcDbEntity
  8
_U+30EC_U+30A4_U+30E4_U+30FC 1
370
     0
100
AcDbVertex
100
AcDb2dVertex
 10
101.1438693323529
 20
-157.0205620267171
 30
0.0
  0
VERTEX
  5
52
330
49
100
AcDbEntity
  8
_U+30EC_U+30A4_U+30E4_U+30FC 1
370
     0
100
AcDbVertex
100
AcDb2dVertex
 10
101.1438693323529
 20
-158.019295207891
 30
0.0
  0
VERTEX
  5
53
330
49
100
AcDbEntity
  8
_U+30EC_U+30A4_U+30E4_U+30FC 1
370
     0
100
AcDbVertex
100
AcDb2dVertex
 10
101.351264080565
 20
-158.019295207891
 30
0.0
  0
VERTEX
  5
54
330
49
100
AcDbEntity
  8
_U+30EC_U+30A4_U+30E4_U+30FC 1
370
     0
100
AcDbVertex
100
AcDb2dVertex
 10
101.351264080565
 20
-158.2180772173899
 30
0.0
  0
VERTEX
  5
55
330
49
100
AcDbEntity
  8
_U+30EC_U+30A4_U+30E4_U+30FC 1
370
     0
100
AcDbVertex
100
AcDb2dVertex
 10
101.1438693323529
 20
-158.2180772173899
 30
0.0
  0
SEQEND
  5
56
330
49
100
AcDbEntity
  8
_U+30EC_U+30A4_U+30E4_U+30FC 1
370
     0
  0
POLYLINE
  5
57
330
45
100
AcDbEntity
  8
_U+30EC_U+30A4_U+30E4_U+30FC 1
370
     0
100
AcDb2dPolyline
 66
     1
 10
0.0
 20
0.0
 30
0.0
  0
VERTEX
  5
58
330
57
100
AcDbEntity
  8
_U+30EC_U+30A4_U+30E4_U+30FC 1
370
     0
100
AcDbVertex
100
AcDb2dVertex
 10
100.9261392976851
 20
-157.3633490274995
 30
0.0
  0
VERTEX
  5
59
330
57
100
AcDbEntity
  8
_U+30EC_U+30A4_U+30E4_U+30FC 1
370
     0
100
AcDbVertex
100
AcDb2dVertex
 10
100.468630617244
 20
-158.019295207891
 30
0.0
  0
VERTEX
  5
5A
330
57
100
AcDbEntity
  8
_U+30EC_U+30A4_U+30E4_U+30FC 1
370
     0
100
AcDbVertex
100
AcDb2dVertex
 10
100.9261392976851
 20
-158.019295207891
 30
0.0
  0
VERTEX
  5
5B
330
57
100
AcDbEntity
  8
_U+30EC_U+30A4_U+30E4_U+30FC 1
370
     0
100
AcDbVertex
100
AcDb2dVertex
 10
100.9261392976851
 20
-157.3633490274995
 30
0.0
  0
SEQEND
  5
5C
330
57
100
AcDbEntity
  8
_U+30EC_U+30A4_U+30E4_U+30FC 1
370
     0
  0
HATCH
  5
5D
330
45
100
AcDbEntity
  8
_U+30EC_U+30A4_U+30E4_U+30FC 1
 62
   179
420
  2234388
100
AcDbHatch
 10
0.0
 20
0.0
 30
0.0
210
0.0
220
0.0
230
1.0
  2
SOLID
 70
     1
 71
     0
 91
        2
 92
        1
 93
       11
 72
     1
 10
101.1438693323529
 20
-158.2180772173899
 11
101.1438693323529
 21
-158.5649983327546
 72
     1
 10
101.1438693323529
 20
-158.5649983327546
 11
100.9261392976851
 21
-158.5649983327546
 72
     1
 10
100.9261392976851
 20
-158.5649983327546
 11
100.9261392976851
 21
-158.2180772173899
 72
     1
 10
100.9261392976851
 20
-158.2180772173899
 11
100.2701931172936
 21
-158.2180772173899
 72
     1
 10
100.2701931172936
 20
-158.2180772173899
 11
100.2701931172936
 21
-157.9938015013002
 72
     1
 10
100.2701931172936
 20
-157.9938015013002
 11
100.9488769278878
 21
-157.0205620267171
 72
     1
 10
100.9488769278878
 20
-157.0205620267171
 11
101.1438693323529
 21
-157.0205620267171
 72
     1
 10
101.1438693323529
 20
-157.0205620267171
 11
101.1438693323529
 21
-158.019295207891
 72
     1
 10
101.1438693323529
 20
-158.019295207891
 11
101.351264080565
 21
-158.019295207891
 72
     1
 10
101.351264080565
 20
-158.019295207891
 11
101.351264080565
 21
-158.2180772173899
 72
     1
 10
101.351264080565
 20
-158.2180772173899
 11
101.1438693323529
 21
-158.2180772173899
 97
        0
 92
        1
 93
        3
 72
     1
 10
100.9261392976851
 20
-157.3633490274995
 11
100.468630617244
 21
-158.019295207891
 72
     1
 10
100.468630617244
 20
-158.019295207891
 11
100.9261392976851
 21
-158.019295207891
 72
     1
 10
100.9261392976851
 20
-158.019295207891
 11
100.9261392976851
 21
-157.3633490274995
 97
        0
 75
     2
 76
     1
 98
        0
  0
POLYLINE
  5
5E
330
45
100
AcDbEntity
  8
_U+30EC_U+30A4_U+30E4_U+30FC 1
370
     0
100
AcDb2dPolyline
 66
     1
 10
0.0
 20
0.0
 30
0.0
  0
VERTEX
  5
5F
330
5E
100
AcDbEntity
  8
_U+30EC_U+30A4_U+30E4_U+30FC 1
370
     0
100
AcDbVertex
100
AcDb2dVertex
 10
101.5483235423213
 20
-158.5649983327546
 30
0.0
  0
VERTEX
  5
60
330
5E
100
AcDbEntity
  8
_U+30EC_U+30A4_U+30E4_U+30FC 1
370
     0
100
AcDbVertex
100
AcDb2dVertex
 10
101.5483235423213
 20
-158.3131618527828
 30
0.0
  0
VERTEX
  5
61
330
5E
100
AcDbEntity
  8
_U+30EC_U+30A4_U+30E4_U+30FC 1
370
     0
100
AcDbVertex
100
AcDb2dVertex
 10
101.8005045318415
 20
-158.3131618527828
 30
0.0
  0
VERTEX
  5
62
330
5E
100
AcDbEntity
  8
_U+30EC_U+30A4_U+30E4_U+30FC 1
370
     0
100
AcDbVertex
100
AcDb2dVertex
 10
101.8005045318415
 20
-158.5649983327546
 30
0.0
  0
VERTEX
  5
63
330
5E
100
AcDbEntity
  8
_U+30EC_U+30A4_U+30E4_U+30FC 1
370
     0
100
AcDbVertex
100
AcDb2dVertex
 10
101.5483235423213
 20
-158.5649983327546
 30
0.0
  0
SEQEND
  5
64
330
5E
100
AcDbEntity
  8
_U+30EC_U+30A4_U+30E4_U+30FC 1
370
     0
  0
HATCH
  5
65
330
45
100
AcDbEntity
  8
_U+30EC_U+30A4_U+30E4_U+30FC 1
 62
   179
420
  2234388
100
AcDbHatch
 10
0.0
 20
0.0
 30
0.0
210
0.0
220
0.0
230
1.0
  2
SOLID
 70
     1
 71
     0
 91
        1
 92
        1
 93
        4
 72
     1
 10
101.5483235423213
 20
-158.5649983327546
 11
101.5483235423213
 21
-158.3131618527828
 72
     1
 10
101.5483235423213
 20
-158.3131618527828
 11
101.8005045318415
 21
-158.3131618527828
 72
     1
 10
101.8005045318415
 20
-158.3131618527828
 11
101.8005045318415
 21
-158.5649983327546
 72
     1
 10
101.8005045318415
 20
-158.5649983327546
 11
101.5483235423213
 21
-158.5649983327546
 97
        0
 75
     2
 76
     1
 98
        0
  0
SPLINE
  5
66
330
45
100
AcDbEntity
  8
_U+30EC_U+30A4_U+30E4_U+30FC 1
370
     0
100
AcDbSpline
210
0.0
220
0.0
230
1.0
 70
    11
 71
     3
 72
    62
 73
    58
 74
     0
 42
0.0000000001
 43
0.0000000001
 12
1.0
 22
0.0
 32
0.0
 13
1.0
 23
0.0
 33
0.0
 40
0.0
 40
0.0
 40
0.0
 40
0.0
 40
1.0
 40
1.0
 40
1.0
 40
2.0
 40
2.0
 40
2.0
 40
3.0
 40
3.0
 40
3.0
 40
4.0
 40
4.0
 40
4.0
 40
5.0
 40
5.0
 40
5.0
 40
6.0
 40
6.0
 40
6.0
 40
7.0
 40
7.0
 40
7.0
 40
8.0
 40
8.0
 40
8.0
 40
9.0
 40
9.0
 40
9.0
 40
10.0
 40
10.0
 40
10.0
 40
11.0
 40
11.0
 40
11.0
 40
12.0
 40
12.0
 40
12.0
 40
13.0
 40
13.0
 40
13.0
 40
14.0
 40
14.0
 40
14.0
 40
15.0
 40
15.0
 40
15.0
 40
16.0
 40
16.0
 40
16.0
 40
17.0
 40
17.0
 40
17.0
 40
18.0
 40
18.0
 40
18.0
 40
19.0
 40
19.0
 40
19.0
 40
19.0
 10
102.5281086983263
 20
-158.6156412363878
 30
0.0
 10
102.4330240629334
 20
-158.6156412363878
 30
0.0
 10
102.2152940282656
 20
-158.5946261539277
 30
0.0
 10
102.0898925526025
 20
-158.4085909977242
 30
0.0
 10
102.0161675092182
 20
-158.2962808849051
 30
0.0
 10
102.0120333946359
 20
-158.1970621349299
 30
0.0
 10
102.0078992800536
 20
-158.1123127859928
 30
0.0
 10
102.0078992800536
 20
-158.1123127859928
 30
0.0
 10
102.2276963720125
 20
-158.1123127859928
 30
0.0
 10
102.2276963720125
 20
-158.1123127859928
 30
0.0
 10
102.2297634293037
 20
-158.1863823389256
 30
0.0
 10
102.2400987157594
 20
-158.4209933414712
 30
0.0
 10
102.523974583744
 20
-158.4209933414712
 30
0.0
 10
102.661089384057
 20
-158.4209933414712
 30
0.0
 10
102.814051623602
 20
-158.3514024126691
 30
0.0
 10
102.814051623602
 20
-158.122992581997
 30
0.0
 10
102.814051623602
 20
-158.0065483545956
 30
0.0
 10
102.7754665541673
 20
-157.9579725082536
 30
0.0
 10
102.7437716757029
 20
-157.9262776297893
 30
0.0
 10
102.6700466323186
 20
-157.8522080768564
 30
0.0
 10
102.5536024049172
 20
-157.839461223561
 30
0.0
 10
102.4984808771532
 20
-157.839461223561
 30
0.0
 10
102.4791883424358
 20
-157.839461223561
 30
0.0
 10
102.4433593493892
 20
-157.8415282808521
 30
0.0
 10
102.4157985855072
 20
-157.8456623954344
 30
0.0
 10
102.4157985855072
 20
-157.8456623954344
 30
0.0
 10
102.4157985855072
 20
-157.6510145005178
 30
0.0
 10
102.4157985855072
 20
-157.6510145005178
 30
0.0
 10
102.454383654942
 20
-157.6575601819398
 30
0.0
 10
102.496413819862
 20
-157.6596272392309
 30
0.0
 10
102.5026149917355
 20
-157.6596272392309
 30
0.0
 10
102.5680718059552
 20
-157.6596272392309
 30
0.0
 10
102.7671983250027
 20
-157.6382676472224
 30
0.0
 10
102.7671983250027
 20
-157.4015895873857
 30
0.0
 10
102.7671983250027
 20
-157.2238226603468
 30
0.0
 10
102.6362846965632
 20
-157.1687011325828
 30
0.0
 10
102.5260416410352
 20
-157.1687011325828
 30
0.0
 10
102.261458307768
 20
-157.1687011325828
 30
0.0
 10
102.2531900786034
 20
-157.4015895873857
 30
0.0
 10
102.2490559640211
 20
-157.4732475734789
 30
0.0
 10
102.2490559640211
 20
-157.4732475734789
 30
0.0
 10
102.0457953303913
 20
-157.4732475734789
 30
0.0
 10
102.0457953303913
 20
-157.4732475734789
 30
0.0
 10
102.0540635595559
 20
-157.3485351169129
 30
0.0
 10
102.0816243234379
 20
-156.9719861803751
 30
0.0
 10
102.5384439847821
 20
-156.9719861803751
 30
0.0
 10
102.7630642104204
 20
-156.9719861803751
 30
0.0
 10
103.0042208943878
 20
-157.0991102037808
 30
0.0
 10
103.0042208943878
 20
-157.3950439059637
 30
0.0
 10
103.0042208943878
 20
-157.5814235717158
 30
0.0
 10
102.9091362589949
 20
-157.6637613538132
 30
0.0
 10
102.8092284899227
 20
-157.7250840534507
 30
0.0
 10
102.8705511895601
 20
-157.7526448173327
 30
0.0
 10
103.0524522311813
 20
-157.832915542139
 30
0.0
 10
103.0524522311813
 20
-158.1102457287016
 30
0.0
 10
103.0524522311813
 20
-158.4485541053531
 30
0.0
 10
102.8050943753404
 20
-158.6156412363878
 30
0.0
 10
102.5281086983263
 20
-158.6156412363878
 30
0.0
  0
HATCH
  5
67
330
45
100
AcDbEntity
  8
_U+30EC_U+30A4_U+30E4_U+30FC 1
 62
   179
420
  2234388
100
AcDbHatch
 10
0.0
 20
0.0
 30
0.0
210
0.0
220
0.0
230
1.0
  2
SOLID
 70
     1
 71
     0
 91
        1
 92
        1
 93
        1
 72
     4
 94
        3
 73
     0
 74
     1
 95
       62
 96
       58
 40
0.0
 40
0.0
 40
0.0
 40
0.0
 40
1.0
 40
1.0
 40
1.0
 40
2.0
 40
2.0
 40
2.0
 40
3.0
 40
3.0
 40
3.0
 40
4.0
 40
4.0
 40
4.0
 40
5.0
 40
5.0
 40
5.0
 40
6.0
 40
6.0
 40
6.0
 40
7.0
 40
7.0
 40
7.0
 40
8.0
 40
8.0
 40
8.0
 40
9.0
 40
9.0
 40
9.0
 40
10.0
 40
10.0
 40
10.0
 40
11.0
 40
11.0
 40
11.0
 40
12.0
 40
12.0
 40
12.0
 40
13.0
 40
13.0
 40
13.0
 40
14.0
 40
14.0
 40
14.0
 40
15.0
 40
15.0
 40
15.0
 40
16.0
 40
16.0
 40
16.0
 40
17.0
 40
17.0
 40
17.0
 40
18.0
 40
18.0
 40
18.0
 40
19.0
 40
19.0
 40
19.0
 40
19.0
 10
102.5281086983263
 20
-158.6156412363878
 10
102.4330240629334
 20
-158.6156412363878
 10
102.2152940282656
 20
-158.5946261539277
 10
102.0898925526025
 20
-158.4085909977242
 10
102.0161675092182
 20
-158.2962808849051
 10
102.0120333946359
 20
-158.1970621349299
 10
102.0078992800536
 20
-158.1123127859928
 10
102.0078992800536
 20
-158.1123127859928
 10
102.2276963720125
 20
-158.1123127859928
 10
102.2276963720125
 20
-158.1123127859928
 10
102.2297634293037
 20
-158.1863823389256
 10
102.2400987157594
 20
-158.4209933414712
 10
102.523974583744
 20
-158.4209933414712
 10
102.661089384057
 20
-158.4209933414712
 10
102.814051623602
 20
-158.3514024126691
 10
102.814051623602
 20
-158.122992581997
 10
102.814051623602
 20
-158.0065483545956
 10
102.7754665541673
 20
-157.9579725082536
 10
102.7437716757029
 20
-157.9262776297893
 10
102.6700466323186
 20
-157.8522080768564
 10
102.5536024049172
 20
-157.839461223561
 10
102.4984808771532
 20
-157.839461223561
 10
102.4791883424358
 20
-157.839461223561
 10
102.4433593493892
 20
-157.8415282808521
 10
102.4157985855072
 20
-157.8456623954344
 10
102.4157985855072
 20
-157.8456623954344
 10
102.4157985855072
 20
-157.6510145005178
 10
102.4157985855072
 20
-157.6510145005178
 10
102.454383654942
 20
-157.6575601819398
 10
102.496413819862
 20
-157.6596272392309
 10
102.5026149917355
 20
-157.6596272392309
 10
102.5680718059552
 20
-157.6596272392309
 10
102.7671983250027
 20
-157.6382676472224
 10
102.7671983250027
 20
-157.4015895873857
 10
102.7671983250027
 20
-157.2238226603468
 10
102.6362846965632
 20
-157.1687011325828
 10
102.5260416410352
 20
-157.1687011325828
 10
102.261458307768
 20
-157.1687011325828
 10
102.2531900786034
 20
-157.4015895873857
 10
102.2490559640211
 20
-157.4732475734789
 10
102.2490559640211
 20
-157.4732475734789
 10
102.0457953303913
 20
-157.4732475734789
 10
102.0457953303913
 20
-157.4732475734789
 10
102.0540635595559
 20
-157.3485351169129
 10
102.0816243234379
 20
-156.9719861803751
 10
102.5384439847821
 20
-156.9719861803751
 10
102.7630642104204
 20
-156.9719861803751
 10
103.0042208943878
 20
-157.0991102037808
 10
103.0042208943878
 20
-157.3950439059637
 10
103.0042208943878
 20
-157.5814235717158
 10
102.9091362589949
 20
-157.6637613538132
 10
102.8092284899227
 20
-157.7250840534507
 10
102.8705511895601
 20
-157.7526448173327
 10
103.0524522311813
 20
-157.832915542139
 10
103.0524522311813
 20
-158.1102457287016
 10
103.0524522311813
 20
-158.4485541053531
 10
102.8050943753404
 20
-158.6156412363878
 10
102.5281086983263
 20
-158.6156412363878
 97
        0
 97
        0
 75
     2
 76
     1
 98
        0
  0
ENDBLK
  5
48
330
45
100
AcDbEntity
  8
0
100
AcDbBlockEnd
  0
BLOCK
  5
A5
330
A3
100
AcDbEntity
  8
0
100
AcDbBlockBegin
  2
block 3
 70
     0
 10
0.0
 20
0.0
 30
0.0
  3
block 3
  1

  0
SPLINE
  5
A7
330
A3
100
AcDbEntity
  8
_U+30EC_U+30A4_U+30E4_U+30FC 1
370
     0
100
AcDbSpline
210
0.0
220
0.0
230
1.0
 70
    11
 71
     3
 72
    35
 73
    31
 74
     0
 42
0.0000000001
 43
0.0000000001
 12
1.0
 22
0.0
 32
0.0
 13
1.0
 23
0.0
 33
0.0
 40
0.0
 40
0.0
 40
0.0
 40
0.0
 40
1.0
 40
1.0
 40
1.0
 40
2.0
 40
2.0
 40
2.0
 40
3.0
 40
3.0
 40
3.0
 40
4.0
 40
4.0
 40
4.0
 40
5.0
 40
5.0
 40
5.0
 40
6.0
 40
6.0
 40
6.0
 40
7.0
 40
7.0
 40
7.0
 40
8.0
 40
8.0
 40
8.0
 40
9.0
 40
9.0
 40
9.0
 40
10.0
 40
10.0
 40
10.0
 40
10.0
 10
88.47229137328124
 20
-142.6393554330902
 30
0.0
 10
88.47229137328124
 20
-142.6393554330902
 30
0.0
 10
88.42268199829364
 20
-142.898426613581
 30
0.0
 10
88.42268199829364
 20
-142.898426613581
 30
0.0
 10
88.55945228905806
 20
-142.9108289573279
 30
0.0
 10
88.8807074430576
 20
-143.0000569303958
 30
0.0
 10
88.8807074430576
 20
-143.3831515483556
 30
0.0
 10
88.8807074430576
 20
-143.8516845343496
 30
0.0
 10
88.48279891451125
 20
-143.9739854240759
 30
0.0
 10
88.21322019279044
 20
-143.9739854240759
 30
0.0
 10
88.21322019279044
 20
-143.9739854240759
 30
0.0
 10
88.1469021046994
 20
-144.3202175203436
 30
0.0
 10
88.1469021046994
 20
-144.3202175203436
 30
0.0
 10
88.1469021046994
 20
-144.3202175203436
 30
0.0
 10
87.94381372584391
 20
-144.3202175203436
 30
0.0
 10
87.94381372584391
 20
-144.3202175203436
 30
0.0
 10
87.94381372584391
 20
-144.3202175203436
 30
0.0
 10
88.01426592851728
 20
-143.9595160230379
 30
0.0
 10
88.01426592851728
 20
-143.9595160230379
 30
0.0
 10
87.90867375189437
 20
-143.9409125074176
 30
0.0
 10
87.56468096769217
 20
-143.8806233364257
 30
0.0
 10
87.56468096769217
 20
-143.4723795214236
 30
0.0
 10
87.56468096769217
 20
-143.0331298470542
 30
0.0
 10
87.91280786647667
 20
-142.8860242698341
 30
0.0
 10
88.22166067672931
 20
-142.8860242698341
 30
0.0
 10
88.22166067672931
 20
-142.8860242698341
 30
0.0
 10
88.26920299442575
 20
-142.6393554330902
 30
0.0
 10
88.26920299442575
 20
-142.6393554330902
 30
0.0
 10
88.26920299442575
 20
-142.6393554330902
 30
0.0
 10
88.47229137328124
 20
-142.6393554330902
 30
0.0
 10
88.47229137328124
 20
-142.6393554330902
 30
0.0
  0
SPLINE
  5
A8
330
A3
100
AcDbEntity
  8
_U+30EC_U+30A4_U+30E4_U+30FC 1
370
     0
100
AcDbSpline
210
0.0
220
0.0
230
1.0
 70
    11
 71
     3
 72
    14
 73
    10
 74
     0
 42
0.0000000001
 43
0.0000000001
 12
1.0
 22
0.0
 32
0.0
 13
1.0
 23
0.0
 33
0.0
 40
0.0
 40
0.0
 40
0.0
 40
0.0
 40
1.0
 40
1.0
 40
1.0
 40
2.0
 40
2.0
 40
2.0
 40
3.0
 40
3.0
 40
3.0
 40
3.0
 10
88.18841550529665
 20
-143.0558674772569
 30
0.0
 10
88.07024873015258
 20
-143.0641357064215
 30
0.0
 10
87.7822387475857
 20
-143.0868733366241
 30
0.0
 10
87.7822387475857
 20
-143.4765136360059
 30
0.0
 10
87.7822387475857
 20
-143.5388698642889
 30
0.0
 10
87.7822387475857
 20
-143.7479871602436
 30
0.0
 10
88.04544404265879
 20
-143.7917398729062
 30
0.0
 10
88.04544404265879
 20
-143.7917398729062
 30
0.0
 10
88.18841550529665
 20
-143.0558674772569
 30
0.0
 10
88.18841550529665
 20
-143.0558674772569
 30
0.0
  0
SPLINE
  5
A9
330
A3
100
AcDbEntity
  8
_U+30EC_U+30A4_U+30E4_U+30FC 1
370
     0
100
AcDbSpline
210
0.0
220
0.0
230
1.0
 70
    11
 71
     3
 72
    14
 73
    10
 74
     0
 42
0.0000000001
 43
0.0000000001
 12
1.0
 22
0.0
 32
0.0
 13
1.0
 23
0.0
 33
0.0
 40
0.0
 40
0.0
 40
0.0
 40
0.0
 40
1.0
 40
1.0
 40
1.0
 40
2.0
 40
2.0
 40
2.0
 40
3.0
 40
3.0
 40
3.0
 40
3.0
 10
88.24853242151426
 20
-143.8000081020708
 30
0.0
 10
88.42681611287594
 20
-143.7958739874885
 30
0.0
 10
88.66504446568096
 20
-143.7169813008763
 30
0.0
 10
88.66504446568096
 20
-143.3686821473176
 30
0.0
 10
88.66504446568096
 20
-143.2777316265069
 30
0.0
 10
88.65264212193406
 20
-143.0930745084976
 30
0.0
 10
88.38736976956983
 20
-143.0662027637126
 30
0.0
 10
88.38736976956983
 20
-143.0662027637126
 30
0.0
 10
88.24853242151426
 20
-143.8000081020708
 30
0.0
 10
88.24853242151426
 20
-143.8000081020708
 30
0.0
  0
HATCH
  5
AA
330
A3
100
AcDbEntity
  8
_U+30EC_U+30A4_U+30E4_U+30FC 1
 62
   179
420
  2234388
100
AcDbHatch
 10
0.0
 20
0.0
 30
0.0
210
0.0
220
0.0
230
1.0
  2
SOLID
 70
     1
 71
     0
 91
        3
 92
        1
 93
        1
 72
     4
 94
        3
 73
     0
 74
     1
 95
       35
 96
       31
 40
0.0
 40
0.0
 40
0.0
 40
0.0
 40
1.0
 40
1.0
 40
1.0
 40
2.0
 40
2.0
 40
2.0
 40
3.0
 40
3.0
 40
3.0
 40
4.0
 40
4.0
 40
4.0
 40
5.0
 40
5.0
 40
5.0
 40
6.0
 40
6.0
 40
6.0
 40
7.0
 40
7.0
 40
7.0
 40
8.0
 40
8.0
 40
8.0
 40
9.0
 40
9.0
 40
9.0
 40
10.0
 40
10.0
 40
10.0
 40
10.0
 10
88.47229137328124
 20
-142.6393554330902
 10
88.47229137328124
 20
-142.6393554330902
 10
88.42268199829364
 20
-142.898426613581
 10
88.42268199829364
 20
-142.898426613581
 10
88.55945228905806
 20
-142.9108289573279
 10
88.8807074430576
 20
-143.0000569303958
 10
88.8807074430576
 20
-143.3831515483556
 10
88.8807074430576
 20
-143.8516845343496
 10
88.48279891451125
 20
-143.9739854240759
 10
88.21322019279044
 20
-143.9739854240759
 10
88.21322019279044
 20
-143.9739854240759
 10
88.1469021046994
 20
-144.3202175203436
 10
88.1469021046994
 20
-144.3202175203436
 10
88.1469021046994
 20
-144.3202175203436
 10
87.94381372584391
 20
-144.3202175203436
 10
87.94381372584391
 20
-144.3202175203436
 10
87.94381372584391
 20
-144.3202175203436
 10
88.01426592851728
 20
-143.9595160230379
 10
88.01426592851728
 20
-143.9595160230379
 10
87.90867375189437
 20
-143.9409125074176
 10
87.56468096769217
 20
-143.8806233364257
 10
87.56468096769217
 20
-143.4723795214236
 10
87.56468096769217
 20
-143.0331298470542
 10
87.91280786647667
 20
-142.8860242698341
 10
88.22166067672931
 20
-142.8860242698341
 10
88.22166067672931
 20
-142.8860242698341
 10
88.26920299442575
 20
-142.6393554330902
 10
88.26920299442575
 20
-142.6393554330902
 10
88.26920299442575
 20
-142.6393554330902
 10
88.47229137328124
 20
-142.6393554330902
 10
88.47229137328124
 20
-142.6393554330902
 97
        0
 97
        0
 92
        1
 93
        1
 72
     4
 94
        3
 73
     0
 74
     1
 95
       14
 96
       10
 40
0.0
 40
0.0
 40
0.0
 40
0.0
 40
1.0
 40
1.0
 40
1.0
 40
2.0
 40
2.0
 40
2.0
 40
3.0
 40
3.0
 40
3.0
 40
3.0
 10
88.18841550529665
 20
-143.0558674772569
 10
88.07024873015258
 20
-143.0641357064215
 10
87.7822387475857
 20
-143.0868733366241
 10
87.7822387475857
 20
-143.4765136360059
 10
87.7822387475857
 20
-143.5388698642889
 10
87.7822387475857
 20
-143.7479871602436
 10
88.04544404265879
 20
-143.7917398729062
 10
88.04544404265879
 20
-143.7917398729062
 10
88.18841550529665
 20
-143.0558674772569
 10
88.18841550529665
 20
-143.0558674772569
 97
        0
 97
        0
 92
        1
 93
        1
 72
     4
 94
        3
 73
     0
 74
     1
 95
       14
 96
       10
 40
0.0
 40
0.0
 40
0.0
 40
0.0
 40
1.0
 40
1.0
 40
1.0
 40
2.0
 40
2.0
 40
2.0
 40
3.0
 40
3.0
 40
3.0
 40
3.0
 10
88.24853242151426
 20
-143.8000081020708
 10
88.42681611287594
 20
-143.7958739874885
 10
88.66504446568096
 20
-143.7169813008763
 10
88.66504446568096
 20
-143.3686821473176
 10
88.66504446568096
 20
-143.2777316265069
 10
88.65264212193406
 20
-143.0930745084976
 10
88.38736976956983
 20
-143.0662027637126
 10
88.38736976956983
 20
-143.0662027637126
 10
88.24853242151426
 20
-143.8000081020708
 10
88.24853242151426
 20
-143.8000081020708
 97
        0
 97
        0
 75
     2
 76
     1
 98
        0
  0
SPLINE
  5
AB
330
A3
100
AcDbEntity
  8
_U+30EC_U+30A4_U+30E4_U+30FC 1
370
     0
100
AcDbSpline
210
0.0
220
0.0
230
1.0
 70
    11
 71
     3
 72
    26
 73
    22
 74
     0
 42
0.0000000001
 43
0.0000000001
 12
1.0
 22
0.0
 32
0.0
 13
1.0
 23
0.0
 33
0.0
 40
0.0
 40
0.0
 40
0.0
 40
0.0
 40
1.0
 40
1.0
 40
1.0
 40
2.0
 40
2.0
 40
2.0
 40
3.0
 40
3.0
 40
3.0
 40
4.0
 40
4.0
 40
4.0
 40
5.0
 40
5.0
 40
5.0
 40
6.0
 40
6.0
 40
6.0
 40
7.0
 40
7.0
 40
7.0
 40
7.0
 10
89.75300561992286
 20
-143.9822536532405
 30
0.0
 10
89.75300561992286
 20
-143.9822536532405
 30
0.0
 10
89.52097843899129
 20
-143.9822536532405
 30
0.0
 10
89.52097843899129
 20
-143.9822536532405
 30
0.0
 10
89.54578312648509
 20
-143.6797742696356
 30
0.0
 10
89.73440210430252
 20
-143.1719671951098
 30
0.0
 10
90.13231063284887
 20
-142.6765624643309
 30
0.0
 10
90.13231063284887
 20
-142.6765624643309
 30
0.0
 10
89.31168888826235
 20
-142.6765624643309
 30
0.0
 10
89.31168888826235
 20
-142.6765624643309
 30
0.0
 10
89.31168888826235
 20
-142.6765624643309
 30
0.0
 10
89.31168888826235
 20
-142.4695122256674
 30
0.0
 10
89.31168888826235
 20
-142.4695122256674
 30
0.0
 10
89.31168888826235
 20
-142.4695122256674
 30
0.0
 10
90.36451006855471
 20
-142.4695122256674
 30
0.0
 10
90.36451006855471
 20
-142.4695122256674
 30
0.0
 10
90.36451006855471
 20
-142.4695122256674
 30
0.0
 10
90.36451006855471
 20
-142.6765624643309
 30
0.0
 10
90.36451006855471
 20
-142.6765624643309
 30
0.0
 10
90.04738902913746
 20
-142.9604383323154
 30
0.0
 10
89.78625079135553
 20
-143.5409369215801
 30
0.0
 10
89.75300561992286
 20
-143.9822536532405
 30
0.0
  0
HATCH
  5
AC
330
A3
100
AcDbEntity
  8
_U+30EC_U+30A4_U+30E4_U+30FC 1
 62
   179
420
  2234388
100
AcDbHatch
 10
0.0
 20
0.0
 30
0.0
210
0.0
220
0.0
230
1.0
  2
SOLID
 70
     1
 71
     0
 91
        1
 92
        1
 93
        1
 72
     4
 94
        3
 73
     0
 74
     1
 95
       26
 96
       22
 40
0.0
 40
0.0
 40
0.0
 40
0.0
 40
1.0
 40
1.0
 40
1.0
 40
2.0
 40
2.0
 40
2.0
 40
3.0
 40
3.0
 40
3.0
 40
4.0
 40
4.0
 40
4.0
 40
5.0
 40
5.0
 40
5.0
 40
6.0
 40
6.0
 40
6.0
 40
7.0
 40
7.0
 40
7.0
 40
7.0
 10
89.75300561992286
 20
-143.9822536532405
 10
89.75300561992286
 20
-143.9822536532405
 10
89.52097843899129
 20
-143.9822536532405
 10
89.52097843899129
 20
-143.9822536532405
 10
89.54578312648509
 20
-143.6797742696356
 10
89.73440210430252
 20
-143.1719671951098
 10
90.13231063284887
 20
-142.6765624643309
 10
90.13231063284887
 20
-142.6765624643309
 10
89.31168888826235
 20
-142.6765624643309
 10
89.31168888826235
 20
-142.6765624643309
 10
89.31168888826235
 20
-142.6765624643309
 10
89.31168888826235
 20
-142.4695122256674
 10
89.31168888826235
 20
-142.4695122256674
 10
89.31168888826235
 20
-142.4695122256674
 10
90.36451006855471
 20
-142.4695122256674
 10
90.36451006855471
 20
-142.4695122256674
 10
90.36451006855471
 20
-142.4695122256674
 10
90.36451006855471
 20
-142.6765624643309
 10
90.36451006855471
 20
-142.6765624643309
 10
90.04738902913746
 20
-142.9604383323154
 10
89.78625079135553
 20
-143.5409369215801
 10
89.75300561992286
 20
-143.9822536532405
 97
        0
 97
        0
 75
     2
 76
     1
 98
        0
  0
ENDBLK
  5
A6
330
A3
100
AcDbEntity
  8
0
100
AcDbBlockEnd
  0
BLOCK
  5
AF
330
AD
100
AcDbEntity
  8
0
100
AcDbBlockBegin
  2
block 4
 70
     0
 10
0.0
 20
0.0
 30
0.0
  3
block 4
  1

  0
SPLINE
  5
B1
330
AD
100
AcDbEntity
  8
_U+30EC_U+30A4_U+30E4_U+30FC 1
370
     0
100
AcDbSpline
210
0.0
220
0.0
230
1.0
 70
    11
 71
     3
 72
    35
 73
    31
 74
     0
 42
0.0000000001
 43
0.0000000001
 12
1.0
 22
0.0
 32
0.0
 13
1.0
 23
0.0
 33
0.0
 40
0.0
 40
0.0
 40
0.0
 40
0.0
 40
1.0
 40
1.0
 40
1.0
 40
2.0
 40
2.0
 40
2.0
 40
3.0
 40
3.0
 40
3.0
 40
4.0
 40
4.0
 40
4.0
 40
5.0
 40
5.0
 40
5.0
 40
6.0
 40
6.0
 40
6.0
 40
7.0
 40
7.0
 40
7.0
 40
8.0
 40
8.0
 40
8.0
 40
9.0
 40
9.0
 40
9.0
 40
10.0
 40
10.0
 40
10.0
 40
10.0
 10
88.28315563114101
 20
-137.6122721010136
 30
0.0
 10
88.28315563114101
 20
-137.6122721010136
 30
0.0
 10
88.23354625615342
 20
-137.8713432815044
 30
0.0
 10
88.23354625615342
 20
-137.8713432815044
 30
0.0
 10
88.37031654691785
 20
-137.8837456252513
 30
0.0
 10
88.69139944614312
 20
-137.9729735983193
 30
0.0
 10
88.69139944614312
 20
-138.3560682162791
 30
0.0
 10
88.69139944614312
 20
-138.824601202273
 30
0.0
 10
88.29349091759677
 20
-138.9469020919994
 30
0.0
 10
88.02408445065024
 20
-138.9469020919994
 30
0.0
 10
88.02408445065024
 20
-138.9469020919994
 30
0.0
 10
87.95776636255917
 20
-139.293134188267
 30
0.0
 10
87.95776636255917
 20
-139.293134188267
 30
0.0
 10
87.95776636255917
 20
-139.293134188267
 30
0.0
 10
87.7546779837037
 20
-139.293134188267
 30
0.0
 10
87.7546779837037
 20
-139.293134188267
 30
0.0
 10
87.7546779837037
 20
-139.293134188267
 30
0.0
 10
87.82513018637705
 20
-138.9324326909613
 30
0.0
 10
87.82513018637705
 20
-138.9324326909613
 30
0.0
 10
87.71953800975415
 20
-138.913829175341
 30
0.0
 10
87.37554522555195
 20
-138.8535400043491
 30
0.0
 10
87.37554522555195
 20
-138.445296189347
 30
0.0
 10
87.37554522555195
 20
-138.0060465149777
 30
0.0
 10
87.72367212433645
 20
-137.8589409377575
 30
0.0
 10
88.03252493458909
 20
-137.8589409377575
 30
0.0
 10
88.03252493458909
 20
-137.8589409377575
 30
0.0
 10
88.08006725228555
 20
-137.6122721010136
 30
0.0
 10
88.08006725228555
 20
-137.6122721010136
 30
0.0
 10
88.08006725228555
 20
-137.6122721010136
 30
0.0
 10
88.28315563114101
 20
-137.6122721010136
 30
0.0
 10
88.28315563114101
 20
-137.6122721010136
 30
0.0
  0
SPLINE
  5
B2
330
AD
100
AcDbEntity
  8
_U+30EC_U+30A4_U+30E4_U+30FC 1
370
     0
100
AcDbSpline
210
0.0
220
0.0
230
1.0
 70
    11
 71
     3
 72
    14
 73
    10
 74
     0
 42
0.0000000001
 43
0.0000000001
 12
1.0
 22
0.0
 32
0.0
 13
1.0
 23
0.0
 33
0.0
 40
0.0
 40
0.0
 40
0.0
 40
0.0
 40
1.0
 40
1.0
 40
1.0
 40
2.0
 40
2.0
 40
2.0
 40
3.0
 40
3.0
 40
3.0
 40
3.0
 10
87.99927976315644
 20
-138.0287841451803
 30
0.0
 10
87.88111298801236
 20
-138.0370523743449
 30
0.0
 10
87.59310300544549
 20
-138.0597900045476
 30
0.0
 10
87.59310300544549
 20
-138.4494303039293
 30
0.0
 10
87.59310300544549
 20
-138.5117865322123
 30
0.0
 10
87.59310300544549
 20
-138.720903828167
 30
0.0
 10
87.85630830051856
 20
-138.7646565408297
 30
0.0
 10
87.85630830051856
 20
-138.7646565408297
 30
0.0
 10
87.99927976315644
 20
-138.0287841451803
 30
0.0
 10
87.99927976315644
 20
-138.0287841451803
 30
0.0
  0
SPLINE
  5
B3
330
AD
100
AcDbEntity
  8
_U+30EC_U+30A4_U+30E4_U+30FC 1
370
     0
100
AcDbSpline
210
0.0
220
0.0
230
1.0
 70
    11
 71
     3
 72
    14
 73
    10
 74
     0
 42
0.0000000001
 43
0.0000000001
 12
1.0
 22
0.0
 32
0.0
 13
1.0
 23
0.0
 33
0.0
 40
0.0
 40
0.0
 40
0.0
 40
0.0
 40
1.0
 40
1.0
 40
1.0
 40
2.0
 40
2.0
 40
2.0
 40
3.0
 40
3.0
 40
3.0
 40
3.0
 10
88.05939667937405
 20
-138.7729247699943
 30
0.0
 10
88.23768037073572
 20
-138.768790655412
 30
0.0
 10
88.47590872354075
 20
-138.6898979687998
 30
0.0
 10
88.47590872354075
 20
-138.341598815241
 30
0.0
 10
88.47590872354075
 20
-138.2506482944304
 30
0.0
 10
88.46350637979386
 20
-138.065991176421
 30
0.0
 10
88.1982340274296
 20
-138.0391194316361
 30
0.0
 10
88.1982340274296
 20
-138.0391194316361
 30
0.0
 10
88.05939667937405
 20
-138.7729247699943
 30
0.0
 10
88.05939667937405
 20
-138.7729247699943
 30
0.0
  0
HATCH
  5
B4
330
AD
100
AcDbEntity
  8
_U+30EC_U+30A4_U+30E4_U+30FC 1
 62
   179
420
  2234388
100
AcDbHatch
 10
0.0
 20
0.0
 30
0.0
210
0.0
220
0.0
230
1.0
  2
SOLID
 70
     1
 71
     0
 91
        3
 92
        1
 93
        1
 72
     4
 94
        3
 73
     0
 74
     1
 95
       35
 96
       31
 40
0.0
 40
0.0
 40
0.0
 40
0.0
 40
1.0
 40
1.0
 40
1.0
 40
2.0
 40
2.0
 40
2.0
 40
3.0
 40
3.0
 40
3.0
 40
4.0
 40
4.0
 40
4.0
 40
5.0
 40
5.0
 40
5.0
 40
6.0
 40
6.0
 40
6.0
 40
7.0
 40
7.0
 40
7.0
 40
8.0
 40
8.0
 40
8.0
 40
9.0
 40
9.0
 40
9.0
 40
10.0
 40
10.0
 40
10.0
 40
10.0
 10
88.28315563114101
 20
-137.6122721010136
 10
88.28315563114101
 20
-137.6122721010136
 10
88.23354625615342
 20
-137.8713432815044
 10
88.23354625615342
 20
-137.8713432815044
 10
88.37031654691785
 20
-137.8837456252513
 10
88.69139944614312
 20
-137.9729735983193
 10
88.69139944614312
 20
-138.3560682162791
 10
88.69139944614312
 20
-138.824601202273
 10
88.29349091759677
 20
-138.9469020919994
 10
88.02408445065024
 20
-138.9469020919994
 10
88.02408445065024
 20
-138.9469020919994
 10
87.95776636255917
 20
-139.293134188267
 10
87.95776636255917
 20
-139.293134188267
 10
87.95776636255917
 20
-139.293134188267
 10
87.7546779837037
 20
-139.293134188267
 10
87.7546779837037
 20
-139.293134188267
 10
87.7546779837037
 20
-139.293134188267
 10
87.82513018637705
 20
-138.9324326909613
 10
87.82513018637705
 20
-138.9324326909613
 10
87.71953800975415
 20
-138.913829175341
 10
87.37554522555195
 20
-138.8535400043491
 10
87.37554522555195
 20
-138.445296189347
 10
87.37554522555195
 20
-138.0060465149777
 10
87.72367212433645
 20
-137.8589409377575
 10
88.03252493458909
 20
-137.8589409377575
 10
88.03252493458909
 20
-137.8589409377575
 10
88.08006725228555
 20
-137.6122721010136
 10
88.08006725228555
 20
-137.6122721010136
 10
88.08006725228555
 20
-137.6122721010136
 10
88.28315563114101
 20
-137.6122721010136
 10
88.28315563114101
 20
-137.6122721010136
 97
        0
 97
        0
 92
        1
 93
        1
 72
     4
 94
        3
 73
     0
 74
     1
 95
       14
 96
       10
 40
0.0
 40
0.0
 40
0.0
 40
0.0
 40
1.0
 40
1.0
 40
1.0
 40
2.0
 40
2.0
 40
2.0
 40
3.0
 40
3.0
 40
3.0
 40
3.0
 10
87.99927976315644
 20
-138.0287841451803
 10
87.88111298801236
 20
-138.0370523743449
 10
87.59310300544549
 20
-138.0597900045476
 10
87.59310300544549
 20
-138.4494303039293
 10
87.59310300544549
 20
-138.5117865322123
 10
87.59310300544549
 20
-138.720903828167
 10
87.85630830051856
 20
-138.7646565408297
 10
87.85630830051856
 20
-138.7646565408297
 10
87.99927976315644
 20
-138.0287841451803
 10
87.99927976315644
 20
-138.0287841451803
 97
        0
 97
        0
 92
        1
 93
        1
 72
     4
 94
        3
 73
     0
 74
     1
 95
       14
 96
       10
 40
0.0
 40
0.0
 40
0.0
 40
0.0
 40
1.0
 40
1.0
 40
1.0
 40
2.0
 40
2.0
 40
2.0
 40
3.0
 40
3.0
 40
3.0
 40
3.0
 10
88.05939667937405
 20
-138.7729247699943
 10
88.23768037073572
 20
-138.768790655412
 10
88.47590872354075
 20
-138.6898979687998
 10
88.47590872354075
 20
-138.341598815241
 10
88.47590872354075
 20
-138.2506482944304
 10
88.46350637979386
 20
-138.065991176421
 10
88.1982340274296
 20
-138.0391194316361
 10
88.1982340274296
 20
-138.0391194316361
 10
88.05939667937405
 20
-138.7729247699943
 10
88.05939667937405
 20
-138.7729247699943
 97
        0
 97
        0
 75
     2
 76
     1
 98
        0
  0
SPLINE
  5
B5
330
AD
100
AcDbEntity
  8
_U+30EC_U+30A4_U+30E4_U+30FC 1
370
     0
100
AcDbSpline
210
0.0
220
0.0
230
1.0
 70
    11
 71
     3
 72
    29
 73
    25
 74
     0
 42
0.0000000001
 43
0.0000000001
 12
1.0
 22
0.0
 32
0.0
 13
1.0
 23
0.0
 33
0.0
 40
0.0
 40
0.0
 40
0.0
 40
0.0
 40
1.0
 40
1.0
 40
1.0
 40
2.0
 40
2.0
 40
2.0
 40
3.0
 40
3.0
 40
3.0
 40
4.0
 40
4.0
 40
4.0
 40
5.0
 40
5.0
 40
5.0
 40
6.0
 40
6.0
 40
6.0
 40
7.0
 40
7.0
 40
7.0
 40
8.0
 40
8.0
 40
8.0
 40
8.0
 10
89.65103079355947
 20
-139.0047796961516
 30
0.0
 10
89.38989255577754
 20
-139.0047796961516
 30
0.0
 10
89.1411566617425
 20
-138.8700764626783
 30
0.0
 10
89.1411566617425
 20
-138.5283229905415
 30
0.0
 10
89.1411566617425
 20
-138.2775200392153
 30
0.0
 10
89.27999400979806
 20
-138.1841579515651
 30
0.0
 10
89.38369138390408
 20
-138.1242132901217
 30
0.0
 10
89.26139049417772
 20
-138.065991176421
 30
0.0
 10
89.18680417692205
 20
-137.9540255731504
 30
0.0
 10
89.18680417692205
 20
-137.7965847094745
 30
0.0
 10
89.18680417692205
 20
-137.5271782425279
 30
0.0
 10
89.38162432661294
 20
-137.3945420663458
 30
0.0
 10
89.65103079355947
 20
-137.3945420663458
 30
0.0
 10
89.9287054896706
 20
-137.3945420663458
 30
0.0
 10
90.11525741019689
 20
-137.5354464716925
 30
0.0
 10
90.11525741019689
 20
-137.7965847094745
 30
0.0
 10
90.11525741019689
 20
-137.9540255731504
 30
0.0
 10
90.03860403565008
 20
-138.065991176421
 30
0.0
 10
89.9163031459237
 20
-138.1242132901217
 30
0.0
 10
90.00329180692627
 20
-138.1738226651093
 30
0.0
 10
90.15866561331103
 20
-138.2671847527596
 30
0.0
 10
90.15866561331103
 20
-138.5241888759592
 30
0.0
 10
90.15866561331103
 20
-138.8910915451384
 30
0.0
 10
89.8851250317822
 20
-139.0047796961516
 30
0.0
 10
89.65103079355947
 20
-139.0047796961516
 30
0.0
  0
SPLINE
  5
B6
330
AD
100
AcDbEntity
  8
_U+30EC_U+30A4_U+30E4_U+30FC 1
370
     0
100
AcDbSpline
210
0.0
220
0.0
230
1.0
 70
    11
 71
     3
 72
    17
 73
    13
 74
     0
 42
0.0000000001
 43
0.0000000001
 12
1.0
 22
0.0
 32
0.0
 13
1.0
 23
0.0
 33
0.0
 40
0.0
 40
0.0
 40
0.0
 40
0.0
 40
1.0
 40
1.0
 40
1.0
 40
2.0
 40
2.0
 40
2.0
 40
3.0
 40
3.0
 40
3.0
 40
4.0
 40
4.0
 40
4.0
 40
4.0
 10
89.65103079355947
 20
-138.2299777215189
 30
0.0
 10
89.51012638821275
 20
-138.2299777215189
 30
0.0
 10
89.36078149892717
 20
-138.3147270704561
 30
0.0
 10
89.36078149892717
 20
-138.5138535895035
 30
0.0
 10
89.36078149892717
 20
-138.7147026562936
 30
0.0
 10
89.48514944594469
 20
-138.8142659158173
 30
0.0
 10
89.65103079355947
 20
-138.8142659158173
 30
0.0
 10
89.83327634472919
 20
-138.8142659158173
 30
0.0
 10
89.9411078334175
 20
-138.694032083382
 30
0.0
 10
89.9411078334175
 20
-138.5200547613769
 30
0.0
 10
89.9411078334175
 20
-138.3023247267091
 30
0.0
 10
89.78159991245043
 20
-138.2299777215189
 30
0.0
 10
89.65103079355947
 20
-138.2299777215189
 30
0.0
  0
SPLINE
  5
B7
330
AD
100
AcDbEntity
  8
_U+30EC_U+30A4_U+30E4_U+30FC 1
370
     0
100
AcDbSpline
210
0.0
220
0.0
230
1.0
 70
    11
 71
     3
 72
    17
 73
    13
 74
     0
 42
0.0000000001
 43
0.0000000001
 12
1.0
 22
0.0
 32
0.0
 13
1.0
 23
0.0
 33
0.0
 40
0.0
 40
0.0
 40
0.0
 40
0.0
 40
1.0
 40
1.0
 40
1.0
 40
2.0
 40
2.0
 40
2.0
 40
3.0
 40
3.0
 40
3.0
 40
4.0
 40
4.0
 40
4.0
 40
4.0
 10
89.65103079355947
 20
-137.5833332989375
 30
0.0
 10
89.48928356052699
 20
-137.5833332989375
 30
0.0
 10
89.40642901410673
 20
-137.6763508770393
 30
0.0
 10
89.40642901410673
 20
-137.8089870532214
 30
0.0
 10
89.40642901410673
 20
-137.9292208856566
 30
0.0
 10
89.47688121678009
 20
-138.0453206035095
 30
0.0
 10
89.65103079355947
 20
-138.0453206035095
 30
0.0
 10
89.82500811556459
 20
-138.0453206035095
 30
0.0
 10
89.89546031823795
 20
-137.9292208856566
 30
0.0
 10
89.89546031823795
 20
-137.8089870532214
 30
0.0
 10
89.89546031823795
 20
-137.6763508770393
 30
0.0
 10
89.81053871452653
 20
-137.5833332989375
 30
0.0
 10
89.65103079355947
 20
-137.5833332989375
 30
0.0
  0
HATCH
  5
B8
330
AD
100
AcDbEntity
  8
_U+30EC_U+30A4_U+30E4_U+30FC 1
 62
   179
420
  2234388
100
AcDbHatch
 10
0.0
 20
0.0
 30
0.0
210
0.0
220
0.0
230
1.0
  2
SOLID
 70
     1
 71
     0
 91
        3
 92
        1
 93
        1
 72
     4
 94
        3
 73
     0
 74
     1
 95
       29
 96
       25
 40
0.0
 40
0.0
 40
0.0
 40
0.0
 40
1.0
 40
1.0
 40
1.0
 40
2.0
 40
2.0
 40
2.0
 40
3.0
 40
3.0
 40
3.0
 40
4.0
 40
4.0
 40
4.0
 40
5.0
 40
5.0
 40
5.0
 40
6.0
 40
6.0
 40
6.0
 40
7.0
 40
7.0
 40
7.0
 40
8.0
 40
8.0
 40
8.0
 40
8.0
 10
89.65103079355947
 20
-139.0047796961516
 10
89.38989255577754
 20
-139.0047796961516
 10
89.1411566617425
 20
-138.8700764626783
 10
89.1411566617425
 20
-138.5283229905415
 10
89.1411566617425
 20
-138.2775200392153
 10
89.27999400979806
 20
-138.1841579515651
 10
89.38369138390408
 20
-138.1242132901217
 10
89.26139049417772
 20
-138.065991176421
 10
89.18680417692205
 20
-137.9540255731504
 10
89.18680417692205
 20
-137.7965847094745
 10
89.18680417692205
 20
-137.5271782425279
 10
89.38162432661294
 20
-137.3945420663458
 10
89.65103079355947
 20
-137.3945420663458
 10
89.9287054896706
 20
-137.3945420663458
 10
90.11525741019689
 20
-137.5354464716925
 10
90.11525741019689
 20
-137.7965847094745
 10
90.11525741019689
 20
-137.9540255731504
 10
90.03860403565008
 20
-138.065991176421
 10
89.9163031459237
 20
-138.1242132901217
 10
90.00329180692627
 20
-138.1738226651093
 10
90.15866561331103
 20
-138.2671847527596
 10
90.15866561331103
 20
-138.5241888759592
 10
90.15866561331103
 20
-138.8910915451384
 10
89.8851250317822
 20
-139.0047796961516
 10
89.65103079355947
 20
-139.0047796961516
 97
        0
 97
        0
 92
        1
 93
        1
 72
     4
 94
        3
 73
     0
 74
     1
 95
       17
 96
       13
 40
0.0
 40
0.0
 40
0.0
 40
0.0
 40
1.0
 40
1.0
 40
1.0
 40
2.0
 40
2.0
 40
2.0
 40
3.0
 40
3.0
 40
3.0
 40
4.0
 40
4.0
 40
4.0
 40
4.0
 10
89.65103079355947
 20
-138.2299777215189
 10
89.51012638821275
 20
-138.2299777215189
 10
89.36078149892717
 20
-138.3147270704561
 10
89.36078149892717
 20
-138.5138535895035
 10
89.36078149892717
 20
-138.7147026562936
 10
89.48514944594469
 20
-138.8142659158173
 10
89.65103079355947
 20
-138.8142659158173
 10
89.83327634472919
 20
-138.8142659158173
 10
89.9411078334175
 20
-138.694032083382
 10
89.9411078334175
 20
-138.5200547613769
 10
89.9411078334175
 20
-138.3023247267091
 10
89.78159991245043
 20
-138.2299777215189
 10
89.65103079355947
 20
-138.2299777215189
 97
        0
 97
        0
 92
        1
 93
        1
 72
     4
 94
        3
 73
     0
 74
     1
 95
       17
 96
       13
 40
0.0
 40
0.0
 40
0.0
 40
0.0
 40
1.0
 40
1.0
 40
1.0
 40
2.0
 40
2.0
 40
2.0
 40
3.0
 40
3.0
 40
3.0
 40
4.0
 40
4.0
 40
4.0
 40
4.0
 10
89.65103079355947
 20
-137.5833332989375
 10
89.48928356052699
 20
-137.5833332989375
 10
89.40642901410673
 20
-137.6763508770393
 10
89.40642901410673
 20
-137.8089870532214
 10
89.40642901410673
 20
-137.9292208856566
 10
89.47688121678009
 20
-138.0453206035095
 10
89.65103079355947
 20
-138.0453206035095
 10
89.82500811556459
 20
-138.0453206035095
 10
89.89546031823795
 20
-137.9292208856566
 10
89.89546031823795
 20
-137.8089870532214
 10
89.89546031823795
 20
-137.6763508770393
 10
89.81053871452653
 20
-137.5833332989375
 10
89.65103079355947
 20
-137.5833332989375
 97
        0
 97
        0
 75
     2
 76
     1
 98
        0
  0
ENDBLK
  5
B0
330
AD
100
AcDbEntity
  8
0
100
AcDbBlockEnd
  0
BLOCK
  5
1A6
330
1A4
100
AcDbEntity
  8
0
100
AcDbBlockBegin
  2
block 5
 70
     0
 10
0.0
 20
0.0
 30
0.0
  3
block 5
  1

  0
SPLINE
  5
1A8
330
1A4
100
AcDbEntity
  8
_U+30EC_U+30A4_U+30E4_U+30FC 1
370
     0
100
AcDbSpline
210
0.0
220
0.0
230
1.0
 70
    11
 71
     3
 72
    35
 73
    31
 74
     0
 42
0.0000000001
 43
0.0000000001
 12
1.0
 22
0.0
 32
0.0
 13
1.0
 23
0.0
 33
0.0
 40
0.0
 40
0.0
 40
0.0
 40
0.0
 40
1.0
 40
1.0
 40
1.0
 40
2.0
 40
2.0
 40
2.0
 40
3.0
 40
3.0
 40
3.0
 40
4.0
 40
4.0
 40
4.0
 40
5.0
 40
5.0
 40
5.0
 40
6.0
 40
6.0
 40
6.0
 40
7.0
 40
7.0
 40
7.0
 40
8.0
 40
8.0
 40
8.0
 40
9.0
 40
9.0
 40
9.0
 40
10.0
 40
10.0
 40
10.0
 40
10.0
 10
79.20670706570179
 20
-111.0440402283154
 30
0.0
 10
79.20670706570179
 20
-111.0440402283154
 30
0.0
 10
79.15589190729436
 20
-111.3084513068083
 30
0.0
 10
79.15589190729436
 20
-111.3084513068083
 30
0.0
 10
79.29559052922124
 20
-111.3211981601037
 30
0.0
 10
79.62339136464277
 20
-111.4121486809143
 30
0.0
 10
79.62339136464277
 20
-111.8035115280387
 30
0.0
 10
79.62339136464277
 20
-112.2815185266171
 30
0.0
 10
79.2172146069318
 20
-112.4064032379574
 30
0.0
 10
78.94229598720888
 20
-112.4064032379574
 30
0.0
 10
78.94229598720888
 20
-112.4064032379574
 30
0.0
 10
78.87459986092371
 20
-112.7596977799698
 30
0.0
 10
78.87459986092371
 20
-112.7596977799698
 30
0.0
 10
78.87459986092371
 20
-112.7596977799698
 30
0.0
 10
78.66720511271167
 20
-112.7596977799698
 30
0.0
 10
78.66720511271167
 20
-112.7596977799698
 30
0.0
 10
78.66720511271167
 20
-112.7596977799698
 30
0.0
 10
78.7392076083534
 20
-112.3915893273709
 30
0.0
 10
78.7392076083534
 20
-112.3915893273709
 30
0.0
 10
78.63137611966508
 20
-112.3724690474277
 30
0.0
 10
78.28014863494386
 20
-112.3111463477903
 30
0.0
 10
78.28014863494386
 20
-111.8944620488493
 30
0.0
 10
78.28014863494386
 20
-111.4459106166698
 30
0.0
 10
78.63551023424738
 20
-111.2957044535129
 30
0.0
 10
78.95073647114774
 20
-111.2957044535129
 30
0.0
 10
78.95073647114774
 20
-111.2957044535129
 30
0.0
 10
78.99948457226402
 20
-111.0440402283154
 30
0.0
 10
78.99948457226402
 20
-111.0440402283154
 30
0.0
 10
78.99948457226402
 20
-111.0440402283154
 30
0.0
 10
79.20670706570179
 20
-111.0440402283154
 30
0.0
 10
79.20670706570179
 20
-111.0440402283154
 30
0.0
  0
SPLINE
  5
1A9
330
1A4
100
AcDbEntity
  8
_U+30EC_U+30A4_U+30E4_U+30FC 1
370
     0
100
AcDbSpline
210
0.0
220
0.0
230
1.0
 70
    11
 71
     3
 72
    14
 73
    10
 74
     0
 42
0.0000000001
 43
0.0000000001
 12
1.0
 22
0.0
 32
0.0
 13
1.0
 23
0.0
 33
0.0
 40
0.0
 40
0.0
 40
0.0
 40
0.0
 40
1.0
 40
1.0
 40
1.0
 40
2.0
 40
2.0
 40
2.0
 40
3.0
 40
3.0
 40
3.0
 40
3.0
 10
78.91697453539228
 20
-111.4691650111952
 30
0.0
 10
78.79639619340854
 20
-111.4776054951341
 30
0.0
 10
78.50218503896821
 20
-111.5008598896595
 30
0.0
 10
78.50218503896821
 20
-111.8985961634316
 30
0.0
 10
78.50218503896821
 20
-111.9621581751345
 30
0.0
 10
78.50218503896821
 20
-112.17575409522
 30
0.0
 10
78.77090248681769
 20
-112.2201958269797
 30
0.0
 10
78.77090248681769
 20
-112.2201958269797
 30
0.0
 10
78.91697453539228
 20
-111.4691650111952
 30
0.0
 10
78.91697453539228
 20
-111.4691650111952
 30
0.0
  0
SPLINE
  5
1AA
330
1A4
100
AcDbEntity
  8
_U+30EC_U+30A4_U+30E4_U+30FC 1
370
     0
100
AcDbSpline
210
0.0
220
0.0
230
1.0
 70
    11
 71
     3
 72
    14
 73
    10
 74
     0
 42
0.0000000001
 43
0.0000000001
 12
1.0
 22
0.0
 32
0.0
 13
1.0
 23
0.0
 33
0.0
 40
0.0
 40
0.0
 40
0.0
 40
0.0
 40
1.0
 40
1.0
 40
1.0
 40
2.0
 40
2.0
 40
2.0
 40
3.0
 40
3.0
 40
3.0
 40
3.0
 10
78.97829723502973
 20
-112.2286363109185
 30
0.0
 10
79.16019827665093
 20
-112.2245021963362
 30
0.0
 10
79.40342201790956
 20
-112.1440592167557
 30
0.0
 10
79.40342201790956
 20
-111.7886976174521
 30
0.0
 10
79.40342201790956
 20
-111.6955077845761
 30
0.0
 10
79.39084741938841
 20
-111.5072333163072
 30
0.0
 10
79.12006291424777
 20
-111.4798448071995
 30
0.0
 10
79.12006291424777
 20
-111.4798448071995
 30
0.0
 10
78.97829723502973
 20
-112.2286363109185
 30
0.0
 10
78.97829723502973
 20
-112.2286363109185
 30
0.0
  0
HATCH
  5
1AB
330
1A4
100
AcDbEntity
  8
_U+30EC_U+30A4_U+30E4_U+30FC 1
 62
   179
420
  2234388
100
AcDbHatch
 10
0.0
 20
0.0
 30
0.0
210
0.0
220
0.0
230
1.0
  2
SOLID
 70
     1
 71
     0
 91
        3
 92
        1
 93
        1
 72
     4
 94
        3
 73
     0
 74
     1
 95
       35
 96
       31
 40
0.0
 40
0.0
 40
0.0
 40
0.0
 40
1.0
 40
1.0
 40
1.0
 40
2.0
 40
2.0
 40
2.0
 40
3.0
 40
3.0
 40
3.0
 40
4.0
 40
4.0
 40
4.0
 40
5.0
 40
5.0
 40
5.0
 40
6.0
 40
6.0
 40
6.0
 40
7.0
 40
7.0
 40
7.0
 40
8.0
 40
8.0
 40
8.0
 40
9.0
 40
9.0
 40
9.0
 40
10.0
 40
10.0
 40
10.0
 40
10.0
 10
79.20670706570179
 20
-111.0440402283154
 10
79.20670706570179
 20
-111.0440402283154
 10
79.15589190729436
 20
-111.3084513068083
 10
79.15589190729436
 20
-111.3084513068083
 10
79.29559052922124
 20
-111.3211981601037
 10
79.62339136464277
 20
-111.4121486809143
 10
79.62339136464277
 20
-111.8035115280387
 10
79.62339136464277
 20
-112.2815185266171
 10
79.2172146069318
 20
-112.4064032379574
 10
78.94229598720888
 20
-112.4064032379574
 10
78.94229598720888
 20
-112.4064032379574
 10
78.87459986092371
 20
-112.7596977799698
 10
78.87459986092371
 20
-112.7596977799698
 10
78.87459986092371
 20
-112.7596977799698
 10
78.66720511271167
 20
-112.7596977799698
 10
78.66720511271167
 20
-112.7596977799698
 10
78.66720511271167
 20
-112.7596977799698
 10
78.7392076083534
 20
-112.3915893273709
 10
78.7392076083534
 20
-112.3915893273709
 10
78.63137611966508
 20
-112.3724690474277
 10
78.28014863494386
 20
-112.3111463477903
 10
78.28014863494386
 20
-111.8944620488493
 10
78.28014863494386
 20
-111.4459106166698
 10
78.63551023424738
 20
-111.2957044535129
 10
78.95073647114774
 20
-111.2957044535129
 10
78.95073647114774
 20
-111.2957044535129
 10
78.99948457226402
 20
-111.0440402283154
 10
78.99948457226402
 20
-111.0440402283154
 10
78.99948457226402
 20
-111.0440402283154
 10
79.20670706570179
 20
-111.0440402283154
 10
79.20670706570179
 20
-111.0440402283154
 97
        0
 97
        0
 92
        1
 93
        1
 72
     4
 94
        3
 73
     0
 74
     1
 95
       14
 96
       10
 40
0.0
 40
0.0
 40
0.0
 40
0.0
 40
1.0
 40
1.0
 40
1.0
 40
2.0
 40
2.0
 40
2.0
 40
3.0
 40
3.0
 40
3.0
 40
3.0
 10
78.91697453539228
 20
-111.4691650111952
 10
78.79639619340854
 20
-111.4776054951341
 10
78.50218503896821
 20
-111.5008598896595
 10
78.50218503896821
 20
-111.8985961634316
 10
78.50218503896821
 20
-111.9621581751345
 10
78.50218503896821
 20
-112.17575409522
 10
78.77090248681769
 20
-112.2201958269797
 10
78.77090248681769
 20
-112.2201958269797
 10
78.91697453539228
 20
-111.4691650111952
 10
78.91697453539228
 20
-111.4691650111952
 97
        0
 97
        0
 92
        1
 93
        1
 72
     4
 94
        3
 73
     0
 74
     1
 95
       14
 96
       10
 40
0.0
 40
0.0
 40
0.0
 40
0.0
 40
1.0
 40
1.0
 40
1.0
 40
2.0
 40
2.0
 40
2.0
 40
3.0
 40
3.0
 40
3.0
 40
3.0
 10
78.97829723502973
 20
-112.2286363109185
 10
79.16019827665093
 20
-112.2245021963362
 10
79.40342201790956
 20
-112.1440592167557
 10
79.40342201790956
 20
-111.7886976174521
 10
79.40342201790956
 20
-111.6955077845761
 10
79.39084741938841
 20
-111.5072333163072
 10
79.12006291424777
 20
-111.4798448071995
 10
79.12006291424777
 20
-111.4798448071995
 10
78.97829723502973
 20
-112.2286363109185
 10
78.97829723502973
 20
-112.2286363109185
 97
        0
 97
        0
 75
     2
 76
     1
 98
        0
  0
SPLINE
  5
1AC
330
1A4
100
AcDbEntity
  8
_U+30EC_U+30A4_U+30E4_U+30FC 1
370
     0
100
AcDbSpline
210
0.0
220
0.0
230
1.0
 70
    11
 71
     3
 72
    26
 73
    22
 74
     0
 42
0.0000000001
 43
0.0000000001
 12
1.0
 22
0.0
 32
0.0
 13
1.0
 23
0.0
 33
0.0
 40
0.0
 40
0.0
 40
0.0
 40
0.0
 40
1.0
 40
1.0
 40
1.0
 40
2.0
 40
2.0
 40
2.0
 40
3.0
 40
3.0
 40
3.0
 40
4.0
 40
4.0
 40
4.0
 40
5.0
 40
5.0
 40
5.0
 40
6.0
 40
6.0
 40
6.0
 40
7.0
 40
7.0
 40
7.0
 40
7.0
 10
80.17236733021733
 20
-111.3105183640995
 30
0.0
 10
80.17236733021733
 20
-111.3105183640995
 30
0.0
 10
80.17236733021733
 20
-111.162551513008
 30
0.0
 10
80.17236733021733
 20
-111.162551513008
 30
0.0
 10
80.48345945253539
 20
-111.1413641757737
 30
0.0
 10
80.52359481493855
 20
-110.9847845859691
 30
0.0
 10
80.5532226361117
 20
-110.870579670633
 30
0.0
 10
80.5532226361117
 20
-110.870579670633
 30
0.0
 10
80.7139363404986
 20
-110.870579670633
 30
0.0
 10
80.7139363404986
 20
-110.870579670633
 30
0.0
 10
80.7139363404986
 20
-110.870579670633
 30
0.0
 10
80.7139363404986
 20
-112.4148437218963
 30
0.0
 10
80.7139363404986
 20
-112.4148437218963
 30
0.0
 10
80.7139363404986
 20
-112.4148437218963
 30
0.0
 10
80.47484671382226
 20
-112.4148437218963
 30
0.0
 10
80.47484671382226
 20
-112.4148437218963
 30
0.0
 10
80.47484671382226
 20
-112.4148437218963
 30
0.0
 10
80.47484671382226
 20
-111.3105183640995
 30
0.0
 10
80.47484671382226
 20
-111.3105183640995
 30
0.0
 10
80.47484671382226
 20
-111.3105183640995
 30
0.0
 10
80.17236733021733
 20
-111.3105183640995
 30
0.0
 10
80.17236733021733
 20
-111.3105183640995
 30
0.0
  0
HATCH
  5
1AD
330
1A4
100
AcDbEntity
  8
_U+30EC_U+30A4_U+30E4_U+30FC 1
 62
   179
420
  2234388
100
AcDbHatch
 10
0.0
 20
0.0
 30
0.0
210
0.0
220
0.0
230
1.0
  2
SOLID
 70
     1
 71
     0
 91
        1
 92
        1
 93
        1
 72
     4
 94
        3
 73
     0
 74
     1
 95
       26
 96
       22
 40
0.0
 40
0.0
 40
0.0
 40
0.0
 40
1.0
 40
1.0
 40
1.0
 40
2.0
 40
2.0
 40
2.0
 40
3.0
 40
3.0
 40
3.0
 40
4.0
 40
4.0
 40
4.0
 40
5.0
 40
5.0
 40
5.0
 40
6.0
 40
6.0
 40
6.0
 40
7.0
 40
7.0
 40
7.0
 40
7.0
 10
80.17236733021733
 20
-111.3105183640995
 10
80.17236733021733
 20
-111.3105183640995
 10
80.17236733021733
 20
-111.162551513008
 10
80.17236733021733
 20
-111.162551513008
 10
80.48345945253539
 20
-111.1413641757737
 10
80.52359481493855
 20
-110.9847845859691
 10
80.5532226361117
 20
-110.870579670633
 10
80.5532226361117
 20
-110.870579670633
 10
80.7139363404986
 20
-110.870579670633
 10
80.7139363404986
 20
-110.870579670633
 10
80.7139363404986
 20
-110.870579670633
 10
80.7139363404986
 20
-112.4148437218963
 10
80.7139363404986
 20
-112.4148437218963
 10
80.7139363404986
 20
-112.4148437218963
 10
80.47484671382226
 20
-112.4148437218963
 10
80.47484671382226
 20
-112.4148437218963
 10
80.47484671382226
 20
-112.4148437218963
 10
80.47484671382226
 20
-111.3105183640995
 10
80.47484671382226
 20
-111.3105183640995
 10
80.47484671382226
 20
-111.3105183640995
 10
80.17236733021733
 20
-111.3105183640995
 10
80.17236733021733
 20
-111.3105183640995
 97
        0
 97
        0
 75
     2
 76
     1
 98
        0
  0
POLYLINE
  5
1AE
330
1A4
100
AcDbEntity
  8
_U+30EC_U+30A4_U+30E4_U+30FC 1
370
     0
100
AcDb2dPolyline
 66
     1
 10
0.0
 20
0.0
 30
0.0
  0
VERTEX
  5
1AF
330
1AE
100
AcDbEntity
  8
_U+30EC_U+30A4_U+30E4_U+30FC 1
370
     0
100
AcDbVertex
100
AcDb2dVertex
 10
81.71335854076958
 20
-112.1631794966988
 30
0.0
  0
VERTEX
  5
1B0
330
1AE
100
AcDbEntity
  8
_U+30EC_U+30A4_U+30E4_U+30FC 1
370
     0
100
AcDbVertex
100
AcDb2dVertex
 10
81.71335854076958
 20
-112.4148437218963
 30
0.0
  0
VERTEX
  5
1B1
330
1AE
100
AcDbEntity
  8
_U+30EC_U+30A4_U+30E4_U+30FC 1
370
     0
100
AcDbVertex
100
AcDb2dVertex
 10
81.46152206079782
 20
-112.4148437218963
 30
0.0
  0
VERTEX
  5
1B2
330
1AE
100
AcDbEntity
  8
_U+30EC_U+30A4_U+30E4_U+30FC 1
370
     0
100
AcDbVertex
100
AcDb2dVertex
 10
81.46152206079782
 20
-112.1631794966988
 30
0.0
  0
VERTEX
  5
1B3
330
1AE
100
AcDbEntity
  8
_U+30EC_U+30A4_U+30E4_U+30FC 1
370
     0
100
AcDbVertex
100
AcDb2dVertex
 10
81.71335854076958
 20
-112.1631794966988
 30
0.0
  0
SEQEND
  5
1B4
330
1AE
100
AcDbEntity
  8
_U+30EC_U+30A4_U+30E4_U+30FC 1
370
     0
  0
HATCH
  5
1B5
330
1A4
100
AcDbEntity
  8
_U+30EC_U+30A4_U+30E4_U+30FC 1
 62
   179
420
  2234388
100
AcDbHatch
 10
0.0
 20
0.0
 30
0.0
210
0.0
220
0.0
230
1.0
  2
SOLID
 70
     1
 71
     0
 91
        1
 92
        1
 93
        4
 72
     1
 10
81.71335854076958
 20
-112.1631794966988
 11
81.71335854076958
 21
-112.4148437218963
 72
     1
 10
81.71335854076958
 20
-112.4148437218963
 11
81.46152206079782
 21
-112.4148437218963
 72
     1
 10
81.46152206079782
 20
-112.4148437218963
 11
81.46152206079782
 21
-112.1631794966988
 72
     1
 10
81.46152206079782
 20
-112.1631794966988
 11
81.71335854076958
 21
-112.1631794966988
 97
        0
 75
     2
 76
     1
 98
        0
  0
SPLINE
  5
1B6
330
1A4
100
AcDbEntity
  8
_U+30EC_U+30A4_U+30E4_U+30FC 1
370
     0
100
AcDbSpline
210
0.0
220
0.0
230
1.0
 70
    11
 71
     3
 72
    44
 73
    40
 74
     0
 42
0.0000000001
 43
0.0000000001
 12
1.0
 22
0.0
 32
0.0
 13
1.0
 23
0.0
 33
0.0
 40
0.0
 40
0.0
 40
0.0
 40
0.0
 40
1.0
 40
1.0
 40
1.0
 40
2.0
 40
2.0
 40
2.0
 40
3.0
 40
3.0
 40
3.0
 40
4.0
 40
4.0
 40
4.0
 40
5.0
 40
5.0
 40
5.0
 40
6.0
 40
6.0
 40
6.0
 40
7.0
 40
7.0
 40
7.0
 40
8.0
 40
8.0
 40
8.0
 40
9.0
 40
9.0
 40
9.0
 40
10.0
 40
10.0
 40
10.0
 40
11.0
 40
11.0
 40
11.0
 40
12.0
 40
12.0
 40
12.0
 40
13.0
 40
13.0
 40
13.0
 40
13.0
 10
82.61287297196832
 20
-111.8331393492119
 30
0.0
 10
82.39497068252626
 20
-111.9917859963076
 30
0.0
 10
82.30178084965026
 20
-112.0658555492405
 30
0.0
 10
82.25320500330822
 20
-112.2096882857497
 30
0.0
 10
82.25320500330822
 20
-112.2096882857497
 30
0.0
 10
83.03162432820044
 20
-112.2096882857497
 30
0.0
 10
83.03162432820044
 20
-112.2096882857497
 30
0.0
 10
83.03162432820044
 20
-112.2096882857497
 30
0.0
 10
83.03162432820044
 20
-112.4148437218963
 30
0.0
 10
83.03162432820044
 20
-112.4148437218963
 30
0.0
 10
83.03162432820044
 20
-112.4148437218963
 30
0.0
 10
82.00360783540188
 20
-112.4148437218963
 30
0.0
 10
82.00360783540188
 20
-112.4148437218963
 30
0.0
 10
82.03530271386617
 20
-112.0572428105274
 30
0.0
 10
82.10075952808593
 20
-111.9790391430122
 30
0.0
 10
82.48592120333686
 20
-111.6806938739896
 30
0.0
 10
82.74189179789091
 20
-111.4819118644906
 30
0.0
 10
82.80734861211067
 20
-111.4142157382055
 30
0.0
 10
82.80734861211067
 20
-111.276756428344
 30
0.0
 10
82.80734861211067
 20
-111.1582451436514
 30
0.0
 10
82.7355183712432
 20
-111.0271592604377
 30
0.0
 10
82.53880341903545
 20
-111.0271592604377
 30
0.0
 10
82.27852645512482
 20
-111.0271592604377
 30
0.0
 10
82.27008597118595
 20
-111.2576361484009
 30
0.0
 10
82.2657796018294
 20
-111.3740803758023
 30
0.0
 10
82.2657796018294
 20
-111.3740803758023
 30
0.0
 10
82.04167614051389
 20
-111.3740803758023
 30
0.0
 10
82.04167614051389
 20
-111.3740803758023
 30
0.0
 10
82.05011662445276
 20
-111.2471286071709
 30
0.0
 10
82.06062416568277
 20
-111.134990749126
 30
0.0
 10
82.14106714526335
 20
-111.0164794644334
 30
0.0
 10
82.25096569124281
 20
-110.8557657600465
 30
0.0
 10
82.43717310222057
 20
-110.8218315695168
 30
0.0
 10
82.55361732962201
 20
-110.8218315695168
 30
0.0
 10
82.83077526141037
 20
-110.8218315695168
 30
0.0
 10
83.03799775484815
 20
-111.0059719232034
 30
0.0
 10
83.03799775484815
 20
-111.2788234856352
 30
0.0
 10
83.03799775484815
 20
-111.5072333163072
 30
0.0
 10
82.92172578222096
 20
-111.6067965758309
 30
0.0
 10
82.61287297196832
 20
-111.8331393492119
 30
0.0
  0
HATCH
  5
1B7
330
1A4
100
AcDbEntity
  8
_U+30EC_U+30A4_U+30E4_U+30FC 1
 62
   179
420
  2234388
100
AcDbHatch
 10
0.0
 20
0.0
 30
0.0
210
0.0
220
0.0
230
1.0
  2
SOLID
 70
     1
 71
     0
 91
        1
 92
        1
 93
        1
 72
     4
 94
        3
 73
     0
 74
     1
 95
       44
 96
       40
 40
0.0
 40
0.0
 40
0.0
 40
0.0
 40
1.0
 40
1.0
 40
1.0
 40
2.0
 40
2.0
 40
2.0
 40
3.0
 40
3.0
 40
3.0
 40
4.0
 40
4.0
 40
4.0
 40
5.0
 40
5.0
 40
5.0
 40
6.0
 40
6.0
 40
6.0
 40
7.0
 40
7.0
 40
7.0
 40
8.0
 40
8.0
 40
8.0
 40
9.0
 40
9.0
 40
9.0
 40
10.0
 40
10.0
 40
10.0
 40
11.0
 40
11.0
 40
11.0
 40
12.0
 40
12.0
 40
12.0
 40
13.0
 40
13.0
 40
13.0
 40
13.0
 10
82.61287297196832
 20
-111.8331393492119
 10
82.39497068252626
 20
-111.9917859963076
 10
82.30178084965026
 20
-112.0658555492405
 10
82.25320500330822
 20
-112.2096882857497
 10
82.25320500330822
 20
-112.2096882857497
 10
83.03162432820044
 20
-112.2096882857497
 10
83.03162432820044
 20
-112.2096882857497
 10
83.03162432820044
 20
-112.2096882857497
 10
83.03162432820044
 20
-112.4148437218963
 10
83.03162432820044
 20
-112.4148437218963
 10
83.03162432820044
 20
-112.4148437218963
 10
82.00360783540188
 20
-112.4148437218963
 10
82.00360783540188
 20
-112.4148437218963
 10
82.03530271386617
 20
-112.0572428105274
 10
82.10075952808593
 20
-111.9790391430122
 10
82.48592120333686
 20
-111.6806938739896
 10
82.74189179789091
 20
-111.4819118644906
 10
82.80734861211067
 20
-111.4142157382055
 10
82.80734861211067
 20
-111.276756428344
 10
82.80734861211067
 20
-111.1582451436514
 10
82.7355183712432
 20
-111.0271592604377
 10
82.53880341903545
 20
-111.0271592604377
 10
82.27852645512482
 20
-111.0271592604377
 10
82.27008597118595
 20
-111.2576361484009
 10
82.2657796018294
 20
-111.3740803758023
 10
82.2657796018294
 20
-111.3740803758023
 10
82.04167614051389
 20
-111.3740803758023
 10
82.04167614051389
 20
-111.3740803758023
 10
82.05011662445276
 20
-111.2471286071709
 10
82.06062416568277
 20
-111.134990749126
 10
82.14106714526335
 20
-111.0164794644334
 10
82.25096569124281
 20
-110.8557657600465
 10
82.43717310222057
 20
-110.8218315695168
 10
82.55361732962201
 20
-110.8218315695168
 10
82.83077526141037
 20
-110.8218315695168
 10
83.03799775484815
 20
-111.0059719232034
 10
83.03799775484815
 20
-111.2788234856352
 10
83.03799775484815
 20
-111.5072333163072
 10
82.92172578222096
 20
-111.6067965758309
 10
82.61287297196832
 20
-111.8331393492119
 97
        0
 97
        0
 75
     2
 76
     1
 98
        0
  0
ENDBLK
  5
1A7
330
1A4
100
AcDbEntity
  8
0
100
AcDbBlockEnd
  0
BLOCK
  5
1F6
330
1F4
100
AcDbEntity
  8
0
100
AcDbBlockBegin
  2
block 6
 70
     0
 10
0.0
 20
0.0
 30
0.0
  3
block 6
  1

  0
SPLINE
  5
1F8
330
1F4
100
AcDbEntity
  8
_U+30EC_U+30A4_U+30E4_U+30FC 1
370
     0
100
AcDbSpline
210
0.0
220
0.0
230
1.0
 70
    11
 71
     3
 72
    26
 73
    22
 74
     0
 42
0.0000000001
 43
0.0000000001
 12
1.0
 22
0.0
 32
0.0
 13
1.0
 23
0.0
 33
0.0
 40
0.0
 40
0.0
 40
0.0
 40
0.0
 40
1.0
 40
1.0
 40
1.0
 40
2.0
 40
2.0
 40
2.0
 40
3.0
 40
3.0
 40
3.0
 40
4.0
 40
4.0
 40
4.0
 40
5.0
 40
5.0
 40
5.0
 40
6.0
 40
6.0
 40
6.0
 40
7.0
 40
7.0
 40
7.0
 40
7.0
 10
86.149091232803
 20
-158.8719563404904
 30
0.0
 10
86.149091232803
 20
-158.8719563404904
 30
0.0
 10
86.149091232803
 20
-157.7678032374678
 30
0.0
 10
86.149091232803
 20
-157.7678032374678
 30
0.0
 10
86.149091232803
 20
-157.7678032374678
 30
0.0
 10
85.84867890648923
 20
-157.7678032374678
 30
0.0
 10
85.84867890648923
 20
-157.7678032374678
 30
0.0
 10
85.84867890648923
 20
-157.7678032374678
 30
0.0
 10
85.84867890648923
 20
-157.619664131602
 30
0.0
 10
85.84867890648923
 20
-157.619664131602
 30
0.0
 10
86.15115829009416
 20
-157.6048502210155
 30
0.0
 10
86.19353296456273
 20
-157.4418972045631
 30
0.0
 10
86.22040470934768
 20
-157.3275200344528
 30
0.0
 10
86.22040470934768
 20
-157.3275200344528
 30
0.0
 10
86.35338539507832
 20
-157.3275200344528
 30
0.0
 10
86.35338539507832
 20
-157.3275200344528
 30
0.0
 10
86.35338539507832
 20
-157.3275200344528
 30
0.0
 10
86.35338539507832
 20
-158.8719563404904
 30
0.0
 10
86.35338539507832
 20
-158.8719563404904
 30
0.0
 10
86.35338539507832
 20
-158.8719563404904
 30
0.0
 10
86.149091232803
 20
-158.8719563404904
 30
0.0
 10
86.149091232803
 20
-158.8719563404904
 30
0.0
  0
HATCH
  5
1F9
330
1F4
100
AcDbEntity
  8
_U+30EC_U+30A4_U+30E4_U+30FC 1
 62
   179
420
  2234388
100
AcDbHatch
 10
0.0
 20
0.0
 30
0.0
210
0.0
220
0.0
230
1.0
  2
SOLID
 70
     1
 71
     0
 91
        1
 92
        1
 93
        1
 72
     4
 94
        3
 73
     0
 74
     1
 95
       26
 96
       22
 40
0.0
 40
0.0
 40
0.0
 40
0.0
 40
1.0
 40
1.0
 40
1.0
 40
2.0
 40
2.0
 40
2.0
 40
3.0
 40
3.0
 40
3.0
 40
4.0
 40
4.0
 40
4.0
 40
5.0
 40
5.0
 40
5.0
 40
6.0
 40
6.0
 40
6.0
 40
7.0
 40
7.0
 40
7.0
 40
7.0
 10
86.149091232803
 20
-158.8719563404904
 10
86.149091232803
 20
-158.8719563404904
 10
86.149091232803
 20
-157.7678032374678
 10
86.149091232803
 20
-157.7678032374678
 10
86.149091232803
 20
-157.7678032374678
 10
85.84867890648923
 20
-157.7678032374678
 10
85.84867890648923
 20
-157.7678032374678
 10
85.84867890648923
 20
-157.7678032374678
 10
85.84867890648923
 20
-157.619664131602
 10
85.84867890648923
 20
-157.619664131602
 10
86.15115829009416
 20
-157.6048502210155
 10
86.19353296456273
 20
-157.4418972045631
 10
86.22040470934768
 20
-157.3275200344528
 10
86.22040470934768
 20
-157.3275200344528
 10
86.35338539507832
 20
-157.3275200344528
 10
86.35338539507832
 20
-157.3275200344528
 10
86.35338539507832
 20
-157.3275200344528
 10
86.35338539507832
 20
-158.8719563404904
 10
86.35338539507832
 20
-158.8719563404904
 10
86.35338539507832
 20
-158.8719563404904
 10
86.149091232803
 20
-158.8719563404904
 10
86.149091232803
 20
-158.8719563404904
 97
        0
 97
        0
 75
     2
 76
     1
 98
        0
  0
SPLINE
  5
1FA
330
1F4
100
AcDbEntity
  8
_U+30EC_U+30A4_U+30E4_U+30FC 1
370
     0
100
AcDbSpline
210
0.0
220
0.0
230
1.0
 70
    11
 71
     3
 72
    32
 73
    28
 74
     0
 42
0.0000000001
 43
0.0000000001
 12
1.0
 22
0.0
 32
0.0
 13
1.0
 23
0.0
 33
0.0
 40
0.0
 40
0.0
 40
0.0
 40
0.0
 40
1.0
 40
1.0
 40
1.0
 40
2.0
 40
2.0
 40
2.0
 40
3.0
 40
3.0
 40
3.0
 40
4.0
 40
4.0
 40
4.0
 40
5.0
 40
5.0
 40
5.0
 40
6.0
 40
6.0
 40
6.0
 40
7.0
 40
7.0
 40
7.0
 40
8.0
 40
8.0
 40
8.0
 40
9.0
 40
9.0
 40
9.0
 40
9.0
 10
87.26840275596068
 20
-158.9225992441235
 30
0.0
 10
86.79814722222407
 20
-158.9225992441235
 30
0.0
 10
86.79056801215653
 20
-158.3686278900954
 30
0.0
 10
86.79056801215653
 20
-158.1546874604613
 30
0.0
 10
86.79056801215653
 20
-157.9242105724981
 30
0.0
 10
86.80779348958278
 20
-157.2768771308197
 30
0.0
 10
87.30319822036171
 20
-157.2768771308197
 30
0.0
 10
87.46132810313468
 20
-157.2768771308197
 30
0.0
 10
87.68491480012739
 20
-157.3468125691703
 30
0.0
 10
87.71936575497989
 20
-157.6789197739483
 30
0.0
 10
87.71936575497989
 20
-157.6789197739483
 30
0.0
 10
87.52471786006326
 20
-157.6789197739483
 30
0.0
 10
87.52471786006326
 20
-157.6789197739483
 30
0.0
 10
87.51507159270457
 20
-157.6217311888932
 30
0.0
 10
87.48613279062847
 20
-157.4735920830275
 30
0.0
 10
87.30113116307055
 20
-157.4735920830275
 30
0.0
 10
87.03516979160926
 20
-157.4735920830275
 30
0.0
 10
86.99865177946562
 20
-157.8015651732232
 30
0.0
 10
86.9872829643643
 20
-158.0065483545956
 30
0.0
 10
87.07203231330143
 20
-157.9283446870804
 30
0.0
 10
87.13369952248742
 20
-157.8690890447341
 30
0.0
 10
87.29940861532793
 20
-157.8690890447341
 30
0.0
 10
87.46305065087729
 20
-157.8690890447341
 30
0.0
 10
87.73865828969728
 20
-157.977265042971
 30
0.0
 10
87.73865828969728
 20
-158.3834418006819
 30
0.0
 10
87.73865828969728
 20
-158.7028021521646
 30
0.0
 10
87.55744626717315
 20
-158.9225992441235
 30
0.0
 10
87.26840275596068
 20
-158.9225992441235
 30
0.0
  0
SPLINE
  5
1FB
330
1F4
100
AcDbEntity
  8
_U+30EC_U+30A4_U+30E4_U+30FC 1
370
     0
100
AcDbSpline
210
0.0
220
0.0
230
1.0
 70
    11
 71
     3
 72
    17
 73
    13
 74
     0
 42
0.0000000001
 43
0.0000000001
 12
1.0
 22
0.0
 32
0.0
 13
1.0
 23
0.0
 33
0.0
 40
0.0
 40
0.0
 40
0.0
 40
0.0
 40
1.0
 40
1.0
 40
1.0
 40
2.0
 40
2.0
 40
2.0
 40
3.0
 40
3.0
 40
3.0
 40
4.0
 40
4.0
 40
4.0
 40
4.0
 10
87.2839056856443
 20
-158.0637369396507
 30
0.0
 10
87.04481605896797
 20
-158.0637369396507
 30
0.0
 10
87.01036510411546
 20
-158.2752658024451
 30
0.0
 10
87.01036510411546
 20
-158.3917100298465
 30
0.0
 10
87.01036510411546
 20
-158.5674098995943
 30
0.0
 10
87.09683700079523
 20
-158.7303629160466
 30
0.0
 10
87.2646131509269
 20
-158.7303629160466
 30
0.0
 10
87.37451169690638
 20
-158.7303629160466
 30
0.0
 10
87.53436412742197
 20
-158.6711072737003
 30
0.0
 10
87.53436412742197
 20
-158.3855088579731
 30
0.0
 10
87.53436412742197
 20
-158.1612331418833
 30
0.0
 10
87.40724010401625
 20
-158.0637369396507
 30
0.0
 10
87.2839056856443
 20
-158.0637369396507
 30
0.0
  0
HATCH
  5
1FC
330
1F4
100
AcDbEntity
  8
_U+30EC_U+30A4_U+30E4_U+30FC 1
 62
   179
420
  2234388
100
AcDbHatch
 10
0.0
 20
0.0
 30
0.0
210
0.0
220
0.0
230
1.0
  2
SOLID
 70
     1
 71
     0
 91
        2
 92
        1
 93
        1
 72
     4
 94
        3
 73
     0
 74
     1
 95
       32
 96
       28
 40
0.0
 40
0.0
 40
0.0
 40
0.0
 40
1.0
 40
1.0
 40
1.0
 40
2.0
 40
2.0
 40
2.0
 40
3.0
 40
3.0
 40
3.0
 40
4.0
 40
4.0
 40
4.0
 40
5.0
 40
5.0
 40
5.0
 40
6.0
 40
6.0
 40
6.0
 40
7.0
 40
7.0
 40
7.0
 40
8.0
 40
8.0
 40
8.0
 40
9.0
 40
9.0
 40
9.0
 40
9.0
 10
87.26840275596068
 20
-158.9225992441235
 10
86.79814722222407
 20
-158.9225992441235
 10
86.79056801215653
 20
-158.3686278900954
 10
86.79056801215653
 20
-158.1546874604613
 10
86.79056801215653
 20
-157.9242105724981
 10
86.80779348958278
 20
-157.2768771308197
 10
87.30319822036171
 20
-157.2768771308197
 10
87.46132810313468
 20
-157.2768771308197
 10
87.68491480012739
 20
-157.3468125691703
 10
87.71936575497989
 20
-157.6789197739483
 10
87.71936575497989
 20
-157.6789197739483
 10
87.52471786006326
 20
-157.6789197739483
 10
87.52471786006326
 20
-157.6789197739483
 10
87.51507159270457
 20
-157.6217311888932
 10
87.48613279062847
 20
-157.4735920830275
 10
87.30113116307055
 20
-157.4735920830275
 10
87.03516979160926
 20
-157.4735920830275
 10
86.99865177946562
 20
-157.8015651732232
 10
86.9872829643643
 20
-158.0065483545956
 10
87.07203231330143
 20
-157.9283446870804
 10
87.13369952248742
 20
-157.8690890447341
 10
87.29940861532793
 20
-157.8690890447341
 10
87.46305065087729
 20
-157.8690890447341
 10
87.73865828969728
 20
-157.977265042971
 10
87.73865828969728
 20
-158.3834418006819
 10
87.73865828969728
 20
-158.7028021521646
 10
87.55744626717315
 20
-158.9225992441235
 10
87.26840275596068
 20
-158.9225992441235
 97
        0
 97
        0
 92
        1
 93
        1
 72
     4
 94
        3
 73
     0
 74
     1
 95
       17
 96
       13
 40
0.0
 40
0.0
 40
0.0
 40
0.0
 40
1.0
 40
1.0
 40
1.0
 40
2.0
 40
2.0
 40
2.0
 40
3.0
 40
3.0
 40
3.0
 40
4.0
 40
4.0
 40
4.0
 40
4.0
 10
87.2839056856443
 20
-158.0637369396507
 10
87.04481605896797
 20
-158.0637369396507
 10
87.01036510411546
 20
-158.2752658024451
 10
87.01036510411546
 20
-158.3917100298465
 10
87.01036510411546
 20
-158.5674098995943
 10
87.09683700079523
 20
-158.7303629160466
 10
87.2646131509269
 20
-158.7303629160466
 10
87.37451169690638
 20
-158.7303629160466
 10
87.53436412742197
 20
-158.6711072737003
 10
87.53436412742197
 20
-158.3855088579731
 10
87.53436412742197
 20
-158.1612331418833
 10
87.40724010401625
 20
-158.0637369396507
 10
87.2839056856443
 20
-158.0637369396507
 97
        0
 97
        0
 75
     2
 76
     1
 98
        0
  0
ENDBLK
  5
1F7
330
1F4
100
AcDbEntity
  8
0
100
AcDbBlockEnd
  0
BLOCK
  5
21D
330
21B
100
AcDbEntity
  8
0
100
AcDbBlockBegin
  2
block 7
 70
     0
 10
0.0
 20
0.0
 30
0.0
  3
block 7
  1

  0
POLYLINE
  5
21F
330
21B
100
AcDbEntity
  8
_U+30EC_U+30A4_U+30E4_U+30FC 1
370
     0
100
AcDb2dPolyline
 66
     1
 10
0.0
 20
0.0
 30
0.0
  0
VERTEX
  5
220
330
21F
100
AcDbEntity
  8
_U+30EC_U+30A4_U+30E4_U+30FC 1
370
     0
100
AcDbVertex
100
AcDb2dVertex
 10
93.25115557564556
 20
-144.140039026465
 30
0.0
  0
VERTEX
  5
221
330
21F
100
AcDbEntity
  8
_U+30EC_U+30A4_U+30E4_U+30FC 1
370
     0
100
AcDbVertex
100
AcDb2dVertex
 10
93.5980766910102
 20
-144.140039026465
 30
0.0
  0
VERTEX
  5
222
330
21F
100
AcDbEntity
  8
_U+30EC_U+30A4_U+30E4_U+30FC 1
370
     0
100
AcDbVertex
100
AcDb2dVertex
 10
93.5980766910102
 20
-144.3384765264154
 30
0.0
  0
VERTEX
  5
223
330
21F
100
AcDbEntity
  8
_U+30EC_U+30A4_U+30E4_U+30FC 1
370
     0
100
AcDbVertex
100
AcDb2dVertex
 10
93.25115557564556
 20
-144.3384765264154
 30
0.0
  0
VERTEX
  5
224
330
21F
100
AcDbEntity
  8
_U+30EC_U+30A4_U+30E4_U+30FC 1
370
     0
100
AcDbVertex
100
AcDb2dVertex
 10
93.25115557564556
 20
-144.9358560835577
 30
0.0
  0
VERTEX
  5
225
330
21F
100
AcDbEntity
  8
_U+30EC_U+30A4_U+30E4_U+30FC 1
370
     0
100
AcDbVertex
100
AcDb2dVertex
 10
93.02687985955579
 20
-144.9358560835577
 30
0.0
  0
VERTEX
  5
226
330
21F
100
AcDbEntity
  8
_U+30EC_U+30A4_U+30E4_U+30FC 1
370
     0
100
AcDbVertex
100
AcDb2dVertex
 10
92.05364038497271
 20
-144.3171169344068
 30
0.0
  0
VERTEX
  5
227
330
21F
100
AcDbEntity
  8
_U+30EC_U+30A4_U+30E4_U+30FC 1
370
     0
100
AcDbVertex
100
AcDb2dVertex
 10
92.05364038497271
 20
-144.140039026465
 30
0.0
  0
VERTEX
  5
228
330
21F
100
AcDbEntity
  8
_U+30EC_U+30A4_U+30E4_U+30FC 1
370
     0
100
AcDbVertex
100
AcDb2dVertex
 10
93.05237356614663
 20
-144.140039026465
 30
0.0
  0
VERTEX
  5
229
330
21F
100
AcDbEntity
  8
_U+30EC_U+30A4_U+30E4_U+30FC 1
370
     0
100
AcDbVertex
100
AcDb2dVertex
 10
93.05237356614663
 20
-143.9512477938733
 30
0.0
  0
VERTEX
  5
22A
330
21F
100
AcDbEntity
  8
_U+30EC_U+30A4_U+30E4_U+30FC 1
370
     0
100
AcDbVertex
100
AcDb2dVertex
 10
93.25115557564556
 20
-143.9512477938733
 30
0.0
  0
VERTEX
  5
22B
330
21F
100
AcDbEntity
  8
_U+30EC_U+30A4_U+30E4_U+30FC 1
370
     0
100
AcDbVertex
100
AcDb2dVertex
 10
93.25115557564556
 20
-144.140039026465
 30
0.0
  0
SEQEND
  5
22C
330
21F
100
AcDbEntity
  8
_U+30EC_U+30A4_U+30E4_U+30FC 1
370
     0
  0
POLYLINE
  5
22D
330
21B
100
AcDbEntity
  8
_U+30EC_U+30A4_U+30E4_U+30FC 1
370
     0
100
AcDb2dPolyline
 66
     1
 10
0.0
 20
0.0
 30
0.0
  0
VERTEX
  5
22E
330
22D
100
AcDbEntity
  8
_U+30EC_U+30A4_U+30E4_U+30FC 1
370
     0
100
AcDbVertex
100
AcDb2dVertex
 10
92.39642738575506
 20
-144.3384765264154
 30
0.0
  0
VERTEX
  5
22F
330
22D
100
AcDbEntity
  8
_U+30EC_U+30A4_U+30E4_U+30FC 1
370
     0
100
AcDbVertex
100
AcDb2dVertex
 10
93.05237356614663
 20
-144.7546440610336
 30
0.0
  0
VERTEX
  5
230
330
22D
100
AcDbEntity
  8
_U+30EC_U+30A4_U+30E4_U+30FC 1
370
     0
100
AcDbVertex
100
AcDb2dVertex
 10
93.05237356614663
 20
-144.3384765264154
 30
0.0
  0
VERTEX
  5
231
330
22D
100
AcDbEntity
  8
_U+30EC_U+30A4_U+30E4_U+30FC 1
370
     0
100
AcDbVertex
100
AcDb2dVertex
 10
92.39642738575506
 20
-144.3384765264154
 30
0.0
  0
SEQEND
  5
232
330
22D
100
AcDbEntity
  8
_U+30EC_U+30A4_U+30E4_U+30FC 1
370
     0
  0
HATCH
  5
233
330
21B
100
AcDbEntity
  8
_U+30EC_U+30A4_U+30E4_U+30FC 1
 62
   179
420
  2234388
100
AcDbHatch
 10
0.0
 20
0.0
 30
0.0
210
0.0
220
0.0
230
1.0
  2
SOLID
 70
     1
 71
     0
 91
        2
 92
        1
 93
       11
 72
     1
 10
93.25115557564556
 20
-144.140039026465
 11
93.5980766910102
 21
-144.140039026465
 72
     1
 10
93.5980766910102
 20
-144.140039026465
 11
93.5980766910102
 21
-144.3384765264154
 72
     1
 10
93.5980766910102
 20
-144.3384765264154
 11
93.25115557564556
 21
-144.3384765264154
 72
     1
 10
93.25115557564556
 20
-144.3384765264154
 11
93.25115557564556
 21
-144.9358560835577
 72
     1
 10
93.25115557564556
 20
-144.9358560835577
 11
93.02687985955579
 21
-144.9358560835577
 72
     1
 10
93.02687985955579
 20
-144.9358560835577
 11
92.05364038497271
 21
-144.3171169344068
 72
     1
 10
92.05364038497271
 20
-144.3171169344068
 11
92.05364038497271
 21
-144.140039026465
 72
     1
 10
92.05364038497271
 20
-144.140039026465
 11
93.05237356614663
 21
-144.140039026465
 72
     1
 10
93.05237356614663
 20
-144.140039026465
 11
93.05237356614663
 21
-143.9512477938733
 72
     1
 10
93.05237356614663
 20
-143.9512477938733
 11
93.25115557564556
 21
-143.9512477938733
 72
     1
 10
93.25115557564556
 20
-143.9512477938733
 11
93.25115557564556
 21
-144.140039026465
 97
        0
 92
        1
 93
        3
 72
     1
 10
92.39642738575506
 20
-144.3384765264154
 11
93.05237356614663
 21
-144.7546440610336
 72
     1
 10
93.05237356614663
 20
-144.7546440610336
 11
93.05237356614663
 21
-144.3384765264154
 72
     1
 10
93.05237356614663
 20
-144.3384765264154
 11
92.39642738575506
 21
-144.3384765264154
 97
        0
 75
     2
 76
     1
 98
        0
  0
SPLINE
  5
234
330
21B
100
AcDbEntity
  8
_U+30EC_U+30A4_U+30E4_U+30FC 1
370
     0
100
AcDbSpline
210
0.0
220
0.0
230
1.0
 70
    11
 71
     3
 72
    29
 73
    25
 74
     0
 42
0.0000000001
 43
0.0000000001
 12
1.0
 22
0.0
 32
0.0
 13
1.0
 23
0.0
 33
0.0
 40
0.0
 40
0.0
 40
0.0
 40
0.0
 40
1.0
 40
1.0
 40
1.0
 40
2.0
 40
2.0
 40
2.0
 40
3.0
 40
3.0
 40
3.0
 40
4.0
 40
4.0
 40
4.0
 40
5.0
 40
5.0
 40
5.0
 40
6.0
 40
6.0
 40
6.0
 40
7.0
 40
7.0
 40
7.0
 40
8.0
 40
8.0
 40
8.0
 40
8.0
 10
93.64871959464338
 20
-143.3714382237058
 30
0.0
 10
93.64871959464338
 20
-143.6143174554159
 30
0.0
 10
93.51126028478191
 20
-143.8454833624761
 30
0.0
 10
93.1622721121261
 20
-143.8454833624761
 30
0.0
 10
92.90630151757205
 20
-143.8454833624761
 30
0.0
 10
92.81121688217914
 20
-143.7162922817793
 30
0.0
 10
92.7498941825417
 20
-143.6201741177408
 30
0.0
 10
92.6906385401954
 20
-143.7338622687541
 30
0.0
 10
92.5762613700851
 20
-143.8031086880076
 30
0.0
 10
92.41537541092394
 20
-143.8031086880076
 30
0.0
 10
92.140456791201
 20
-143.8031086880076
 30
0.0
 10
92.00506453863068
 20
-143.6218966654834
 30
0.0
 10
92.00506453863068
 20
-143.3714382237058
 30
0.0
 10
92.00506453863068
 20
-143.113056062312
 30
0.0
 10
92.14906952991413
 20
-142.939767759404
 30
0.0
 10
92.41537541092394
 20
-142.939767759404
 30
0.0
 10
92.5762613700851
 20
-142.939767759404
 30
0.0
 10
92.6906385401954
 20
-143.0110812359486
 30
0.0
 10
92.7498941825417
 20
-143.1247693869619
 30
0.0
 10
92.80053708617487
 20
-143.0438096430585
 30
0.0
 10
92.89562172156776
 20
-142.899115632678
 30
0.0
 10
93.1581379975438
 20
-142.899115632678
 30
0.0
 10
93.53261987679046
 20
-142.899115632678
 30
0.0
 10
93.64871959464338
 20
-143.153708189038
 30
0.0
 10
93.64871959464338
 20
-143.3714382237058
 30
0.0
  0
SPLINE
  5
235
330
21B
100
AcDbEntity
  8
_U+30EC_U+30A4_U+30E4_U+30FC 1
370
     0
100
AcDbSpline
210
0.0
220
0.0
230
1.0
 70
    11
 71
     3
 72
    17
 73
    13
 74
     0
 42
0.0000000001
 43
0.0000000001
 12
1.0
 22
0.0
 32
0.0
 13
1.0
 23
0.0
 33
0.0
 40
0.0
 40
0.0
 40
0.0
 40
0.0
 40
1.0
 40
1.0
 40
1.0
 40
2.0
 40
2.0
 40
2.0
 40
3.0
 40
3.0
 40
3.0
 40
4.0
 40
4.0
 40
4.0
 40
4.0
 10
92.19764537625615
 20
-143.3714382237058
 30
0.0
 10
92.19764537625615
 20
-143.5216443868626
 30
0.0
 10
92.29273001164904
 20
-143.5988145257323
 30
0.0
 10
92.42812226421937
 20
-143.5988145257323
 30
0.0
 10
92.55076766349426
 20
-143.5988145257323
 30
0.0
 10
92.66927894818686
 20
-143.5333577115125
 30
0.0
 10
92.66927894818686
 20
-143.3714382237058
 30
0.0
 10
92.66927894818686
 20
-143.209518735899
 30
0.0
 10
92.55076766349426
 20
-143.1440619216793
 30
0.0
 10
92.42812226421937
 20
-143.1440619216793
 30
0.0
 10
92.29273001164904
 20
-143.1440619216793
 30
0.0
 10
92.19764537625615
 20
-143.2229546082915
 30
0.0
 10
92.19764537625615
 20
-143.3714382237058
 30
0.0
  0
SPLINE
  5
236
330
21B
100
AcDbEntity
  8
_U+30EC_U+30A4_U+30E4_U+30FC 1
370
     0
100
AcDbSpline
210
0.0
220
0.0
230
1.0
 70
    11
 71
     3
 72
    17
 73
    13
 74
     0
 42
0.0000000001
 43
0.0000000001
 12
1.0
 22
0.0
 32
0.0
 13
1.0
 23
0.0
 33
0.0
 40
0.0
 40
0.0
 40
0.0
 40
0.0
 40
1.0
 40
1.0
 40
1.0
 40
2.0
 40
2.0
 40
2.0
 40
3.0
 40
3.0
 40
3.0
 40
4.0
 40
4.0
 40
4.0
 40
4.0
 10
92.85772567123001
 20
-143.3714382237058
 30
0.0
 10
92.85772567123001
 20
-143.5023518521452
 30
0.0
 10
92.94454207745831
 20
-143.6411892002008
 30
0.0
 10
93.14745820153954
 20
-143.6411892002008
 30
0.0
 10
93.35278589246042
 20
-143.6411892002008
 30
0.0
 10
93.45407169972677
 20
-143.5254339918964
 30
0.0
 10
93.45407169972677
 20
-143.3714382237058
 30
0.0
 10
93.45407169972677
 20
-143.2019395258315
 30
0.0
 10
93.33142630045187
 20
-143.1016872472107
 30
0.0
 10
93.15365937341298
 20
-143.1016872472107
 30
0.0
 10
92.93179522416288
 20
-143.1016872472107
 30
0.0
 10
92.85772567123001
 20
-143.250170862625
 30
0.0
 10
92.85772567123001
 20
-143.3714382237058
 30
0.0
  0
HATCH
  5
237
330
21B
100
AcDbEntity
  8
_U+30EC_U+30A4_U+30E4_U+30FC 1
 62
   179
420
  2234388
100
AcDbHatch
 10
0.0
 20
0.0
 30
0.0
210
0.0
220
0.0
230
1.0
  2
SOLID
 70
     1
 71
     0
 91
        3
 92
        1
 93
        1
 72
     4
 94
        3
 73
     0
 74
     1
 95
       29
 96
       25
 40
0.0
 40
0.0
 40
0.0
 40
0.0
 40
1.0
 40
1.0
 40
1.0
 40
2.0
 40
2.0
 40
2.0
 40
3.0
 40
3.0
 40
3.0
 40
4.0
 40
4.0
 40
4.0
 40
5.0
 40
5.0
 40
5.0
 40
6.0
 40
6.0
 40
6.0
 40
7.0
 40
7.0
 40
7.0
 40
8.0
 40
8.0
 40
8.0
 40
8.0
 10
93.64871959464338
 20
-143.3714382237058
 10
93.64871959464338
 20
-143.6143174554159
 10
93.51126028478191
 20
-143.8454833624761
 10
93.1622721121261
 20
-143.8454833624761
 10
92.90630151757205
 20
-143.8454833624761
 10
92.81121688217914
 20
-143.7162922817793
 10
92.7498941825417
 20
-143.6201741177408
 10
92.6906385401954
 20
-143.7338622687541
 10
92.5762613700851
 20
-143.8031086880076
 10
92.41537541092394
 20
-143.8031086880076
 10
92.140456791201
 20
-143.8031086880076
 10
92.00506453863068
 20
-143.6218966654834
 10
92.00506453863068
 20
-143.3714382237058
 10
92.00506453863068
 20
-143.113056062312
 10
92.14906952991413
 20
-142.939767759404
 10
92.41537541092394
 20
-142.939767759404
 10
92.5762613700851
 20
-142.939767759404
 10
92.6906385401954
 20
-143.0110812359486
 10
92.7498941825417
 20
-143.1247693869619
 10
92.80053708617487
 20
-143.0438096430585
 10
92.89562172156776
 20
-142.899115632678
 10
93.1581379975438
 20
-142.899115632678
 10
93.53261987679046
 20
-142.899115632678
 10
93.64871959464338
 20
-143.153708189038
 10
93.64871959464338
 20
-143.3714382237058
 97
        0
 97
        0
 92
        1
 93
        1
 72
     4
 94
        3
 73
     0
 74
     1
 95
       17
 96
       13
 40
0.0
 40
0.0
 40
0.0
 40
0.0
 40
1.0
 40
1.0
 40
1.0
 40
2.0
 40
2.0
 40
2.0
 40
3.0
 40
3.0
 40
3.0
 40
4.0
 40
4.0
 40
4.0
 40
4.0
 10
92.19764537625615
 20
-143.3714382237058
 10
92.19764537625615
 20
-143.5216443868626
 10
92.29273001164904
 20
-143.5988145257323
 10
92.42812226421937
 20
-143.5988145257323
 10
92.55076766349426
 20
-143.5988145257323
 10
92.66927894818686
 20
-143.5333577115125
 10
92.66927894818686
 20
-143.3714382237058
 10
92.66927894818686
 20
-143.209518735899
 10
92.55076766349426
 20
-143.1440619216793
 10
92.42812226421937
 20
-143.1440619216793
 10
92.29273001164904
 20
-143.1440619216793
 10
92.19764537625615
 20
-143.2229546082915
 10
92.19764537625615
 20
-143.3714382237058
 97
        0
 97
        0
 92
        1
 93
        1
 72
     4
 94
        3
 73
     0
 74
     1
 95
       17
 96
       13
 40
0.0
 40
0.0
 40
0.0
 40
0.0
 40
1.0
 40
1.0
 40
1.0
 40
2.0
 40
2.0
 40
2.0
 40
3.0
 40
3.0
 40
3.0
 40
4.0
 40
4.0
 40
4.0
 40
4.0
 10
92.85772567123001
 20
-143.3714382237058
 10
92.85772567123001
 20
-143.5023518521452
 10
92.94454207745831
 20
-143.6411892002008
 10
93.14745820153954
 20
-143.6411892002008
 10
93.35278589246042
 20
-143.6411892002008
 10
93.45407169972677
 20
-143.5254339918964
 10
93.45407169972677
 20
-143.3714382237058
 10
93.45407169972677
 20
-143.2019395258315
 10
93.33142630045187
 20
-143.1016872472107
 10
93.15365937341298
 20
-143.1016872472107
 10
92.93179522416288
 20
-143.1016872472107
 10
92.85772567123001
 20
-143.250170862625
 10
92.85772567123001
 20
-143.3714382237058
 97
        0
 97
        0
 75
     2
 76
     1
 98
        0
  0
ENDBLK
  5
21E
330
21B
100
AcDbEntity
  8
0
100
AcDbBlockEnd
  0
ENDSEC
  0
SECTION
  2
ENTITIES
  0
POLYLINE
  5
41
330
1F
100
AcDbEntity
  8
_U+30EC_U+30A4_U+30E4_U+30FC 1
 62
   179
420
  2234388
370
     9
100
AcDb2dPolyline
 66
     1
 10
0.0
 20
0.0
 30
0.0
  0
VERTEX
  5
42
330
41
100
AcDbEntity
  8
_U+30EC_U+30A4_U+30E4_U+30FC 1
 62
   179
420
  2234388
370
     9
100
AcDbVertex
100
AcDb2dVertex
 10
99.9746091161019
 20
-159.0700399602324
 30
0.0
  0
VERTEX
  5
43
330
41
100
AcDbEntity
  8
_U+30EC_U+30A4_U+30E4_U+30FC 1
 62
   179
420
  2234388
370
     9
100
AcDbVertex
100
AcDb2dVertex
 10
103.4159209727512
 20
-159.0700399602324
 30
0.0
  0
SEQEND
  5
44
330
41
100
AcDbEntity
  8
_U+30EC_U+30A4_U+30E4_U+30FC 1
 62
   179
420
  2234388
370
     9
  0
INSERT
  5
46
330
1F
100
AcDbEntity
  8
_U+30EC_U+30A4_U+30E4_U+30FC 1
100
AcDbBlockReference
  2
block 2
 10
0.0
 20
0.0
 30
0.0
  0
POLYLINE
  5
68
330
1F
100
AcDbEntity
  8
_U+30EC_U+30A4_U+30E4_U+30FC 1
 62
   179
420
  2234388
370
     9
100
AcDb2dPolyline
 66
     1
 10
0.0
 20
0.0
 30
0.0
  0
VERTEX
  5
69
330
68
100
AcDbEntity
  8
_U+30EC_U+30A4_U+30E4_U+30FC 1
 62
   179
420
  2234388
370
     9
100
AcDbVertex
100
AcDb2dVertex
 10
82.61099317019575
 20
-144.5210610749806
 30
0.0
  0
VERTEX
  5
6A
330
68
100
AcDbEntity
  8
_U+30EC_U+30A4_U+30E4_U+30FC 1
 62
   179
420
  2234388
370
     9
100
AcDbVertex
100
AcDb2dVertex
 10
82.61099317019575
 20
-146.2746135745421
 30
0.0
  0
SEQEND
  5
6B
330
68
100
AcDbEntity
  8
_U+30EC_U+30A4_U+30E4_U+30FC 1
 62
   179
420
  2234388
370
     9
  0
POLYLINE
  5
6C
330
1F
100
AcDbEntity
  8
_U+30EC_U+30A4_U+30E4_U+30FC 1
 62
   179
420
  2234388
370
     9
100
AcDb2dPolyline
 66
     1
 10
0.0
 20
0.0
 30
0.0
  0
VERTEX
  5
6D
330
6C
100
AcDbEntity
  8
_U+30EC_U+30A4_U+30E4_U+30FC 1
 62
   179
420
  2234388
370
     9
100
AcDbVertex
100
AcDb2dVertex
 10
83.11119676854561
 20
-144.5210610749806
 30
0.0
  0
VERTEX
  5
6E
330
6C
100
AcDbEntity
  8
_U+30EC_U+30A4_U+30E4_U+30FC 1
 62
   179
420
  2234388
370
     9
100
AcDbVertex
100
AcDb2dVertex
 10
83.11119676854561
 20
-146.2746135745421
 30
0.0
  0
SEQEND
  5
6F
330
6C
100
AcDbEntity
  8
_U+30EC_U+30A4_U+30E4_U+30FC 1
 62
   179
420
  2234388
370
     9
  0
POLYLINE
  5
70
330
1F
100
AcDbEntity
  8
_U+30EC_U+30A4_U+30E4_U+30FC 1
 62
   179
420
  2234388
370
     9
100
AcDb2dPolyline
 66
     1
 10
0.0
 20
0.0
 30
0.0
  0
VERTEX
  5
71
330
70
100
AcDbEntity
  8
_U+30EC_U+30A4_U+30E4_U+30FC 1
 62
   179
420
  2234388
370
     9
100
AcDbVertex
100
AcDb2dVertex
 10
81.78312958020521
 20
-153.4407649616396
 30
0.0
  0
VERTEX
  5
72
330
70
100
AcDbEntity
  8
_U+30EC_U+30A4_U+30E4_U+30FC 1
 62
   179
420
  2234388
370
     9
100
AcDbVertex
100
AcDb2dVertex
 10
81.31629875878171
 20
-153.261624406129
 30
0.0
  0
SEQEND
  5
73
330
70
100
AcDbEntity
  8
_U+30EC_U+30A4_U+30E4_U+30FC 1
 62
   179
420
  2234388
370
     9
  0
POLYLINE
  5
74
330
1F
100
AcDbEntity
  8
_U+30EC_U+30A4_U+30E4_U+30FC 1
 62
   179
420
  2234388
370
     9
100
AcDb2dPolyline
 66
     1
 10
0.0
 20
0.0
 30
0.0
  0
VERTEX
  5
75
330
74
100
AcDbEntity
  8
_U+30EC_U+30A4_U+30E4_U+30FC 1
 62
   179
420
  2234388
370
     9
100
AcDbVertex
100
AcDb2dVertex
 10
81.35834986882001
 20
-153.2774641283476
 30
0.0
  0
VERTEX
  5
76
330
74
100
AcDbEntity
  8
_U+30EC_U+30A4_U+30E4_U+30FC 1
 62
   179
420
  2234388
370
     9
100
AcDbVertex
100
AcDb2dVertex
 10
82.10867497947277
 20
-152.5278113507572
 30
0.0
  0
SEQEND
  5
77
330
74
100
AcDbEntity
  8
_U+30EC_U+30A4_U+30E4_U+30FC 1
 62
   179
420
  2234388
370
     9
  0
POLYLINE
  5
78
330
1F
100
AcDbEntity
  8
_U+30EC_U+30A4_U+30E4_U+30FC 1
 62
   179
420
  2234388
370
     9
100
AcDb2dPolyline
 66
     1
 10
0.0
 20
0.0
 30
0.0
  0
VERTEX
  5
79
330
78
100
AcDbEntity
  8
_U+30EC_U+30A4_U+30E4_U+30FC 1
 62
   179
420
  2234388
370
     9
100
AcDbVertex
100
AcDb2dVertex
 10
81.67013486086572
 20
-152.2591005174907
 30
0.0
  0
VERTEX
  5
7A
330
78
100
AcDbEntity
  8
_U+30EC_U+30A4_U+30E4_U+30FC 1
 62
   179
420
  2234388
370
     9
100
AcDbVertex
100
AcDb2dVertex
 10
82.41185011972077
 20
-151.5170324621209
 30
0.0
  0
SEQEND
  5
7B
330
78
100
AcDbEntity
  8
_U+30EC_U+30A4_U+30E4_U+30FC 1
 62
   179
420
  2234388
370
     9
  0
POLYLINE
  5
7C
330
1F
100
AcDbEntity
  8
_U+30EC_U+30A4_U+30E4_U+30FC 1
 62
   179
420
  2234388
370
     9
100
AcDb2dPolyline
 66
     1
 10
0.0
 20
0.0
 30
0.0
  0
VERTEX
  5
7D
330
7C
100
AcDbEntity
  8
_U+30EC_U+30A4_U+30E4_U+30FC 1
 62
   179
420
  2234388
370
     9
100
AcDbVertex
100
AcDb2dVertex
 10
81.96329318671997
 20
-151.2586227399633
 30
0.0
  0
VERTEX
  5
7E
330
7C
100
AcDbEntity
  8
_U+30EC_U+30A4_U+30E4_U+30FC 1
 62
   179
420
  2234388
370
     9
100
AcDbVertex
100
AcDb2dVertex
 10
82.52001386825887
 20
-150.7012338512138
 30
0.0
  0
SEQEND
  5
7F
330
7C
100
AcDbEntity
  8
_U+30EC_U+30A4_U+30E4_U+30FC 1
 62
   179
420
  2234388
370
     9
  0
POLYLINE
  5
80
330
1F
100
AcDbEntity
  8
_U+30EC_U+30A4_U+30E4_U+30FC 1
 62
   179
420
  2234388
370
     9
100
AcDb2dPolyline
 66
     1
 10
0.0
 20
0.0
 30
0.0
  0
VERTEX
  5
81
330
80
100
AcDbEntity
  8
_U+30EC_U+30A4_U+30E4_U+30FC 1
 62
   179
420
  2234388
370
     9
100
AcDbVertex
100
AcDb2dVertex
 10
82.18480234773546
 20
-150.3298294068617
 30
0.0
  0
VERTEX
  5
82
330
80
100
AcDbEntity
  8
_U+30EC_U+30A4_U+30E4_U+30FC 1
 62
   179
420
  2234388
370
     9
100
AcDbVertex
100
AcDb2dVertex
 10
82.65713650235188
 20
-149.8571777403133
 30
0.0
  0
SEQEND
  5
83
330
80
100
AcDbEntity
  8
_U+30EC_U+30A4_U+30E4_U+30FC 1
 62
   179
420
  2234388
370
     9
  0
POLYLINE
  5
84
330
1F
100
AcDbEntity
  8
_U+30EC_U+30A4_U+30E4_U+30FC 1
 62
   179
420
  2234388
370
     9
100
AcDb2dPolyline
 66
     1
 10
0.0
 20
0.0
 30
0.0
  0
VERTEX
  5
85
330
84
100
AcDbEntity
  8
_U+30EC_U+30A4_U+30E4_U+30FC 1
 62
   179
420
  2234388
370
     9
100
AcDbVertex
100
AcDb2dVertex
 10
82.34947901020087
 20
-149.4585741293019
 30
0.0
  0
VERTEX
  5
86
330
84
100
AcDbEntity
  8
_U+30EC_U+30A4_U+30E4_U+30FC 1
 62
   179
420
  2234388
370
     9
100
AcDbVertex
100
AcDb2dVertex
 10
82.82837483131655
 20
-148.9797135738664
 30
0.0
  0
SEQEND
  5
87
330
84
100
AcDbEntity
  8
_U+30EC_U+30A4_U+30E4_U+30FC 1
 62
   179
420
  2234388
370
     9
  0
POLYLINE
  5
88
330
1F
100
AcDbEntity
  8
_U+30EC_U+30A4_U+30E4_U+30FC 1
 62
   179
420
  2234388
370
     9
100
AcDb2dPolyline
 66
     1
 10
0.0
 20
0.0
 30
0.0
  0
VERTEX
  5
89
330
88
100
AcDbEntity
  8
_U+30EC_U+30A4_U+30E4_U+30FC 1
 62
   179
420
  2234388
370
     9
100
AcDbVertex
100
AcDb2dVertex
 10
82.46801234051017
 20
-148.6331446850639
 30
0.0
  0
VERTEX
  5
8A
330
88
100
AcDbEntity
  8
_U+30EC_U+30A4_U+30E4_U+30FC 1
 62
   179
420
  2234388
370
     9
100
AcDbVertex
100
AcDb2dVertex
 10
82.99922510473559
 20
-148.1018966296411
 30
0.0
  0
SEQEND
  5
8B
330
88
100
AcDbEntity
  8
_U+30EC_U+30A4_U+30E4_U+30FC 1
 62
   179
420
  2234388
370
     9
  0
POLYLINE
  5
8C
330
1F
100
AcDbEntity
  8
_U+30EC_U+30A4_U+30E4_U+30FC 1
 62
   179
420
  2234388
370
     9
100
AcDb2dPolyline
 66
     1
 10
0.0
 20
0.0
 30
0.0
  0
VERTEX
  5
8D
330
8C
100
AcDbEntity
  8
_U+30EC_U+30A4_U+30E4_U+30FC 1
 62
   179
420
  2234388
370
     9
100
AcDbVertex
100
AcDb2dVertex
 10
82.54759900514641
 20
-147.8462738519274
 30
0.0
  0
VERTEX
  5
8E
330
8C
100
AcDbEntity
  8
_U+30EC_U+30A4_U+30E4_U+30FC 1
 62
   179
420
  2234388
370
     9
100
AcDbVertex
100
AcDb2dVertex
 10
83.08431510256476
 20
-147.3095224631724
 30
0.0
  0
SEQEND
  5
8F
330
8C
100
AcDbEntity
  8
_U+30EC_U+30A4_U+30E4_U+30FC 1
 62
   179
420
  2234388
370
     9
  0
POLYLINE
  5
90
330
1F
100
AcDbEntity
  8
_U+30EC_U+30A4_U+30E4_U+30FC 1
 62
   179
420
  2234388
370
     9
100
AcDb2dPolyline
 66
     1
 10
0.0
 20
0.0
 30
0.0
  0
VERTEX
  5
91
330
90
100
AcDbEntity
  8
_U+30EC_U+30A4_U+30E4_U+30FC 1
 62
   179
420
  2234388
370
     9
100
AcDbVertex
100
AcDb2dVertex
 10
82.59374442379594
 20
-147.0924935743377
 30
0.0
  0
VERTEX
  5
92
330
90
100
AcDbEntity
  8
_U+30EC_U+30A4_U+30E4_U+30FC 1
 62
   179
420
  2234388
370
     9
100
AcDbVertex
100
AcDb2dVertex
 10
83.10879997922274
 20
-146.577790796689
 30
0.0
  0
SEQEND
  5
93
330
90
100
AcDbEntity
  8
_U+30EC_U+30A4_U+30E4_U+30FC 1
 62
   179
420
  2234388
370
     9
  0
POLYLINE
  5
94
330
1F
100
AcDbEntity
  8
_U+30EC_U+30A4_U+30E4_U+30FC 1
 62
   179
420
  2234388
370
     9
100
AcDb2dPolyline
 66
     1
 10
0.0
 20
0.0
 30
0.0
  0
VERTEX
  5
95
330
94
100
AcDbEntity
  8
_U+30EC_U+30A4_U+30E4_U+30FC 1
 62
   179
420
  2234388
370
     9
100
AcDbVertex
100
AcDb2dVertex
 10
82.61099317019575
 20
-146.3683113522967
 30
0.0
  0
VERTEX
  5
96
330
94
100
AcDbEntity
  8
_U+30EC_U+30A4_U+30E4_U+30FC 1
 62
   179
420
  2234388
370
     9
100
AcDbVertex
100
AcDb2dVertex
 10
83.11119676854561
 20
-145.8681077413105
 30
0.0
  0
SEQEND
  5
97
330
94
100
AcDbEntity
  8
_U+30EC_U+30A4_U+30E4_U+30FC 1
 62
   179
420
  2234388
370
     9
  0
POLYLINE
  5
98
330
1F
100
AcDbEntity
  8
_U+30EC_U+30A4_U+30E4_U+30FC 1
 62
   179
420
  2234388
370
     9
100
AcDb2dPolyline
 66
     1
 10
0.0
 20
0.0
 30
0.0
  0
VERTEX
  5
99
330
98
100
AcDbEntity
  8
_U+30EC_U+30A4_U+30E4_U+30FC 1
 62
   179
420
  2234388
370
     9
100
AcDbVertex
100
AcDb2dVertex
 10
82.61099317019575
 20
-145.6613799635847
 30
0.0
  0
VERTEX
  5
9A
330
98
100
AcDbEntity
  8
_U+30EC_U+30A4_U+30E4_U+30FC 1
 62
   179
420
  2234388
370
     9
100
AcDbVertex
100
AcDb2dVertex
 10
83.11119676854561
 20
-145.1611763525985
 30
0.0
  0
SEQEND
  5
9B
330
98
100
AcDbEntity
  8
_U+30EC_U+30A4_U+30E4_U+30FC 1
 62
   179
420
  2234388
370
     9
  0
POLYLINE
  5
9C
330
1F
100
AcDbEntity
  8
_U+30EC_U+30A4_U+30E4_U+30FC 1
 62
   179
420
  2234388
370
     9
100
AcDb2dPolyline
 66
     1
 10
0.0
 20
0.0
 30
0.0
  0
VERTEX
  5
9D
330
9C
100
AcDbEntity
  8
_U+30EC_U+30A4_U+30E4_U+30FC 1
 62
   179
420
  2234388
370
     9
100
AcDbVertex
100
AcDb2dVertex
 10
82.61099317019575
 20
-144.9544485748726
 30
0.0
  0
VERTEX
  5
9E
330
9C
100
AcDbEntity
  8
_U+30EC_U+30A4_U+30E4_U+30FC 1
 62
   179
420
  2234388
370
     9
100
AcDbVertex
100
AcDb2dVertex
 10
83.04402788137034
 20
-144.5210610749806
 30
0.0
  0
SEQEND
  5
9F
330
9C
100
AcDbEntity
  8
_U+30EC_U+30A4_U+30E4_U+30FC 1
 62
   179
420
  2234388
370
     9
  0
SPLINE
  5
A0
330
1F
100
AcDbEntity
  8
_U+30EC_U+30A4_U+30E4_U+30FC 1
 62
   179
420
  2234388
370
     9
100
AcDbSpline
210
0.0
220
0.0
230
1.0
 70
     8
 71
     3
 72
     8
 73
     4
 74
     0
 42
0.0000000001
 43
0.0000000001
 12
1.0
 22
0.0
 32
0.0
 13
1.0
 23
0.0
 33
0.0
 40
0.0
 40
0.0
 40
0.0
 40
0.0
 40
1.0
 40
1.0
 40
1.0
 40
1.0
 10
81.78312958020521
 20
-153.4407649616396
 30
0.0
 10
82.07801651712646
 20
-152.6725207951649
 30
0.0
 10
82.32503151082459
 20
-151.8870257953613
 30
0.0
 10
82.52311622799324
 20
-151.0884427400055
 30
0.0
  0
SPLINE
  5
A1
330
1F
100
AcDbEntity
  8
_U+30EC_U+30A4_U+30E4_U+30FC 1
 62
   179
420
  2234388
370
     9
100
AcDbSpline
210
0.0
220
0.0
230
1.0
 70
     8
 71
     3
 72
     8
 73
     4
 74
     0
 42
0.0000000001
 43
0.0000000001
 12
1.0
 22
0.0
 32
0.0
 13
1.0
 23
0.0
 33
0.0
 40
0.0
 40
0.0
 40
0.0
 40
0.0
 40
1.0
 40
1.0
 40
1.0
 40
1.0
 10
83.04953331257101
 20
-147.8435221852616
 30
0.0
 10
83.09052399129524
 20
-147.3212346853917
 30
0.0
 10
83.11119676854561
 20
-146.798276907745
 30
0.0
 10
83.11119676854561
 20
-146.2746135745421
 30
0.0
  0
SPLINE
  5
A2
330
1F
100
AcDbEntity
  8
_U+30EC_U+30A4_U+30E4_U+30FC 1
 62
   179
420
  2234388
370
     9
100
AcDbSpline
210
0.0
220
0.0
230
1.0
 70
     8
 71
     3
 72
     8
 73
     4
 74
     0
 42
0.0000000001
 43
0.0000000001
 12
1.0
 22
0.0
 32
0.0
 13
1.0
 23
0.0
 33
0.0
 40
0.0
 40
0.0
 40
0.0
 40
0.0
 40
1.0
 40
1.0
 40
1.0
 40
1.0
 10
81.31629875878171
 20
-153.261624406129
 30
0.0
 10
82.17206707028258
 20
-151.0312574622422
 30
0.0
 10
82.61099317019575
 20
-148.6634482961674
 30
0.0
 10
82.61099317019575
 20
-146.2746135745421
 30
0.0
  0
INSERT
  5
A4
330
1F
100
AcDbEntity
  8
_U+30EC_U+30A4_U+30E4_U+30FC 1
100
AcDbBlockReference
  2
block 3
 10
0.0
 20
0.0
 30
0.0
  0
INSERT
  5
AE
330
1F
100
AcDbEntity
  8
_U+30EC_U+30A4_U+30E4_U+30FC 1
100
AcDbBlockReference
  2
block 4
 10
0.0
 20
0.0
 30
0.0
  0
POLYLINE
  5
B9
330
1F
100
AcDbEntity
  8
_U+30EC_U+30A4_U+30E4_U+30FC 1
 62
   179
420
  2234388
370
     9
100
AcDb2dPolyline
 66
     1
 10
0.0
 20
0.0
 30
0.0
  0
VERTEX
  5
BA
330
B9
100
AcDbEntity
  8
_U+30EC_U+30A4_U+30E4_U+30FC 1
 62
   179
420
  2234388
370
     9
100
AcDbVertex
100
AcDb2dVertex
 10
83.4389999791404
 20
-134.7628396885315
 30
0.0
  0
VERTEX
  5
BB
330
B9
100
AcDbEntity
  8
_U+30EC_U+30A4_U+30E4_U+30FC 1
 62
   179
420
  2234388
370
     9
100
AcDbVertex
100
AcDb2dVertex
 10
83.4389999791404
 20
-132.4759930224363
 30
0.0
  0
VERTEX
  5
BC
330
B9
100
AcDbEntity
  8
_U+30EC_U+30A4_U+30E4_U+30FC 1
 62
   179
420
  2234388
370
     9
100
AcDbVertex
100
AcDb2dVertex
 10
85.68710948060638
 20
-132.4759930224363
 30
0.0
  0
VERTEX
  5
BD
330
B9
100
AcDbEntity
  8
_U+30EC_U+30A4_U+30E4_U+30FC 1
 62
   179
420
  2234388
370
     9
100
AcDbVertex
100
AcDb2dVertex
 10
85.68710948060638
 20
-134.7628396885315
 30
0.0
  0
SEQEND
  5
BE
330
B9
100
AcDbEntity
  8
_U+30EC_U+30A4_U+30E4_U+30FC 1
 62
   179
420
  2234388
370
     9
  0
POLYLINE
  5
BF
330
1F
100
AcDbEntity
  8
_U+30EC_U+30A4_U+30E4_U+30FC 1
 62
   179
420
  2234388
370
     9
100
AcDb2dPolyline
 66
     1
 10
0.0
 20
0.0
 30
0.0
  0
VERTEX
  5
C0
330
BF
100
AcDbEntity
  8
_U+30EC_U+30A4_U+30E4_U+30FC 1
 62
   179
420
  2234388
370
     9
100
AcDbVertex
100
AcDb2dVertex
 10
86.52322807038632
 20
-144.5045157972072
 30
0.0
  0
VERTEX
  5
C1
330
BF
100
AcDbEntity
  8
_U+30EC_U+30A4_U+30E4_U+30FC 1
 62
   179
420
  2234388
370
     9
100
AcDbVertex
100
AcDb2dVertex
 10
82.60305567039826
 20
-144.5045157972072
 30
0.0
  0
VERTEX
  5
C2
330
BF
100
AcDbEntity
  8
_U+30EC_U+30A4_U+30E4_U+30FC 1
 62
   179
420
  2234388
370
     9
100
AcDbVertex
100
AcDb2dVertex
 10
82.60305567039826
 20
-134.8062313551872
 30
0.0
  0
VERTEX
  5
C3
330
BF
100
AcDbEntity
  8
_U+30EC_U+30A4_U+30E4_U+30FC 1
 62
   179
420
  2234388
370
     9
100
AcDbVertex
100
AcDb2dVertex
 10
86.52322807038632
 20
-134.8062313551872
 30
0.0
  0
VERTEX
  5
C4
330
BF
100
AcDbEntity
  8
_U+30EC_U+30A4_U+30E4_U+30FC 1
 62
   179
420
  2234388
370
     9
100
AcDbVertex
100
AcDb2dVertex
 10
86.52322807038632
 20
-144.5045157972072
 30
0.0
  0
SEQEND
  5
C5
330
BF
100
AcDbEntity
  8
_U+30EC_U+30A4_U+30E4_U+30FC 1
 62
   179
420
  2234388
370
     9
  0
SPLINE
  5
C6
330
1F
100
AcDbEntity
  8
_U+30EC_U+30A4_U+30E4_U+30FC 1
  6
AI-Linetype-1
 62
   179
420
  2234388
370
     9
100
AcDbSpline
210
0.0
220
0.0
230
1.0
 70
    11
 71
     3
 72
    17
 73
    13
 74
     0
 42
0.0000000001
 43
0.0000000001
 12
1.0
 22
0.0
 32
0.0
 13
1.0
 23
0.0
 33
0.0
 40
0.0
 40
0.0
 40
0.0
 40
0.0
 40
1.0
 40
1.0
 40
1.0
 40
2.0
 40
2.0
 40
2.0
 40
3.0
 40
3.0
 40
3.0
 40
4.0
 40
4.0
 40
4.0
 40
4.0
 10
87.32540943880987
 20
-146.196402741229
 30
0.0
 10
87.32540943880987
 20
-145.2848602414564
 30
0.0
 10
88.06405553107655
 20
-144.5465669083081
 30
0.0
 10
88.97545689671365
 20
-144.5465669083081
 30
0.0
 10
89.88717576234265
 20
-144.5465669083081
 30
0.0
 10
90.62599824349373
 20
-145.2848602414564
 30
0.0
 10
90.62599824349373
 20
-146.196402741229
 30
0.0
 10
90.62599824349373
 20
-147.1079805187785
 30
0.0
 10
89.88717576234265
 20
-147.8466266297051
 30
0.0
 10
88.97545689671365
 20
-147.8466266297051
 30
0.0
 10
88.06405553107655
 20
-147.8466266297051
 30
0.0
 10
87.32540943880987
 20
-147.1079805187785
 30
0.0
 10
87.32540943880987
 20
-146.196402741229
 30
0.0
  0
POLYLINE
  5
C8
330
1F
100
AcDbEntity
  8
_U+30EC_U+30A4_U+30E4_U+30FC 1
 62
   179
420
  2234388
370
     9
100
AcDb2dPolyline
 66
     1
 10
0.0
 20
0.0
 30
0.0
  0
VERTEX
  5
C9
330
C8
100
AcDbEntity
  8
_U+30EC_U+30A4_U+30E4_U+30FC 1
 62
   179
420
  2234388
370
     9
100
AcDbVertex
100
AcDb2dVertex
 10
82.60305567039826
 20
-135.0543046884584
 30
0.0
  0
VERTEX
  5
CA
330
C8
100
AcDbEntity
  8
_U+30EC_U+30A4_U+30E4_U+30FC 1
 62
   179
420
  2234388
370
     9
100
AcDbVertex
100
AcDb2dVertex
 10
86.52322807038632
 20
-135.0543046884584
 30
0.0
  0
SEQEND
  5
CB
330
C8
100
AcDbEntity
  8
_U+30EC_U+30A4_U+30E4_U+30FC 1
 62
   179
420
  2234388
370
     9
  0
POLYLINE
  5
CC
330
1F
100
AcDbEntity
  8
_U+30EC_U+30A4_U+30E4_U+30FC 1
 62
   179
420
  2234388
370
     9
100
AcDb2dPolyline
 66
     1
 10
0.0
 20
0.0
 30
0.0
  0
VERTEX
  5
CD
330
CC
100
AcDbEntity
  8
_U+30EC_U+30A4_U+30E4_U+30FC 1
 62
   179
420
  2234388
370
     9
100
AcDbVertex
100
AcDb2dVertex
 10
97.63608056465162
 20
-134.7628396885315
 30
0.0
  0
VERTEX
  5
CE
330
CC
100
AcDbEntity
  8
_U+30EC_U+30A4_U+30E4_U+30FC 1
 62
   179
420
  2234388
370
     9
100
AcDbVertex
100
AcDb2dVertex
 10
97.63608056465162
 20
-132.4801205224356
 30
0.0
  0
VERTEX
  5
CF
330
CC
100
AcDbEntity
  8
_U+30EC_U+30A4_U+30E4_U+30FC 1
 62
   179
420
  2234388
370
     9
100
AcDbVertex
100
AcDb2dVertex
 10
99.79338717628082
 20
-132.4801205224356
 30
0.0
  0
VERTEX
  5
D0
330
CC
100
AcDbEntity
  8
_U+30EC_U+30A4_U+30E4_U+30FC 1
 62
   179
420
  2234388
370
     9
100
AcDbVertex
100
AcDb2dVertex
 10
99.79338717628082
 20
-134.7628396885315
 30
0.0
  0
SEQEND
  5
D1
330
CC
100
AcDbEntity
  8
_U+30EC_U+30A4_U+30E4_U+30FC 1
 62
   179
420
  2234388
370
     9
  0
POLYLINE
  5
D2
330
1F
100
AcDbEntity
  8
_U+30EC_U+30A4_U+30E4_U+30FC 1
 62
   179
420
  2234388
370
     9
100
AcDb2dPolyline
 66
     1
 10
0.0
 20
0.0
 30
0.0
  0
VERTEX
  5
D3
330
D2
100
AcDbEntity
  8
_U+30EC_U+30A4_U+30E4_U+30FC 1
 62
   179
420
  2234388
370
     9
100
AcDbVertex
100
AcDb2dVertex
 10
100.7876560398038
 20
-144.5045157972072
 30
0.0
  0
VERTEX
  5
D4
330
D2
100
AcDbEntity
  8
_U+30EC_U+30A4_U+30E4_U+30FC 1
 62
   179
420
  2234388
370
     9
100
AcDbVertex
100
AcDb2dVertex
 10
96.84300086266255
 20
-144.5045157972072
 30
0.0
  0
VERTEX
  5
D5
330
D2
100
AcDbEntity
  8
_U+30EC_U+30A4_U+30E4_U+30FC 1
 62
   179
420
  2234388
370
     9
100
AcDbVertex
100
AcDb2dVertex
 10
96.84300086266255
 20
-134.8062313551872
 30
0.0
  0
VERTEX
  5
D6
330
D2
100
AcDbEntity
  8
_U+30EC_U+30A4_U+30E4_U+30FC 1
 62
   179
420
  2234388
370
     9
100
AcDbVertex
100
AcDb2dVertex
 10
100.7876560398038
 20
-134.8062313551872
 30
0.0
  0
VERTEX
  5
D7
330
D2
100
AcDbEntity
  8
_U+30EC_U+30A4_U+30E4_U+30FC 1
 62
   179
420
  2234388
370
     9
100
AcDbVertex
100
AcDb2dVertex
 10
100.7876560398038
 20
-144.5045157972072
 30
0.0
  0
SEQEND
  5
D8
330
D2
100
AcDbEntity
  8
_U+30EC_U+30A4_U+30E4_U+30FC 1
 62
   179
420
  2234388
370
     9
  0
POLYLINE
  5
D9
330
1F
100
AcDbEntity
  8
_U+30EC_U+30A4_U+30E4_U+30FC 1
 62
   179
420
  2234388
370
     9
100
AcDb2dPolyline
 66
     1
 10
0.0
 20
0.0
 30
0.0
  0
VERTEX
  5
DA
330
D9
100
AcDbEntity
  8
_U+30EC_U+30A4_U+30E4_U+30FC 1
 62
   179
420
  2234388
370
     9
100
AcDbVertex
100
AcDb2dVertex
 10
96.84300086266255
 20
-135.0543046884584
 30
0.0
  0
VERTEX
  5
DB
330
D9
100
AcDbEntity
  8
_U+30EC_U+30A4_U+30E4_U+30FC 1
 62
   179
420
  2234388
370
     9
100
AcDbVertex
100
AcDb2dVertex
 10
100.7876560398038
 20
-135.0543046884584
 30
0.0
  0
SEQEND
  5
DC
330
D9
100
AcDbEntity
  8
_U+30EC_U+30A4_U+30E4_U+30FC 1
 62
   179
420
  2234388
370
     9
  0
SPLINE
  5
DD
330
1F
100
AcDbEntity
  8
_U+30EC_U+30A4_U+30E4_U+30FC 1
 62
   179
420
  2234388
370
     9
100
AcDbSpline
210
0.0
220
0.0
230
1.0
 70
     8
 71
     3
 72
    14
 73
    10
 74
     0
 42
0.0000000001
 43
0.0000000001
 12
1.0
 22
0.0
 32
0.0
 13
1.0
 23
0.0
 33
0.0
 40
0.0
 40
0.0
 40
0.0
 40
0.0
 40
1.0
 40
1.0
 40
1.0
 40
2.0
 40
2.0
 40
2.0
 40
3.0
 40
3.0
 40
3.0
 40
3.0
 10
99.9787366159966
 20
-154.6362230168967
 30
0.0
 10
99.9787366159966
 20
-155.0654830167895
 30
0.0
 10
99.56496357099728
 20
-155.511958572233
 30
0.0
 10
98.88078886416851
 20
-155.511958572233
 30
0.0
 10
98.19657388368557
 20
-155.511958572233
 30
0.0
 10
97.87307666971645
 20
-154.9111427390503
 30
0.0
 10
97.87307666971645
 20
-154.6706541279989
 30
0.0
 10
97.87307666971645
 20
-154.6706541279989
 30
0.0
 10
97.87307666971645
 20
-154.5438657946975
 30
0.0
 10
97.87307666971645
 20
-154.5438657946975
 30
0.0
  0
SPLINE
  5
DE
330
1F
100
AcDbEntity
  8
_U+30EC_U+30A4_U+30E4_U+30FC 1
 62
   179
420
  2234388
370
     9
100
AcDbSpline
210
0.0
220
0.0
230
1.0
 70
     8
 71
     3
 72
    14
 73
    10
 74
     0
 42
0.0000000001
 43
0.0000000001
 12
1.0
 22
0.0
 32
0.0
 13
1.0
 23
0.0
 33
0.0
 40
0.0
 40
0.0
 40
0.0
 40
0.0
 40
1.0
 40
1.0
 40
1.0
 40
2.0
 40
2.0
 40
2.0
 40
3.0
 40
3.0
 40
3.0
 40
3.0
 10
99.9787366159966
 20
-149.6552830181416
 30
0.0
 10
99.9787366159966
 20
-149.2263757960266
 30
0.0
 10
99.56496357099728
 20
-148.7795474628054
 30
0.0
 10
98.88078886416851
 20
-148.7795474628054
 30
0.0
 10
98.19657388368557
 20
-148.7795474628054
 30
0.0
 10
97.87307666971645
 20
-149.3803632959881
 30
0.0
 10
97.87307666971645
 20
-149.6208519070394
 30
0.0
 10
97.87307666971645
 20
-149.6208519070394
 30
0.0
 10
97.87307666971645
 20
-154.6706541279989
 30
0.0
 10
97.87307666971645
 20
-154.6706541279989
 30
0.0
  0
POLYLINE
  5
DF
330
1F
100
AcDbEntity
  8
_U+30EC_U+30A4_U+30E4_U+30FC 1
 62
   179
420
  2234388
370
     9
100
AcDb2dPolyline
 66
     1
 10
0.0
 20
0.0
 30
0.0
  0
VERTEX
  5
E0
330
DF
100
AcDbEntity
  8
_U+30EC_U+30A4_U+30E4_U+30FC 1
 62
   179
420
  2234388
370
     9
100
AcDbVertex
100
AcDb2dVertex
 10
96.84300086266255
 20
-144.5045157972072
 30
0.0
  0
VERTEX
  5
E1
330
DF
100
AcDbEntity
  8
_U+30EC_U+30A4_U+30E4_U+30FC 1
 62
   179
420
  2234388
370
     9
100
AcDbVertex
100
AcDb2dVertex
 10
97.87755694737993
 20
-153.2099424616972
 30
0.0
  0
SEQEND
  5
E2
330
DF
100
AcDbEntity
  8
_U+30EC_U+30A4_U+30E4_U+30FC 1
 62
   179
420
  2234388
370
     9
  0
SPLINE
  5
E3
330
1F
100
AcDbEntity
  8
_U+30EC_U+30A4_U+30E4_U+30FC 1
 62
   179
420
  2234388
370
     9
100
AcDbSpline
210
0.0
220
0.0
230
1.0
 70
    11
 71
     3
 72
    17
 73
    13
 74
     0
 42
0.0000000001
 43
0.0000000001
 12
1.0
 22
0.0
 32
0.0
 13
1.0
 23
0.0
 33
0.0
 40
0.0
 40
0.0
 40
0.0
 40
0.0
 40
1.0
 40
1.0
 40
1.0
 40
2.0
 40
2.0
 40
2.0
 40
3.0
 40
3.0
 40
3.0
 40
4.0
 40
4.0
 40
4.0
 40
4.0
 10
97.11689997572059
 20
-145.2014635748106
 30
0.0
 10
97.11689997572059
 20
-145.0130096859688
 30
0.0
 10
97.26915640734597
 20
-144.8611035748958
 30
0.0
 10
97.45694001366633
 20
-144.8611035748958
 30
0.0
 10
97.64433556444102
 20
-144.8611035748958
 30
0.0
 10
97.79662972722234
 20
-145.0130096859688
 30
0.0
 10
97.79662972722234
 20
-145.2014635748106
 30
0.0
 10
97.79662972722234
 20
-145.3888944080973
 30
0.0
 10
97.64433556444102
 20
-145.5418588525036
 30
0.0
 10
97.45694001366633
 20
-145.5418588525036
 30
0.0
 10
97.26915640734597
 20
-145.5418588525036
 30
0.0
 10
97.11689997572059
 20
-145.3888944080973
 30
0.0
 10
97.11689997572059
 20
-145.2014635748106
 30
0.0
  0
SPLINE
  5
E4
330
1F
100
AcDbEntity
  8
_U+30EC_U+30A4_U+30E4_U+30FC 1
 62
   179
420
  2234388
370
     9
100
AcDbSpline
210
0.0
220
0.0
230
1.0
 70
    11
 71
     3
 72
    17
 73
    13
 74
     0
 42
0.0000000001
 43
0.0000000001
 12
1.0
 22
0.0
 32
0.0
 13
1.0
 23
0.0
 33
0.0
 40
0.0
 40
0.0
 40
0.0
 40
0.0
 40
1.0
 40
1.0
 40
1.0
 40
2.0
 40
2.0
 40
2.0
 40
3.0
 40
3.0
 40
3.0
 40
4.0
 40
4.0
 40
4.0
 40
4.0
 10
99.8698693965518
 20
-145.2014635748106
 30
0.0
 10
99.8698693965518
 20
-145.0130096859688
 30
0.0
 10
100.0221282815562
 20
-144.8611035748958
 30
0.0
 10
100.2102293878685
 20
-144.8611035748958
 30
0.0
 10
100.3976602164201
 20
-144.8611035748958
 30
0.0
 10
100.5499191014245
 20
-145.0130096859688
 30
0.0
 10
100.5499191014245
 20
-145.2014635748106
 30
0.0
 10
100.5499191014245
 20
-145.3888944080973
 30
0.0
 10
100.3976602164201
 20
-145.5418588525036
 30
0.0
 10
100.2102293878685
 20
-145.5418588525036
 30
0.0
 10
100.0221282815562
 20
-145.5418588525036
 30
0.0
 10
99.8698693965518
 20
-145.3888944080973
 30
0.0
 10
99.8698693965518
 20
-145.2014635748106
 30
0.0
  0
POLYLINE
  5
E5
330
1F
100
AcDbEntity
  8
_U+30EC_U+30A4_U+30E4_U+30FC 1
 62
   179
420
  2234388
370
     9
100
AcDb2dPolyline
 66
     1
 10
0.0
 20
0.0
 30
0.0
  0
VERTEX
  5
E6
330
E5
100
AcDbEntity
  8
_U+30EC_U+30A4_U+30E4_U+30FC 1
 62
   179
420
  2234388
370
     9
100
AcDbVertex
100
AcDb2dVertex
 10
79.76033713181094
 20
-139.7485774650626
 30
0.0
  0
VERTEX
  5
E7
330
E5
100
AcDbEntity
  8
_U+30EC_U+30A4_U+30E4_U+30FC 1
 62
   179
420
  2234388
370
     9
100
AcDbVertex
100
AcDb2dVertex
 10
81.77416902487825
 20
-139.7485774650626
 30
0.0
  0
SEQEND
  5
E8
330
E5
100
AcDbEntity
  8
_U+30EC_U+30A4_U+30E4_U+30FC 1
 62
   179
420
  2234388
370
     9
  0
SPLINE
  5
E9
330
1F
100
AcDbEntity
  8
_U+30EC_U+30A4_U+30E4_U+30FC 1
370
     0
100
AcDbSpline
210
0.0
220
0.0
230
1.0
 70
    11
 71
     3
 72
    20
 73
    16
 74
     0
 42
0.0000000001
 43
0.0000000001
 12
1.0
 22
0.0
 32
0.0
 13
1.0
 23
0.0
 33
0.0
 40
0.0
 40
0.0
 40
0.0
 40
0.0
 40
1.0
 40
1.0
 40
1.0
 40
2.0
 40
2.0
 40
2.0
 40
3.0
 40
3.0
 40
3.0
 40
4.0
 40
4.0
 40
4.0
 40
5.0
 40
5.0
 40
5.0
 40
5.0
 10
82.01945540750937
 20
-139.6424619095339
 30
0.0
 10
81.847546800784
 20
-139.5907799651021
 30
0.0
 10
81.73592791474276
 20
-139.5425552428923
 30
0.0
 10
81.5981329182582
 20
-139.4874513540167
 30
0.0
 10
81.5981329182582
 20
-139.4874513540167
 30
0.0
 10
81.5981329182582
 20
-140.0117849649969
 30
0.0
 10
81.5981329182582
 20
-140.0117849649969
 30
0.0
 10
81.64738069477956
 20
-139.9876549650029
 30
0.0
 10
81.847546800784
 20
-139.908421076134
 30
0.0
 10
82.01945540750937
 20
-139.8567391317022
 30
0.0
 10
82.20325262504252
 20
-139.8009296872718
 30
0.0
 10
82.36997539856685
 20
-139.7630413539483
 30
0.0
 10
82.47799595136658
 20
-139.7492477428406
 30
0.0
 10
82.36997539856685
 20
-139.7361596872885
 30
0.0
 10
82.20325262504252
 20
-139.6982713539644
 30
0.0
 10
82.01945540750937
 20
-139.6424619095339
 30
0.0
  0
HATCH
  5
EA
330
1F
100
AcDbEntity
  8
_U+30EC_U+30A4_U+30E4_U+30FC 1
 62
   179
420
  2234388
100
AcDbHatch
 10
0.0
 20
0.0
 30
0.0
210
0.0
220
0.0
230
1.0
  2
SOLID
 70
     1
 71
     0
 91
        1
 92
        1
 93
        1
 72
     4
 94
        3
 73
     0
 74
     1
 95
       20
 96
       16
 40
0.0
 40
0.0
 40
0.0
 40
0.0
 40
1.0
 40
1.0
 40
1.0
 40
2.0
 40
2.0
 40
2.0
 40
3.0
 40
3.0
 40
3.0
 40
4.0
 40
4.0
 40
4.0
 40
5.0
 40
5.0
 40
5.0
 40
5.0
 10
82.01945540750937
 20
-139.6424619095339
 10
81.847546800784
 20
-139.5907799651021
 10
81.73592791474276
 20
-139.5425552428923
 10
81.5981329182582
 20
-139.4874513540167
 10
81.5981329182582
 20
-139.4874513540167
 10
81.5981329182582
 20
-140.0117849649969
 10
81.5981329182582
 20
-140.0117849649969
 10
81.64738069477956
 20
-139.9876549650029
 10
81.847546800784
 20
-139.908421076134
 10
82.01945540750937
 20
-139.8567391317022
 10
82.20325262504252
 20
-139.8009296872718
 10
82.36997539856685
 20
-139.7630413539483
 10
82.47799595136658
 20
-139.7492477428406
 10
82.36997539856685
 20
-139.7361596872885
 10
82.20325262504252
 20
-139.6982713539644
 10
82.01945540750937
 20
-139.6424619095339
 97
        0
 97
        0
 75
     2
 76
     1
 98
        0
  0
POLYLINE
  5
EB
330
1F
100
AcDbEntity
  8
_U+30EC_U+30A4_U+30E4_U+30FC 1
 62
   179
420
  2234388
370
     9
100
AcDb2dPolyline
 66
     1
 10
0.0
 20
0.0
 30
0.0
  0
VERTEX
  5
EC
330
EB
100
AcDbEntity
  8
_U+30EC_U+30A4_U+30E4_U+30FC 1
 62
   179
420
  2234388
370
     9
100
AcDbVertex
100
AcDb2dVertex
 10
89.46860493968795
 20
-139.7499532983962
 30
0.0
  0
VERTEX
  5
ED
330
EB
100
AcDbEntity
  8
_U+30EC_U+30A4_U+30E4_U+30FC 1
 62
   179
420
  2234388
370
     9
100
AcDbVertex
100
AcDb2dVertex
 10
87.45477304662064
 20
-139.7499532983962
 30
0.0
  0
SEQEND
  5
EE
330
EB
100
AcDbEntity
  8
_U+30EC_U+30A4_U+30E4_U+30FC 1
 62
   179
420
  2234388
370
     9
  0
SPLINE
  5
EF
330
1F
100
AcDbEntity
  8
_U+30EC_U+30A4_U+30E4_U+30FC 1
370
     0
100
AcDbSpline
210
0.0
220
0.0
230
1.0
 70
    11
 71
     3
 72
    20
 73
    16
 74
     0
 42
0.0000000001
 43
0.0000000001
 12
1.0
 22
0.0
 32
0.0
 13
1.0
 23
0.0
 33
0.0
 40
0.0
 40
0.0
 40
0.0
 40
0.0
 40
1.0
 40
1.0
 40
1.0
 40
2.0
 40
2.0
 40
2.0
 40
3.0
 40
3.0
 40
3.0
 40
4.0
 40
4.0
 40
4.0
 40
5.0
 40
5.0
 40
5.0
 40
5.0
 10
87.20931027510514
 20
-139.8567391317022
 30
0.0
 10
87.38121888183049
 20
-139.908421076134
 30
0.0
 10
87.49283776787175
 20
-139.9559755205665
 30
0.0
 10
87.63066804213318
 20
-140.0117849649969
 30
0.0
 10
87.63066804213318
 20
-140.0117849649969
 30
0.0
 10
87.63066804213318
 20
-139.4874513540167
 30
0.0
 10
87.63066804213318
 20
-139.4874513540167
 30
0.0
 10
87.58138498783494
 20
-139.5108757984559
 30
0.0
 10
87.38121888183049
 20
-139.5907799651021
 30
0.0
 10
87.20931027510514
 20
-139.6424619095339
 30
0.0
 10
87.02569164491021
 20
-139.6982713539644
 30
0.0
 10
86.85896667293204
 20
-139.7361596872885
 30
0.0
 10
86.75076973124793
 20
-139.7492477428406
 30
0.0
 10
86.85896667293204
 20
-139.7630413539483
 30
0.0
 10
87.02569164491021
 20
-139.8009296872718
 30
0.0
 10
87.20931027510514
 20
-139.8567391317022
 30
0.0
  0
HATCH
  5
F0
330
1F
100
AcDbEntity
  8
_U+30EC_U+30A4_U+30E4_U+30FC 1
 62
   179
420
  2234388
100
AcDbHatch
 10
0.0
 20
0.0
 30
0.0
210
0.0
220
0.0
230
1.0
  2
SOLID
 70
     1
 71
     0
 91
        1
 92
        1
 93
        1
 72
     4
 94
        3
 73
     0
 74
     1
 95
       20
 96
       16
 40
0.0
 40
0.0
 40
0.0
 40
0.0
 40
1.0
 40
1.0
 40
1.0
 40
2.0
 40
2.0
 40
2.0
 40
3.0
 40
3.0
 40
3.0
 40
4.0
 40
4.0
 40
4.0
 40
5.0
 40
5.0
 40
5.0
 40
5.0
 10
87.20931027510514
 20
-139.8567391317022
 10
87.38121888183049
 20
-139.908421076134
 10
87.49283776787175
 20
-139.9559755205665
 10
87.63066804213318
 20
-140.0117849649969
 10
87.63066804213318
 20
-140.0117849649969
 10
87.63066804213318
 20
-139.4874513540167
 10
87.63066804213318
 20
-139.4874513540167
 10
87.58138498783494
 20
-139.5108757984559
 10
87.38121888183049
 20
-139.5907799651021
 10
87.20931027510514
 20
-139.6424619095339
 10
87.02569164491021
 20
-139.6982713539644
 10
86.85896667293204
 20
-139.7361596872885
 10
86.75076973124793
 20
-139.7492477428406
 10
86.85896667293204
 20
-139.7630413539483
 10
87.02569164491021
 20
-139.8009296872718
 10
87.20931027510514
 20
-139.8567391317022
 97
        0
 97
        0
 75
     2
 76
     1
 98
        0
  0
POLYLINE
  5
F1
330
1F
100
AcDbEntity
  8
_U+30EC_U+30A4_U+30E4_U+30FC 1
 62
   179
420
  2234388
370
     9
100
AcDb2dPolyline
 66
     1
 10
0.0
 20
0.0
 30
0.0
  0
VERTEX
  5
F2
330
F1
100
AcDbEntity
  8
_U+30EC_U+30A4_U+30E4_U+30FC 1
 62
   179
420
  2234388
370
     9
100
AcDbVertex
100
AcDb2dVertex
 10
99.97944217153415
 20
-153.3270646838903
 30
0.0
  0
VERTEX
  5
F3
330
F1
100
AcDbEntity
  8
_U+30EC_U+30A4_U+30E4_U+30FC 1
 62
   179
420
  2234388
370
     9
100
AcDbVertex
100
AcDb2dVertex
 10
100.7876560398038
 20
-144.5045157972072
 30
0.0
  0
SEQEND
  5
F4
330
F1
100
AcDbEntity
  8
_U+30EC_U+30A4_U+30E4_U+30FC 1
 62
   179
420
  2234388
370
     9
  0
SPLINE
  5
F5
330
1F
100
AcDbEntity
  8
_U+30EC_U+30A4_U+30E4_U+30FC 1
 62
   179
420
  2234388
370
     9
100
AcDbSpline
210
0.0
220
0.0
230
1.0
 70
     8
 71
     3
 72
    38
 73
    34
 74
     0
 42
0.0000000001
 43
0.0000000001
 12
1.0
 22
0.0
 32
0.0
 13
1.0
 23
0.0
 33
0.0
 40
0.0
 40
0.0
 40
0.0
 40
0.0
 40
1.0
 40
1.0
 40
1.0
 40
2.0
 40
2.0
 40
2.0
 40
3.0
 40
3.0
 40
3.0
 40
4.0
 40
4.0
 40
4.0
 40
5.0
 40
5.0
 40
5.0
 40
6.0
 40
6.0
 40
6.0
 40
7.0
 40
7.0
 40
7.0
 40
8.0
 40
8.0
 40
8.0
 40
9.0
 40
9.0
 40
9.0
 40
10.0
 40
10.0
 40
10.0
 40
11.0
 40
11.0
 40
11.0
 40
11.0
 10
86.52322807038632
 20
-144.5045157972072
 30
0.0
 10
86.52322807038632
 20
-144.5045157972072
 30
0.0
 10
86.52322807038632
 20
-145.2882821859001
 30
0.0
 10
86.52322807038632
 20
-145.2882821859001
 30
0.0
 10
86.52322807038632
 20
-145.2882821859001
 30
0.0
 10
84.93280005540598
 20
-151.5549207954444
 30
0.0
 10
84.93280005540598
 20
-151.5549207954444
 30
0.0
 10
84.93280005540598
 20
-152.5216024618695
 30
0.0
 10
85.70672392455042
 20
-153.3057216283402
 30
0.0
 10
86.66172862240845
 20
-153.3057216283402
 30
0.0
 10
87.61669804248959
 20
-153.3057216283402
 30
0.0
 10
88.041124976106
 20
-152.6097969062919
 30
0.0
 10
88.39079830051843
 20
-151.5549207954444
 30
0.0
 10
88.39079830051843
 20
-151.5549207954444
 30
0.0
 10
88.96529689697286
 20
-149.7076705181289
 30
0.0
 10
88.96529689697286
 20
-149.7076705181289
 30
0.0
 10
88.96529689697286
 20
-149.7076705181289
 30
0.0
 10
89.1415093924773
 20
-148.5383885739766
 30
0.0
 10
90.32419686230443
 20
-148.8271019072378
 30
0.0
 10
91.11036212002546
 20
-149.1164855182764
 30
0.0
 10
90.93534906893485
 20
-150.0108124624976
 30
0.0
 10
90.84267434907696
 20
-150.4090632957313
 30
0.0
 10
90.84267434907696
 20
-150.4090632957313
 30
0.0
 10
90.3767277551835
 20
-151.57696940655
 30
0.0
 10
90.3767277551835
 20
-151.57696940655
 30
0.0
 10
89.28068022226009
 20
-154.7685146835303
 30
0.0
 10
88.63679023868708
 20
-155.5098771833446
 30
0.0
 10
86.49084307121254
 20
-155.5098771833446
 30
0.0
 10
84.34507229262238
 20
-155.5098771833446
 30
0.0
 10
82.60496067034966
 20
-153.7494455171179
 30
0.0
 10
82.60496067034966
 20
-151.57696940655
 30
0.0
 10
82.60496067034966
 20
-151.57696940655
 30
0.0
 10
82.60390233704332
 20
-144.5045157972072
 30
0.0
 10
82.60390233704332
 20
-144.5045157972072
 30
0.0
  0
HATCH
  5
F6
330
1F
100
AcDbEntity
  8
_U+30EC_U+30A4_U+30E4_U+30FC 1
 62
     7
420
 16711422
100
AcDbHatch
 10
0.0
 20
0.0
 30
0.0
210
0.0
220
0.0
230
1.0
  2
SOLID
 70
     1
 71
     0
 91
        1
 92
        1
 93
        2
 72
     4
 94
        3
 73
     0
 74
     0
 95
       38
 96
       34
 40
0.0
 40
0.0
 40
0.0
 40
0.0
 40
0.3527777776895833
 40
0.3527777776895833
 40
0.3527777776895833
 40
0.7055555553791667
 40
0.7055555553791667
 40
0.7055555553791667
 40
1.05833333306875
 40
1.05833333306875
 40
1.05833333306875
 40
1.411111110758333
 40
1.411111110758333
 40
1.411111110758333
 40
1.763888888447917
 40
1.763888888447917
 40
1.763888888447917
 40
2.1166666661375
 40
2.1166666661375
 40
2.1166666661375
 40
2.469444443827083
 40
2.469444443827083
 40
2.469444443827083
 40
2.822222221516667
 40
2.822222221516667
 40
2.822222221516667
 40
3.17499999920625
 40
3.17499999920625
 40
3.17499999920625
 40
3.527777776895833
 40
3.527777776895833
 40
3.527777776895833
 40
3.880555554585417
 40
3.880555554585417
 40
3.880555554585417
 40
3.880555554585417
 10
86.52322807038632
 20
-144.5045157972072
 10
86.52322807038632
 20
-144.5045157972072
 10
86.52322807038632
 20
-145.2882821859001
 10
86.52322807038632
 20
-145.2882821859001
 10
86.52322807038632
 20
-145.2882821859001
 10
84.93280005540598
 20
-151.5549207954444
 10
84.93280005540598
 20
-151.5549207954444
 10
84.93280005540598
 20
-152.5216024618695
 10
85.70672392455042
 20
-153.3057216283402
 10
86.66172862240845
 20
-153.3057216283402
 10
87.61669804248959
 20
-153.3057216283402
 10
88.041124976106
 20
-152.6097969062919
 10
88.39079830051843
 20
-151.5549207954444
 10
88.39079830051843
 20
-151.5549207954444
 10
88.96529689697286
 20
-149.7076705181289
 10
88.96529689697286
 20
-149.7076705181289
 10
88.96529689697286
 20
-149.7076705181289
 10
89.1415093924773
 20
-148.5383885739766
 10
90.32419686230443
 20
-148.8271019072378
 10
91.11036212002546
 20
-149.1164855182764
 10
90.93534906893485
 20
-150.0108124624976
 10
90.84267434907696
 20
-150.4090632957313
 10
90.84267434907696
 20
-150.4090632957313
 10
90.3767277551835
 20
-151.57696940655
 10
90.3767277551835
 20
-151.57696940655
 10
89.28068022226009
 20
-154.7685146835303
 10
88.63679023868708
 20
-155.5098771833446
 10
86.49084307121254
 20
-155.5098771833446
 10
84.34507229262238
 20
-155.5098771833446
 10
82.60496067034966
 20
-153.7494455171179
 10
82.60496067034966
 20
-151.57696940655
 10
82.60496067034966
 20
-151.57696940655
 10
82.60390233704332
 20
-144.5045157972072
 10
82.60390233704332
 20
-144.5045157972072
 97
        0
 72
     1
 10
82.60390233704332
 20
-144.5045157972072
 11
86.52322807038632
 21
-144.5045157972072
 97
        0
 75
     2
 76
     1
 98
        0
  0
POLYLINE
  5
F7
330
1F
100
AcDbEntity
  8
_U+30EC_U+30A4_U+30E4_U+30FC 1
 62
   179
420
  2234388
370
     9
100
AcDb2dPolyline
 66
     1
 10
0.0
 20
0.0
 30
0.0
  0
VERTEX
  5
F8
330
F7
100
AcDbEntity
  8
_U+30EC_U+30A4_U+30E4_U+30FC 1
 62
   179
420
  2234388
370
     9
100
AcDbVertex
100
AcDb2dVertex
 10
99.97527939386258
 20
-149.5884669070475
 30
0.0
  0
VERTEX
  5
F9
330
F7
100
AcDbEntity
  8
_U+30EC_U+30A4_U+30E4_U+30FC 1
 62
   179
420
  2234388
370
     9
100
AcDbVertex
100
AcDb2dVertex
 10
99.9746091161019
 20
-154.7113294057663
 30
0.0
  0
SEQEND
  5
FA
330
F7
100
AcDbEntity
  8
_U+30EC_U+30A4_U+30E4_U+30FC 1
 62
   179
420
  2234388
370
     9
  0
SPLINE
  5
FB
330
1F
100
AcDbEntity
  8
_U+30EC_U+30A4_U+30E4_U+30FC 1
 62
   179
420
  2234388
370
     9
100
AcDbSpline
210
0.0
220
0.0
230
1.0
 70
    11
 71
     3
 72
    17
 73
    13
 74
     0
 42
0.0000000001
 43
0.0000000001
 12
1.0
 22
0.0
 32
0.0
 13
1.0
 23
0.0
 33
0.0
 40
0.0
 40
0.0
 40
0.0
 40
0.0
 40
1.0
 40
1.0
 40
1.0
 40
2.0
 40
2.0
 40
2.0
 40
3.0
 40
3.0
 40
3.0
 40
4.0
 40
4.0
 40
4.0
 40
4.0
 10
85.55668753948927
 20
-145.2014635748106
 30
0.0
 10
85.55668753948927
 20
-145.0130096859688
 30
0.0
 10
85.70898170227059
 20
-144.8611035748958
 30
0.0
 10
85.89673003081407
 20
-144.8611035748958
 30
0.0
 10
86.08433724825004
 20
-144.8611035748958
 30
0.0
 10
86.23659613325448
 20
-145.0130096859688
 30
0.0
 10
86.23659613325448
 20
-145.2014635748106
 30
0.0
 10
86.23659613325448
 20
-145.3888944080973
 30
0.0
 10
86.08433724825004
 20
-145.5418588525036
 30
0.0
 10
85.89673003081407
 20
-145.5418588525036
 30
0.0
 10
85.70898170227059
 20
-145.5418588525036
 30
0.0
 10
85.55668753948927
 20
-145.3888944080973
 30
0.0
 10
85.55668753948927
 20
-145.2014635748106
 30
0.0
  0
POLYLINE
  5
FC
330
1F
100
AcDbEntity
  8
_U+30EC_U+30A4_U+30E4_U+30FC 1
 62
   179
420
  2234388
370
     9
100
AcDb2dPolyline
 66
     1
 10
0.0
 20
0.0
 30
0.0
  0
VERTEX
  5
FD
330
FC
100
AcDbEntity
  8
_U+30EC_U+30A4_U+30E4_U+30FC 1
 62
   179
420
  2234388
370
     9
100
AcDbVertex
100
AcDb2dVertex
 10
83.4389999791404
 20
-132.4759930224363
 30
0.0
  0
VERTEX
  5
FE
330
FC
100
AcDbEntity
  8
_U+30EC_U+30A4_U+30E4_U+30FC 1
 62
   179
420
  2234388
370
     9
100
AcDbVertex
100
AcDb2dVertex
 10
83.4389999791404
 20
-134.7256216329854
 30
0.0
  0
SEQEND
  5
FF
330
FC
100
AcDbEntity
  8
_U+30EC_U+30A4_U+30E4_U+30FC 1
 62
   179
420
  2234388
370
     9
  0
POLYLINE
  5
100
330
1F
100
AcDbEntity
  8
_U+30EC_U+30A4_U+30E4_U+30FC 1
 62
   179
420
  2234388
370
     9
100
AcDb2dPolyline
 66
     1
 10
0.0
 20
0.0
 30
0.0
  0
VERTEX
  5
101
330
100
100
AcDbEntity
  8
_U+30EC_U+30A4_U+30E4_U+30FC 1
 62
   179
420
  2234388
370
     9
100
AcDbVertex
100
AcDb2dVertex
 10
85.68933198054968
 20
-132.4759930224363
 30
0.0
  0
VERTEX
  5
102
330
100
100
AcDbEntity
  8
_U+30EC_U+30A4_U+30E4_U+30FC 1
 62
   179
420
  2234388
370
     9
100
AcDbVertex
100
AcDb2dVertex
 10
85.68933198054968
 20
-134.7256216329854
 30
0.0
  0
SEQEND
  5
103
330
100
100
AcDbEntity
  8
_U+30EC_U+30A4_U+30E4_U+30FC 1
 62
   179
420
  2234388
370
     9
  0
POLYLINE
  5
104
330
1F
100
AcDbEntity
  8
_U+30EC_U+30A4_U+30E4_U+30FC 1
 62
   179
420
  2234388
370
     9
100
AcDb2dPolyline
 66
     1
 10
0.0
 20
0.0
 30
0.0
  0
VERTEX
  5
105
330
104
100
AcDbEntity
  8
_U+30EC_U+30A4_U+30E4_U+30FC 1
 62
   179
420
  2234388
370
     9
100
AcDbVertex
100
AcDb2dVertex
 10
83.4389999791404
 20
-132.4759930224363
 30
0.0
  0
VERTEX
  5
106
330
104
100
AcDbEntity
  8
_U+30EC_U+30A4_U+30E4_U+30FC 1
 62
   179
420
  2234388
370
     9
100
AcDbVertex
100
AcDb2dVertex
 10
85.68933198054968
 20
-132.4759930224363
 30
0.0
  0
SEQEND
  5
107
330
104
100
AcDbEntity
  8
_U+30EC_U+30A4_U+30E4_U+30FC 1
 62
   179
420
  2234388
370
     9
  0
POLYLINE
  5
108
330
1F
100
AcDbEntity
  8
_U+30EC_U+30A4_U+30E4_U+30FC 1
 62
   179
420
  2234388
370
     9
100
AcDb2dPolyline
 66
     1
 10
0.0
 20
0.0
 30
0.0
  0
VERTEX
  5
109
330
108
100
AcDbEntity
  8
_U+30EC_U+30A4_U+30E4_U+30FC 1
 62
   179
420
  2234388
370
     9
100
AcDbVertex
100
AcDb2dVertex
 10
84.81430200287356
 20
-107.1607302509877
 30
0.0
  0
VERTEX
  5
10A
330
108
100
AcDbEntity
  8
_U+30EC_U+30A4_U+30E4_U+30FC 1
 62
   179
420
  2234388
370
     9
100
AcDbVertex
100
AcDb2dVertex
 10
84.81430200287356
 20
-132.4759930224363
 30
0.0
  0
SEQEND
  5
10B
330
108
100
AcDbEntity
  8
_U+30EC_U+30A4_U+30E4_U+30FC 1
 62
   179
420
  2234388
370
     9
  0
POLYLINE
  5
10C
330
1F
100
AcDbEntity
  8
_U+30EC_U+30A4_U+30E4_U+30FC 1
 62
   179
420
  2234388
370
     9
100
AcDb2dPolyline
 66
     1
 10
0.0
 20
0.0
 30
0.0
  0
VERTEX
  5
10D
330
10C
100
AcDbEntity
  8
_U+30EC_U+30A4_U+30E4_U+30FC 1
 62
   179
420
  2234388
370
     9
100
AcDbVertex
100
AcDb2dVertex
 10
84.31406312674682
 20
-107.1607302509877
 30
0.0
  0
VERTEX
  5
10E
330
10C
100
AcDbEntity
  8
_U+30EC_U+30A4_U+30E4_U+30FC 1
 62
   179
420
  2234388
370
     9
100
AcDbVertex
100
AcDb2dVertex
 10
84.31406312674682
 20
-132.4759930224363
 30
0.0
  0
SEQEND
  5
10F
330
10C
100
AcDbEntity
  8
_U+30EC_U+30A4_U+30E4_U+30FC 1
 62
   179
420
  2234388
370
     9
  0
POLYLINE
  5
110
330
1F
100
AcDbEntity
  8
_U+30EC_U+30A4_U+30E4_U+30FC 1
 62
   179
420
  2234388
370
     9
100
AcDb2dPolyline
 66
     1
 10
0.0
 20
0.0
 30
0.0
  0
VERTEX
  5
111
330
110
100
AcDbEntity
  8
_U+30EC_U+30A4_U+30E4_U+30FC 1
 62
   179
420
  2234388
370
     9
100
AcDbVertex
100
AcDb2dVertex
 10
84.31406312674682
 20
-132.268594966933
 30
0.0
  0
VERTEX
  5
112
330
110
100
AcDbEntity
  8
_U+30EC_U+30A4_U+30E4_U+30FC 1
 62
   179
420
  2234388
370
     9
100
AcDbVertex
100
AcDb2dVertex
 10
84.81430200287356
 20
-131.7690616337242
 30
0.0
  0
SEQEND
  5
113
330
110
100
AcDbEntity
  8
_U+30EC_U+30A4_U+30E4_U+30FC 1
 62
   179
420
  2234388
370
     9
  0
POLYLINE
  5
114
330
1F
100
AcDbEntity
  8
_U+30EC_U+30A4_U+30E4_U+30FC 1
 62
   179
420
  2234388
370
     9
100
AcDb2dPolyline
 66
     1
 10
0.0
 20
0.0
 30
0.0
  0
VERTEX
  5
115
330
114
100
AcDbEntity
  8
_U+30EC_U+30A4_U+30E4_U+30FC 1
 62
   179
420
  2234388
370
     9
100
AcDbVertex
100
AcDb2dVertex
 10
84.31406312674682
 20
-131.561663578221
 30
0.0
  0
VERTEX
  5
116
330
114
100
AcDbEntity
  8
_U+30EC_U+30A4_U+30E4_U+30FC 1
 62
   179
420
  2234388
370
     9
100
AcDbVertex
100
AcDb2dVertex
 10
84.81430200287356
 20
-131.0620949672346
 30
0.0
  0
SEQEND
  5
117
330
114
100
AcDbEntity
  8
_U+30EC_U+30A4_U+30E4_U+30FC 1
 62
   179
420
  2234388
370
     9
  0
POLYLINE
  5
118
330
1F
100
AcDbEntity
  8
_U+30EC_U+30A4_U+30E4_U+30FC 1
 62
   179
420
  2234388
370
     9
100
AcDb2dPolyline
 66
     1
 10
0.0
 20
0.0
 30
0.0
  0
VERTEX
  5
119
330
118
100
AcDbEntity
  8
_U+30EC_U+30A4_U+30E4_U+30FC 1
 62
   179
420
  2234388
370
     9
100
AcDbVertex
100
AcDb2dVertex
 10
84.31406312674682
 20
-130.8547321895083
 30
0.0
  0
VERTEX
  5
11A
330
118
100
AcDbEntity
  8
_U+30EC_U+30A4_U+30E4_U+30FC 1
 62
   179
420
  2234388
370
     9
100
AcDbVertex
100
AcDb2dVertex
 10
84.81430200287356
 20
-130.3544933007446
 30
0.0
  0
SEQEND
  5
11B
330
118
100
AcDbEntity
  8
_U+30EC_U+30A4_U+30E4_U+30FC 1
 62
   179
420
  2234388
370
     9
  0
POLYLINE
  5
11C
330
1F
100
AcDbEntity
  8
_U+30EC_U+30A4_U+30E4_U+30FC 1
 62
   179
420
  2234388
370
     9
100
AcDb2dPolyline
 66
     1
 10
0.0
 20
0.0
 30
0.0
  0
VERTEX
  5
11D
330
11C
100
AcDbEntity
  8
_U+30EC_U+30A4_U+30E4_U+30FC 1
 62
   179
420
  2234388
370
     9
100
AcDbVertex
100
AcDb2dVertex
 10
84.31406312674682
 20
-130.1478008007962
 30
0.0
  0
VERTEX
  5
11E
330
11C
100
AcDbEntity
  8
_U+30EC_U+30A4_U+30E4_U+30FC 1
 62
   179
420
  2234388
370
     9
100
AcDbVertex
100
AcDb2dVertex
 10
84.81430200287356
 20
-129.6475619120325
 30
0.0
  0
SEQEND
  5
11F
330
11C
100
AcDbEntity
  8
_U+30EC_U+30A4_U+30E4_U+30FC 1
 62
   179
420
  2234388
370
     9
  0
POLYLINE
  5
120
330
1F
100
AcDbEntity
  8
_U+30EC_U+30A4_U+30E4_U+30FC 1
 62
   179
420
  2234388
370
     9
100
AcDb2dPolyline
 66
     1
 10
0.0
 20
0.0
 30
0.0
  0
VERTEX
  5
121
330
120
100
AcDbEntity
  8
_U+30EC_U+30A4_U+30E4_U+30FC 1
 62
   179
420
  2234388
370
     9
100
AcDbVertex
100
AcDb2dVertex
 10
84.31406312674682
 20
-129.4401638565287
 30
0.0
  0
VERTEX
  5
122
330
120
100
AcDbEntity
  8
_U+30EC_U+30A4_U+30E4_U+30FC 1
 62
   179
420
  2234388
370
     9
100
AcDbVertex
100
AcDb2dVertex
 10
84.81430200287356
 20
-128.9406305233205
 30
0.0
  0
SEQEND
  5
123
330
120
100
AcDbEntity
  8
_U+30EC_U+30A4_U+30E4_U+30FC 1
 62
   179
420
  2234388
370
     9
  0
POLYLINE
  5
124
330
1F
100
AcDbEntity
  8
_U+30EC_U+30A4_U+30E4_U+30FC 1
 62
   179
420
  2234388
370
     9
100
AcDb2dPolyline
 66
     1
 10
0.0
 20
0.0
 30
0.0
  0
VERTEX
  5
125
330
124
100
AcDbEntity
  8
_U+30EC_U+30A4_U+30E4_U+30FC 1
 62
   179
420
  2234388
370
     9
100
AcDbVertex
100
AcDb2dVertex
 10
84.31406312674682
 20
-128.7332324678166
 30
0.0
  0
VERTEX
  5
126
330
124
100
AcDbEntity
  8
_U+30EC_U+30A4_U+30E4_U+30FC 1
 62
   179
420
  2234388
370
     9
100
AcDbVertex
100
AcDb2dVertex
 10
84.81430200287356
 20
-128.2336991346084
 30
0.0
  0
SEQEND
  5
127
330
124
100
AcDbEntity
  8
_U+30EC_U+30A4_U+30E4_U+30FC 1
 62
   179
420
  2234388
370
     9
  0
POLYLINE
  5
128
330
1F
100
AcDbEntity
  8
_U+30EC_U+30A4_U+30E4_U+30FC 1
 62
   179
420
  2234388
370
     9
100
AcDb2dPolyline
 66
     1
 10
0.0
 20
0.0
 30
0.0
  0
VERTEX
  5
129
330
128
100
AcDbEntity
  8
_U+30EC_U+30A4_U+30E4_U+30FC 1
 62
   179
420
  2234388
370
     9
100
AcDbVertex
100
AcDb2dVertex
 10
84.31406312674682
 20
-128.0263010791046
 30
0.0
  0
VERTEX
  5
12A
330
128
100
AcDbEntity
  8
_U+30EC_U+30A4_U+30E4_U+30FC 1
 62
   179
420
  2234388
370
     9
100
AcDbVertex
100
AcDb2dVertex
 10
84.81430200287356
 20
-127.5260621903409
 30
0.0
  0
SEQEND
  5
12B
330
128
100
AcDbEntity
  8
_U+30EC_U+30A4_U+30E4_U+30FC 1
 62
   179
420
  2234388
370
     9
  0
POLYLINE
  5
12C
330
1F
100
AcDbEntity
  8
_U+30EC_U+30A4_U+30E4_U+30FC 1
 62
   179
420
  2234388
370
     9
100
AcDb2dPolyline
 66
     1
 10
0.0
 20
0.0
 30
0.0
  0
VERTEX
  5
12D
330
12C
100
AcDbEntity
  8
_U+30EC_U+30A4_U+30E4_U+30FC 1
 62
   179
420
  2234388
370
     9
100
AcDbVertex
100
AcDb2dVertex
 10
84.31406312674682
 20
-127.3193696903925
 30
0.0
  0
VERTEX
  5
12E
330
12C
100
AcDbEntity
  8
_U+30EC_U+30A4_U+30E4_U+30FC 1
 62
   179
420
  2234388
370
     9
100
AcDbVertex
100
AcDb2dVertex
 10
84.81430200287356
 20
-126.8191308016285
 30
0.0
  0
SEQEND
  5
12F
330
12C
100
AcDbEntity
  8
_U+30EC_U+30A4_U+30E4_U+30FC 1
 62
   179
420
  2234388
370
     9
  0
POLYLINE
  5
130
330
1F
100
AcDbEntity
  8
_U+30EC_U+30A4_U+30E4_U+30FC 1
 62
   179
420
  2234388
370
     9
100
AcDb2dPolyline
 66
     1
 10
0.0
 20
0.0
 30
0.0
  0
VERTEX
  5
131
330
130
100
AcDbEntity
  8
_U+30EC_U+30A4_U+30E4_U+30FC 1
 62
   179
420
  2234388
370
     9
100
AcDbVertex
100
AcDb2dVertex
 10
84.31406312674682
 20
-126.6117327461249
 30
0.0
  0
VERTEX
  5
132
330
130
100
AcDbEntity
  8
_U+30EC_U+30A4_U+30E4_U+30FC 1
 62
   179
420
  2234388
370
     9
100
AcDbVertex
100
AcDb2dVertex
 10
84.81430200287356
 20
-126.1121994129164
 30
0.0
  0
SEQEND
  5
133
330
130
100
AcDbEntity
  8
_U+30EC_U+30A4_U+30E4_U+30FC 1
 62
   179
420
  2234388
370
     9
  0
POLYLINE
  5
134
330
1F
100
AcDbEntity
  8
_U+30EC_U+30A4_U+30E4_U+30FC 1
 62
   179
420
  2234388
370
     9
100
AcDb2dPolyline
 66
     1
 10
0.0
 20
0.0
 30
0.0
  0
VERTEX
  5
135
330
134
100
AcDbEntity
  8
_U+30EC_U+30A4_U+30E4_U+30FC 1
 62
   179
420
  2234388
370
     9
100
AcDbVertex
100
AcDb2dVertex
 10
84.31406312674682
 20
-125.9048013574126
 30
0.0
  0
VERTEX
  5
136
330
134
100
AcDbEntity
  8
_U+30EC_U+30A4_U+30E4_U+30FC 1
 62
   179
420
  2234388
370
     9
100
AcDbVertex
100
AcDb2dVertex
 10
84.81430200287356
 20
-125.4052680242044
 30
0.0
  0
SEQEND
  5
137
330
134
100
AcDbEntity
  8
_U+30EC_U+30A4_U+30E4_U+30FC 1
 62
   179
420
  2234388
370
     9
  0
POLYLINE
  5
138
330
1F
100
AcDbEntity
  8
_U+30EC_U+30A4_U+30E4_U+30FC 1
 62
   179
420
  2234388
370
     9
100
AcDb2dPolyline
 66
     1
 10
0.0
 20
0.0
 30
0.0
  0
VERTEX
  5
139
330
138
100
AcDbEntity
  8
_U+30EC_U+30A4_U+30E4_U+30FC 1
 62
   179
420
  2234388
370
     9
100
AcDbVertex
100
AcDb2dVertex
 10
84.31406312674682
 20
-125.1978699687005
 30
0.0
  0
VERTEX
  5
13A
330
138
100
AcDbEntity
  8
_U+30EC_U+30A4_U+30E4_U+30FC 1
 62
   179
420
  2234388
370
     9
100
AcDbVertex
100
AcDb2dVertex
 10
84.81430200287356
 20
-124.6976310799368
 30
0.0
  0
SEQEND
  5
13B
330
138
100
AcDbEntity
  8
_U+30EC_U+30A4_U+30E4_U+30FC 1
 62
   179
420
  2234388
370
     9
  0
POLYLINE
  5
13C
330
1F
100
AcDbEntity
  8
_U+30EC_U+30A4_U+30E4_U+30FC 1
 62
   179
420
  2234388
370
     9
100
AcDb2dPolyline
 66
     1
 10
0.0
 20
0.0
 30
0.0
  0
VERTEX
  5
13D
330
13C
100
AcDbEntity
  8
_U+30EC_U+30A4_U+30E4_U+30FC 1
 62
   179
420
  2234388
370
     9
100
AcDbVertex
100
AcDb2dVertex
 10
84.31406312674682
 20
-124.4909385799885
 30
0.0
  0
VERTEX
  5
13E
330
13C
100
AcDbEntity
  8
_U+30EC_U+30A4_U+30E4_U+30FC 1
 62
   179
420
  2234388
370
     9
100
AcDbVertex
100
AcDb2dVertex
 10
84.81430200287356
 20
-123.9906996912244
 30
0.0
  0
SEQEND
  5
13F
330
13C
100
AcDbEntity
  8
_U+30EC_U+30A4_U+30E4_U+30FC 1
 62
   179
420
  2234388
370
     9
  0
POLYLINE
  5
140
330
1F
100
AcDbEntity
  8
_U+30EC_U+30A4_U+30E4_U+30FC 1
 62
   179
420
  2234388
370
     9
100
AcDb2dPolyline
 66
     1
 10
0.0
 20
0.0
 30
0.0
  0
VERTEX
  5
141
330
140
100
AcDbEntity
  8
_U+30EC_U+30A4_U+30E4_U+30FC 1
 62
   179
420
  2234388
370
     9
100
AcDbVertex
100
AcDb2dVertex
 10
84.31406312674682
 20
-123.7833016357209
 30
0.0
  0
VERTEX
  5
142
330
140
100
AcDbEntity
  8
_U+30EC_U+30A4_U+30E4_U+30FC 1
 62
   179
420
  2234388
370
     9
100
AcDbVertex
100
AcDb2dVertex
 10
84.81430200287356
 20
-123.2837683025124
 30
0.0
  0
SEQEND
  5
143
330
140
100
AcDbEntity
  8
_U+30EC_U+30A4_U+30E4_U+30FC 1
 62
   179
420
  2234388
370
     9
  0
POLYLINE
  5
144
330
1F
100
AcDbEntity
  8
_U+30EC_U+30A4_U+30E4_U+30FC 1
 62
   179
420
  2234388
370
     9
100
AcDb2dPolyline
 66
     1
 10
0.0
 20
0.0
 30
0.0
  0
VERTEX
  5
145
330
144
100
AcDbEntity
  8
_U+30EC_U+30A4_U+30E4_U+30FC 1
 62
   179
420
  2234388
370
     9
100
AcDbVertex
100
AcDb2dVertex
 10
84.31406312674682
 20
-123.0763702470088
 30
0.0
  0
VERTEX
  5
146
330
144
100
AcDbEntity
  8
_U+30EC_U+30A4_U+30E4_U+30FC 1
 62
   179
420
  2234388
370
     9
100
AcDbVertex
100
AcDb2dVertex
 10
84.81430200287356
 20
-122.5761666360226
 30
0.0
  0
SEQEND
  5
147
330
144
100
AcDbEntity
  8
_U+30EC_U+30A4_U+30E4_U+30FC 1
 62
   179
420
  2234388
370
     9
  0
POLYLINE
  5
148
330
1F
100
AcDbEntity
  8
_U+30EC_U+30A4_U+30E4_U+30FC 1
 62
   179
420
  2234388
370
     9
100
AcDb2dPolyline
 66
     1
 10
0.0
 20
0.0
 30
0.0
  0
VERTEX
  5
149
330
148
100
AcDbEntity
  8
_U+30EC_U+30A4_U+30E4_U+30FC 1
 62
   179
420
  2234388
370
     9
100
AcDbVertex
100
AcDb2dVertex
 10
84.31406312674682
 20
-122.3694388582965
 30
0.0
  0
VERTEX
  5
14A
330
148
100
AcDbEntity
  8
_U+30EC_U+30A4_U+30E4_U+30FC 1
 62
   179
420
  2234388
370
     9
100
AcDbVertex
100
AcDb2dVertex
 10
84.81430200287356
 20
-121.8692352473106
 30
0.0
  0
SEQEND
  5
14B
330
148
100
AcDbEntity
  8
_U+30EC_U+30A4_U+30E4_U+30FC 1
 62
   179
420
  2234388
370
     9
  0
POLYLINE
  5
14C
330
1F
100
AcDbEntity
  8
_U+30EC_U+30A4_U+30E4_U+30FC 1
 62
   179
420
  2234388
370
     9
100
AcDb2dPolyline
 66
     1
 10
0.0
 20
0.0
 30
0.0
  0
VERTEX
  5
14D
330
14C
100
AcDbEntity
  8
_U+30EC_U+30A4_U+30E4_U+30FC 1
 62
   179
420
  2234388
370
     9
100
AcDbVertex
100
AcDb2dVertex
 10
84.31406312674682
 20
-121.6625074695844
 30
0.0
  0
VERTEX
  5
14E
330
14C
100
AcDbEntity
  8
_U+30EC_U+30A4_U+30E4_U+30FC 1
 62
   179
420
  2234388
370
     9
100
AcDbVertex
100
AcDb2dVertex
 10
84.81430200287356
 20
-121.1622685808207
 30
0.0
  0
SEQEND
  5
14F
330
14C
100
AcDbEntity
  8
_U+30EC_U+30A4_U+30E4_U+30FC 1
 62
   179
420
  2234388
370
     9
  0
POLYLINE
  5
150
330
1F
100
AcDbEntity
  8
_U+30EC_U+30A4_U+30E4_U+30FC 1
 62
   179
420
  2234388
370
     9
100
AcDb2dPolyline
 66
     1
 10
0.0
 20
0.0
 30
0.0
  0
VERTEX
  5
151
330
150
100
AcDbEntity
  8
_U+30EC_U+30A4_U+30E4_U+30FC 1
 62
   179
420
  2234388
370
     9
100
AcDbVertex
100
AcDb2dVertex
 10
84.31406312674682
 20
-120.9549058030947
 30
0.0
  0
VERTEX
  5
152
330
150
100
AcDbEntity
  8
_U+30EC_U+30A4_U+30E4_U+30FC 1
 62
   179
420
  2234388
370
     9
100
AcDbVertex
100
AcDb2dVertex
 10
84.81430200287356
 20
-120.4553371921083
 30
0.0
  0
SEQEND
  5
153
330
150
100
AcDbEntity
  8
_U+30EC_U+30A4_U+30E4_U+30FC 1
 62
   179
420
  2234388
370
     9
  0
POLYLINE
  5
154
330
1F
100
AcDbEntity
  8
_U+30EC_U+30A4_U+30E4_U+30FC 1
 62
   179
420
  2234388
370
     9
100
AcDb2dPolyline
 66
     1
 10
0.0
 20
0.0
 30
0.0
  0
VERTEX
  5
155
330
154
100
AcDbEntity
  8
_U+30EC_U+30A4_U+30E4_U+30FC 1
 62
   179
420
  2234388
370
     9
100
AcDbVertex
100
AcDb2dVertex
 10
84.31406312674682
 20
-120.2479744143823
 30
0.0
  0
VERTEX
  5
156
330
154
100
AcDbEntity
  8
_U+30EC_U+30A4_U+30E4_U+30FC 1
 62
   179
420
  2234388
370
     9
100
AcDbVertex
100
AcDb2dVertex
 10
84.81430200287356
 20
-119.7477355256186
 30
0.0
  0
SEQEND
  5
157
330
154
100
AcDbEntity
  8
_U+30EC_U+30A4_U+30E4_U+30FC 1
 62
   179
420
  2234388
370
     9
  0
POLYLINE
  5
158
330
1F
100
AcDbEntity
  8
_U+30EC_U+30A4_U+30E4_U+30FC 1
 62
   179
420
  2234388
370
     9
100
AcDb2dPolyline
 66
     1
 10
0.0
 20
0.0
 30
0.0
  0
VERTEX
  5
159
330
158
100
AcDbEntity
  8
_U+30EC_U+30A4_U+30E4_U+30FC 1
 62
   179
420
  2234388
370
     9
100
AcDbVertex
100
AcDb2dVertex
 10
84.31406312674682
 20
-119.5410077478924
 30
0.0
  0
VERTEX
  5
15A
330
158
100
AcDbEntity
  8
_U+30EC_U+30A4_U+30E4_U+30FC 1
 62
   179
420
  2234388
370
     9
100
AcDbVertex
100
AcDb2dVertex
 10
84.81430200287356
 20
-119.0408041369065
 30
0.0
  0
SEQEND
  5
15B
330
158
100
AcDbEntity
  8
_U+30EC_U+30A4_U+30E4_U+30FC 1
 62
   179
420
  2234388
370
     9
  0
POLYLINE
  5
15C
330
1F
100
AcDbEntity
  8
_U+30EC_U+30A4_U+30E4_U+30FC 1
 62
   179
420
  2234388
370
     9
100
AcDb2dPolyline
 66
     1
 10
0.0
 20
0.0
 30
0.0
  0
VERTEX
  5
15D
330
15C
100
AcDbEntity
  8
_U+30EC_U+30A4_U+30E4_U+30FC 1
 62
   179
420
  2234388
370
     9
100
AcDbVertex
100
AcDb2dVertex
 10
84.31406312674682
 20
-118.8340763591804
 30
0.0
  0
VERTEX
  5
15E
330
15C
100
AcDbEntity
  8
_U+30EC_U+30A4_U+30E4_U+30FC 1
 62
   179
420
  2234388
370
     9
100
AcDbVertex
100
AcDb2dVertex
 10
84.81430200287356
 20
-118.3338727481942
 30
0.0
  0
SEQEND
  5
15F
330
15C
100
AcDbEntity
  8
_U+30EC_U+30A4_U+30E4_U+30FC 1
 62
   179
420
  2234388
370
     9
  0
POLYLINE
  5
160
330
1F
100
AcDbEntity
  8
_U+30EC_U+30A4_U+30E4_U+30FC 1
 62
   179
420
  2234388
370
     9
100
AcDb2dPolyline
 66
     1
 10
0.0
 20
0.0
 30
0.0
  0
VERTEX
  5
161
330
160
100
AcDbEntity
  8
_U+30EC_U+30A4_U+30E4_U+30FC 1
 62
   179
420
  2234388
370
     9
100
AcDbVertex
100
AcDb2dVertex
 10
84.31406312674682
 20
-118.1264746926906
 30
0.0
  0
VERTEX
  5
162
330
160
100
AcDbEntity
  8
_U+30EC_U+30A4_U+30E4_U+30FC 1
 62
   179
420
  2234388
370
     9
100
AcDbVertex
100
AcDb2dVertex
 10
84.81430200287356
 20
-117.6269413594821
 30
0.0
  0
SEQEND
  5
163
330
160
100
AcDbEntity
  8
_U+30EC_U+30A4_U+30E4_U+30FC 1
 62
   179
420
  2234388
370
     9
  0
POLYLINE
  5
164
330
1F
100
AcDbEntity
  8
_U+30EC_U+30A4_U+30E4_U+30FC 1
 62
   179
420
  2234388
370
     9
100
AcDb2dPolyline
 66
     1
 10
0.0
 20
0.0
 30
0.0
  0
VERTEX
  5
165
330
164
100
AcDbEntity
  8
_U+30EC_U+30A4_U+30E4_U+30FC 1
 62
   179
420
  2234388
370
     9
100
AcDbVertex
100
AcDb2dVertex
 10
84.31406312674682
 20
-117.4195433039786
 30
0.0
  0
VERTEX
  5
166
330
164
100
AcDbEntity
  8
_U+30EC_U+30A4_U+30E4_U+30FC 1
 62
   179
420
  2234388
370
     9
100
AcDbVertex
100
AcDb2dVertex
 10
84.81430200287356
 20
-116.9193044152145
 30
0.0
  0
SEQEND
  5
167
330
164
100
AcDbEntity
  8
_U+30EC_U+30A4_U+30E4_U+30FC 1
 62
   179
420
  2234388
370
     9
  0
POLYLINE
  5
168
330
1F
100
AcDbEntity
  8
_U+30EC_U+30A4_U+30E4_U+30FC 1
 62
   179
420
  2234388
370
     9
100
AcDb2dPolyline
 66
     1
 10
0.0
 20
0.0
 30
0.0
  0
VERTEX
  5
169
330
168
100
AcDbEntity
  8
_U+30EC_U+30A4_U+30E4_U+30FC 1
 62
   179
420
  2234388
370
     9
100
AcDbVertex
100
AcDb2dVertex
 10
84.31406312674682
 20
-116.7126119152662
 30
0.0
  0
VERTEX
  5
16A
330
168
100
AcDbEntity
  8
_U+30EC_U+30A4_U+30E4_U+30FC 1
 62
   179
420
  2234388
370
     9
100
AcDbVertex
100
AcDb2dVertex
 10
84.81430200287356
 20
-116.2123730265025
 30
0.0
  0
SEQEND
  5
16B
330
168
100
AcDbEntity
  8
_U+30EC_U+30A4_U+30E4_U+30FC 1
 62
   179
420
  2234388
370
     9
  0
POLYLINE
  5
16C
330
1F
100
AcDbEntity
  8
_U+30EC_U+30A4_U+30E4_U+30FC 1
 62
   179
420
  2234388
370
     9
100
AcDb2dPolyline
 66
     1
 10
0.0
 20
0.0
 30
0.0
  0
VERTEX
  5
16D
330
16C
100
AcDbEntity
  8
_U+30EC_U+30A4_U+30E4_U+30FC 1
 62
   179
420
  2234388
370
     9
100
AcDbVertex
100
AcDb2dVertex
 10
84.31406312674682
 20
-116.0056805265542
 30
0.0
  0
VERTEX
  5
16E
330
16C
100
AcDbEntity
  8
_U+30EC_U+30A4_U+30E4_U+30FC 1
 62
   179
420
  2234388
370
     9
100
AcDbVertex
100
AcDb2dVertex
 10
84.81430200287356
 20
-115.5054416377904
 30
0.0
  0
SEQEND
  5
16F
330
16C
100
AcDbEntity
  8
_U+30EC_U+30A4_U+30E4_U+30FC 1
 62
   179
420
  2234388
370
     9
  0
POLYLINE
  5
170
330
1F
100
AcDbEntity
  8
_U+30EC_U+30A4_U+30E4_U+30FC 1
 62
   179
420
  2234388
370
     9
100
AcDb2dPolyline
 66
     1
 10
0.0
 20
0.0
 30
0.0
  0
VERTEX
  5
171
330
170
100
AcDbEntity
  8
_U+30EC_U+30A4_U+30E4_U+30FC 1
 62
   179
420
  2234388
370
     9
100
AcDbVertex
100
AcDb2dVertex
 10
84.31406312674682
 20
-115.2980435822866
 30
0.0
  0
VERTEX
  5
172
330
170
100
AcDbEntity
  8
_U+30EC_U+30A4_U+30E4_U+30FC 1
 62
   179
420
  2234388
370
     9
100
AcDbVertex
100
AcDb2dVertex
 10
84.81430200287356
 20
-114.7985102490781
 30
0.0
  0
SEQEND
  5
173
330
170
100
AcDbEntity
  8
_U+30EC_U+30A4_U+30E4_U+30FC 1
 62
   179
420
  2234388
370
     9
  0
POLYLINE
  5
174
330
1F
100
AcDbEntity
  8
_U+30EC_U+30A4_U+30E4_U+30FC 1
 62
   179
420
  2234388
370
     9
100
AcDb2dPolyline
 66
     1
 10
0.0
 20
0.0
 30
0.0
  0
VERTEX
  5
175
330
174
100
AcDbEntity
  8
_U+30EC_U+30A4_U+30E4_U+30FC 1
 62
   179
420
  2234388
370
     9
100
AcDbVertex
100
AcDb2dVertex
 10
84.31406312674682
 20
-114.5911121935745
 30
0.0
  0
VERTEX
  5
176
330
174
100
AcDbEntity
  8
_U+30EC_U+30A4_U+30E4_U+30FC 1
 62
   179
420
  2234388
370
     9
100
AcDbVertex
100
AcDb2dVertex
 10
84.81430200287356
 20
-114.0908733048105
 30
0.0
  0
SEQEND
  5
177
330
174
100
AcDbEntity
  8
_U+30EC_U+30A4_U+30E4_U+30FC 1
 62
   179
420
  2234388
370
     9
  0
POLYLINE
  5
178
330
1F
100
AcDbEntity
  8
_U+30EC_U+30A4_U+30E4_U+30FC 1
 62
   179
420
  2234388
370
     9
100
AcDb2dPolyline
 66
     1
 10
0.0
 20
0.0
 30
0.0
  0
VERTEX
  5
179
330
178
100
AcDbEntity
  8
_U+30EC_U+30A4_U+30E4_U+30FC 1
 62
   179
420
  2234388
370
     9
100
AcDbVertex
100
AcDb2dVertex
 10
84.31406312674682
 20
-113.8841808048622
 30
0.0
  0
VERTEX
  5
17A
330
178
100
AcDbEntity
  8
_U+30EC_U+30A4_U+30E4_U+30FC 1
 62
   179
420
  2234388
370
     9
100
AcDbVertex
100
AcDb2dVertex
 10
84.81430200287356
 20
-113.3839419160985
 30
0.0
  0
SEQEND
  5
17B
330
178
100
AcDbEntity
  8
_U+30EC_U+30A4_U+30E4_U+30FC 1
 62
   179
420
  2234388
370
     9
  0
POLYLINE
  5
17C
330
1F
100
AcDbEntity
  8
_U+30EC_U+30A4_U+30E4_U+30FC 1
 62
   179
420
  2234388
370
     9
100
AcDb2dPolyline
 66
     1
 10
0.0
 20
0.0
 30
0.0
  0
VERTEX
  5
17D
330
17C
100
AcDbEntity
  8
_U+30EC_U+30A4_U+30E4_U+30FC 1
 62
   179
420
  2234388
370
     9
100
AcDbVertex
100
AcDb2dVertex
 10
84.31406312674682
 20
-113.1772494161501
 30
0.0
  0
VERTEX
  5
17E
330
17C
100
AcDbEntity
  8
_U+30EC_U+30A4_U+30E4_U+30FC 1
 62
   179
420
  2234388
370
     9
100
AcDbVertex
100
AcDb2dVertex
 10
84.81430200287356
 20
-112.6770105273864
 30
0.0
  0
SEQEND
  5
17F
330
17C
100
AcDbEntity
  8
_U+30EC_U+30A4_U+30E4_U+30FC 1
 62
   179
420
  2234388
370
     9
  0
POLYLINE
  5
180
330
1F
100
AcDbEntity
  8
_U+30EC_U+30A4_U+30E4_U+30FC 1
 62
   179
420
  2234388
370
     9
100
AcDb2dPolyline
 66
     1
 10
0.0
 20
0.0
 30
0.0
  0
VERTEX
  5
181
330
180
100
AcDbEntity
  8
_U+30EC_U+30A4_U+30E4_U+30FC 1
 62
   179
420
  2234388
370
     9
100
AcDbVertex
100
AcDb2dVertex
 10
84.31406312674682
 20
-112.4696124718825
 30
0.0
  0
VERTEX
  5
182
330
180
100
AcDbEntity
  8
_U+30EC_U+30A4_U+30E4_U+30FC 1
 62
   179
420
  2234388
370
     9
100
AcDbVertex
100
AcDb2dVertex
 10
84.81430200287356
 20
-111.970079138674
 30
0.0
  0
SEQEND
  5
183
330
180
100
AcDbEntity
  8
_U+30EC_U+30A4_U+30E4_U+30FC 1
 62
   179
420
  2234388
370
     9
  0
POLYLINE
  5
184
330
1F
100
AcDbEntity
  8
_U+30EC_U+30A4_U+30E4_U+30FC 1
 62
   179
420
  2234388
370
     9
100
AcDb2dPolyline
 66
     1
 10
0.0
 20
0.0
 30
0.0
  0
VERTEX
  5
185
330
184
100
AcDbEntity
  8
_U+30EC_U+30A4_U+30E4_U+30FC 1
 62
   179
420
  2234388
370
     9
100
AcDbVertex
100
AcDb2dVertex
 10
84.31406312674682
 20
-111.7626810831705
 30
0.0
  0
VERTEX
  5
186
330
184
100
AcDbEntity
  8
_U+30EC_U+30A4_U+30E4_U+30FC 1
 62
   179
420
  2234388
370
     9
100
AcDbVertex
100
AcDb2dVertex
 10
84.81430200287356
 20
-111.2624421944068
 30
0.0
  0
SEQEND
  5
187
330
184
100
AcDbEntity
  8
_U+30EC_U+30A4_U+30E4_U+30FC 1
 62
   179
420
  2234388
370
     9
  0
POLYLINE
  5
188
330
1F
100
AcDbEntity
  8
_U+30EC_U+30A4_U+30E4_U+30FC 1
 62
   179
420
  2234388
370
     9
100
AcDb2dPolyline
 66
     1
 10
0.0
 20
0.0
 30
0.0
  0
VERTEX
  5
189
330
188
100
AcDbEntity
  8
_U+30EC_U+30A4_U+30E4_U+30FC 1
 62
   179
420
  2234388
370
     9
100
AcDbVertex
100
AcDb2dVertex
 10
84.31406312674682
 20
-111.0557496944584
 30
0.0
  0
VERTEX
  5
18A
330
188
100
AcDbEntity
  8
_U+30EC_U+30A4_U+30E4_U+30FC 1
 62
   179
420
  2234388
370
     9
100
AcDbVertex
100
AcDb2dVertex
 10
84.81430200287356
 20
-110.5555108056944
 30
0.0
  0
SEQEND
  5
18B
330
188
100
AcDbEntity
  8
_U+30EC_U+30A4_U+30E4_U+30FC 1
 62
   179
420
  2234388
370
     9
  0
POLYLINE
  5
18C
330
1F
100
AcDbEntity
  8
_U+30EC_U+30A4_U+30E4_U+30FC 1
 62
   179
420
  2234388
370
     9
100
AcDb2dPolyline
 66
     1
 10
0.0
 20
0.0
 30
0.0
  0
VERTEX
  5
18D
330
18C
100
AcDbEntity
  8
_U+30EC_U+30A4_U+30E4_U+30FC 1
 62
   179
420
  2234388
370
     9
100
AcDbVertex
100
AcDb2dVertex
 10
84.31406312674682
 20
-110.3488183057461
 30
0.0
  0
VERTEX
  5
18E
330
18C
100
AcDbEntity
  8
_U+30EC_U+30A4_U+30E4_U+30FC 1
 62
   179
420
  2234388
370
     9
100
AcDbVertex
100
AcDb2dVertex
 10
84.81430200287356
 20
-109.8485794169823
 30
0.0
  0
SEQEND
  5
18F
330
18C
100
AcDbEntity
  8
_U+30EC_U+30A4_U+30E4_U+30FC 1
 62
   179
420
  2234388
370
     9
  0
POLYLINE
  5
190
330
1F
100
AcDbEntity
  8
_U+30EC_U+30A4_U+30E4_U+30FC 1
 62
   179
420
  2234388
370
     9
100
AcDb2dPolyline
 66
     1
 10
0.0
 20
0.0
 30
0.0
  0
VERTEX
  5
191
330
190
100
AcDbEntity
  8
_U+30EC_U+30A4_U+30E4_U+30FC 1
 62
   179
420
  2234388
370
     9
100
AcDbVertex
100
AcDb2dVertex
 10
84.31406312674682
 20
-109.6411813614785
 30
0.0
  0
VERTEX
  5
192
330
190
100
AcDbEntity
  8
_U+30EC_U+30A4_U+30E4_U+30FC 1
 62
   179
420
  2234388
370
     9
100
AcDbVertex
100
AcDb2dVertex
 10
84.81430200287356
 20
-109.1416480282703
 30
0.0
  0
SEQEND
  5
193
330
190
100
AcDbEntity
  8
_U+30EC_U+30A4_U+30E4_U+30FC 1
 62
   179
420
  2234388
370
     9
  0
POLYLINE
  5
194
330
1F
100
AcDbEntity
  8
_U+30EC_U+30A4_U+30E4_U+30FC 1
 62
   179
420
  2234388
370
     9
100
AcDb2dPolyline
 66
     1
 10
0.0
 20
0.0
 30
0.0
  0
VERTEX
  5
195
330
194
100
AcDbEntity
  8
_U+30EC_U+30A4_U+30E4_U+30FC 1
 62
   179
420
  2234388
370
     9
100
AcDbVertex
100
AcDb2dVertex
 10
84.31406312674682
 20
-108.9342499727664
 30
0.0
  0
VERTEX
  5
196
330
194
100
AcDbEntity
  8
_U+30EC_U+30A4_U+30E4_U+30FC 1
 62
   179
420
  2234388
370
     9
100
AcDbVertex
100
AcDb2dVertex
 10
84.81430200287356
 20
-108.4340463617802
 30
0.0
  0
SEQEND
  5
197
330
194
100
AcDbEntity
  8
_U+30EC_U+30A4_U+30E4_U+30FC 1
 62
   179
420
  2234388
370
     9
  0
POLYLINE
  5
198
330
1F
100
AcDbEntity
  8
_U+30EC_U+30A4_U+30E4_U+30FC 1
 62
   179
420
  2234388
370
     9
100
AcDb2dPolyline
 66
     1
 10
0.0
 20
0.0
 30
0.0
  0
VERTEX
  5
199
330
198
100
AcDbEntity
  8
_U+30EC_U+30A4_U+30E4_U+30FC 1
 62
   179
420
  2234388
370
     9
100
AcDbVertex
100
AcDb2dVertex
 10
84.31406312674682
 20
-108.2273185840544
 30
0.0
  0
VERTEX
  5
19A
330
198
100
AcDbEntity
  8
_U+30EC_U+30A4_U+30E4_U+30FC 1
 62
   179
420
  2234388
370
     9
100
AcDbVertex
100
AcDb2dVertex
 10
84.81430200287356
 20
-107.7271149730682
 30
0.0
  0
SEQEND
  5
19B
330
198
100
AcDbEntity
  8
_U+30EC_U+30A4_U+30E4_U+30FC 1
 62
   179
420
  2234388
370
     9
  0
POLYLINE
  5
19C
330
1F
100
AcDbEntity
  8
_U+30EC_U+30A4_U+30E4_U+30FC 1
 62
   179
420
  2234388
370
     9
100
AcDb2dPolyline
 66
     1
 10
0.0
 20
0.0
 30
0.0
  0
VERTEX
  5
19D
330
19C
100
AcDbEntity
  8
_U+30EC_U+30A4_U+30E4_U+30FC 1
 62
   179
420
  2234388
370
     9
100
AcDbVertex
100
AcDb2dVertex
 10
84.31406312674682
 20
-107.520387195342
 30
0.0
  0
VERTEX
  5
19E
330
19C
100
AcDbEntity
  8
_U+30EC_U+30A4_U+30E4_U+30FC 1
 62
   179
420
  2234388
370
     9
100
AcDbVertex
100
AcDb2dVertex
 10
84.477363955914
 20
-107.3570863620497
 30
0.0
  0
SEQEND
  5
19F
330
19C
100
AcDbEntity
  8
_U+30EC_U+30A4_U+30E4_U+30FC 1
 62
   179
420
  2234388
370
     9
  0
POLYLINE
  5
1A0
330
1F
100
AcDbEntity
  8
_U+30EC_U+30A4_U+30E4_U+30FC 1
 62
   179
420
  2234388
370
     9
100
AcDb2dPolyline
 66
     1
 10
0.0
 20
0.0
 30
0.0
  0
VERTEX
  5
1A1
330
1A0
100
AcDbEntity
  8
_U+30EC_U+30A4_U+30E4_U+30FC 1
 62
   179
420
  2234388
370
     9
100
AcDbVertex
100
AcDb2dVertex
 10
82.45439720160873
 20
-113.064254693956
 30
0.0
  0
VERTEX
  5
1A2
330
1A0
100
AcDbEntity
  8
_U+30EC_U+30A4_U+30E4_U+30FC 1
 62
   179
420
  2234388
370
     9
100
AcDbVertex
100
AcDb2dVertex
 10
84.17143507483001
 20
-114.5518480269175
 30
0.0
  0
SEQEND
  5
1A3
330
1A0
100
AcDbEntity
  8
_U+30EC_U+30A4_U+30E4_U+30FC 1
 62
   179
420
  2234388
370
     9
  0
INSERT
  5
1A5
330
1F
100
AcDbEntity
  8
_U+30EC_U+30A4_U+30E4_U+30FC 1
100
AcDbBlockReference
  2
block 5
 10
0.0
 20
0.0
 30
0.0
  0
SPLINE
  5
1B8
330
1F
100
AcDbEntity
  8
_U+30EC_U+30A4_U+30E4_U+30FC 1
 62
   179
420
  2234388
370
     9
100
AcDbSpline
210
0.0
220
0.0
230
1.0
 70
    11
 71
     3
 72
    17
 73
    13
 74
     0
 42
0.0000000001
 43
0.0000000001
 12
1.0
 22
0.0
 32
0.0
 13
1.0
 23
0.0
 33
0.0
 40
0.0
 40
0.0
 40
0.0
 40
0.0
 40
1.0
 40
1.0
 40
1.0
 40
2.0
 40
2.0
 40
2.0
 40
3.0
 40
3.0
 40
3.0
 40
4.0
 40
4.0
 40
4.0
 40
4.0
 10
85.70690031343482
 20
-132.4759930224363
 30
0.0
 10
85.70690031343482
 20
-132.4856238557677
 30
0.0
 10
85.69899809141418
 20
-132.4938788557657
 30
0.0
 10
85.68933198054968
 20
-132.4938788557657
 30
0.0
 10
85.67970114746205
 20
-132.4938788557657
 30
0.0
 10
85.67141086989578
 20
-132.4856238557677
 30
0.0
 10
85.67141086989578
 20
-132.4759930224363
 30
0.0
 10
85.67141086989578
 20
-132.4663269113279
 30
0.0
 10
85.67970114746205
 20
-132.4580719113299
 30
0.0
 10
85.68933198054968
 20
-132.4580719113299
 30
0.0
 10
85.69899809141418
 20
-132.4580719113299
 30
0.0
 10
85.70690031343482
 20
-132.4663269113279
 30
0.0
 10
85.70690031343482
 20
-132.4759930224363
 30
0.0
  0
SPLINE
  5
1B9
330
1F
100
AcDbEntity
  8
_U+30EC_U+30A4_U+30E4_U+30FC 1
 62
   253
420
 11711154
370
     9
100
AcDbSpline
210
0.0
220
0.0
230
1.0
 70
    11
 71
     3
 72
    23
 73
    19
 74
     0
 42
0.0000000001
 43
0.0000000001
 12
1.0
 22
0.0
 32
0.0
 13
1.0
 23
0.0
 33
0.0
 40
0.0
 40
0.0
 40
0.0
 40
0.0
 40
1.0
 40
1.0
 40
1.0
 40
2.0
 40
2.0
 40
2.0
 40
3.0
 40
3.0
 40
3.0
 40
4.0
 40
4.0
 40
4.0
 40
5.0
 40
5.0
 40
5.0
 40
6.0
 40
6.0
 40
6.0
 40
6.0
 10
83.9404361918344
 20
-103.7583649740604
 30
0.0
 10
83.9404361918344
 20
-103.7583649740604
 30
0.0
 10
85.17723977139202
 20
-103.7583649740604
 30
0.0
 10
85.17723977139202
 20
-103.7583649740604
 30
0.0
 10
85.17723977139202
 20
-103.7583649740604
 30
0.0
 10
87.05031333471705
 20
-103.4400183074733
 30
0.0
 10
87.31972971673255
 20
-99.46093191957914
 30
0.0
 10
87.31972971673255
 20
-99.46093191957914
 30
0.0
 10
87.16023888746817
 20
-95.35989025393773
 30
0.0
 10
84.57709423114746
 20
-95.24964719840975
 30
0.0
 10
84.57709423114746
 20
-95.24964719840975
 30
0.0
 10
82.94860149491599
 20
-95.20075219842188
 30
0.0
 10
82.11625762726196
 20
-97.56337553116475
 30
0.0
 10
82.11625762726196
 20
-97.56337553116475
 30
0.0
 10
81.22295376116315
 20
-100.5261796970908
 30
0.0
 10
82.6061601147635
 20
-102.5711619188018
 30
0.0
 10
82.6061601147635
 20
-102.5711619188018
 30
0.0
 10
83.23004759884681
 20
-103.5378788630044
 30
0.0
 10
83.9404361918344
 20
-103.7583649740604
 30
0.0
  0
HATCH
  5
1BA
330
1F
100
AcDbEntity
  8
_U+30EC_U+30A4_U+30E4_U+30FC 1
 62
   253
420
 11711154
100
AcDbHatch
 10
0.0
 20
0.0
 30
0.0
210
0.0
220
0.0
230
1.0
  2
SOLID
 70
     1
 71
     0
 91
        1
 92
        1
 93
        1
 72
     4
 94
        3
 73
     0
 74
     1
 95
       23
 96
       19
 40
0.0
 40
0.0
 40
0.0
 40
0.0
 40
1.0
 40
1.0
 40
1.0
 40
2.0
 40
2.0
 40
2.0
 40
3.0
 40
3.0
 40
3.0
 40
4.0
 40
4.0
 40
4.0
 40
5.0
 40
5.0
 40
5.0
 40
6.0
 40
6.0
 40
6.0
 40
6.0
 10
83.9404361918344
 20
-103.7583649740604
 10
83.9404361918344
 20
-103.7583649740604
 10
85.17723977139202
 20
-103.7583649740604
 10
85.17723977139202
 20
-103.7583649740604
 10
85.17723977139202
 20
-103.7583649740604
 10
87.05031333471705
 20
-103.4400183074733
 10
87.31972971673255
 20
-99.46093191957914
 10
87.31972971673255
 20
-99.46093191957914
 10
87.16023888746817
 20
-95.35989025393773
 10
84.57709423114746
 20
-95.24964719840975
 10
84.57709423114746
 20
-95.24964719840975
 10
82.94860149491599
 20
-95.20075219842188
 10
82.11625762726196
 20
-97.56337553116475
 10
82.11625762726196
 20
-97.56337553116475
 10
81.22295376116315
 20
-100.5261796970908
 10
82.6061601147635
 20
-102.5711619188018
 10
82.6061601147635
 20
-102.5711619188018
 10
83.23004759884681
 20
-103.5378788630044
 10
83.9404361918344
 20
-103.7583649740604
 97
        0
 97
        0
 75
     2
 76
     1
 98
        0
  0
SPLINE
  5
1BB
330
1F
100
AcDbEntity
  8
_U+30EC_U+30A4_U+30E4_U+30FC 1
370
     0
100
AcDbSpline
210
0.0
220
0.0
230
1.0
 70
    11
 71
     3
 72
    29
 73
    25
 74
     0
 42
0.0000000001
 43
0.0000000001
 12
1.0
 22
0.0
 32
0.0
 13
1.0
 23
0.0
 33
0.0
 40
0.0
 40
0.0
 40
0.0
 40
0.0
 40
1.0
 40
1.0
 40
1.0
 40
2.0
 40
2.0
 40
2.0
 40
3.0
 40
3.0
 40
3.0
 40
4.0
 40
4.0
 40
4.0
 40
5.0
 40
5.0
 40
5.0
 40
6.0
 40
6.0
 40
6.0
 40
7.0
 40
7.0
 40
7.0
 40
8.0
 40
8.0
 40
8.0
 40
8.0
 10
83.96319035792055
 20
-96.8123469202415
 30
0.0
 10
83.96319035792055
 20
-96.8123469202415
 30
0.0
 10
85.53312198453493
 20
-96.43960192033441
 30
0.0
 10
85.85418503189949
 20
-97.49860553118084
 30
0.0
 10
85.85418503189949
 20
-97.49860553118084
 30
0.0
 10
85.95684336261378
 20
-98.03535691993548
 30
0.0
 10
85.79012058908945
 20
-98.66167858644572
 30
0.0
 10
85.79012058908945
 20
-98.66167858644572
 30
0.0
 10
85.10799164538975
 20
-100.690856363716
 30
0.0
 10
84.79931108991136
 20
-100.9747013636452
 30
0.0
 10
84.79931108991136
 20
-100.9747013636452
 30
0.0
 10
84.23327701769674
 20
-100.9892005303084
 30
0.0
 10
84.23327701769674
 20
-100.9892005303084
 30
0.0
 10
84.23327701769674
 20
-100.9892005303084
 30
0.0
 10
83.79576202885868
 20
-100.1533994194062
 30
0.0
 10
83.79576202885868
 20
-100.1533994194062
 30
0.0
 10
83.79576202885868
 20
-100.1533994194062
 30
0.0
 10
83.26864148675108
 20
-98.57210830869045
 30
0.0
 10
83.26864148675108
 20
-98.57210830869045
 30
0.0
 10
83.26864148675108
 20
-98.57210830869045
 30
0.0
 10
83.010937326659
 20
-97.75218219778431
 30
0.0
 10
83.26864148675108
 20
-97.40903525342556
 30
0.0
 10
83.26864148675108
 20
-97.40903525342556
 30
0.0
 10
83.49981675863108
 20
-96.9012469202191
 30
0.0
 10
83.96319035792055
 20
-96.8123469202415
 30
0.0
  0
POLYLINE
  5
1BC
330
1F
100
AcDbEntity
  8
_U+30EC_U+30A4_U+30E4_U+30FC 1
 62
   179
420
  2234388
370
     9
100
AcDb2dPolyline
 66
     1
 10
0.0
 20
0.0
 30
0.0
  0
VERTEX
  5
1BD
330
1BC
100
AcDbEntity
  8
_U+30EC_U+30A4_U+30E4_U+30FC 1
 62
   179
420
  2234388
370
     9
100
AcDbVertex
100
AcDb2dVertex
 10
84.24982229505241
 20
-101.0091677525256
 30
0.0
  0
VERTEX
  5
1BE
330
1BC
100
AcDbEntity
  8
_U+30EC_U+30A4_U+30E4_U+30FC 1
 62
   179
420
  2234388
370
     9
100
AcDbVertex
100
AcDb2dVertex
 10
84.8116914473846
 20
-101.0091677525256
 30
0.0
  0
SEQEND
  5
1BF
330
1BC
100
AcDbEntity
  8
_U+30EC_U+30A4_U+30E4_U+30FC 1
 62
   179
420
  2234388
370
     9
  0
POLYLINE
  5
1C0
330
1F
100
AcDbEntity
  8
_U+30EC_U+30A4_U+30E4_U+30FC 1
 62
   179
420
  2234388
370
     9
100
AcDb2dPolyline
 66
     1
 10
0.0
 20
0.0
 30
0.0
  0
VERTEX
  5
1C1
330
1C0
100
AcDbEntity
  8
_U+30EC_U+30A4_U+30E4_U+30FC 1
 62
   179
420
  2234388
370
     9
100
AcDbVertex
100
AcDb2dVertex
 10
84.45101145658631
 20
-96.70693692026768
 30
0.0
  0
VERTEX
  5
1C2
330
1C0
100
AcDbEntity
  8
_U+30EC_U+30A4_U+30E4_U+30FC 1
 62
   179
420
  2234388
370
     9
100
AcDbVertex
100
AcDb2dVertex
 10
84.6105022858507
 20
-96.70693692026768
 30
0.0
  0
SEQEND
  5
1C3
330
1C0
100
AcDbEntity
  8
_U+30EC_U+30A4_U+30E4_U+30FC 1
 62
   179
420
  2234388
370
     9
  0
SPLINE
  5
1C4
330
1F
100
AcDbEntity
  8
_U+30EC_U+30A4_U+30E4_U+30FC 1
 62
   179
420
  2234388
370
     9
100
AcDbSpline
210
0.0
220
0.0
230
1.0
 70
     8
 71
     3
 72
     8
 73
     4
 74
     0
 42
0.0000000001
 43
0.0000000001
 12
1.0
 22
0.0
 32
0.0
 13
1.0
 23
0.0
 33
0.0
 40
0.0
 40
0.0
 40
0.0
 40
0.0
 40
1.0
 40
1.0
 40
1.0
 40
1.0
 10
84.8116914473846
 20
-101.0091677525256
 30
0.0
 10
85.34844282257983
 20
-100.0720841416485
 30
0.0
 10
85.71603725764615
 20
-99.06751414189965
 30
0.0
 10
85.89930530852615
 20
-98.03122941993651
 30
0.0
  0
SPLINE
  5
1C5
330
1F
100
AcDbEntity
  8
_U+30EC_U+30A4_U+30E4_U+30FC 1
 62
   179
420
  2234388
370
     9
100
AcDbSpline
210
0.0
220
0.0
230
1.0
 70
     8
 71
     3
 72
    11
 73
     7
 74
     0
 42
0.0000000001
 43
0.0000000001
 12
1.0
 22
0.0
 32
0.0
 13
1.0
 23
0.0
 33
0.0
 40
0.0
 40
0.0
 40
0.0
 40
0.0
 40
1.0
 40
1.0
 40
1.0
 40
2.0
 40
2.0
 40
2.0
 40
2.0
 10
85.89930530852615
 20
-98.03122941993651
 30
0.0
 10
86.01162975010496
 20
-97.40490775342658
 30
0.0
 10
85.52447892919987
 20
-96.81855580912855
 30
0.0
 10
84.8116914473846
 20
-96.72002497582012
 30
0.0
 10
84.74554561573879
 20
-96.71106442026665
 30
0.0
 10
84.67770645080284
 20
-96.70693692026768
 30
0.0
 10
84.6105022858507
 20
-96.70693692026768
 30
0.0
  0
SPLINE
  5
1C6
330
1F
100
AcDbEntity
  8
_U+30EC_U+30A4_U+30E4_U+30FC 1
 62
   179
420
  2234388
370
     9
100
AcDbSpline
210
0.0
220
0.0
230
1.0
 70
     8
 71
     3
 72
     8
 73
     4
 74
     0
 42
0.0000000001
 43
0.0000000001
 12
1.0
 22
0.0
 32
0.0
 13
1.0
 23
0.0
 33
0.0
 40
0.0
 40
0.0
 40
0.0
 40
0.0
 40
1.0
 40
1.0
 40
1.0
 40
1.0
 10
83.16252593390276
 20
-98.03122941993651
 30
0.0
 10
83.34582926255963
 20
-99.06751414189965
 30
0.0
 10
83.71342369762597
 20
-100.0720841416485
 30
0.0
 10
84.24982229505241
 20
-101.0091677525256
 30
0.0
  0
SPLINE
  5
1C7
330
1F
100
AcDbEntity
  8
_U+30EC_U+30A4_U+30E4_U+30FC 1
 62
   179
420
  2234388
370
     9
100
AcDbSpline
210
0.0
220
0.0
230
1.0
 70
     8
 71
     3
 72
    11
 73
     7
 74
     0
 42
0.0000000001
 43
0.0000000001
 12
1.0
 22
0.0
 32
0.0
 13
1.0
 23
0.0
 33
0.0
 40
0.0
 40
0.0
 40
0.0
 40
0.0
 40
1.0
 40
1.0
 40
1.0
 40
2.0
 40
2.0
 40
2.0
 40
2.0
 10
84.45101145658631
 20
-96.70693692026768
 30
0.0
 10
83.73063925274232
 20
-96.70693692026768
 30
0.0
 10
83.14601593432397
 20
-97.22026386458384
 30
0.0
 10
83.14601593432397
 20
-97.85413497553651
 30
0.0
 10
83.14601593432397
 20
-97.91273136441056
 30
0.0
 10
83.15116648974812
 20
-97.9726683088403
 30
0.0
 10
83.16252593390276
 20
-98.03122941993651
 30
0.0
  0
POLYLINE
  5
1C8
330
1F
100
AcDbEntity
  8
_U+30EC_U+30A4_U+30E4_U+30FC 1
 62
   179
420
  2234388
370
     9
100
AcDb2dPolyline
 66
     1
 10
0.0
 20
0.0
 30
0.0
  0
VERTEX
  5
1C9
330
1C8
100
AcDbEntity
  8
_U+30EC_U+30A4_U+30E4_U+30FC 1
 62
   179
420
  2234388
370
     9
100
AcDbVertex
100
AcDb2dVertex
 10
83.94699997901327
 20
-106.7776488621946
 30
0.0
  0
VERTEX
  5
1CA
330
1C8
100
AcDbEntity
  8
_U+30EC_U+30A4_U+30E4_U+30FC 1
 62
   179
420
  2234388
370
     9
100
AcDbVertex
100
AcDb2dVertex
 10
85.19685421533606
 20
-106.7776488621946
 30
0.0
  0
SEQEND
  5
1CB
330
1C8
100
AcDbEntity
  8
_U+30EC_U+30A4_U+30E4_U+30FC 1
 62
   179
420
  2234388
370
     9
  0
POLYLINE
  5
1CC
330
1F
100
AcDbEntity
  8
_U+30EC_U+30A4_U+30E4_U+30FC 1
 62
   179
420
  2234388
370
     9
100
AcDb2dPolyline
 66
     1
 10
0.0
 20
0.0
 30
0.0
  0
VERTEX
  5
1CD
330
1CC
100
AcDbEntity
  8
_U+30EC_U+30A4_U+30E4_U+30FC 1
 62
   179
420
  2234388
370
     9
100
AcDbVertex
100
AcDb2dVertex
 10
83.94699997901327
 20
-106.5412877511425
 30
0.0
  0
VERTEX
  5
1CE
330
1CC
100
AcDbEntity
  8
_U+30EC_U+30A4_U+30E4_U+30FC 1
 62
   179
420
  2234388
370
     9
100
AcDbVertex
100
AcDb2dVertex
 10
85.19685421533606
 20
-106.5412877511425
 30
0.0
  0
SEQEND
  5
1CF
330
1CC
100
AcDbEntity
  8
_U+30EC_U+30A4_U+30E4_U+30FC 1
 62
   179
420
  2234388
370
     9
  0
POLYLINE
  5
1D0
330
1F
100
AcDbEntity
  8
_U+30EC_U+30A4_U+30E4_U+30FC 1
 62
   179
420
  2234388
370
     9
100
AcDb2dPolyline
 66
     1
 10
0.0
 20
0.0
 30
0.0
  0
VERTEX
  5
1D1
330
1D0
100
AcDbEntity
  8
_U+30EC_U+30A4_U+30E4_U+30FC 1
 62
   179
420
  2234388
370
     9
100
AcDbVertex
100
AcDb2dVertex
 10
85.19685421533606
 20
-103.7776619184999
 30
0.0
  0
VERTEX
  5
1D2
330
1D0
100
AcDbEntity
  8
_U+30EC_U+30A4_U+30E4_U+30FC 1
 62
   179
420
  2234388
370
     9
100
AcDbVertex
100
AcDb2dVertex
 10
85.19685421533606
 20
-106.7776488621946
 30
0.0
  0
SEQEND
  5
1D3
330
1D0
100
AcDbEntity
  8
_U+30EC_U+30A4_U+30E4_U+30FC 1
 62
   179
420
  2234388
370
     9
  0
POLYLINE
  5
1D4
330
1F
100
AcDbEntity
  8
_U+30EC_U+30A4_U+30E4_U+30FC 1
 62
   179
420
  2234388
370
     9
100
AcDb2dPolyline
 66
     1
 10
0.0
 20
0.0
 30
0.0
  0
VERTEX
  5
1D5
330
1D4
100
AcDbEntity
  8
_U+30EC_U+30A4_U+30E4_U+30FC 1
 62
   179
420
  2234388
370
     9
100
AcDbVertex
100
AcDb2dVertex
 10
83.94699997901327
 20
-103.7776619184999
 30
0.0
  0
VERTEX
  5
1D6
330
1D4
100
AcDbEntity
  8
_U+30EC_U+30A4_U+30E4_U+30FC 1
 62
   179
420
  2234388
370
     9
100
AcDbVertex
100
AcDb2dVertex
 10
83.94699997901327
 20
-106.7776488621946
 30
0.0
  0
SEQEND
  5
1D7
330
1D4
100
AcDbEntity
  8
_U+30EC_U+30A4_U+30E4_U+30FC 1
 62
   179
420
  2234388
370
     9
  0
POLYLINE
  5
1D8
330
1F
100
AcDbEntity
  8
_U+30EC_U+30A4_U+30E4_U+30FC 1
 62
   179
420
  2234388
370
     9
100
AcDb2dPolyline
 66
     1
 10
0.0
 20
0.0
 30
0.0
  0
VERTEX
  5
1D9
330
1D8
100
AcDbEntity
  8
_U+30EC_U+30A4_U+30E4_U+30FC 1
 62
   179
420
  2234388
370
     9
100
AcDbVertex
100
AcDb2dVertex
 10
84.74900283787281
 20
-107.2255002509713
 30
0.0
  0
VERTEX
  5
1DA
330
1D8
100
AcDbEntity
  8
_U+30EC_U+30A4_U+30E4_U+30FC 1
 62
   179
420
  2234388
370
     9
100
AcDbVertex
100
AcDb2dVertex
 10
85.19685421533606
 20
-106.7776488621946
 30
0.0
  0
SEQEND
  5
1DB
330
1D8
100
AcDbEntity
  8
_U+30EC_U+30A4_U+30E4_U+30FC 1
 62
   179
420
  2234388
370
     9
  0
POLYLINE
  5
1DC
330
1F
100
AcDbEntity
  8
_U+30EC_U+30A4_U+30E4_U+30FC 1
 62
   179
420
  2234388
370
     9
100
AcDb2dPolyline
 66
     1
 10
0.0
 20
0.0
 30
0.0
  0
VERTEX
  5
1DD
330
1DC
100
AcDbEntity
  8
_U+30EC_U+30A4_U+30E4_U+30FC 1
 62
   179
420
  2234388
370
     9
100
AcDbVertex
100
AcDb2dVertex
 10
83.94699997901327
 20
-106.7776488621946
 30
0.0
  0
VERTEX
  5
1DE
330
1DC
100
AcDbEntity
  8
_U+30EC_U+30A4_U+30E4_U+30FC 1
 62
   179
420
  2234388
370
     9
100
AcDbVertex
100
AcDb2dVertex
 10
84.39484923579691
 20
-107.2255002509713
 30
0.0
  0
SEQEND
  5
1DF
330
1DC
100
AcDbEntity
  8
_U+30EC_U+30A4_U+30E4_U+30FC 1
 62
   179
420
  2234388
370
     9
  0
POLYLINE
  5
1E0
330
1F
100
AcDbEntity
  8
_U+30EC_U+30A4_U+30E4_U+30FC 1
 62
   179
420
  2234388
370
     9
100
AcDb2dPolyline
 66
     1
 10
0.0
 20
0.0
 30
0.0
  0
VERTEX
  5
1E1
330
1E0
100
AcDbEntity
  8
_U+30EC_U+30A4_U+30E4_U+30FC 1
 62
   179
420
  2234388
370
     9
100
AcDbVertex
100
AcDb2dVertex
 10
83.94699997901327
 20
-103.7776619184999
 30
0.0
  0
VERTEX
  5
1E2
330
1E0
100
AcDbEntity
  8
_U+30EC_U+30A4_U+30E4_U+30FC 1
 62
   179
420
  2234388
370
     9
100
AcDbVertex
100
AcDb2dVertex
 10
85.19685421533606
 20
-103.7776619184999
 30
0.0
  0
SEQEND
  5
1E3
330
1E0
100
AcDbEntity
  8
_U+30EC_U+30A4_U+30E4_U+30FC 1
 62
   179
420
  2234388
370
     9
  0
SPLINE
  5
1E4
330
1F
100
AcDbEntity
  8
_U+30EC_U+30A4_U+30E4_U+30FC 1
 62
   179
420
  2234388
370
     9
100
AcDbSpline
210
0.0
220
0.0
230
1.0
 70
     8
 71
     3
 72
     8
 73
     4
 74
     0
 42
0.0000000001
 43
0.0000000001
 12
1.0
 22
0.0
 32
0.0
 13
1.0
 23
0.0
 33
0.0
 40
0.0
 40
0.0
 40
0.0
 40
0.0
 40
1.0
 40
1.0
 40
1.0
 40
1.0
 10
84.39484923579691
 20
-107.2255002509713
 30
0.0
 10
84.49267451107896
 20
-107.3233255287248
 30
0.0
 10
84.65117756259076
 20
-107.3233255287248
 30
0.0
 10
84.74900283787281
 20
-107.2255002509713
 30
0.0
  0
SPLINE
  5
1E5
330
1F
100
AcDbEntity
  8
_U+30EC_U+30A4_U+30E4_U+30FC 1
 62
   179
420
  2234388
370
     9
100
AcDbSpline
210
0.0
220
0.0
230
1.0
 70
     8
 71
     3
 72
    17
 73
    13
 74
     0
 42
0.0000000001
 43
0.0000000001
 12
1.0
 22
0.0
 32
0.0
 13
1.0
 23
0.0
 33
0.0
 40
0.0
 40
0.0
 40
0.0
 40
0.0
 40
1.0
 40
1.0
 40
1.0
 40
2.0
 40
2.0
 40
2.0
 40
3.0
 40
3.0
 40
3.0
 40
4.0
 40
4.0
 40
4.0
 40
4.0
 10
83.92699535884397
 20
-103.7494044185072
 30
0.0
 10
82.72123622293878
 20
-103.2925924741767
 30
0.0
 10
81.82549819023541
 20
-101.583807474604
 30
0.0
 10
81.82549819023541
 20
-99.54570441955809
 30
0.0
 10
81.82549819023541
 20
-97.15824553126602
 30
0.0
 10
83.05503454775621
 20
-95.22280080952748
 30
0.0
 10
84.5722611757152
 20
-95.22280080952748
 30
0.0
 10
86.08881752591351
 20
-95.22280080952748
 30
0.0
 10
87.31835388343431
 20
-97.15824553126602
 30
0.0
 10
87.31835388343431
 20
-99.54570441955809
 30
0.0
 10
87.31835388343431
 20
-101.5962252523788
 30
0.0
 10
86.41196196211385
 20
-103.3125596963942
 30
0.0
 10
85.19548053425662
 20
-103.7576594185052
 30
0.0
  0
SPLINE
  5
1E6
330
1F
100
AcDbEntity
  8
_U+30EC_U+30A4_U+30E4_U+30FC 1
 62
   179
420
  2234388
370
     9
100
AcDbSpline
210
0.0
220
0.0
230
1.0
 70
    11
 71
     3
 72
    17
 73
    13
 74
     0
 42
0.0000000001
 43
0.0000000001
 12
1.0
 22
0.0
 32
0.0
 13
1.0
 23
0.0
 33
0.0
 40
0.0
 40
0.0
 40
0.0
 40
0.0
 40
1.0
 40
1.0
 40
1.0
 40
2.0
 40
2.0
 40
2.0
 40
3.0
 40
3.0
 40
3.0
 40
4.0
 40
4.0
 40
4.0
 40
4.0
 10
90.89231018114398
 20
-159.069369682455
 30
0.0
 10
90.89231018114398
 20
-159.0417824602397
 30
0.0
 10
90.87026386617134
 20
-159.0197338491341
 30
0.0
 10
90.84267434907696
 20
-159.0197338491341
 30
0.0
 10
90.81512240533543
 20
-159.0197338491341
 30
0.0
 10
90.79240351702614
 20
-159.0417824602397
 30
0.0
 10
90.79240351702614
 20
-159.069369682455
 30
0.0
 10
90.79240351702614
 20
-159.0969216268921
 30
0.0
 10
90.81512240533543
 20
-159.1196757935533
 30
0.0
 10
90.84267434907696
 20
-159.1196757935533
 30
0.0
 10
90.87026386617134
 20
-159.1196757935533
 30
0.0
 10
90.89231018114398
 20
-159.0969216268921
 30
0.0
 10
90.89231018114398
 20
-159.069369682455
 30
0.0
  0
SPLINE
  5
1E7
330
1F
100
AcDbEntity
  8
_U+30EC_U+30A4_U+30E4_U+30FC 1
 62
   179
420
  2234388
370
     9
100
AcDbSpline
210
0.0
220
0.0
230
1.0
 70
    11
 71
     3
 72
    17
 73
    13
 74
     0
 42
0.0000000001
 43
0.0000000001
 12
1.0
 22
0.0
 32
0.0
 13
1.0
 23
0.0
 33
0.0
 40
0.0
 40
0.0
 40
0.0
 40
0.0
 40
1.0
 40
1.0
 40
1.0
 40
2.0
 40
2.0
 40
2.0
 40
3.0
 40
3.0
 40
3.0
 40
4.0
 40
4.0
 40
4.0
 40
4.0
 10
82.62284650322668
 20
-159.069369682455
 30
0.0
 10
82.62284650322668
 20
-159.0417824602397
 30
0.0
 10
82.60048039268618
 20
-159.0197338491341
 30
0.0
 10
82.57257775713474
 20
-159.0197338491341
 30
0.0
 10
82.54498844965745
 20
-159.0197338491341
 30
0.0
 10
82.52293983910886
 20
-159.0417824602397
 30
0.0
 10
82.52293983910886
 20
-159.069369682455
 30
0.0
 10
82.52293983910886
 20
-159.0969216268921
 30
0.0
 10
82.54498844965745
 20
-159.1196757935533
 30
0.0
 10
82.57257775713474
 20
-159.1196757935533
 30
0.0
 10
82.60048039268618
 20
-159.1196757935533
 30
0.0
 10
82.62284650322668
 20
-159.0969216268921
 30
0.0
 10
82.62284650322668
 20
-159.069369682455
 30
0.0
  0
POLYLINE
  5
1E8
330
1F
100
AcDbEntity
  8
_U+30EC_U+30A4_U+30E4_U+30FC 1
 62
   179
420
  2234388
370
     9
100
AcDb2dPolyline
 66
     1
 10
0.0
 20
0.0
 30
0.0
  0
VERTEX
  5
1E9
330
1E8
100
AcDbEntity
  8
_U+30EC_U+30A4_U+30E4_U+30FC 1
 62
   179
420
  2234388
370
     9
100
AcDbVertex
100
AcDb2dVertex
 10
82.57257775713474
 20
-159.069369682455
 30
0.0
  0
VERTEX
  5
1EA
330
1E8
100
AcDbEntity
  8
_U+30EC_U+30A4_U+30E4_U+30FC 1
 62
   179
420
  2234388
370
     9
100
AcDbVertex
100
AcDb2dVertex
 10
90.84235684908506
 20
-159.069369682455
 30
0.0
  0
SEQEND
  5
1EB
330
1E8
100
AcDbEntity
  8
_U+30EC_U+30A4_U+30E4_U+30FC 1
 62
   179
420
  2234388
370
     9
  0
POLYLINE
  5
1EC
330
1F
100
AcDbEntity
  8
_U+30EC_U+30A4_U+30E4_U+30FC 1
 62
   179
420
  2234388
370
     9
100
AcDb2dPolyline
 66
     1
 10
0.0
 20
0.0
 30
0.0
  0
VERTEX
  5
1ED
330
1EC
100
AcDbEntity
  8
_U+30EC_U+30A4_U+30E4_U+30FC 1
 62
   179
420
  2234388
370
     9
100
AcDbVertex
100
AcDb2dVertex
 10
82.57257775713474
 20
-157.8208538494338
 30
0.0
  0
VERTEX
  5
1EE
330
1EC
100
AcDbEntity
  8
_U+30EC_U+30A4_U+30E4_U+30FC 1
 62
   179
420
  2234388
370
     9
100
AcDbVertex
100
AcDb2dVertex
 10
82.57257775713474
 20
-159.5695732934412
 30
0.0
  0
SEQEND
  5
1EF
330
1EC
100
AcDbEntity
  8
_U+30EC_U+30A4_U+30E4_U+30FC 1
 62
   179
420
  2234388
370
     9
  0
POLYLINE
  5
1F0
330
1F
100
AcDbEntity
  8
_U+30EC_U+30A4_U+30E4_U+30FC 1
 62
   179
420
  2234388
370
     9
100
AcDb2dPolyline
 66
     1
 10
0.0
 20
0.0
 30
0.0
  0
VERTEX
  5
1F1
330
1F0
100
AcDbEntity
  8
_U+30EC_U+30A4_U+30E4_U+30FC 1
 62
   179
420
  2234388
370
     9
100
AcDbVertex
100
AcDb2dVertex
 10
90.84267434907696
 20
-157.8208538494338
 30
0.0
  0
VERTEX
  5
1F2
330
1F0
100
AcDbEntity
  8
_U+30EC_U+30A4_U+30E4_U+30FC 1
 62
   179
420
  2234388
370
     9
100
AcDbVertex
100
AcDb2dVertex
 10
90.84267434907696
 20
-159.5695732934412
 30
0.0
  0
SEQEND
  5
1F3
330
1F0
100
AcDbEntity
  8
_U+30EC_U+30A4_U+30E4_U+30FC 1
 62
   179
420
  2234388
370
     9
  0
INSERT
  5
1F5
330
1F
100
AcDbEntity
  8
_U+30EC_U+30A4_U+30E4_U+30FC 1
100
AcDbBlockReference
  2
block 6
 10
0.0
 20
0.0
 30
0.0
  0
SPLINE
  5
1FD
330
1F
100
AcDbEntity
  8
_U+30EC_U+30A4_U+30E4_U+30FC 1
 62
   179
420
  2234388
370
     9
100
AcDbSpline
210
0.0
220
0.0
230
1.0
 70
    11
 71
     3
 72
    17
 73
    13
 74
     0
 42
0.0000000001
 43
0.0000000001
 12
1.0
 22
0.0
 32
0.0
 13
1.0
 23
0.0
 33
0.0
 40
0.0
 40
0.0
 40
0.0
 40
0.0
 40
1.0
 40
1.0
 40
1.0
 40
2.0
 40
2.0
 40
2.0
 40
3.0
 40
3.0
 40
3.0
 40
4.0
 40
4.0
 40
4.0
 40
4.0
 10
90.8599251819702
 20
-159.069369682455
 30
0.0
 10
90.8599251819702
 20
-159.0790005157859
 30
0.0
 10
90.85234045994147
 20
-159.0872907935613
 30
0.0
 10
90.84267434907696
 20
-159.0872907935613
 30
0.0
 10
90.83304351598933
 20
-159.0872907935613
 30
0.0
 10
90.82478851619993
 20
-159.0790005157859
 30
0.0
 10
90.82478851619993
 20
-159.069369682455
 30
0.0
 10
90.82478851619993
 20
-159.059703571346
 30
0.0
 10
90.83304351598933
 20
-159.0521188491261
 30
0.0
 10
90.84267434907696
 20
-159.0521188491261
 30
0.0
 10
90.85234045994147
 20
-159.0521188491261
 30
0.0
 10
90.8599251819702
 20
-159.059703571346
 30
0.0
 10
90.8599251819702
 20
-159.069369682455
 30
0.0
  0
SPLINE
  5
1FE
330
1F
100
AcDbEntity
  8
_U+30EC_U+30A4_U+30E4_U+30FC 1
 62
   179
420
  2234388
370
     9
100
AcDbSpline
210
0.0
220
0.0
230
1.0
 70
    11
 71
     3
 72
    17
 73
    13
 74
     0
 42
0.0000000001
 43
0.0000000001
 12
1.0
 22
0.0
 32
0.0
 13
1.0
 23
0.0
 33
0.0
 40
0.0
 40
0.0
 40
0.0
 40
0.0
 40
1.0
 40
1.0
 40
1.0
 40
2.0
 40
2.0
 40
2.0
 40
3.0
 40
3.0
 40
3.0
 40
4.0
 40
4.0
 40
4.0
 40
4.0
 10
100.024209670392
 20
-159.069369682455
 30
0.0
 10
100.024209670392
 20
-159.0417824602397
 30
0.0
 10
100.0021610598434
 20
-159.0197338491341
 30
0.0
 10
99.9746091161019
 20
-159.0197338491341
 30
0.0
 10
99.94705717236036
 20
-159.0197338491341
 30
0.0
 10
99.92430553057449
 20
-159.0417824602397
 30
0.0
 10
99.92430553057449
 20
-159.069369682455
 30
0.0
 10
99.92430553057449
 20
-159.0969216268921
 30
0.0
 10
99.94705717236036
 20
-159.1196757935533
 30
0.0
 10
99.9746091161019
 20
-159.1196757935533
 30
0.0
 10
100.0021610598434
 20
-159.1196757935533
 30
0.0
 10
100.024209670392
 20
-159.0969216268921
 30
0.0
 10
100.024209670392
 20
-159.069369682455
 30
0.0
  0
SPLINE
  5
1FF
330
1F
100
AcDbEntity
  8
_U+30EC_U+30A4_U+30E4_U+30FC 1
 62
   179
420
  2234388
370
     9
100
AcDbSpline
210
0.0
220
0.0
230
1.0
 70
    11
 71
     3
 72
    17
 73
    13
 74
     0
 42
0.0000000001
 43
0.0000000001
 12
1.0
 22
0.0
 32
0.0
 13
1.0
 23
0.0
 33
0.0
 40
0.0
 40
0.0
 40
0.0
 40
0.0
 40
1.0
 40
1.0
 40
1.0
 40
2.0
 40
2.0
 40
2.0
 40
3.0
 40
3.0
 40
3.0
 40
4.0
 40
4.0
 40
4.0
 40
4.0
 10
97.92338277954416
 20
-159.069369682455
 30
0.0
 10
97.92338277954416
 20
-159.0417824602397
 30
0.0
 10
97.90066389123487
 20
-159.0197338491341
 30
0.0
 10
97.87307666971645
 20
-159.0197338491341
 30
0.0
 10
97.84552472597493
 20
-159.0197338491341
 30
0.0
 10
97.82347611542632
 20
-159.0417824602397
 30
0.0
 10
97.82347611542632
 20
-159.069369682455
 30
0.0
 10
97.82347611542632
 20
-159.0969216268921
 30
0.0
 10
97.84552472597493
 20
-159.1196757935533
 30
0.0
 10
97.87307666971645
 20
-159.1196757935533
 30
0.0
 10
97.90066389123487
 20
-159.1196757935533
 30
0.0
 10
97.92338277954416
 20
-159.0969216268921
 30
0.0
 10
97.92338277954416
 20
-159.069369682455
 30
0.0
  0
POLYLINE
  5
200
330
1F
100
AcDbEntity
  8
_U+30EC_U+30A4_U+30E4_U+30FC 1
 62
   179
420
  2234388
370
     9
100
AcDb2dPolyline
 66
     1
 10
0.0
 20
0.0
 30
0.0
  0
VERTEX
  5
201
330
200
100
AcDbEntity
  8
_U+30EC_U+30A4_U+30E4_U+30FC 1
 62
   179
420
  2234388
370
     9
100
AcDbVertex
100
AcDb2dVertex
 10
97.87307666971645
 20
-159.069369682455
 30
0.0
  0
VERTEX
  5
202
330
200
100
AcDbEntity
  8
_U+30EC_U+30A4_U+30E4_U+30FC 1
 62
   179
420
  2234388
370
     9
100
AcDbVertex
100
AcDb2dVertex
 10
99.97425633833312
 20
-159.069369682455
 30
0.0
  0
SEQEND
  5
203
330
200
100
AcDbEntity
  8
_U+30EC_U+30A4_U+30E4_U+30FC 1
 62
   179
420
  2234388
370
     9
  0
POLYLINE
  5
204
330
1F
100
AcDbEntity
  8
_U+30EC_U+30A4_U+30E4_U+30FC 1
 62
   179
420
  2234388
370
     9
100
AcDb2dPolyline
 66
     1
 10
0.0
 20
0.0
 30
0.0
  0
VERTEX
  5
205
330
204
100
AcDbEntity
  8
_U+30EC_U+30A4_U+30E4_U+30FC 1
 62
   179
420
  2234388
370
     9
100
AcDbVertex
100
AcDb2dVertex
 10
97.87307666971645
 20
-157.8208538494338
 30
0.0
  0
VERTEX
  5
206
330
204
100
AcDbEntity
  8
_U+30EC_U+30A4_U+30E4_U+30FC 1
 62
   179
420
  2234388
370
     9
100
AcDbVertex
100
AcDb2dVertex
 10
97.87307666971645
 20
-159.5695732934412
 30
0.0
  0
SEQEND
  5
207
330
204
100
AcDbEntity
  8
_U+30EC_U+30A4_U+30E4_U+30FC 1
 62
   179
420
  2234388
370
     9
  0
POLYLINE
  5
208
330
1F
100
AcDbEntity
  8
_U+30EC_U+30A4_U+30E4_U+30FC 1
 62
   179
420
  2234388
370
     9
100
AcDb2dPolyline
 66
     1
 10
0.0
 20
0.0
 30
0.0
  0
VERTEX
  5
209
330
208
100
AcDbEntity
  8
_U+30EC_U+30A4_U+30E4_U+30FC 1
 62
   179
420
  2234388
370
     9
100
AcDbVertex
100
AcDb2dVertex
 10
99.9746091161019
 20
-157.8208538494338
 30
0.0
  0
VERTEX
  5
20A
330
208
100
AcDbEntity
  8
_U+30EC_U+30A4_U+30E4_U+30FC 1
 62
   179
420
  2234388
370
     9
100
AcDbVertex
100
AcDb2dVertex
 10
99.9746091161019
 20
-159.5695732934412
 30
0.0
  0
SEQEND
  5
20B
330
208
100
AcDbEntity
  8
_U+30EC_U+30A4_U+30E4_U+30FC 1
 62
   179
420
  2234388
370
     9
  0
SPLINE
  5
20C
330
1F
100
AcDbEntity
  8
_U+30EC_U+30A4_U+30E4_U+30FC 1
 62
   179
420
  2234388
370
     9
100
AcDbSpline
210
0.0
220
0.0
230
1.0
 70
    11
 71
     3
 72
    17
 73
    13
 74
     0
 42
0.0000000001
 43
0.0000000001
 12
1.0
 22
0.0
 32
0.0
 13
1.0
 23
0.0
 33
0.0
 40
0.0
 40
0.0
 40
0.0
 40
0.0
 40
1.0
 40
1.0
 40
1.0
 40
2.0
 40
2.0
 40
2.0
 40
3.0
 40
3.0
 40
3.0
 40
4.0
 40
4.0
 40
4.0
 40
4.0
 10
99.99182467121825
 20
-159.069369682455
 30
0.0
 10
99.99182467121825
 20
-159.0790005157859
 30
0.0
 10
99.98423994918953
 20
-159.0872907935613
 30
0.0
 10
99.9746091161019
 20
-159.0872907935613
 30
0.0
 10
99.96494300523739
 20
-159.0872907935613
 30
0.0
 10
99.95668800544799
 20
-159.0790005157859
 30
0.0
 10
99.95668800544799
 20
-159.069369682455
 30
0.0
 10
99.95668800544799
 20
-159.059703571346
 30
0.0
 10
99.96494300523739
 20
-159.0521188491261
 30
0.0
 10
99.9746091161019
 20
-159.0521188491261
 30
0.0
 10
99.98423994918953
 20
-159.0521188491261
 30
0.0
 10
99.99182467121825
 20
-159.059703571346
 30
0.0
 10
99.99182467121825
 20
-159.069369682455
 30
0.0
  0
SPLINE
  5
20D
330
1F
100
AcDbEntity
  8
_U+30EC_U+30A4_U+30E4_U+30FC 1
 62
   179
420
  2234388
370
     9
100
AcDbSpline
210
0.0
220
0.0
230
1.0
 70
    11
 71
     3
 72
    17
 73
    13
 74
     0
 42
0.0000000001
 43
0.0000000001
 12
1.0
 22
0.0
 32
0.0
 13
1.0
 23
0.0
 33
0.0
 40
0.0
 40
0.0
 40
0.0
 40
0.0
 40
1.0
 40
1.0
 40
1.0
 40
2.0
 40
2.0
 40
2.0
 40
3.0
 40
3.0
 40
3.0
 40
4.0
 40
4.0
 40
4.0
 40
4.0
 10
93.79514442099574
 20
-132.4263571891154
 30
0.0
 10
93.76759010778947
 20
-132.4263571891154
 30
0.0
 10
93.74554149724088
 20
-132.448405800221
 30
0.0
 10
93.74554149724088
 20
-132.4759930224363
 30
0.0
 10
93.74554149724088
 20
-132.503544966874
 30
0.0
 10
93.76759010778947
 20
-132.5262638557576
 30
0.0
 10
93.79514442099574
 20
-132.5262638557576
 30
0.0
 10
93.82269399527254
 20
-132.5262638557576
 30
0.0
 10
93.8454481613587
 20
-132.503544966874
 30
0.0
 10
93.8454481613587
 20
-132.4759930224363
 30
0.0
 10
93.8454481613587
 20
-132.448405800221
 30
0.0
 10
93.82269399527254
 20
-132.4263571891154
 30
0.0
 10
93.79514442099574
 20
-132.4263571891154
 30
0.0
  0
SPLINE
  5
20E
330
1F
100
AcDbEntity
  8
_U+30EC_U+30A4_U+30E4_U+30FC 1
 62
   179
420
  2234388
370
     9
100
AcDbSpline
210
0.0
220
0.0
230
1.0
 70
    11
 71
     3
 72
    17
 73
    13
 74
     0
 42
0.0000000001
 43
0.0000000001
 12
1.0
 22
0.0
 32
0.0
 13
1.0
 23
0.0
 33
0.0
 40
0.0
 40
0.0
 40
0.0
 40
0.0
 40
1.0
 40
1.0
 40
1.0
 40
2.0
 40
2.0
 40
2.0
 40
3.0
 40
3.0
 40
3.0
 40
4.0
 40
4.0
 40
4.0
 40
4.0
 10
93.79549719877349
 20
-155.4637338500231
 30
0.0
 10
93.76790760778138
 20
-155.4637338500231
 30
0.0
 10
93.74585899723277
 20
-155.4857824611287
 30
0.0
 10
93.74585899723277
 20
-155.5140046833439
 30
0.0
 10
93.74585899723277
 20
-155.5415919055592
 30
0.0
 10
93.76790760778138
 20
-155.5636405166648
 30
0.0
 10
93.79549719877349
 20
-155.5636405166648
 30
0.0
 10
93.82304677304133
 20
-155.5636405166648
 30
0.0
 10
93.84576566135061
 20
-155.5415919055592
 30
0.0
 10
93.84576566135061
 20
-155.5140046833439
 30
0.0
 10
93.84576566135061
 20
-155.4857824611287
 30
0.0
 10
93.82304677304133
 20
-155.4637338500231
 30
0.0
 10
93.79549719877349
 20
-155.4637338500231
 30
0.0
  0
POLYLINE
  5
20F
330
1F
100
AcDbEntity
  8
_U+30EC_U+30A4_U+30E4_U+30FC 1
 62
   179
420
  2234388
370
     9
100
AcDb2dPolyline
 66
     1
 10
0.0
 20
0.0
 30
0.0
  0
VERTEX
  5
210
330
20F
100
AcDbEntity
  8
_U+30EC_U+30A4_U+30E4_U+30FC 1
 62
   179
420
  2234388
370
     9
100
AcDbVertex
100
AcDb2dVertex
 10
93.79549719877349
 20
-155.5140046833439
 30
0.0
  0
VERTEX
  5
211
330
20F
100
AcDbEntity
  8
_U+30EC_U+30A4_U+30E4_U+30FC 1
 62
   179
420
  2234388
370
     9
100
AcDbVertex
100
AcDb2dVertex
 10
93.79514442099574
 20
-132.4759930224363
 30
0.0
  0
SEQEND
  5
212
330
20F
100
AcDbEntity
  8
_U+30EC_U+30A4_U+30E4_U+30FC 1
 62
   179
420
  2234388
370
     9
  0
POLYLINE
  5
213
330
1F
100
AcDbEntity
  8
_U+30EC_U+30A4_U+30E4_U+30FC 1
 62
   179
420
  2234388
370
     9
100
AcDb2dPolyline
 66
     1
 10
0.0
 20
0.0
 30
0.0
  0
VERTEX
  5
214
330
213
100
AcDbEntity
  8
_U+30EC_U+30A4_U+30E4_U+30FC 1
 62
   179
420
  2234388
370
     9
100
AcDbVertex
100
AcDb2dVertex
 10
92.5462734722812
 20
-155.5140046833439
 30
0.0
  0
VERTEX
  5
215
330
213
100
AcDbEntity
  8
_U+30EC_U+30A4_U+30E4_U+30FC 1
 62
   179
420
  2234388
370
     9
100
AcDbVertex
100
AcDb2dVertex
 10
94.29569842764964
 20
-155.5140046833439
 30
0.0
  0
SEQEND
  5
216
330
213
100
AcDbEntity
  8
_U+30EC_U+30A4_U+30E4_U+30FC 1
 62
   179
420
  2234388
370
     9
  0
POLYLINE
  5
217
330
1F
100
AcDbEntity
  8
_U+30EC_U+30A4_U+30E4_U+30FC 1
 62
   179
420
  2234388
370
     9
100
AcDb2dPolyline
 66
     1
 10
0.0
 20
0.0
 30
0.0
  0
VERTEX
  5
218
330
217
100
AcDbEntity
  8
_U+30EC_U+30A4_U+30E4_U+30FC 1
 62
   179
420
  2234388
370
     9
100
AcDbVertex
100
AcDb2dVertex
 10
92.5462734722812
 20
-132.4759930224363
 30
0.0
  0
VERTEX
  5
219
330
217
100
AcDbEntity
  8
_U+30EC_U+30A4_U+30E4_U+30FC 1
 62
   179
420
  2234388
370
     9
100
AcDbVertex
100
AcDb2dVertex
 10
94.29534564988087
 20
-132.4759930224363
 30
0.0
  0
SEQEND
  5
21A
330
217
100
AcDbEntity
  8
_U+30EC_U+30A4_U+30E4_U+30FC 1
 62
   179
420
  2234388
370
     9
  0
INSERT
  5
21C
330
1F
100
AcDbEntity
  8
_U+30EC_U+30A4_U+30E4_U+30FC 1
100
AcDbBlockReference
  2
block 7
 10
0.0
 20
0.0
 30
0.0
  0
SPLINE
  5
238
330
1F
100
AcDbEntity
  8
_U+30EC_U+30A4_U+30E4_U+30FC 1
 62
   179
420
  2234388
370
     9
100
AcDbSpline
210
0.0
220
0.0
230
1.0
 70
    11
 71
     3
 72
    17
 73
    13
 74
     0
 42
0.0000000001
 43
0.0000000001
 12
1.0
 22
0.0
 32
0.0
 13
1.0
 23
0.0
 33
0.0
 40
0.0
 40
0.0
 40
0.0
 40
0.0
 40
1.0
 40
1.0
 40
1.0
 40
2.0
 40
2.0
 40
2.0
 40
3.0
 40
3.0
 40
3.0
 40
4.0
 40
4.0
 40
4.0
 40
4.0
 10
93.79514442099574
 20
-132.4587421891073
 30
0.0
 10
93.80477288461864
 20
-132.4587421891073
 30
0.0
 10
93.81306316218492
 20
-132.4663269113279
 30
0.0
 10
93.81306316218492
 20
-132.4759930224363
 30
0.0
 10
93.81306316218492
 20
-132.4856238557677
 30
0.0
 10
93.80477288461864
 20
-132.4938788557657
 30
0.0
 10
93.79514442099574
 20
-132.4938788557657
 30
0.0
 10
93.7854759406665
 20
-132.4938788557657
 30
0.0
 10
93.77789121863779
 20
-132.4856238557677
 30
0.0
 10
93.77789121863779
 20
-132.4759930224363
 30
0.0
 10
93.77789121863779
 20
-132.4663269113279
 30
0.0
 10
93.7854759406665
 20
-132.4587421891073
 30
0.0
 10
93.79514442099574
 20
-132.4587421891073
 30
0.0
  0
ENDSEC
  0
SECTION
  2
OBJECTS
  0
DICTIONARY
  5
C
330
0
100
AcDbDictionary
281
     1
  3
ACAD_GROUP
350
D
  3
ACAD_LAYOUT
350
1A
  3
ACAD_MATERIAL
350
3B
  3
ACAD_MLEADERSTYLE
350
23A
  3
ACAD_MLINESTYLE
350
17
  3
ACAD_PLOTSETTINGS
350
19
  3
ACAD_PLOTSTYLENAME
350
E
  3
ACAD_TABLESTYLE
350
239
  3
ACAD_VISUALSTYLE
350
2A
  0
SUN
  5
3F
330
29
100
AcDbSun
 90
        1
290
     0
 63
     7
421
 16777215
 40
1.0
291
     1
 91
  2455826
 92
 54000000
292
     0
 70
     2
 71
   256
280
     1
  0
DICTIONARY
  5
D
102
{ACAD_REACTORS
330
C
102
}
330
C
100
AcDbDictionary
281
     1
  0
DICTIONARY
  5
1A
102
{ACAD_REACTORS
330
C
102
}
330
C
100
AcDbDictionary
281
     1
  3
Layout1
350
1E
  3
Layout2
350
26
  3
Model
350
22
  0
DICTIONARY
  5
3B
102
{ACAD_REACTORS
330
C
102
}
330
C
100
AcDbDictionary
281
     1
  3
ByBlock
350
3D
  3
ByLayer
350
3C
  3
Global
350
3E
  0
DICTIONARY
  5
23A
102
{ACAD_REACTORS
330
C
102
}
330
C
100
AcDbDictionary
281
     1
  0
DICTIONARY
  5
17
102
{ACAD_REACTORS
330
C
102
}
330
C
100
AcDbDictionary
281
     1
  3
Standard
350
18
  0
DICTIONARY
  5
19
102
{ACAD_REACTORS
330
C
102
}
330
C
100
AcDbDictionary
281
     1
  0
ACDBDICTIONARYWDFLT
  5
E
102
{ACAD_REACTORS
330
C
102
}
330
C
100
AcDbDictionary
281
     1
  3
Normal
350
F
100
AcDbDictionaryWithDefault
340
F
  0
DICTIONARY
  5
239
102
{ACAD_REACTORS
330
C
102
}
330
C
100
AcDbDictionary
281
     1
  0
DICTIONARY
  5
2A
102
{ACAD_REACTORS
330
C
102
}
330
C
100
AcDbDictionary
281
     1
  3
2dWireframe
350
2F
  3
3D Hidden
350
31
  3
3dWireframe
350
30
  3
Basic
350
32
  3
Brighten
350
36
  3
ColorChange
350
3A
  3
Conceptual
350
34
  3
Dim
350
35
  3
Facepattern
350
39
  3
Flat
350
2B
  3
FlatWithEdges
350
2C
  3
Gouraud
350
2D
  3
GouraudWithEdges
350
2E
  3
Linepattern
350
38
  3
Realistic
350
33
  3
Thicken
350
37
  0
LAYOUT
  5
1E
102
{ACAD_REACTORS
330
1A
102
}
330
1A
100
AcDbPlotSettings
  1

  2
none_device
  4

  6

 40
0.0
 41
0.0
 42
0.0
 43
0.0
 44
0.0
 45
0.0
 46
0.0
 47
0.0
 48
0.0
 49
0.0
140
0.0
141
0.0
142
1.0
143
1.0
 70
   688
 72
     0
 73
     0
 74
     5
  7

 75
    16
 76
     0
 77
     2
 78
   300
147
1.0
148
0.0
149
0.0
100
AcDbLayout
  1
Layout1
 70
     1
 71
     1
 10
0.0
 20
0.0
 11
12.0
 21
9.0
 12
0.0
 22
0.0
 32
0.0
 14
1.000000000000000E+20
 24
1.000000000000000E+20
 34
1.000000000000000E+20
 15
-1.000000000000000E+20
 25
-1.000000000000000E+20
 35
-1.000000000000000E+20
146
0.0
 13
0.0
 23
0.0
 33
0.0
 16
1.0
 26
0.0
 36
0.0
 17
0.0
 27
1.0
 37
0.0
 76
     0
330
1B
  0
LAYOUT
  5
26
102
{ACAD_REACTORS
330
1A
102
}
330
1A
100
AcDbPlotSettings
  1

  2
none_device
  4

  6

 40
0.0
 41
0.0
 42
0.0
 43
0.0
 44
0.0
 45
0.0
 46
0.0
 47
0.0
 48
0.0
 49
0.0
140
0.0
141
0.0
142
1.0
143
1.0
 70
   688
 72
     0
 73
     0
 74
     5
  7

 75
    16
 76
     0
 77
     2
 78
   300
147
1.0
148
0.0
149
0.0
100
AcDbLayout
  1
Layout2
 70
     1
 71
     2
 10
0.0
 20
0.0
 11
0.0
 21
0.0
 12
0.0
 22
0.0
 32
0.0
 14
0.0
 24
0.0
 34
0.0
 15
0.0
 25
0.0
 35
0.0
146
0.0
 13
0.0
 23
0.0
 33
0.0
 16
1.0
 26
0.0
 36
0.0
 17
0.0
 27
1.0
 37
0.0
 76
     0
330
23
  0
LAYOUT
  5
22
102
{ACAD_REACTORS
330
1A
102
}
330
1A
100
AcDbPlotSettings
  1

  2
none_device
  4

  6

 40
0.0
 41
0.0
 42
0.0
 43
0.0
 44
0.0
 45
0.0
 46
0.0
 47
0.0
 48
0.0
 49
0.0
140
0.0
141
0.0
142
1.0
143
1.0
 70
  1712
 72
     0
 73
     0
 74
     0
  7

 75
     0
 76
     0
 77
     2
 78
   300
147
1.0
148
0.0
149
0.0
100
AcDbLayout
  1
Model
 70
     1
 71
     0
 10
0.0
 20
0.0
 11
12.0
 21
9.0
 12
0.0
 22
0.0
 32
0.0
 14
1.000000000000000E+20
 24
1.000000000000000E+20
 34
1.000000000000000E+20
 15
-1.000000000000000E+20
 25
-1.000000000000000E+20
 35
-1.000000000000000E+20
146
0.0
 13
0.0
 23
0.0
 33
0.0
 16
1.0
 26
0.0
 36
0.0
 17
0.0
 27
1.0
 37
0.0
 76
     0
330
1F
331
29
  0
MATERIAL
  5
3D
102
{ACAD_REACTORS
330
3B
102
}
330
3B
100
AcDbMaterial
  1
ByBlock
 72
     1
 94
      127
  0
MATERIAL
  5
3C
102
{ACAD_REACTORS
330
3B
102
}
330
3B
100
AcDbMaterial
  1
ByLayer
 72
     1
 94
      127
  0
MATERIAL
  5
3E
102
{ACAD_REACTORS
330
3B
102
}
330
3B
100
AcDbMaterial
  1
Global
 72
     1
 94
      127
  0
MLINESTYLE
  5
18
102
{ACAD_REACTORS
330
17
102
}
330
17
100
AcDbMlineStyle
  2
Standard
 70
     0
  3

 62
   256
 51
90.0
 52
90.0
 71
     2
 49
0.5
 62
   256
  6
BYLAYER
 49
-0.5
 62
   256
  6
BYLAYER
  0
ACDBPLACEHOLDER
  5
F
102
{ACAD_REACTORS
330
E
102
}
330
E
  0
VISUALSTYLE
  5
2F
102
{ACAD_REACTORS
330
2A
102
}
330
2A
100
AcDbVisualStyle
  2
2dWireframe
 70
     4
177
     2
291
     0
 71
     0
176
     1
 72
     2
176
     1
 73
     0
176
     1
 90
        0
176
     1
 40
-0.6
176
     1
 41
-30.0
176
     1
 62
     5
 63
     7
421
 16777215
176
     1
 74
     1
176
     1
 91
        4
176
     1
 64
     7
176
     1
 65
   257
176
     1
 75
     1
176
     1
175
     1
176
     1
 42
1.0
176
     1
 92
        0
176
     1
 66
   257
176
     1
 43
1.0
176
     1
 76
     1
176
     1
 77
     6
176
     1
 78
     2
176
     1
 67
     7
176
     1
 79
     5
176
     1
170
     0
176
     1
171
     0
176
     1
290
     0
176
     1
 93
        1
176
     1
 44
0.0
176
     1
173
     0
176
     1
  0
VISUALSTYLE
  5
31
102
{ACAD_REACTORS
330
2A
102
}
330
2A
100
AcDbVisualStyle
  2
3D Hidden
 70
     6
177
     2
291
     0
 71
     1
176
     1
 72
     2
176
     1
 73
     2
176
     1
 90
        0
176
     1
 40
-0.6
176
     1
 41
-30.0
176
     1
 62
     5
 63
     7
421
 16777215
176
     1
 74
     2
176
     1
 91
        2
176
     1
 64
     7
176
     1
 65
   257
176
     1
 75
     2
176
     1
175
     1
176
     1
 42
40.0
176
     1
 92
        0
176
     1
 66
   257
176
     1
 43
1.0
176
     1
 76
     1
176
     1
 77
     6
176
     1
 78
     2
176
     1
 67
     7
176
     1
 79
     3
176
     1
170
     0
176
     1
171
     0
176
     1
290
     0
176
     1
 93
        1
176
     1
 44
0.0
176
     1
173
     0
176
     1
  0
VISUALSTYLE
  5
30
102
{ACAD_REACTORS
330
2A
102
}
330
2A
100
AcDbVisualStyle
  2
3dWireframe
 70
     5
177
     2
291
     0
 71
     0
176
     1
 72
     2
176
     1
 73
     0
176
     1
 90
        0
176
     1
 40
-0.6
176
     1
 41
-30.0
176
     1
 62
     5
 63
     7
421
 16777215
176
     1
 74
     1
176
     1
 91
        4
176
     1
 64
     7
176
     1
 65
   257
176
     1
 75
     1
176
     1
175
     1
176
     1
 42
1.0
176
     1
 92
        0
176
     1
 66
   257
176
     1
 43
1.0
176
     1
 76
     1
176
     1
 77
     6
176
     1
 78
     2
176
     1
 67
     7
176
     1
 79
     5
176
     1
170
     0
176
     1
171
     0
176
     1
290
     0
176
     1
 93
        1
176
     1
 44
0.0
176
     1
173
     0
176
     1
  0
VISUALSTYLE
  5
32
102
{ACAD_REACTORS
330
2A
102
}
330
2A
100
AcDbVisualStyle
  2
Basic
 70
     7
177
     2
291
     1
 71
     1
176
     1
 72
     0
176
     1
 73
     1
176
     1
 90
        0
176
     1
 40
-0.6
176
     1
 41
-30.0
176
     1
 62
     5
 63
     7
421
 16777215
176
     1
 74
     0
176
     1
 91
        4
176
     1
 64
     7
176
     1
 65
   257
176
     1
 75
     1
176
     1
175
     1
176
     1
 42
1.0
176
     1
 92
        8
176
     1
 66
     7
176
     1
 43
1.0
176
     1
 76
     1
176
     1
 77
     6
176
     1
 78
     2
176
     1
 67
     7
176
     1
 79
     5
176
     1
170
     0
176
     1
171
     0
176
     1
290
     0
176
     1
 93
        1
176
     1
 44
0.0
176
     1
173
     0
176
     1
  0
VISUALSTYLE
  5
36
102
{ACAD_REACTORS
330
2A
102
}
330
2A
100
AcDbVisualStyle
  2
Brighten
 70
    12
177
     2
291
     1
 71
     2
176
     1
 72
     2
176
     1
 73
     0
176
     1
 90
        0
176
     1
 40
-0.6
176
     1
 41
-30.0
176
     1
 62
     5
 63
     7
421
 16777215
176
     1
 74
     1
176
     1
 91
        4
176
     1
 64
     7
176
     1
 65
   257
176
     1
 75
     1
176
     1
175
     1
176
     1
 42
1.0
176
     1
 92
        8
176
     1
 66
     7
176
     1
 43
1.0
176
     1
 76
     1
176
     1
 77
     6
176
     1
 78
     2
176
     1
 67
     7
176
     1
 79
     5
176
     1
170
     0
176
     1
171
     0
176
     1
290
     0
176
     1
 93
        1
176
     1
 44
50.0
176
     1
173
     0
176
     1
  0
VISUALSTYLE
  5
3A
102
{ACAD_REACTORS
330
2A
102
}
330
2A
100
AcDbVisualStyle
  2
ColorChange
 70
    16
177
     2
291
     1
 71
     2
176
     1
 72
     2
176
     1
 73
     3
176
     1
 90
        0
176
     1
 40
-0.6
176
     1
 41
-30.0
176
     1
 62
     5
 63
     8
421
  8421504
176
     1
 74
     1
176
     1
 91
        4
176
     1
 64
     7
176
     1
 65
   257
176
     1
 75
     1
176
     1
175
     1
176
     1
 42
1.0
176
     1
 92
        8
176
     1
 66
     8
424
  8421504
176
     1
 43
1.0
176
     1
 76
     1
176
     1
 77
     6
176
     1
 78
     2
176
     1
 67
     7
176
     1
 79
     5
176
     1
170
     0
176
     1
171
     0
176
     1
290
     0
176
     1
 93
        1
176
     1
 44
0.0
176
     1
173
     0
176
     1
  0
VISUALSTYLE
  5
34
102
{ACAD_REACTORS
330
2A
102
}
330
2A
100
AcDbVisualStyle
  2
Conceptual
 70
     9
177
     2
291
     0
 71
     3
176
     1
 72
     2
176
     1
 73
     0
176
     1
 90
        0
176
     1
 40
-0.6
176
     1
 41
-30.0
176
     1
 62
     5
 63
     7
421
 16777215
176
     1
 74
     2
176
     1
 91
        2
176
     1
 64
     7
176
     1
 65
   257
176
     1
 75
     1
176
     1
175
     1
176
     1
 42
40.0
176
     1
 92
        8
176
     1
 66
     7
176
     1
 43
1.0
176
     1
 76
     1
176
     1
 77
     6
176
     1
 78
     2
176
     1
 67
     7
176
     1
 79
     3
176
     1
170
     0
176
     1
171
     0
176
     1
290
     0
176
     1
 93
        1
176
     1
 44
0.0
176
     1
173
     0
176
     1
  0
VISUALSTYLE
  5
35
102
{ACAD_REACTORS
330
2A
102
}
330
2A
100
AcDbVisualStyle
  2
Dim
 70
    11
177
     2
291
     1
 71
     2
176
     1
 72
     2
176
     1
 73
     0
176
     1
 90
        0
176
     1
 40
-0.6
176
     1
 41
-30.0
176
     1
 62
     5
 63
     7
421
 16777215
176
     1
 74
     1
176
     1
 91
        4
176
     1
 64
     7
176
     1
 65
   257
176
     1
 75
     1
176
     1
175
     1
176
     1
 42
1.0
176
     1
 92
        8
176
     1
 66
     7
176
     1
 43
1.0
176
     1
 76
     1
176
     1
 77
     6
176
     1
 78
     2
176
     1
 67
     7
176
     1
 79
     5
176
     1
170
     0
176
     1
171
     0
176
     1
290
     0
176
     1
 93
        1
176
     1
 44
-50.0
176
     1
173
     0
176
     1
  0
VISUALSTYLE
  5
39
102
{ACAD_REACTORS
330
2A
102
}
330
2A
100
AcDbVisualStyle
  2
Facepattern
 70
    15
177
     2
291
     1
 71
     2
176
     1
 72
     2
176
     1
 73
     0
176
     1
 90
        0
176
     1
 40
-0.6
176
     1
 41
-30.0
176
     1
 62
     5
 63
     7
421
 16777215
176
     1
 74
     1
176
     1
 91
        4
176
     1
 64
     7
176
     1
 65
   257
176
     1
 75
     1
176
     1
175
     1
176
     1
 42
1.0
176
     1
 92
        8
176
     1
 66
     7
176
     1
 43
1.0
176
     1
 76
     1
176
     1
 77
     6
176
     1
 78
     2
176
     1
 67
     7
176
     1
 79
     5
176
     1
170
     0
176
     1
171
     0
176
     1
290
     0
176
     1
 93
        1
176
     1
 44
0.0
176
     1
173
     0
176
     1
  0
VISUALSTYLE
  5
2B
102
{ACAD_REACTORS
330
2A
102
}
330
2A
100
AcDbVisualStyle
  2
Flat
 70
     0
177
     2
291
     1
 71
     2
176
     1
 72
     1
176
     1
 73
     1
176
     1
 90
        2
176
     1
 40
-0.6
176
     1
 41
30.0
176
     1
 62
     5
 63
     7
421
 16777215
176
     1
 74
     0
176
     1
 91
        4
176
     1
 64
     7
176
     1
 65
   257
176
     1
 75
     1
176
     1
175
     1
176
     1
 42
1.0
176
     1
 92
        8
176
     1
 66
     7
176
     1
 43
1.0
176
     1
 76
     1
176
     1
 77
     6
176
     1
 78
     2
176
     1
 67
     7
176
     1
 79
     5
176
     1
170
     0
176
     1
171
     0
176
     1
290
     0
176
     1
 93
       13
176
     1
 44
0.0
176
     1
173
     0
176
     1
  0
VISUALSTYLE
  5
2C
102
{ACAD_REACTORS
330
2A
102
}
330
2A
100
AcDbVisualStyle
  2
FlatWithEdges
 70
     1
177
     2
291
     1
 71
     2
176
     1
 72
     1
176
     1
 73
     1
176
     1
 90
        2
176
     1
 40
-0.6
176
     1
 41
30.0
176
     1
 62
     5
 63
     7
421
 16777215
176
     1
 74
     1
176
     1
 91
        4
176
     1
 64
     7
176
     1
 65
   257
176
     1
 75
     1
176
     1
175
     1
176
     1
 42
1.0
176
     1
 92
        0
176
     1
 66
   257
176
     1
 43
1.0
176
     1
 76
     1
176
     1
 77
     6
176
     1
 78
     2
176
     1
 67
     7
176
     1
 79
     5
176
     1
170
     0
176
     1
171
     0
176
     1
290
     0
176
     1
 93
       13
176
     1
 44
0.0
176
     1
173
     0
176
     1
  0
VISUALSTYLE
  5
2D
102
{ACAD_REACTORS
330
2A
102
}
330
2A
100
AcDbVisualStyle
  2
Gouraud
 70
     2
177
     2
291
     1
 71
     2
176
     1
 72
     2
176
     1
 73
     1
176
     1
 90
        2
176
     1
 40
-0.6
176
     1
 41
30.0
176
     1
 62
     5
 63
     7
421
 16777215
176
     1
 74
     0
176
     1
 91
        4
176
     1
 64
     7
176
     1
 65
   257
176
     1
 75
     1
176
     1
175
     1
176
     1
 42
1.0
176
     1
 92
        0
176
     1
 66
     7
176
     1
 43
1.0
176
     1
 76
     1
176
     1
 77
     6
176
     1
 78
     2
176
     1
 67
     7
176
     1
 79
     5
176
     1
170
     0
176
     1
171
     0
176
     1
290
     0
176
     1
 93
       13
176
     1
 44
0.0
176
     1
173
     0
176
     1
  0
VISUALSTYLE
  5
2E
102
{ACAD_REACTORS
330
2A
102
}
330
2A
100
AcDbVisualStyle
  2
GouraudWithEdges
 70
     3
177
     2
291
     1
 71
     2
176
     1
 72
     2
176
     1
 73
     1
176
     1
 90
        2
176
     1
 40
-0.6
176
     1
 41
30.0
176
     1
 62
     5
 63
     7
421
 16777215
176
     1
 74
     1
176
     1
 91
        4
176
     1
 64
     7
176
     1
 65
   257
176
     1
 75
     1
176
     1
175
     1
176
     1
 42
1.0
176
     1
 92
        0
176
     1
 66
   257
176
     1
 43
1.0
176
     1
 76
     1
176
     1
 77
     6
176
     1
 78
     2
176
     1
 67
     7
176
     1
 79
     5
176
     1
170
     0
176
     1
171
     0
176
     1
290
     0
176
     1
 93
       13
176
     1
 44
0.0
176
     1
173
     0
176
     1
  0
VISUALSTYLE
  5
38
102
{ACAD_REACTORS
330
2A
102
}
330
2A
100
AcDbVisualStyle
  2
Linepattern
 70
    14
177
     2
291
     1
 71
     2
176
     1
 72
     2
176
     1
 73
     0
176
     1
 90
        0
176
     1
 40
-0.6
176
     1
 41
-30.0
176
     1
 62
     5
 63
     7
421
 16777215
176
     1
 74
     1
176
     1
 91
        4
176
     1
 64
     7
176
     1
 65
   257
176
     1
 75
     7
176
     1
175
     7
176
     1
 42
1.0
176
     1
 92
        8
176
     1
 66
     7
176
     1
 43
1.0
176
     1
 76
     1
176
     1
 77
     6
176
     1
 78
     2
176
     1
 67
     7
176
     1
 79
     5
176
     1
170
     0
176
     1
171
     0
176
     1
290
     0
176
     1
 93
        1
176
     1
 44
0.0
176
     1
173
     0
176
     1
  0
VISUALSTYLE
  5
33
102
{ACAD_REACTORS
330
2A
102
}
330
2A
100
AcDbVisualStyle
  2
Realistic
 70
     8
177
     2
291
     0
 71
     2
176
     1
 72
     2
176
     1
 73
     0
176
     1
 90
        0
176
     1
 40
-0.6
176
     1
 41
-30.0
176
     1
 62
     5
 63
     7
421
 16777215
176
     1
 74
     1
176
     1
 91
        0
176
     1
 64
     7
176
     1
 65
   257
176
     1
 75
     1
176
     1
175
     1
176
     1
 42
1.0
176
     1
 92
        8
176
     1
 66
     8
424
  7895160
176
     1
 43
1.0
176
     1
 76
     1
176
     1
 77
     6
176
     1
 78
     2
176
     1
 67
     7
176
     1
 79
     5
176
     1
170
     0
176
     1
171
     0
176
     1
290
     0
176
     1
 93
       13
176
     1
 44
0.0
176
     1
173
     0
176
     1
  0
VISUALSTYLE
  5
37
102
{ACAD_REACTORS
330
2A
102
}
330
2A
100
AcDbVisualStyle
  2
Thicken
 70
    13
177
     2
291
     1
 71
     2
176
     1
 72
     2
176
     1
 73
     0
176
     1
 90
        0
176
     1
 40
-0.6
176
     1
 41
-30.0
176
     1
 62
     5
 63
     7
421
 16777215
176
     1
 74
     1
176
     1
 91
        4
176
     1
 64
     7
176
     1
 65
   257
176
     1
 75
     1
176
     1
175
     1
176
     1
 42
1.0
176
     1
 92
       12
176
     1
 66
     7
176
     1
 43
1.0
176
     1
 76
     1
176
     1
 77
     6
176
     1
 78
     2
176
     1
 67
     7
176
     1
 79
     5
176
     1
170
     0
176
     1
171
     0
176
     1
290
     0
176
     1
 93
        1
176
     1
 44
0.0
176
     1
173
     0
176
     1
  0
ENDSEC
  0
EOF
