  0
SECTION
  2
HEADER
  9
$ACADVER
  1
AC1024
  9
$ACADMAINTVER
 70
     6
  9
$DWGCODEPAGE
  3
UNDEFINED
  9
$INSBASE
 10
0.0
 20
0.0
 30
0.0
  9
$EXTMIN
 10
1.000000000000000E+20
 20
1.000000000000000E+20
 30
1.000000000000000E+20
  9
$EXTMAX
 10
-1.000000000000000E+20
 20
-1.000000000000000E+20
 30
-1.000000000000000E+20
  9
$LIMMIN
 10
0.0
 20
0.0
  9
$LIMMAX
 10
12.0
 20
9.0
  9
$ORTHOMODE
 70
     0
  9
$REGENMODE
 70
     1
  9
$FILLMODE
 70
     1
  9
$QTEXTMODE
 70
     0
  9
$MIRRTEXT
 70
     1
  9
$LTSCALE
 40
1.0
  9
$ATTMODE
 70
     1
  9
$TEXTSIZE
 40
0.2
  9
$TRACEWID
 40
0.05
  9
$TEXTSTYLE
  7
Standard
  9
$CLAYER
  8
0
  9
$CELTYPE
  6
ByLayer
  9
$CECOLOR
 62
   256
  9
$CELTSCALE
 40
1.0
  9
$DISPSILH
 70
     0
  9
$DIMSCALE
 40
1.0
  9
$DIMASZ
 40
0.18
  9
$DIMEXO
 40
0.0625
  9
$DIMDLI
 40
0.38
  9
$DIMRND
 40
0.0
  9
$DIMDLE
 40
0.0
  9
$DIMEXE
 40
0.18
  9
$DIMTP
 40
0.0
  9
$DIMTM
 40
0.0
  9
$DIMTXT
 40
0.18
  9
$DIMCEN
 40
0.09
  9
$DIMTSZ
 40
0.0
  9
$DIMTOL
 70
     0
  9
$DIMLIM
 70
     0
  9
$DIMTIH
 70
     1
  9
$DIMTOH
 70
     1
  9
$DIMSE1
 70
     0
  9
$DIMSE2
 70
     0
  9
$DIMTAD
 70
     0
  9
$DIMZIN
 70
     0
  9
$DIMBLK
  1

  9
$DIMASO
 70
     1
  9
$DIMSHO
 70
     1
  9
$DIMPOST
  1

  9
$DIMAPOST
  1

  9
$DIMALT
 70
     0
  9
$DIMALTD
 70
     2
  9
$DIMALTF
 40
25.4
  9
$DIMLFAC
 40
1.0
  9
$DIMTOFL
 70
     0
  9
$DIMTVP
 40
0.0
  9
$DIMTIX
 70
     0
  9
$DIMSOXD
 70
     0
  9
$DIMSAH
 70
     0
  9
$DIMBLK1
  1

  9
$DIMBLK2
  1

  9
$DIMSTYLE
  2
Standard
  9
$DIMCLRD
 70
     0
  9
$DIMCLRE
 70
     0
  9
$DIMCLRT
 70
     0
  9
$DIMTFAC
 40
1.0
  9
$DIMGAP
 40
0.09
  9
$DIMJUST
 70
     0
  9
$DIMSD1
 70
     0
  9
$DIMSD2
 70
     0
  9
$DIMTOLJ
 70
     1
  9
$DIMTZIN
 70
     0
  9
$DIMALTZ
 70
     0
  9
$DIMALTTZ
 70
     0
  9
$DIMUPT
 70
     0
  9
$DIMDEC
 70
     4
  9
$DIMTDEC
 70
     4
  9
$DIMALTU
 70
     2
  9
$DIMALTTD
 70
     2
  9
$DIMTXSTY
  7
Standard
  9
$DIMAUNIT
 70
     0
  9
$DIMADEC
 70
     0
  9
$DIMALTRND
 40
0.0
  9
$DIMAZIN
 70
     0
  9
$DIMDSEP
 70
    46
  9
$DIMATFIT
 70
     3
  9
$DIMFRAC
 70
     0
  9
$DIMLDRBLK
  1

  9
$DIMLUNIT
 70
     2
  9
$DIMLWD
 70
    -2
  9
$DIMLWE
 70
    -2
  9
$DIMTMOVE
 70
     0
  9
$DIMFXL
 40
1.0
  9
$DIMFXLON
 70
     0
  9
$DIMJOGANG
 40
0.7853981633974483
  9
$DIMTFILL
 70
     0
  9
$DIMTFILLCLR
 70
     0
  9
$DIMARCSYM
 70
     0
  9
$DIMLTYPE
  6

  9
$DIMLTEX1
  6

  9
$DIMLTEX2
  6

  9
$DIMTXTDIRECTION
 70
     0
  9
$LUNITS
 70
     2
  9
$LUPREC
 70
     4
  9
$SKETCHINC
 40
0.1
  9
$FILLETRAD
 40
0.5
  9
$AUNITS
 70
     0
  9
$AUPREC
 70
     0
  9
$MENU
  1
.
  9
$ELEVATION
 40
0.0
  9
$PELEVATION
 40
0.0
  9
$THICKNESS
 40
0.0
  9
$LIMCHECK
 70
     0
  9
$CHAMFERA
 40
0.5
  9
$CHAMFERB
 40
0.5
  9
$CHAMFERC
 40
1.0
  9
$CHAMFERD
 40
0.0
  9
$SKPOLY
 70
     0
  9
$TDCREATE
 40
2457917.631400463
  9
$TDUCREATE
 40
2457917.256400463
  9
$TDUPDATE
 40
2457917.631400463
  9
$TDUUPDATE
 40
2457917.256400463
  9
$TDINDWG
 40
0.0000000116
  9
$TDUSRTIMER
 40
0.0000000116
  9
$USRTIMER
 70
     1
  9
$ANGBASE
 50
0.0
  9
$ANGDIR
 70
     0
  9
$PDMODE
 70
     0
  9
$PDSIZE
 40
0.0
  9
$PLINEWID
 40
0.0
  9
$SPLFRAME
 70
     0
  9
$SPLINETYPE
 70
     6
  9
$SPLINESEGS
 70
     8
  9
$HANDSEED
  5
1FF
  9
$SURFTAB1
 70
     6
  9
$SURFTAB2
 70
     6
  9
$SURFTYPE
 70
     6
  9
$SURFU
 70
     6
  9
$SURFV
 70
     6
  9
$UCSBASE
  2

  9
$UCSNAME
  2

  9
$UCSORG
 10
0.0
 20
0.0
 30
0.0
  9
$UCSXDIR
 10
1.0
 20
0.0
 30
0.0
  9
$UCSYDIR
 10
0.0
 20
1.0
 30
0.0
  9
$UCSORTHOREF
  2

  9
$UCSORTHOVIEW
 70
     0
  9
$UCSORGTOP
 10
0.0
 20
0.0
 30
0.0
  9
$UCSORGBOTTOM
 10
0.0
 20
0.0
 30
0.0
  9
$UCSORGLEFT
 10
0.0
 20
0.0
 30
0.0
  9
$UCSORGRIGHT
 10
0.0
 20
0.0
 30
0.0
  9
$UCSORGFRONT
 10
0.0
 20
0.0
 30
0.0
  9
$UCSORGBACK
 10
0.0
 20
0.0
 30
0.0
  9
$PUCSBASE
  2

  9
$PUCSNAME
  2

  9
$PUCSORG
 10
0.0
 20
0.0
 30
0.0
  9
$PUCSXDIR
 10
1.0
 20
0.0
 30
0.0
  9
$PUCSYDIR
 10
0.0
 20
1.0
 30
0.0
  9
$PUCSORTHOREF
  2

  9
$PUCSORTHOVIEW
 70
     0
  9
$PUCSORGTOP
 10
0.0
 20
0.0
 30
0.0
  9
$PUCSORGBOTTOM
 10
0.0
 20
0.0
 30
0.0
  9
$PUCSORGLEFT
 10
0.0
 20
0.0
 30
0.0
  9
$PUCSORGRIGHT
 10
0.0
 20
0.0
 30
0.0
  9
$PUCSORGFRONT
 10
0.0
 20
0.0
 30
0.0
  9
$PUCSORGBACK
 10
0.0
 20
0.0
 30
0.0
  9
$USERI1
 70
     0
  9
$USERI2
 70
     0
  9
$USERI3
 70
     0
  9
$USERI4
 70
     0
  9
$USERI5
 70
     0
  9
$USERR1
 40
0.0
  9
$USERR2
 40
0.0
  9
$USERR3
 40
0.0
  9
$USERR4
 40
0.0
  9
$USERR5
 40
0.0
  9
$WORLDVIEW
 70
     1
  9
$SHADEDGE
 70
     3
  9
$SHADEDIF
 70
    70
  9
$TILEMODE
 70
     1
  9
$MAXACTVP
 70
    64
  9
$PINSBASE
 10
0.0
 20
0.0
 30
0.0
  9
$PLIMCHECK
 70
     0
  9
$PEXTMIN
 10
1.000000000000000E+20
 20
1.000000000000000E+20
 30
1.000000000000000E+20
  9
$PEXTMAX
 10
-1.000000000000000E+20
 20
-1.000000000000000E+20
 30
-1.000000000000000E+20
  9
$PLIMMIN
 10
0.0
 20
0.0
  9
$PLIMMAX
 10
12.0
 20
9.0
  9
$UNITMODE
 70
     0
  9
$VISRETAIN
 70
     1
  9
$PLINEGEN
 70
     0
  9
$PSLTSCALE
 70
     1
  9
$TREEDEPTH
 70
  3020
  9
$CMLSTYLE
  2
Standard
  9
$CMLJUST
 70
     0
  9
$CMLSCALE
 40
1.0
  9
$PROXYGRAPHICS
 70
     1
  9
$MEASUREMENT
 70
     0
  9
$CELWEIGHT
370
    -1
  9
$ENDCAPS
280
     0
  9
$JOINSTYLE
280
     0
  9
$LWDISPLAY
290
     1
  9
$INSUNITS
 70
     1
  9
$HYPERLINKBASE
  1

  9
$STYLESHEET
  1

  9
$XEDIT
290
     1
  9
$CEPSNTYPE
380
     0
  9
$PSTYLEMODE
290
     1
  9
$FINGERPRINTGUID
  2
{1534005A-6E5A-AAF3-7889-F8728487F5B5}
  9
$VERSIONGUID
  2
{FAEB1C32-E019-11D5-929B-00C0DF256EC4}
  9
$EXTNAMES
290
     1
  9
$PSVPSCALE
 40
0.0
  9
$OLESTARTUP
290
     0
  9
$SORTENTS
280
   127
  9
$INDEXCTL
280
     0
  9
$HIDETEXT
280
     1
  9
$XCLIPFRAME
280
     2
  9
$HALOGAP
280
     0
  9
$OBSCOLOR
 70
   257
  9
$OBSLTYPE
280
     0
  9
$INTERSECTIONDISPLAY
280
     0
  9
$INTERSECTIONCOLOR
 70
   257
  9
$DIMASSOC
280
     2
  9
$PROJECTNAME
  1

  9
$CAMERADISPLAY
290
     0
  9
$LENSLENGTH
 40
50.0
  9
$CAMERAHEIGHT
 40
0.0
  9
$STEPSPERSEC
 40
2.0
  9
$STEPSIZE
 40
6.0
  9
$3DDWFPREC
 40
2.0
  9
$PSOLWIDTH
 40
0.25
  9
$PSOLHEIGHT
 40
4.0
  9
$LOFTANG1
 40
1.570796326794897
  9
$LOFTANG2
 40
1.570796326794897
  9
$LOFTMAG1
 40
0.0
  9
$LOFTMAG2
 40
0.0
  9
$LOFTPARAM
 70
     7
  9
$LOFTNORMALS
280
     1
  9
$LATITUDE
 40
37.795
  9
$LONGITUDE
 40
-122.394
  9
$NORTHDIRECTION
 40
0.0
  9
$TIMEZONE
 70
 -8000
  9
$LIGHTGLYPHDISPLAY
280
     1
  9
$TILEMODELIGHTSYNCH
280
     1
  9
$CMATERIAL
347
3C
  9
$SOLIDHIST
280
     1
  9
$SHOWHIST
280
     1
  9
$DWFFRAME
280
     2
  9
$DGNFRAME
280
     2
  9
$REALWORLDSCALE
290
     1
  9
$INTERFERECOLOR
 62
   256
  9
$CSHADOW
280
     0
  9
$SHADOWPLANELOCATION
 40
0.0
  0
ENDSEC
  0
SECTION
  2
CLASSES
  0
CLASS
  1
ACDBDICTIONARYWDFLT
  2
AcDbDictionaryWithDefault
  3
ObjectDBX Classes
 90
        0
 91
        4
280
     0
281
     0
  0
CLASS
  1
VISUALSTYLE
  2
AcDbVisualStyle
  3
ObjectDBX Classes
 90
     4095
 91
        4
280
     0
281
     0
  0
CLASS
  1
MATERIAL
  2
AcDbMaterial
  3
ObjectDBX Classes
 90
     1153
 91
        4
280
     0
281
     0
  0
CLASS
  1
SUN
  2
AcDbSun
  3
SCENEOE
 90
     1024
 91
        4
280
     0
281
     0
  0
ENDSEC
  0
SECTION
  2
TABLES
  0
TABLE
  2
VPORT
  5
8
330
0
100
AcDbSymbolTable
 70
     1
  0
VPORT
  5
29
330
8
100
AcDbSymbolTableRecord
100
AcDbViewportTableRecord
  2
*Active
 70
     0
 10
0.0
 20
0.0
 11
1.0
 21
1.0
 12
0.0
 22
0.0
 13
0.0
 23
0.0
 14
0.5
 24
0.5
 15
0.5
 25
0.5
 16
0.0
 26
0.0
 36
1.0
 17
91.00082462281999
 27
-128.4993055234307
 37
0.0
 40
256.9986110468615
 41
0.7081814508812795
 42
50.0
 43
0.0
 44
0.0
 50
0.0
 51
0.0
 71
     0
 72
   100
 73
     1
 74
     3
 75
     0
 76
     0
 77
     0
 78
     0
281
     0
 65
     1
110
0.0
120
0.0
130
0.0
111
1.0
121
0.0
131
0.0
112
0.0
122
1.0
132
0.0
 79
     0
146
0.0
 60
     3
 61
     5
292
     1
282
     1
141
0.0
142
0.0
 63
   250
361
3F
  0
ENDTAB
  0
TABLE
  2
LTYPE
  5
5
330
0
100
AcDbSymbolTable
 70
     1
  0
LTYPE
  5
14
330
5
100
AcDbSymbolTableRecord
100
AcDbLinetypeTableRecord
  2
ByBlock
 70
     0
  3

 72
    65
 73
     0
 40
0.0
  0
LTYPE
  5
15
330
5
100
AcDbSymbolTableRecord
100
AcDbLinetypeTableRecord
  2
ByLayer
 70
     0
  3

 72
    65
 73
     0
 40
0.0
  0
LTYPE
  5
16
330
5
100
AcDbSymbolTableRecord
100
AcDbLinetypeTableRecord
  2
Continuous
 70
     0
  3
Solid line
 72
    65
 73
     0
 40
0.0
  0
ENDTAB
  0
TABLE
  2
LAYER
  5
2
330
0
100
AcDbSymbolTable
 70
     2
  0
LAYER
  5
10
330
2
100
AcDbSymbolTableRecord
100
AcDbLayerTableRecord
  2
0
 70
     0
 62
     7
  6
Continuous
370
    -3
390
F
347
3E
  0
LAYER
  5
40
330
2
100
AcDbSymbolTableRecord
100
AcDbLayerTableRecord
  2
_U+30EC_U+30A4_U+30E4_U+30FC 1
 70
     0
 62
     7
  6
Continuous
370
    -3
390
F
347
3E
  0
ENDTAB
  0
TABLE
  2
STYLE
  5
3
330
0
100
AcDbSymbolTable
 70
     1
  0
STYLE
  5
11
330
3
100
AcDbSymbolTableRecord
100
AcDbTextStyleTableRecord
  2
Standard
 70
     0
 40
0.0
 41
1.0
 50
0.0
 71
     0
 42
0.2
  3
txt
  4

  0
ENDTAB
  0
TABLE
  2
VIEW
  5
6
330
0
100
AcDbSymbolTable
 70
     0
  0
ENDTAB
  0
TABLE
  2
UCS
  5
7
330
0
100
AcDbSymbolTable
 70
     0
  0
ENDTAB
  0
TABLE
  2
APPID
  5
9
330
0
100
AcDbSymbolTable
 70
     1
  0
APPID
  5
12
330
9
100
AcDbSymbolTableRecord
100
AcDbRegAppTableRecord
  2
ACAD
 70
     0
  0
ENDTAB
  0
TABLE
  2
DIMSTYLE
  5
A
330
0
100
AcDbSymbolTable
 70
     1
100
AcDbDimStyleTable
  0
DIMSTYLE
105
27
330
A
100
AcDbSymbolTableRecord
100
AcDbDimStyleTableRecord
  2
Standard
 70
     0
178
     0
340
11
  0
ENDTAB
  0
TABLE
  2
BLOCK_RECORD
  5
1
330
0
100
AcDbSymbolTable
 70
    34
  0
BLOCK_RECORD
  5
1F
330
1
100
AcDbSymbolTableRecord
100
AcDbBlockTableRecord
  2
*Model_Space
340
22
 70
     0
280
     1
281
     0
  0
BLOCK_RECORD
  5
1B
330
1
100
AcDbSymbolTableRecord
100
AcDbBlockTableRecord
  2
*Paper_Space
340
1E
 70
     0
280
     1
281
     0
  0
BLOCK_RECORD
  5
23
330
1
100
AcDbSymbolTableRecord
100
AcDbBlockTableRecord
  2
*Paper_Space0
340
26
 70
     0
280
     1
281
     0
  0
BLOCK_RECORD
  5
41
330
1
100
AcDbSymbolTableRecord
100
AcDbBlockTableRecord
  2
block 2
340
0
102
{BLKREFS
331
42
102
}
 70
     0
280
     1
281
     0
  0
BLOCK_RECORD
  5
45
330
1
100
AcDbSymbolTableRecord
100
AcDbBlockTableRecord
  2
block 3
340
0
102
{BLKREFS
331
46
102
}
 70
     0
280
     1
281
     0
  0
BLOCK_RECORD
  5
4B
330
1
100
AcDbSymbolTableRecord
100
AcDbBlockTableRecord
  2
block 4
340
0
102
{BLKREFS
331
4C
102
}
 70
     0
280
     1
281
     0
  0
BLOCK_RECORD
  5
EE
330
1
100
AcDbSymbolTableRecord
100
AcDbBlockTableRecord
  2
block 5
340
0
102
{BLKREFS
331
EF
102
}
 70
     0
280
     1
281
     0
  0
BLOCK_RECORD
  5
FE
330
1
100
AcDbSymbolTableRecord
100
AcDbBlockTableRecord
  2
block 6
340
0
102
{BLKREFS
331
FF
102
}
 70
     0
280
     1
281
     0
  0
BLOCK_RECORD
  5
123
330
1
100
AcDbSymbolTableRecord
100
AcDbBlockTableRecord
  2
block 7
340
0
102
{BLKREFS
331
124
102
}
 70
     0
280
     1
281
     0
  0
BLOCK_RECORD
  5
128
330
1
100
AcDbSymbolTableRecord
100
AcDbBlockTableRecord
  2
block 8
340
0
102
{BLKREFS
331
129
102
}
 70
     0
280
     1
281
     0
  0
BLOCK_RECORD
  5
12D
330
1
100
AcDbSymbolTableRecord
100
AcDbBlockTableRecord
  2
block 9
340
0
102
{BLKREFS
331
12E
102
}
 70
     0
280
     1
281
     0
  0
BLOCK_RECORD
  5
132
330
1
100
AcDbSymbolTableRecord
100
AcDbBlockTableRecord
  2
block 10
340
0
102
{BLKREFS
331
133
102
}
 70
     0
280
     1
281
     0
  0
BLOCK_RECORD
  5
142
330
1
100
AcDbSymbolTableRecord
100
AcDbBlockTableRecord
  2
block 11
340
0
102
{BLKREFS
331
143
102
}
 70
     0
280
     1
281
     0
  0
BLOCK_RECORD
  5
14B
330
1
100
AcDbSymbolTableRecord
100
AcDbBlockTableRecord
  2
block 12
340
0
102
{BLKREFS
331
14C
102
}
 70
     0
280
     1
281
     0
  0
BLOCK_RECORD
  5
150
330
1
100
AcDbSymbolTableRecord
100
AcDbBlockTableRecord
  2
block 13
340
0
102
{BLKREFS
331
151
102
}
 70
     0
280
     1
281
     0
  0
BLOCK_RECORD
  5
155
330
1
100
AcDbSymbolTableRecord
100
AcDbBlockTableRecord
  2
block 14
340
0
102
{BLKREFS
331
156
102
}
 70
     0
280
     1
281
     0
  0
BLOCK_RECORD
  5
15A
330
1
100
AcDbSymbolTableRecord
100
AcDbBlockTableRecord
  2
block 15
340
0
102
{BLKREFS
331
15B
102
}
 70
     0
280
     1
281
     0
  0
BLOCK_RECORD
  5
16A
330
1
100
AcDbSymbolTableRecord
100
AcDbBlockTableRecord
  2
block 16
340
0
102
{BLKREFS
331
16B
102
}
 70
     0
280
     1
281
     0
  0
BLOCK_RECORD
  5
172
330
1
100
AcDbSymbolTableRecord
100
AcDbBlockTableRecord
  2
block 17
340
0
102
{BLKREFS
331
173
102
}
 70
     0
280
     1
281
     0
  0
BLOCK_RECORD
  5
177
330
1
100
AcDbSymbolTableRecord
100
AcDbBlockTableRecord
  2
block 18
340
0
102
{BLKREFS
331
178
102
}
 70
     0
280
     1
281
     0
  0
BLOCK_RECORD
  5
17C
330
1
100
AcDbSymbolTableRecord
100
AcDbBlockTableRecord
  2
block 19
340
0
102
{BLKREFS
331
17D
102
}
 70
     0
280
     1
281
     0
  0
BLOCK_RECORD
  5
181
330
1
100
AcDbSymbolTableRecord
100
AcDbBlockTableRecord
  2
block 20
340
0
102
{BLKREFS
331
182
102
}
 70
     0
280
     1
281
     0
  0
BLOCK_RECORD
  5
18D
330
1
100
AcDbSymbolTableRecord
100
AcDbBlockTableRecord
  2
block 21
340
0
102
{BLKREFS
331
18E
102
}
 70
     0
280
     1
281
     0
  0
BLOCK_RECORD
  5
193
330
1
100
AcDbSymbolTableRecord
100
AcDbBlockTableRecord
  2
block 22
340
0
102
{BLKREFS
331
194
102
}
 70
     0
280
     1
281
     0
  0
BLOCK_RECORD
  5
198
330
1
100
AcDbSymbolTableRecord
100
AcDbBlockTableRecord
  2
block 23
340
0
102
{BLKREFS
331
199
102
}
 70
     0
280
     1
281
     0
  0
BLOCK_RECORD
  5
19D
330
1
100
AcDbSymbolTableRecord
100
AcDbBlockTableRecord
  2
block 24
340
0
102
{BLKREFS
331
19E
102
}
 70
     0
280
     1
281
     0
  0
BLOCK_RECORD
  5
1A2
330
1
100
AcDbSymbolTableRecord
100
AcDbBlockTableRecord
  2
block 25
340
0
102
{BLKREFS
331
1A3
102
}
 70
     0
280
     1
281
     0
  0
BLOCK_RECORD
  5
1B2
330
1
100
AcDbSymbolTableRecord
100
AcDbBlockTableRecord
  2
block 26
340
0
102
{BLKREFS
331
1B3
102
}
 70
     0
280
     1
281
     0
  0
BLOCK_RECORD
  5
1CB
330
1
100
AcDbSymbolTableRecord
100
AcDbBlockTableRecord
  2
block 27
340
0
102
{BLKREFS
331
1CC
102
}
 70
     0
280
     1
281
     0
  0
BLOCK_RECORD
  5
1D0
330
1
100
AcDbSymbolTableRecord
100
AcDbBlockTableRecord
  2
block 28
340
0
102
{BLKREFS
331
1D1
102
}
 70
     0
280
     1
281
     0
  0
BLOCK_RECORD
  5
1D5
330
1
100
AcDbSymbolTableRecord
100
AcDbBlockTableRecord
  2
block 29
340
0
102
{BLKREFS
331
1D6
102
}
 70
     0
280
     1
281
     0
  0
BLOCK_RECORD
  5
1DA
330
1
100
AcDbSymbolTableRecord
100
AcDbBlockTableRecord
  2
block 30
340
0
102
{BLKREFS
331
1DB
102
}
 70
     0
280
     1
281
     0
  0
BLOCK_RECORD
  5
1E6
330
1
100
AcDbSymbolTableRecord
100
AcDbBlockTableRecord
  2
block 31
340
0
102
{BLKREFS
331
1E7
102
}
 70
     0
280
     1
281
     0
  0
BLOCK_RECORD
  5
1EE
330
1
100
AcDbSymbolTableRecord
100
AcDbBlockTableRecord
  2
block 32
340
0
102
{BLKREFS
331
1EF
102
}
 70
     0
280
     1
281
     0
  0
BLOCK_RECORD
  5
1F3
330
1
100
AcDbSymbolTableRecord
100
AcDbBlockTableRecord
  2
block 33
340
0
102
{BLKREFS
331
1F4
102
}
 70
     0
280
     1
281
     0
  0
BLOCK_RECORD
  5
1F8
330
1
100
AcDbSymbolTableRecord
100
AcDbBlockTableRecord
  2
block 34
340
0
102
{BLKREFS
331
1F9
102
}
 70
     0
280
     1
281
     0
  0
ENDTAB
  0
ENDSEC
  0
SECTION
  2
BLOCKS
  0
BLOCK
  5
20
330
1F
100
AcDbEntity
  8
0
100
AcDbBlockBegin
  2
*Model_Space
 70
     0
 10
0.0
 20
0.0
 30
0.0
  3
*Model_Space
  1

  0
ENDBLK
  5
21
330
1F
100
AcDbEntity
  8
0
100
AcDbBlockEnd
  0
BLOCK
  5
1C
330
1B
100
AcDbEntity
 67
     1
  8
0
100
AcDbBlockBegin
  2
*Paper_Space
 70
     0
 10
0.0
 20
0.0
 30
0.0
  3
*Paper_Space
  1

  0
ENDBLK
  5
1D
330
1B
100
AcDbEntity
 67
     1
  8
0
100
AcDbBlockEnd
  0
BLOCK
  5
24
330
23
100
AcDbEntity
  8
0
100
AcDbBlockBegin
  2
*Paper_Space0
 70
     0
 10
0.0
 20
0.0
 30
0.0
  3
*Paper_Space0
  1

  0
ENDBLK
  5
25
330
23
100
AcDbEntity
  8
0
100
AcDbBlockEnd
  0
BLOCK
  5
43
330
41
100
AcDbEntity
  8
0
100
AcDbBlockBegin
  2
block 2
 70
     0
 10
0.0
 20
0.0
 30
0.0
  3
block 2
  1

  0
INSERT
  5
46
330
41
100
AcDbEntity
  8
_U+30EC_U+30A4_U+30E4_U+30FC 1
100
AcDbBlockReference
  2
block 3
 10
0.0
 20
0.0
 30
0.0
  0
ENDBLK
  5
44
330
41
100
AcDbEntity
  8
0
100
AcDbBlockEnd
  0
BLOCK
  5
47
330
45
100
AcDbEntity
  8
0
100
AcDbBlockBegin
  2
block 3
 70
     0
 10
0.0
 20
0.0
 30
0.0
  3
block 3
  1

  0
SPLINE
  5
49
330
45
100
AcDbEntity
  8
_U+30EC_U+30A4_U+30E4_U+30FC 1
370
     0
100
AcDbSpline
210
0.0
220
0.0
230
1.0
 70
    11
 71
     3
 72
   158
 73
   154
 74
     0
 42
0.0000000001
 43
0.0000000001
 12
1.0
 22
0.0
 32
0.0
 13
1.0
 23
0.0
 33
0.0
 40
0.0
 40
0.0
 40
0.0
 40
0.0
 40
1.0
 40
1.0
 40
1.0
 40
2.0
 40
2.0
 40
2.0
 40
3.0
 40
3.0
 40
3.0
 40
4.0
 40
4.0
 40
4.0
 40
5.0
 40
5.0
 40
5.0
 40
6.0
 40
6.0
 40
6.0
 40
7.0
 40
7.0
 40
7.0
 40
8.0
 40
8.0
 40
8.0
 40
9.0
 40
9.0
 40
9.0
 40
10.0
 40
10.0
 40
10.0
 40
11.0
 40
11.0
 40
11.0
 40
12.0
 40
12.0
 40
12.0
 40
13.0
 40
13.0
 40
13.0
 40
14.0
 40
14.0
 40
14.0
 40
15.0
 40
15.0
 40
15.0
 40
16.0
 40
16.0
 40
16.0
 40
17.0
 40
17.0
 40
17.0
 40
18.0
 40
18.0
 40
18.0
 40
19.0
 40
19.0
 40
19.0
 40
20.0
 40
20.0
 40
20.0
 40
21.0
 40
21.0
 40
21.0
 40
22.0
 40
22.0
 40
22.0
 40
23.0
 40
23.0
 40
23.0
 40
24.0
 40
24.0
 40
24.0
 40
25.0
 40
25.0
 40
25.0
 40
26.0
 40
26.0
 40
26.0
 40
27.0
 40
27.0
 40
27.0
 40
28.0
 40
28.0
 40
28.0
 40
29.0
 40
29.0
 40
29.0
 40
30.0
 40
30.0
 40
30.0
 40
31.0
 40
31.0
 40
31.0
 40
32.0
 40
32.0
 40
32.0
 40
33.0
 40
33.0
 40
33.0
 40
34.0
 40
34.0
 40
34.0
 40
35.0
 40
35.0
 40
35.0
 40
36.0
 40
36.0
 40
36.0
 40
37.0
 40
37.0
 40
37.0
 40
38.0
 40
38.0
 40
38.0
 40
39.0
 40
39.0
 40
39.0
 40
40.0
 40
40.0
 40
40.0
 40
41.0
 40
41.0
 40
41.0
 40
42.0
 40
42.0
 40
42.0
 40
43.0
 40
43.0
 40
43.0
 40
44.0
 40
44.0
 40
44.0
 40
45.0
 40
45.0
 40
45.0
 40
46.0
 40
46.0
 40
46.0
 40
47.0
 40
47.0
 40
47.0
 40
48.0
 40
48.0
 40
48.0
 40
49.0
 40
49.0
 40
49.0
 40
50.0
 40
50.0
 40
50.0
 40
51.0
 40
51.0
 40
51.0
 40
51.0
 10
104.0818595668728
 20
-136.9838932990877
 30
0.0
 10
104.0818595668728
 20
-136.9838932990877
 30
0.0
 10
104.0818595668728
 20
-120.9841863586428
 30
0.0
 10
104.0818595668728
 20
-120.9841863586428
 30
0.0
 10
104.0818595668728
 20
-120.9841863586428
 30
0.0
 10
100.5819866006064
 20
-120.9841863586428
 30
0.0
 10
100.5819866006064
 20
-120.9841863586428
 30
0.0
 10
100.5819866006064
 20
-120.9841863586428
 30
0.0
 10
100.5819866006064
 20
-121.983958580615
 30
0.0
 10
100.5819866006064
 20
-121.983958580615
 30
0.0
 10
100.5819866006064
 20
-121.983958580615
 30
0.0
 10
103.0820873701569
 20
-121.983958580615
 30
0.0
 10
103.0820873701569
 20
-121.983958580615
 30
0.0
 10
103.0820873701569
 20
-121.983958580615
 30
0.0
 10
103.0820873701569
 20
-124.7338260799278
 30
0.0
 10
103.0820873701569
 20
-124.7338260799278
 30
0.0
 10
103.0820873701569
 20
-124.7338260799278
 30
0.0
 10
101.0429260332913
 20
-124.7338260799278
 30
0.0
 10
101.0429260332913
 20
-124.7338260799278
 30
0.0
 10
101.0429260332913
 20
-124.7338260799278
 30
0.0
 10
99.04271386412829
 20
-126.7340408016499
 30
0.0
 10
99.04271386412829
 20
-126.7340408016499
 30
0.0
 10
99.04271386412829
 20
-126.7340408016499
 30
0.0
 10
94.62127703045455
 20
-126.7340408016499
 30
0.0
 10
94.62127703045455
 20
-126.7340408016499
 30
0.0
 10
94.62127703045455
 20
-126.7340408016499
 30
0.0
 10
92.62137985925396
 20
-124.7338260799278
 30
0.0
 10
92.62137985925396
 20
-124.7338260799278
 30
0.0
 10
92.62137985925396
 20
-124.7338260799278
 30
0.0
 10
90.58190102239651
 20
-124.7338260799278
 30
0.0
 10
90.58190102239651
 20
-124.7338260799278
 30
0.0
 10
90.58190102239651
 20
-124.7338260799278
 30
0.0
 10
90.58190102239651
 20
-121.983958580615
 30
0.0
 10
90.58190102239651
 20
-121.983958580615
 30
0.0
 10
90.58190102239651
 20
-121.983958580615
 30
0.0
 10
93.08200179194696
 20
-121.983958580615
 30
0.0
 10
93.08200179194696
 20
-121.983958580615
 30
0.0
 10
93.08200179194696
 20
-121.983958580615
 30
0.0
 10
93.08200179194696
 20
-120.9841863586428
 30
0.0
 10
93.08200179194696
 20
-120.9841863586428
 30
0.0
 10
93.08200179194696
 20
-120.9841863586428
 30
0.0
 10
89.5821288256806
 20
-120.9841863586428
 30
0.0
 10
89.5821288256806
 20
-120.9841863586428
 30
0.0
 10
89.5821288256806
 20
-120.9841863586428
 30
0.0
 10
89.5821288256806
 20
-132.8731855223373
 30
0.0
 10
89.5821288256806
 20
-132.8731855223373
 30
0.0
 10
89.5821288256806
 20
-132.9145310778827
 30
0.0
 10
89.56939354822774
 20
-132.9545008000946
 30
0.0
 10
89.54561632661212
 20
-132.9882616334195
 30
0.0
 10
89.48222216156277
 20
-133.0785374667303
 30
0.0
 10
89.35751522029986
 20
-133.1005860778359
 30
0.0
 10
89.26724164434992
 20
-133.0371919111855
 30
0.0
 10
89.02160022886977
 20
-132.8649305223393
 30
0.0
 10
88.74738606919888
 20
-132.7381421890379
 30
0.0
 10
88.45694413216424
 20
-132.6630358001676
 30
0.0
 10
88.18960913898452
 20
-132.5941383001851
 30
0.0
 10
87.91677081261187
 20
-132.7553930223669
 30
0.0
 10
87.8478733143696
 20
-133.0227280222998
 30
0.0
 10
87.77897581612731
 20
-133.2900630222328
 30
0.0
 10
87.93948970092116
 20
-133.5622310777206
 30
0.0
 10
88.20685997187775
 20
-133.6317988554811
 30
0.0
 10
88.96579078584914
 20
-133.8274846887651
 30
0.0
 10
89.44606244026306
 20
-134.5743857996897
 30
0.0
 10
89.30893772153918
 20
-135.3460871883857
 30
0.0
 10
89.16387775548667
 20
-136.1618857992928
 30
0.0
 10
88.38529720012596
 20
-136.7055163547122
 30
0.0
 10
87.56949637702714
 20
-136.560842188082
 30
0.0
 10
86.75369997831164
 20
-136.4161327436736
 30
0.0
 10
86.21006942289193
 20
-135.6368466327577
 30
0.0
 10
86.3550941857869
 20
-134.8217535774054
 30
0.0
 10
86.40335418455568
 20
-134.5495855219183
 30
0.0
 10
86.2221322447346
 20
-134.2898352442053
 30
0.0
 10
85.9503169738914
 20
-134.2415752442173
 30
0.0
 10
85.67850170304821
 20
-134.1933505220074
 30
0.0
 10
85.41906893188911
 20
-134.3745724664064
 30
0.0
 10
85.37049143312842
 20
-134.6467405218942
 30
0.0
 10
85.24370310302973
 20
-135.3605510772707
 30
0.0
 10
85.43321532041709
 20
-136.0943641326431
 30
0.0
 10
85.88967447543851
 20
-136.6579971880579
 30
0.0
 10
85.91860225247828
 20
-136.693804132493
 30
0.0
 10
85.93447725207328
 20
-136.7379013547041
 30
0.0
 10
85.93447725207328
 20
-136.7840799658038
 30
0.0
 10
85.93447725207328
 20
-136.8943230213318
 30
0.0
 10
85.84487169880376
 20
-136.9838932990877
 30
0.0
 10
85.73431114606883
 20
-136.9838932990877
 30
0.0
 10
85.73431114606883
 20
-136.9838932990877
 30
0.0
 10
84.08204118822175
 20
-136.9838932990877
 30
0.0
 10
84.08204118822175
 20
-136.9838932990877
 30
0.0
 10
84.08204118822175
 20
-136.9838932990877
 30
0.0
 10
84.08204118822175
 20
-133.9839063553927
 30
0.0
 10
84.08204118822175
 20
-133.9839063553927
 30
0.0
 10
84.08204118822175
 20
-133.9839063553927
 30
0.0
 10
83.08191621373706
 20
-133.9839063553927
 30
0.0
 10
83.08191621373706
 20
-133.9839063553927
 30
0.0
 10
83.08191621373706
 20
-133.9839063553927
 30
0.0
 10
83.08191621373706
 20
-137.9836655210596
 30
0.0
 10
83.08191621373706
 20
-137.9836655210596
 30
0.0
 10
83.08191621373706
 20
-137.9836655210596
 30
0.0
 10
93.08200179194696
 20
-137.9836655210596
 30
0.0
 10
93.08200179194696
 20
-137.9836655210596
 30
0.0
 10
93.08200179194696
 20
-137.9836655210596
 30
0.0
 10
93.08200179194696
 20
-135.9841210771151
 30
0.0
 10
93.08200179194696
 20
-135.9841210771151
 30
0.0
 10
93.08200179194696
 20
-135.9841210771151
 30
0.0
 10
90.58190102239651
 20
-135.9841210771151
 30
0.0
 10
90.58190102239651
 20
-135.9841210771151
 30
0.0
 10
90.58190102239651
 20
-135.9841210771151
 30
0.0
 10
90.58190102239651
 20
-126.2338019128859
 30
0.0
 10
90.58190102239651
 20
-126.2338019128859
 30
0.0
 10
90.58190102239651
 20
-125.9575063573995
 30
0.0
 10
90.8058090722397
 20
-125.7335983019
 30
0.0
 10
91.08210462074636
 20
-125.7335983019
 30
0.0
 10
91.08210462074636
 20
-125.7335983019
 30
0.0
 10
91.99989126399835
 20
-125.7335983019
 30
0.0
 10
91.99989126399835
 20
-125.7335983019
 30
0.0
 10
92.13253570505874
 20
-125.7335983019
 30
0.0
 10
92.25964153514934
 20
-125.7866208018865
 30
0.0
 10
92.35337458831357
 20
-125.880353857419
 30
0.0
 10
92.35337458831357
 20
-125.880353857419
 30
0.0
 10
94.20715120768645
 20
-127.7338130236221
 30
0.0
 10
94.20715120768645
 20
-127.7338130236221
 30
0.0
 10
94.20715120768645
 20
-127.7338130236221
 30
0.0
 10
99.45715468485882
 20
-127.7338130236221
 30
0.0
 10
99.45715468485882
 20
-127.7338130236221
 30
0.0
 10
99.45715468485882
 20
-127.7338130236221
 30
0.0
 10
101.3106138042398
 20
-125.880353857419
 30
0.0
 10
101.3106138042398
 20
-125.880353857419
 30
0.0
 10
101.4043115796271
 20
-125.7866208018865
 30
0.0
 10
101.5314526874946
 20
-125.7335983019
 30
0.0
 10
101.6640618507781
 20
-125.7335983019
 30
0.0
 10
101.6640618507781
 20
-125.7335983019
 30
0.0
 10
102.5818484940301
 20
-125.7335983019
 30
0.0
 10
102.5818484940301
 20
-125.7335983019
 30
0.0
 10
102.8581440425368
 20
-125.7335983019
 30
0.0
 10
103.0820873701569
 20
-125.9575063573995
 30
0.0
 10
103.0820873701569
 20
-126.2338019128859
 30
0.0
 10
103.0820873701569
 20
-126.2338019128859
 30
0.0
 10
103.0820873701569
 20
-135.9841210771151
 30
0.0
 10
103.0820873701569
 20
-135.9841210771151
 30
0.0
 10
103.0820873701569
 20
-135.9841210771151
 30
0.0
 10
101.0818726989644
 20
-135.9841210771151
 30
0.0
 10
101.0818726989644
 20
-135.9841210771151
 30
0.0
 10
101.0818726989644
 20
-135.9841210771151
 30
0.0
 10
101.0818726989644
 20
-137.9836655210596
 30
0.0
 10
101.0818726989644
 20
-137.9836655210596
 30
0.0
 10
101.0818726989644
 20
-137.9836655210596
 30
0.0
 10
106.0820742380653
 20
-137.9836655210596
 30
0.0
 10
106.0820742380653
 20
-137.9836655210596
 30
0.0
 10
106.0820742380653
 20
-137.9836655210596
 30
0.0
 10
106.0820742380653
 20
-136.9838932990877
 30
0.0
 10
106.0820742380653
 20
-136.9838932990877
 30
0.0
 10
106.0820742380653
 20
-136.9838932990877
 30
0.0
 10
104.0818595668728
 20
-136.9838932990877
 30
0.0
 10
104.0818595668728
 20
-136.9838932990877
 30
0.0
  0
HATCH
  5
4A
330
45
100
AcDbEntity
  8
_U+30EC_U+30A4_U+30E4_U+30FC 1
 62
   253
420
 11711154
100
AcDbHatch
 10
0.0
 20
0.0
 30
0.0
210
0.0
220
0.0
230
1.0
  2
SOLID
 70
     1
 71
     0
 91
        1
 92
        1
 93
        1
 72
     4
 94
        3
 73
     0
 74
     1
 95
      158
 96
      154
 40
0.0
 40
0.0
 40
0.0
 40
0.0
 40
1.0
 40
1.0
 40
1.0
 40
2.0
 40
2.0
 40
2.0
 40
3.0
 40
3.0
 40
3.0
 40
4.0
 40
4.0
 40
4.0
 40
5.0
 40
5.0
 40
5.0
 40
6.0
 40
6.0
 40
6.0
 40
7.0
 40
7.0
 40
7.0
 40
8.0
 40
8.0
 40
8.0
 40
9.0
 40
9.0
 40
9.0
 40
10.0
 40
10.0
 40
10.0
 40
11.0
 40
11.0
 40
11.0
 40
12.0
 40
12.0
 40
12.0
 40
13.0
 40
13.0
 40
13.0
 40
14.0
 40
14.0
 40
14.0
 40
15.0
 40
15.0
 40
15.0
 40
16.0
 40
16.0
 40
16.0
 40
17.0
 40
17.0
 40
17.0
 40
18.0
 40
18.0
 40
18.0
 40
19.0
 40
19.0
 40
19.0
 40
20.0
 40
20.0
 40
20.0
 40
21.0
 40
21.0
 40
21.0
 40
22.0
 40
22.0
 40
22.0
 40
23.0
 40
23.0
 40
23.0
 40
24.0
 40
24.0
 40
24.0
 40
25.0
 40
25.0
 40
25.0
 40
26.0
 40
26.0
 40
26.0
 40
27.0
 40
27.0
 40
27.0
 40
28.0
 40
28.0
 40
28.0
 40
29.0
 40
29.0
 40
29.0
 40
30.0
 40
30.0
 40
30.0
 40
31.0
 40
31.0
 40
31.0
 40
32.0
 40
32.0
 40
32.0
 40
33.0
 40
33.0
 40
33.0
 40
34.0
 40
34.0
 40
34.0
 40
35.0
 40
35.0
 40
35.0
 40
36.0
 40
36.0
 40
36.0
 40
37.0
 40
37.0
 40
37.0
 40
38.0
 40
38.0
 40
38.0
 40
39.0
 40
39.0
 40
39.0
 40
40.0
 40
40.0
 40
40.0
 40
41.0
 40
41.0
 40
41.0
 40
42.0
 40
42.0
 40
42.0
 40
43.0
 40
43.0
 40
43.0
 40
44.0
 40
44.0
 40
44.0
 40
45.0
 40
45.0
 40
45.0
 40
46.0
 40
46.0
 40
46.0
 40
47.0
 40
47.0
 40
47.0
 40
48.0
 40
48.0
 40
48.0
 40
49.0
 40
49.0
 40
49.0
 40
50.0
 40
50.0
 40
50.0
 40
51.0
 40
51.0
 40
51.0
 40
51.0
 10
104.0818595668728
 20
-136.9838932990877
 10
104.0818595668728
 20
-136.9838932990877
 10
104.0818595668728
 20
-120.9841863586428
 10
104.0818595668728
 20
-120.9841863586428
 10
104.0818595668728
 20
-120.9841863586428
 10
100.5819866006064
 20
-120.9841863586428
 10
100.5819866006064
 20
-120.9841863586428
 10
100.5819866006064
 20
-120.9841863586428
 10
100.5819866006064
 20
-121.983958580615
 10
100.5819866006064
 20
-121.983958580615
 10
100.5819866006064
 20
-121.983958580615
 10
103.0820873701569
 20
-121.983958580615
 10
103.0820873701569
 20
-121.983958580615
 10
103.0820873701569
 20
-121.983958580615
 10
103.0820873701569
 20
-124.7338260799278
 10
103.0820873701569
 20
-124.7338260799278
 10
103.0820873701569
 20
-124.7338260799278
 10
101.0429260332913
 20
-124.7338260799278
 10
101.0429260332913
 20
-124.7338260799278
 10
101.0429260332913
 20
-124.7338260799278
 10
99.04271386412829
 20
-126.7340408016499
 10
99.04271386412829
 20
-126.7340408016499
 10
99.04271386412829
 20
-126.7340408016499
 10
94.62127703045455
 20
-126.7340408016499
 10
94.62127703045455
 20
-126.7340408016499
 10
94.62127703045455
 20
-126.7340408016499
 10
92.62137985925396
 20
-124.7338260799278
 10
92.62137985925396
 20
-124.7338260799278
 10
92.62137985925396
 20
-124.7338260799278
 10
90.58190102239651
 20
-124.7338260799278
 10
90.58190102239651
 20
-124.7338260799278
 10
90.58190102239651
 20
-124.7338260799278
 10
90.58190102239651
 20
-121.983958580615
 10
90.58190102239651
 20
-121.983958580615
 10
90.58190102239651
 20
-121.983958580615
 10
93.08200179194696
 20
-121.983958580615
 10
93.08200179194696
 20
-121.983958580615
 10
93.08200179194696
 20
-121.983958580615
 10
93.08200179194696
 20
-120.9841863586428
 10
93.08200179194696
 20
-120.9841863586428
 10
93.08200179194696
 20
-120.9841863586428
 10
89.5821288256806
 20
-120.9841863586428
 10
89.5821288256806
 20
-120.9841863586428
 10
89.5821288256806
 20
-120.9841863586428
 10
89.5821288256806
 20
-132.8731855223373
 10
89.5821288256806
 20
-132.8731855223373
 10
89.5821288256806
 20
-132.9145310778827
 10
89.56939354822774
 20
-132.9545008000946
 10
89.54561632661212
 20
-132.9882616334195
 10
89.48222216156277
 20
-133.0785374667303
 10
89.35751522029986
 20
-133.1005860778359
 10
89.26724164434992
 20
-133.0371919111855
 10
89.02160022886977
 20
-132.8649305223393
 10
88.74738606919888
 20
-132.7381421890379
 10
88.45694413216424
 20
-132.6630358001676
 10
88.18960913898452
 20
-132.5941383001851
 10
87.91677081261187
 20
-132.7553930223669
 10
87.8478733143696
 20
-133.0227280222998
 10
87.77897581612731
 20
-133.2900630222328
 10
87.93948970092116
 20
-133.5622310777206
 10
88.20685997187775
 20
-133.6317988554811
 10
88.96579078584914
 20
-133.8274846887651
 10
89.44606244026306
 20
-134.5743857996897
 10
89.30893772153918
 20
-135.3460871883857
 10
89.16387775548667
 20
-136.1618857992928
 10
88.38529720012596
 20
-136.7055163547122
 10
87.56949637702714
 20
-136.560842188082
 10
86.75369997831164
 20
-136.4161327436736
 10
86.21006942289193
 20
-135.6368466327577
 10
86.3550941857869
 20
-134.8217535774054
 10
86.40335418455568
 20
-134.5495855219183
 10
86.2221322447346
 20
-134.2898352442053
 10
85.9503169738914
 20
-134.2415752442173
 10
85.67850170304821
 20
-134.1933505220074
 10
85.41906893188911
 20
-134.3745724664064
 10
85.37049143312842
 20
-134.6467405218942
 10
85.24370310302973
 20
-135.3605510772707
 10
85.43321532041709
 20
-136.0943641326431
 10
85.88967447543851
 20
-136.6579971880579
 10
85.91860225247828
 20
-136.693804132493
 10
85.93447725207328
 20
-136.7379013547041
 10
85.93447725207328
 20
-136.7840799658038
 10
85.93447725207328
 20
-136.8943230213318
 10
85.84487169880376
 20
-136.9838932990877
 10
85.73431114606883
 20
-136.9838932990877
 10
85.73431114606883
 20
-136.9838932990877
 10
84.08204118822175
 20
-136.9838932990877
 10
84.08204118822175
 20
-136.9838932990877
 10
84.08204118822175
 20
-136.9838932990877
 10
84.08204118822175
 20
-133.9839063553927
 10
84.08204118822175
 20
-133.9839063553927
 10
84.08204118822175
 20
-133.9839063553927
 10
83.08191621373706
 20
-133.9839063553927
 10
83.08191621373706
 20
-133.9839063553927
 10
83.08191621373706
 20
-133.9839063553927
 10
83.08191621373706
 20
-137.9836655210596
 10
83.08191621373706
 20
-137.9836655210596
 10
83.08191621373706
 20
-137.9836655210596
 10
93.08200179194696
 20
-137.9836655210596
 10
93.08200179194696
 20
-137.9836655210596
 10
93.08200179194696
 20
-137.9836655210596
 10
93.08200179194696
 20
-135.9841210771151
 10
93.08200179194696
 20
-135.9841210771151
 10
93.08200179194696
 20
-135.9841210771151
 10
90.58190102239651
 20
-135.9841210771151
 10
90.58190102239651
 20
-135.9841210771151
 10
90.58190102239651
 20
-135.9841210771151
 10
90.58190102239651
 20
-126.2338019128859
 10
90.58190102239651
 20
-126.2338019128859
 10
90.58190102239651
 20
-125.9575063573995
 10
90.8058090722397
 20
-125.7335983019
 10
91.08210462074636
 20
-125.7335983019
 10
91.08210462074636
 20
-125.7335983019
 10
91.99989126399835
 20
-125.7335983019
 10
91.99989126399835
 20
-125.7335983019
 10
92.13253570505874
 20
-125.7335983019
 10
92.25964153514934
 20
-125.7866208018865
 10
92.35337458831357
 20
-125.880353857419
 10
92.35337458831357
 20
-125.880353857419
 10
94.20715120768645
 20
-127.7338130236221
 10
94.20715120768645
 20
-127.7338130236221
 10
94.20715120768645
 20
-127.7338130236221
 10
99.45715468485882
 20
-127.7338130236221
 10
99.45715468485882
 20
-127.7338130236221
 10
99.45715468485882
 20
-127.7338130236221
 10
101.3106138042398
 20
-125.880353857419
 10
101.3106138042398
 20
-125.880353857419
 10
101.4043115796271
 20
-125.7866208018865
 10
101.5314526874946
 20
-125.7335983019
 10
101.6640618507781
 20
-125.7335983019
 10
101.6640618507781
 20
-125.7335983019
 10
102.5818484940301
 20
-125.7335983019
 10
102.5818484940301
 20
-125.7335983019
 10
102.8581440425368
 20
-125.7335983019
 10
103.0820873701569
 20
-125.9575063573995
 10
103.0820873701569
 20
-126.2338019128859
 10
103.0820873701569
 20
-126.2338019128859
 10
103.0820873701569
 20
-135.9841210771151
 10
103.0820873701569
 20
-135.9841210771151
 10
103.0820873701569
 20
-135.9841210771151
 10
101.0818726989644
 20
-135.9841210771151
 10
101.0818726989644
 20
-135.9841210771151
 10
101.0818726989644
 20
-135.9841210771151
 10
101.0818726989644
 20
-137.9836655210596
 10
101.0818726989644
 20
-137.9836655210596
 10
101.0818726989644
 20
-137.9836655210596
 10
106.0820742380653
 20
-137.9836655210596
 10
106.0820742380653
 20
-137.9836655210596
 10
106.0820742380653
 20
-137.9836655210596
 10
106.0820742380653
 20
-136.9838932990877
 10
106.0820742380653
 20
-136.9838932990877
 10
106.0820742380653
 20
-136.9838932990877
 10
104.0818595668728
 20
-136.9838932990877
 10
104.0818595668728
 20
-136.9838932990877
 97
        0
 97
        0
 75
     2
 76
     1
 98
        0
  0
ENDBLK
  5
48
330
45
100
AcDbEntity
  8
0
100
AcDbBlockEnd
  0
BLOCK
  5
4D
330
4B
100
AcDbEntity
  8
0
100
AcDbBlockBegin
  2
block 4
 70
     0
 10
0.0
 20
0.0
 30
0.0
  3
block 4
  1

  0
POLYLINE
  5
4F
330
4B
100
AcDbEntity
  8
_U+30EC_U+30A4_U+30E4_U+30FC 1
 62
   179
420
  2234388
370
    25
100
AcDb2dPolyline
 66
     1
 10
0.0
 20
0.0
 30
0.0
  0
VERTEX
  5
50
330
4F
100
AcDbEntity
  8
_U+30EC_U+30A4_U+30E4_U+30FC 1
 62
   179
420
  2234388
370
    25
100
AcDbVertex
100
AcDb2dVertex
 10
83.08191621373706
 20
-133.9839063553927
 30
0.0
  0
VERTEX
  5
51
330
4F
100
AcDbEntity
  8
_U+30EC_U+30A4_U+30E4_U+30FC 1
 62
   179
420
  2234388
370
    25
100
AcDbVertex
100
AcDb2dVertex
 10
84.08204118822175
 20
-133.9839063553927
 30
0.0
  0
SEQEND
  5
52
330
4F
100
AcDbEntity
  8
_U+30EC_U+30A4_U+30E4_U+30FC 1
 62
   179
420
  2234388
370
    25
  0
POLYLINE
  5
53
330
4B
100
AcDbEntity
  8
_U+30EC_U+30A4_U+30E4_U+30FC 1
 62
   179
420
  2234388
370
    25
100
AcDb2dPolyline
 66
     1
 10
0.0
 20
0.0
 30
0.0
  0
VERTEX
  5
54
330
53
100
AcDbEntity
  8
_U+30EC_U+30A4_U+30E4_U+30FC 1
 62
   179
420
  2234388
370
    25
100
AcDbVertex
100
AcDb2dVertex
 10
89.5821288256806
 20
-120.9841863586428
 30
0.0
  0
VERTEX
  5
55
330
53
100
AcDbEntity
  8
_U+30EC_U+30A4_U+30E4_U+30FC 1
 62
   179
420
  2234388
370
    25
100
AcDbVertex
100
AcDb2dVertex
 10
89.5821288256806
 20
-132.8731855223373
 30
0.0
  0
SEQEND
  5
56
330
53
100
AcDbEntity
  8
_U+30EC_U+30A4_U+30E4_U+30FC 1
 62
   179
420
  2234388
370
    25
  0
POLYLINE
  5
57
330
4B
100
AcDbEntity
  8
_U+30EC_U+30A4_U+30E4_U+30FC 1
 62
   179
420
  2234388
370
    25
100
AcDb2dPolyline
 66
     1
 10
0.0
 20
0.0
 30
0.0
  0
VERTEX
  5
58
330
57
100
AcDbEntity
  8
_U+30EC_U+30A4_U+30E4_U+30FC 1
 62
   179
420
  2234388
370
    25
100
AcDbVertex
100
AcDb2dVertex
 10
83.08191621373706
 20
-137.9836655210596
 30
0.0
  0
VERTEX
  5
59
330
57
100
AcDbEntity
  8
_U+30EC_U+30A4_U+30E4_U+30FC 1
 62
   179
420
  2234388
370
    25
100
AcDbVertex
100
AcDb2dVertex
 10
93.08200179194696
 20
-137.9836655210596
 30
0.0
  0
SEQEND
  5
5A
330
57
100
AcDbEntity
  8
_U+30EC_U+30A4_U+30E4_U+30FC 1
 62
   179
420
  2234388
370
    25
  0
POLYLINE
  5
5B
330
4B
100
AcDbEntity
  8
_U+30EC_U+30A4_U+30E4_U+30FC 1
 62
   179
420
  2234388
370
    25
100
AcDb2dPolyline
 66
     1
 10
0.0
 20
0.0
 30
0.0
  0
VERTEX
  5
5C
330
5B
100
AcDbEntity
  8
_U+30EC_U+30A4_U+30E4_U+30FC 1
 62
   179
420
  2234388
370
    25
100
AcDbVertex
100
AcDb2dVertex
 10
89.5821288256806
 20
-120.9841863586428
 30
0.0
  0
VERTEX
  5
5D
330
5B
100
AcDbEntity
  8
_U+30EC_U+30A4_U+30E4_U+30FC 1
 62
   179
420
  2234388
370
    25
100
AcDbVertex
100
AcDb2dVertex
 10
93.08200179194696
 20
-120.9841863586428
 30
0.0
  0
SEQEND
  5
5E
330
5B
100
AcDbEntity
  8
_U+30EC_U+30A4_U+30E4_U+30FC 1
 62
   179
420
  2234388
370
    25
  0
POLYLINE
  5
5F
330
4B
100
AcDbEntity
  8
_U+30EC_U+30A4_U+30E4_U+30FC 1
 62
   179
420
  2234388
370
    25
100
AcDb2dPolyline
 66
     1
 10
0.0
 20
0.0
 30
0.0
  0
VERTEX
  5
60
330
5F
100
AcDbEntity
  8
_U+30EC_U+30A4_U+30E4_U+30FC 1
 62
   179
420
  2234388
370
    25
100
AcDbVertex
100
AcDb2dVertex
 10
104.0818595668728
 20
-120.9841863586428
 30
0.0
  0
VERTEX
  5
61
330
5F
100
AcDbEntity
  8
_U+30EC_U+30A4_U+30E4_U+30FC 1
 62
   179
420
  2234388
370
    25
100
AcDbVertex
100
AcDb2dVertex
 10
104.0818595668728
 20
-136.9838932990877
 30
0.0
  0
SEQEND
  5
62
330
5F
100
AcDbEntity
  8
_U+30EC_U+30A4_U+30E4_U+30FC 1
 62
   179
420
  2234388
370
    25
  0
POLYLINE
  5
63
330
4B
100
AcDbEntity
  8
_U+30EC_U+30A4_U+30E4_U+30FC 1
 62
   179
420
  2234388
370
    25
100
AcDb2dPolyline
 66
     1
 10
0.0
 20
0.0
 30
0.0
  0
VERTEX
  5
64
330
63
100
AcDbEntity
  8
_U+30EC_U+30A4_U+30E4_U+30FC 1
 62
   179
420
  2234388
370
    25
100
AcDbVertex
100
AcDb2dVertex
 10
106.0820742380653
 20
-136.9838932990877
 30
0.0
  0
VERTEX
  5
65
330
63
100
AcDbEntity
  8
_U+30EC_U+30A4_U+30E4_U+30FC 1
 62
   179
420
  2234388
370
    25
100
AcDbVertex
100
AcDb2dVertex
 10
106.0820742380653
 20
-137.9836655210596
 30
0.0
  0
SEQEND
  5
66
330
63
100
AcDbEntity
  8
_U+30EC_U+30A4_U+30E4_U+30FC 1
 62
   179
420
  2234388
370
    25
  0
POLYLINE
  5
67
330
4B
100
AcDbEntity
  8
_U+30EC_U+30A4_U+30E4_U+30FC 1
 62
   179
420
  2234388
370
    25
100
AcDb2dPolyline
 66
     1
 10
0.0
 20
0.0
 30
0.0
  0
VERTEX
  5
68
330
67
100
AcDbEntity
  8
_U+30EC_U+30A4_U+30E4_U+30FC 1
 62
   179
420
  2234388
370
    25
100
AcDbVertex
100
AcDb2dVertex
 10
101.0818726989644
 20
-135.9841210771151
 30
0.0
  0
VERTEX
  5
69
330
67
100
AcDbEntity
  8
_U+30EC_U+30A4_U+30E4_U+30FC 1
 62
   179
420
  2234388
370
    25
100
AcDbVertex
100
AcDb2dVertex
 10
101.0818726989644
 20
-137.9836655210596
 30
0.0
  0
SEQEND
  5
6A
330
67
100
AcDbEntity
  8
_U+30EC_U+30A4_U+30E4_U+30FC 1
 62
   179
420
  2234388
370
    25
  0
POLYLINE
  5
6B
330
4B
100
AcDbEntity
  8
_U+30EC_U+30A4_U+30E4_U+30FC 1
 62
   179
420
  2234388
370
    25
100
AcDb2dPolyline
 66
     1
 10
0.0
 20
0.0
 30
0.0
  0
VERTEX
  5
6C
330
6B
100
AcDbEntity
  8
_U+30EC_U+30A4_U+30E4_U+30FC 1
 62
   179
420
  2234388
370
    25
100
AcDbVertex
100
AcDb2dVertex
 10
93.08200179194696
 20
-135.9841210771151
 30
0.0
  0
VERTEX
  5
6D
330
6B
100
AcDbEntity
  8
_U+30EC_U+30A4_U+30E4_U+30FC 1
 62
   179
420
  2234388
370
    25
100
AcDbVertex
100
AcDb2dVertex
 10
93.08200179194696
 20
-137.9836655210596
 30
0.0
  0
SEQEND
  5
6E
330
6B
100
AcDbEntity
  8
_U+30EC_U+30A4_U+30E4_U+30FC 1
 62
   179
420
  2234388
370
    25
  0
POLYLINE
  5
6F
330
4B
100
AcDbEntity
  8
_U+30EC_U+30A4_U+30E4_U+30FC 1
 62
   179
420
  2234388
370
    25
100
AcDb2dPolyline
 66
     1
 10
0.0
 20
0.0
 30
0.0
  0
VERTEX
  5
70
330
6F
100
AcDbEntity
  8
_U+30EC_U+30A4_U+30E4_U+30FC 1
 62
   179
420
  2234388
370
    25
100
AcDbVertex
100
AcDb2dVertex
 10
83.08191621373706
 20
-133.9839063553927
 30
0.0
  0
VERTEX
  5
71
330
6F
100
AcDbEntity
  8
_U+30EC_U+30A4_U+30E4_U+30FC 1
 62
   179
420
  2234388
370
    25
100
AcDbVertex
100
AcDb2dVertex
 10
83.08191621373706
 20
-137.9836655210596
 30
0.0
  0
SEQEND
  5
72
330
6F
100
AcDbEntity
  8
_U+30EC_U+30A4_U+30E4_U+30FC 1
 62
   179
420
  2234388
370
    25
  0
POLYLINE
  5
73
330
4B
100
AcDbEntity
  8
_U+30EC_U+30A4_U+30E4_U+30FC 1
 62
   179
420
  2234388
370
    25
100
AcDb2dPolyline
 66
     1
 10
0.0
 20
0.0
 30
0.0
  0
VERTEX
  5
74
330
73
100
AcDbEntity
  8
_U+30EC_U+30A4_U+30E4_U+30FC 1
 62
   179
420
  2234388
370
    25
100
AcDbVertex
100
AcDb2dVertex
 10
101.0818726989644
 20
-137.9836655210596
 30
0.0
  0
VERTEX
  5
75
330
73
100
AcDbEntity
  8
_U+30EC_U+30A4_U+30E4_U+30FC 1
 62
   179
420
  2234388
370
    25
100
AcDbVertex
100
AcDb2dVertex
 10
106.0820742380653
 20
-137.9836655210596
 30
0.0
  0
SEQEND
  5
76
330
73
100
AcDbEntity
  8
_U+30EC_U+30A4_U+30E4_U+30FC 1
 62
   179
420
  2234388
370
    25
  0
POLYLINE
  5
77
330
4B
100
AcDbEntity
  8
_U+30EC_U+30A4_U+30E4_U+30FC 1
 62
   179
420
  2234388
370
    25
100
AcDb2dPolyline
 66
     1
 10
0.0
 20
0.0
 30
0.0
  0
VERTEX
  5
78
330
77
100
AcDbEntity
  8
_U+30EC_U+30A4_U+30E4_U+30FC 1
 62
   179
420
  2234388
370
    25
100
AcDbVertex
100
AcDb2dVertex
 10
90.58190102239651
 20
-135.9841210771151
 30
0.0
  0
VERTEX
  5
79
330
77
100
AcDbEntity
  8
_U+30EC_U+30A4_U+30E4_U+30FC 1
 62
   179
420
  2234388
370
    25
100
AcDbVertex
100
AcDb2dVertex
 10
93.08200179194696
 20
-135.9841210771151
 30
0.0
  0
SEQEND
  5
7A
330
77
100
AcDbEntity
  8
_U+30EC_U+30A4_U+30E4_U+30FC 1
 62
   179
420
  2234388
370
    25
  0
POLYLINE
  5
7B
330
4B
100
AcDbEntity
  8
_U+30EC_U+30A4_U+30E4_U+30FC 1
 62
   179
420
  2234388
370
    25
100
AcDb2dPolyline
 66
     1
 10
0.0
 20
0.0
 30
0.0
  0
VERTEX
  5
7C
330
7B
100
AcDbEntity
  8
_U+30EC_U+30A4_U+30E4_U+30FC 1
 62
   179
420
  2234388
370
    25
100
AcDbVertex
100
AcDb2dVertex
 10
101.0818726989644
 20
-135.9841210771151
 30
0.0
  0
VERTEX
  5
7D
330
7B
100
AcDbEntity
  8
_U+30EC_U+30A4_U+30E4_U+30FC 1
 62
   179
420
  2234388
370
    25
100
AcDbVertex
100
AcDb2dVertex
 10
103.0820873701569
 20
-135.9841210771151
 30
0.0
  0
SEQEND
  5
7E
330
7B
100
AcDbEntity
  8
_U+30EC_U+30A4_U+30E4_U+30FC 1
 62
   179
420
  2234388
370
    25
  0
POLYLINE
  5
7F
330
4B
100
AcDbEntity
  8
_U+30EC_U+30A4_U+30E4_U+30FC 1
 62
   179
420
  2234388
370
    25
100
AcDb2dPolyline
 66
     1
 10
0.0
 20
0.0
 30
0.0
  0
VERTEX
  5
80
330
7F
100
AcDbEntity
  8
_U+30EC_U+30A4_U+30E4_U+30FC 1
 62
   179
420
  2234388
370
    25
100
AcDbVertex
100
AcDb2dVertex
 10
104.0818595668728
 20
-136.9838932990877
 30
0.0
  0
VERTEX
  5
81
330
7F
100
AcDbEntity
  8
_U+30EC_U+30A4_U+30E4_U+30FC 1
 62
   179
420
  2234388
370
    25
100
AcDbVertex
100
AcDb2dVertex
 10
106.0820742380653
 20
-136.9838932990877
 30
0.0
  0
SEQEND
  5
82
330
7F
100
AcDbEntity
  8
_U+30EC_U+30A4_U+30E4_U+30FC 1
 62
   179
420
  2234388
370
    25
  0
POLYLINE
  5
83
330
4B
100
AcDbEntity
  8
_U+30EC_U+30A4_U+30E4_U+30FC 1
 62
   179
420
  2234388
370
    25
100
AcDb2dPolyline
 66
     1
 10
0.0
 20
0.0
 30
0.0
  0
VERTEX
  5
84
330
83
100
AcDbEntity
  8
_U+30EC_U+30A4_U+30E4_U+30FC 1
 62
   179
420
  2234388
370
    25
100
AcDbVertex
100
AcDb2dVertex
 10
103.0820873701569
 20
-121.983958580615
 30
0.0
  0
VERTEX
  5
85
330
83
100
AcDbEntity
  8
_U+30EC_U+30A4_U+30E4_U+30FC 1
 62
   179
420
  2234388
370
    25
100
AcDbVertex
100
AcDb2dVertex
 10
103.0820873701569
 20
-124.7338260799278
 30
0.0
  0
SEQEND
  5
86
330
83
100
AcDbEntity
  8
_U+30EC_U+30A4_U+30E4_U+30FC 1
 62
   179
420
  2234388
370
    25
  0
POLYLINE
  5
87
330
4B
100
AcDbEntity
  8
_U+30EC_U+30A4_U+30E4_U+30FC 1
 62
   179
420
  2234388
370
    25
100
AcDb2dPolyline
 66
     1
 10
0.0
 20
0.0
 30
0.0
  0
VERTEX
  5
88
330
87
100
AcDbEntity
  8
_U+30EC_U+30A4_U+30E4_U+30FC 1
 62
   179
420
  2234388
370
    25
100
AcDbVertex
100
AcDb2dVertex
 10
90.58190102239651
 20
-121.983958580615
 30
0.0
  0
VERTEX
  5
89
330
87
100
AcDbEntity
  8
_U+30EC_U+30A4_U+30E4_U+30FC 1
 62
   179
420
  2234388
370
    25
100
AcDbVertex
100
AcDb2dVertex
 10
93.08200179194696
 20
-121.983958580615
 30
0.0
  0
SEQEND
  5
8A
330
87
100
AcDbEntity
  8
_U+30EC_U+30A4_U+30E4_U+30FC 1
 62
   179
420
  2234388
370
    25
  0
POLYLINE
  5
8B
330
4B
100
AcDbEntity
  8
_U+30EC_U+30A4_U+30E4_U+30FC 1
 62
   179
420
  2234388
370
    25
100
AcDb2dPolyline
 66
     1
 10
0.0
 20
0.0
 30
0.0
  0
VERTEX
  5
8C
330
8B
100
AcDbEntity
  8
_U+30EC_U+30A4_U+30E4_U+30FC 1
 62
   179
420
  2234388
370
    25
100
AcDbVertex
100
AcDb2dVertex
 10
93.08200179194696
 20
-120.9841863586428
 30
0.0
  0
VERTEX
  5
8D
330
8B
100
AcDbEntity
  8
_U+30EC_U+30A4_U+30E4_U+30FC 1
 62
   179
420
  2234388
370
    25
100
AcDbVertex
100
AcDb2dVertex
 10
93.08200179194696
 20
-121.983958580615
 30
0.0
  0
SEQEND
  5
8E
330
8B
100
AcDbEntity
  8
_U+30EC_U+30A4_U+30E4_U+30FC 1
 62
   179
420
  2234388
370
    25
  0
POLYLINE
  5
8F
330
4B
100
AcDbEntity
  8
_U+30EC_U+30A4_U+30E4_U+30FC 1
 62
   179
420
  2234388
370
    25
100
AcDb2dPolyline
 66
     1
 10
0.0
 20
0.0
 30
0.0
  0
VERTEX
  5
90
330
8F
100
AcDbEntity
  8
_U+30EC_U+30A4_U+30E4_U+30FC 1
 62
   179
420
  2234388
370
    25
100
AcDbVertex
100
AcDb2dVertex
 10
100.5819866006064
 20
-120.9841863586428
 30
0.0
  0
VERTEX
  5
91
330
8F
100
AcDbEntity
  8
_U+30EC_U+30A4_U+30E4_U+30FC 1
 62
   179
420
  2234388
370
    25
100
AcDbVertex
100
AcDb2dVertex
 10
100.5819866006064
 20
-121.983958580615
 30
0.0
  0
SEQEND
  5
92
330
8F
100
AcDbEntity
  8
_U+30EC_U+30A4_U+30E4_U+30FC 1
 62
   179
420
  2234388
370
    25
  0
POLYLINE
  5
93
330
4B
100
AcDbEntity
  8
_U+30EC_U+30A4_U+30E4_U+30FC 1
 62
   179
420
  2234388
370
    25
100
AcDb2dPolyline
 66
     1
 10
0.0
 20
0.0
 30
0.0
  0
VERTEX
  5
94
330
93
100
AcDbEntity
  8
_U+30EC_U+30A4_U+30E4_U+30FC 1
 62
   179
420
  2234388
370
    25
100
AcDbVertex
100
AcDb2dVertex
 10
100.5819866006064
 20
-120.9841863586428
 30
0.0
  0
VERTEX
  5
95
330
93
100
AcDbEntity
  8
_U+30EC_U+30A4_U+30E4_U+30FC 1
 62
   179
420
  2234388
370
    25
100
AcDbVertex
100
AcDb2dVertex
 10
104.0818595668728
 20
-120.9841863586428
 30
0.0
  0
SEQEND
  5
96
330
93
100
AcDbEntity
  8
_U+30EC_U+30A4_U+30E4_U+30FC 1
 62
   179
420
  2234388
370
    25
  0
POLYLINE
  5
97
330
4B
100
AcDbEntity
  8
_U+30EC_U+30A4_U+30E4_U+30FC 1
 62
   179
420
  2234388
370
    25
100
AcDb2dPolyline
 66
     1
 10
0.0
 20
0.0
 30
0.0
  0
VERTEX
  5
98
330
97
100
AcDbEntity
  8
_U+30EC_U+30A4_U+30E4_U+30FC 1
 62
   179
420
  2234388
370
    25
100
AcDbVertex
100
AcDb2dVertex
 10
100.5819866006064
 20
-121.983958580615
 30
0.0
  0
VERTEX
  5
99
330
97
100
AcDbEntity
  8
_U+30EC_U+30A4_U+30E4_U+30FC 1
 62
   179
420
  2234388
370
    25
100
AcDbVertex
100
AcDb2dVertex
 10
103.0820873701569
 20
-121.983958580615
 30
0.0
  0
SEQEND
  5
9A
330
97
100
AcDbEntity
  8
_U+30EC_U+30A4_U+30E4_U+30FC 1
 62
   179
420
  2234388
370
    25
  0
POLYLINE
  5
9B
330
4B
100
AcDbEntity
  8
_U+30EC_U+30A4_U+30E4_U+30FC 1
 62
   179
420
  2234388
370
    25
100
AcDb2dPolyline
 66
     1
 10
0.0
 20
0.0
 30
0.0
  0
VERTEX
  5
9C
330
9B
100
AcDbEntity
  8
_U+30EC_U+30A4_U+30E4_U+30FC 1
 62
   179
420
  2234388
370
    25
100
AcDbVertex
100
AcDb2dVertex
 10
84.08204118822175
 20
-133.9839063553927
 30
0.0
  0
VERTEX
  5
9D
330
9B
100
AcDbEntity
  8
_U+30EC_U+30A4_U+30E4_U+30FC 1
 62
   179
420
  2234388
370
    25
100
AcDbVertex
100
AcDb2dVertex
 10
84.08204118822175
 20
-136.9838932990877
 30
0.0
  0
SEQEND
  5
9E
330
9B
100
AcDbEntity
  8
_U+30EC_U+30A4_U+30E4_U+30FC 1
 62
   179
420
  2234388
370
    25
  0
POLYLINE
  5
9F
330
4B
100
AcDbEntity
  8
_U+30EC_U+30A4_U+30E4_U+30FC 1
 62
   179
420
  2234388
370
    25
100
AcDb2dPolyline
 66
     1
 10
0.0
 20
0.0
 30
0.0
  0
VERTEX
  5
A0
330
9F
100
AcDbEntity
  8
_U+30EC_U+30A4_U+30E4_U+30FC 1
 62
   179
420
  2234388
370
    25
100
AcDbVertex
100
AcDb2dVertex
 10
90.58190102239651
 20
-121.983958580615
 30
0.0
  0
VERTEX
  5
A1
330
9F
100
AcDbEntity
  8
_U+30EC_U+30A4_U+30E4_U+30FC 1
 62
   179
420
  2234388
370
    25
100
AcDbVertex
100
AcDb2dVertex
 10
90.58190102239651
 20
-124.7338260799278
 30
0.0
  0
SEQEND
  5
A2
330
9F
100
AcDbEntity
  8
_U+30EC_U+30A4_U+30E4_U+30FC 1
 62
   179
420
  2234388
370
    25
  0
POLYLINE
  5
A3
330
4B
100
AcDbEntity
  8
_U+30EC_U+30A4_U+30E4_U+30FC 1
 62
   179
420
  2234388
370
    25
100
AcDb2dPolyline
 66
     1
 10
0.0
 20
0.0
 30
0.0
  0
VERTEX
  5
A4
330
A3
100
AcDbEntity
  8
_U+30EC_U+30A4_U+30E4_U+30FC 1
 62
   179
420
  2234388
370
    25
100
AcDbVertex
100
AcDb2dVertex
 10
90.58190102239651
 20
-124.7338260799278
 30
0.0
  0
VERTEX
  5
A5
330
A3
100
AcDbEntity
  8
_U+30EC_U+30A4_U+30E4_U+30FC 1
 62
   179
420
  2234388
370
    25
100
AcDbVertex
100
AcDb2dVertex
 10
92.62137985925396
 20
-124.7338260799278
 30
0.0
  0
SEQEND
  5
A6
330
A3
100
AcDbEntity
  8
_U+30EC_U+30A4_U+30E4_U+30FC 1
 62
   179
420
  2234388
370
    25
  0
POLYLINE
  5
A7
330
4B
100
AcDbEntity
  8
_U+30EC_U+30A4_U+30E4_U+30FC 1
 62
   179
420
  2234388
370
    25
100
AcDb2dPolyline
 66
     1
 10
0.0
 20
0.0
 30
0.0
  0
VERTEX
  5
A8
330
A7
100
AcDbEntity
  8
_U+30EC_U+30A4_U+30E4_U+30FC 1
 62
   179
420
  2234388
370
    25
100
AcDbVertex
100
AcDb2dVertex
 10
90.58190102239651
 20
-126.2338019128859
 30
0.0
  0
VERTEX
  5
A9
330
A7
100
AcDbEntity
  8
_U+30EC_U+30A4_U+30E4_U+30FC 1
 62
   179
420
  2234388
370
    25
100
AcDbVertex
100
AcDb2dVertex
 10
90.58190102239651
 20
-135.9841210771151
 30
0.0
  0
SEQEND
  5
AA
330
A7
100
AcDbEntity
  8
_U+30EC_U+30A4_U+30E4_U+30FC 1
 62
   179
420
  2234388
370
    25
  0
POLYLINE
  5
AB
330
4B
100
AcDbEntity
  8
_U+30EC_U+30A4_U+30E4_U+30FC 1
 62
   179
420
  2234388
370
    25
100
AcDb2dPolyline
 66
     1
 10
0.0
 20
0.0
 30
0.0
  0
VERTEX
  5
AC
330
AB
100
AcDbEntity
  8
_U+30EC_U+30A4_U+30E4_U+30FC 1
 62
   179
420
  2234388
370
    25
100
AcDbVertex
100
AcDb2dVertex
 10
103.0820873701569
 20
-126.2338019128859
 30
0.0
  0
VERTEX
  5
AD
330
AB
100
AcDbEntity
  8
_U+30EC_U+30A4_U+30E4_U+30FC 1
 62
   179
420
  2234388
370
    25
100
AcDbVertex
100
AcDb2dVertex
 10
103.0820873701569
 20
-135.9841210771151
 30
0.0
  0
SEQEND
  5
AE
330
AB
100
AcDbEntity
  8
_U+30EC_U+30A4_U+30E4_U+30FC 1
 62
   179
420
  2234388
370
    25
  0
POLYLINE
  5
AF
330
4B
100
AcDbEntity
  8
_U+30EC_U+30A4_U+30E4_U+30FC 1
 62
   179
420
  2234388
370
    25
100
AcDb2dPolyline
 66
     1
 10
0.0
 20
0.0
 30
0.0
  0
VERTEX
  5
B0
330
AF
100
AcDbEntity
  8
_U+30EC_U+30A4_U+30E4_U+30FC 1
 62
   179
420
  2234388
370
    25
100
AcDbVertex
100
AcDb2dVertex
 10
94.20715120768645
 20
-127.7338130236221
 30
0.0
  0
VERTEX
  5
B1
330
AF
100
AcDbEntity
  8
_U+30EC_U+30A4_U+30E4_U+30FC 1
 62
   179
420
  2234388
370
    25
100
AcDbVertex
100
AcDb2dVertex
 10
96.58187475821332
 20
-127.7338130236221
 30
0.0
  0
VERTEX
  5
B2
330
AF
100
AcDbEntity
  8
_U+30EC_U+30A4_U+30E4_U+30FC 1
 62
   179
420
  2234388
370
    25
100
AcDbVertex
100
AcDb2dVertex
 10
96.83199419627668
 20
-127.3010958015081
 30
0.0
  0
VERTEX
  5
B3
330
AF
100
AcDbEntity
  8
_U+30EC_U+30A4_U+30E4_U+30FC 1
 62
   179
420
  2234388
370
    25
100
AcDbVertex
100
AcDb2dVertex
 10
97.0814080788025
 20
-127.7338130236221
 30
0.0
  0
VERTEX
  5
B4
330
AF
100
AcDbEntity
  8
_U+30EC_U+30A4_U+30E4_U+30FC 1
 62
   179
420
  2234388
370
    25
100
AcDbVertex
100
AcDb2dVertex
 10
99.45715468485882
 20
-127.7338130236221
 30
0.0
  0
SEQEND
  5
B5
330
AF
100
AcDbEntity
  8
_U+30EC_U+30A4_U+30E4_U+30FC 1
 62
   179
420
  2234388
370
    25
  0
POLYLINE
  5
B6
330
4B
100
AcDbEntity
  8
_U+30EC_U+30A4_U+30E4_U+30FC 1
 62
   179
420
  2234388
370
    25
100
AcDb2dPolyline
 66
     1
 10
0.0
 20
0.0
 30
0.0
  0
VERTEX
  5
B7
330
B6
100
AcDbEntity
  8
_U+30EC_U+30A4_U+30E4_U+30FC 1
 62
   179
420
  2234388
370
    25
100
AcDbVertex
100
AcDb2dVertex
 10
91.08210462074636
 20
-125.7335983019
 30
0.0
  0
VERTEX
  5
B8
330
B6
100
AcDbEntity
  8
_U+30EC_U+30A4_U+30E4_U+30FC 1
 62
   179
420
  2234388
370
    25
100
AcDbVertex
100
AcDb2dVertex
 10
91.99989126399835
 20
-125.7335983019
 30
0.0
  0
SEQEND
  5
B9
330
B6
100
AcDbEntity
  8
_U+30EC_U+30A4_U+30E4_U+30FC 1
 62
   179
420
  2234388
370
    25
  0
POLYLINE
  5
BA
330
4B
100
AcDbEntity
  8
_U+30EC_U+30A4_U+30E4_U+30FC 1
 62
   179
420
  2234388
370
    25
100
AcDb2dPolyline
 66
     1
 10
0.0
 20
0.0
 30
0.0
  0
VERTEX
  5
BB
330
BA
100
AcDbEntity
  8
_U+30EC_U+30A4_U+30E4_U+30FC 1
 62
   179
420
  2234388
370
    25
100
AcDbVertex
100
AcDb2dVertex
 10
94.62127703045455
 20
-126.7340408016499
 30
0.0
  0
VERTEX
  5
BC
330
BA
100
AcDbEntity
  8
_U+30EC_U+30A4_U+30E4_U+30FC 1
 62
   179
420
  2234388
370
    25
100
AcDbVertex
100
AcDb2dVertex
 10
99.04271386412829
 20
-126.7340408016499
 30
0.0
  0
SEQEND
  5
BD
330
BA
100
AcDbEntity
  8
_U+30EC_U+30A4_U+30E4_U+30FC 1
 62
   179
420
  2234388
370
    25
  0
POLYLINE
  5
BE
330
4B
100
AcDbEntity
  8
_U+30EC_U+30A4_U+30E4_U+30FC 1
 62
   179
420
  2234388
370
    25
100
AcDb2dPolyline
 66
     1
 10
0.0
 20
0.0
 30
0.0
  0
VERTEX
  5
BF
330
BE
100
AcDbEntity
  8
_U+30EC_U+30A4_U+30E4_U+30FC 1
 62
   179
420
  2234388
370
    25
100
AcDbVertex
100
AcDb2dVertex
 10
99.45715468485882
 20
-127.7338130236221
 30
0.0
  0
VERTEX
  5
C0
330
BE
100
AcDbEntity
  8
_U+30EC_U+30A4_U+30E4_U+30FC 1
 62
   179
420
  2234388
370
    25
100
AcDbVertex
100
AcDb2dVertex
 10
101.3106138042398
 20
-125.880353857419
 30
0.0
  0
SEQEND
  5
C1
330
BE
100
AcDbEntity
  8
_U+30EC_U+30A4_U+30E4_U+30FC 1
 62
   179
420
  2234388
370
    25
  0
POLYLINE
  5
C2
330
4B
100
AcDbEntity
  8
_U+30EC_U+30A4_U+30E4_U+30FC 1
 62
   179
420
  2234388
370
    25
100
AcDb2dPolyline
 66
     1
 10
0.0
 20
0.0
 30
0.0
  0
VERTEX
  5
C3
330
C2
100
AcDbEntity
  8
_U+30EC_U+30A4_U+30E4_U+30FC 1
 62
   179
420
  2234388
370
    25
100
AcDbVertex
100
AcDb2dVertex
 10
92.35337458831357
 20
-125.880353857419
 30
0.0
  0
VERTEX
  5
C4
330
C2
100
AcDbEntity
  8
_U+30EC_U+30A4_U+30E4_U+30FC 1
 62
   179
420
  2234388
370
    25
100
AcDbVertex
100
AcDb2dVertex
 10
94.20715120768645
 20
-127.7338130236221
 30
0.0
  0
SEQEND
  5
C5
330
C2
100
AcDbEntity
  8
_U+30EC_U+30A4_U+30E4_U+30FC 1
 62
   179
420
  2234388
370
    25
  0
POLYLINE
  5
C6
330
4B
100
AcDbEntity
  8
_U+30EC_U+30A4_U+30E4_U+30FC 1
 62
   179
420
  2234388
370
    25
100
AcDb2dPolyline
 66
     1
 10
0.0
 20
0.0
 30
0.0
  0
VERTEX
  5
C7
330
C6
100
AcDbEntity
  8
_U+30EC_U+30A4_U+30E4_U+30FC 1
 62
   179
420
  2234388
370
    25
100
AcDbVertex
100
AcDb2dVertex
 10
101.6640618507781
 20
-125.7335983019
 30
0.0
  0
VERTEX
  5
C8
330
C6
100
AcDbEntity
  8
_U+30EC_U+30A4_U+30E4_U+30FC 1
 62
   179
420
  2234388
370
    25
100
AcDbVertex
100
AcDb2dVertex
 10
102.5818484940301
 20
-125.7335983019
 30
0.0
  0
SEQEND
  5
C9
330
C6
100
AcDbEntity
  8
_U+30EC_U+30A4_U+30E4_U+30FC 1
 62
   179
420
  2234388
370
    25
  0
POLYLINE
  5
CA
330
4B
100
AcDbEntity
  8
_U+30EC_U+30A4_U+30E4_U+30FC 1
 62
   179
420
  2234388
370
    25
100
AcDb2dPolyline
 66
     1
 10
0.0
 20
0.0
 30
0.0
  0
VERTEX
  5
CB
330
CA
100
AcDbEntity
  8
_U+30EC_U+30A4_U+30E4_U+30FC 1
 62
   179
420
  2234388
370
    25
100
AcDbVertex
100
AcDb2dVertex
 10
99.04271386412829
 20
-126.7340408016499
 30
0.0
  0
VERTEX
  5
CC
330
CA
100
AcDbEntity
  8
_U+30EC_U+30A4_U+30E4_U+30FC 1
 62
   179
420
  2234388
370
    25
100
AcDbVertex
100
AcDb2dVertex
 10
101.0429260332913
 20
-124.7338260799278
 30
0.0
  0
SEQEND
  5
CD
330
CA
100
AcDbEntity
  8
_U+30EC_U+30A4_U+30E4_U+30FC 1
 62
   179
420
  2234388
370
    25
  0
POLYLINE
  5
CE
330
4B
100
AcDbEntity
  8
_U+30EC_U+30A4_U+30E4_U+30FC 1
 62
   179
420
  2234388
370
    25
100
AcDb2dPolyline
 66
     1
 10
0.0
 20
0.0
 30
0.0
  0
VERTEX
  5
CF
330
CE
100
AcDbEntity
  8
_U+30EC_U+30A4_U+30E4_U+30FC 1
 62
   179
420
  2234388
370
    25
100
AcDbVertex
100
AcDb2dVertex
 10
101.0429260332913
 20
-124.7338260799278
 30
0.0
  0
VERTEX
  5
D0
330
CE
100
AcDbEntity
  8
_U+30EC_U+30A4_U+30E4_U+30FC 1
 62
   179
420
  2234388
370
    25
100
AcDbVertex
100
AcDb2dVertex
 10
103.0820873701569
 20
-124.7338260799278
 30
0.0
  0
SEQEND
  5
D1
330
CE
100
AcDbEntity
  8
_U+30EC_U+30A4_U+30E4_U+30FC 1
 62
   179
420
  2234388
370
    25
  0
POLYLINE
  5
D2
330
4B
100
AcDbEntity
  8
_U+30EC_U+30A4_U+30E4_U+30FC 1
 62
   179
420
  2234388
370
    25
100
AcDb2dPolyline
 66
     1
 10
0.0
 20
0.0
 30
0.0
  0
VERTEX
  5
D3
330
D2
100
AcDbEntity
  8
_U+30EC_U+30A4_U+30E4_U+30FC 1
 62
   179
420
  2234388
370
    25
100
AcDbVertex
100
AcDb2dVertex
 10
92.62137985925396
 20
-124.7338260799278
 30
0.0
  0
VERTEX
  5
D4
330
D2
100
AcDbEntity
  8
_U+30EC_U+30A4_U+30E4_U+30FC 1
 62
   179
420
  2234388
370
    25
100
AcDbVertex
100
AcDb2dVertex
 10
94.62127703045455
 20
-126.7340408016499
 30
0.0
  0
SEQEND
  5
D5
330
D2
100
AcDbEntity
  8
_U+30EC_U+30A4_U+30E4_U+30FC 1
 62
   179
420
  2234388
370
    25
  0
POLYLINE
  5
D6
330
4B
100
AcDbEntity
  8
_U+30EC_U+30A4_U+30E4_U+30FC 1
 62
   179
420
  2234388
370
    25
100
AcDb2dPolyline
 66
     1
 10
0.0
 20
0.0
 30
0.0
  0
VERTEX
  5
D7
330
D6
100
AcDbEntity
  8
_U+30EC_U+30A4_U+30E4_U+30FC 1
 62
   179
420
  2234388
370
    25
100
AcDbVertex
100
AcDb2dVertex
 10
84.08204118822175
 20
-136.9838932990877
 30
0.0
  0
VERTEX
  5
D8
330
D6
100
AcDbEntity
  8
_U+30EC_U+30A4_U+30E4_U+30FC 1
 62
   179
420
  2234388
370
    25
100
AcDbVertex
100
AcDb2dVertex
 10
85.73431114606883
 20
-136.9838932990877
 30
0.0
  0
SEQEND
  5
D9
330
D6
100
AcDbEntity
  8
_U+30EC_U+30A4_U+30E4_U+30FC 1
 62
   179
420
  2234388
370
    25
  0
SPLINE
  5
DA
330
4B
100
AcDbEntity
  8
_U+30EC_U+30A4_U+30E4_U+30FC 1
 62
   179
420
  2234388
370
    25
100
AcDbSpline
210
0.0
220
0.0
230
1.0
 70
     8
 71
     3
 72
    14
 73
    10
 74
     0
 42
0.0000000001
 43
0.0000000001
 12
1.0
 22
0.0
 32
0.0
 13
1.0
 23
0.0
 33
0.0
 40
0.0
 40
0.0
 40
0.0
 40
0.0
 40
1.0
 40
1.0
 40
1.0
 40
2.0
 40
2.0
 40
2.0
 40
3.0
 40
3.0
 40
3.0
 40
3.0
 10
86.3550941857869
 20
-134.8217535774054
 30
0.0
 10
86.21006942289193
 20
-135.6368466327577
 30
0.0
 10
86.75369997831164
 20
-136.4161327436736
 30
0.0
 10
87.56949637702714
 20
-136.560842188082
 30
0.0
 10
88.38529720012596
 20
-136.7055163547122
 30
0.0
 10
89.16387775548667
 20
-136.1618857992928
 30
0.0
 10
89.30893772153918
 20
-135.3460871883857
 30
0.0
 10
89.44606244026306
 20
-134.5743857996897
 30
0.0
 10
88.96579078584914
 20
-133.8274846887651
 30
0.0
 10
88.20685997187775
 20
-133.6317988554811
 30
0.0
  0
SPLINE
  5
DB
330
4B
100
AcDbEntity
  8
_U+30EC_U+30A4_U+30E4_U+30FC 1
 62
   179
420
  2234388
370
    25
100
AcDbSpline
210
0.0
220
0.0
230
1.0
 70
     8
 71
     3
 72
     8
 73
     4
 74
     0
 42
0.0000000001
 43
0.0000000001
 12
1.0
 22
0.0
 32
0.0
 13
1.0
 23
0.0
 33
0.0
 40
0.0
 40
0.0
 40
0.0
 40
0.0
 40
1.0
 40
1.0
 40
1.0
 40
1.0
 10
85.37049143312842
 20
-134.6467405218942
 30
0.0
 10
85.24370310302973
 20
-135.3605510772707
 30
0.0
 10
85.43321532041709
 20
-136.0943641326431
 30
0.0
 10
85.88967447543851
 20
-136.6579971880579
 30
0.0
  0
SPLINE
  5
DC
330
4B
100
AcDbEntity
  8
_U+30EC_U+30A4_U+30E4_U+30FC 1
 62
   179
420
  2234388
370
    25
100
AcDbSpline
210
0.0
220
0.0
230
1.0
 70
     8
 71
     3
 72
    11
 73
     7
 74
     0
 42
0.0000000001
 43
0.0000000001
 12
1.0
 22
0.0
 32
0.0
 13
1.0
 23
0.0
 33
0.0
 40
0.0
 40
0.0
 40
0.0
 40
0.0
 40
1.0
 40
1.0
 40
1.0
 40
2.0
 40
2.0
 40
2.0
 40
2.0
 10
88.45694413216424
 20
-132.6630358001676
 30
0.0
 10
88.18960913898452
 20
-132.5941383001851
 30
0.0
 10
87.91677081261187
 20
-132.7553930223669
 30
0.0
 10
87.8478733143696
 20
-133.0227280222998
 30
0.0
 10
87.77897581612731
 20
-133.2900630222328
 30
0.0
 10
87.93948970092116
 20
-133.5622310777206
 30
0.0
 10
88.20685997187775
 20
-133.6317988554811
 30
0.0
  0
SPLINE
  5
DD
330
4B
100
AcDbEntity
  8
_U+30EC_U+30A4_U+30E4_U+30FC 1
 62
   179
420
  2234388
370
    25
100
AcDbSpline
210
0.0
220
0.0
230
1.0
 70
     8
 71
     3
 72
    11
 73
     7
 74
     0
 42
0.0000000001
 43
0.0000000001
 12
1.0
 22
0.0
 32
0.0
 13
1.0
 23
0.0
 33
0.0
 40
0.0
 40
0.0
 40
0.0
 40
0.0
 40
1.0
 40
1.0
 40
1.0
 40
2.0
 40
2.0
 40
2.0
 40
2.0
 10
86.3550941857869
 20
-134.8217535774054
 30
0.0
 10
86.40335418455568
 20
-134.5495855219183
 30
0.0
 10
86.2221322447346
 20
-134.2898352442053
 30
0.0
 10
85.9503169738914
 20
-134.2415752442173
 30
0.0
 10
85.67850170304821
 20
-134.1933505220074
 30
0.0
 10
85.41906893188911
 20
-134.3745724664064
 30
0.0
 10
85.37049143312842
 20
-134.6467405218942
 30
0.0
  0
SPLINE
  5
DE
330
4B
100
AcDbEntity
  8
_U+30EC_U+30A4_U+30E4_U+30FC 1
 62
   179
420
  2234388
370
     9
100
AcDbSpline
210
0.0
220
0.0
230
1.0
 70
    11
 71
     3
 72
    17
 73
    13
 74
     0
 42
0.0000000001
 43
0.0000000001
 12
1.0
 22
0.0
 32
0.0
 13
1.0
 23
0.0
 33
0.0
 40
0.0
 40
0.0
 40
0.0
 40
0.0
 40
1.0
 40
1.0
 40
1.0
 40
2.0
 40
2.0
 40
2.0
 40
3.0
 40
3.0
 40
3.0
 40
4.0
 40
4.0
 40
4.0
 40
4.0
 10
79.18206381323058
 20
-120.9841863586428
 30
0.0
 10
79.18206381323058
 20
-120.9283769142123
 30
0.0
 10
79.1372963143727
 20
-120.8835741364456
 30
0.0
 10
79.08215714911276
 20
-120.8835741364456
 30
0.0
 10
79.0267004838609
 20
-120.8835741364456
 30
0.0
 10
78.98189770722614
 20
-120.9283769142123
 30
0.0
 10
78.98189770722614
 20
-120.9841863586428
 30
0.0
 10
78.98189770722614
 20
-121.039290247518
 30
0.0
 10
79.0267004838609
 20
-121.0840930252844
 30
0.0
 10
79.08215714911276
 20
-121.0840930252844
 30
0.0
 10
79.1372963143727
 20
-121.0840930252844
 30
0.0
 10
79.18206381323058
 20
-121.039290247518
 30
0.0
 10
79.18206381323058
 20
-120.9841863586428
 30
0.0
  0
SPLINE
  5
DF
330
4B
100
AcDbEntity
  8
_U+30EC_U+30A4_U+30E4_U+30FC 1
 62
   179
420
  2234388
370
     9
100
AcDbSpline
210
0.0
220
0.0
230
1.0
 70
    11
 71
     3
 72
    17
 73
    13
 74
     0
 42
0.0000000001
 43
0.0000000001
 12
1.0
 22
0.0
 32
0.0
 13
1.0
 23
0.0
 33
0.0
 40
0.0
 40
0.0
 40
0.0
 40
0.0
 40
1.0
 40
1.0
 40
1.0
 40
2.0
 40
2.0
 40
2.0
 40
3.0
 40
3.0
 40
3.0
 40
4.0
 40
4.0
 40
4.0
 40
4.0
 10
79.18206381323058
 20
-133.9839063553927
 30
0.0
 10
79.18206381323058
 20
-133.9287671887403
 30
0.0
 10
79.1372963143727
 20
-133.8839996887511
 30
0.0
 10
79.08215714911276
 20
-133.8839996887511
 30
0.0
 10
79.0267004838609
 20
-133.8839996887511
 30
0.0
 10
78.98189770722614
 20
-133.9287671887403
 30
0.0
 10
78.98189770722614
 20
-133.9839063553927
 30
0.0
 10
78.98189770722614
 20
-134.0390102442682
 30
0.0
 10
79.0267004838609
 20
-134.0838130220343
 30
0.0
 10
79.08215714911276
 20
-134.0838130220343
 30
0.0
 10
79.1372963143727
 20
-134.0838130220343
 30
0.0
 10
79.18206381323058
 20
-134.0390102442682
 30
0.0
 10
79.18206381323058
 20
-133.9839063553927
 30
0.0
  0
SPLINE
  5
E0
330
4B
100
AcDbEntity
  8
_U+30EC_U+30A4_U+30E4_U+30FC 1
 62
   179
420
  2234388
370
     9
100
AcDbSpline
210
0.0
220
0.0
230
1.0
 70
    11
 71
     3
 72
    17
 73
    13
 74
     0
 42
0.0000000001
 43
0.0000000001
 12
1.0
 22
0.0
 32
0.0
 13
1.0
 23
0.0
 33
0.0
 40
0.0
 40
0.0
 40
0.0
 40
0.0
 40
1.0
 40
1.0
 40
1.0
 40
2.0
 40
2.0
 40
2.0
 40
3.0
 40
3.0
 40
3.0
 40
4.0
 40
4.0
 40
4.0
 40
4.0
 10
79.18206381323058
 20
-137.9836655210596
 30
0.0
 10
79.18206381323058
 20
-137.9285263544065
 30
0.0
 10
79.1372963143727
 20
-137.8837588544179
 30
0.0
 10
79.08215714911276
 20
-137.8837588544179
 30
0.0
 10
79.0267004838609
 20
-137.8837588544179
 30
0.0
 10
78.98189770722614
 20
-137.9285263544065
 30
0.0
 10
78.98189770722614
 20
-137.9836655210596
 30
0.0
 10
78.98189770722614
 20
-138.03947496549
 30
0.0
 10
79.0267004838609
 20
-138.0842424654792
 30
0.0
 10
79.08215714911276
 20
-138.0842424654792
 30
0.0
 10
79.1372963143727
 20
-138.0842424654792
 30
0.0
 10
79.18206381323058
 20
-138.03947496549
 30
0.0
 10
79.18206381323058
 20
-137.9836655210596
 30
0.0
  0
SPLINE
  5
E1
330
4B
100
AcDbEntity
  8
_U+30EC_U+30A4_U+30E4_U+30FC 1
 62
   179
420
  2234388
370
     9
100
AcDbSpline
210
0.0
220
0.0
230
1.0
 70
    11
 71
     3
 72
    17
 73
    13
 74
     0
 42
0.0000000001
 43
0.0000000001
 12
1.0
 22
0.0
 32
0.0
 13
1.0
 23
0.0
 33
0.0
 40
0.0
 40
0.0
 40
0.0
 40
0.0
 40
1.0
 40
1.0
 40
1.0
 40
2.0
 40
2.0
 40
2.0
 40
3.0
 40
3.0
 40
3.0
 40
4.0
 40
4.0
 40
4.0
 40
4.0
 10
89.68203548979844
 20
-116.9837216374207
 30
0.0
 10
89.68203548979844
 20
-116.9286177485458
 30
0.0
 10
89.63723271316367
 20
-116.8838149707791
 30
0.0
 10
89.5821288256806
 20
-116.8838149707791
 30
0.0
 10
89.52667216042876
 20
-116.8838149707791
 30
0.0
 10
89.48186938379399
 20
-116.9286177485458
 30
0.0
 10
89.48186938379399
 20
-116.9837216374207
 30
0.0
 10
89.48186938379399
 20
-117.0388608040738
 30
0.0
 10
89.52667216042876
 20
-117.0836283040623
 30
0.0
 10
89.5821288256806
 20
-117.0836283040623
 30
0.0
 10
89.63723271316367
 20
-117.0836283040623
 30
0.0
 10
89.68203548979844
 20
-117.0388608040738
 30
0.0
 10
89.68203548979844
 20
-116.9837216374207
 30
0.0
  0
SPLINE
  5
E2
330
4B
100
AcDbEntity
  8
_U+30EC_U+30A4_U+30E4_U+30FC 1
 62
   179
420
  2234388
370
     9
100
AcDbSpline
210
0.0
220
0.0
230
1.0
 70
    11
 71
     3
 72
    17
 73
    13
 74
     0
 42
0.0000000001
 43
0.0000000001
 12
1.0
 22
0.0
 32
0.0
 13
1.0
 23
0.0
 33
0.0
 40
0.0
 40
0.0
 40
0.0
 40
0.0
 40
1.0
 40
1.0
 40
1.0
 40
2.0
 40
2.0
 40
2.0
 40
3.0
 40
3.0
 40
3.0
 40
4.0
 40
4.0
 40
4.0
 40
4.0
 10
104.1820837309825
 20
-116.9837216374207
 30
0.0
 10
104.1820837309825
 20
-116.9286177485458
 30
0.0
 10
104.1373162321246
 20
-116.8838149707791
 30
0.0
 10
104.0818595668728
 20
-116.8838149707791
 30
0.0
 10
104.0267204016128
 20
-116.8838149707791
 30
0.0
 10
103.9819555295602
 20
-116.9286177485458
 30
0.0
 10
103.9819555295602
 20
-116.9837216374207
 30
0.0
 10
103.9819555295602
 20
-117.0388608040738
 30
0.0
 10
104.0267204016128
 20
-117.0836283040623
 30
0.0
 10
104.0818595668728
 20
-117.0836283040623
 30
0.0
 10
104.1373162321246
 20
-117.0836283040623
 30
0.0
 10
104.1820837309825
 20
-117.0388608040738
 30
0.0
 10
104.1820837309825
 20
-116.9837216374207
 30
0.0
  0
SPLINE
  5
E3
330
4B
100
AcDbEntity
  8
_U+30EC_U+30A4_U+30E4_U+30FC 1
 62
   179
420
  2234388
370
     9
100
AcDbSpline
210
0.0
220
0.0
230
1.0
 70
    11
 71
     3
 72
    17
 73
    13
 74
     0
 42
0.0000000001
 43
0.0000000001
 12
1.0
 22
0.0
 32
0.0
 13
1.0
 23
0.0
 33
0.0
 40
0.0
 40
0.0
 40
0.0
 40
0.0
 40
1.0
 40
1.0
 40
1.0
 40
2.0
 40
2.0
 40
2.0
 40
3.0
 40
3.0
 40
3.0
 40
4.0
 40
4.0
 40
4.0
 40
4.0
 10
106.1819809021831
 20
-141.9840949645038
 30
0.0
 10
106.1819809021831
 20
-141.9289910756289
 30
0.0
 10
106.1371781255483
 20
-141.8841882978622
 30
0.0
 10
106.0820742380653
 20
-141.8841882978622
 30
0.0
 10
106.0269350728053
 20
-141.8841882978622
 30
0.0
 10
105.9821675739474
 20
-141.9289910756289
 30
0.0
 10
105.9821675739474
 20
-141.9840949645038
 30
0.0
 10
105.9821675739474
 20
-142.0392341311569
 30
0.0
 10
106.0269350728053
 20
-142.0840016311455
 30
0.0
 10
106.0820742380653
 20
-142.0840016311455
 30
0.0
 10
106.1371781255483
 20
-142.0840016311455
 30
0.0
 10
106.1819809021831
 20
-142.0392341311569
 30
0.0
 10
106.1819809021831
 20
-141.9840949645038
 30
0.0
  0
SPLINE
  5
E4
330
4B
100
AcDbEntity
  8
_U+30EC_U+30A4_U+30E4_U+30FC 1
 62
   179
420
  2234388
370
     9
100
AcDbSpline
210
0.0
220
0.0
230
1.0
 70
    11
 71
     3
 72
    17
 73
    13
 74
     0
 42
0.0000000001
 43
0.0000000001
 12
1.0
 22
0.0
 32
0.0
 13
1.0
 23
0.0
 33
0.0
 40
0.0
 40
0.0
 40
0.0
 40
0.0
 40
1.0
 40
1.0
 40
1.0
 40
2.0
 40
2.0
 40
2.0
 40
3.0
 40
3.0
 40
3.0
 40
4.0
 40
4.0
 40
4.0
 40
4.0
 10
101.1820968630741
 20
-141.9840949645038
 30
0.0
 10
101.1820968630741
 20
-141.9289910756289
 30
0.0
 10
101.1373293642162
 20
-141.8841882978622
 30
0.0
 10
101.0818726989644
 20
-141.8841882978622
 30
0.0
 10
101.0267360858544
 20
-141.8841882978622
 30
0.0
 10
100.9819333080877
 20
-141.9289910756289
 30
0.0
 10
100.9819333080877
 20
-141.9840949645038
 30
0.0
 10
100.9819333080877
 20
-142.0392341311569
 30
0.0
 10
101.0267360858544
 20
-142.0840016311455
 30
0.0
 10
101.0818726989644
 20
-142.0840016311455
 30
0.0
 10
101.1373293642162
 20
-142.0840016311455
 30
0.0
 10
101.1820968630741
 20
-142.0392341311569
 30
0.0
 10
101.1820968630741
 20
-141.9840949645038
 30
0.0
  0
SPLINE
  5
E5
330
4B
100
AcDbEntity
  8
_U+30EC_U+30A4_U+30E4_U+30FC 1
 62
   179
420
  2234388
370
     9
100
AcDbSpline
210
0.0
220
0.0
230
1.0
 70
    11
 71
     3
 72
    17
 73
    13
 74
     0
 42
0.0000000001
 43
0.0000000001
 12
1.0
 22
0.0
 32
0.0
 13
1.0
 23
0.0
 33
0.0
 40
0.0
 40
0.0
 40
0.0
 40
0.0
 40
1.0
 40
1.0
 40
1.0
 40
2.0
 40
2.0
 40
2.0
 40
3.0
 40
3.0
 40
3.0
 40
4.0
 40
4.0
 40
4.0
 40
4.0
 10
93.18190845606479
 20
-141.9840949645038
 30
0.0
 10
93.18190845606479
 20
-141.9289910756289
 30
0.0
 10
93.13710567943004
 20
-141.8841882978622
 30
0.0
 10
93.08200179194696
 20
-141.8841882978622
 30
0.0
 10
93.026862626687
 20
-141.8841882978622
 30
0.0
 10
92.98209512782913
 20
-141.9289910756289
 30
0.0
 10
92.98209512782913
 20
-141.9840949645038
 30
0.0
 10
92.98209512782913
 20
-142.0392341311569
 30
0.0
 10
93.026862626687
 20
-142.0840016311455
 30
0.0
 10
93.08200179194696
 20
-142.0840016311455
 30
0.0
 10
93.13710567943004
 20
-142.0840016311455
 30
0.0
 10
93.18190845606479
 20
-142.0392341311569
 30
0.0
 10
93.18190845606479
 20
-141.9840949645038
 30
0.0
  0
SPLINE
  5
E6
330
4B
100
AcDbEntity
  8
_U+30EC_U+30A4_U+30E4_U+30FC 1
 62
   179
420
  2234388
370
     9
100
AcDbSpline
210
0.0
220
0.0
230
1.0
 70
    11
 71
     3
 72
    17
 73
    13
 74
     0
 42
0.0000000001
 43
0.0000000001
 12
1.0
 22
0.0
 32
0.0
 13
1.0
 23
0.0
 33
0.0
 40
0.0
 40
0.0
 40
0.0
 40
0.0
 40
1.0
 40
1.0
 40
1.0
 40
2.0
 40
2.0
 40
2.0
 40
3.0
 40
3.0
 40
3.0
 40
4.0
 40
4.0
 40
4.0
 40
4.0
 10
83.18217775698237
 20
-141.9840949645038
 30
0.0
 10
83.18217775698237
 20
-141.9289910756289
 30
0.0
 10
83.13737497921565
 20
-141.8841882978622
 30
0.0
 10
83.08191621373706
 20
-141.8841882978622
 30
0.0
 10
83.02681232625399
 20
-141.8841882978622
 30
0.0
 10
82.98200954961924
 20
-141.9289910756289
 30
0.0
 10
82.98200954961924
 20
-141.9840949645038
 30
0.0
 10
82.98200954961924
 20
-142.0392341311569
 30
0.0
 10
83.02681232625399
 20
-142.0840016311455
 30
0.0
 10
83.08191621373706
 20
-142.0840016311455
 30
0.0
 10
83.13737497921565
 20
-142.0840016311455
 30
0.0
 10
83.18217775698237
 20
-142.0392341311569
 30
0.0
 10
83.18217775698237
 20
-141.9840949645038
 30
0.0
  0
SPLINE
  5
E7
330
4B
100
AcDbEntity
  8
_U+30EC_U+30A4_U+30E4_U+30FC 1
 62
   179
420
  2234388
370
    25
100
AcDbSpline
210
0.0
220
0.0
230
1.0
 70
     8
 71
     3
 72
     8
 73
     4
 74
     0
 42
0.0000000001
 43
0.0000000001
 12
1.0
 22
0.0
 32
0.0
 13
1.0
 23
0.0
 33
0.0
 40
0.0
 40
0.0
 40
0.0
 40
0.0
 40
1.0
 40
1.0
 40
1.0
 40
1.0
 10
103.0820873701569
 20
-126.2338019128859
 30
0.0
 10
103.0820873701569
 20
-125.9575063573995
 30
0.0
 10
102.8581440425368
 20
-125.7335983019
 30
0.0
 10
102.5818484940301
 20
-125.7335983019
 30
0.0
  0
SPLINE
  5
E8
330
4B
100
AcDbEntity
  8
_U+30EC_U+30A4_U+30E4_U+30FC 1
 62
   179
420
  2234388
370
    25
100
AcDbSpline
210
0.0
220
0.0
230
1.0
 70
     8
 71
     3
 72
     8
 73
     4
 74
     0
 42
0.0000000001
 43
0.0000000001
 12
1.0
 22
0.0
 32
0.0
 13
1.0
 23
0.0
 33
0.0
 40
0.0
 40
0.0
 40
0.0
 40
0.0
 40
1.0
 40
1.0
 40
1.0
 40
1.0
 10
91.08210462074636
 20
-125.7335983019
 30
0.0
 10
90.8058090722397
 20
-125.7335983019
 30
0.0
 10
90.58190102239651
 20
-125.9575063573995
 30
0.0
 10
90.58190102239651
 20
-126.2338019128859
 30
0.0
  0
SPLINE
  5
E9
330
4B
100
AcDbEntity
  8
_U+30EC_U+30A4_U+30E4_U+30FC 1
 62
   179
420
  2234388
370
    25
100
AcDbSpline
210
0.0
220
0.0
230
1.0
 70
     8
 71
     3
 72
     8
 73
     4
 74
     0
 42
0.0000000001
 43
0.0000000001
 12
1.0
 22
0.0
 32
0.0
 13
1.0
 23
0.0
 33
0.0
 40
0.0
 40
0.0
 40
0.0
 40
0.0
 40
1.0
 40
1.0
 40
1.0
 40
1.0
 10
92.35337458831357
 20
-125.880353857419
 30
0.0
 10
92.25964153514934
 20
-125.7866208018865
 30
0.0
 10
92.13253570505874
 20
-125.7335983019
 30
0.0
 10
91.99989126399835
 20
-125.7335983019
 30
0.0
  0
SPLINE
  5
EA
330
4B
100
AcDbEntity
  8
_U+30EC_U+30A4_U+30E4_U+30FC 1
 62
   179
420
  2234388
370
    25
100
AcDbSpline
210
0.0
220
0.0
230
1.0
 70
     8
 71
     3
 72
     8
 73
     4
 74
     0
 42
0.0000000001
 43
0.0000000001
 12
1.0
 22
0.0
 32
0.0
 13
1.0
 23
0.0
 33
0.0
 40
0.0
 40
0.0
 40
0.0
 40
0.0
 40
1.0
 40
1.0
 40
1.0
 40
1.0
 10
101.6640618507781
 20
-125.7335983019
 30
0.0
 10
101.5314526874946
 20
-125.7335983019
 30
0.0
 10
101.4043115796271
 20
-125.7866208018865
 30
0.0
 10
101.3106138042398
 20
-125.880353857419
 30
0.0
  0
SPLINE
  5
EB
330
4B
100
AcDbEntity
  8
_U+30EC_U+30A4_U+30E4_U+30FC 1
 62
   179
420
  2234388
370
    25
100
AcDbSpline
210
0.0
220
0.0
230
1.0
 70
     8
 71
     3
 72
     8
 73
     4
 74
     0
 42
0.0000000001
 43
0.0000000001
 12
1.0
 22
0.0
 32
0.0
 13
1.0
 23
0.0
 33
0.0
 40
0.0
 40
0.0
 40
0.0
 40
0.0
 40
1.0
 40
1.0
 40
1.0
 40
1.0
 10
89.26724164434992
 20
-133.0371919111855
 30
0.0
 10
89.02160022886977
 20
-132.8649305223393
 30
0.0
 10
88.74738606919888
 20
-132.7381421890379
 30
0.0
 10
88.45694413216424
 20
-132.6630358001676
 30
0.0
  0
SPLINE
  5
EC
330
4B
100
AcDbEntity
  8
_U+30EC_U+30A4_U+30E4_U+30FC 1
 62
   179
420
  2234388
370
    25
100
AcDbSpline
210
0.0
220
0.0
230
1.0
 70
     8
 71
     3
 72
    11
 73
     7
 74
     0
 42
0.0000000001
 43
0.0000000001
 12
1.0
 22
0.0
 32
0.0
 13
1.0
 23
0.0
 33
0.0
 40
0.0
 40
0.0
 40
0.0
 40
0.0
 40
1.0
 40
1.0
 40
1.0
 40
2.0
 40
2.0
 40
2.0
 40
2.0
 10
89.26724164434992
 20
-133.0371919111855
 30
0.0
 10
89.35751522029986
 20
-133.1005860778359
 30
0.0
 10
89.48222216156277
 20
-133.0785374667303
 30
0.0
 10
89.54561632661212
 20
-132.9882616334195
 30
0.0
 10
89.56939354822774
 20
-132.9545008000946
 30
0.0
 10
89.5821288256806
 20
-132.9145310778827
 30
0.0
 10
89.5821288256806
 20
-132.8731855223373
 30
0.0
  0
SPLINE
  5
ED
330
4B
100
AcDbEntity
  8
_U+30EC_U+30A4_U+30E4_U+30FC 1
 62
   179
420
  2234388
370
    25
100
AcDbSpline
210
0.0
220
0.0
230
1.0
 70
     8
 71
     3
 72
    11
 73
     7
 74
     0
 42
0.0000000001
 43
0.0000000001
 12
1.0
 22
0.0
 32
0.0
 13
1.0
 23
0.0
 33
0.0
 40
0.0
 40
0.0
 40
0.0
 40
0.0
 40
1.0
 40
1.0
 40
1.0
 40
2.0
 40
2.0
 40
2.0
 40
2.0
 10
85.73431114606883
 20
-136.9838932990877
 30
0.0
 10
85.84487169880376
 20
-136.9838932990877
 30
0.0
 10
85.93447725207328
 20
-136.8943230213318
 30
0.0
 10
85.93447725207328
 20
-136.7840799658038
 30
0.0
 10
85.93447725207328
 20
-136.7379013547041
 30
0.0
 10
85.91860225247828
 20
-136.693804132493
 30
0.0
 10
85.88967447543851
 20
-136.6579971880579
 30
0.0
  0
INSERT
  5
EF
330
4B
100
AcDbEntity
  8
_U+30EC_U+30A4_U+30E4_U+30FC 1
100
AcDbBlockReference
  2
block 5
 10
0.0
 20
0.0
 30
0.0
  0
INSERT
  5
133
330
4B
100
AcDbEntity
  8
_U+30EC_U+30A4_U+30E4_U+30FC 1
100
AcDbBlockReference
  2
block 10
 10
0.0
 20
0.0
 30
0.0
  0
INSERT
  5
15B
330
4B
100
AcDbEntity
  8
_U+30EC_U+30A4_U+30E4_U+30FC 1
100
AcDbBlockReference
  2
block 15
 10
0.0
 20
0.0
 30
0.0
  0
INSERT
  5
182
330
4B
100
AcDbEntity
  8
_U+30EC_U+30A4_U+30E4_U+30FC 1
100
AcDbBlockReference
  2
block 20
 10
0.0
 20
0.0
 30
0.0
  0
INSERT
  5
1A3
330
4B
100
AcDbEntity
  8
_U+30EC_U+30A4_U+30E4_U+30FC 1
100
AcDbBlockReference
  2
block 25
 10
0.0
 20
0.0
 30
0.0
  0
INSERT
  5
1DB
330
4B
100
AcDbEntity
  8
_U+30EC_U+30A4_U+30E4_U+30FC 1
100
AcDbBlockReference
  2
block 30
 10
0.0
 20
0.0
 30
0.0
  0
ENDBLK
  5
4E
330
4B
100
AcDbEntity
  8
0
100
AcDbBlockEnd
  0
BLOCK
  5
F0
330
EE
100
AcDbEntity
  8
0
100
AcDbBlockBegin
  2
block 5
 70
     0
 10
0.0
 20
0.0
 30
0.0
  3
block 5
  1

  0
POLYLINE
  5
F2
330
EE
100
AcDbEntity
  8
_U+30EC_U+30A4_U+30E4_U+30FC 1
 62
   179
420
  2234388
370
     9
100
AcDb2dPolyline
 66
     1
 10
0.0
 20
0.0
 30
0.0
  0
VERTEX
  5
F3
330
F2
100
AcDbEntity
  8
_U+30EC_U+30A4_U+30E4_U+30FC 1
 62
   179
420
  2234388
370
     9
100
AcDbVertex
100
AcDb2dVertex
 10
89.5821288256806
 20
-116.9837216374207
 30
0.0
  0
VERTEX
  5
F4
330
F2
100
AcDbEntity
  8
_U+30EC_U+30A4_U+30E4_U+30FC 1
 62
   179
420
  2234388
370
     9
100
AcDbVertex
100
AcDb2dVertex
 10
104.0818595668728
 20
-116.9837216374207
 30
0.0
  0
SEQEND
  5
F5
330
F2
100
AcDbEntity
  8
_U+30EC_U+30A4_U+30E4_U+30FC 1
 62
   179
420
  2234388
370
     9
  0
POLYLINE
  5
F6
330
EE
100
AcDbEntity
  8
_U+30EC_U+30A4_U+30E4_U+30FC 1
 62
   179
420
  2234388
370
     9
100
AcDb2dPolyline
 66
     1
 10
0.0
 20
0.0
 30
0.0
  0
VERTEX
  5
F7
330
F6
100
AcDbEntity
  8
_U+30EC_U+30A4_U+30E4_U+30FC 1
 62
   179
420
  2234388
370
     9
100
AcDbVertex
100
AcDb2dVertex
 10
89.5821288256806
 20
-118.4437630259447
 30
0.0
  0
VERTEX
  5
F8
330
F6
100
AcDbEntity
  8
_U+30EC_U+30A4_U+30E4_U+30FC 1
 62
   179
420
  2234388
370
     9
100
AcDbVertex
100
AcDb2dVertex
 10
89.5821288256806
 20
-115.9839494154485
 30
0.0
  0
SEQEND
  5
F9
330
F6
100
AcDbEntity
  8
_U+30EC_U+30A4_U+30E4_U+30FC 1
 62
   179
420
  2234388
370
     9
  0
POLYLINE
  5
FA
330
EE
100
AcDbEntity
  8
_U+30EC_U+30A4_U+30E4_U+30FC 1
 62
   179
420
  2234388
370
     9
100
AcDb2dPolyline
 66
     1
 10
0.0
 20
0.0
 30
0.0
  0
VERTEX
  5
FB
330
FA
100
AcDbEntity
  8
_U+30EC_U+30A4_U+30E4_U+30FC 1
 62
   179
420
  2234388
370
     9
100
AcDbVertex
100
AcDb2dVertex
 10
104.0818595668728
 20
-118.4437630259447
 30
0.0
  0
VERTEX
  5
FC
330
FA
100
AcDbEntity
  8
_U+30EC_U+30A4_U+30E4_U+30FC 1
 62
   179
420
  2234388
370
     9
100
AcDbVertex
100
AcDb2dVertex
 10
104.0818595668728
 20
-115.9839494154485
 30
0.0
  0
SEQEND
  5
FD
330
FA
100
AcDbEntity
  8
_U+30EC_U+30A4_U+30E4_U+30FC 1
 62
   179
420
  2234388
370
     9
  0
INSERT
  5
FF
330
EE
100
AcDbEntity
  8
_U+30EC_U+30A4_U+30E4_U+30FC 1
100
AcDbBlockReference
  2
block 6
 10
0.0
 20
0.0
 30
0.0
  0
INSERT
  5
124
330
EE
100
AcDbEntity
  8
_U+30EC_U+30A4_U+30E4_U+30FC 1
100
AcDbBlockReference
  2
block 7
 10
0.0
 20
0.0
 30
0.0
  0
INSERT
  5
129
330
EE
100
AcDbEntity
  8
_U+30EC_U+30A4_U+30E4_U+30FC 1
100
AcDbBlockReference
  2
block 8
 10
0.0
 20
0.0
 30
0.0
  0
INSERT
  5
12E
330
EE
100
AcDbEntity
  8
_U+30EC_U+30A4_U+30E4_U+30FC 1
100
AcDbBlockReference
  2
block 9
 10
0.0
 20
0.0
 30
0.0
  0
ENDBLK
  5
F1
330
EE
100
AcDbEntity
  8
0
100
AcDbBlockEnd
  0
BLOCK
  5
100
330
FE
100
AcDbEntity
  8
0
100
AcDbBlockBegin
  2
block 6
 70
     0
 10
0.0
 20
0.0
 30
0.0
  3
block 6
  1

  0
SPLINE
  5
102
330
FE
100
AcDbEntity
  8
_U+30EC_U+30A4_U+30E4_U+30FC 1
370
     0
100
AcDbSpline
210
0.0
220
0.0
230
1.0
 70
    11
 71
     3
 72
    26
 73
    22
 74
     0
 42
0.0000000001
 43
0.0000000001
 12
1.0
 22
0.0
 32
0.0
 13
1.0
 23
0.0
 33
0.0
 40
0.0
 40
0.0
 40
0.0
 40
0.0
 40
1.0
 40
1.0
 40
1.0
 40
2.0
 40
2.0
 40
2.0
 40
3.0
 40
3.0
 40
3.0
 40
4.0
 40
4.0
 40
4.0
 40
5.0
 40
5.0
 40
5.0
 40
6.0
 40
6.0
 40
6.0
 40
7.0
 40
7.0
 40
7.0
 40
7.0
 10
95.33199324873645
 20
-116.6114867872534
 30
0.0
 10
95.33199324873645
 20
-116.6114867872534
 30
0.0
 10
95.33199324873645
 20
-115.5071614294565
 30
0.0
 10
95.33199324873645
 20
-115.5071614294565
 30
0.0
 10
95.33199324873645
 20
-115.5071614294565
 30
0.0
 10
95.00195310124951
 20
-115.5071614294565
 30
0.0
 10
95.00195310124951
 20
-115.5071614294565
 30
0.0
 10
95.00195310124951
 20
-115.5071614294565
 30
0.0
 10
95.00195310124951
 20
-115.3591945783651
 30
0.0
 10
95.00195310124951
 20
-115.3591945783651
 30
0.0
 10
95.3340603060276
 20
-115.3443806677785
 30
0.0
 10
95.38056909507847
 20
-115.1814276513262
 30
0.0
 10
95.41019691625162
 20
-115.0672227359901
 30
0.0
 10
95.41019691625162
 20
-115.0672227359901
 30
0.0
 10
95.55626896482622
 20
-115.0672227359901
 30
0.0
 10
95.55626896482622
 20
-115.0672227359901
 30
0.0
 10
95.55626896482622
 20
-115.0672227359901
 30
0.0
 10
95.55626896482622
 20
-116.6114867872534
 30
0.0
 10
95.55626896482622
 20
-116.6114867872534
 30
0.0
 10
95.55626896482622
 20
-116.6114867872534
 30
0.0
 10
95.33199324873645
 20
-116.6114867872534
 30
0.0
 10
95.33199324873645
 20
-116.6114867872534
 30
0.0
  0
HATCH
  5
103
330
FE
100
AcDbEntity
  8
_U+30EC_U+30A4_U+30E4_U+30FC 1
 62
   179
420
  2234388
100
AcDbHatch
 10
0.0
 20
0.0
 30
0.0
210
0.0
220
0.0
230
1.0
  2
SOLID
 70
     1
 71
     0
 91
        1
 92
        1
 93
        1
 72
     4
 94
        3
 73
     0
 74
     1
 95
       26
 96
       22
 40
0.0
 40
0.0
 40
0.0
 40
0.0
 40
1.0
 40
1.0
 40
1.0
 40
2.0
 40
2.0
 40
2.0
 40
3.0
 40
3.0
 40
3.0
 40
4.0
 40
4.0
 40
4.0
 40
5.0
 40
5.0
 40
5.0
 40
6.0
 40
6.0
 40
6.0
 40
7.0
 40
7.0
 40
7.0
 40
7.0
 10
95.33199324873645
 20
-116.6114867872534
 10
95.33199324873645
 20
-116.6114867872534
 10
95.33199324873645
 20
-115.5071614294565
 10
95.33199324873645
 20
-115.5071614294565
 10
95.33199324873645
 20
-115.5071614294565
 10
95.00195310124951
 20
-115.5071614294565
 10
95.00195310124951
 20
-115.5071614294565
 10
95.00195310124951
 20
-115.5071614294565
 10
95.00195310124951
 20
-115.3591945783651
 10
95.00195310124951
 20
-115.3591945783651
 10
95.3340603060276
 20
-115.3443806677785
 10
95.38056909507847
 20
-115.1814276513262
 10
95.41019691625162
 20
-115.0672227359901
 10
95.41019691625162
 20
-115.0672227359901
 10
95.55626896482622
 20
-115.0672227359901
 10
95.55626896482622
 20
-115.0672227359901
 10
95.55626896482622
 20
-115.0672227359901
 10
95.55626896482622
 20
-116.6114867872534
 10
95.55626896482622
 20
-116.6114867872534
 10
95.55626896482622
 20
-116.6114867872534
 10
95.33199324873645
 20
-116.6114867872534
 10
95.33199324873645
 20
-116.6114867872534
 97
        0
 97
        0
 75
     2
 76
     1
 98
        0
  0
POLYLINE
  5
104
330
FE
100
AcDbEntity
  8
_U+30EC_U+30A4_U+30E4_U+30FC 1
370
     0
100
AcDb2dPolyline
 66
     1
 10
0.0
 20
0.0
 30
0.0
  0
VERTEX
  5
105
330
104
100
AcDbEntity
  8
_U+30EC_U+30A4_U+30E4_U+30FC 1
370
     0
100
AcDbVertex
100
AcDb2dVertex
 10
96.88986542716643
 20
-116.2645656718887
 30
0.0
  0
VERTEX
  5
106
330
104
100
AcDbEntity
  8
_U+30EC_U+30A4_U+30E4_U+30FC 1
370
     0
100
AcDbVertex
100
AcDb2dVertex
 10
96.88986542716643
 20
-116.6114867872534
 30
0.0
  0
VERTEX
  5
107
330
104
100
AcDbEntity
  8
_U+30EC_U+30A4_U+30E4_U+30FC 1
370
     0
100
AcDbVertex
100
AcDb2dVertex
 10
96.6717908829501
 20
-116.6114867872534
 30
0.0
  0
VERTEX
  5
108
330
104
100
AcDbEntity
  8
_U+30EC_U+30A4_U+30E4_U+30FC 1
370
     0
100
AcDbVertex
100
AcDb2dVertex
 10
96.6717908829501
 20
-116.2645656718887
 30
0.0
  0
VERTEX
  5
109
330
104
100
AcDbEntity
  8
_U+30EC_U+30A4_U+30E4_U+30FC 1
370
     0
100
AcDbVertex
100
AcDb2dVertex
 10
96.01584470255854
 20
-116.2645656718887
 30
0.0
  0
VERTEX
  5
10A
330
104
100
AcDbEntity
  8
_U+30EC_U+30A4_U+30E4_U+30FC 1
370
     0
100
AcDbVertex
100
AcDb2dVertex
 10
96.01584470255854
 20
-116.040289955799
 30
0.0
  0
VERTEX
  5
10B
330
104
100
AcDbEntity
  8
_U+30EC_U+30A4_U+30E4_U+30FC 1
370
     0
100
AcDbVertex
100
AcDb2dVertex
 10
96.69521753224981
 20
-115.0672227359901
 30
0.0
  0
VERTEX
  5
10C
330
104
100
AcDbEntity
  8
_U+30EC_U+30A4_U+30E4_U+30FC 1
370
     0
100
AcDbVertex
100
AcDb2dVertex
 10
96.88986542716643
 20
-115.0672227359901
 30
0.0
  0
VERTEX
  5
10D
330
104
100
AcDbEntity
  8
_U+30EC_U+30A4_U+30E4_U+30FC 1
370
     0
100
AcDbVertex
100
AcDb2dVertex
 10
96.88986542716643
 20
-116.0657836623898
 30
0.0
  0
VERTEX
  5
10E
330
104
100
AcDbEntity
  8
_U+30EC_U+30A4_U+30E4_U+30FC 1
370
     0
100
AcDbVertex
100
AcDb2dVertex
 10
97.09691566582994
 20
-116.0657836623898
 30
0.0
  0
VERTEX
  5
10F
330
104
100
AcDbEntity
  8
_U+30EC_U+30A4_U+30E4_U+30FC 1
370
     0
100
AcDbVertex
100
AcDb2dVertex
 10
97.09691566582994
 20
-116.2645656718887
 30
0.0
  0
VERTEX
  5
110
330
104
100
AcDbEntity
  8
_U+30EC_U+30A4_U+30E4_U+30FC 1
370
     0
100
AcDbVertex
100
AcDb2dVertex
 10
96.88986542716643
 20
-116.2645656718887
 30
0.0
  0
SEQEND
  5
111
330
104
100
AcDbEntity
  8
_U+30EC_U+30A4_U+30E4_U+30FC 1
370
     0
  0
POLYLINE
  5
112
330
FE
100
AcDbEntity
  8
_U+30EC_U+30A4_U+30E4_U+30FC 1
370
     0
100
AcDb2dPolyline
 66
     1
 10
0.0
 20
0.0
 30
0.0
  0
VERTEX
  5
113
330
112
100
AcDbEntity
  8
_U+30EC_U+30A4_U+30E4_U+30FC 1
370
     0
100
AcDbVertex
100
AcDb2dVertex
 10
96.6717908829501
 20
-115.4098374819982
 30
0.0
  0
VERTEX
  5
114
330
112
100
AcDbEntity
  8
_U+30EC_U+30A4_U+30E4_U+30FC 1
370
     0
100
AcDbVertex
100
AcDb2dVertex
 10
96.21497122160598
 20
-116.0657836623898
 30
0.0
  0
VERTEX
  5
115
330
112
100
AcDbEntity
  8
_U+30EC_U+30A4_U+30E4_U+30FC 1
370
     0
100
AcDbVertex
100
AcDb2dVertex
 10
96.6717908829501
 20
-116.0657836623898
 30
0.0
  0
VERTEX
  5
116
330
112
100
AcDbEntity
  8
_U+30EC_U+30A4_U+30E4_U+30FC 1
370
     0
100
AcDbVertex
100
AcDb2dVertex
 10
96.6717908829501
 20
-115.4098374819982
 30
0.0
  0
SEQEND
  5
117
330
112
100
AcDbEntity
  8
_U+30EC_U+30A4_U+30E4_U+30FC 1
370
     0
  0
HATCH
  5
118
330
FE
100
AcDbEntity
  8
_U+30EC_U+30A4_U+30E4_U+30FC 1
 62
   179
420
  2234388
100
AcDbHatch
 10
0.0
 20
0.0
 30
0.0
210
0.0
220
0.0
230
1.0
  2
SOLID
 70
     1
 71
     0
 91
        2
 92
        1
 93
       11
 72
     1
 10
96.88986542716643
 20
-116.2645656718887
 11
96.88986542716643
 21
-116.6114867872534
 72
     1
 10
96.88986542716643
 20
-116.6114867872534
 11
96.6717908829501
 21
-116.6114867872534
 72
     1
 10
96.6717908829501
 20
-116.6114867872534
 11
96.6717908829501
 21
-116.2645656718887
 72
     1
 10
96.6717908829501
 20
-116.2645656718887
 11
96.01584470255854
 21
-116.2645656718887
 72
     1
 10
96.01584470255854
 20
-116.2645656718887
 11
96.01584470255854
 21
-116.040289955799
 72
     1
 10
96.01584470255854
 20
-116.040289955799
 11
96.69521753224981
 21
-115.0672227359901
 72
     1
 10
96.69521753224981
 20
-115.0672227359901
 11
96.88986542716643
 21
-115.0672227359901
 72
     1
 10
96.88986542716643
 20
-115.0672227359901
 11
96.88986542716643
 21
-116.0657836623898
 72
     1
 10
96.88986542716643
 20
-116.0657836623898
 11
97.09691566582994
 21
-116.0657836623898
 72
     1
 10
97.09691566582994
 20
-116.0657836623898
 11
97.09691566582994
 21
-116.2645656718887
 72
     1
 10
97.09691566582994
 20
-116.2645656718887
 11
96.88986542716643
 21
-116.2645656718887
 97
        0
 92
        1
 93
        3
 72
     1
 10
96.6717908829501
 20
-115.4098374819982
 11
96.21497122160598
 21
-116.0657836623898
 72
     1
 10
96.21497122160598
 20
-116.0657836623898
 11
96.6717908829501
 21
-116.0657836623898
 72
     1
 10
96.6717908829501
 20
-116.0657836623898
 11
96.6717908829501
 21
-115.4098374819982
 97
        0
 75
     2
 76
     1
 98
        0
  0
POLYLINE
  5
119
330
FE
100
AcDbEntity
  8
_U+30EC_U+30A4_U+30E4_U+30FC 1
370
     0
100
AcDb2dPolyline
 66
     1
 10
0.0
 20
0.0
 30
0.0
  0
VERTEX
  5
11A
330
119
100
AcDbEntity
  8
_U+30EC_U+30A4_U+30E4_U+30FC 1
370
     0
100
AcDbVertex
100
AcDb2dVertex
 10
97.29431963713476
 20
-116.6114867872534
 30
0.0
  0
VERTEX
  5
11B
330
119
100
AcDbEntity
  8
_U+30EC_U+30A4_U+30E4_U+30FC 1
370
     0
100
AcDbVertex
100
AcDb2dVertex
 10
97.29431963713476
 20
-116.3598225620559
 30
0.0
  0
VERTEX
  5
11C
330
119
100
AcDbEntity
  8
_U+30EC_U+30A4_U+30E4_U+30FC 1
370
     0
100
AcDbVertex
100
AcDb2dVertex
 10
97.54615611710652
 20
-116.3598225620559
 30
0.0
  0
VERTEX
  5
11D
330
119
100
AcDbEntity
  8
_U+30EC_U+30A4_U+30E4_U+30FC 1
370
     0
100
AcDbVertex
100
AcDb2dVertex
 10
97.54615611710652
 20
-116.6114867872534
 30
0.0
  0
VERTEX
  5
11E
330
119
100
AcDbEntity
  8
_U+30EC_U+30A4_U+30E4_U+30FC 1
370
     0
100
AcDbVertex
100
AcDb2dVertex
 10
97.29431963713476
 20
-116.6114867872534
 30
0.0
  0
SEQEND
  5
11F
330
119
100
AcDbEntity
  8
_U+30EC_U+30A4_U+30E4_U+30FC 1
370
     0
  0
HATCH
  5
120
330
FE
100
AcDbEntity
  8
_U+30EC_U+30A4_U+30E4_U+30FC 1
 62
   179
420
  2234388
100
AcDbHatch
 10
0.0
 20
0.0
 30
0.0
210
0.0
220
0.0
230
1.0
  2
SOLID
 70
     1
 71
     0
 91
        1
 92
        1
 93
        4
 72
     1
 10
97.29431963713476
 20
-116.6114867872534
 11
97.29431963713476
 21
-116.3598225620559
 72
     1
 10
97.29431963713476
 20
-116.3598225620559
 11
97.54615611710652
 21
-116.3598225620559
 72
     1
 10
97.54615611710652
 20
-116.3598225620559
 11
97.54615611710652
 21
-116.6114867872534
 72
     1
 10
97.54615611710652
 20
-116.6114867872534
 11
97.29431963713476
 21
-116.6114867872534
 97
        0
 75
     2
 76
     1
 98
        0
  0
SPLINE
  5
121
330
FE
100
AcDbEntity
  8
_U+30EC_U+30A4_U+30E4_U+30FC 1
370
     0
100
AcDbSpline
210
0.0
220
0.0
230
1.0
 70
    11
 71
     3
 72
    53
 73
    49
 74
     0
 42
0.0000000001
 43
0.0000000001
 12
1.0
 22
0.0
 32
0.0
 13
1.0
 23
0.0
 33
0.0
 40
0.0
 40
0.0
 40
0.0
 40
0.0
 40
1.0
 40
1.0
 40
1.0
 40
2.0
 40
2.0
 40
2.0
 40
3.0
 40
3.0
 40
3.0
 40
4.0
 40
4.0
 40
4.0
 40
5.0
 40
5.0
 40
5.0
 40
6.0
 40
6.0
 40
6.0
 40
7.0
 40
7.0
 40
7.0
 40
8.0
 40
8.0
 40
8.0
 40
9.0
 40
9.0
 40
9.0
 40
10.0
 40
10.0
 40
10.0
 40
11.0
 40
11.0
 40
11.0
 40
12.0
 40
12.0
 40
12.0
 40
13.0
 40
13.0
 40
13.0
 40
14.0
 40
14.0
 40
14.0
 40
15.0
 40
15.0
 40
15.0
 40
16.0
 40
16.0
 40
16.0
 40
16.0
 10
98.26342499713553
 20
-116.6623019456608
 30
0.0
 10
98.18522132962036
 20
-116.6623019456608
 30
0.0
 10
98.08393552235403
 20
-116.6454209777831
 30
0.0
 10
97.98230520553915
 20
-116.5818589660802
 30
0.0
 10
97.80867239308256
 20
-116.4719604201008
 30
0.0
 10
97.78765731062254
 20
-116.3407022821127
 30
0.0
 10
97.76870928545367
 20
-116.2328707934244
 30
0.0
 10
97.76870928545367
 20
-116.2328707934244
 30
0.0
 10
97.99057343470375
 20
-116.2328707934244
 30
0.0
 10
97.99057343470375
 20
-116.2328707934244
 30
0.0
 10
98.04569496246775
 20
-116.4316528029233
 30
0.0
 10
98.17247447632494
 20
-116.4612806240965
 30
0.0
 10
98.26583656397521
 20
-116.4612806240965
 30
0.0
 10
98.40536293112783
 20
-116.4612806240965
 30
0.0
 10
98.55763615157588
 20
-116.361889619347
 30
0.0
 10
98.55763615157588
 20
-116.1291734193184
 30
0.0
 10
98.55763615157588
 20
-115.8732028247643
 30
0.0
 10
98.37780216724583
 20
-115.803439641188
 30
0.0
 10
98.25722382526209
 20
-115.803439641188
 30
0.0
 10
98.2255289467978
 20
-115.803439641188
 30
0.0
 10
98.08393552235403
 20
-115.803439641188
 30
0.0
 10
97.99505205883457
 20
-115.9324584671106
 30
0.0
 10
97.99505205883457
 20
-115.9324584671106
 30
0.0
 10
97.81935218908683
 20
-115.9133381871675
 30
0.0
 10
97.81935218908683
 20
-115.9133381871675
 30
0.0
 10
97.81935218908683
 20
-115.9133381871675
 30
0.0
 10
97.93993053107057
 20
-115.0672227359901
 30
0.0
 10
97.93993053107057
 20
-115.0672227359901
 30
0.0
 10
97.93993053107057
 20
-115.0672227359901
 30
0.0
 10
98.71852211073704
 20
-115.0672227359901
 30
0.0
 10
98.71852211073704
 20
-115.0672227359901
 30
0.0
 10
98.71852211073704
 20
-115.0672227359901
 30
0.0
 10
98.71852211073704
 20
-115.2618706309068
 30
0.0
 10
98.71852211073704
 20
-115.2618706309068
 30
0.0
 10
98.71852211073704
 20
-115.2618706309068
 30
0.0
 10
98.1028835475229
 20
-115.2618706309068
 30
0.0
 10
98.1028835475229
 20
-115.2618706309068
 30
0.0
 10
98.1028835475229
 20
-115.2618706309068
 30
0.0
 10
98.03708222375462
 20
-115.6849283564954
 30
0.0
 10
98.03708222375462
 20
-115.6849283564954
 30
0.0
 10
98.09840492339207
 20
-115.65116642074
 30
0.0
 10
98.18108721503806
 20
-115.6108588035626
 30
0.0
 10
98.29959849973066
 20
-115.6108588035626
 30
0.0
 10
98.55350203699358
 20
-115.6108588035626
 30
0.0
 10
98.79018009683024
 20
-115.7970662145403
 30
0.0
 10
98.79018009683024
 20
-116.1102253941495
 30
0.0
 10
98.79018009683024
 20
-116.427518688341
 30
0.0
 10
98.566248890289
 20
-116.6623019456608
 30
0.0
 10
98.26342499713553
 20
-116.6623019456608
 30
0.0
  0
HATCH
  5
122
330
FE
100
AcDbEntity
  8
_U+30EC_U+30A4_U+30E4_U+30FC 1
 62
   179
420
  2234388
100
AcDbHatch
 10
0.0
 20
0.0
 30
0.0
210
0.0
220
0.0
230
1.0
  2
SOLID
 70
     1
 71
     0
 91
        1
 92
        1
 93
        1
 72
     4
 94
        3
 73
     0
 74
     1
 95
       53
 96
       49
 40
0.0
 40
0.0
 40
0.0
 40
0.0
 40
1.0
 40
1.0
 40
1.0
 40
2.0
 40
2.0
 40
2.0
 40
3.0
 40
3.0
 40
3.0
 40
4.0
 40
4.0
 40
4.0
 40
5.0
 40
5.0
 40
5.0
 40
6.0
 40
6.0
 40
6.0
 40
7.0
 40
7.0
 40
7.0
 40
8.0
 40
8.0
 40
8.0
 40
9.0
 40
9.0
 40
9.0
 40
10.0
 40
10.0
 40
10.0
 40
11.0
 40
11.0
 40
11.0
 40
12.0
 40
12.0
 40
12.0
 40
13.0
 40
13.0
 40
13.0
 40
14.0
 40
14.0
 40
14.0
 40
15.0
 40
15.0
 40
15.0
 40
16.0
 40
16.0
 40
16.0
 40
16.0
 10
98.26342499713553
 20
-116.6623019456608
 10
98.18522132962036
 20
-116.6623019456608
 10
98.08393552235403
 20
-116.6454209777831
 10
97.98230520553915
 20
-116.5818589660802
 10
97.80867239308256
 20
-116.4719604201008
 10
97.78765731062254
 20
-116.3407022821127
 10
97.76870928545367
 20
-116.2328707934244
 10
97.76870928545367
 20
-116.2328707934244
 10
97.99057343470375
 20
-116.2328707934244
 10
97.99057343470375
 20
-116.2328707934244
 10
98.04569496246775
 20
-116.4316528029233
 10
98.17247447632494
 20
-116.4612806240965
 10
98.26583656397521
 20
-116.4612806240965
 10
98.40536293112783
 20
-116.4612806240965
 10
98.55763615157588
 20
-116.361889619347
 10
98.55763615157588
 20
-116.1291734193184
 10
98.55763615157588
 20
-115.8732028247643
 10
98.37780216724583
 20
-115.803439641188
 10
98.25722382526209
 20
-115.803439641188
 10
98.2255289467978
 20
-115.803439641188
 10
98.08393552235403
 20
-115.803439641188
 10
97.99505205883457
 20
-115.9324584671106
 10
97.99505205883457
 20
-115.9324584671106
 10
97.81935218908683
 20
-115.9133381871675
 10
97.81935218908683
 20
-115.9133381871675
 10
97.81935218908683
 20
-115.9133381871675
 10
97.93993053107057
 20
-115.0672227359901
 10
97.93993053107057
 20
-115.0672227359901
 10
97.93993053107057
 20
-115.0672227359901
 10
98.71852211073704
 20
-115.0672227359901
 10
98.71852211073704
 20
-115.0672227359901
 10
98.71852211073704
 20
-115.0672227359901
 10
98.71852211073704
 20
-115.2618706309068
 10
98.71852211073704
 20
-115.2618706309068
 10
98.71852211073704
 20
-115.2618706309068
 10
98.1028835475229
 20
-115.2618706309068
 10
98.1028835475229
 20
-115.2618706309068
 10
98.1028835475229
 20
-115.2618706309068
 10
98.03708222375462
 20
-115.6849283564954
 10
98.03708222375462
 20
-115.6849283564954
 10
98.09840492339207
 20
-115.65116642074
 10
98.18108721503806
 20
-115.6108588035626
 10
98.29959849973066
 20
-115.6108588035626
 10
98.55350203699358
 20
-115.6108588035626
 10
98.79018009683024
 20
-115.7970662145403
 10
98.79018009683024
 20
-116.1102253941495
 10
98.79018009683024
 20
-116.427518688341
 10
98.566248890289
 20
-116.6623019456608
 10
98.26342499713553
 20
-116.6623019456608
 97
        0
 97
        0
 75
     2
 76
     1
 98
        0
  0
ENDBLK
  5
101
330
FE
100
AcDbEntity
  8
0
100
AcDbBlockEnd
  0
BLOCK
  5
125
330
123
100
AcDbEntity
  8
0
100
AcDbBlockBegin
  2
block 7
 70
     0
 10
0.0
 20
0.0
 30
0.0
  3
block 7
  1

  0
SPLINE
  5
127
330
123
100
AcDbEntity
  8
_U+30EC_U+30A4_U+30E4_U+30FC 1
 62
   179
420
  2234388
370
    25
100
AcDbSpline
210
0.0
220
0.0
230
1.0
 70
    11
 71
     3
 72
    17
 73
    13
 74
     0
 42
0.0000000001
 43
0.0000000001
 12
1.0
 22
0.0
 32
0.0
 13
1.0
 23
0.0
 33
0.0
 40
0.0
 40
0.0
 40
0.0
 40
0.0
 40
1.0
 40
1.0
 40
1.0
 40
2.0
 40
2.0
 40
2.0
 40
3.0
 40
3.0
 40
3.0
 40
4.0
 40
4.0
 40
4.0
 40
4.0
 10
89.61726549145087
 20
-120.9841863586428
 30
0.0
 10
89.61726549145087
 20
-121.0034833030826
 30
0.0
 10
89.60142576963274
 20
-121.0193230253008
 30
0.0
 10
89.5821288256806
 20
-121.0193230253008
 30
0.0
 10
89.56247910395969
 20
-121.0193230253008
 30
0.0
 10
89.54664164427987
 20
-121.0034833030826
 30
0.0
 10
89.54664164427987
 20
-120.9841863586428
 30
0.0
 10
89.54664164427987
 20
-120.9641838586477
 30
0.0
 10
89.56247910395969
 20
-120.9483441364295
 30
0.0
 10
89.5821288256806
 20
-120.9483441364295
 30
0.0
 10
89.60142576963274
 20
-120.9483441364295
 30
0.0
 10
89.61726549145087
 20
-120.9641838586477
 30
0.0
 10
89.61726549145087
 20
-120.9841863586428
 30
0.0
  0
ENDBLK
  5
126
330
123
100
AcDbEntity
  8
0
100
AcDbBlockEnd
  0
BLOCK
  5
12A
330
128
100
AcDbEntity
  8
0
100
AcDbBlockBegin
  2
block 8
 70
     0
 10
0.0
 20
0.0
 30
0.0
  3
block 8
  1

  0
SPLINE
  5
12C
330
128
100
AcDbEntity
  8
_U+30EC_U+30A4_U+30E4_U+30FC 1
 62
   179
420
  2234388
370
    25
100
AcDbSpline
210
0.0
220
0.0
230
1.0
 70
    11
 71
     3
 72
    17
 73
    13
 74
     0
 42
0.0000000001
 43
0.0000000001
 12
1.0
 22
0.0
 32
0.0
 13
1.0
 23
0.0
 33
0.0
 40
0.0
 40
0.0
 40
0.0
 40
0.0
 40
1.0
 40
1.0
 40
1.0
 40
2.0
 40
2.0
 40
2.0
 40
3.0
 40
3.0
 40
3.0
 40
4.0
 40
4.0
 40
4.0
 40
4.0
 10
104.1173137326349
 20
-120.9841863586428
 30
0.0
 10
104.1173137326349
 20
-121.0034833030826
 30
0.0
 10
104.1014740108168
 20
-121.0193230253008
 30
0.0
 10
104.0818595668728
 20
-121.0193230253008
 30
0.0
 10
104.0625626229206
 20
-121.0193230253008
 30
0.0
 10
104.0466876233256
 20
-121.0034833030826
 30
0.0
 10
104.0466876233256
 20
-120.9841863586428
 30
0.0
 10
104.0466876233256
 20
-120.9641838586477
 30
0.0
 10
104.0625626229206
 20
-120.9483441364295
 30
0.0
 10
104.0818595668728
 20
-120.9483441364295
 30
0.0
 10
104.1014740108168
 20
-120.9483441364295
 30
0.0
 10
104.1173137326349
 20
-120.9641838586477
 30
0.0
 10
104.1173137326349
 20
-120.9841863586428
 30
0.0
  0
ENDBLK
  5
12B
330
128
100
AcDbEntity
  8
0
100
AcDbBlockEnd
  0
BLOCK
  5
12F
330
12D
100
AcDbEntity
  8
0
100
AcDbBlockBegin
  2
block 9
 70
     0
 10
0.0
 20
0.0
 30
0.0
  3
block 9
  1

  0
SPLINE
  5
131
330
12D
100
AcDbEntity
  8
_U+30EC_U+30A4_U+30E4_U+30FC 1
 62
   179
420
  2234388
370
     9
100
AcDbSpline
210
0.0
220
0.0
230
1.0
 70
    11
 71
     3
 72
    17
 73
    13
 74
     0
 42
0.0000000001
 43
0.0000000001
 12
1.0
 22
0.0
 32
0.0
 13
1.0
 23
0.0
 33
0.0
 40
0.0
 40
0.0
 40
0.0
 40
0.0
 40
1.0
 40
1.0
 40
1.0
 40
2.0
 40
2.0
 40
2.0
 40
3.0
 40
3.0
 40
3.0
 40
4.0
 40
4.0
 40
4.0
 40
4.0
 10
104.1173137326349
 20
-116.9837216374207
 30
0.0
 10
104.1173137326349
 20
-117.0037241374157
 30
0.0
 10
104.1014740108168
 20
-117.0188583040787
 30
0.0
 10
104.0818595668728
 20
-117.0188583040787
 30
0.0
 10
104.0625626229206
 20
-117.0188583040787
 30
0.0
 10
104.0466876233256
 20
-117.0037241374157
 30
0.0
 10
104.0466876233256
 20
-116.9837216374207
 30
0.0
 10
104.0466876233256
 20
-116.9644246929812
 30
0.0
 10
104.0625626229206
 20
-116.948584970763
 30
0.0
 10
104.0818595668728
 20
-116.948584970763
 30
0.0
 10
104.1014740108168
 20
-116.948584970763
 30
0.0
 10
104.1173137326349
 20
-116.9644246929812
 30
0.0
 10
104.1173137326349
 20
-116.9837216374207
 30
0.0
  0
ENDBLK
  5
130
330
12D
100
AcDbEntity
  8
0
100
AcDbBlockEnd
  0
BLOCK
  5
134
330
132
100
AcDbEntity
  8
0
100
AcDbBlockBegin
  2
block 10
 70
     0
 10
0.0
 20
0.0
 30
0.0
  3
block 10
  1

  0
POLYLINE
  5
136
330
132
100
AcDbEntity
  8
_U+30EC_U+30A4_U+30E4_U+30FC 1
 62
   179
420
  2234388
370
     9
100
AcDb2dPolyline
 66
     1
 10
0.0
 20
0.0
 30
0.0
  0
VERTEX
  5
137
330
136
100
AcDbEntity
  8
_U+30EC_U+30A4_U+30E4_U+30FC 1
 62
   179
420
  2234388
370
     9
100
AcDbVertex
100
AcDb2dVertex
 10
83.08191621373706
 20
-141.9840949645038
 30
0.0
  0
VERTEX
  5
138
330
136
100
AcDbEntity
  8
_U+30EC_U+30A4_U+30E4_U+30FC 1
 62
   179
420
  2234388
370
     9
100
AcDbVertex
100
AcDb2dVertex
 10
93.08200179194696
 20
-141.9840949645038
 30
0.0
  0
SEQEND
  5
139
330
136
100
AcDbEntity
  8
_U+30EC_U+30A4_U+30E4_U+30FC 1
 62
   179
420
  2234388
370
     9
  0
POLYLINE
  5
13A
330
132
100
AcDbEntity
  8
_U+30EC_U+30A4_U+30E4_U+30FC 1
 62
   179
420
  2234388
370
     9
100
AcDb2dPolyline
 66
     1
 10
0.0
 20
0.0
 30
0.0
  0
VERTEX
  5
13B
330
13A
100
AcDbEntity
  8
_U+30EC_U+30A4_U+30E4_U+30FC 1
 62
   179
420
  2234388
370
     9
100
AcDbVertex
100
AcDb2dVertex
 10
83.08191621373706
 20
-140.5240535759801
 30
0.0
  0
VERTEX
  5
13C
330
13A
100
AcDbEntity
  8
_U+30EC_U+30A4_U+30E4_U+30FC 1
 62
   179
420
  2234388
370
     9
100
AcDbVertex
100
AcDb2dVertex
 10
83.08191621373706
 20
-142.9838671864764
 30
0.0
  0
SEQEND
  5
13D
330
13A
100
AcDbEntity
  8
_U+30EC_U+30A4_U+30E4_U+30FC 1
 62
   179
420
  2234388
370
     9
  0
POLYLINE
  5
13E
330
132
100
AcDbEntity
  8
_U+30EC_U+30A4_U+30E4_U+30FC 1
 62
   179
420
  2234388
370
     9
100
AcDb2dPolyline
 66
     1
 10
0.0
 20
0.0
 30
0.0
  0
VERTEX
  5
13F
330
13E
100
AcDbEntity
  8
_U+30EC_U+30A4_U+30E4_U+30FC 1
 62
   179
420
  2234388
370
     9
100
AcDbVertex
100
AcDb2dVertex
 10
93.08200179194696
 20
-140.5240535759801
 30
0.0
  0
VERTEX
  5
140
330
13E
100
AcDbEntity
  8
_U+30EC_U+30A4_U+30E4_U+30FC 1
 62
   179
420
  2234388
370
     9
100
AcDbVertex
100
AcDb2dVertex
 10
93.08200179194696
 20
-142.9838671864764
 30
0.0
  0
SEQEND
  5
141
330
13E
100
AcDbEntity
  8
_U+30EC_U+30A4_U+30E4_U+30FC 1
 62
   179
420
  2234388
370
     9
  0
INSERT
  5
143
330
132
100
AcDbEntity
  8
_U+30EC_U+30A4_U+30E4_U+30FC 1
100
AcDbBlockReference
  2
block 11
 10
0.0
 20
0.0
 30
0.0
  0
INSERT
  5
14C
330
132
100
AcDbEntity
  8
_U+30EC_U+30A4_U+30E4_U+30FC 1
100
AcDbBlockReference
  2
block 12
 10
0.0
 20
0.0
 30
0.0
  0
INSERT
  5
151
330
132
100
AcDbEntity
  8
_U+30EC_U+30A4_U+30E4_U+30FC 1
100
AcDbBlockReference
  2
block 13
 10
0.0
 20
0.0
 30
0.0
  0
INSERT
  5
156
330
132
100
AcDbEntity
  8
_U+30EC_U+30A4_U+30E4_U+30FC 1
100
AcDbBlockReference
  2
block 14
 10
0.0
 20
0.0
 30
0.0
  0
ENDBLK
  5
135
330
132
100
AcDbEntity
  8
0
100
AcDbBlockEnd
  0
BLOCK
  5
144
330
142
100
AcDbEntity
  8
0
100
AcDbBlockBegin
  2
block 11
 70
     0
 10
0.0
 20
0.0
 30
0.0
  3
block 11
  1

  0
SPLINE
  5
146
330
142
100
AcDbEntity
  8
_U+30EC_U+30A4_U+30E4_U+30FC 1
370
     0
100
AcDbSpline
210
0.0
220
0.0
230
1.0
 70
    11
 71
     3
 72
    26
 73
    22
 74
     0
 42
0.0000000001
 43
0.0000000001
 12
1.0
 22
0.0
 32
0.0
 13
1.0
 23
0.0
 33
0.0
 40
0.0
 40
0.0
 40
0.0
 40
0.0
 40
1.0
 40
1.0
 40
1.0
 40
2.0
 40
2.0
 40
2.0
 40
3.0
 40
3.0
 40
3.0
 40
4.0
 40
4.0
 40
4.0
 40
5.0
 40
5.0
 40
5.0
 40
6.0
 40
6.0
 40
6.0
 40
7.0
 40
7.0
 40
7.0
 40
7.0
 10
87.44444713525695
 20
-141.6113389402916
 30
0.0
 10
87.44444713525695
 20
-141.6113389402916
 30
0.0
 10
87.44444713525695
 20
-140.5068413277205
 30
0.0
 10
87.44444713525695
 20
-140.5068413277205
 30
0.0
 10
87.44444713525695
 20
-140.5068413277205
 30
0.0
 10
87.11440698777001
 20
-140.5068413277205
 30
0.0
 10
87.11440698777001
 20
-140.5068413277205
 30
0.0
 10
87.11440698777001
 20
-140.5068413277205
 30
0.0
 10
87.11440698777001
 20
-140.3587022218548
 30
0.0
 10
87.11440698777001
 20
-140.3587022218548
 30
0.0
 10
87.4465141925481
 20
-140.3438883112682
 30
0.0
 10
87.49302298159897
 20
-140.1812798043644
 30
0.0
 10
87.52265080277212
 20
-140.0669026342541
 30
0.0
 10
87.52265080277212
 20
-140.0669026342541
 30
0.0
 10
87.66855059657244
 20
-140.0669026342541
 30
0.0
 10
87.66855059657244
 20
-140.0669026342541
 30
0.0
 10
87.66855059657244
 20
-140.0669026342541
 30
0.0
 10
87.66855059657244
 20
-141.6113389402916
 30
0.0
 10
87.66855059657244
 20
-141.6113389402916
 30
0.0
 10
87.66855059657244
 20
-141.6113389402916
 30
0.0
 10
87.44444713525695
 20
-141.6113389402916
 30
0.0
 10
87.44444713525695
 20
-141.6113389402916
 30
0.0
  0
HATCH
  5
147
330
142
100
AcDbEntity
  8
_U+30EC_U+30A4_U+30E4_U+30FC 1
 62
   179
420
  2234388
100
AcDbHatch
 10
0.0
 20
0.0
 30
0.0
210
0.0
220
0.0
230
1.0
  2
SOLID
 70
     1
 71
     0
 91
        1
 92
        1
 93
        1
 72
     4
 94
        3
 73
     0
 74
     1
 95
       26
 96
       22
 40
0.0
 40
0.0
 40
0.0
 40
0.0
 40
1.0
 40
1.0
 40
1.0
 40
2.0
 40
2.0
 40
2.0
 40
3.0
 40
3.0
 40
3.0
 40
4.0
 40
4.0
 40
4.0
 40
5.0
 40
5.0
 40
5.0
 40
6.0
 40
6.0
 40
6.0
 40
7.0
 40
7.0
 40
7.0
 40
7.0
 10
87.44444713525695
 20
-141.6113389402916
 10
87.44444713525695
 20
-141.6113389402916
 10
87.44444713525695
 20
-140.5068413277205
 10
87.44444713525695
 20
-140.5068413277205
 10
87.44444713525695
 20
-140.5068413277205
 10
87.11440698777001
 20
-140.5068413277205
 10
87.11440698777001
 20
-140.5068413277205
 10
87.11440698777001
 20
-140.5068413277205
 10
87.11440698777001
 20
-140.3587022218548
 10
87.11440698777001
 20
-140.3587022218548
 10
87.4465141925481
 20
-140.3438883112682
 10
87.49302298159897
 20
-140.1812798043644
 10
87.52265080277212
 20
-140.0669026342541
 10
87.52265080277212
 20
-140.0669026342541
 10
87.66855059657244
 20
-140.0669026342541
 10
87.66855059657244
 20
-140.0669026342541
 10
87.66855059657244
 20
-140.0669026342541
 10
87.66855059657244
 20
-141.6113389402916
 10
87.66855059657244
 20
-141.6113389402916
 10
87.66855059657244
 20
-141.6113389402916
 10
87.44444713525695
 20
-141.6113389402916
 10
87.44444713525695
 20
-141.6113389402916
 97
        0
 97
        0
 75
     2
 76
     1
 98
        0
  0
SPLINE
  5
148
330
142
100
AcDbEntity
  8
_U+30EC_U+30A4_U+30E4_U+30FC 1
370
     0
100
AcDbSpline
210
0.0
220
0.0
230
1.0
 70
    11
 71
     3
 72
    29
 73
    25
 74
     0
 42
0.0000000001
 43
0.0000000001
 12
1.0
 22
0.0
 32
0.0
 13
1.0
 23
0.0
 33
0.0
 40
0.0
 40
0.0
 40
0.0
 40
0.0
 40
1.0
 40
1.0
 40
1.0
 40
2.0
 40
2.0
 40
2.0
 40
3.0
 40
3.0
 40
3.0
 40
4.0
 40
4.0
 40
4.0
 40
5.0
 40
5.0
 40
5.0
 40
6.0
 40
6.0
 40
6.0
 40
7.0
 40
7.0
 40
7.0
 40
8.0
 40
8.0
 40
8.0
 40
8.0
 10
89.06760387313241
 20
-141.4335720132527
 30
0.0
 10
88.9597723844441
 20
-141.6430338187559
 30
0.0
 10
88.78631182676176
 20
-141.6619818439248
 30
0.0
 10
88.66986759936032
 20
-141.6619818439248
 30
0.0
 10
88.50915389497341
 20
-141.6619818439248
 30
0.0
 10
88.36738821575538
 20
-141.6154730548739
 30
0.0
 10
88.27213132558822
 20
-141.4335720132527
 30
0.0
 10
88.16860620625647
 20
-141.2389241183361
 30
0.0
 10
88.14948592631333
 20
-141.0019015489509
 30
0.0
 10
88.14948592631333
 20
-140.8389485324986
 30
0.0
 10
88.14948592631333
 20
-140.6952880507637
 30
0.0
 10
88.16636689419106
 20
-140.4434515707919
 30
0.0
 10
88.27213132558822
 20
-140.244669561293
 30
0.0
 10
88.38013506905081
 20
-140.0414089276633
 30
0.0
 10
88.5408487734377
 20
-140.0183267879121
 30
0.0
 10
88.66986759936032
 20
-140.0183267879121
 30
0.0
 10
88.82851424645607
 20
-140.0183267879121
 30
0.0
 10
88.97234698296525
 20
-140.0627685196718
 30
0.0
 10
89.06760387313241
 20
-140.244669561293
 30
0.0
 10
89.16699487788186
 20
-140.4372503989185
 30
0.0
 10
89.1902492724073
 20
-140.6656602295905
 30
0.0
 10
89.1902492724073
 20
-140.8389485324986
 30
0.0
 10
89.1902492724073
 20
-141.0105142876641
 30
0.0
 10
89.16923418994728
 20
-141.2409911756273
 30
0.0
 10
89.06760387313241
 20
-141.4335720132527
 30
0.0
  0
SPLINE
  5
149
330
142
100
AcDbEntity
  8
_U+30EC_U+30A4_U+30E4_U+30FC 1
370
     0
100
AcDbSpline
210
0.0
220
0.0
230
1.0
 70
    11
 71
     3
 72
    17
 73
    13
 74
     0
 42
0.0000000001
 43
0.0000000001
 12
1.0
 22
0.0
 32
0.0
 13
1.0
 23
0.0
 33
0.0
 40
0.0
 40
0.0
 40
0.0
 40
0.0
 40
1.0
 40
1.0
 40
1.0
 40
2.0
 40
2.0
 40
2.0
 40
3.0
 40
3.0
 40
3.0
 40
4.0
 40
4.0
 40
4.0
 40
4.0
 10
88.66986759936032
 20
-140.210563115989
 30
0.0
 10
88.42027043145396
 20
-140.210563115989
 30
0.0
 10
88.3737616424031
 20
-140.4940944744251
 30
0.0
 10
88.3737616424031
 20
-140.8389485324986
 30
0.0
 10
88.3737616424031
 20
-141.1586533935298
 30
0.0
 10
88.40976289022396
 20
-141.4673339490082
 30
0.0
 10
88.66986759936032
 20
-141.4673339490082
 30
0.0
 10
88.91739770997552
 20
-141.4673339490082
 30
0.0
 10
88.9661458110918
 20
-141.1858696478633
 30
0.0
 10
88.9661458110918
 20
-140.8389485324986
 30
0.0
 10
88.9661458110918
 20
-140.5195881810159
 30
0.0
 10
88.92790525120553
 20
-140.210563115989
 30
0.0
 10
88.66986759936032
 20
-140.210563115989
 30
0.0
  0
HATCH
  5
14A
330
142
100
AcDbEntity
  8
_U+30EC_U+30A4_U+30E4_U+30FC 1
 62
   179
420
  2234388
100
AcDbHatch
 10
0.0
 20
0.0
 30
0.0
210
0.0
220
0.0
230
1.0
  2
SOLID
 70
     1
 71
     0
 91
        2
 92
        1
 93
        1
 72
     4
 94
        3
 73
     0
 74
     1
 95
       29
 96
       25
 40
0.0
 40
0.0
 40
0.0
 40
0.0
 40
1.0
 40
1.0
 40
1.0
 40
2.0
 40
2.0
 40
2.0
 40
3.0
 40
3.0
 40
3.0
 40
4.0
 40
4.0
 40
4.0
 40
5.0
 40
5.0
 40
5.0
 40
6.0
 40
6.0
 40
6.0
 40
7.0
 40
7.0
 40
7.0
 40
8.0
 40
8.0
 40
8.0
 40
8.0
 10
89.06760387313241
 20
-141.4335720132527
 10
88.9597723844441
 20
-141.6430338187559
 10
88.78631182676176
 20
-141.6619818439248
 10
88.66986759936032
 20
-141.6619818439248
 10
88.50915389497341
 20
-141.6619818439248
 10
88.36738821575538
 20
-141.6154730548739
 10
88.27213132558822
 20
-141.4335720132527
 10
88.16860620625647
 20
-141.2389241183361
 10
88.14948592631333
 20
-141.0019015489509
 10
88.14948592631333
 20
-140.8389485324986
 10
88.14948592631333
 20
-140.6952880507637
 10
88.16636689419106
 20
-140.4434515707919
 10
88.27213132558822
 20
-140.244669561293
 10
88.38013506905081
 20
-140.0414089276633
 10
88.5408487734377
 20
-140.0183267879121
 10
88.66986759936032
 20
-140.0183267879121
 10
88.82851424645607
 20
-140.0183267879121
 10
88.97234698296525
 20
-140.0627685196718
 10
89.06760387313241
 20
-140.244669561293
 10
89.16699487788186
 20
-140.4372503989185
 10
89.1902492724073
 20
-140.6656602295905
 10
89.1902492724073
 20
-140.8389485324986
 10
89.1902492724073
 20
-141.0105142876641
 10
89.16923418994728
 20
-141.2409911756273
 10
89.06760387313241
 20
-141.4335720132527
 97
        0
 97
        0
 92
        1
 93
        1
 72
     4
 94
        3
 73
     0
 74
     1
 95
       17
 96
       13
 40
0.0
 40
0.0
 40
0.0
 40
0.0
 40
1.0
 40
1.0
 40
1.0
 40
2.0
 40
2.0
 40
2.0
 40
3.0
 40
3.0
 40
3.0
 40
4.0
 40
4.0
 40
4.0
 40
4.0
 10
88.66986759936032
 20
-140.210563115989
 10
88.42027043145396
 20
-140.210563115989
 10
88.3737616424031
 20
-140.4940944744251
 10
88.3737616424031
 20
-140.8389485324986
 10
88.3737616424031
 20
-141.1586533935298
 10
88.40976289022396
 20
-141.4673339490082
 10
88.66986759936032
 20
-141.4673339490082
 10
88.91739770997552
 20
-141.4673339490082
 10
88.9661458110918
 20
-141.1858696478633
 10
88.9661458110918
 20
-140.8389485324986
 10
88.9661458110918
 20
-140.5195881810159
 10
88.92790525120553
 20
-140.210563115989
 10
88.66986759936032
 20
-140.210563115989
 97
        0
 97
        0
 75
     2
 76
     1
 98
        0
  0
ENDBLK
  5
145
330
142
100
AcDbEntity
  8
0
100
AcDbBlockEnd
  0
BLOCK
  5
14D
330
14B
100
AcDbEntity
  8
0
100
AcDbBlockBegin
  2
block 12
 70
     0
 10
0.0
 20
0.0
 30
0.0
  3
block 12
  1

  0
SPLINE
  5
14F
330
14B
100
AcDbEntity
  8
_U+30EC_U+30A4_U+30E4_U+30FC 1
 62
   179
420
  2234388
370
    25
100
AcDbSpline
210
0.0
220
0.0
230
1.0
 70
    11
 71
     3
 72
    17
 73
    13
 74
     0
 42
0.0000000001
 43
0.0000000001
 12
1.0
 22
0.0
 32
0.0
 13
1.0
 23
0.0
 33
0.0
 40
0.0
 40
0.0
 40
0.0
 40
0.0
 40
1.0
 40
1.0
 40
1.0
 40
2.0
 40
2.0
 40
2.0
 40
3.0
 40
3.0
 40
3.0
 40
4.0
 40
4.0
 40
4.0
 40
4.0
 10
83.1174056572761
 20
-137.9836655210596
 30
0.0
 10
83.1174056572761
 20
-138.0036327432768
 30
0.0
 10
83.10156593545798
 20
-138.0194724654953
 30
0.0
 10
83.08191621373706
 20
-138.0194724654953
 30
0.0
 10
83.06261926978493
 20
-138.0194724654953
 30
0.0
 10
83.0467795479668
 20
-138.0036327432768
 30
0.0
 10
83.0467795479668
 20
-137.9836655210596
 30
0.0
 10
83.0467795479668
 20
-137.9643685766198
 30
0.0
 10
83.06261926978493
 20
-137.9485288544018
 30
0.0
 10
83.08191621373706
 20
-137.9485288544018
 30
0.0
 10
83.10156593545798
 20
-137.9485288544018
 30
0.0
 10
83.1174056572761
 20
-137.9643685766198
 30
0.0
 10
83.1174056572761
 20
-137.9836655210596
 30
0.0
  0
ENDBLK
  5
14E
330
14B
100
AcDbEntity
  8
0
100
AcDbBlockEnd
  0
BLOCK
  5
152
330
150
100
AcDbEntity
  8
0
100
AcDbBlockBegin
  2
block 13
 70
     0
 10
0.0
 20
0.0
 30
0.0
  3
block 13
  1

  0
SPLINE
  5
154
330
150
100
AcDbEntity
  8
_U+30EC_U+30A4_U+30E4_U+30FC 1
 62
   179
420
  2234388
370
    25
100
AcDbSpline
210
0.0
220
0.0
230
1.0
 70
    11
 71
     3
 72
    17
 73
    13
 74
     0
 42
0.0000000001
 43
0.0000000001
 12
1.0
 22
0.0
 32
0.0
 13
1.0
 23
0.0
 33
0.0
 40
0.0
 40
0.0
 40
0.0
 40
0.0
 40
1.0
 40
1.0
 40
1.0
 40
2.0
 40
2.0
 40
2.0
 40
3.0
 40
3.0
 40
3.0
 40
4.0
 40
4.0
 40
4.0
 40
4.0
 10
93.11713845771722
 20
-137.9836655210596
 30
0.0
 10
93.11713845771722
 20
-138.0036327432768
 30
0.0
 10
93.10165151366787
 20
-138.0194724654953
 30
0.0
 10
93.08200179194696
 20
-138.0194724654953
 30
0.0
 10
93.06235207022604
 20
-138.0194724654953
 30
0.0
 10
93.04686512617671
 20
-138.0036327432768
 30
0.0
 10
93.04686512617671
 20
-137.9836655210596
 30
0.0
 10
93.04686512617671
 20
-137.9643685766198
 30
0.0
 10
93.06235207022604
 20
-137.9485288544018
 30
0.0
 10
93.08200179194696
 20
-137.9485288544018
 30
0.0
 10
93.10165151366787
 20
-137.9485288544018
 30
0.0
 10
93.11713845771722
 20
-137.9643685766198
 30
0.0
 10
93.11713845771722
 20
-137.9836655210596
 30
0.0
  0
ENDBLK
  5
153
330
150
100
AcDbEntity
  8
0
100
AcDbBlockEnd
  0
BLOCK
  5
157
330
155
100
AcDbEntity
  8
0
100
AcDbBlockBegin
  2
block 14
 70
     0
 10
0.0
 20
0.0
 30
0.0
  3
block 14
  1

  0
SPLINE
  5
159
330
155
100
AcDbEntity
  8
_U+30EC_U+30A4_U+30E4_U+30FC 1
 62
   179
420
  2234388
370
     9
100
AcDbSpline
210
0.0
220
0.0
230
1.0
 70
    11
 71
     3
 72
    17
 73
    13
 74
     0
 42
0.0000000001
 43
0.0000000001
 12
1.0
 22
0.0
 32
0.0
 13
1.0
 23
0.0
 33
0.0
 40
0.0
 40
0.0
 40
0.0
 40
0.0
 40
1.0
 40
1.0
 40
1.0
 40
2.0
 40
2.0
 40
2.0
 40
3.0
 40
3.0
 40
3.0
 40
4.0
 40
4.0
 40
4.0
 40
4.0
 10
93.11713845771722
 20
-141.9840949645038
 30
0.0
 10
93.11713845771722
 20
-142.0033919089437
 30
0.0
 10
93.10165151366787
 20
-142.0192316311615
 30
0.0
 10
93.08200179194696
 20
-142.0192316311615
 30
0.0
 10
93.06235207022604
 20
-142.0192316311615
 30
0.0
 10
93.04686512617671
 20
-142.0033919089437
 30
0.0
 10
93.04686512617671
 20
-141.9840949645038
 30
0.0
 10
93.04686512617671
 20
-141.9641277422866
 30
0.0
 10
93.06235207022604
 20
-141.9489582978461
 30
0.0
 10
93.08200179194696
 20
-141.9489582978461
 30
0.0
 10
93.10165151366787
 20
-141.9489582978461
 30
0.0
 10
93.11713845771722
 20
-141.9641277422866
 30
0.0
 10
93.11713845771722
 20
-141.9840949645038
 30
0.0
  0
ENDBLK
  5
158
330
155
100
AcDbEntity
  8
0
100
AcDbBlockEnd
  0
BLOCK
  5
15C
330
15A
100
AcDbEntity
  8
0
100
AcDbBlockBegin
  2
block 15
 70
     0
 10
0.0
 20
0.0
 30
0.0
  3
block 15
  1

  0
POLYLINE
  5
15E
330
15A
100
AcDbEntity
  8
_U+30EC_U+30A4_U+30E4_U+30FC 1
 62
   179
420
  2234388
370
     9
100
AcDb2dPolyline
 66
     1
 10
0.0
 20
0.0
 30
0.0
  0
VERTEX
  5
15F
330
15E
100
AcDbEntity
  8
_U+30EC_U+30A4_U+30E4_U+30FC 1
 62
   179
420
  2234388
370
     9
100
AcDbVertex
100
AcDb2dVertex
 10
93.08200179194696
 20
-141.9840949645038
 30
0.0
  0
VERTEX
  5
160
330
15E
100
AcDbEntity
  8
_U+30EC_U+30A4_U+30E4_U+30FC 1
 62
   179
420
  2234388
370
     9
100
AcDbVertex
100
AcDb2dVertex
 10
101.0818726989644
 20
-141.9840949645038
 30
0.0
  0
SEQEND
  5
161
330
15E
100
AcDbEntity
  8
_U+30EC_U+30A4_U+30E4_U+30FC 1
 62
   179
420
  2234388
370
     9
  0
POLYLINE
  5
162
330
15A
100
AcDbEntity
  8
_U+30EC_U+30A4_U+30E4_U+30FC 1
 62
   179
420
  2234388
370
     9
100
AcDb2dPolyline
 66
     1
 10
0.0
 20
0.0
 30
0.0
  0
VERTEX
  5
163
330
162
100
AcDbEntity
  8
_U+30EC_U+30A4_U+30E4_U+30FC 1
 62
   179
420
  2234388
370
     9
100
AcDbVertex
100
AcDb2dVertex
 10
93.08200179194696
 20
-140.5240535759801
 30
0.0
  0
VERTEX
  5
164
330
162
100
AcDbEntity
  8
_U+30EC_U+30A4_U+30E4_U+30FC 1
 62
   179
420
  2234388
370
     9
100
AcDbVertex
100
AcDb2dVertex
 10
93.08200179194696
 20
-142.9838671864764
 30
0.0
  0
SEQEND
  5
165
330
162
100
AcDbEntity
  8
_U+30EC_U+30A4_U+30E4_U+30FC 1
 62
   179
420
  2234388
370
     9
  0
POLYLINE
  5
166
330
15A
100
AcDbEntity
  8
_U+30EC_U+30A4_U+30E4_U+30FC 1
 62
   179
420
  2234388
370
     9
100
AcDb2dPolyline
 66
     1
 10
0.0
 20
0.0
 30
0.0
  0
VERTEX
  5
167
330
166
100
AcDbEntity
  8
_U+30EC_U+30A4_U+30E4_U+30FC 1
 62
   179
420
  2234388
370
     9
100
AcDbVertex
100
AcDb2dVertex
 10
101.0818726989644
 20
-140.5240535759801
 30
0.0
  0
VERTEX
  5
168
330
166
100
AcDbEntity
  8
_U+30EC_U+30A4_U+30E4_U+30FC 1
 62
   179
420
  2234388
370
     9
100
AcDbVertex
100
AcDb2dVertex
 10
101.0818726989644
 20
-142.9838671864764
 30
0.0
  0
SEQEND
  5
169
330
166
100
AcDbEntity
  8
_U+30EC_U+30A4_U+30E4_U+30FC 1
 62
   179
420
  2234388
370
     9
  0
INSERT
  5
16B
330
15A
100
AcDbEntity
  8
_U+30EC_U+30A4_U+30E4_U+30FC 1
100
AcDbBlockReference
  2
block 16
 10
0.0
 20
0.0
 30
0.0
  0
INSERT
  5
173
330
15A
100
AcDbEntity
  8
_U+30EC_U+30A4_U+30E4_U+30FC 1
100
AcDbBlockReference
  2
block 17
 10
0.0
 20
0.0
 30
0.0
  0
INSERT
  5
178
330
15A
100
AcDbEntity
  8
_U+30EC_U+30A4_U+30E4_U+30FC 1
100
AcDbBlockReference
  2
block 18
 10
0.0
 20
0.0
 30
0.0
  0
INSERT
  5
17D
330
15A
100
AcDbEntity
  8
_U+30EC_U+30A4_U+30E4_U+30FC 1
100
AcDbBlockReference
  2
block 19
 10
0.0
 20
0.0
 30
0.0
  0
ENDBLK
  5
15D
330
15A
100
AcDbEntity
  8
0
100
AcDbBlockEnd
  0
BLOCK
  5
16C
330
16A
100
AcDbEntity
  8
0
100
AcDbBlockBegin
  2
block 16
 70
     0
 10
0.0
 20
0.0
 30
0.0
  3
block 16
  1

  0
SPLINE
  5
16E
330
16A
100
AcDbEntity
  8
_U+30EC_U+30A4_U+30E4_U+30FC 1
370
     0
100
AcDbSpline
210
0.0
220
0.0
230
1.0
 70
    11
 71
     3
 72
    29
 73
    25
 74
     0
 42
0.0000000001
 43
0.0000000001
 12
1.0
 22
0.0
 32
0.0
 13
1.0
 23
0.0
 33
0.0
 40
0.0
 40
0.0
 40
0.0
 40
0.0
 40
1.0
 40
1.0
 40
1.0
 40
2.0
 40
2.0
 40
2.0
 40
3.0
 40
3.0
 40
3.0
 40
4.0
 40
4.0
 40
4.0
 40
5.0
 40
5.0
 40
5.0
 40
6.0
 40
6.0
 40
6.0
 40
7.0
 40
7.0
 40
7.0
 40
8.0
 40
8.0
 40
8.0
 40
8.0
 10
97.08175724569485
 20
-141.6619818439248
 30
0.0
 10
96.8151068551365
 20
-141.6619818439248
 30
0.0
 10
96.56120331787359
 20
-141.5245225340633
 30
0.0
 10
96.56120331787359
 20
-141.1755343614075
 30
0.0
 10
96.56120331787359
 20
-140.9195637668535
 30
0.0
 10
96.70279674231736
 20
-140.824134621912
 30
0.0
 10
96.80856117371454
 20
-140.7628119222746
 30
0.0
 10
96.68384871714849
 20
-140.7035562799283
 30
0.0
 10
96.60771210692447
 20
-140.5895236193665
 30
0.0
 10
96.60771210692447
 20
-140.4286376602053
 30
0.0
 10
96.60771210692447
 20
-140.1537190404824
 30
0.0
 10
96.80649411642338
 20
-140.0183267879121
 30
0.0
 10
97.08175724569485
 20
-140.0183267879121
 30
0.0
 10
97.36494409458238
 20
-140.0183267879121
 30
0.0
 10
97.5554578749167
 20
-140.161987269647
 30
0.0
 10
97.5554578749167
 20
-140.4286376602053
 30
0.0
 10
97.5554578749167
 20
-140.5895236193665
 30
0.0
 10
97.47725420740153
 20
-140.7035562799283
 30
0.0
 10
97.35254175083548
 20
-140.7628119222746
 30
0.0
 10
97.4410807048064
 20
-140.8137993354563
 30
0.0
 10
97.59989960667642
 20
-140.9088839708492
 30
0.0
 10
97.59989960667642
 20
-141.1710557372767
 30
0.0
 10
97.59989960667642
 20
-141.5455376165233
 30
0.0
 10
97.32050236282265
 20
-141.6619818439248
 30
0.0
 10
97.08175724569485
 20
-141.6619818439248
 30
0.0
  0
SPLINE
  5
16F
330
16A
100
AcDbEntity
  8
_U+30EC_U+30A4_U+30E4_U+30FC 1
370
     0
100
AcDbSpline
210
0.0
220
0.0
230
1.0
 70
    11
 71
     3
 72
    17
 73
    13
 74
     0
 42
0.0000000001
 43
0.0000000001
 12
1.0
 22
0.0
 32
0.0
 13
1.0
 23
0.0
 33
0.0
 40
0.0
 40
0.0
 40
0.0
 40
0.0
 40
1.0
 40
1.0
 40
1.0
 40
2.0
 40
2.0
 40
2.0
 40
3.0
 40
3.0
 40
3.0
 40
4.0
 40
4.0
 40
4.0
 40
4.0
 10
97.08175724569485
 20
-140.8706434109629
 30
0.0
 10
96.9377522544114
 20
-140.8706434109629
 30
0.0
 10
96.78547903396336
 20
-140.9574598171912
 30
0.0
 10
96.78547903396336
 20
-141.1607204508209
 30
0.0
 10
96.78547903396336
 20
-141.3657036321933
 30
0.0
 10
96.91225854782056
 20
-141.4673339490082
 30
0.0
 10
97.08175724569485
 20
-141.4673339490082
 30
0.0
 10
97.26779240189833
 20
-141.4673339490082
 30
0.0
 10
97.37769094787781
 20
-141.3446885497333
 30
0.0
 10
97.37769094787781
 20
-141.1669216226944
 30
0.0
 10
97.37769094787781
 20
-140.9447129638958
 30
0.0
 10
97.21473793142549
 20
-140.8706434109629
 30
0.0
 10
97.08175724569485
 20
-140.8706434109629
 30
0.0
  0
SPLINE
  5
170
330
16A
100
AcDbEntity
  8
_U+30EC_U+30A4_U+30E4_U+30FC 1
370
     0
100
AcDbSpline
210
0.0
220
0.0
230
1.0
 70
    11
 71
     3
 72
    17
 73
    13
 74
     0
 42
0.0000000001
 43
0.0000000001
 12
1.0
 22
0.0
 32
0.0
 13
1.0
 23
0.0
 33
0.0
 40
0.0
 40
0.0
 40
0.0
 40
0.0
 40
1.0
 40
1.0
 40
1.0
 40
2.0
 40
2.0
 40
2.0
 40
3.0
 40
3.0
 40
3.0
 40
4.0
 40
4.0
 40
4.0
 40
4.0
 10
97.08175724569485
 20
-140.210563115989
 30
0.0
 10
96.91673717195138
 20
-140.210563115989
 30
0.0
 10
96.83198782301423
 20
-140.3059922609305
 30
0.0
 10
96.83198782301423
 20
-140.4413845135008
 30
0.0
 10
96.83198782301423
 20
-140.5640299127757
 30
0.0
 10
96.90399031865596
 20
-140.6825411974683
 30
0.0
 10
97.08175724569485
 20
-140.6825411974683
 30
0.0
 10
97.25917966318521
 20
-140.6825411974683
 30
0.0
 10
97.33118215882693
 20
-140.5640299127757
 30
0.0
 10
97.33118215882693
 20
-140.4413845135008
 30
0.0
 10
97.33118215882693
 20
-140.3059922609305
 30
0.0
 10
97.24436575259864
 20
-140.210563115989
 30
0.0
 10
97.08175724569485
 20
-140.210563115989
 30
0.0
  0
HATCH
  5
171
330
16A
100
AcDbEntity
  8
_U+30EC_U+30A4_U+30E4_U+30FC 1
 62
   179
420
  2234388
100
AcDbHatch
 10
0.0
 20
0.0
 30
0.0
210
0.0
220
0.0
230
1.0
  2
SOLID
 70
     1
 71
     0
 91
        3
 92
        1
 93
        1
 72
     4
 94
        3
 73
     0
 74
     1
 95
       29
 96
       25
 40
0.0
 40
0.0
 40
0.0
 40
0.0
 40
1.0
 40
1.0
 40
1.0
 40
2.0
 40
2.0
 40
2.0
 40
3.0
 40
3.0
 40
3.0
 40
4.0
 40
4.0
 40
4.0
 40
5.0
 40
5.0
 40
5.0
 40
6.0
 40
6.0
 40
6.0
 40
7.0
 40
7.0
 40
7.0
 40
8.0
 40
8.0
 40
8.0
 40
8.0
 10
97.08175724569485
 20
-141.6619818439248
 10
96.8151068551365
 20
-141.6619818439248
 10
96.56120331787359
 20
-141.5245225340633
 10
96.56120331787359
 20
-141.1755343614075
 10
96.56120331787359
 20
-140.9195637668535
 10
96.70279674231736
 20
-140.824134621912
 10
96.80856117371454
 20
-140.7628119222746
 10
96.68384871714849
 20
-140.7035562799283
 10
96.60771210692447
 20
-140.5895236193665
 10
96.60771210692447
 20
-140.4286376602053
 10
96.60771210692447
 20
-140.1537190404824
 10
96.80649411642338
 20
-140.0183267879121
 10
97.08175724569485
 20
-140.0183267879121
 10
97.36494409458238
 20
-140.0183267879121
 10
97.5554578749167
 20
-140.161987269647
 10
97.5554578749167
 20
-140.4286376602053
 10
97.5554578749167
 20
-140.5895236193665
 10
97.47725420740153
 20
-140.7035562799283
 10
97.35254175083548
 20
-140.7628119222746
 10
97.4410807048064
 20
-140.8137993354563
 10
97.59989960667642
 20
-140.9088839708492
 10
97.59989960667642
 20
-141.1710557372767
 10
97.59989960667642
 20
-141.5455376165233
 10
97.32050236282265
 20
-141.6619818439248
 10
97.08175724569485
 20
-141.6619818439248
 97
        0
 97
        0
 92
        1
 93
        1
 72
     4
 94
        3
 73
     0
 74
     1
 95
       17
 96
       13
 40
0.0
 40
0.0
 40
0.0
 40
0.0
 40
1.0
 40
1.0
 40
1.0
 40
2.0
 40
2.0
 40
2.0
 40
3.0
 40
3.0
 40
3.0
 40
4.0
 40
4.0
 40
4.0
 40
4.0
 10
97.08175724569485
 20
-140.8706434109629
 10
96.9377522544114
 20
-140.8706434109629
 10
96.78547903396336
 20
-140.9574598171912
 10
96.78547903396336
 20
-141.1607204508209
 10
96.78547903396336
 20
-141.3657036321933
 10
96.91225854782056
 20
-141.4673339490082
 10
97.08175724569485
 20
-141.4673339490082
 10
97.26779240189833
 20
-141.4673339490082
 10
97.37769094787781
 20
-141.3446885497333
 10
97.37769094787781
 20
-141.1669216226944
 10
97.37769094787781
 20
-140.9447129638958
 10
97.21473793142549
 20
-140.8706434109629
 10
97.08175724569485
 20
-140.8706434109629
 97
        0
 97
        0
 92
        1
 93
        1
 72
     4
 94
        3
 73
     0
 74
     1
 95
       17
 96
       13
 40
0.0
 40
0.0
 40
0.0
 40
0.0
 40
1.0
 40
1.0
 40
1.0
 40
2.0
 40
2.0
 40
2.0
 40
3.0
 40
3.0
 40
3.0
 40
4.0
 40
4.0
 40
4.0
 40
4.0
 10
97.08175724569485
 20
-140.210563115989
 10
96.91673717195138
 20
-140.210563115989
 10
96.83198782301423
 20
-140.3059922609305
 10
96.83198782301423
 20
-140.4413845135008
 10
96.83198782301423
 20
-140.5640299127757
 10
96.90399031865596
 20
-140.6825411974683
 10
97.08175724569485
 20
-140.6825411974683
 10
97.25917966318521
 20
-140.6825411974683
 10
97.33118215882693
 20
-140.5640299127757
 10
97.33118215882693
 20
-140.4413845135008
 10
97.33118215882693
 20
-140.3059922609305
 10
97.24436575259864
 20
-140.210563115989
 10
97.08175724569485
 20
-140.210563115989
 97
        0
 97
        0
 75
     2
 76
     1
 98
        0
  0
ENDBLK
  5
16D
330
16A
100
AcDbEntity
  8
0
100
AcDbBlockEnd
  0
BLOCK
  5
174
330
172
100
AcDbEntity
  8
0
100
AcDbBlockBegin
  2
block 17
 70
     0
 10
0.0
 20
0.0
 30
0.0
  3
block 17
  1

  0
SPLINE
  5
176
330
172
100
AcDbEntity
  8
_U+30EC_U+30A4_U+30E4_U+30FC 1
 62
   179
420
  2234388
370
    25
100
AcDbSpline
210
0.0
220
0.0
230
1.0
 70
    11
 71
     3
 72
    17
 73
    13
 74
     0
 42
0.0000000001
 43
0.0000000001
 12
1.0
 22
0.0
 32
0.0
 13
1.0
 23
0.0
 33
0.0
 40
0.0
 40
0.0
 40
0.0
 40
0.0
 40
1.0
 40
1.0
 40
1.0
 40
2.0
 40
2.0
 40
2.0
 40
3.0
 40
3.0
 40
3.0
 40
4.0
 40
4.0
 40
4.0
 40
4.0
 10
93.11713845771722
 20
-137.9836655210596
 30
0.0
 10
93.11713845771722
 20
-138.0036327432768
 30
0.0
 10
93.10165151366787
 20
-138.0194724654953
 30
0.0
 10
93.08200179194696
 20
-138.0194724654953
 30
0.0
 10
93.06235207022604
 20
-138.0194724654953
 30
0.0
 10
93.04686512617671
 20
-138.0036327432768
 30
0.0
 10
93.04686512617671
 20
-137.9836655210596
 30
0.0
 10
93.04686512617671
 20
-137.9643685766198
 30
0.0
 10
93.06235207022604
 20
-137.9485288544018
 30
0.0
 10
93.08200179194696
 20
-137.9485288544018
 30
0.0
 10
93.10165151366787
 20
-137.9485288544018
 30
0.0
 10
93.11713845771722
 20
-137.9643685766198
 30
0.0
 10
93.11713845771722
 20
-137.9836655210596
 30
0.0
  0
ENDBLK
  5
175
330
172
100
AcDbEntity
  8
0
100
AcDbBlockEnd
  0
BLOCK
  5
179
330
177
100
AcDbEntity
  8
0
100
AcDbBlockBegin
  2
block 18
 70
     0
 10
0.0
 20
0.0
 30
0.0
  3
block 18
  1

  0
SPLINE
  5
17B
330
177
100
AcDbEntity
  8
_U+30EC_U+30A4_U+30E4_U+30FC 1
 62
   179
420
  2234388
370
    25
100
AcDbSpline
210
0.0
220
0.0
230
1.0
 70
    11
 71
     3
 72
    17
 73
    13
 74
     0
 42
0.0000000001
 43
0.0000000001
 12
1.0
 22
0.0
 32
0.0
 13
1.0
 23
0.0
 33
0.0
 40
0.0
 40
0.0
 40
0.0
 40
0.0
 40
1.0
 40
1.0
 40
1.0
 40
2.0
 40
2.0
 40
2.0
 40
3.0
 40
3.0
 40
3.0
 40
4.0
 40
4.0
 40
4.0
 40
4.0
 10
101.1173268647265
 20
-137.9836655210596
 30
0.0
 10
101.1173268647265
 20
-138.0036327432768
 30
0.0
 10
101.1014871429084
 20
-138.0194724654953
 30
0.0
 10
101.0818726989644
 20
-138.0194724654953
 30
0.0
 10
101.0625757550122
 20
-138.0194724654953
 30
0.0
 10
101.0467007554172
 20
-138.0036327432768
 30
0.0
 10
101.0467007554172
 20
-137.9836655210596
 30
0.0
 10
101.0467007554172
 20
-137.9643685766198
 30
0.0
 10
101.0625757550122
 20
-137.9485288544018
 30
0.0
 10
101.0818726989644
 20
-137.9485288544018
 30
0.0
 10
101.1014871429084
 20
-137.9485288544018
 30
0.0
 10
101.1173268647265
 20
-137.9643685766198
 30
0.0
 10
101.1173268647265
 20
-137.9836655210596
 30
0.0
  0
ENDBLK
  5
17A
330
177
100
AcDbEntity
  8
0
100
AcDbBlockEnd
  0
BLOCK
  5
17E
330
17C
100
AcDbEntity
  8
0
100
AcDbBlockBegin
  2
block 19
 70
     0
 10
0.0
 20
0.0
 30
0.0
  3
block 19
  1

  0
SPLINE
  5
180
330
17C
100
AcDbEntity
  8
_U+30EC_U+30A4_U+30E4_U+30FC 1
 62
   179
420
  2234388
370
     9
100
AcDbSpline
210
0.0
220
0.0
230
1.0
 70
    11
 71
     3
 72
    17
 73
    13
 74
     0
 42
0.0000000001
 43
0.0000000001
 12
1.0
 22
0.0
 32
0.0
 13
1.0
 23
0.0
 33
0.0
 40
0.0
 40
0.0
 40
0.0
 40
0.0
 40
1.0
 40
1.0
 40
1.0
 40
2.0
 40
2.0
 40
2.0
 40
3.0
 40
3.0
 40
3.0
 40
4.0
 40
4.0
 40
4.0
 40
4.0
 10
101.1173268647265
 20
-141.9840949645038
 30
0.0
 10
101.1173268647265
 20
-142.0033919089437
 30
0.0
 10
101.1014871429084
 20
-142.0192316311615
 30
0.0
 10
101.0818726989644
 20
-142.0192316311615
 30
0.0
 10
101.0625757550122
 20
-142.0192316311615
 30
0.0
 10
101.0467007554172
 20
-142.0033919089437
 30
0.0
 10
101.0467007554172
 20
-141.9840949645038
 30
0.0
 10
101.0467007554172
 20
-141.9641277422866
 30
0.0
 10
101.0625757550122
 20
-141.9489582978461
 30
0.0
 10
101.0818726989644
 20
-141.9489582978461
 30
0.0
 10
101.1014871429084
 20
-141.9489582978461
 30
0.0
 10
101.1173268647265
 20
-141.9641277422866
 30
0.0
 10
101.1173268647265
 20
-141.9840949645038
 30
0.0
  0
ENDBLK
  5
17F
330
17C
100
AcDbEntity
  8
0
100
AcDbBlockEnd
  0
BLOCK
  5
183
330
181
100
AcDbEntity
  8
0
100
AcDbBlockBegin
  2
block 20
 70
     0
 10
0.0
 20
0.0
 30
0.0
  3
block 20
  1

  0
POLYLINE
  5
185
330
181
100
AcDbEntity
  8
_U+30EC_U+30A4_U+30E4_U+30FC 1
 62
   179
420
  2234388
370
     9
100
AcDb2dPolyline
 66
     1
 10
0.0
 20
0.0
 30
0.0
  0
VERTEX
  5
186
330
185
100
AcDbEntity
  8
_U+30EC_U+30A4_U+30E4_U+30FC 1
 62
   179
420
  2234388
370
     9
100
AcDbVertex
100
AcDb2dVertex
 10
101.0818726989644
 20
-141.9840949645038
 30
0.0
  0
VERTEX
  5
187
330
185
100
AcDbEntity
  8
_U+30EC_U+30A4_U+30E4_U+30FC 1
 62
   179
420
  2234388
370
     9
100
AcDbVertex
100
AcDb2dVertex
 10
106.0820742380653
 20
-141.9840949645038
 30
0.0
  0
SEQEND
  5
188
330
185
100
AcDbEntity
  8
_U+30EC_U+30A4_U+30E4_U+30FC 1
 62
   179
420
  2234388
370
     9
  0
POLYLINE
  5
189
330
181
100
AcDbEntity
  8
_U+30EC_U+30A4_U+30E4_U+30FC 1
 62
   179
420
  2234388
370
     9
100
AcDb2dPolyline
 66
     1
 10
0.0
 20
0.0
 30
0.0
  0
VERTEX
  5
18A
330
189
100
AcDbEntity
  8
_U+30EC_U+30A4_U+30E4_U+30FC 1
 62
   179
420
  2234388
370
     9
100
AcDbVertex
100
AcDb2dVertex
 10
106.0820742380653
 20
-140.5240535759801
 30
0.0
  0
VERTEX
  5
18B
330
189
100
AcDbEntity
  8
_U+30EC_U+30A4_U+30E4_U+30FC 1
 62
   179
420
  2234388
370
     9
100
AcDbVertex
100
AcDb2dVertex
 10
106.0820742380653
 20
-142.9838671864764
 30
0.0
  0
SEQEND
  5
18C
330
189
100
AcDbEntity
  8
_U+30EC_U+30A4_U+30E4_U+30FC 1
 62
   179
420
  2234388
370
     9
  0
INSERT
  5
18E
330
181
100
AcDbEntity
  8
_U+30EC_U+30A4_U+30E4_U+30FC 1
100
AcDbBlockReference
  2
block 21
 10
0.0
 20
0.0
 30
0.0
  0
INSERT
  5
194
330
181
100
AcDbEntity
  8
_U+30EC_U+30A4_U+30E4_U+30FC 1
100
AcDbBlockReference
  2
block 22
 10
0.0
 20
0.0
 30
0.0
  0
INSERT
  5
199
330
181
100
AcDbEntity
  8
_U+30EC_U+30A4_U+30E4_U+30FC 1
100
AcDbBlockReference
  2
block 23
 10
0.0
 20
0.0
 30
0.0
  0
INSERT
  5
19E
330
181
100
AcDbEntity
  8
_U+30EC_U+30A4_U+30E4_U+30FC 1
100
AcDbBlockReference
  2
block 24
 10
0.0
 20
0.0
 30
0.0
  0
ENDBLK
  5
184
330
181
100
AcDbEntity
  8
0
100
AcDbBlockEnd
  0
BLOCK
  5
18F
330
18D
100
AcDbEntity
  8
0
100
AcDbBlockBegin
  2
block 21
 70
     0
 10
0.0
 20
0.0
 30
0.0
  3
block 21
  1

  0
SPLINE
  5
191
330
18D
100
AcDbEntity
  8
_U+30EC_U+30A4_U+30E4_U+30FC 1
370
     0
100
AcDbSpline
210
0.0
220
0.0
230
1.0
 70
    11
 71
     3
 72
    53
 73
    49
 74
     0
 42
0.0000000001
 43
0.0000000001
 12
1.0
 22
0.0
 32
0.0
 13
1.0
 23
0.0
 33
0.0
 40
0.0
 40
0.0
 40
0.0
 40
0.0
 40
1.0
 40
1.0
 40
1.0
 40
2.0
 40
2.0
 40
2.0
 40
3.0
 40
3.0
 40
3.0
 40
4.0
 40
4.0
 40
4.0
 40
5.0
 40
5.0
 40
5.0
 40
6.0
 40
6.0
 40
6.0
 40
7.0
 40
7.0
 40
7.0
 40
8.0
 40
8.0
 40
8.0
 40
9.0
 40
9.0
 40
9.0
 40
10.0
 40
10.0
 40
10.0
 40
11.0
 40
11.0
 40
11.0
 40
12.0
 40
12.0
 40
12.0
 40
13.0
 40
13.0
 40
13.0
 40
14.0
 40
14.0
 40
14.0
 40
15.0
 40
15.0
 40
15.0
 40
16.0
 40
16.0
 40
16.0
 40
16.0
 10
103.5626708725468
 20
-141.6619818439248
 30
0.0
 10
103.4844672050317
 20
-141.6619818439248
 30
0.0
 10
103.3828368882168
 20
-141.6451008760471
 30
0.0
 10
103.2815510809505
 20
-141.5817111191185
 30
0.0
 10
103.1079182684939
 20
-141.4714680635905
 30
0.0
 10
103.0869031860338
 20
-141.340554435151
 30
0.0
 10
103.0676106513164
 20
-141.2323784369141
 30
0.0
 10
103.0676106513164
 20
-141.2323784369141
 30
0.0
 10
103.289819310115
 20
-141.2323784369141
 30
0.0
 10
103.289819310115
 20
-141.2323784369141
 30
0.0
 10
103.3449408378791
 20
-141.4315049559616
 30
0.0
 10
103.4717203517362
 20
-141.4611327771347
 30
0.0
 10
103.564737929838
 20
-141.4611327771347
 30
0.0
 10
103.7046088065391
 20
-141.4611327771347
 30
0.0
 10
103.8568820269872
 20
-141.361569517611
 30
0.0
 10
103.8568820269872
 20
-141.1290255723567
 30
0.0
 10
103.8568820269872
 20
-140.8730549778026
 30
0.0
 10
103.6770480426571
 20
-140.803119539452
 30
0.0
 10
103.5564697006734
 20
-140.803119539452
 30
0.0
 10
103.5247748222091
 20
-140.803119539452
 30
0.0
 10
103.3828368882168
 20
-140.803119539452
 30
0.0
 10
103.2939534246973
 20
-140.9319661106003
 30
0.0
 10
103.2939534246973
 20
-140.9319661106003
 30
0.0
 10
103.1185980644981
 20
-140.9130180854315
 30
0.0
 10
103.1185980644981
 20
-140.9130180854315
 30
0.0
 10
103.1185980644981
 20
-140.9130180854315
 30
0.0
 10
103.2391764064819
 20
-140.0669026342541
 30
0.0
 10
103.2391764064819
 20
-140.0669026342541
 30
0.0
 10
103.2391764064819
 20
-140.0669026342541
 30
0.0
 10
104.0177679861483
 20
-140.0669026342541
 30
0.0
 10
104.0177679861483
 20
-140.0669026342541
 30
0.0
 10
104.0177679861483
 20
-140.0669026342541
 30
0.0
 10
104.0177679861483
 20
-140.2615505291707
 30
0.0
 10
104.0177679861483
 20
-140.2615505291707
 30
0.0
 10
104.0177679861483
 20
-140.2615505291707
 30
0.0
 10
103.4021294229342
 20
-140.2615505291707
 30
0.0
 10
103.4021294229342
 20
-140.2615505291707
 30
0.0
 10
103.4021294229342
 20
-140.2615505291707
 30
0.0
 10
103.3363280991659
 20
-140.6846082547594
 30
0.0
 10
103.3363280991659
 20
-140.6846082547594
 30
0.0
 10
103.3976507988034
 20
-140.650846319004
 30
0.0
 10
103.4803330904494
 20
-140.6105387018265
 30
0.0
 10
103.598844375142
 20
-140.6105387018265
 30
0.0
 10
103.8527479124049
 20
-140.6105387018265
 30
0.0
 10
104.0894259722415
 20
-140.79657385803
 30
0.0
 10
104.0894259722415
 20
-141.1097330376392
 30
0.0
 10
104.0894259722415
 20
-141.4270263318307
 30
0.0
 10
103.8651502561518
 20
-141.6619818439248
 30
0.0
 10
103.5626708725468
 20
-141.6619818439248
 30
0.0
  0
HATCH
  5
192
330
18D
100
AcDbEntity
  8
_U+30EC_U+30A4_U+30E4_U+30FC 1
 62
   179
420
  2234388
100
AcDbHatch
 10
0.0
 20
0.0
 30
0.0
210
0.0
220
0.0
230
1.0
  2
SOLID
 70
     1
 71
     0
 91
        1
 92
        1
 93
        1
 72
     4
 94
        3
 73
     0
 74
     1
 95
       53
 96
       49
 40
0.0
 40
0.0
 40
0.0
 40
0.0
 40
1.0
 40
1.0
 40
1.0
 40
2.0
 40
2.0
 40
2.0
 40
3.0
 40
3.0
 40
3.0
 40
4.0
 40
4.0
 40
4.0
 40
5.0
 40
5.0
 40
5.0
 40
6.0
 40
6.0
 40
6.0
 40
7.0
 40
7.0
 40
7.0
 40
8.0
 40
8.0
 40
8.0
 40
9.0
 40
9.0
 40
9.0
 40
10.0
 40
10.0
 40
10.0
 40
11.0
 40
11.0
 40
11.0
 40
12.0
 40
12.0
 40
12.0
 40
13.0
 40
13.0
 40
13.0
 40
14.0
 40
14.0
 40
14.0
 40
15.0
 40
15.0
 40
15.0
 40
16.0
 40
16.0
 40
16.0
 40
16.0
 10
103.5626708725468
 20
-141.6619818439248
 10
103.4844672050317
 20
-141.6619818439248
 10
103.3828368882168
 20
-141.6451008760471
 10
103.2815510809505
 20
-141.5817111191185
 10
103.1079182684939
 20
-141.4714680635905
 10
103.0869031860338
 20
-141.340554435151
 10
103.0676106513164
 20
-141.2323784369141
 10
103.0676106513164
 20
-141.2323784369141
 10
103.289819310115
 20
-141.2323784369141
 10
103.289819310115
 20
-141.2323784369141
 10
103.3449408378791
 20
-141.4315049559616
 10
103.4717203517362
 20
-141.4611327771347
 10
103.564737929838
 20
-141.4611327771347
 10
103.7046088065391
 20
-141.4611327771347
 10
103.8568820269872
 20
-141.361569517611
 10
103.8568820269872
 20
-141.1290255723567
 10
103.8568820269872
 20
-140.8730549778026
 10
103.6770480426571
 20
-140.803119539452
 10
103.5564697006734
 20
-140.803119539452
 10
103.5247748222091
 20
-140.803119539452
 10
103.3828368882168
 20
-140.803119539452
 10
103.2939534246973
 20
-140.9319661106003
 10
103.2939534246973
 20
-140.9319661106003
 10
103.1185980644981
 20
-140.9130180854315
 10
103.1185980644981
 20
-140.9130180854315
 10
103.1185980644981
 20
-140.9130180854315
 10
103.2391764064819
 20
-140.0669026342541
 10
103.2391764064819
 20
-140.0669026342541
 10
103.2391764064819
 20
-140.0669026342541
 10
104.0177679861483
 20
-140.0669026342541
 10
104.0177679861483
 20
-140.0669026342541
 10
104.0177679861483
 20
-140.0669026342541
 10
104.0177679861483
 20
-140.2615505291707
 10
104.0177679861483
 20
-140.2615505291707
 10
104.0177679861483
 20
-140.2615505291707
 10
103.4021294229342
 20
-140.2615505291707
 10
103.4021294229342
 20
-140.2615505291707
 10
103.4021294229342
 20
-140.2615505291707
 10
103.3363280991659
 20
-140.6846082547594
 10
103.3363280991659
 20
-140.6846082547594
 10
103.3976507988034
 20
-140.650846319004
 10
103.4803330904494
 20
-140.6105387018265
 10
103.598844375142
 20
-140.6105387018265
 10
103.8527479124049
 20
-140.6105387018265
 10
104.0894259722415
 20
-140.79657385803
 10
104.0894259722415
 20
-141.1097330376392
 10
104.0894259722415
 20
-141.4270263318307
 10
103.8651502561518
 20
-141.6619818439248
 10
103.5626708725468
 20
-141.6619818439248
 97
        0
 97
        0
 75
     2
 76
     1
 98
        0
  0
ENDBLK
  5
190
330
18D
100
AcDbEntity
  8
0
100
AcDbBlockEnd
  0
BLOCK
  5
195
330
193
100
AcDbEntity
  8
0
100
AcDbBlockBegin
  2
block 22
 70
     0
 10
0.0
 20
0.0
 30
0.0
  3
block 22
  1

  0
SPLINE
  5
197
330
193
100
AcDbEntity
  8
_U+30EC_U+30A4_U+30E4_U+30FC 1
 62
   179
420
  2234388
370
    25
100
AcDbSpline
210
0.0
220
0.0
230
1.0
 70
    11
 71
     3
 72
    17
 73
    13
 74
     0
 42
0.0000000001
 43
0.0000000001
 12
1.0
 22
0.0
 32
0.0
 13
1.0
 23
0.0
 33
0.0
 40
0.0
 40
0.0
 40
0.0
 40
0.0
 40
1.0
 40
1.0
 40
1.0
 40
2.0
 40
2.0
 40
2.0
 40
3.0
 40
3.0
 40
3.0
 40
4.0
 40
4.0
 40
4.0
 40
4.0
 10
101.1173268647265
 20
-137.9836655210596
 30
0.0
 10
101.1173268647265
 20
-138.0036327432768
 30
0.0
 10
101.1014871429084
 20
-138.0194724654953
 30
0.0
 10
101.0818726989644
 20
-138.0194724654953
 30
0.0
 10
101.0625757550122
 20
-138.0194724654953
 30
0.0
 10
101.0467007554172
 20
-138.0036327432768
 30
0.0
 10
101.0467007554172
 20
-137.9836655210596
 30
0.0
 10
101.0467007554172
 20
-137.9643685766198
 30
0.0
 10
101.0625757550122
 20
-137.9485288544018
 30
0.0
 10
101.0818726989644
 20
-137.9485288544018
 30
0.0
 10
101.1014871429084
 20
-137.9485288544018
 30
0.0
 10
101.1173268647265
 20
-137.9643685766198
 30
0.0
 10
101.1173268647265
 20
-137.9836655210596
 30
0.0
  0
ENDBLK
  5
196
330
193
100
AcDbEntity
  8
0
100
AcDbBlockEnd
  0
BLOCK
  5
19A
330
198
100
AcDbEntity
  8
0
100
AcDbBlockBegin
  2
block 23
 70
     0
 10
0.0
 20
0.0
 30
0.0
  3
block 23
  1

  0
SPLINE
  5
19C
330
198
100
AcDbEntity
  8
_U+30EC_U+30A4_U+30E4_U+30FC 1
 62
   179
420
  2234388
370
    25
100
AcDbSpline
210
0.0
220
0.0
230
1.0
 70
    11
 71
     3
 72
    17
 73
    13
 74
     0
 42
0.0000000001
 43
0.0000000001
 12
1.0
 22
0.0
 32
0.0
 13
1.0
 23
0.0
 33
0.0
 40
0.0
 40
0.0
 40
0.0
 40
0.0
 40
1.0
 40
1.0
 40
1.0
 40
2.0
 40
2.0
 40
2.0
 40
3.0
 40
3.0
 40
3.0
 40
4.0
 40
4.0
 40
4.0
 40
4.0
 10
106.1172109038355
 20
-137.9836655210596
 30
0.0
 10
106.1172109038355
 20
-138.0036327432768
 30
0.0
 10
106.1013711820174
 20
-138.0194724654953
 30
0.0
 10
106.0820742380653
 20
-138.0194724654953
 30
0.0
 10
106.0624245163444
 20
-138.0194724654953
 30
0.0
 10
106.0465847945262
 20
-138.0036327432768
 30
0.0
 10
106.0465847945262
 20
-137.9836655210596
 30
0.0
 10
106.0465847945262
 20
-137.9643685766198
 30
0.0
 10
106.0624245163444
 20
-137.9485288544018
 30
0.0
 10
106.0820742380653
 20
-137.9485288544018
 30
0.0
 10
106.1013711820174
 20
-137.9485288544018
 30
0.0
 10
106.1172109038355
 20
-137.9643685766198
 30
0.0
 10
106.1172109038355
 20
-137.9836655210596
 30
0.0
  0
ENDBLK
  5
19B
330
198
100
AcDbEntity
  8
0
100
AcDbBlockEnd
  0
BLOCK
  5
19F
330
19D
100
AcDbEntity
  8
0
100
AcDbBlockBegin
  2
block 24
 70
     0
 10
0.0
 20
0.0
 30
0.0
  3
block 24
  1

  0
SPLINE
  5
1A1
330
19D
100
AcDbEntity
  8
_U+30EC_U+30A4_U+30E4_U+30FC 1
 62
   179
420
  2234388
370
     9
100
AcDbSpline
210
0.0
220
0.0
230
1.0
 70
    11
 71
     3
 72
    17
 73
    13
 74
     0
 42
0.0000000001
 43
0.0000000001
 12
1.0
 22
0.0
 32
0.0
 13
1.0
 23
0.0
 33
0.0
 40
0.0
 40
0.0
 40
0.0
 40
0.0
 40
1.0
 40
1.0
 40
1.0
 40
2.0
 40
2.0
 40
2.0
 40
3.0
 40
3.0
 40
3.0
 40
4.0
 40
4.0
 40
4.0
 40
4.0
 10
106.1172109038355
 20
-141.9840949645038
 30
0.0
 10
106.1172109038355
 20
-142.0033919089437
 30
0.0
 10
106.1013711820174
 20
-142.0192316311615
 30
0.0
 10
106.0820742380653
 20
-142.0192316311615
 30
0.0
 10
106.0624245163444
 20
-142.0192316311615
 30
0.0
 10
106.0465847945262
 20
-142.0033919089437
 30
0.0
 10
106.0465847945262
 20
-141.9840949645038
 30
0.0
 10
106.0465847945262
 20
-141.9641277422866
 30
0.0
 10
106.0624245163444
 20
-141.9489582978461
 30
0.0
 10
106.0820742380653
 20
-141.9489582978461
 30
0.0
 10
106.1013711820174
 20
-141.9489582978461
 30
0.0
 10
106.1172109038355
 20
-141.9641277422866
 30
0.0
 10
106.1172109038355
 20
-141.9840949645038
 30
0.0
  0
ENDBLK
  5
1A0
330
19D
100
AcDbEntity
  8
0
100
AcDbBlockEnd
  0
BLOCK
  5
1A4
330
1A2
100
AcDbEntity
  8
0
100
AcDbBlockBegin
  2
block 25
 70
     0
 10
0.0
 20
0.0
 30
0.0
  3
block 25
  1

  0
POLYLINE
  5
1A6
330
1A2
100
AcDbEntity
  8
_U+30EC_U+30A4_U+30E4_U+30FC 1
 62
   179
420
  2234388
370
     9
100
AcDb2dPolyline
 66
     1
 10
0.0
 20
0.0
 30
0.0
  0
VERTEX
  5
1A7
330
1A6
100
AcDbEntity
  8
_U+30EC_U+30A4_U+30E4_U+30FC 1
 62
   179
420
  2234388
370
     9
100
AcDbVertex
100
AcDb2dVertex
 10
79.08215714911276
 20
-137.9836655210596
 30
0.0
  0
VERTEX
  5
1A8
330
1A6
100
AcDbEntity
  8
_U+30EC_U+30A4_U+30E4_U+30FC 1
 62
   179
420
  2234388
370
     9
100
AcDbVertex
100
AcDb2dVertex
 10
79.08215714911276
 20
-133.9839063553927
 30
0.0
  0
SEQEND
  5
1A9
330
1A6
100
AcDbEntity
  8
_U+30EC_U+30A4_U+30E4_U+30FC 1
 62
   179
420
  2234388
370
     9
  0
POLYLINE
  5
1AA
330
1A2
100
AcDbEntity
  8
_U+30EC_U+30A4_U+30E4_U+30FC 1
 62
   179
420
  2234388
370
     9
100
AcDb2dPolyline
 66
     1
 10
0.0
 20
0.0
 30
0.0
  0
VERTEX
  5
1AB
330
1AA
100
AcDbEntity
  8
_U+30EC_U+30A4_U+30E4_U+30FC 1
 62
   179
420
  2234388
370
     9
100
AcDbVertex
100
AcDb2dVertex
 10
80.5418457229841
 20
-137.9836655210596
 30
0.0
  0
VERTEX
  5
1AC
330
1AA
100
AcDbEntity
  8
_U+30EC_U+30A4_U+30E4_U+30FC 1
 62
   179
420
  2234388
370
     9
100
AcDbVertex
100
AcDb2dVertex
 10
78.08206942492394
 20
-137.9836655210596
 30
0.0
  0
SEQEND
  5
1AD
330
1AA
100
AcDbEntity
  8
_U+30EC_U+30A4_U+30E4_U+30FC 1
 62
   179
420
  2234388
370
     9
  0
POLYLINE
  5
1AE
330
1A2
100
AcDbEntity
  8
_U+30EC_U+30A4_U+30E4_U+30FC 1
 62
   179
420
  2234388
370
     9
100
AcDb2dPolyline
 66
     1
 10
0.0
 20
0.0
 30
0.0
  0
VERTEX
  5
1AF
330
1AE
100
AcDbEntity
  8
_U+30EC_U+30A4_U+30E4_U+30FC 1
 62
   179
420
  2234388
370
     9
100
AcDbVertex
100
AcDb2dVertex
 10
80.5418457229841
 20
-133.9839063553927
 30
0.0
  0
VERTEX
  5
1B0
330
1AE
100
AcDbEntity
  8
_U+30EC_U+30A4_U+30E4_U+30FC 1
 62
   179
420
  2234388
370
     9
100
AcDbVertex
100
AcDb2dVertex
 10
78.08206942492394
 20
-133.9839063553927
 30
0.0
  0
SEQEND
  5
1B1
330
1AE
100
AcDbEntity
  8
_U+30EC_U+30A4_U+30E4_U+30FC 1
 62
   179
420
  2234388
370
     9
  0
INSERT
  5
1B3
330
1A2
100
AcDbEntity
  8
_U+30EC_U+30A4_U+30E4_U+30FC 1
100
AcDbBlockReference
  2
block 26
 10
0.0
 20
0.0
 30
0.0
  0
INSERT
  5
1CC
330
1A2
100
AcDbEntity
  8
_U+30EC_U+30A4_U+30E4_U+30FC 1
100
AcDbBlockReference
  2
block 27
 10
0.0
 20
0.0
 30
0.0
  0
INSERT
  5
1D1
330
1A2
100
AcDbEntity
  8
_U+30EC_U+30A4_U+30E4_U+30FC 1
100
AcDbBlockReference
  2
block 28
 10
0.0
 20
0.0
 30
0.0
  0
INSERT
  5
1D6
330
1A2
100
AcDbEntity
  8
_U+30EC_U+30A4_U+30E4_U+30FC 1
100
AcDbBlockReference
  2
block 29
 10
0.0
 20
0.0
 30
0.0
  0
ENDBLK
  5
1A5
330
1A2
100
AcDbEntity
  8
0
100
AcDbBlockEnd
  0
BLOCK
  5
1B4
330
1B2
100
AcDbEntity
  8
0
100
AcDbBlockBegin
  2
block 26
 70
     0
 10
0.0
 20
0.0
 30
0.0
  3
block 26
  1

  0
POLYLINE
  5
1B6
330
1B2
100
AcDbEntity
  8
_U+30EC_U+30A4_U+30E4_U+30FC 1
370
     0
100
AcDb2dPolyline
 66
     1
 10
0.0
 20
0.0
 30
0.0
  0
VERTEX
  5
1B7
330
1B6
100
AcDbEntity
  8
_U+30EC_U+30A4_U+30E4_U+30FC 1
370
     0
100
AcDbVertex
100
AcDb2dVertex
 10
78.36248641704132
 20
-135.652357279455
 30
0.0
  0
VERTEX
  5
1B8
330
1B6
100
AcDbEntity
  8
_U+30EC_U+30A4_U+30E4_U+30FC 1
370
     0
100
AcDbVertex
100
AcDb2dVertex
 10
78.70940753240599
 20
-135.652357279455
 30
0.0
  0
VERTEX
  5
1B9
330
1B6
100
AcDbEntity
  8
_U+30EC_U+30A4_U+30E4_U+30FC 1
370
     0
100
AcDbVertex
100
AcDb2dVertex
 10
78.70940753240599
 20
-135.8700873141228
 30
0.0
  0
VERTEX
  5
1BA
330
1B6
100
AcDbEntity
  8
_U+30EC_U+30A4_U+30E4_U+30FC 1
370
     0
100
AcDbVertex
100
AcDb2dVertex
 10
78.36248641704132
 20
-135.8700873141228
 30
0.0
  0
VERTEX
  5
1BB
330
1B6
100
AcDbEntity
  8
_U+30EC_U+30A4_U+30E4_U+30FC 1
370
     0
100
AcDbVertex
100
AcDb2dVertex
 10
78.36248641704132
 20
-136.5260334945143
 30
0.0
  0
VERTEX
  5
1BC
330
1B6
100
AcDbEntity
  8
_U+30EC_U+30A4_U+30E4_U+30FC 1
370
     0
100
AcDbVertex
100
AcDb2dVertex
 10
78.13821070095156
 20
-136.5260334945143
 30
0.0
  0
VERTEX
  5
1BD
330
1B6
100
AcDbEntity
  8
_U+30EC_U+30A4_U+30E4_U+30FC 1
370
     0
100
AcDbVertex
100
AcDb2dVertex
 10
77.16514348114275
 20
-135.8470051743716
 30
0.0
  0
VERTEX
  5
1BE
330
1B6
100
AcDbEntity
  8
_U+30EC_U+30A4_U+30E4_U+30FC 1
370
     0
100
AcDbVertex
100
AcDb2dVertex
 10
77.16514348114275
 20
-135.652357279455
 30
0.0
  0
VERTEX
  5
1BF
330
1B6
100
AcDbEntity
  8
_U+30EC_U+30A4_U+30E4_U+30FC 1
370
     0
100
AcDbVertex
100
AcDb2dVertex
 10
78.16370440754241
 20
-135.652357279455
 30
0.0
  0
VERTEX
  5
1C0
330
1B6
100
AcDbEntity
  8
_U+30EC_U+30A4_U+30E4_U+30FC 1
370
     0
100
AcDbVertex
100
AcDb2dVertex
 10
78.16370440754241
 20
-135.4449625312429
 30
0.0
  0
VERTEX
  5
1C1
330
1B6
100
AcDbEntity
  8
_U+30EC_U+30A4_U+30E4_U+30FC 1
370
     0
100
AcDbVertex
100
AcDb2dVertex
 10
78.36248641704132
 20
-135.4449625312429
 30
0.0
  0
VERTEX
  5
1C2
330
1B6
100
AcDbEntity
  8
_U+30EC_U+30A4_U+30E4_U+30FC 1
370
     0
100
AcDbVertex
100
AcDb2dVertex
 10
78.36248641704132
 20
-135.652357279455
 30
0.0
  0
SEQEND
  5
1C3
330
1B6
100
AcDbEntity
  8
_U+30EC_U+30A4_U+30E4_U+30FC 1
370
     0
  0
POLYLINE
  5
1C4
330
1B2
100
AcDbEntity
  8
_U+30EC_U+30A4_U+30E4_U+30FC 1
370
     0
100
AcDb2dPolyline
 66
     1
 10
0.0
 20
0.0
 30
0.0
  0
VERTEX
  5
1C5
330
1C4
100
AcDbEntity
  8
_U+30EC_U+30A4_U+30E4_U+30FC 1
370
     0
100
AcDbVertex
100
AcDb2dVertex
 10
77.50775822715084
 20
-135.8700873141228
 30
0.0
  0
VERTEX
  5
1C6
330
1C4
100
AcDbEntity
  8
_U+30EC_U+30A4_U+30E4_U+30FC 1
370
     0
100
AcDbVertex
100
AcDb2dVertex
 10
78.16370440754241
 20
-136.3272514850154
 30
0.0
  0
VERTEX
  5
1C7
330
1C4
100
AcDbEntity
  8
_U+30EC_U+30A4_U+30E4_U+30FC 1
370
     0
100
AcDbVertex
100
AcDb2dVertex
 10
78.16370440754241
 20
-135.8700873141228
 30
0.0
  0
VERTEX
  5
1C8
330
1C4
100
AcDbEntity
  8
_U+30EC_U+30A4_U+30E4_U+30FC 1
370
     0
100
AcDbVertex
100
AcDb2dVertex
 10
77.50775822715084
 20
-135.8700873141228
 30
0.0
  0
SEQEND
  5
1C9
330
1C4
100
AcDbEntity
  8
_U+30EC_U+30A4_U+30E4_U+30FC 1
370
     0
  0
HATCH
  5
1CA
330
1B2
100
AcDbEntity
  8
_U+30EC_U+30A4_U+30E4_U+30FC 1
 62
   179
420
  2234388
100
AcDbHatch
 10
0.0
 20
0.0
 30
0.0
210
0.0
220
0.0
230
1.0
  2
SOLID
 70
     1
 71
     0
 91
        2
 92
        1
 93
       11
 72
     1
 10
78.36248641704132
 20
-135.652357279455
 11
78.70940753240599
 21
-135.652357279455
 72
     1
 10
78.70940753240599
 20
-135.652357279455
 11
78.70940753240599
 21
-135.8700873141228
 72
     1
 10
78.70940753240599
 20
-135.8700873141228
 11
78.36248641704132
 21
-135.8700873141228
 72
     1
 10
78.36248641704132
 20
-135.8700873141228
 11
78.36248641704132
 21
-136.5260334945143
 72
     1
 10
78.36248641704132
 20
-136.5260334945143
 11
78.13821070095156
 21
-136.5260334945143
 72
     1
 10
78.13821070095156
 20
-136.5260334945143
 11
77.16514348114275
 21
-135.8470051743716
 72
     1
 10
77.16514348114275
 20
-135.8470051743716
 11
77.16514348114275
 21
-135.652357279455
 72
     1
 10
77.16514348114275
 20
-135.652357279455
 11
78.16370440754241
 21
-135.652357279455
 72
     1
 10
78.16370440754241
 20
-135.652357279455
 11
78.16370440754241
 21
-135.4449625312429
 72
     1
 10
78.16370440754241
 20
-135.4449625312429
 11
78.36248641704132
 21
-135.4449625312429
 72
     1
 10
78.36248641704132
 20
-135.4449625312429
 11
78.36248641704132
 21
-135.652357279455
 97
        0
 92
        1
 93
        3
 72
     1
 10
77.50775822715084
 20
-135.8700873141228
 11
78.16370440754241
 21
-136.3272514850154
 72
     1
 10
78.16370440754241
 20
-136.3272514850154
 11
78.16370440754241
 21
-135.8700873141228
 72
     1
 10
78.16370440754241
 20
-135.8700873141228
 11
77.50775822715084
 21
-135.8700873141228
 97
        0
 75
     2
 76
     1
 98
        0
  0
ENDBLK
  5
1B5
330
1B2
100
AcDbEntity
  8
0
100
AcDbBlockEnd
  0
BLOCK
  5
1CD
330
1CB
100
AcDbEntity
  8
0
100
AcDbBlockBegin
  2
block 27
 70
     0
 10
0.0
 20
0.0
 30
0.0
  3
block 27
  1

  0
SPLINE
  5
1CF
330
1CB
100
AcDbEntity
  8
_U+30EC_U+30A4_U+30E4_U+30FC 1
 62
   179
420
  2234388
370
    25
100
AcDbSpline
210
0.0
220
0.0
230
1.0
 70
    11
 71
     3
 72
    17
 73
    13
 74
     0
 42
0.0000000001
 43
0.0000000001
 12
1.0
 22
0.0
 32
0.0
 13
1.0
 23
0.0
 33
0.0
 40
0.0
 40
0.0
 40
0.0
 40
0.0
 40
1.0
 40
1.0
 40
1.0
 40
2.0
 40
2.0
 40
2.0
 40
3.0
 40
3.0
 40
3.0
 40
4.0
 40
4.0
 40
4.0
 40
4.0
 10
83.1174056572761
 20
-137.9836655210596
 30
0.0
 10
83.1174056572761
 20
-138.0036327432768
 30
0.0
 10
83.10156593545798
 20
-138.0194724654953
 30
0.0
 10
83.08191621373706
 20
-138.0194724654953
 30
0.0
 10
83.06261926978493
 20
-138.0194724654953
 30
0.0
 10
83.0467795479668
 20
-138.0036327432768
 30
0.0
 10
83.0467795479668
 20
-137.9836655210596
 30
0.0
 10
83.0467795479668
 20
-137.9643685766198
 30
0.0
 10
83.06261926978493
 20
-137.9485288544018
 30
0.0
 10
83.08191621373706
 20
-137.9485288544018
 30
0.0
 10
83.10156593545798
 20
-137.9485288544018
 30
0.0
 10
83.1174056572761
 20
-137.9643685766198
 30
0.0
 10
83.1174056572761
 20
-137.9836655210596
 30
0.0
  0
ENDBLK
  5
1CE
330
1CB
100
AcDbEntity
  8
0
100
AcDbBlockEnd
  0
BLOCK
  5
1D2
330
1D0
100
AcDbEntity
  8
0
100
AcDbBlockBegin
  2
block 28
 70
     0
 10
0.0
 20
0.0
 30
0.0
  3
block 28
  1

  0
SPLINE
  5
1D4
330
1D0
100
AcDbEntity
  8
_U+30EC_U+30A4_U+30E4_U+30FC 1
 62
   179
420
  2234388
370
    25
100
AcDbSpline
210
0.0
220
0.0
230
1.0
 70
    11
 71
     3
 72
    17
 73
    13
 74
     0
 42
0.0000000001
 43
0.0000000001
 12
1.0
 22
0.0
 32
0.0
 13
1.0
 23
0.0
 33
0.0
 40
0.0
 40
0.0
 40
0.0
 40
0.0
 40
1.0
 40
1.0
 40
1.0
 40
2.0
 40
2.0
 40
2.0
 40
3.0
 40
3.0
 40
3.0
 40
4.0
 40
4.0
 40
4.0
 40
4.0
 10
83.1174056572761
 20
-133.9839063553927
 30
0.0
 10
83.1174056572761
 20
-134.0032032998325
 30
0.0
 10
83.10156593545798
 20
-134.0190430220511
 30
0.0
 10
83.08191621373706
 20
-134.0190430220511
 30
0.0
 10
83.06261926978493
 20
-134.0190430220511
 30
0.0
 10
83.0467795479668
 20
-134.0032032998325
 30
0.0
 10
83.0467795479668
 20
-133.9839063553927
 30
0.0
 10
83.0467795479668
 20
-133.9646094109535
 30
0.0
 10
83.06261926978493
 20
-133.948769688735
 30
0.0
 10
83.08191621373706
 20
-133.948769688735
 30
0.0
 10
83.10156593545798
 20
-133.948769688735
 30
0.0
 10
83.1174056572761
 20
-133.9646094109535
 30
0.0
 10
83.1174056572761
 20
-133.9839063553927
 30
0.0
  0
ENDBLK
  5
1D3
330
1D0
100
AcDbEntity
  8
0
100
AcDbBlockEnd
  0
BLOCK
  5
1D7
330
1D5
100
AcDbEntity
  8
0
100
AcDbBlockBegin
  2
block 29
 70
     0
 10
0.0
 20
0.0
 30
0.0
  3
block 29
  1

  0
SPLINE
  5
1D9
330
1D5
100
AcDbEntity
  8
_U+30EC_U+30A4_U+30E4_U+30FC 1
 62
   179
420
  2234388
370
     9
100
AcDbSpline
210
0.0
220
0.0
230
1.0
 70
    11
 71
     3
 72
    17
 73
    13
 74
     0
 42
0.0000000001
 43
0.0000000001
 12
1.0
 22
0.0
 32
0.0
 13
1.0
 23
0.0
 33
0.0
 40
0.0
 40
0.0
 40
0.0
 40
0.0
 40
1.0
 40
1.0
 40
1.0
 40
2.0
 40
2.0
 40
2.0
 40
3.0
 40
3.0
 40
3.0
 40
4.0
 40
4.0
 40
4.0
 40
4.0
 10
79.11729381488301
 20
-133.9839063553927
 30
0.0
 10
79.11729381488301
 20
-134.0032032998325
 30
0.0
 10
79.10145409306489
 20
-134.0190430220511
 30
0.0
 10
79.08215714911276
 20
-134.0190430220511
 30
0.0
 10
79.06254270516871
 20
-134.0190430220511
 30
0.0
 10
79.04666770557373
 20
-134.0032032998325
 30
0.0
 10
79.04666770557373
 20
-133.9839063553927
 30
0.0
 10
79.04666770557373
 20
-133.9646094109535
 30
0.0
 10
79.06254270516871
 20
-133.948769688735
 30
0.0
 10
79.08215714911276
 20
-133.948769688735
 30
0.0
 10
79.10145409306489
 20
-133.948769688735
 30
0.0
 10
79.11729381488301
 20
-133.9646094109535
 30
0.0
 10
79.11729381488301
 20
-133.9839063553927
 30
0.0
  0
ENDBLK
  5
1D8
330
1D5
100
AcDbEntity
  8
0
100
AcDbBlockEnd
  0
BLOCK
  5
1DC
330
1DA
100
AcDbEntity
  8
0
100
AcDbBlockBegin
  2
block 30
 70
     0
 10
0.0
 20
0.0
 30
0.0
  3
block 30
  1

  0
POLYLINE
  5
1DE
330
1DA
100
AcDbEntity
  8
_U+30EC_U+30A4_U+30E4_U+30FC 1
 62
   179
420
  2234388
370
     9
100
AcDb2dPolyline
 66
     1
 10
0.0
 20
0.0
 30
0.0
  0
VERTEX
  5
1DF
330
1DE
100
AcDbEntity
  8
_U+30EC_U+30A4_U+30E4_U+30FC 1
 62
   179
420
  2234388
370
     9
100
AcDbVertex
100
AcDb2dVertex
 10
79.08215714911276
 20
-120.9841863586428
 30
0.0
  0
VERTEX
  5
1E0
330
1DE
100
AcDbEntity
  8
_U+30EC_U+30A4_U+30E4_U+30FC 1
 62
   179
420
  2234388
370
     9
100
AcDbVertex
100
AcDb2dVertex
 10
79.08215714911276
 20
-133.9839063553927
 30
0.0
  0
SEQEND
  5
1E1
330
1DE
100
AcDbEntity
  8
_U+30EC_U+30A4_U+30E4_U+30FC 1
 62
   179
420
  2234388
370
     9
  0
POLYLINE
  5
1E2
330
1DA
100
AcDbEntity
  8
_U+30EC_U+30A4_U+30E4_U+30FC 1
 62
   179
420
  2234388
370
     9
100
AcDb2dPolyline
 66
     1
 10
0.0
 20
0.0
 30
0.0
  0
VERTEX
  5
1E3
330
1E2
100
AcDbEntity
  8
_U+30EC_U+30A4_U+30E4_U+30FC 1
 62
   179
420
  2234388
370
     9
100
AcDbVertex
100
AcDb2dVertex
 10
87.04205833492765
 20
-120.9841863586428
 30
0.0
  0
VERTEX
  5
1E4
330
1E2
100
AcDbEntity
  8
_U+30EC_U+30A4_U+30E4_U+30FC 1
 62
   179
420
  2234388
370
     9
100
AcDbVertex
100
AcDb2dVertex
 10
78.08206942492394
 20
-120.9841863586428
 30
0.0
  0
SEQEND
  5
1E5
330
1E2
100
AcDbEntity
  8
_U+30EC_U+30A4_U+30E4_U+30FC 1
 62
   179
420
  2234388
370
     9
  0
INSERT
  5
1E7
330
1DA
100
AcDbEntity
  8
_U+30EC_U+30A4_U+30E4_U+30FC 1
100
AcDbBlockReference
  2
block 31
 10
0.0
 20
0.0
 30
0.0
  0
INSERT
  5
1EF
330
1DA
100
AcDbEntity
  8
_U+30EC_U+30A4_U+30E4_U+30FC 1
100
AcDbBlockReference
  2
block 32
 10
0.0
 20
0.0
 30
0.0
  0
INSERT
  5
1F4
330
1DA
100
AcDbEntity
  8
_U+30EC_U+30A4_U+30E4_U+30FC 1
100
AcDbBlockReference
  2
block 33
 10
0.0
 20
0.0
 30
0.0
  0
INSERT
  5
1F9
330
1DA
100
AcDbEntity
  8
_U+30EC_U+30A4_U+30E4_U+30FC 1
100
AcDbBlockReference
  2
block 34
 10
0.0
 20
0.0
 30
0.0
  0
ENDBLK
  5
1DD
330
1DA
100
AcDbEntity
  8
0
100
AcDbBlockEnd
  0
BLOCK
  5
1E8
330
1E6
100
AcDbEntity
  8
0
100
AcDbBlockBegin
  2
block 31
 70
     0
 10
0.0
 20
0.0
 30
0.0
  3
block 31
  1

  0
SPLINE
  5
1EA
330
1E6
100
AcDbEntity
  8
_U+30EC_U+30A4_U+30E4_U+30FC 1
370
     0
100
AcDbSpline
210
0.0
220
0.0
230
1.0
 70
    11
 71
     3
 72
    26
 73
    22
 74
     0
 42
0.0000000001
 43
0.0000000001
 12
1.0
 22
0.0
 32
0.0
 13
1.0
 23
0.0
 33
0.0
 40
0.0
 40
0.0
 40
0.0
 40
0.0
 40
1.0
 40
1.0
 40
1.0
 40
2.0
 40
2.0
 40
2.0
 40
3.0
 40
3.0
 40
3.0
 40
4.0
 40
4.0
 40
4.0
 40
5.0
 40
5.0
 40
5.0
 40
6.0
 40
6.0
 40
6.0
 40
7.0
 40
7.0
 40
7.0
 40
7.0
 10
78.70940753240599
 20
-128.1213785486988
 30
0.0
 10
78.70940753240599
 20
-128.1213785486988
 30
0.0
 10
77.60508217460915
 20
-128.1213785486988
 30
0.0
 10
77.60508217460915
 20
-128.1213785486988
 30
0.0
 10
77.60508217460915
 20
-128.1213785486988
 30
0.0
 10
77.60508217460915
 20
-128.4514186961858
 30
0.0
 10
77.60508217460915
 20
-128.4514186961858
 30
0.0
 10
77.60508217460915
 20
-128.4514186961858
 30
0.0
 10
77.45711532351767
 20
-128.4514186961858
 30
0.0
 10
77.45711532351767
 20
-128.4514186961858
 30
0.0
 10
77.4423014129311
 20
-128.1193114914077
 30
0.0
 10
77.27934839647878
 20
-128.0728027023568
 30
0.0
 10
77.16514348114275
 20
-128.0431748811837
 30
0.0
 10
77.16514348114275
 20
-128.0431748811837
 30
0.0
 10
77.16514348114275
 20
-127.8972750873833
 30
0.0
 10
77.16514348114275
 20
-127.8972750873833
 30
0.0
 10
77.16514348114275
 20
-127.8972750873833
 30
0.0
 10
78.70940753240599
 20
-127.8972750873833
 30
0.0
 10
78.70940753240599
 20
-127.8972750873833
 30
0.0
 10
78.70940753240599
 20
-127.8972750873833
 30
0.0
 10
78.70940753240599
 20
-128.1213785486988
 30
0.0
 10
78.70940753240599
 20
-128.1213785486988
 30
0.0
  0
HATCH
  5
1EB
330
1E6
100
AcDbEntity
  8
_U+30EC_U+30A4_U+30E4_U+30FC 1
 62
   179
420
  2234388
100
AcDbHatch
 10
0.0
 20
0.0
 30
0.0
210
0.0
220
0.0
230
1.0
  2
SOLID
 70
     1
 71
     0
 91
        1
 92
        1
 93
        1
 72
     4
 94
        3
 73
     0
 74
     1
 95
       26
 96
       22
 40
0.0
 40
0.0
 40
0.0
 40
0.0
 40
1.0
 40
1.0
 40
1.0
 40
2.0
 40
2.0
 40
2.0
 40
3.0
 40
3.0
 40
3.0
 40
4.0
 40
4.0
 40
4.0
 40
5.0
 40
5.0
 40
5.0
 40
6.0
 40
6.0
 40
6.0
 40
7.0
 40
7.0
 40
7.0
 40
7.0
 10
78.70940753240599
 20
-128.1213785486988
 10
78.70940753240599
 20
-128.1213785486988
 10
77.60508217460915
 20
-128.1213785486988
 10
77.60508217460915
 20
-128.1213785486988
 10
77.60508217460915
 20
-128.1213785486988
 10
77.60508217460915
 20
-128.4514186961858
 10
77.60508217460915
 20
-128.4514186961858
 10
77.60508217460915
 20
-128.4514186961858
 10
77.45711532351767
 20
-128.4514186961858
 10
77.45711532351767
 20
-128.4514186961858
 10
77.4423014129311
 20
-128.1193114914077
 10
77.27934839647878
 20
-128.0728027023568
 10
77.16514348114275
 20
-128.0431748811837
 10
77.16514348114275
 20
-128.0431748811837
 10
77.16514348114275
 20
-127.8972750873833
 10
77.16514348114275
 20
-127.8972750873833
 10
77.16514348114275
 20
-127.8972750873833
 10
78.70940753240599
 20
-127.8972750873833
 10
78.70940753240599
 20
-127.8972750873833
 10
78.70940753240599
 20
-127.8972750873833
 10
78.70940753240599
 20
-128.1213785486988
 10
78.70940753240599
 20
-128.1213785486988
 97
        0
 97
        0
 75
     2
 76
     1
 98
        0
  0
SPLINE
  5
1EC
330
1E6
100
AcDbEntity
  8
_U+30EC_U+30A4_U+30E4_U+30FC 1
370
     0
100
AcDbSpline
210
0.0
220
0.0
230
1.0
 70
    11
 71
     3
 72
    62
 73
    58
 74
     0
 42
0.0000000001
 43
0.0000000001
 12
1.0
 22
0.0
 32
0.0
 13
1.0
 23
0.0
 33
0.0
 40
0.0
 40
0.0
 40
0.0
 40
0.0
 40
1.0
 40
1.0
 40
1.0
 40
2.0
 40
2.0
 40
2.0
 40
3.0
 40
3.0
 40
3.0
 40
4.0
 40
4.0
 40
4.0
 40
5.0
 40
5.0
 40
5.0
 40
6.0
 40
6.0
 40
6.0
 40
7.0
 40
7.0
 40
7.0
 40
8.0
 40
8.0
 40
8.0
 40
9.0
 40
9.0
 40
9.0
 40
10.0
 40
10.0
 40
10.0
 40
11.0
 40
11.0
 40
11.0
 40
12.0
 40
12.0
 40
12.0
 40
13.0
 40
13.0
 40
13.0
 40
14.0
 40
14.0
 40
14.0
 40
15.0
 40
15.0
 40
15.0
 40
16.0
 40
16.0
 40
16.0
 40
17.0
 40
17.0
 40
17.0
 40
18.0
 40
18.0
 40
18.0
 40
19.0
 40
19.0
 40
19.0
 40
19.0
 10
78.76022269081342
 20
-126.9043985685343
 30
0.0
 10
78.76022269081342
 20
-126.9996554587015
 30
0.0
 10
78.73903535357914
 20
-127.2175577481435
 30
0.0
 10
78.55282794260138
 20
-127.3422702047096
 30
0.0
 10
78.4406900845565
 20
-127.4163397576424
 30
0.0
 10
78.34129907980704
 20
-127.420646126999
 30
0.0
 10
78.25672198564416
 20
-127.4247802415813
 30
0.0
 10
78.25672198564416
 20
-127.4247802415813
 30
0.0
 10
78.25672198564416
 20
-127.2048108948481
 30
0.0
 10
78.25672198564416
 20
-127.2048108948481
 30
0.0
 10
78.33079153857703
 20
-127.202743837557
 30
0.0
 10
78.56557479589681
 20
-127.1920640415527
 30
0.0
 10
78.56557479589681
 20
-126.9087049378909
 30
0.0
 10
78.56557479589681
 20
-126.7710733732551
 30
0.0
 10
78.4958116123205
 20
-126.6188001528071
 30
0.0
 10
78.26722952687417
 20
-126.6188001528071
 30
0.0
 10
78.15095755424699
 20
-126.6188001528071
 30
0.0
 10
78.1022094531307
 20
-126.6568684579191
 30
0.0
 10
78.0705145746664
 20
-126.6885633363834
 30
0.0
 10
77.99644502173354
 20
-126.7626328893163
 30
0.0
 10
77.98387042321237
 20
-126.8790771167177
 30
0.0
 10
77.98387042321237
 20
-126.9340263897075
 30
0.0
 10
77.98387042321237
 20
-126.9529744148764
 30
0.0
 10
77.98593748050352
 20
-126.9889756626972
 30
0.0
 10
77.99024384986008
 20
-127.0165364265792
 30
0.0
 10
77.99024384986008
 20
-127.0165364265792
 30
0.0
 10
77.79559595494347
 20
-127.0165364265792
 30
0.0
 10
77.79559595494347
 20
-127.0165364265792
 30
0.0
 10
77.80196938159118
 20
-126.9784681214672
 30
0.0
 10
77.80403643888232
 20
-126.9360934469986
 30
0.0
 10
77.80403643888232
 20
-126.9297200203509
 30
0.0
 10
77.80403643888232
 20
-126.8642632061312
 30
0.0
 10
77.78284910164804
 20
-126.665308941858
 30
0.0
 10
77.54599878703712
 20
-126.665308941858
 30
0.0
 10
77.36823185999822
 20
-126.665308941858
 30
0.0
 10
77.31328258700849
 20
-126.796567079846
 30
0.0
 10
77.31328258700849
 20
-126.9064656258255
 30
0.0
 10
77.31328258700849
 20
-127.1708767043184
 30
0.0
 10
77.54599878703712
 20
-127.1794894430315
 30
0.0
 10
77.61782902790458
 20
-127.1836235576138
 30
0.0
 10
77.61782902790458
 20
-127.1836235576138
 30
0.0
 10
77.61782902790458
 20
-127.3867119364693
 30
0.0
 10
77.61782902790458
 20
-127.3867119364693
 30
0.0
 10
77.49294431656426
 20
-127.3782714525304
 30
0.0
 10
77.11639538002646
 20
-127.3507106886484
 30
0.0
 10
77.11639538002646
 20
-126.8938910273043
 30
0.0
 10
77.11639538002646
 20
-126.6696153112145
 30
0.0
 10
77.24334714865792
 20
-126.4284586272471
 30
0.0
 10
77.53962536038941
 20
-126.4284586272471
 30
0.0
 10
77.7256605165929
 20
-126.4284586272471
 30
0.0
 10
77.80817055346463
 20
-126.5235432626399
 30
0.0
 10
77.86966550787633
 20
-126.6231065221637
 30
0.0
 10
77.89705401698407
 20
-126.561611567752
 30
0.0
 10
77.97749699656465
 20
-126.3797105261308
 30
0.0
 10
78.254654928353
 20
-126.3797105261308
 30
0.0
 10
78.5931355597788
 20
-126.3797105261308
 30
0.0
 10
78.76022269081342
 20
-126.627240636746
 30
0.0
 10
78.76022269081342
 20
-126.9043985685343
 30
0.0
  0
HATCH
  5
1ED
330
1E6
100
AcDbEntity
  8
_U+30EC_U+30A4_U+30E4_U+30FC 1
 62
   179
420
  2234388
100
AcDbHatch
 10
0.0
 20
0.0
 30
0.0
210
0.0
220
0.0
230
1.0
  2
SOLID
 70
     1
 71
     0
 91
        1
 92
        1
 93
        1
 72
     4
 94
        3
 73
     0
 74
     1
 95
       62
 96
       58
 40
0.0
 40
0.0
 40
0.0
 40
0.0
 40
1.0
 40
1.0
 40
1.0
 40
2.0
 40
2.0
 40
2.0
 40
3.0
 40
3.0
 40
3.0
 40
4.0
 40
4.0
 40
4.0
 40
5.0
 40
5.0
 40
5.0
 40
6.0
 40
6.0
 40
6.0
 40
7.0
 40
7.0
 40
7.0
 40
8.0
 40
8.0
 40
8.0
 40
9.0
 40
9.0
 40
9.0
 40
10.0
 40
10.0
 40
10.0
 40
11.0
 40
11.0
 40
11.0
 40
12.0
 40
12.0
 40
12.0
 40
13.0
 40
13.0
 40
13.0
 40
14.0
 40
14.0
 40
14.0
 40
15.0
 40
15.0
 40
15.0
 40
16.0
 40
16.0
 40
16.0
 40
17.0
 40
17.0
 40
17.0
 40
18.0
 40
18.0
 40
18.0
 40
19.0
 40
19.0
 40
19.0
 40
19.0
 10
78.76022269081342
 20
-126.9043985685343
 10
78.76022269081342
 20
-126.9996554587015
 10
78.73903535357914
 20
-127.2175577481435
 10
78.55282794260138
 20
-127.3422702047096
 10
78.4406900845565
 20
-127.4163397576424
 10
78.34129907980704
 20
-127.420646126999
 10
78.25672198564416
 20
-127.4247802415813
 10
78.25672198564416
 20
-127.4247802415813
 10
78.25672198564416
 20
-127.2048108948481
 10
78.25672198564416
 20
-127.2048108948481
 10
78.33079153857703
 20
-127.202743837557
 10
78.56557479589681
 20
-127.1920640415527
 10
78.56557479589681
 20
-126.9087049378909
 10
78.56557479589681
 20
-126.7710733732551
 10
78.4958116123205
 20
-126.6188001528071
 10
78.26722952687417
 20
-126.6188001528071
 10
78.15095755424699
 20
-126.6188001528071
 10
78.1022094531307
 20
-126.6568684579191
 10
78.0705145746664
 20
-126.6885633363834
 10
77.99644502173354
 20
-126.7626328893163
 10
77.98387042321237
 20
-126.8790771167177
 10
77.98387042321237
 20
-126.9340263897075
 10
77.98387042321237
 20
-126.9529744148764
 10
77.98593748050352
 20
-126.9889756626972
 10
77.99024384986008
 20
-127.0165364265792
 10
77.99024384986008
 20
-127.0165364265792
 10
77.79559595494347
 20
-127.0165364265792
 10
77.79559595494347
 20
-127.0165364265792
 10
77.80196938159118
 20
-126.9784681214672
 10
77.80403643888232
 20
-126.9360934469986
 10
77.80403643888232
 20
-126.9297200203509
 10
77.80403643888232
 20
-126.8642632061312
 10
77.78284910164804
 20
-126.665308941858
 10
77.54599878703712
 20
-126.665308941858
 10
77.36823185999822
 20
-126.665308941858
 10
77.31328258700849
 20
-126.796567079846
 10
77.31328258700849
 20
-126.9064656258255
 10
77.31328258700849
 20
-127.1708767043184
 10
77.54599878703712
 20
-127.1794894430315
 10
77.61782902790458
 20
-127.1836235576138
 10
77.61782902790458
 20
-127.1836235576138
 10
77.61782902790458
 20
-127.3867119364693
 10
77.61782902790458
 20
-127.3867119364693
 10
77.49294431656426
 20
-127.3782714525304
 10
77.11639538002646
 20
-127.3507106886484
 10
77.11639538002646
 20
-126.8938910273043
 10
77.11639538002646
 20
-126.6696153112145
 10
77.24334714865792
 20
-126.4284586272471
 10
77.53962536038941
 20
-126.4284586272471
 10
77.7256605165929
 20
-126.4284586272471
 10
77.80817055346463
 20
-126.5235432626399
 10
77.86966550787633
 20
-126.6231065221637
 10
77.89705401698407
 20
-126.561611567752
 10
77.97749699656465
 20
-126.3797105261308
 10
78.254654928353
 20
-126.3797105261308
 10
78.5931355597788
 20
-126.3797105261308
 10
78.76022269081342
 20
-126.627240636746
 10
78.76022269081342
 20
-126.9043985685343
 97
        0
 97
        0
 75
     2
 76
     1
 98
        0
  0
ENDBLK
  5
1E9
330
1E6
100
AcDbEntity
  8
0
100
AcDbBlockEnd
  0
BLOCK
  5
1F0
330
1EE
100
AcDbEntity
  8
0
100
AcDbBlockBegin
  2
block 32
 70
     0
 10
0.0
 20
0.0
 30
0.0
  3
block 32
  1

  0
SPLINE
  5
1F2
330
1EE
100
AcDbEntity
  8
_U+30EC_U+30A4_U+30E4_U+30FC 1
 62
   179
420
  2234388
370
    25
100
AcDbSpline
210
0.0
220
0.0
230
1.0
 70
    11
 71
     3
 72
    17
 73
    13
 74
     0
 42
0.0000000001
 43
0.0000000001
 12
1.0
 22
0.0
 32
0.0
 13
1.0
 23
0.0
 33
0.0
 40
0.0
 40
0.0
 40
0.0
 40
0.0
 40
1.0
 40
1.0
 40
1.0
 40
2.0
 40
2.0
 40
2.0
 40
3.0
 40
3.0
 40
3.0
 40
4.0
 40
4.0
 40
4.0
 40
4.0
 10
89.61726549145087
 20
-120.9841863586428
 30
0.0
 10
89.61726549145087
 20
-121.0034833030826
 30
0.0
 10
89.60142576963274
 20
-121.0193230253008
 30
0.0
 10
89.5821288256806
 20
-121.0193230253008
 30
0.0
 10
89.56247910395969
 20
-121.0193230253008
 30
0.0
 10
89.54664164427987
 20
-121.0034833030826
 30
0.0
 10
89.54664164427987
 20
-120.9841863586428
 30
0.0
 10
89.54664164427987
 20
-120.9641838586477
 30
0.0
 10
89.56247910395969
 20
-120.9483441364295
 30
0.0
 10
89.5821288256806
 20
-120.9483441364295
 30
0.0
 10
89.60142576963274
 20
-120.9483441364295
 30
0.0
 10
89.61726549145087
 20
-120.9641838586477
 30
0.0
 10
89.61726549145087
 20
-120.9841863586428
 30
0.0
  0
ENDBLK
  5
1F1
330
1EE
100
AcDbEntity
  8
0
100
AcDbBlockEnd
  0
BLOCK
  5
1F5
330
1F3
100
AcDbEntity
  8
0
100
AcDbBlockBegin
  2
block 33
 70
     0
 10
0.0
 20
0.0
 30
0.0
  3
block 33
  1

  0
SPLINE
  5
1F7
330
1F3
100
AcDbEntity
  8
_U+30EC_U+30A4_U+30E4_U+30FC 1
 62
   179
420
  2234388
370
    25
100
AcDbSpline
210
0.0
220
0.0
230
1.0
 70
    11
 71
     3
 72
    17
 73
    13
 74
     0
 42
0.0000000001
 43
0.0000000001
 12
1.0
 22
0.0
 32
0.0
 13
1.0
 23
0.0
 33
0.0
 40
0.0
 40
0.0
 40
0.0
 40
0.0
 40
1.0
 40
1.0
 40
1.0
 40
2.0
 40
2.0
 40
2.0
 40
3.0
 40
3.0
 40
3.0
 40
4.0
 40
4.0
 40
4.0
 40
4.0
 10
83.1174056572761
 20
-133.9839063553927
 30
0.0
 10
83.1174056572761
 20
-134.0032032998325
 30
0.0
 10
83.10156593545798
 20
-134.0190430220511
 30
0.0
 10
83.08191621373706
 20
-134.0190430220511
 30
0.0
 10
83.06261926978493
 20
-134.0190430220511
 30
0.0
 10
83.0467795479668
 20
-134.0032032998325
 30
0.0
 10
83.0467795479668
 20
-133.9839063553927
 30
0.0
 10
83.0467795479668
 20
-133.9646094109535
 30
0.0
 10
83.06261926978493
 20
-133.948769688735
 30
0.0
 10
83.08191621373706
 20
-133.948769688735
 30
0.0
 10
83.10156593545798
 20
-133.948769688735
 30
0.0
 10
83.1174056572761
 20
-133.9646094109535
 30
0.0
 10
83.1174056572761
 20
-133.9839063553927
 30
0.0
  0
ENDBLK
  5
1F6
330
1F3
100
AcDbEntity
  8
0
100
AcDbBlockEnd
  0
BLOCK
  5
1FA
330
1F8
100
AcDbEntity
  8
0
100
AcDbBlockBegin
  2
block 34
 70
     0
 10
0.0
 20
0.0
 30
0.0
  3
block 34
  1

  0
SPLINE
  5
1FC
330
1F8
100
AcDbEntity
  8
_U+30EC_U+30A4_U+30E4_U+30FC 1
 62
   179
420
  2234388
370
     9
100
AcDbSpline
210
0.0
220
0.0
230
1.0
 70
    11
 71
     3
 72
    17
 73
    13
 74
     0
 42
0.0000000001
 43
0.0000000001
 12
1.0
 22
0.0
 32
0.0
 13
1.0
 23
0.0
 33
0.0
 40
0.0
 40
0.0
 40
0.0
 40
0.0
 40
1.0
 40
1.0
 40
1.0
 40
2.0
 40
2.0
 40
2.0
 40
3.0
 40
3.0
 40
3.0
 40
4.0
 40
4.0
 40
4.0
 40
4.0
 10
79.11729381488301
 20
-133.9839063553927
 30
0.0
 10
79.11729381488301
 20
-134.0032032998325
 30
0.0
 10
79.10145409306489
 20
-134.0190430220511
 30
0.0
 10
79.08215714911276
 20
-134.0190430220511
 30
0.0
 10
79.06254270516871
 20
-134.0190430220511
 30
0.0
 10
79.04666770557373
 20
-134.0032032998325
 30
0.0
 10
79.04666770557373
 20
-133.9839063553927
 30
0.0
 10
79.04666770557373
 20
-133.9646094109535
 30
0.0
 10
79.06254270516871
 20
-133.948769688735
 30
0.0
 10
79.08215714911276
 20
-133.948769688735
 30
0.0
 10
79.10145409306489
 20
-133.948769688735
 30
0.0
 10
79.11729381488301
 20
-133.9646094109535
 30
0.0
 10
79.11729381488301
 20
-133.9839063553927
 30
0.0
  0
ENDBLK
  5
1FB
330
1F8
100
AcDbEntity
  8
0
100
AcDbBlockEnd
  0
ENDSEC
  0
SECTION
  2
ENTITIES
  0
INSERT
  5
42
330
1F
100
AcDbEntity
  8
_U+30EC_U+30A4_U+30E4_U+30FC 1
100
AcDbBlockReference
  2
block 2
 10
0.0
 20
0.0
 30
0.0
  0
INSERT
  5
4C
330
1F
100
AcDbEntity
  8
_U+30EC_U+30A4_U+30E4_U+30FC 1
100
AcDbBlockReference
  2
block 4
 10
0.0
 20
0.0
 30
0.0
  0
ENDSEC
  0
SECTION
  2
OBJECTS
  0
DICTIONARY
  5
C
330
0
100
AcDbDictionary
281
     1
  3
ACAD_GROUP
350
D
  3
ACAD_LAYOUT
350
1A
  3
ACAD_MATERIAL
350
3B
  3
ACAD_MLEADERSTYLE
350
1FE
  3
ACAD_MLINESTYLE
350
17
  3
ACAD_PLOTSETTINGS
350
19
  3
ACAD_PLOTSTYLENAME
350
E
  3
ACAD_TABLESTYLE
350
1FD
  3
ACAD_VISUALSTYLE
350
2A
  0
SUN
  5
3F
330
29
100
AcDbSun
 90
        1
290
     0
 63
     7
421
 16777215
 40
1.0
291
     1
 91
  2455826
 92
 54000000
292
     0
 70
     2
 71
   256
280
     1
  0
DICTIONARY
  5
D
102
{ACAD_REACTORS
330
C
102
}
330
C
100
AcDbDictionary
281
     1
  0
DICTIONARY
  5
1A
102
{ACAD_REACTORS
330
C
102
}
330
C
100
AcDbDictionary
281
     1
  3
Layout1
350
1E
  3
Layout2
350
26
  3
Model
350
22
  0
DICTIONARY
  5
3B
102
{ACAD_REACTORS
330
C
102
}
330
C
100
AcDbDictionary
281
     1
  3
ByBlock
350
3D
  3
ByLayer
350
3C
  3
Global
350
3E
  0
DICTIONARY
  5
1FE
102
{ACAD_REACTORS
330
C
102
}
330
C
100
AcDbDictionary
281
     1
  0
DICTIONARY
  5
17
102
{ACAD_REACTORS
330
C
102
}
330
C
100
AcDbDictionary
281
     1
  3
Standard
350
18
  0
DICTIONARY
  5
19
102
{ACAD_REACTORS
330
C
102
}
330
C
100
AcDbDictionary
281
     1
  0
ACDBDICTIONARYWDFLT
  5
E
102
{ACAD_REACTORS
330
C
102
}
330
C
100
AcDbDictionary
281
     1
  3
Normal
350
F
100
AcDbDictionaryWithDefault
340
F
  0
DICTIONARY
  5
1FD
102
{ACAD_REACTORS
330
C
102
}
330
C
100
AcDbDictionary
281
     1
  0
DICTIONARY
  5
2A
102
{ACAD_REACTORS
330
C
102
}
330
C
100
AcDbDictionary
281
     1
  3
2dWireframe
350
2F
  3
3D Hidden
350
31
  3
3dWireframe
350
30
  3
Basic
350
32
  3
Brighten
350
36
  3
ColorChange
350
3A
  3
Conceptual
350
34
  3
Dim
350
35
  3
Facepattern
350
39
  3
Flat
350
2B
  3
FlatWithEdges
350
2C
  3
Gouraud
350
2D
  3
GouraudWithEdges
350
2E
  3
Linepattern
350
38
  3
Realistic
350
33
  3
Thicken
350
37
  0
LAYOUT
  5
1E
102
{ACAD_REACTORS
330
1A
102
}
330
1A
100
AcDbPlotSettings
  1

  2
none_device
  4

  6

 40
0.0
 41
0.0
 42
0.0
 43
0.0
 44
0.0
 45
0.0
 46
0.0
 47
0.0
 48
0.0
 49
0.0
140
0.0
141
0.0
142
1.0
143
1.0
 70
   688
 72
     0
 73
     0
 74
     5
  7

 75
    16
 76
     0
 77
     2
 78
   300
147
1.0
148
0.0
149
0.0
100
AcDbLayout
  1
Layout1
 70
     1
 71
     1
 10
0.0
 20
0.0
 11
12.0
 21
9.0
 12
0.0
 22
0.0
 32
0.0
 14
1.000000000000000E+20
 24
1.000000000000000E+20
 34
1.000000000000000E+20
 15
-1.000000000000000E+20
 25
-1.000000000000000E+20
 35
-1.000000000000000E+20
146
0.0
 13
0.0
 23
0.0
 33
0.0
 16
1.0
 26
0.0
 36
0.0
 17
0.0
 27
1.0
 37
0.0
 76
     0
330
1B
  0
LAYOUT
  5
26
102
{ACAD_REACTORS
330
1A
102
}
330
1A
100
AcDbPlotSettings
  1

  2
none_device
  4

  6

 40
0.0
 41
0.0
 42
0.0
 43
0.0
 44
0.0
 45
0.0
 46
0.0
 47
0.0
 48
0.0
 49
0.0
140
0.0
141
0.0
142
1.0
143
1.0
 70
   688
 72
     0
 73
     0
 74
     5
  7

 75
    16
 76
     0
 77
     2
 78
   300
147
1.0
148
0.0
149
0.0
100
AcDbLayout
  1
Layout2
 70
     1
 71
     2
 10
0.0
 20
0.0
 11
0.0
 21
0.0
 12
0.0
 22
0.0
 32
0.0
 14
0.0
 24
0.0
 34
0.0
 15
0.0
 25
0.0
 35
0.0
146
0.0
 13
0.0
 23
0.0
 33
0.0
 16
1.0
 26
0.0
 36
0.0
 17
0.0
 27
1.0
 37
0.0
 76
     0
330
23
  0
LAYOUT
  5
22
102
{ACAD_REACTORS
330
1A
102
}
330
1A
100
AcDbPlotSettings
  1

  2
none_device
  4

  6

 40
0.0
 41
0.0
 42
0.0
 43
0.0
 44
0.0
 45
0.0
 46
0.0
 47
0.0
 48
0.0
 49
0.0
140
0.0
141
0.0
142
1.0
143
1.0
 70
  1712
 72
     0
 73
     0
 74
     0
  7

 75
     0
 76
     0
 77
     2
 78
   300
147
1.0
148
0.0
149
0.0
100
AcDbLayout
  1
Model
 70
     1
 71
     0
 10
0.0
 20
0.0
 11
12.0
 21
9.0
 12
0.0
 22
0.0
 32
0.0
 14
1.000000000000000E+20
 24
1.000000000000000E+20
 34
1.000000000000000E+20
 15
-1.000000000000000E+20
 25
-1.000000000000000E+20
 35
-1.000000000000000E+20
146
0.0
 13
0.0
 23
0.0
 33
0.0
 16
1.0
 26
0.0
 36
0.0
 17
0.0
 27
1.0
 37
0.0
 76
     0
330
1F
331
29
  0
MATERIAL
  5
3D
102
{ACAD_REACTORS
330
3B
102
}
330
3B
100
AcDbMaterial
  1
ByBlock
 72
     1
 94
      127
  0
MATERIAL
  5
3C
102
{ACAD_REACTORS
330
3B
102
}
330
3B
100
AcDbMaterial
  1
ByLayer
 72
     1
 94
      127
  0
MATERIAL
  5
3E
102
{ACAD_REACTORS
330
3B
102
}
330
3B
100
AcDbMaterial
  1
Global
 72
     1
 94
      127
  0
MLINESTYLE
  5
18
102
{ACAD_REACTORS
330
17
102
}
330
17
100
AcDbMlineStyle
  2
Standard
 70
     0
  3

 62
   256
 51
90.0
 52
90.0
 71
     2
 49
0.5
 62
   256
  6
BYLAYER
 49
-0.5
 62
   256
  6
BYLAYER
  0
ACDBPLACEHOLDER
  5
F
102
{ACAD_REACTORS
330
E
102
}
330
E
  0
VISUALSTYLE
  5
2F
102
{ACAD_REACTORS
330
2A
102
}
330
2A
100
AcDbVisualStyle
  2
2dWireframe
 70
     4
177
     2
291
     0
 71
     0
176
     1
 72
     2
176
     1
 73
     0
176
     1
 90
        0
176
     1
 40
-0.6
176
     1
 41
-30.0
176
     1
 62
     5
 63
     7
421
 16777215
176
     1
 74
     1
176
     1
 91
        4
176
     1
 64
     7
176
     1
 65
   257
176
     1
 75
     1
176
     1
175
     1
176
     1
 42
1.0
176
     1
 92
        0
176
     1
 66
   257
176
     1
 43
1.0
176
     1
 76
     1
176
     1
 77
     6
176
     1
 78
     2
176
     1
 67
     7
176
     1
 79
     5
176
     1
170
     0
176
     1
171
     0
176
     1
290
     0
176
     1
 93
        1
176
     1
 44
0.0
176
     1
173
     0
176
     1
  0
VISUALSTYLE
  5
31
102
{ACAD_REACTORS
330
2A
102
}
330
2A
100
AcDbVisualStyle
  2
3D Hidden
 70
     6
177
     2
291
     0
 71
     1
176
     1
 72
     2
176
     1
 73
     2
176
     1
 90
        0
176
     1
 40
-0.6
176
     1
 41
-30.0
176
     1
 62
     5
 63
     7
421
 16777215
176
     1
 74
     2
176
     1
 91
        2
176
     1
 64
     7
176
     1
 65
   257
176
     1
 75
     2
176
     1
175
     1
176
     1
 42
40.0
176
     1
 92
        0
176
     1
 66
   257
176
     1
 43
1.0
176
     1
 76
     1
176
     1
 77
     6
176
     1
 78
     2
176
     1
 67
     7
176
     1
 79
     3
176
     1
170
     0
176
     1
171
     0
176
     1
290
     0
176
     1
 93
        1
176
     1
 44
0.0
176
     1
173
     0
176
     1
  0
VISUALSTYLE
  5
30
102
{ACAD_REACTORS
330
2A
102
}
330
2A
100
AcDbVisualStyle
  2
3dWireframe
 70
     5
177
     2
291
     0
 71
     0
176
     1
 72
     2
176
     1
 73
     0
176
     1
 90
        0
176
     1
 40
-0.6
176
     1
 41
-30.0
176
     1
 62
     5
 63
     7
421
 16777215
176
     1
 74
     1
176
     1
 91
        4
176
     1
 64
     7
176
     1
 65
   257
176
     1
 75
     1
176
     1
175
     1
176
     1
 42
1.0
176
     1
 92
        0
176
     1
 66
   257
176
     1
 43
1.0
176
     1
 76
     1
176
     1
 77
     6
176
     1
 78
     2
176
     1
 67
     7
176
     1
 79
     5
176
     1
170
     0
176
     1
171
     0
176
     1
290
     0
176
     1
 93
        1
176
     1
 44
0.0
176
     1
173
     0
176
     1
  0
VISUALSTYLE
  5
32
102
{ACAD_REACTORS
330
2A
102
}
330
2A
100
AcDbVisualStyle
  2
Basic
 70
     7
177
     2
291
     1
 71
     1
176
     1
 72
     0
176
     1
 73
     1
176
     1
 90
        0
176
     1
 40
-0.6
176
     1
 41
-30.0
176
     1
 62
     5
 63
     7
421
 16777215
176
     1
 74
     0
176
     1
 91
        4
176
     1
 64
     7
176
     1
 65
   257
176
     1
 75
     1
176
     1
175
     1
176
     1
 42
1.0
176
     1
 92
        8
176
     1
 66
     7
176
     1
 43
1.0
176
     1
 76
     1
176
     1
 77
     6
176
     1
 78
     2
176
     1
 67
     7
176
     1
 79
     5
176
     1
170
     0
176
     1
171
     0
176
     1
290
     0
176
     1
 93
        1
176
     1
 44
0.0
176
     1
173
     0
176
     1
  0
VISUALSTYLE
  5
36
102
{ACAD_REACTORS
330
2A
102
}
330
2A
100
AcDbVisualStyle
  2
Brighten
 70
    12
177
     2
291
     1
 71
     2
176
     1
 72
     2
176
     1
 73
     0
176
     1
 90
        0
176
     1
 40
-0.6
176
     1
 41
-30.0
176
     1
 62
     5
 63
     7
421
 16777215
176
     1
 74
     1
176
     1
 91
        4
176
     1
 64
     7
176
     1
 65
   257
176
     1
 75
     1
176
     1
175
     1
176
     1
 42
1.0
176
     1
 92
        8
176
     1
 66
     7
176
     1
 43
1.0
176
     1
 76
     1
176
     1
 77
     6
176
     1
 78
     2
176
     1
 67
     7
176
     1
 79
     5
176
     1
170
     0
176
     1
171
     0
176
     1
290
     0
176
     1
 93
        1
176
     1
 44
50.0
176
     1
173
     0
176
     1
  0
VISUALSTYLE
  5
3A
102
{ACAD_REACTORS
330
2A
102
}
330
2A
100
AcDbVisualStyle
  2
ColorChange
 70
    16
177
     2
291
     1
 71
     2
176
     1
 72
     2
176
     1
 73
     3
176
     1
 90
        0
176
     1
 40
-0.6
176
     1
 41
-30.0
176
     1
 62
     5
 63
     8
421
  8421504
176
     1
 74
     1
176
     1
 91
        4
176
     1
 64
     7
176
     1
 65
   257
176
     1
 75
     1
176
     1
175
     1
176
     1
 42
1.0
176
     1
 92
        8
176
     1
 66
     8
424
  8421504
176
     1
 43
1.0
176
     1
 76
     1
176
     1
 77
     6
176
     1
 78
     2
176
     1
 67
     7
176
     1
 79
     5
176
     1
170
     0
176
     1
171
     0
176
     1
290
     0
176
     1
 93
        1
176
     1
 44
0.0
176
     1
173
     0
176
     1
  0
VISUALSTYLE
  5
34
102
{ACAD_REACTORS
330
2A
102
}
330
2A
100
AcDbVisualStyle
  2
Conceptual
 70
     9
177
     2
291
     0
 71
     3
176
     1
 72
     2
176
     1
 73
     0
176
     1
 90
        0
176
     1
 40
-0.6
176
     1
 41
-30.0
176
     1
 62
     5
 63
     7
421
 16777215
176
     1
 74
     2
176
     1
 91
        2
176
     1
 64
     7
176
     1
 65
   257
176
     1
 75
     1
176
     1
175
     1
176
     1
 42
40.0
176
     1
 92
        8
176
     1
 66
     7
176
     1
 43
1.0
176
     1
 76
     1
176
     1
 77
     6
176
     1
 78
     2
176
     1
 67
     7
176
     1
 79
     3
176
     1
170
     0
176
     1
171
     0
176
     1
290
     0
176
     1
 93
        1
176
     1
 44
0.0
176
     1
173
     0
176
     1
  0
VISUALSTYLE
  5
35
102
{ACAD_REACTORS
330
2A
102
}
330
2A
100
AcDbVisualStyle
  2
Dim
 70
    11
177
     2
291
     1
 71
     2
176
     1
 72
     2
176
     1
 73
     0
176
     1
 90
        0
176
     1
 40
-0.6
176
     1
 41
-30.0
176
     1
 62
     5
 63
     7
421
 16777215
176
     1
 74
     1
176
     1
 91
        4
176
     1
 64
     7
176
     1
 65
   257
176
     1
 75
     1
176
     1
175
     1
176
     1
 42
1.0
176
     1
 92
        8
176
     1
 66
     7
176
     1
 43
1.0
176
     1
 76
     1
176
     1
 77
     6
176
     1
 78
     2
176
     1
 67
     7
176
     1
 79
     5
176
     1
170
     0
176
     1
171
     0
176
     1
290
     0
176
     1
 93
        1
176
     1
 44
-50.0
176
     1
173
     0
176
     1
  0
VISUALSTYLE
  5
39
102
{ACAD_REACTORS
330
2A
102
}
330
2A
100
AcDbVisualStyle
  2
Facepattern
 70
    15
177
     2
291
     1
 71
     2
176
     1
 72
     2
176
     1
 73
     0
176
     1
 90
        0
176
     1
 40
-0.6
176
     1
 41
-30.0
176
     1
 62
     5
 63
     7
421
 16777215
176
     1
 74
     1
176
     1
 91
        4
176
     1
 64
     7
176
     1
 65
   257
176
     1
 75
     1
176
     1
175
     1
176
     1
 42
1.0
176
     1
 92
        8
176
     1
 66
     7
176
     1
 43
1.0
176
     1
 76
     1
176
     1
 77
     6
176
     1
 78
     2
176
     1
 67
     7
176
     1
 79
     5
176
     1
170
     0
176
     1
171
     0
176
     1
290
     0
176
     1
 93
        1
176
     1
 44
0.0
176
     1
173
     0
176
     1
  0
VISUALSTYLE
  5
2B
102
{ACAD_REACTORS
330
2A
102
}
330
2A
100
AcDbVisualStyle
  2
Flat
 70
     0
177
     2
291
     1
 71
     2
176
     1
 72
     1
176
     1
 73
     1
176
     1
 90
        2
176
     1
 40
-0.6
176
     1
 41
30.0
176
     1
 62
     5
 63
     7
421
 16777215
176
     1
 74
     0
176
     1
 91
        4
176
     1
 64
     7
176
     1
 65
   257
176
     1
 75
     1
176
     1
175
     1
176
     1
 42
1.0
176
     1
 92
        8
176
     1
 66
     7
176
     1
 43
1.0
176
     1
 76
     1
176
     1
 77
     6
176
     1
 78
     2
176
     1
 67
     7
176
     1
 79
     5
176
     1
170
     0
176
     1
171
     0
176
     1
290
     0
176
     1
 93
       13
176
     1
 44
0.0
176
     1
173
     0
176
     1
  0
VISUALSTYLE
  5
2C
102
{ACAD_REACTORS
330
2A
102
}
330
2A
100
AcDbVisualStyle
  2
FlatWithEdges
 70
     1
177
     2
291
     1
 71
     2
176
     1
 72
     1
176
     1
 73
     1
176
     1
 90
        2
176
     1
 40
-0.6
176
     1
 41
30.0
176
     1
 62
     5
 63
     7
421
 16777215
176
     1
 74
     1
176
     1
 91
        4
176
     1
 64
     7
176
     1
 65
   257
176
     1
 75
     1
176
     1
175
     1
176
     1
 42
1.0
176
     1
 92
        0
176
     1
 66
   257
176
     1
 43
1.0
176
     1
 76
     1
176
     1
 77
     6
176
     1
 78
     2
176
     1
 67
     7
176
     1
 79
     5
176
     1
170
     0
176
     1
171
     0
176
     1
290
     0
176
     1
 93
       13
176
     1
 44
0.0
176
     1
173
     0
176
     1
  0
VISUALSTYLE
  5
2D
102
{ACAD_REACTORS
330
2A
102
}
330
2A
100
AcDbVisualStyle
  2
Gouraud
 70
     2
177
     2
291
     1
 71
     2
176
     1
 72
     2
176
     1
 73
     1
176
     1
 90
        2
176
     1
 40
-0.6
176
     1
 41
30.0
176
     1
 62
     5
 63
     7
421
 16777215
176
     1
 74
     0
176
     1
 91
        4
176
     1
 64
     7
176
     1
 65
   257
176
     1
 75
     1
176
     1
175
     1
176
     1
 42
1.0
176
     1
 92
        0
176
     1
 66
     7
176
     1
 43
1.0
176
     1
 76
     1
176
     1
 77
     6
176
     1
 78
     2
176
     1
 67
     7
176
     1
 79
     5
176
     1
170
     0
176
     1
171
     0
176
     1
290
     0
176
     1
 93
       13
176
     1
 44
0.0
176
     1
173
     0
176
     1
  0
VISUALSTYLE
  5
2E
102
{ACAD_REACTORS
330
2A
102
}
330
2A
100
AcDbVisualStyle
  2
GouraudWithEdges
 70
     3
177
     2
291
     1
 71
     2
176
     1
 72
     2
176
     1
 73
     1
176
     1
 90
        2
176
     1
 40
-0.6
176
     1
 41
30.0
176
     1
 62
     5
 63
     7
421
 16777215
176
     1
 74
     1
176
     1
 91
        4
176
     1
 64
     7
176
     1
 65
   257
176
     1
 75
     1
176
     1
175
     1
176
     1
 42
1.0
176
     1
 92
        0
176
     1
 66
   257
176
     1
 43
1.0
176
     1
 76
     1
176
     1
 77
     6
176
     1
 78
     2
176
     1
 67
     7
176
     1
 79
     5
176
     1
170
     0
176
     1
171
     0
176
     1
290
     0
176
     1
 93
       13
176
     1
 44
0.0
176
     1
173
     0
176
     1
  0
VISUALSTYLE
  5
38
102
{ACAD_REACTORS
330
2A
102
}
330
2A
100
AcDbVisualStyle
  2
Linepattern
 70
    14
177
     2
291
     1
 71
     2
176
     1
 72
     2
176
     1
 73
     0
176
     1
 90
        0
176
     1
 40
-0.6
176
     1
 41
-30.0
176
     1
 62
     5
 63
     7
421
 16777215
176
     1
 74
     1
176
     1
 91
        4
176
     1
 64
     7
176
     1
 65
   257
176
     1
 75
     7
176
     1
175
     7
176
     1
 42
1.0
176
     1
 92
        8
176
     1
 66
     7
176
     1
 43
1.0
176
     1
 76
     1
176
     1
 77
     6
176
     1
 78
     2
176
     1
 67
     7
176
     1
 79
     5
176
     1
170
     0
176
     1
171
     0
176
     1
290
     0
176
     1
 93
        1
176
     1
 44
0.0
176
     1
173
     0
176
     1
  0
VISUALSTYLE
  5
33
102
{ACAD_REACTORS
330
2A
102
}
330
2A
100
AcDbVisualStyle
  2
Realistic
 70
     8
177
     2
291
     0
 71
     2
176
     1
 72
     2
176
     1
 73
     0
176
     1
 90
        0
176
     1
 40
-0.6
176
     1
 41
-30.0
176
     1
 62
     5
 63
     7
421
 16777215
176
     1
 74
     1
176
     1
 91
        0
176
     1
 64
     7
176
     1
 65
   257
176
     1
 75
     1
176
     1
175
     1
176
     1
 42
1.0
176
     1
 92
        8
176
     1
 66
     8
424
  7895160
176
     1
 43
1.0
176
     1
 76
     1
176
     1
 77
     6
176
     1
 78
     2
176
     1
 67
     7
176
     1
 79
     5
176
     1
170
     0
176
     1
171
     0
176
     1
290
     0
176
     1
 93
       13
176
     1
 44
0.0
176
     1
173
     0
176
     1
  0
VISUALSTYLE
  5
37
102
{ACAD_REACTORS
330
2A
102
}
330
2A
100
AcDbVisualStyle
  2
Thicken
 70
    13
177
     2
291
     1
 71
     2
176
     1
 72
     2
176
     1
 73
     0
176
     1
 90
        0
176
     1
 40
-0.6
176
     1
 41
-30.0
176
     1
 62
     5
 63
     7
421
 16777215
176
     1
 74
     1
176
     1
 91
        4
176
     1
 64
     7
176
     1
 65
   257
176
     1
 75
     1
176
     1
175
     1
176
     1
 42
1.0
176
     1
 92
       12
176
     1
 66
     7
176
     1
 43
1.0
176
     1
 76
     1
176
     1
 77
     6
176
     1
 78
     2
176
     1
 67
     7
176
     1
 79
     5
176
     1
170
     0
176
     1
171
     0
176
     1
290
     0
176
     1
 93
        1
176
     1
 44
0.0
176
     1
173
     0
176
     1
  0
ENDSEC
  0
EOF
