  0
SECTION
  2
HEADER
  9
$ACADVER
  1
AC1024
  9
$ACADMAINTVER
 70
     6
  9
$DWGCODEPAGE
  3
UNDEFINED
  9
$INSBASE
 10
0.0
 20
0.0
 30
0.0
  9
$EXTMIN
 10
1.000000000000000E+20
 20
1.000000000000000E+20
 30
1.000000000000000E+20
  9
$EXTMAX
 10
-1.000000000000000E+20
 20
-1.000000000000000E+20
 30
-1.000000000000000E+20
  9
$LIMMIN
 10
0.0
 20
0.0
  9
$LIMMAX
 10
12.0
 20
9.0
  9
$ORTHOMODE
 70
     0
  9
$REGENMODE
 70
     1
  9
$FILLMODE
 70
     1
  9
$QTEXTMODE
 70
     0
  9
$MIRRTEXT
 70
     1
  9
$LTSCALE
 40
1.0
  9
$ATTMODE
 70
     1
  9
$TEXTSIZE
 40
0.2
  9
$TRACEWID
 40
0.05
  9
$TEXTSTYLE
  7
Standard
  9
$CLAYER
  8
0
  9
$CELTYPE
  6
ByLayer
  9
$CECOLOR
 62
   256
  9
$CELTSCALE
 40
1.0
  9
$DISPSILH
 70
     0
  9
$DIMSCALE
 40
1.0
  9
$DIMASZ
 40
0.18
  9
$DIMEXO
 40
0.0625
  9
$DIMDLI
 40
0.38
  9
$DIMRND
 40
0.0
  9
$DIMDLE
 40
0.0
  9
$DIMEXE
 40
0.18
  9
$DIMTP
 40
0.0
  9
$DIMTM
 40
0.0
  9
$DIMTXT
 40
0.18
  9
$DIMCEN
 40
0.09
  9
$DIMTSZ
 40
0.0
  9
$DIMTOL
 70
     0
  9
$DIMLIM
 70
     0
  9
$DIMTIH
 70
     1
  9
$DIMTOH
 70
     1
  9
$DIMSE1
 70
     0
  9
$DIMSE2
 70
     0
  9
$DIMTAD
 70
     0
  9
$DIMZIN
 70
     0
  9
$DIMBLK
  1

  9
$DIMASO
 70
     1
  9
$DIMSHO
 70
     1
  9
$DIMPOST
  1

  9
$DIMAPOST
  1

  9
$DIMALT
 70
     0
  9
$DIMALTD
 70
     2
  9
$DIMALTF
 40
25.4
  9
$DIMLFAC
 40
1.0
  9
$DIMTOFL
 70
     0
  9
$DIMTVP
 40
0.0
  9
$DIMTIX
 70
     0
  9
$DIMSOXD
 70
     0
  9
$DIMSAH
 70
     0
  9
$DIMBLK1
  1

  9
$DIMBLK2
  1

  9
$DIMSTYLE
  2
Standard
  9
$DIMCLRD
 70
     0
  9
$DIMCLRE
 70
     0
  9
$DIMCLRT
 70
     0
  9
$DIMTFAC
 40
1.0
  9
$DIMGAP
 40
0.09
  9
$DIMJUST
 70
     0
  9
$DIMSD1
 70
     0
  9
$DIMSD2
 70
     0
  9
$DIMTOLJ
 70
     1
  9
$DIMTZIN
 70
     0
  9
$DIMALTZ
 70
     0
  9
$DIMALTTZ
 70
     0
  9
$DIMUPT
 70
     0
  9
$DIMDEC
 70
     4
  9
$DIMTDEC
 70
     4
  9
$DIMALTU
 70
     2
  9
$DIMALTTD
 70
     2
  9
$DIMTXSTY
  7
Standard
  9
$DIMAUNIT
 70
     0
  9
$DIMADEC
 70
     0
  9
$DIMALTRND
 40
0.0
  9
$DIMAZIN
 70
     0
  9
$DIMDSEP
 70
    46
  9
$DIMATFIT
 70
     3
  9
$DIMFRAC
 70
     0
  9
$DIMLDRBLK
  1

  9
$DIMLUNIT
 70
     2
  9
$DIMLWD
 70
    -2
  9
$DIMLWE
 70
    -2
  9
$DIMTMOVE
 70
     0
  9
$DIMFXL
 40
1.0
  9
$DIMFXLON
 70
     0
  9
$DIMJOGANG
 40
0.7853981633974483
  9
$DIMTFILL
 70
     0
  9
$DIMTFILLCLR
 70
     0
  9
$DIMARCSYM
 70
     0
  9
$DIMLTYPE
  6

  9
$DIMLTEX1
  6

  9
$DIMLTEX2
  6

  9
$DIMTXTDIRECTION
 70
     0
  9
$LUNITS
 70
     2
  9
$LUPREC
 70
     4
  9
$SKETCHINC
 40
0.1
  9
$FILLETRAD
 40
0.5
  9
$AUNITS
 70
     0
  9
$AUPREC
 70
     0
  9
$MENU
  1
.
  9
$ELEVATION
 40
0.0
  9
$PELEVATION
 40
0.0
  9
$THICKNESS
 40
0.0
  9
$LIMCHECK
 70
     0
  9
$CHAMFERA
 40
0.5
  9
$CHAMFERB
 40
0.5
  9
$CHAMFERC
 40
1.0
  9
$CHAMFERD
 40
0.0
  9
$SKPOLY
 70
     0
  9
$TDCREATE
 40
2457917.631377303
  9
$TDUCREATE
 40
2457917.256377315
  9
$TDUPDATE
 40
2457917.631377303
  9
$TDUUPDATE
 40
2457917.256377315
  9
$TDINDWG
 40
0.0000000116
  9
$TDUSRTIMER
 40
0.0000000116
  9
$USRTIMER
 70
     1
  9
$ANGBASE
 50
0.0
  9
$ANGDIR
 70
     0
  9
$PDMODE
 70
     0
  9
$PDSIZE
 40
0.0
  9
$PLINEWID
 40
0.0
  9
$SPLFRAME
 70
     0
  9
$SPLINETYPE
 70
     6
  9
$SPLINESEGS
 70
     8
  9
$HANDSEED
  5
1EA
  9
$SURFTAB1
 70
     6
  9
$SURFTAB2
 70
     6
  9
$SURFTYPE
 70
     6
  9
$SURFU
 70
     6
  9
$SURFV
 70
     6
  9
$UCSBASE
  2

  9
$UCSNAME
  2

  9
$UCSORG
 10
0.0
 20
0.0
 30
0.0
  9
$UCSXDIR
 10
1.0
 20
0.0
 30
0.0
  9
$UCSYDIR
 10
0.0
 20
1.0
 30
0.0
  9
$UCSORTHOREF
  2

  9
$UCSORTHOVIEW
 70
     0
  9
$UCSORGTOP
 10
0.0
 20
0.0
 30
0.0
  9
$UCSORGBOTTOM
 10
0.0
 20
0.0
 30
0.0
  9
$UCSORGLEFT
 10
0.0
 20
0.0
 30
0.0
  9
$UCSORGRIGHT
 10
0.0
 20
0.0
 30
0.0
  9
$UCSORGFRONT
 10
0.0
 20
0.0
 30
0.0
  9
$UCSORGBACK
 10
0.0
 20
0.0
 30
0.0
  9
$PUCSBASE
  2

  9
$PUCSNAME
  2

  9
$PUCSORG
 10
0.0
 20
0.0
 30
0.0
  9
$PUCSXDIR
 10
1.0
 20
0.0
 30
0.0
  9
$PUCSYDIR
 10
0.0
 20
1.0
 30
0.0
  9
$PUCSORTHOREF
  2

  9
$PUCSORTHOVIEW
 70
     0
  9
$PUCSORGTOP
 10
0.0
 20
0.0
 30
0.0
  9
$PUCSORGBOTTOM
 10
0.0
 20
0.0
 30
0.0
  9
$PUCSORGLEFT
 10
0.0
 20
0.0
 30
0.0
  9
$PUCSORGRIGHT
 10
0.0
 20
0.0
 30
0.0
  9
$PUCSORGFRONT
 10
0.0
 20
0.0
 30
0.0
  9
$PUCSORGBACK
 10
0.0
 20
0.0
 30
0.0
  9
$USERI1
 70
     0
  9
$USERI2
 70
     0
  9
$USERI3
 70
     0
  9
$USERI4
 70
     0
  9
$USERI5
 70
     0
  9
$USERR1
 40
0.0
  9
$USERR2
 40
0.0
  9
$USERR3
 40
0.0
  9
$USERR4
 40
0.0
  9
$USERR5
 40
0.0
  9
$WORLDVIEW
 70
     1
  9
$SHADEDGE
 70
     3
  9
$SHADEDIF
 70
    70
  9
$TILEMODE
 70
     1
  9
$MAXACTVP
 70
    64
  9
$PINSBASE
 10
0.0
 20
0.0
 30
0.0
  9
$PLIMCHECK
 70
     0
  9
$PEXTMIN
 10
1.000000000000000E+20
 20
1.000000000000000E+20
 30
1.000000000000000E+20
  9
$PEXTMAX
 10
-1.000000000000000E+20
 20
-1.000000000000000E+20
 30
-1.000000000000000E+20
  9
$PLIMMIN
 10
0.0
 20
0.0
  9
$PLIMMAX
 10
12.0
 20
9.0
  9
$UNITMODE
 70
     0
  9
$VISRETAIN
 70
     1
  9
$PLINEGEN
 70
     0
  9
$PSLTSCALE
 70
     1
  9
$TREEDEPTH
 70
  3020
  9
$CMLSTYLE
  2
Standard
  9
$CMLJUST
 70
     0
  9
$CMLSCALE
 40
1.0
  9
$PROXYGRAPHICS
 70
     1
  9
$MEASUREMENT
 70
     0
  9
$CELWEIGHT
370
    -1
  9
$ENDCAPS
280
     0
  9
$JOINSTYLE
280
     0
  9
$LWDISPLAY
290
     1
  9
$INSUNITS
 70
     1
  9
$HYPERLINKBASE
  1

  9
$STYLESHEET
  1

  9
$XEDIT
290
     1
  9
$CEPSNTYPE
380
     0
  9
$PSTYLEMODE
290
     1
  9
$FINGERPRINTGUID
  2
{F6BF7AD3-4127-7B93-AC81-0B82A72E1AA2}
  9
$VERSIONGUID
  2
{FAEB1C32-E019-11D5-929B-00C0DF256EC4}
  9
$EXTNAMES
290
     1
  9
$PSVPSCALE
 40
0.0
  9
$OLESTARTUP
290
     0
  9
$SORTENTS
280
   127
  9
$INDEXCTL
280
     0
  9
$HIDETEXT
280
     1
  9
$XCLIPFRAME
280
     2
  9
$HALOGAP
280
     0
  9
$OBSCOLOR
 70
   257
  9
$OBSLTYPE
280
     0
  9
$INTERSECTIONDISPLAY
280
     0
  9
$INTERSECTIONCOLOR
 70
   257
  9
$DIMASSOC
280
     2
  9
$PROJECTNAME
  1

  9
$CAMERADISPLAY
290
     0
  9
$LENSLENGTH
 40
50.0
  9
$CAMERAHEIGHT
 40
0.0
  9
$STEPSPERSEC
 40
2.0
  9
$STEPSIZE
 40
6.0
  9
$3DDWFPREC
 40
2.0
  9
$PSOLWIDTH
 40
0.25
  9
$PSOLHEIGHT
 40
4.0
  9
$LOFTANG1
 40
1.570796326794897
  9
$LOFTANG2
 40
1.570796326794897
  9
$LOFTMAG1
 40
0.0
  9
$LOFTMAG2
 40
0.0
  9
$LOFTPARAM
 70
     7
  9
$LOFTNORMALS
280
     1
  9
$LATITUDE
 40
37.795
  9
$LONGITUDE
 40
-122.394
  9
$NORTHDIRECTION
 40
0.0
  9
$TIMEZONE
 70
 -8000
  9
$LIGHTGLYPHDISPLAY
280
     1
  9
$TILEMODELIGHTSYNCH
280
     1
  9
$CMATERIAL
347
3C
  9
$SOLIDHIST
280
     1
  9
$SHOWHIST
280
     1
  9
$DWFFRAME
280
     2
  9
$DGNFRAME
280
     2
  9
$REALWORLDSCALE
290
     1
  9
$INTERFERECOLOR
 62
   256
  9
$CSHADOW
280
     0
  9
$SHADOWPLANELOCATION
 40
0.0
  0
ENDSEC
  0
SECTION
  2
CLASSES
  0
CLASS
  1
ACDBDICTIONARYWDFLT
  2
AcDbDictionaryWithDefault
  3
ObjectDBX Classes
 90
        0
 91
        4
280
     0
281
     0
  0
CLASS
  1
VISUALSTYLE
  2
AcDbVisualStyle
  3
ObjectDBX Classes
 90
     4095
 91
        4
280
     0
281
     0
  0
CLASS
  1
MATERIAL
  2
AcDbMaterial
  3
ObjectDBX Classes
 90
     1153
 91
        4
280
     0
281
     0
  0
CLASS
  1
SUN
  2
AcDbSun
  3
SCENEOE
 90
     1024
 91
        4
280
     0
281
     0
  0
ENDSEC
  0
SECTION
  2
TABLES
  0
TABLE
  2
VPORT
  5
8
330
0
100
AcDbSymbolTable
 70
     1
  0
VPORT
  5
29
330
8
100
AcDbSymbolTableRecord
100
AcDbViewportTableRecord
  2
*Active
 70
     0
 10
0.0
 20
0.0
 11
1.0
 21
1.0
 12
0.0
 22
0.0
 13
0.0
 23
0.0
 14
0.5
 24
0.5
 15
0.5
 25
0.5
 16
0.0
 26
0.0
 36
1.0
 17
91.00082462281999
 27
-128.4993055234307
 37
0.0
 40
256.9986110468615
 41
0.7081814508812795
 42
50.0
 43
0.0
 44
0.0
 50
0.0
 51
0.0
 71
     0
 72
   100
 73
     1
 74
     3
 75
     0
 76
     0
 77
     0
 78
     0
281
     0
 65
     1
110
0.0
120
0.0
130
0.0
111
1.0
121
0.0
131
0.0
112
0.0
122
1.0
132
0.0
 79
     0
146
0.0
 60
     3
 61
     5
292
     1
282
     1
141
0.0
142
0.0
 63
   250
361
3F
  0
ENDTAB
  0
TABLE
  2
LTYPE
  5
5
330
0
100
AcDbSymbolTable
 70
     1
  0
LTYPE
  5
14
330
5
100
AcDbSymbolTableRecord
100
AcDbLinetypeTableRecord
  2
ByBlock
 70
     0
  3

 72
    65
 73
     0
 40
0.0
  0
LTYPE
  5
15
330
5
100
AcDbSymbolTableRecord
100
AcDbLinetypeTableRecord
  2
ByLayer
 70
     0
  3

 72
    65
 73
     0
 40
0.0
  0
LTYPE
  5
16
330
5
100
AcDbSymbolTableRecord
100
AcDbLinetypeTableRecord
  2
Continuous
 70
     0
  3
Solid line
 72
    65
 73
     0
 40
0.0
  0
ENDTAB
  0
TABLE
  2
LAYER
  5
2
330
0
100
AcDbSymbolTable
 70
     2
  0
LAYER
  5
10
330
2
100
AcDbSymbolTableRecord
100
AcDbLayerTableRecord
  2
0
 70
     0
 62
     7
  6
Continuous
370
    -3
390
F
347
3E
  0
LAYER
  5
40
330
2
100
AcDbSymbolTableRecord
100
AcDbLayerTableRecord
  2
_U+30EC_U+30A4_U+30E4_U+30FC 1
 70
     0
 62
     7
  6
Continuous
370
    -3
390
F
347
3E
  0
ENDTAB
  0
TABLE
  2
STYLE
  5
3
330
0
100
AcDbSymbolTable
 70
     1
  0
STYLE
  5
11
330
3
100
AcDbSymbolTableRecord
100
AcDbTextStyleTableRecord
  2
Standard
 70
     0
 40
0.0
 41
1.0
 50
0.0
 71
     0
 42
0.2
  3
txt
  4

  0
ENDTAB
  0
TABLE
  2
VIEW
  5
6
330
0
100
AcDbSymbolTable
 70
     0
  0
ENDTAB
  0
TABLE
  2
UCS
  5
7
330
0
100
AcDbSymbolTable
 70
     0
  0
ENDTAB
  0
TABLE
  2
APPID
  5
9
330
0
100
AcDbSymbolTable
 70
     1
  0
APPID
  5
12
330
9
100
AcDbSymbolTableRecord
100
AcDbRegAppTableRecord
  2
ACAD
 70
     0
  0
ENDTAB
  0
TABLE
  2
DIMSTYLE
  5
A
330
0
100
AcDbSymbolTable
 70
     1
100
AcDbDimStyleTable
  0
DIMSTYLE
105
27
330
A
100
AcDbSymbolTableRecord
100
AcDbDimStyleTableRecord
  2
Standard
 70
     0
178
     0
340
11
  0
ENDTAB
  0
TABLE
  2
BLOCK_RECORD
  5
1
330
0
100
AcDbSymbolTable
 70
    34
  0
BLOCK_RECORD
  5
1F
330
1
100
AcDbSymbolTableRecord
100
AcDbBlockTableRecord
  2
*Model_Space
340
22
 70
     0
280
     1
281
     0
  0
BLOCK_RECORD
  5
1B
330
1
100
AcDbSymbolTableRecord
100
AcDbBlockTableRecord
  2
*Paper_Space
340
1E
 70
     0
280
     1
281
     0
  0
BLOCK_RECORD
  5
23
330
1
100
AcDbSymbolTableRecord
100
AcDbBlockTableRecord
  2
*Paper_Space0
340
26
 70
     0
280
     1
281
     0
  0
BLOCK_RECORD
  5
41
330
1
100
AcDbSymbolTableRecord
100
AcDbBlockTableRecord
  2
block 2
340
0
102
{BLKREFS
331
42
102
}
 70
     0
280
     1
281
     0
  0
BLOCK_RECORD
  5
45
330
1
100
AcDbSymbolTableRecord
100
AcDbBlockTableRecord
  2
block 3
340
0
102
{BLKREFS
331
46
102
}
 70
     0
280
     1
281
     0
  0
BLOCK_RECORD
  5
4B
330
1
100
AcDbSymbolTableRecord
100
AcDbBlockTableRecord
  2
block 4
340
0
102
{BLKREFS
331
4C
102
}
 70
     0
280
     1
281
     0
  0
BLOCK_RECORD
  5
D8
330
1
100
AcDbSymbolTableRecord
100
AcDbBlockTableRecord
  2
block 5
340
0
102
{BLKREFS
331
D9
102
}
 70
     0
280
     1
281
     0
  0
BLOCK_RECORD
  5
E8
330
1
100
AcDbSymbolTableRecord
100
AcDbBlockTableRecord
  2
block 6
340
0
102
{BLKREFS
331
E9
102
}
 70
     0
280
     1
281
     0
  0
BLOCK_RECORD
  5
10D
330
1
100
AcDbSymbolTableRecord
100
AcDbBlockTableRecord
  2
block 7
340
0
102
{BLKREFS
331
10E
102
}
 70
     0
280
     1
281
     0
  0
BLOCK_RECORD
  5
112
330
1
100
AcDbSymbolTableRecord
100
AcDbBlockTableRecord
  2
block 8
340
0
102
{BLKREFS
331
113
102
}
 70
     0
280
     1
281
     0
  0
BLOCK_RECORD
  5
117
330
1
100
AcDbSymbolTableRecord
100
AcDbBlockTableRecord
  2
block 9
340
0
102
{BLKREFS
331
118
102
}
 70
     0
280
     1
281
     0
  0
BLOCK_RECORD
  5
11C
330
1
100
AcDbSymbolTableRecord
100
AcDbBlockTableRecord
  2
block 10
340
0
102
{BLKREFS
331
11D
102
}
 70
     0
280
     1
281
     0
  0
BLOCK_RECORD
  5
12C
330
1
100
AcDbSymbolTableRecord
100
AcDbBlockTableRecord
  2
block 11
340
0
102
{BLKREFS
331
12D
102
}
 70
     0
280
     1
281
     0
  0
BLOCK_RECORD
  5
135
330
1
100
AcDbSymbolTableRecord
100
AcDbBlockTableRecord
  2
block 12
340
0
102
{BLKREFS
331
136
102
}
 70
     0
280
     1
281
     0
  0
BLOCK_RECORD
  5
13A
330
1
100
AcDbSymbolTableRecord
100
AcDbBlockTableRecord
  2
block 13
340
0
102
{BLKREFS
331
13B
102
}
 70
     0
280
     1
281
     0
  0
BLOCK_RECORD
  5
13F
330
1
100
AcDbSymbolTableRecord
100
AcDbBlockTableRecord
  2
block 14
340
0
102
{BLKREFS
331
140
102
}
 70
     0
280
     1
281
     0
  0
BLOCK_RECORD
  5
144
330
1
100
AcDbSymbolTableRecord
100
AcDbBlockTableRecord
  2
block 15
340
0
102
{BLKREFS
331
145
102
}
 70
     0
280
     1
281
     0
  0
BLOCK_RECORD
  5
154
330
1
100
AcDbSymbolTableRecord
100
AcDbBlockTableRecord
  2
block 16
340
0
102
{BLKREFS
331
155
102
}
 70
     0
280
     1
281
     0
  0
BLOCK_RECORD
  5
15C
330
1
100
AcDbSymbolTableRecord
100
AcDbBlockTableRecord
  2
block 17
340
0
102
{BLKREFS
331
15D
102
}
 70
     0
280
     1
281
     0
  0
BLOCK_RECORD
  5
161
330
1
100
AcDbSymbolTableRecord
100
AcDbBlockTableRecord
  2
block 18
340
0
102
{BLKREFS
331
162
102
}
 70
     0
280
     1
281
     0
  0
BLOCK_RECORD
  5
166
330
1
100
AcDbSymbolTableRecord
100
AcDbBlockTableRecord
  2
block 19
340
0
102
{BLKREFS
331
167
102
}
 70
     0
280
     1
281
     0
  0
BLOCK_RECORD
  5
16B
330
1
100
AcDbSymbolTableRecord
100
AcDbBlockTableRecord
  2
block 20
340
0
102
{BLKREFS
331
16C
102
}
 70
     0
280
     1
281
     0
  0
BLOCK_RECORD
  5
177
330
1
100
AcDbSymbolTableRecord
100
AcDbBlockTableRecord
  2
block 21
340
0
102
{BLKREFS
331
178
102
}
 70
     0
280
     1
281
     0
  0
BLOCK_RECORD
  5
17D
330
1
100
AcDbSymbolTableRecord
100
AcDbBlockTableRecord
  2
block 22
340
0
102
{BLKREFS
331
17E
102
}
 70
     0
280
     1
281
     0
  0
BLOCK_RECORD
  5
182
330
1
100
AcDbSymbolTableRecord
100
AcDbBlockTableRecord
  2
block 23
340
0
102
{BLKREFS
331
183
102
}
 70
     0
280
     1
281
     0
  0
BLOCK_RECORD
  5
187
330
1
100
AcDbSymbolTableRecord
100
AcDbBlockTableRecord
  2
block 24
340
0
102
{BLKREFS
331
188
102
}
 70
     0
280
     1
281
     0
  0
BLOCK_RECORD
  5
18C
330
1
100
AcDbSymbolTableRecord
100
AcDbBlockTableRecord
  2
block 25
340
0
102
{BLKREFS
331
18D
102
}
 70
     0
280
     1
281
     0
  0
BLOCK_RECORD
  5
19C
330
1
100
AcDbSymbolTableRecord
100
AcDbBlockTableRecord
  2
block 26
340
0
102
{BLKREFS
331
19D
102
}
 70
     0
280
     1
281
     0
  0
BLOCK_RECORD
  5
1B5
330
1
100
AcDbSymbolTableRecord
100
AcDbBlockTableRecord
  2
block 27
340
0
102
{BLKREFS
331
1B6
102
}
 70
     0
280
     1
281
     0
  0
BLOCK_RECORD
  5
1BA
330
1
100
AcDbSymbolTableRecord
100
AcDbBlockTableRecord
  2
block 28
340
0
102
{BLKREFS
331
1BB
102
}
 70
     0
280
     1
281
     0
  0
BLOCK_RECORD
  5
1BF
330
1
100
AcDbSymbolTableRecord
100
AcDbBlockTableRecord
  2
block 29
340
0
102
{BLKREFS
331
1C0
102
}
 70
     0
280
     1
281
     0
  0
BLOCK_RECORD
  5
1C4
330
1
100
AcDbSymbolTableRecord
100
AcDbBlockTableRecord
  2
block 30
340
0
102
{BLKREFS
331
1C5
102
}
 70
     0
280
     1
281
     0
  0
BLOCK_RECORD
  5
1D0
330
1
100
AcDbSymbolTableRecord
100
AcDbBlockTableRecord
  2
block 31
340
0
102
{BLKREFS
331
1D1
102
}
 70
     0
280
     1
281
     0
  0
BLOCK_RECORD
  5
1D9
330
1
100
AcDbSymbolTableRecord
100
AcDbBlockTableRecord
  2
block 32
340
0
102
{BLKREFS
331
1DA
102
}
 70
     0
280
     1
281
     0
  0
BLOCK_RECORD
  5
1DE
330
1
100
AcDbSymbolTableRecord
100
AcDbBlockTableRecord
  2
block 33
340
0
102
{BLKREFS
331
1DF
102
}
 70
     0
280
     1
281
     0
  0
BLOCK_RECORD
  5
1E3
330
1
100
AcDbSymbolTableRecord
100
AcDbBlockTableRecord
  2
block 34
340
0
102
{BLKREFS
331
1E4
102
}
 70
     0
280
     1
281
     0
  0
ENDTAB
  0
ENDSEC
  0
SECTION
  2
BLOCKS
  0
BLOCK
  5
20
330
1F
100
AcDbEntity
  8
0
100
AcDbBlockBegin
  2
*Model_Space
 70
     0
 10
0.0
 20
0.0
 30
0.0
  3
*Model_Space
  1

  0
ENDBLK
  5
21
330
1F
100
AcDbEntity
  8
0
100
AcDbBlockEnd
  0
BLOCK
  5
1C
330
1B
100
AcDbEntity
 67
     1
  8
0
100
AcDbBlockBegin
  2
*Paper_Space
 70
     0
 10
0.0
 20
0.0
 30
0.0
  3
*Paper_Space
  1

  0
ENDBLK
  5
1D
330
1B
100
AcDbEntity
 67
     1
  8
0
100
AcDbBlockEnd
  0
BLOCK
  5
24
330
23
100
AcDbEntity
  8
0
100
AcDbBlockBegin
  2
*Paper_Space0
 70
     0
 10
0.0
 20
0.0
 30
0.0
  3
*Paper_Space0
  1

  0
ENDBLK
  5
25
330
23
100
AcDbEntity
  8
0
100
AcDbBlockEnd
  0
BLOCK
  5
43
330
41
100
AcDbEntity
  8
0
100
AcDbBlockBegin
  2
block 2
 70
     0
 10
0.0
 20
0.0
 30
0.0
  3
block 2
  1

  0
INSERT
  5
46
330
41
100
AcDbEntity
  8
_U+30EC_U+30A4_U+30E4_U+30FC 1
100
AcDbBlockReference
  2
block 3
 10
0.0
 20
0.0
 30
0.0
  0
ENDBLK
  5
44
330
41
100
AcDbEntity
  8
0
100
AcDbBlockEnd
  0
BLOCK
  5
47
330
45
100
AcDbEntity
  8
0
100
AcDbBlockBegin
  2
block 3
 70
     0
 10
0.0
 20
0.0
 30
0.0
  3
block 3
  1

  0
SPLINE
  5
49
330
45
100
AcDbEntity
  8
_U+30EC_U+30A4_U+30E4_U+30FC 1
370
     0
100
AcDbSpline
210
0.0
220
0.0
230
1.0
 70
    11
 71
     3
 72
   134
 73
   130
 74
     0
 42
0.0000000001
 43
0.0000000001
 12
1.0
 22
0.0
 32
0.0
 13
1.0
 23
0.0
 33
0.0
 40
0.0
 40
0.0
 40
0.0
 40
0.0
 40
1.0
 40
1.0
 40
1.0
 40
2.0
 40
2.0
 40
2.0
 40
3.0
 40
3.0
 40
3.0
 40
4.0
 40
4.0
 40
4.0
 40
5.0
 40
5.0
 40
5.0
 40
6.0
 40
6.0
 40
6.0
 40
7.0
 40
7.0
 40
7.0
 40
8.0
 40
8.0
 40
8.0
 40
9.0
 40
9.0
 40
9.0
 40
10.0
 40
10.0
 40
10.0
 40
11.0
 40
11.0
 40
11.0
 40
12.0
 40
12.0
 40
12.0
 40
13.0
 40
13.0
 40
13.0
 40
14.0
 40
14.0
 40
14.0
 40
15.0
 40
15.0
 40
15.0
 40
16.0
 40
16.0
 40
16.0
 40
17.0
 40
17.0
 40
17.0
 40
18.0
 40
18.0
 40
18.0
 40
19.0
 40
19.0
 40
19.0
 40
20.0
 40
20.0
 40
20.0
 40
21.0
 40
21.0
 40
21.0
 40
22.0
 40
22.0
 40
22.0
 40
23.0
 40
23.0
 40
23.0
 40
24.0
 40
24.0
 40
24.0
 40
25.0
 40
25.0
 40
25.0
 40
26.0
 40
26.0
 40
26.0
 40
27.0
 40
27.0
 40
27.0
 40
28.0
 40
28.0
 40
28.0
 40
29.0
 40
29.0
 40
29.0
 40
30.0
 40
30.0
 40
30.0
 40
31.0
 40
31.0
 40
31.0
 40
32.0
 40
32.0
 40
32.0
 40
33.0
 40
33.0
 40
33.0
 40
34.0
 40
34.0
 40
34.0
 40
35.0
 40
35.0
 40
35.0
 40
36.0
 40
36.0
 40
36.0
 40
37.0
 40
37.0
 40
37.0
 40
38.0
 40
38.0
 40
38.0
 40
39.0
 40
39.0
 40
39.0
 40
40.0
 40
40.0
 40
40.0
 40
41.0
 40
41.0
 40
41.0
 40
42.0
 40
42.0
 40
42.0
 40
43.0
 40
43.0
 40
43.0
 40
43.0
 10
104.1662440091644
 20
-135.395017466151
 30
0.0
 10
104.1662440091644
 20
-135.395017466151
 30
0.0
 10
104.1662440091644
 20
-122.3952974694011
 30
0.0
 10
104.1662440091644
 20
-122.3952974694011
 30
0.0
 10
104.1662440091644
 20
-122.3952974694011
 30
0.0
 10
100.666371042898
 20
-122.3952974694011
 30
0.0
 10
100.666371042898
 20
-122.3952974694011
 30
0.0
 10
100.666371042898
 20
-122.3952974694011
 30
0.0
 10
100.666371042898
 20
-123.3950696913733
 30
0.0
 10
100.666371042898
 20
-123.3950696913733
 30
0.0
 10
100.666371042898
 20
-123.3950696913733
 30
0.0
 10
103.1664718124485
 20
-123.3950696913733
 30
0.0
 10
103.1664718124485
 20
-123.3950696913733
 30
0.0
 10
103.1664718124485
 20
-123.3950696913733
 30
0.0
 10
103.1664718124485
 20
-126.1449371906862
 30
0.0
 10
103.1664718124485
 20
-126.1449371906862
 30
0.0
 10
103.1664718124485
 20
-126.1449371906862
 30
0.0
 10
90.66628546468813
 20
-126.1449371906862
 30
0.0
 10
90.66628546468813
 20
-126.1449371906862
 30
0.0
 10
90.66628546468813
 20
-126.1449371906862
 30
0.0
 10
90.66628546468813
 20
-123.3950696913733
 30
0.0
 10
90.66628546468813
 20
-123.3950696913733
 30
0.0
 10
90.66628546468813
 20
-123.3950696913733
 30
0.0
 10
93.16642151201546
 20
-123.3950696913733
 30
0.0
 10
93.16642151201546
 20
-123.3950696913733
 30
0.0
 10
93.16642151201546
 20
-123.3950696913733
 30
0.0
 10
93.16642151201546
 20
-122.3952974694011
 30
0.0
 10
93.16642151201546
 20
-122.3952974694011
 30
0.0
 10
93.16642151201546
 20
-122.3952974694011
 30
0.0
 10
89.6665485457491
 20
-122.3952974694011
 30
0.0
 10
89.6665485457491
 20
-122.3952974694011
 30
0.0
 10
89.6665485457491
 20
-122.3952974694011
 30
0.0
 10
89.6665485457491
 20
-130.8585069117298
 30
0.0
 10
89.6665485457491
 20
-130.8585069117298
 30
0.0
 10
89.6665485457491
 20
-130.9687499672578
 30
0.0
 10
89.57694299247957
 20
-131.0583202450131
 30
0.0
 10
89.46638243974465
 20
-131.0583202450131
 30
0.0
 10
89.46638243974465
 20
-131.0583202450131
 30
0.0
 10
88.41630413320105
 20
-131.0583202450131
 30
0.0
 10
88.41630413320105
 20
-131.0583202450131
 30
0.0
 10
88.14036136246315
 20
-131.0583202450131
 30
0.0
 10
87.91641803484309
 20
-131.2822635782904
 30
0.0
 10
87.91641803484309
 20
-131.5585591337768
 30
0.0
 10
87.91641803484309
 20
-131.7866299670534
 30
0.0
 10
88.07075830868332
 20
-131.9857377447811
 30
0.0
 10
88.29124441416937
 20
-132.0429230225451
 30
0.0
 10
89.05021050591763
 20
-132.2386088558291
 30
0.0
 10
89.53044688255467
 20
-132.9855099667537
 30
0.0
 10
89.3933221638308
 20
-133.7572113554496
 30
0.0
 10
89.2482952230863
 20
-134.5730099663568
 30
0.0
 10
88.46971468739399
 20
-135.1166405217762
 30
0.0
 10
87.65391609709563
 20
-134.971966355146
 30
0.0
 10
86.83811750679727
 20
-134.8272569107376
 30
0.0
 10
86.29448696511089
 20
-134.0479707998211
 30
0.0
 10
86.43951390585539
 20
-133.2328777444694
 30
0.0
 10
86.4877386268473
 20
-132.9607096889823
 30
0.0
 10
86.3065166870262
 20
-132.7009594112693
 30
0.0
 10
86.03470141618301
 20
-132.6526994112813
 30
0.0
 10
85.76288614533982
 20
-132.6044746890708
 30
0.0
 10
85.50348865195761
 20
-132.7856966334704
 30
0.0
 10
85.45491115319692
 20
-133.0578646889576
 30
0.0
 10
85.35500448907908
 20
-133.6194163554839
 30
0.0
 10
85.45043087553344
 20
-134.1988891331171
 30
0.0
 10
85.72535275634651
 20
-134.6984224663253
 30
0.0
 10
85.74154309032878
 20
-134.7280557996515
 30
0.0
 10
85.75015086788694
 20
-134.7611110774208
 30
0.0
 10
85.75015086788694
 20
-134.7948719107457
 30
0.0
 10
85.75015086788694
 20
-134.9058205218292
 30
0.0
 10
85.6605805923943
 20
-134.9953907995845
 30
0.0
 10
85.5499847618825
 20
-134.9953907995845
 30
0.0
 10
85.5499847618825
 20
-134.9953907995845
 30
0.0
 10
84.1664277567363
 20
-134.9953907995845
 30
0.0
 10
84.1664277567363
 20
-134.9953907995845
 30
0.0
 10
84.1664277567363
 20
-134.9953907995845
 30
0.0
 10
84.1664277567363
 20
-132.3950305224567
 30
0.0
 10
84.1664277567363
 20
-132.3950305224567
 30
0.0
 10
84.1664277567363
 20
-132.3950305224567
 30
0.0
 10
83.16633593380556
 20
-132.3950305224567
 30
0.0
 10
83.16633593380556
 20
-132.3950305224567
 30
0.0
 10
83.16633593380556
 20
-132.3950305224567
 30
0.0
 10
83.16633593380556
 20
-136.3947896881236
 30
0.0
 10
83.16633593380556
 20
-136.3947896881236
 30
0.0
 10
83.16633593380556
 20
-136.3947896881236
 30
0.0
 10
93.16642151201546
 20
-136.3947896881236
 30
0.0
 10
93.16642151201546
 20
-136.3947896881236
 30
0.0
 10
93.16642151201546
 20
-136.3947896881236
 30
0.0
 10
93.16642151201546
 20
-134.3952452441791
 30
0.0
 10
93.16642151201546
 20
-134.3952452441791
 30
0.0
 10
93.16642151201546
 20
-134.3952452441791
 30
0.0
 10
90.66628546468813
 20
-134.3952452441791
 30
0.0
 10
90.66628546468813
 20
-134.3952452441791
 30
0.0
 10
90.66628546468813
 20
-134.3952452441791
 30
0.0
 10
90.66628546468813
 20
-128.645390801172
 30
0.0
 10
90.66628546468813
 20
-128.645390801172
 30
0.0
 10
90.66628546468813
 20
-128.0927996901991
 30
0.0
 10
91.11417211992826
 20
-127.6449130236442
 30
0.0
 10
91.66641043917282
 20
-127.6449130236442
 30
0.0
 10
91.66641043917282
 20
-127.6449130236442
 30
0.0
 10
96.66625920050494
 20
-127.6449130236442
 30
0.0
 10
96.66625920050494
 20
-127.6449130236442
 30
0.0
 10
96.66625920050494
 20
-127.6449130236442
 30
0.0
 10
96.9163786385683
 20
-127.212231079308
 30
0.0
 10
96.9163786385683
 20
-127.212231079308
 30
0.0
 10
96.9163786385683
 20
-127.212231079308
 30
0.0
 10
97.16649807663167
 20
-127.6449130236442
 30
0.0
 10
97.16649807663167
 20
-127.6449130236442
 30
0.0
 10
97.16649807663167
 20
-127.6449130236442
 30
0.0
 10
102.1663821157407
 20
-127.6449130236442
 30
0.0
 10
102.1663821157407
 20
-127.6449130236442
 30
0.0
 10
102.7186204349852
 20
-127.6449130236442
 30
0.0
 10
103.1664718124485
 20
-128.0927996901991
 30
0.0
 10
103.1664718124485
 20
-128.645390801172
 30
0.0
 10
103.1664718124485
 20
-128.645390801172
 30
0.0
 10
103.1664718124485
 20
-134.3952452441791
 30
0.0
 10
103.1664718124485
 20
-134.3952452441791
 30
0.0
 10
103.1664718124485
 20
-134.3952452441791
 30
0.0
 10
101.166257141256
 20
-134.3952452441791
 30
0.0
 10
101.166257141256
 20
-134.3952452441791
 30
0.0
 10
101.166257141256
 20
-134.3952452441791
 30
0.0
 10
101.166257141256
 20
-136.3947896881236
 30
0.0
 10
101.166257141256
 20
-136.3947896881236
 30
0.0
 10
101.166257141256
 20
-136.3947896881236
 30
0.0
 10
106.1664586803569
 20
-136.3947896881236
 30
0.0
 10
106.1664586803569
 20
-136.3947896881236
 30
0.0
 10
106.1664586803569
 20
-136.3947896881236
 30
0.0
 10
106.1664586803569
 20
-135.395017466151
 30
0.0
 10
106.1664586803569
 20
-135.395017466151
 30
0.0
 10
106.1664586803569
 20
-135.395017466151
 30
0.0
 10
104.1662440091644
 20
-135.395017466151
 30
0.0
 10
104.1662440091644
 20
-135.395017466151
 30
0.0
  0
HATCH
  5
4A
330
45
100
AcDbEntity
  8
_U+30EC_U+30A4_U+30E4_U+30FC 1
 62
   253
420
 11711154
100
AcDbHatch
 10
0.0
 20
0.0
 30
0.0
210
0.0
220
0.0
230
1.0
  2
SOLID
 70
     1
 71
     0
 91
        1
 92
        1
 93
        1
 72
     4
 94
        3
 73
     0
 74
     1
 95
      134
 96
      130
 40
0.0
 40
0.0
 40
0.0
 40
0.0
 40
1.0
 40
1.0
 40
1.0
 40
2.0
 40
2.0
 40
2.0
 40
3.0
 40
3.0
 40
3.0
 40
4.0
 40
4.0
 40
4.0
 40
5.0
 40
5.0
 40
5.0
 40
6.0
 40
6.0
 40
6.0
 40
7.0
 40
7.0
 40
7.0
 40
8.0
 40
8.0
 40
8.0
 40
9.0
 40
9.0
 40
9.0
 40
10.0
 40
10.0
 40
10.0
 40
11.0
 40
11.0
 40
11.0
 40
12.0
 40
12.0
 40
12.0
 40
13.0
 40
13.0
 40
13.0
 40
14.0
 40
14.0
 40
14.0
 40
15.0
 40
15.0
 40
15.0
 40
16.0
 40
16.0
 40
16.0
 40
17.0
 40
17.0
 40
17.0
 40
18.0
 40
18.0
 40
18.0
 40
19.0
 40
19.0
 40
19.0
 40
20.0
 40
20.0
 40
20.0
 40
21.0
 40
21.0
 40
21.0
 40
22.0
 40
22.0
 40
22.0
 40
23.0
 40
23.0
 40
23.0
 40
24.0
 40
24.0
 40
24.0
 40
25.0
 40
25.0
 40
25.0
 40
26.0
 40
26.0
 40
26.0
 40
27.0
 40
27.0
 40
27.0
 40
28.0
 40
28.0
 40
28.0
 40
29.0
 40
29.0
 40
29.0
 40
30.0
 40
30.0
 40
30.0
 40
31.0
 40
31.0
 40
31.0
 40
32.0
 40
32.0
 40
32.0
 40
33.0
 40
33.0
 40
33.0
 40
34.0
 40
34.0
 40
34.0
 40
35.0
 40
35.0
 40
35.0
 40
36.0
 40
36.0
 40
36.0
 40
37.0
 40
37.0
 40
37.0
 40
38.0
 40
38.0
 40
38.0
 40
39.0
 40
39.0
 40
39.0
 40
40.0
 40
40.0
 40
40.0
 40
41.0
 40
41.0
 40
41.0
 40
42.0
 40
42.0
 40
42.0
 40
43.0
 40
43.0
 40
43.0
 40
43.0
 10
104.1662440091644
 20
-135.395017466151
 10
104.1662440091644
 20
-135.395017466151
 10
104.1662440091644
 20
-122.3952974694011
 10
104.1662440091644
 20
-122.3952974694011
 10
104.1662440091644
 20
-122.3952974694011
 10
100.666371042898
 20
-122.3952974694011
 10
100.666371042898
 20
-122.3952974694011
 10
100.666371042898
 20
-122.3952974694011
 10
100.666371042898
 20
-123.3950696913733
 10
100.666371042898
 20
-123.3950696913733
 10
100.666371042898
 20
-123.3950696913733
 10
103.1664718124485
 20
-123.3950696913733
 10
103.1664718124485
 20
-123.3950696913733
 10
103.1664718124485
 20
-123.3950696913733
 10
103.1664718124485
 20
-126.1449371906862
 10
103.1664718124485
 20
-126.1449371906862
 10
103.1664718124485
 20
-126.1449371906862
 10
90.66628546468813
 20
-126.1449371906862
 10
90.66628546468813
 20
-126.1449371906862
 10
90.66628546468813
 20
-126.1449371906862
 10
90.66628546468813
 20
-123.3950696913733
 10
90.66628546468813
 20
-123.3950696913733
 10
90.66628546468813
 20
-123.3950696913733
 10
93.16642151201546
 20
-123.3950696913733
 10
93.16642151201546
 20
-123.3950696913733
 10
93.16642151201546
 20
-123.3950696913733
 10
93.16642151201546
 20
-122.3952974694011
 10
93.16642151201546
 20
-122.3952974694011
 10
93.16642151201546
 20
-122.3952974694011
 10
89.6665485457491
 20
-122.3952974694011
 10
89.6665485457491
 20
-122.3952974694011
 10
89.6665485457491
 20
-122.3952974694011
 10
89.6665485457491
 20
-130.8585069117298
 10
89.6665485457491
 20
-130.8585069117298
 10
89.6665485457491
 20
-130.9687499672578
 10
89.57694299247957
 20
-131.0583202450131
 10
89.46638243974465
 20
-131.0583202450131
 10
89.46638243974465
 20
-131.0583202450131
 10
88.41630413320105
 20
-131.0583202450131
 10
88.41630413320105
 20
-131.0583202450131
 10
88.14036136246315
 20
-131.0583202450131
 10
87.91641803484309
 20
-131.2822635782904
 10
87.91641803484309
 20
-131.5585591337768
 10
87.91641803484309
 20
-131.7866299670534
 10
88.07075830868332
 20
-131.9857377447811
 10
88.29124441416937
 20
-132.0429230225451
 10
89.05021050591763
 20
-132.2386088558291
 10
89.53044688255467
 20
-132.9855099667537
 10
89.3933221638308
 20
-133.7572113554496
 10
89.2482952230863
 20
-134.5730099663568
 10
88.46971468739399
 20
-135.1166405217762
 10
87.65391609709563
 20
-134.971966355146
 10
86.83811750679727
 20
-134.8272569107376
 10
86.29448696511089
 20
-134.0479707998211
 10
86.43951390585539
 20
-133.2328777444694
 10
86.4877386268473
 20
-132.9607096889823
 10
86.3065166870262
 20
-132.7009594112693
 10
86.03470141618301
 20
-132.6526994112813
 10
85.76288614533982
 20
-132.6044746890708
 10
85.50348865195761
 20
-132.7856966334704
 10
85.45491115319692
 20
-133.0578646889576
 10
85.35500448907908
 20
-133.6194163554839
 10
85.45043087553344
 20
-134.1988891331171
 10
85.72535275634651
 20
-134.6984224663253
 10
85.74154309032878
 20
-134.7280557996515
 10
85.75015086788694
 20
-134.7611110774208
 10
85.75015086788694
 20
-134.7948719107457
 10
85.75015086788694
 20
-134.9058205218292
 10
85.6605805923943
 20
-134.9953907995845
 10
85.5499847618825
 20
-134.9953907995845
 10
85.5499847618825
 20
-134.9953907995845
 10
84.1664277567363
 20
-134.9953907995845
 10
84.1664277567363
 20
-134.9953907995845
 10
84.1664277567363
 20
-134.9953907995845
 10
84.1664277567363
 20
-132.3950305224567
 10
84.1664277567363
 20
-132.3950305224567
 10
84.1664277567363
 20
-132.3950305224567
 10
83.16633593380556
 20
-132.3950305224567
 10
83.16633593380556
 20
-132.3950305224567
 10
83.16633593380556
 20
-132.3950305224567
 10
83.16633593380556
 20
-136.3947896881236
 10
83.16633593380556
 20
-136.3947896881236
 10
83.16633593380556
 20
-136.3947896881236
 10
93.16642151201546
 20
-136.3947896881236
 10
93.16642151201546
 20
-136.3947896881236
 10
93.16642151201546
 20
-136.3947896881236
 10
93.16642151201546
 20
-134.3952452441791
 10
93.16642151201546
 20
-134.3952452441791
 10
93.16642151201546
 20
-134.3952452441791
 10
90.66628546468813
 20
-134.3952452441791
 10
90.66628546468813
 20
-134.3952452441791
 10
90.66628546468813
 20
-134.3952452441791
 10
90.66628546468813
 20
-128.645390801172
 10
90.66628546468813
 20
-128.645390801172
 10
90.66628546468813
 20
-128.0927996901991
 10
91.11417211992826
 20
-127.6449130236442
 10
91.66641043917282
 20
-127.6449130236442
 10
91.66641043917282
 20
-127.6449130236442
 10
96.66625920050494
 20
-127.6449130236442
 10
96.66625920050494
 20
-127.6449130236442
 10
96.66625920050494
 20
-127.6449130236442
 10
96.9163786385683
 20
-127.212231079308
 10
96.9163786385683
 20
-127.212231079308
 10
96.9163786385683
 20
-127.212231079308
 10
97.16649807663167
 20
-127.6449130236442
 10
97.16649807663167
 20
-127.6449130236442
 10
97.16649807663167
 20
-127.6449130236442
 10
102.1663821157407
 20
-127.6449130236442
 10
102.1663821157407
 20
-127.6449130236442
 10
102.7186204349852
 20
-127.6449130236442
 10
103.1664718124485
 20
-128.0927996901991
 10
103.1664718124485
 20
-128.645390801172
 10
103.1664718124485
 20
-128.645390801172
 10
103.1664718124485
 20
-134.3952452441791
 10
103.1664718124485
 20
-134.3952452441791
 10
103.1664718124485
 20
-134.3952452441791
 10
101.166257141256
 20
-134.3952452441791
 10
101.166257141256
 20
-134.3952452441791
 10
101.166257141256
 20
-134.3952452441791
 10
101.166257141256
 20
-136.3947896881236
 10
101.166257141256
 20
-136.3947896881236
 10
101.166257141256
 20
-136.3947896881236
 10
106.1664586803569
 20
-136.3947896881236
 10
106.1664586803569
 20
-136.3947896881236
 10
106.1664586803569
 20
-136.3947896881236
 10
106.1664586803569
 20
-135.395017466151
 10
106.1664586803569
 20
-135.395017466151
 10
106.1664586803569
 20
-135.395017466151
 10
104.1662440091644
 20
-135.395017466151
 10
104.1662440091644
 20
-135.395017466151
 97
        0
 97
        0
 75
     2
 76
     1
 98
        0
  0
ENDBLK
  5
48
330
45
100
AcDbEntity
  8
0
100
AcDbBlockEnd
  0
BLOCK
  5
4D
330
4B
100
AcDbEntity
  8
0
100
AcDbBlockBegin
  2
block 4
 70
     0
 10
0.0
 20
0.0
 30
0.0
  3
block 4
  1

  0
POLYLINE
  5
4F
330
4B
100
AcDbEntity
  8
_U+30EC_U+30A4_U+30E4_U+30FC 1
 62
   179
420
  2234388
370
    25
100
AcDb2dPolyline
 66
     1
 10
0.0
 20
0.0
 30
0.0
  0
VERTEX
  5
50
330
4F
100
AcDbEntity
  8
_U+30EC_U+30A4_U+30E4_U+30FC 1
 62
   179
420
  2234388
370
    25
100
AcDbVertex
100
AcDb2dVertex
 10
83.16633593380556
 20
-132.3950305224567
 30
0.0
  0
VERTEX
  5
51
330
4F
100
AcDbEntity
  8
_U+30EC_U+30A4_U+30E4_U+30FC 1
 62
   179
420
  2234388
370
    25
100
AcDbVertex
100
AcDb2dVertex
 10
84.1664277567363
 20
-132.3950305224567
 30
0.0
  0
SEQEND
  5
52
330
4F
100
AcDbEntity
  8
_U+30EC_U+30A4_U+30E4_U+30FC 1
 62
   179
420
  2234388
370
    25
  0
POLYLINE
  5
53
330
4B
100
AcDbEntity
  8
_U+30EC_U+30A4_U+30E4_U+30FC 1
 62
   179
420
  2234388
370
    25
100
AcDb2dPolyline
 66
     1
 10
0.0
 20
0.0
 30
0.0
  0
VERTEX
  5
54
330
53
100
AcDbEntity
  8
_U+30EC_U+30A4_U+30E4_U+30FC 1
 62
   179
420
  2234388
370
    25
100
AcDbVertex
100
AcDb2dVertex
 10
89.6665485457491
 20
-122.3952974694011
 30
0.0
  0
VERTEX
  5
55
330
53
100
AcDbEntity
  8
_U+30EC_U+30A4_U+30E4_U+30FC 1
 62
   179
420
  2234388
370
    25
100
AcDbVertex
100
AcDb2dVertex
 10
89.6665485457491
 20
-130.8585069117298
 30
0.0
  0
SEQEND
  5
56
330
53
100
AcDbEntity
  8
_U+30EC_U+30A4_U+30E4_U+30FC 1
 62
   179
420
  2234388
370
    25
  0
POLYLINE
  5
57
330
4B
100
AcDbEntity
  8
_U+30EC_U+30A4_U+30E4_U+30FC 1
 62
   179
420
  2234388
370
    25
100
AcDb2dPolyline
 66
     1
 10
0.0
 20
0.0
 30
0.0
  0
VERTEX
  5
58
330
57
100
AcDbEntity
  8
_U+30EC_U+30A4_U+30E4_U+30FC 1
 62
   179
420
  2234388
370
    25
100
AcDbVertex
100
AcDb2dVertex
 10
83.16633593380556
 20
-136.3947896881236
 30
0.0
  0
VERTEX
  5
59
330
57
100
AcDbEntity
  8
_U+30EC_U+30A4_U+30E4_U+30FC 1
 62
   179
420
  2234388
370
    25
100
AcDbVertex
100
AcDb2dVertex
 10
93.16642151201546
 20
-136.3947896881236
 30
0.0
  0
SEQEND
  5
5A
330
57
100
AcDbEntity
  8
_U+30EC_U+30A4_U+30E4_U+30FC 1
 62
   179
420
  2234388
370
    25
  0
POLYLINE
  5
5B
330
4B
100
AcDbEntity
  8
_U+30EC_U+30A4_U+30E4_U+30FC 1
 62
   179
420
  2234388
370
    25
100
AcDb2dPolyline
 66
     1
 10
0.0
 20
0.0
 30
0.0
  0
VERTEX
  5
5C
330
5B
100
AcDbEntity
  8
_U+30EC_U+30A4_U+30E4_U+30FC 1
 62
   179
420
  2234388
370
    25
100
AcDbVertex
100
AcDb2dVertex
 10
89.6665485457491
 20
-122.3952974694011
 30
0.0
  0
VERTEX
  5
5D
330
5B
100
AcDbEntity
  8
_U+30EC_U+30A4_U+30E4_U+30FC 1
 62
   179
420
  2234388
370
    25
100
AcDbVertex
100
AcDb2dVertex
 10
93.16642151201546
 20
-122.3952974694011
 30
0.0
  0
SEQEND
  5
5E
330
5B
100
AcDbEntity
  8
_U+30EC_U+30A4_U+30E4_U+30FC 1
 62
   179
420
  2234388
370
    25
  0
POLYLINE
  5
5F
330
4B
100
AcDbEntity
  8
_U+30EC_U+30A4_U+30E4_U+30FC 1
 62
   179
420
  2234388
370
    25
100
AcDb2dPolyline
 66
     1
 10
0.0
 20
0.0
 30
0.0
  0
VERTEX
  5
60
330
5F
100
AcDbEntity
  8
_U+30EC_U+30A4_U+30E4_U+30FC 1
 62
   179
420
  2234388
370
    25
100
AcDbVertex
100
AcDb2dVertex
 10
104.1662440091644
 20
-122.3952974694011
 30
0.0
  0
VERTEX
  5
61
330
5F
100
AcDbEntity
  8
_U+30EC_U+30A4_U+30E4_U+30FC 1
 62
   179
420
  2234388
370
    25
100
AcDbVertex
100
AcDb2dVertex
 10
104.1662440091644
 20
-135.395017466151
 30
0.0
  0
SEQEND
  5
62
330
5F
100
AcDbEntity
  8
_U+30EC_U+30A4_U+30E4_U+30FC 1
 62
   179
420
  2234388
370
    25
  0
POLYLINE
  5
63
330
4B
100
AcDbEntity
  8
_U+30EC_U+30A4_U+30E4_U+30FC 1
 62
   179
420
  2234388
370
    25
100
AcDb2dPolyline
 66
     1
 10
0.0
 20
0.0
 30
0.0
  0
VERTEX
  5
64
330
63
100
AcDbEntity
  8
_U+30EC_U+30A4_U+30E4_U+30FC 1
 62
   179
420
  2234388
370
    25
100
AcDbVertex
100
AcDb2dVertex
 10
106.1664586803569
 20
-135.395017466151
 30
0.0
  0
VERTEX
  5
65
330
63
100
AcDbEntity
  8
_U+30EC_U+30A4_U+30E4_U+30FC 1
 62
   179
420
  2234388
370
    25
100
AcDbVertex
100
AcDb2dVertex
 10
106.1664586803569
 20
-136.3947896881236
 30
0.0
  0
SEQEND
  5
66
330
63
100
AcDbEntity
  8
_U+30EC_U+30A4_U+30E4_U+30FC 1
 62
   179
420
  2234388
370
    25
  0
POLYLINE
  5
67
330
4B
100
AcDbEntity
  8
_U+30EC_U+30A4_U+30E4_U+30FC 1
 62
   179
420
  2234388
370
    25
100
AcDb2dPolyline
 66
     1
 10
0.0
 20
0.0
 30
0.0
  0
VERTEX
  5
68
330
67
100
AcDbEntity
  8
_U+30EC_U+30A4_U+30E4_U+30FC 1
 62
   179
420
  2234388
370
    25
100
AcDbVertex
100
AcDb2dVertex
 10
101.166257141256
 20
-134.3952452441791
 30
0.0
  0
VERTEX
  5
69
330
67
100
AcDbEntity
  8
_U+30EC_U+30A4_U+30E4_U+30FC 1
 62
   179
420
  2234388
370
    25
100
AcDbVertex
100
AcDb2dVertex
 10
101.166257141256
 20
-136.3947896881236
 30
0.0
  0
SEQEND
  5
6A
330
67
100
AcDbEntity
  8
_U+30EC_U+30A4_U+30E4_U+30FC 1
 62
   179
420
  2234388
370
    25
  0
POLYLINE
  5
6B
330
4B
100
AcDbEntity
  8
_U+30EC_U+30A4_U+30E4_U+30FC 1
 62
   179
420
  2234388
370
    25
100
AcDb2dPolyline
 66
     1
 10
0.0
 20
0.0
 30
0.0
  0
VERTEX
  5
6C
330
6B
100
AcDbEntity
  8
_U+30EC_U+30A4_U+30E4_U+30FC 1
 62
   179
420
  2234388
370
    25
100
AcDbVertex
100
AcDb2dVertex
 10
93.16642151201546
 20
-134.3952452441791
 30
0.0
  0
VERTEX
  5
6D
330
6B
100
AcDbEntity
  8
_U+30EC_U+30A4_U+30E4_U+30FC 1
 62
   179
420
  2234388
370
    25
100
AcDbVertex
100
AcDb2dVertex
 10
93.16642151201546
 20
-136.3947896881236
 30
0.0
  0
SEQEND
  5
6E
330
6B
100
AcDbEntity
  8
_U+30EC_U+30A4_U+30E4_U+30FC 1
 62
   179
420
  2234388
370
    25
  0
POLYLINE
  5
6F
330
4B
100
AcDbEntity
  8
_U+30EC_U+30A4_U+30E4_U+30FC 1
 62
   179
420
  2234388
370
    25
100
AcDb2dPolyline
 66
     1
 10
0.0
 20
0.0
 30
0.0
  0
VERTEX
  5
70
330
6F
100
AcDbEntity
  8
_U+30EC_U+30A4_U+30E4_U+30FC 1
 62
   179
420
  2234388
370
    25
100
AcDbVertex
100
AcDb2dVertex
 10
83.16633593380556
 20
-132.3950305224567
 30
0.0
  0
VERTEX
  5
71
330
6F
100
AcDbEntity
  8
_U+30EC_U+30A4_U+30E4_U+30FC 1
 62
   179
420
  2234388
370
    25
100
AcDbVertex
100
AcDb2dVertex
 10
83.16633593380556
 20
-136.3947896881236
 30
0.0
  0
SEQEND
  5
72
330
6F
100
AcDbEntity
  8
_U+30EC_U+30A4_U+30E4_U+30FC 1
 62
   179
420
  2234388
370
    25
  0
POLYLINE
  5
73
330
4B
100
AcDbEntity
  8
_U+30EC_U+30A4_U+30E4_U+30FC 1
 62
   179
420
  2234388
370
    25
100
AcDb2dPolyline
 66
     1
 10
0.0
 20
0.0
 30
0.0
  0
VERTEX
  5
74
330
73
100
AcDbEntity
  8
_U+30EC_U+30A4_U+30E4_U+30FC 1
 62
   179
420
  2234388
370
    25
100
AcDbVertex
100
AcDb2dVertex
 10
101.166257141256
 20
-136.3947896881236
 30
0.0
  0
VERTEX
  5
75
330
73
100
AcDbEntity
  8
_U+30EC_U+30A4_U+30E4_U+30FC 1
 62
   179
420
  2234388
370
    25
100
AcDbVertex
100
AcDb2dVertex
 10
106.1664586803569
 20
-136.3947896881236
 30
0.0
  0
SEQEND
  5
76
330
73
100
AcDbEntity
  8
_U+30EC_U+30A4_U+30E4_U+30FC 1
 62
   179
420
  2234388
370
    25
  0
POLYLINE
  5
77
330
4B
100
AcDbEntity
  8
_U+30EC_U+30A4_U+30E4_U+30FC 1
 62
   179
420
  2234388
370
    25
100
AcDb2dPolyline
 66
     1
 10
0.0
 20
0.0
 30
0.0
  0
VERTEX
  5
78
330
77
100
AcDbEntity
  8
_U+30EC_U+30A4_U+30E4_U+30FC 1
 62
   179
420
  2234388
370
    25
100
AcDbVertex
100
AcDb2dVertex
 10
90.66628546468813
 20
-134.3952452441791
 30
0.0
  0
VERTEX
  5
79
330
77
100
AcDbEntity
  8
_U+30EC_U+30A4_U+30E4_U+30FC 1
 62
   179
420
  2234388
370
    25
100
AcDbVertex
100
AcDb2dVertex
 10
93.16642151201546
 20
-134.3952452441791
 30
0.0
  0
SEQEND
  5
7A
330
77
100
AcDbEntity
  8
_U+30EC_U+30A4_U+30E4_U+30FC 1
 62
   179
420
  2234388
370
    25
  0
POLYLINE
  5
7B
330
4B
100
AcDbEntity
  8
_U+30EC_U+30A4_U+30E4_U+30FC 1
 62
   179
420
  2234388
370
    25
100
AcDb2dPolyline
 66
     1
 10
0.0
 20
0.0
 30
0.0
  0
VERTEX
  5
7C
330
7B
100
AcDbEntity
  8
_U+30EC_U+30A4_U+30E4_U+30FC 1
 62
   179
420
  2234388
370
    25
100
AcDbVertex
100
AcDb2dVertex
 10
101.166257141256
 20
-134.3952452441791
 30
0.0
  0
VERTEX
  5
7D
330
7B
100
AcDbEntity
  8
_U+30EC_U+30A4_U+30E4_U+30FC 1
 62
   179
420
  2234388
370
    25
100
AcDbVertex
100
AcDb2dVertex
 10
103.1664718124485
 20
-134.3952452441791
 30
0.0
  0
SEQEND
  5
7E
330
7B
100
AcDbEntity
  8
_U+30EC_U+30A4_U+30E4_U+30FC 1
 62
   179
420
  2234388
370
    25
  0
POLYLINE
  5
7F
330
4B
100
AcDbEntity
  8
_U+30EC_U+30A4_U+30E4_U+30FC 1
 62
   179
420
  2234388
370
    25
100
AcDb2dPolyline
 66
     1
 10
0.0
 20
0.0
 30
0.0
  0
VERTEX
  5
80
330
7F
100
AcDbEntity
  8
_U+30EC_U+30A4_U+30E4_U+30FC 1
 62
   179
420
  2234388
370
    25
100
AcDbVertex
100
AcDb2dVertex
 10
104.1662440091644
 20
-135.395017466151
 30
0.0
  0
VERTEX
  5
81
330
7F
100
AcDbEntity
  8
_U+30EC_U+30A4_U+30E4_U+30FC 1
 62
   179
420
  2234388
370
    25
100
AcDbVertex
100
AcDb2dVertex
 10
106.1664586803569
 20
-135.395017466151
 30
0.0
  0
SEQEND
  5
82
330
7F
100
AcDbEntity
  8
_U+30EC_U+30A4_U+30E4_U+30FC 1
 62
   179
420
  2234388
370
    25
  0
POLYLINE
  5
83
330
4B
100
AcDbEntity
  8
_U+30EC_U+30A4_U+30E4_U+30FC 1
 62
   179
420
  2234388
370
    25
100
AcDb2dPolyline
 66
     1
 10
0.0
 20
0.0
 30
0.0
  0
VERTEX
  5
84
330
83
100
AcDbEntity
  8
_U+30EC_U+30A4_U+30E4_U+30FC 1
 62
   179
420
  2234388
370
    25
100
AcDbVertex
100
AcDb2dVertex
 10
103.1664718124485
 20
-123.3950696913733
 30
0.0
  0
VERTEX
  5
85
330
83
100
AcDbEntity
  8
_U+30EC_U+30A4_U+30E4_U+30FC 1
 62
   179
420
  2234388
370
    25
100
AcDbVertex
100
AcDb2dVertex
 10
103.1664718124485
 20
-126.1449371906862
 30
0.0
  0
SEQEND
  5
86
330
83
100
AcDbEntity
  8
_U+30EC_U+30A4_U+30E4_U+30FC 1
 62
   179
420
  2234388
370
    25
  0
POLYLINE
  5
87
330
4B
100
AcDbEntity
  8
_U+30EC_U+30A4_U+30E4_U+30FC 1
 62
   179
420
  2234388
370
    25
100
AcDb2dPolyline
 66
     1
 10
0.0
 20
0.0
 30
0.0
  0
VERTEX
  5
88
330
87
100
AcDbEntity
  8
_U+30EC_U+30A4_U+30E4_U+30FC 1
 62
   179
420
  2234388
370
    25
100
AcDbVertex
100
AcDb2dVertex
 10
90.66628546468813
 20
-123.3950696913733
 30
0.0
  0
VERTEX
  5
89
330
87
100
AcDbEntity
  8
_U+30EC_U+30A4_U+30E4_U+30FC 1
 62
   179
420
  2234388
370
    25
100
AcDbVertex
100
AcDb2dVertex
 10
93.16642151201546
 20
-123.3950696913733
 30
0.0
  0
SEQEND
  5
8A
330
87
100
AcDbEntity
  8
_U+30EC_U+30A4_U+30E4_U+30FC 1
 62
   179
420
  2234388
370
    25
  0
POLYLINE
  5
8B
330
4B
100
AcDbEntity
  8
_U+30EC_U+30A4_U+30E4_U+30FC 1
 62
   179
420
  2234388
370
    25
100
AcDb2dPolyline
 66
     1
 10
0.0
 20
0.0
 30
0.0
  0
VERTEX
  5
8C
330
8B
100
AcDbEntity
  8
_U+30EC_U+30A4_U+30E4_U+30FC 1
 62
   179
420
  2234388
370
    25
100
AcDbVertex
100
AcDb2dVertex
 10
93.16642151201546
 20
-122.3952974694011
 30
0.0
  0
VERTEX
  5
8D
330
8B
100
AcDbEntity
  8
_U+30EC_U+30A4_U+30E4_U+30FC 1
 62
   179
420
  2234388
370
    25
100
AcDbVertex
100
AcDb2dVertex
 10
93.16642151201546
 20
-123.3950696913733
 30
0.0
  0
SEQEND
  5
8E
330
8B
100
AcDbEntity
  8
_U+30EC_U+30A4_U+30E4_U+30FC 1
 62
   179
420
  2234388
370
    25
  0
POLYLINE
  5
8F
330
4B
100
AcDbEntity
  8
_U+30EC_U+30A4_U+30E4_U+30FC 1
 62
   179
420
  2234388
370
    25
100
AcDb2dPolyline
 66
     1
 10
0.0
 20
0.0
 30
0.0
  0
VERTEX
  5
90
330
8F
100
AcDbEntity
  8
_U+30EC_U+30A4_U+30E4_U+30FC 1
 62
   179
420
  2234388
370
    25
100
AcDbVertex
100
AcDb2dVertex
 10
100.666371042898
 20
-122.3952974694011
 30
0.0
  0
VERTEX
  5
91
330
8F
100
AcDbEntity
  8
_U+30EC_U+30A4_U+30E4_U+30FC 1
 62
   179
420
  2234388
370
    25
100
AcDbVertex
100
AcDb2dVertex
 10
100.666371042898
 20
-123.3950696913733
 30
0.0
  0
SEQEND
  5
92
330
8F
100
AcDbEntity
  8
_U+30EC_U+30A4_U+30E4_U+30FC 1
 62
   179
420
  2234388
370
    25
  0
POLYLINE
  5
93
330
4B
100
AcDbEntity
  8
_U+30EC_U+30A4_U+30E4_U+30FC 1
 62
   179
420
  2234388
370
    25
100
AcDb2dPolyline
 66
     1
 10
0.0
 20
0.0
 30
0.0
  0
VERTEX
  5
94
330
93
100
AcDbEntity
  8
_U+30EC_U+30A4_U+30E4_U+30FC 1
 62
   179
420
  2234388
370
    25
100
AcDbVertex
100
AcDb2dVertex
 10
100.666371042898
 20
-122.3952974694011
 30
0.0
  0
VERTEX
  5
95
330
93
100
AcDbEntity
  8
_U+30EC_U+30A4_U+30E4_U+30FC 1
 62
   179
420
  2234388
370
    25
100
AcDbVertex
100
AcDb2dVertex
 10
104.1662440091644
 20
-122.3952974694011
 30
0.0
  0
SEQEND
  5
96
330
93
100
AcDbEntity
  8
_U+30EC_U+30A4_U+30E4_U+30FC 1
 62
   179
420
  2234388
370
    25
  0
POLYLINE
  5
97
330
4B
100
AcDbEntity
  8
_U+30EC_U+30A4_U+30E4_U+30FC 1
 62
   179
420
  2234388
370
    25
100
AcDb2dPolyline
 66
     1
 10
0.0
 20
0.0
 30
0.0
  0
VERTEX
  5
98
330
97
100
AcDbEntity
  8
_U+30EC_U+30A4_U+30E4_U+30FC 1
 62
   179
420
  2234388
370
    25
100
AcDbVertex
100
AcDb2dVertex
 10
100.666371042898
 20
-123.3950696913733
 30
0.0
  0
VERTEX
  5
99
330
97
100
AcDbEntity
  8
_U+30EC_U+30A4_U+30E4_U+30FC 1
 62
   179
420
  2234388
370
    25
100
AcDbVertex
100
AcDb2dVertex
 10
103.1664718124485
 20
-123.3950696913733
 30
0.0
  0
SEQEND
  5
9A
330
97
100
AcDbEntity
  8
_U+30EC_U+30A4_U+30E4_U+30FC 1
 62
   179
420
  2234388
370
    25
  0
POLYLINE
  5
9B
330
4B
100
AcDbEntity
  8
_U+30EC_U+30A4_U+30E4_U+30FC 1
 62
   179
420
  2234388
370
    25
100
AcDb2dPolyline
 66
     1
 10
0.0
 20
0.0
 30
0.0
  0
VERTEX
  5
9C
330
9B
100
AcDbEntity
  8
_U+30EC_U+30A4_U+30E4_U+30FC 1
 62
   179
420
  2234388
370
    25
100
AcDbVertex
100
AcDb2dVertex
 10
84.1664277567363
 20
-132.3950305224567
 30
0.0
  0
VERTEX
  5
9D
330
9B
100
AcDbEntity
  8
_U+30EC_U+30A4_U+30E4_U+30FC 1
 62
   179
420
  2234388
370
    25
100
AcDbVertex
100
AcDb2dVertex
 10
84.1664277567363
 20
-134.9953907995845
 30
0.0
  0
SEQEND
  5
9E
330
9B
100
AcDbEntity
  8
_U+30EC_U+30A4_U+30E4_U+30FC 1
 62
   179
420
  2234388
370
    25
  0
POLYLINE
  5
9F
330
4B
100
AcDbEntity
  8
_U+30EC_U+30A4_U+30E4_U+30FC 1
 62
   179
420
  2234388
370
    25
100
AcDb2dPolyline
 66
     1
 10
0.0
 20
0.0
 30
0.0
  0
VERTEX
  5
A0
330
9F
100
AcDbEntity
  8
_U+30EC_U+30A4_U+30E4_U+30FC 1
 62
   179
420
  2234388
370
    25
100
AcDbVertex
100
AcDb2dVertex
 10
90.66628546468813
 20
-123.3950696913733
 30
0.0
  0
VERTEX
  5
A1
330
9F
100
AcDbEntity
  8
_U+30EC_U+30A4_U+30E4_U+30FC 1
 62
   179
420
  2234388
370
    25
100
AcDbVertex
100
AcDb2dVertex
 10
90.66628546468813
 20
-126.1449371906862
 30
0.0
  0
SEQEND
  5
A2
330
9F
100
AcDbEntity
  8
_U+30EC_U+30A4_U+30E4_U+30FC 1
 62
   179
420
  2234388
370
    25
  0
POLYLINE
  5
A3
330
4B
100
AcDbEntity
  8
_U+30EC_U+30A4_U+30E4_U+30FC 1
 62
   179
420
  2234388
370
    25
100
AcDb2dPolyline
 66
     1
 10
0.0
 20
0.0
 30
0.0
  0
VERTEX
  5
A4
330
A3
100
AcDbEntity
  8
_U+30EC_U+30A4_U+30E4_U+30FC 1
 62
   179
420
  2234388
370
    25
100
AcDbVertex
100
AcDb2dVertex
 10
84.1664277567363
 20
-134.9953907995845
 30
0.0
  0
VERTEX
  5
A5
330
A3
100
AcDbEntity
  8
_U+30EC_U+30A4_U+30E4_U+30FC 1
 62
   179
420
  2234388
370
    25
100
AcDbVertex
100
AcDb2dVertex
 10
85.5499847618825
 20
-134.9953907995845
 30
0.0
  0
SEQEND
  5
A6
330
A3
100
AcDbEntity
  8
_U+30EC_U+30A4_U+30E4_U+30FC 1
 62
   179
420
  2234388
370
    25
  0
POLYLINE
  5
A7
330
4B
100
AcDbEntity
  8
_U+30EC_U+30A4_U+30E4_U+30FC 1
 62
   179
420
  2234388
370
    25
100
AcDb2dPolyline
 66
     1
 10
0.0
 20
0.0
 30
0.0
  0
VERTEX
  5
A8
330
A7
100
AcDbEntity
  8
_U+30EC_U+30A4_U+30E4_U+30FC 1
 62
   179
420
  2234388
370
    25
100
AcDbVertex
100
AcDb2dVertex
 10
90.66628546468813
 20
-126.1449371906862
 30
0.0
  0
VERTEX
  5
A9
330
A7
100
AcDbEntity
  8
_U+30EC_U+30A4_U+30E4_U+30FC 1
 62
   179
420
  2234388
370
    25
100
AcDbVertex
100
AcDb2dVertex
 10
103.1664718124485
 20
-126.1449371906862
 30
0.0
  0
SEQEND
  5
AA
330
A7
100
AcDbEntity
  8
_U+30EC_U+30A4_U+30E4_U+30FC 1
 62
   179
420
  2234388
370
    25
  0
POLYLINE
  5
AB
330
4B
100
AcDbEntity
  8
_U+30EC_U+30A4_U+30E4_U+30FC 1
 62
   179
420
  2234388
370
    25
100
AcDb2dPolyline
 66
     1
 10
0.0
 20
0.0
 30
0.0
  0
VERTEX
  5
AC
330
AB
100
AcDbEntity
  8
_U+30EC_U+30A4_U+30E4_U+30FC 1
 62
   179
420
  2234388
370
    25
100
AcDbVertex
100
AcDb2dVertex
 10
91.66641043917282
 20
-127.6449130236442
 30
0.0
  0
VERTEX
  5
AD
330
AB
100
AcDbEntity
  8
_U+30EC_U+30A4_U+30E4_U+30FC 1
 62
   179
420
  2234388
370
    25
100
AcDbVertex
100
AcDb2dVertex
 10
96.66625920050494
 20
-127.6449130236442
 30
0.0
  0
SEQEND
  5
AE
330
AB
100
AcDbEntity
  8
_U+30EC_U+30A4_U+30E4_U+30FC 1
 62
   179
420
  2234388
370
    25
  0
POLYLINE
  5
AF
330
4B
100
AcDbEntity
  8
_U+30EC_U+30A4_U+30E4_U+30FC 1
 62
   179
420
  2234388
370
    25
100
AcDb2dPolyline
 66
     1
 10
0.0
 20
0.0
 30
0.0
  0
VERTEX
  5
B0
330
AF
100
AcDbEntity
  8
_U+30EC_U+30A4_U+30E4_U+30FC 1
 62
   179
420
  2234388
370
    25
100
AcDbVertex
100
AcDb2dVertex
 10
90.66628546468813
 20
-128.645390801172
 30
0.0
  0
VERTEX
  5
B1
330
AF
100
AcDbEntity
  8
_U+30EC_U+30A4_U+30E4_U+30FC 1
 62
   179
420
  2234388
370
    25
100
AcDbVertex
100
AcDb2dVertex
 10
90.66628546468813
 20
-134.3952452441791
 30
0.0
  0
SEQEND
  5
B2
330
AF
100
AcDbEntity
  8
_U+30EC_U+30A4_U+30E4_U+30FC 1
 62
   179
420
  2234388
370
    25
  0
POLYLINE
  5
B3
330
4B
100
AcDbEntity
  8
_U+30EC_U+30A4_U+30E4_U+30FC 1
 62
   179
420
  2234388
370
    25
100
AcDb2dPolyline
 66
     1
 10
0.0
 20
0.0
 30
0.0
  0
VERTEX
  5
B4
330
B3
100
AcDbEntity
  8
_U+30EC_U+30A4_U+30E4_U+30FC 1
 62
   179
420
  2234388
370
    25
100
AcDbVertex
100
AcDb2dVertex
 10
103.1664718124485
 20
-128.645390801172
 30
0.0
  0
VERTEX
  5
B5
330
B3
100
AcDbEntity
  8
_U+30EC_U+30A4_U+30E4_U+30FC 1
 62
   179
420
  2234388
370
    25
100
AcDbVertex
100
AcDb2dVertex
 10
103.1664718124485
 20
-134.3952452441791
 30
0.0
  0
SEQEND
  5
B6
330
B3
100
AcDbEntity
  8
_U+30EC_U+30A4_U+30E4_U+30FC 1
 62
   179
420
  2234388
370
    25
  0
POLYLINE
  5
B7
330
4B
100
AcDbEntity
  8
_U+30EC_U+30A4_U+30E4_U+30FC 1
 62
   179
420
  2234388
370
    25
100
AcDb2dPolyline
 66
     1
 10
0.0
 20
0.0
 30
0.0
  0
VERTEX
  5
B8
330
B7
100
AcDbEntity
  8
_U+30EC_U+30A4_U+30E4_U+30FC 1
 62
   179
420
  2234388
370
    25
100
AcDbVertex
100
AcDb2dVertex
 10
96.66625920050494
 20
-127.6449130236442
 30
0.0
  0
VERTEX
  5
B9
330
B7
100
AcDbEntity
  8
_U+30EC_U+30A4_U+30E4_U+30FC 1
 62
   179
420
  2234388
370
    25
100
AcDbVertex
100
AcDb2dVertex
 10
96.9163786385683
 20
-127.212231079308
 30
0.0
  0
SEQEND
  5
BA
330
B7
100
AcDbEntity
  8
_U+30EC_U+30A4_U+30E4_U+30FC 1
 62
   179
420
  2234388
370
    25
  0
POLYLINE
  5
BB
330
4B
100
AcDbEntity
  8
_U+30EC_U+30A4_U+30E4_U+30FC 1
 62
   179
420
  2234388
370
    25
100
AcDb2dPolyline
 66
     1
 10
0.0
 20
0.0
 30
0.0
  0
VERTEX
  5
BC
330
BB
100
AcDbEntity
  8
_U+30EC_U+30A4_U+30E4_U+30FC 1
 62
   179
420
  2234388
370
    25
100
AcDbVertex
100
AcDb2dVertex
 10
96.9163786385683
 20
-127.212231079308
 30
0.0
  0
VERTEX
  5
BD
330
BB
100
AcDbEntity
  8
_U+30EC_U+30A4_U+30E4_U+30FC 1
 62
   179
420
  2234388
370
    25
100
AcDbVertex
100
AcDb2dVertex
 10
97.16649807663167
 20
-127.6449130236442
 30
0.0
  0
SEQEND
  5
BE
330
BB
100
AcDbEntity
  8
_U+30EC_U+30A4_U+30E4_U+30FC 1
 62
   179
420
  2234388
370
    25
  0
POLYLINE
  5
BF
330
4B
100
AcDbEntity
  8
_U+30EC_U+30A4_U+30E4_U+30FC 1
 62
   179
420
  2234388
370
    25
100
AcDb2dPolyline
 66
     1
 10
0.0
 20
0.0
 30
0.0
  0
VERTEX
  5
C0
330
BF
100
AcDbEntity
  8
_U+30EC_U+30A4_U+30E4_U+30FC 1
 62
   179
420
  2234388
370
    25
100
AcDbVertex
100
AcDb2dVertex
 10
97.16649807663167
 20
-127.6449130236442
 30
0.0
  0
VERTEX
  5
C1
330
BF
100
AcDbEntity
  8
_U+30EC_U+30A4_U+30E4_U+30FC 1
 62
   179
420
  2234388
370
    25
100
AcDbVertex
100
AcDb2dVertex
 10
102.1663821157407
 20
-127.6449130236442
 30
0.0
  0
SEQEND
  5
C2
330
BF
100
AcDbEntity
  8
_U+30EC_U+30A4_U+30E4_U+30FC 1
 62
   179
420
  2234388
370
    25
  0
POLYLINE
  5
C3
330
4B
100
AcDbEntity
  8
_U+30EC_U+30A4_U+30E4_U+30FC 1
 62
   179
420
  2234388
370
    25
100
AcDb2dPolyline
 66
     1
 10
0.0
 20
0.0
 30
0.0
  0
VERTEX
  5
C4
330
C3
100
AcDbEntity
  8
_U+30EC_U+30A4_U+30E4_U+30FC 1
 62
   179
420
  2234388
370
    25
100
AcDbVertex
100
AcDb2dVertex
 10
88.41630413320105
 20
-131.0583202450131
 30
0.0
  0
VERTEX
  5
C5
330
C3
100
AcDbEntity
  8
_U+30EC_U+30A4_U+30E4_U+30FC 1
 62
   179
420
  2234388
370
    25
100
AcDbVertex
100
AcDb2dVertex
 10
89.46638243974465
 20
-131.0583202450131
 30
0.0
  0
SEQEND
  5
C6
330
C3
100
AcDbEntity
  8
_U+30EC_U+30A4_U+30E4_U+30FC 1
 62
   179
420
  2234388
370
    25
  0
SPLINE
  5
C7
330
4B
100
AcDbEntity
  8
_U+30EC_U+30A4_U+30E4_U+30FC 1
 62
   179
420
  2234388
370
    25
100
AcDbSpline
210
0.0
220
0.0
230
1.0
 70
     8
 71
     3
 72
     8
 73
     4
 74
     0
 42
0.0000000001
 43
0.0000000001
 12
1.0
 22
0.0
 32
0.0
 13
1.0
 23
0.0
 33
0.0
 40
0.0
 40
0.0
 40
0.0
 40
0.0
 40
1.0
 40
1.0
 40
1.0
 40
1.0
 10
91.66641043917282
 20
-127.6449130236442
 30
0.0
 10
91.11417211992826
 20
-127.6449130236442
 30
0.0
 10
90.66628546468813
 20
-128.0927996901991
 30
0.0
 10
90.66628546468813
 20
-128.645390801172
 30
0.0
  0
SPLINE
  5
C8
330
4B
100
AcDbEntity
  8
_U+30EC_U+30A4_U+30E4_U+30FC 1
 62
   179
420
  2234388
370
    25
100
AcDbSpline
210
0.0
220
0.0
230
1.0
 70
     8
 71
     3
 72
     8
 73
     4
 74
     0
 42
0.0000000001
 43
0.0000000001
 12
1.0
 22
0.0
 32
0.0
 13
1.0
 23
0.0
 33
0.0
 40
0.0
 40
0.0
 40
0.0
 40
0.0
 40
1.0
 40
1.0
 40
1.0
 40
1.0
 10
103.1664718124485
 20
-128.645390801172
 30
0.0
 10
103.1664718124485
 20
-128.0927996901991
 30
0.0
 10
102.7186204349852
 20
-127.6449130236442
 30
0.0
 10
102.1663821157407
 20
-127.6449130236442
 30
0.0
  0
SPLINE
  5
C9
330
4B
100
AcDbEntity
  8
_U+30EC_U+30A4_U+30E4_U+30FC 1
 62
   179
420
  2234388
370
    25
100
AcDbSpline
210
0.0
220
0.0
230
1.0
 70
     8
 71
     3
 72
    14
 73
    10
 74
     0
 42
0.0000000001
 43
0.0000000001
 12
1.0
 22
0.0
 32
0.0
 13
1.0
 23
0.0
 33
0.0
 40
0.0
 40
0.0
 40
0.0
 40
0.0
 40
1.0
 40
1.0
 40
1.0
 40
2.0
 40
2.0
 40
2.0
 40
3.0
 40
3.0
 40
3.0
 40
3.0
 10
86.43951390585539
 20
-133.2328777444694
 30
0.0
 10
86.29448696511089
 20
-134.0479707998211
 30
0.0
 10
86.83811750679727
 20
-134.8272569107376
 30
0.0
 10
87.65391609709563
 20
-134.971966355146
 30
0.0
 10
88.46971468739399
 20
-135.1166405217762
 30
0.0
 10
89.2482952230863
 20
-134.5730099663568
 30
0.0
 10
89.3933221638308
 20
-133.7572113554496
 30
0.0
 10
89.53044688255467
 20
-132.9855099667537
 30
0.0
 10
89.05021050591763
 20
-132.2386088558291
 30
0.0
 10
88.29124441416937
 20
-132.0429230225451
 30
0.0
  0
SPLINE
  5
CA
330
4B
100
AcDbEntity
  8
_U+30EC_U+30A4_U+30E4_U+30FC 1
 62
   179
420
  2234388
370
    25
100
AcDbSpline
210
0.0
220
0.0
230
1.0
 70
     8
 71
     3
 72
     8
 73
     4
 74
     0
 42
0.0000000001
 43
0.0000000001
 12
1.0
 22
0.0
 32
0.0
 13
1.0
 23
0.0
 33
0.0
 40
0.0
 40
0.0
 40
0.0
 40
0.0
 40
1.0
 40
1.0
 40
1.0
 40
1.0
 10
85.45491115319692
 20
-133.0578646889576
 30
0.0
 10
85.35500448907908
 20
-133.6194163554839
 30
0.0
 10
85.45043087553344
 20
-134.1988891331171
 30
0.0
 10
85.72535275634651
 20
-134.6984224663253
 30
0.0
  0
SPLINE
  5
CB
330
4B
100
AcDbEntity
  8
_U+30EC_U+30A4_U+30E4_U+30FC 1
 62
   179
420
  2234388
370
    25
100
AcDbSpline
210
0.0
220
0.0
230
1.0
 70
     8
 71
     3
 72
    11
 73
     7
 74
     0
 42
0.0000000001
 43
0.0000000001
 12
1.0
 22
0.0
 32
0.0
 13
1.0
 23
0.0
 33
0.0
 40
0.0
 40
0.0
 40
0.0
 40
0.0
 40
1.0
 40
1.0
 40
1.0
 40
2.0
 40
2.0
 40
2.0
 40
2.0
 10
85.5499847618825
 20
-134.9953907995845
 30
0.0
 10
85.6605805923943
 20
-134.9953907995845
 30
0.0
 10
85.75015086788694
 20
-134.9058205218292
 30
0.0
 10
85.75015086788694
 20
-134.7948719107457
 30
0.0
 10
85.75015086788694
 20
-134.7611110774208
 30
0.0
 10
85.74154309032878
 20
-134.7280557996515
 30
0.0
 10
85.72535275634651
 20
-134.6984224663253
 30
0.0
  0
SPLINE
  5
CC
330
4B
100
AcDbEntity
  8
_U+30EC_U+30A4_U+30E4_U+30FC 1
 62
   179
420
  2234388
370
    25
100
AcDbSpline
210
0.0
220
0.0
230
1.0
 70
     8
 71
     3
 72
    11
 73
     7
 74
     0
 42
0.0000000001
 43
0.0000000001
 12
1.0
 22
0.0
 32
0.0
 13
1.0
 23
0.0
 33
0.0
 40
0.0
 40
0.0
 40
0.0
 40
0.0
 40
1.0
 40
1.0
 40
1.0
 40
2.0
 40
2.0
 40
2.0
 40
2.0
 10
88.41630413320105
 20
-131.0583202450131
 30
0.0
 10
88.14036136246315
 20
-131.0583202450131
 30
0.0
 10
87.91641803484309
 20
-131.2822635782904
 30
0.0
 10
87.91641803484309
 20
-131.5585591337768
 30
0.0
 10
87.91641803484309
 20
-131.7866299670534
 30
0.0
 10
88.07075830868332
 20
-131.9857377447811
 30
0.0
 10
88.29124441416937
 20
-132.0429230225451
 30
0.0
  0
SPLINE
  5
CD
330
4B
100
AcDbEntity
  8
_U+30EC_U+30A4_U+30E4_U+30FC 1
 62
   179
420
  2234388
370
    25
100
AcDbSpline
210
0.0
220
0.0
230
1.0
 70
     8
 71
     3
 72
    11
 73
     7
 74
     0
 42
0.0000000001
 43
0.0000000001
 12
1.0
 22
0.0
 32
0.0
 13
1.0
 23
0.0
 33
0.0
 40
0.0
 40
0.0
 40
0.0
 40
0.0
 40
1.0
 40
1.0
 40
1.0
 40
2.0
 40
2.0
 40
2.0
 40
2.0
 10
86.43951390585539
 20
-133.2328777444694
 30
0.0
 10
86.4877386268473
 20
-132.9607096889823
 30
0.0
 10
86.3065166870262
 20
-132.7009594112693
 30
0.0
 10
86.03470141618301
 20
-132.6526994112813
 30
0.0
 10
85.76288614533982
 20
-132.6044746890708
 30
0.0
 10
85.50348865195761
 20
-132.7856966334704
 30
0.0
 10
85.45491115319692
 20
-133.0578646889576
 30
0.0
  0
SPLINE
  5
CE
330
4B
100
AcDbEntity
  8
_U+30EC_U+30A4_U+30E4_U+30FC 1
 62
   179
420
  2234388
370
    25
100
AcDbSpline
210
0.0
220
0.0
230
1.0
 70
     8
 71
     3
 72
     8
 73
     4
 74
     0
 42
0.0000000001
 43
0.0000000001
 12
1.0
 22
0.0
 32
0.0
 13
1.0
 23
0.0
 33
0.0
 40
0.0
 40
0.0
 40
0.0
 40
0.0
 40
1.0
 40
1.0
 40
1.0
 40
1.0
 10
89.46638243974465
 20
-131.0583202450131
 30
0.0
 10
89.57694299247957
 20
-131.0583202450131
 30
0.0
 10
89.6665485457491
 20
-130.9687499672578
 30
0.0
 10
89.6665485457491
 20
-130.8585069117298
 30
0.0
  0
SPLINE
  5
CF
330
4B
100
AcDbEntity
  8
_U+30EC_U+30A4_U+30E4_U+30FC 1
 62
   179
420
  2234388
370
     9
100
AcDbSpline
210
0.0
220
0.0
230
1.0
 70
    11
 71
     3
 72
    17
 73
    13
 74
     0
 42
0.0000000001
 43
0.0000000001
 12
1.0
 22
0.0
 32
0.0
 13
1.0
 23
0.0
 33
0.0
 40
0.0
 40
0.0
 40
0.0
 40
0.0
 40
1.0
 40
1.0
 40
1.0
 40
2.0
 40
2.0
 40
2.0
 40
3.0
 40
3.0
 40
3.0
 40
4.0
 40
4.0
 40
4.0
 40
4.0
 10
79.26648353329908
 20
-122.3952974694011
 30
0.0
 10
79.26648353329908
 20
-122.3394880249707
 30
0.0
 10
79.22168075666433
 20
-122.2953908027595
 30
0.0
 10
79.16657686918126
 20
-122.2953908027595
 30
0.0
 10
79.11112220244459
 20
-122.2953908027595
 30
0.0
 10
79.06631942467787
 20
-122.3394880249707
 30
0.0
 10
79.06631942467787
 20
-122.3952974694011
 30
0.0
 10
79.06631942467787
 20
-122.4504013582764
 30
0.0
 10
79.11112220244459
 20
-122.4952041360428
 30
0.0
 10
79.16657686918126
 20
-122.4952041360428
 30
0.0
 10
79.22168075666433
 20
-122.4952041360428
 30
0.0
 10
79.26648353329908
 20
-122.4504013582764
 30
0.0
 10
79.26648353329908
 20
-122.3952974694011
 30
0.0
  0
SPLINE
  5
D0
330
4B
100
AcDbEntity
  8
_U+30EC_U+30A4_U+30E4_U+30FC 1
 62
   179
420
  2234388
370
     9
100
AcDbSpline
210
0.0
220
0.0
230
1.0
 70
    11
 71
     3
 72
    17
 73
    13
 74
     0
 42
0.0000000001
 43
0.0000000001
 12
1.0
 22
0.0
 32
0.0
 13
1.0
 23
0.0
 33
0.0
 40
0.0
 40
0.0
 40
0.0
 40
0.0
 40
1.0
 40
1.0
 40
1.0
 40
2.0
 40
2.0
 40
2.0
 40
3.0
 40
3.0
 40
3.0
 40
4.0
 40
4.0
 40
4.0
 40
4.0
 10
79.26648353329908
 20
-132.3950305224567
 30
0.0
 10
79.26648353329908
 20
-132.3398913558036
 30
0.0
 10
79.22168075666433
 20
-132.295123855815
 30
0.0
 10
79.16657686918126
 20
-132.295123855815
 30
0.0
 10
79.11112220244459
 20
-132.295123855815
 30
0.0
 10
79.06631942467787
 20
-132.3398913558036
 30
0.0
 10
79.06631942467787
 20
-132.3950305224567
 30
0.0
 10
79.06631942467787
 20
-132.4501344113316
 30
0.0
 10
79.11112220244459
 20
-132.4949371890983
 30
0.0
 10
79.16657686918126
 20
-132.4949371890983
 30
0.0
 10
79.22168075666433
 20
-132.4949371890983
 30
0.0
 10
79.26648353329908
 20
-132.4501344113316
 30
0.0
 10
79.26648353329908
 20
-132.3950305224567
 30
0.0
  0
SPLINE
  5
D1
330
4B
100
AcDbEntity
  8
_U+30EC_U+30A4_U+30E4_U+30FC 1
 62
   179
420
  2234388
370
     9
100
AcDbSpline
210
0.0
220
0.0
230
1.0
 70
    11
 71
     3
 72
    17
 73
    13
 74
     0
 42
0.0000000001
 43
0.0000000001
 12
1.0
 22
0.0
 32
0.0
 13
1.0
 23
0.0
 33
0.0
 40
0.0
 40
0.0
 40
0.0
 40
0.0
 40
1.0
 40
1.0
 40
1.0
 40
2.0
 40
2.0
 40
2.0
 40
3.0
 40
3.0
 40
3.0
 40
4.0
 40
4.0
 40
4.0
 40
4.0
 10
79.26648353329908
 20
-136.3947896881236
 30
0.0
 10
79.26648353329908
 20
-136.3396505214705
 30
0.0
 10
79.22168075666433
 20
-136.2948830214819
 30
0.0
 10
79.16657686918126
 20
-136.2948830214819
 30
0.0
 10
79.11112220244459
 20
-136.2948830214819
 30
0.0
 10
79.06631942467787
 20
-136.3396505214705
 30
0.0
 10
79.06631942467787
 20
-136.3947896881236
 30
0.0
 10
79.06631942467787
 20
-136.450599132554
 30
0.0
 10
79.11112220244459
 20
-136.4953666325426
 30
0.0
 10
79.16657686918126
 20
-136.4953666325426
 30
0.0
 10
79.22168075666433
 20
-136.4953666325426
 30
0.0
 10
79.26648353329908
 20
-136.450599132554
 30
0.0
 10
79.26648353329908
 20
-136.3947896881236
 30
0.0
  0
SPLINE
  5
D2
330
4B
100
AcDbEntity
  8
_U+30EC_U+30A4_U+30E4_U+30FC 1
 62
   179
420
  2234388
370
     9
100
AcDbSpline
210
0.0
220
0.0
230
1.0
 70
    11
 71
     3
 72
    17
 73
    13
 74
     0
 42
0.0000000001
 43
0.0000000001
 12
1.0
 22
0.0
 32
0.0
 13
1.0
 23
0.0
 33
0.0
 40
0.0
 40
0.0
 40
0.0
 40
0.0
 40
1.0
 40
1.0
 40
1.0
 40
2.0
 40
2.0
 40
2.0
 40
3.0
 40
3.0
 40
3.0
 40
4.0
 40
4.0
 40
4.0
 40
4.0
 10
89.76645520986693
 20
-118.394832748179
 30
0.0
 10
89.76645520986693
 20
-118.3397288593041
 30
0.0
 10
89.72165243323217
 20
-118.2949260815374
 30
0.0
 10
89.6665485457491
 20
-118.2949260815374
 30
0.0
 10
89.61105660272037
 20
-118.2949260815374
 30
0.0
 10
89.56628910386249
 20
-118.3397288593041
 30
0.0
 10
89.56628910386249
 20
-118.394832748179
 30
0.0
 10
89.56628910386249
 20
-118.4499719148321
 30
0.0
 10
89.61105660272037
 20
-118.4947394148207
 30
0.0
 10
89.6665485457491
 20
-118.4947394148207
 30
0.0
 10
89.72165243323217
 20
-118.4947394148207
 30
0.0
 10
89.76645520986693
 20
-118.4499719148321
 30
0.0
 10
89.76645520986693
 20
-118.394832748179
 30
0.0
  0
SPLINE
  5
D3
330
4B
100
AcDbEntity
  8
_U+30EC_U+30A4_U+30E4_U+30FC 1
 62
   179
420
  2234388
370
     9
100
AcDbSpline
210
0.0
220
0.0
230
1.0
 70
    11
 71
     3
 72
    17
 73
    13
 74
     0
 42
0.0000000001
 43
0.0000000001
 12
1.0
 22
0.0
 32
0.0
 13
1.0
 23
0.0
 33
0.0
 40
0.0
 40
0.0
 40
0.0
 40
0.0
 40
1.0
 40
1.0
 40
1.0
 40
2.0
 40
2.0
 40
2.0
 40
3.0
 40
3.0
 40
3.0
 40
4.0
 40
4.0
 40
4.0
 40
4.0
 10
104.266503451051
 20
-118.394832748179
 30
0.0
 10
104.266503451051
 20
-118.3397288593041
 30
0.0
 10
104.2217006744162
 20
-118.2949260815374
 30
0.0
 10
104.1662440091644
 20
-118.2949260815374
 30
0.0
 10
104.1111401216813
 20
-118.2949260815374
 30
0.0
 10
104.0663373450465
 20
-118.3397288593041
 30
0.0
 10
104.0663373450465
 20
-118.394832748179
 30
0.0
 10
104.0663373450465
 20
-118.4499719148321
 30
0.0
 10
104.1111401216813
 20
-118.4947394148207
 30
0.0
 10
104.1662440091644
 20
-118.4947394148207
 30
0.0
 10
104.2217006744162
 20
-118.4947394148207
 30
0.0
 10
104.266503451051
 20
-118.4499719148321
 30
0.0
 10
104.266503451051
 20
-118.394832748179
 30
0.0
  0
SPLINE
  5
D4
330
4B
100
AcDbEntity
  8
_U+30EC_U+30A4_U+30E4_U+30FC 1
 62
   179
420
  2234388
370
     9
100
AcDbSpline
210
0.0
220
0.0
230
1.0
 70
    11
 71
     3
 72
    17
 73
    13
 74
     0
 42
0.0000000001
 43
0.0000000001
 12
1.0
 22
0.0
 32
0.0
 13
1.0
 23
0.0
 33
0.0
 40
0.0
 40
0.0
 40
0.0
 40
0.0
 40
1.0
 40
1.0
 40
1.0
 40
2.0
 40
2.0
 40
2.0
 40
3.0
 40
3.0
 40
3.0
 40
4.0
 40
4.0
 40
4.0
 40
4.0
 10
106.2663653444747
 20
-140.3952191315678
 30
0.0
 10
106.2663653444747
 20
-140.3401152426929
 30
0.0
 10
106.2215978456168
 20
-140.2953124649262
 30
0.0
 10
106.1664586803569
 20
-140.2953124649262
 30
0.0
 10
106.1113547928738
 20
-140.2953124649262
 30
0.0
 10
106.066552016239
 20
-140.3401152426929
 30
0.0
 10
106.066552016239
 20
-140.3952191315678
 30
0.0
 10
106.066552016239
 20
-140.4503582982209
 30
0.0
 10
106.1113547928738
 20
-140.4951257982094
 30
0.0
 10
106.1664586803569
 20
-140.4951257982094
 30
0.0
 10
106.2215978456168
 20
-140.4951257982094
 30
0.0
 10
106.2663653444747
 20
-140.4503582982209
 30
0.0
 10
106.2663653444747
 20
-140.3952191315678
 30
0.0
  0
SPLINE
  5
D5
330
4B
100
AcDbEntity
  8
_U+30EC_U+30A4_U+30E4_U+30FC 1
 62
   179
420
  2234388
370
     9
100
AcDbSpline
210
0.0
220
0.0
230
1.0
 70
    11
 71
     3
 72
    17
 73
    13
 74
     0
 42
0.0000000001
 43
0.0000000001
 12
1.0
 22
0.0
 32
0.0
 13
1.0
 23
0.0
 33
0.0
 40
0.0
 40
0.0
 40
0.0
 40
0.0
 40
1.0
 40
1.0
 40
1.0
 40
2.0
 40
2.0
 40
2.0
 40
3.0
 40
3.0
 40
3.0
 40
4.0
 40
4.0
 40
4.0
 40
4.0
 10
101.2665165831426
 20
-140.3952191315678
 30
0.0
 10
101.2665165831426
 20
-140.3401152426929
 30
0.0
 10
101.2217138065078
 20
-140.2953124649262
 30
0.0
 10
101.166257141256
 20
-140.2953124649262
 30
0.0
 10
101.1111532537729
 20
-140.2953124649262
 30
0.0
 10
101.0663504771381
 20
-140.3401152426929
 30
0.0
 10
101.0663504771381
 20
-140.3952191315678
 30
0.0
 10
101.0663504771381
 20
-140.4503582982209
 30
0.0
 10
101.1111532537729
 20
-140.4951257982094
 30
0.0
 10
101.166257141256
 20
-140.4951257982094
 30
0.0
 10
101.2217138065078
 20
-140.4951257982094
 30
0.0
 10
101.2665165831426
 20
-140.4503582982209
 30
0.0
 10
101.2665165831426
 20
-140.3952191315678
 30
0.0
  0
SPLINE
  5
D6
330
4B
100
AcDbEntity
  8
_U+30EC_U+30A4_U+30E4_U+30FC 1
 62
   179
420
  2234388
370
     9
100
AcDbSpline
210
0.0
220
0.0
230
1.0
 70
    11
 71
     3
 72
    17
 73
    13
 74
     0
 42
0.0000000001
 43
0.0000000001
 12
1.0
 22
0.0
 32
0.0
 13
1.0
 23
0.0
 33
0.0
 40
0.0
 40
0.0
 40
0.0
 40
0.0
 40
1.0
 40
1.0
 40
1.0
 40
2.0
 40
2.0
 40
2.0
 40
3.0
 40
3.0
 40
3.0
 40
4.0
 40
4.0
 40
4.0
 40
4.0
 10
93.26633053223912
 20
-140.3952191315678
 30
0.0
 10
93.26633053223912
 20
-140.3401152426929
 30
0.0
 10
93.2215277544724
 20
-140.2953124649262
 30
0.0
 10
93.16642151201546
 20
-140.2953124649262
 30
0.0
 10
93.1112823467555
 20
-140.2953124649262
 30
0.0
 10
93.06647957012075
 20
-140.3401152426929
 30
0.0
 10
93.06647957012075
 20
-140.3952191315678
 30
0.0
 10
93.06647957012075
 20
-140.4503582982209
 30
0.0
 10
93.1112823467555
 20
-140.4951257982094
 30
0.0
 10
93.16642151201546
 20
-140.4951257982094
 30
0.0
 10
93.2215277544724
 20
-140.4951257982094
 30
0.0
 10
93.26633053223912
 20
-140.4503582982209
 30
0.0
 10
93.26633053223912
 20
-140.3952191315678
 30
0.0
  0
SPLINE
  5
D7
330
4B
100
AcDbEntity
  8
_U+30EC_U+30A4_U+30E4_U+30FC 1
 62
   179
420
  2234388
370
     9
100
AcDbSpline
210
0.0
220
0.0
230
1.0
 70
    11
 71
     3
 72
    17
 73
    13
 74
     0
 42
0.0000000001
 43
0.0000000001
 12
1.0
 22
0.0
 32
0.0
 13
1.0
 23
0.0
 33
0.0
 40
0.0
 40
0.0
 40
0.0
 40
0.0
 40
1.0
 40
1.0
 40
1.0
 40
2.0
 40
2.0
 40
2.0
 40
3.0
 40
3.0
 40
3.0
 40
4.0
 40
4.0
 40
4.0
 40
4.0
 10
83.26659537569218
 20
-140.3952191315678
 30
0.0
 10
83.26659537569218
 20
-140.3401152426929
 30
0.0
 10
83.22179259905741
 20
-140.2953124649262
 30
0.0
 10
83.16633593380556
 20
-140.2953124649262
 30
0.0
 10
83.11119676854561
 20
-140.2953124649262
 30
0.0
 10
83.06642926968773
 20
-140.3401152426929
 30
0.0
 10
83.06642926968773
 20
-140.3952191315678
 30
0.0
 10
83.06642926968773
 20
-140.4503582982209
 30
0.0
 10
83.11119676854561
 20
-140.4951257982094
 30
0.0
 10
83.16633593380556
 20
-140.4951257982094
 30
0.0
 10
83.22179259905741
 20
-140.4951257982094
 30
0.0
 10
83.26659537569218
 20
-140.4503582982209
 30
0.0
 10
83.26659537569218
 20
-140.3952191315678
 30
0.0
  0
INSERT
  5
D9
330
4B
100
AcDbEntity
  8
_U+30EC_U+30A4_U+30E4_U+30FC 1
100
AcDbBlockReference
  2
block 5
 10
0.0
 20
0.0
 30
0.0
  0
INSERT
  5
11D
330
4B
100
AcDbEntity
  8
_U+30EC_U+30A4_U+30E4_U+30FC 1
100
AcDbBlockReference
  2
block 10
 10
0.0
 20
0.0
 30
0.0
  0
INSERT
  5
145
330
4B
100
AcDbEntity
  8
_U+30EC_U+30A4_U+30E4_U+30FC 1
100
AcDbBlockReference
  2
block 15
 10
0.0
 20
0.0
 30
0.0
  0
INSERT
  5
16C
330
4B
100
AcDbEntity
  8
_U+30EC_U+30A4_U+30E4_U+30FC 1
100
AcDbBlockReference
  2
block 20
 10
0.0
 20
0.0
 30
0.0
  0
INSERT
  5
18D
330
4B
100
AcDbEntity
  8
_U+30EC_U+30A4_U+30E4_U+30FC 1
100
AcDbBlockReference
  2
block 25
 10
0.0
 20
0.0
 30
0.0
  0
INSERT
  5
1C5
330
4B
100
AcDbEntity
  8
_U+30EC_U+30A4_U+30E4_U+30FC 1
100
AcDbBlockReference
  2
block 30
 10
0.0
 20
0.0
 30
0.0
  0
ENDBLK
  5
4E
330
4B
100
AcDbEntity
  8
0
100
AcDbBlockEnd
  0
BLOCK
  5
DA
330
D8
100
AcDbEntity
  8
0
100
AcDbBlockBegin
  2
block 5
 70
     0
 10
0.0
 20
0.0
 30
0.0
  3
block 5
  1

  0
POLYLINE
  5
DC
330
D8
100
AcDbEntity
  8
_U+30EC_U+30A4_U+30E4_U+30FC 1
 62
   179
420
  2234388
370
     9
100
AcDb2dPolyline
 66
     1
 10
0.0
 20
0.0
 30
0.0
  0
VERTEX
  5
DD
330
DC
100
AcDbEntity
  8
_U+30EC_U+30A4_U+30E4_U+30FC 1
 62
   179
420
  2234388
370
     9
100
AcDbVertex
100
AcDb2dVertex
 10
89.6665485457491
 20
-118.394832748179
 30
0.0
  0
VERTEX
  5
DE
330
DC
100
AcDbEntity
  8
_U+30EC_U+30A4_U+30E4_U+30FC 1
 62
   179
420
  2234388
370
     9
100
AcDbVertex
100
AcDb2dVertex
 10
104.1662440091644
 20
-118.394832748179
 30
0.0
  0
SEQEND
  5
DF
330
DC
100
AcDbEntity
  8
_U+30EC_U+30A4_U+30E4_U+30FC 1
 62
   179
420
  2234388
370
     9
  0
POLYLINE
  5
E0
330
D8
100
AcDbEntity
  8
_U+30EC_U+30A4_U+30E4_U+30FC 1
 62
   179
420
  2234388
370
     9
100
AcDb2dPolyline
 66
     1
 10
0.0
 20
0.0
 30
0.0
  0
VERTEX
  5
E1
330
E0
100
AcDbEntity
  8
_U+30EC_U+30A4_U+30E4_U+30FC 1
 62
   179
420
  2234388
370
     9
100
AcDbVertex
100
AcDb2dVertex
 10
89.6665485457491
 20
-119.8548741367031
 30
0.0
  0
VERTEX
  5
E2
330
E0
100
AcDbEntity
  8
_U+30EC_U+30A4_U+30E4_U+30FC 1
 62
   179
420
  2234388
370
     9
100
AcDbVertex
100
AcDb2dVertex
 10
89.6665485457491
 20
-117.3950605262068
 30
0.0
  0
SEQEND
  5
E3
330
E0
100
AcDbEntity
  8
_U+30EC_U+30A4_U+30E4_U+30FC 1
 62
   179
420
  2234388
370
     9
  0
POLYLINE
  5
E4
330
D8
100
AcDbEntity
  8
_U+30EC_U+30A4_U+30E4_U+30FC 1
 62
   179
420
  2234388
370
     9
100
AcDb2dPolyline
 66
     1
 10
0.0
 20
0.0
 30
0.0
  0
VERTEX
  5
E5
330
E4
100
AcDbEntity
  8
_U+30EC_U+30A4_U+30E4_U+30FC 1
 62
   179
420
  2234388
370
     9
100
AcDbVertex
100
AcDb2dVertex
 10
104.1662440091644
 20
-119.8548741367031
 30
0.0
  0
VERTEX
  5
E6
330
E4
100
AcDbEntity
  8
_U+30EC_U+30A4_U+30E4_U+30FC 1
 62
   179
420
  2234388
370
     9
100
AcDbVertex
100
AcDb2dVertex
 10
104.1662440091644
 20
-117.3950605262068
 30
0.0
  0
SEQEND
  5
E7
330
E4
100
AcDbEntity
  8
_U+30EC_U+30A4_U+30E4_U+30FC 1
 62
   179
420
  2234388
370
     9
  0
INSERT
  5
E9
330
D8
100
AcDbEntity
  8
_U+30EC_U+30A4_U+30E4_U+30FC 1
100
AcDbBlockReference
  2
block 6
 10
0.0
 20
0.0
 30
0.0
  0
INSERT
  5
10E
330
D8
100
AcDbEntity
  8
_U+30EC_U+30A4_U+30E4_U+30FC 1
100
AcDbBlockReference
  2
block 7
 10
0.0
 20
0.0
 30
0.0
  0
INSERT
  5
113
330
D8
100
AcDbEntity
  8
_U+30EC_U+30A4_U+30E4_U+30FC 1
100
AcDbBlockReference
  2
block 8
 10
0.0
 20
0.0
 30
0.0
  0
INSERT
  5
118
330
D8
100
AcDbEntity
  8
_U+30EC_U+30A4_U+30E4_U+30FC 1
100
AcDbBlockReference
  2
block 9
 10
0.0
 20
0.0
 30
0.0
  0
ENDBLK
  5
DB
330
D8
100
AcDbEntity
  8
0
100
AcDbBlockEnd
  0
BLOCK
  5
EA
330
E8
100
AcDbEntity
  8
0
100
AcDbBlockBegin
  2
block 6
 70
     0
 10
0.0
 20
0.0
 30
0.0
  3
block 6
  1

  0
SPLINE
  5
EC
330
E8
100
AcDbEntity
  8
_U+30EC_U+30A4_U+30E4_U+30FC 1
370
     0
100
AcDbSpline
210
0.0
220
0.0
230
1.0
 70
    11
 71
     3
 72
    26
 73
    22
 74
     0
 42
0.0000000001
 43
0.0000000001
 12
1.0
 22
0.0
 32
0.0
 13
1.0
 23
0.0
 33
0.0
 40
0.0
 40
0.0
 40
0.0
 40
0.0
 40
1.0
 40
1.0
 40
1.0
 40
2.0
 40
2.0
 40
2.0
 40
3.0
 40
3.0
 40
3.0
 40
4.0
 40
4.0
 40
4.0
 40
5.0
 40
5.0
 40
5.0
 40
6.0
 40
6.0
 40
6.0
 40
7.0
 40
7.0
 40
7.0
 40
7.0
 10
95.41639808812508
 20
-118.0225978980117
 30
0.0
 10
95.41639808812508
 20
-118.0225978980117
 30
0.0
 10
95.41639808812508
 20
-116.9182725402149
 30
0.0
 10
95.41639808812508
 20
-116.9182725402149
 30
0.0
 10
95.41639808812508
 20
-116.9182725402149
 30
0.0
 10
95.08635794063814
 20
-116.9182725402149
 30
0.0
 10
95.08635794063814
 20
-116.9182725402149
 30
0.0
 10
95.08635794063814
 20
-116.9182725402149
 30
0.0
 10
95.08635794063814
 20
-116.7703056891234
 30
0.0
 10
95.08635794063814
 20
-116.7703056891234
 30
0.0
 10
95.41846514541622
 20
-116.7554917785368
 30
0.0
 10
95.4649739344671
 20
-116.5925387620845
 30
0.0
 10
95.49460175564025
 20
-116.4783338467485
 30
0.0
 10
95.49460175564025
 20
-116.4783338467485
 30
0.0
 10
95.64067380421484
 20
-116.4783338467485
 30
0.0
 10
95.64067380421484
 20
-116.4783338467485
 30
0.0
 10
95.64067380421484
 20
-116.4783338467485
 30
0.0
 10
95.64067380421484
 20
-118.0225978980117
 30
0.0
 10
95.64067380421484
 20
-118.0225978980117
 30
0.0
 10
95.64067380421484
 20
-118.0225978980117
 30
0.0
 10
95.41639808812508
 20
-118.0225978980117
 30
0.0
 10
95.41639808812508
 20
-118.0225978980117
 30
0.0
  0
HATCH
  5
ED
330
E8
100
AcDbEntity
  8
_U+30EC_U+30A4_U+30E4_U+30FC 1
 62
   179
420
  2234388
100
AcDbHatch
 10
0.0
 20
0.0
 30
0.0
210
0.0
220
0.0
230
1.0
  2
SOLID
 70
     1
 71
     0
 91
        1
 92
        1
 93
        1
 72
     4
 94
        3
 73
     0
 74
     1
 95
       26
 96
       22
 40
0.0
 40
0.0
 40
0.0
 40
0.0
 40
1.0
 40
1.0
 40
1.0
 40
2.0
 40
2.0
 40
2.0
 40
3.0
 40
3.0
 40
3.0
 40
4.0
 40
4.0
 40
4.0
 40
5.0
 40
5.0
 40
5.0
 40
6.0
 40
6.0
 40
6.0
 40
7.0
 40
7.0
 40
7.0
 40
7.0
 10
95.41639808812508
 20
-118.0225978980117
 10
95.41639808812508
 20
-118.0225978980117
 10
95.41639808812508
 20
-116.9182725402149
 10
95.41639808812508
 20
-116.9182725402149
 10
95.41639808812508
 20
-116.9182725402149
 10
95.08635794063814
 20
-116.9182725402149
 10
95.08635794063814
 20
-116.9182725402149
 10
95.08635794063814
 20
-116.9182725402149
 10
95.08635794063814
 20
-116.7703056891234
 10
95.08635794063814
 20
-116.7703056891234
 10
95.41846514541622
 20
-116.7554917785368
 10
95.4649739344671
 20
-116.5925387620845
 10
95.49460175564025
 20
-116.4783338467485
 10
95.49460175564025
 20
-116.4783338467485
 10
95.64067380421484
 20
-116.4783338467485
 10
95.64067380421484
 20
-116.4783338467485
 10
95.64067380421484
 20
-116.4783338467485
 10
95.64067380421484
 20
-118.0225978980117
 10
95.64067380421484
 20
-118.0225978980117
 10
95.64067380421484
 20
-118.0225978980117
 10
95.41639808812508
 20
-118.0225978980117
 10
95.41639808812508
 20
-118.0225978980117
 97
        0
 97
        0
 75
     2
 76
     1
 98
        0
  0
POLYLINE
  5
EE
330
E8
100
AcDbEntity
  8
_U+30EC_U+30A4_U+30E4_U+30FC 1
370
     0
100
AcDb2dPolyline
 66
     1
 10
0.0
 20
0.0
 30
0.0
  0
VERTEX
  5
EF
330
EE
100
AcDbEntity
  8
_U+30EC_U+30A4_U+30E4_U+30FC 1
370
     0
100
AcDbVertex
100
AcDb2dVertex
 10
96.97427026655505
 20
-117.6756767826471
 30
0.0
  0
VERTEX
  5
F0
330
EE
100
AcDbEntity
  8
_U+30EC_U+30A4_U+30E4_U+30FC 1
370
     0
100
AcDbVertex
100
AcDb2dVertex
 10
96.97427026655505
 20
-118.0225978980117
 30
0.0
  0
VERTEX
  5
F1
330
EE
100
AcDbEntity
  8
_U+30EC_U+30A4_U+30E4_U+30FC 1
370
     0
100
AcDbVertex
100
AcDb2dVertex
 10
96.75619572233873
 20
-118.0225978980117
 30
0.0
  0
VERTEX
  5
F2
330
EE
100
AcDbEntity
  8
_U+30EC_U+30A4_U+30E4_U+30FC 1
370
     0
100
AcDbVertex
100
AcDb2dVertex
 10
96.75619572233873
 20
-117.6756767826471
 30
0.0
  0
VERTEX
  5
F3
330
EE
100
AcDbEntity
  8
_U+30EC_U+30A4_U+30E4_U+30FC 1
370
     0
100
AcDbVertex
100
AcDb2dVertex
 10
96.10024954194716
 20
-117.6756767826471
 30
0.0
  0
VERTEX
  5
F4
330
EE
100
AcDbEntity
  8
_U+30EC_U+30A4_U+30E4_U+30FC 1
370
     0
100
AcDbVertex
100
AcDb2dVertex
 10
96.10024954194716
 20
-117.4514010665573
 30
0.0
  0
VERTEX
  5
F5
330
EE
100
AcDbEntity
  8
_U+30EC_U+30A4_U+30E4_U+30FC 1
370
     0
100
AcDbVertex
100
AcDb2dVertex
 10
96.77962237163844
 20
-116.4783338467485
 30
0.0
  0
VERTEX
  5
F6
330
EE
100
AcDbEntity
  8
_U+30EC_U+30A4_U+30E4_U+30FC 1
370
     0
100
AcDbVertex
100
AcDb2dVertex
 10
96.97427026655505
 20
-116.4783338467485
 30
0.0
  0
VERTEX
  5
F7
330
EE
100
AcDbEntity
  8
_U+30EC_U+30A4_U+30E4_U+30FC 1
370
     0
100
AcDbVertex
100
AcDb2dVertex
 10
96.97427026655505
 20
-117.4768947731481
 30
0.0
  0
VERTEX
  5
F8
330
EE
100
AcDbEntity
  8
_U+30EC_U+30A4_U+30E4_U+30FC 1
370
     0
100
AcDbVertex
100
AcDb2dVertex
 10
97.18132050521857
 20
-117.4768947731481
 30
0.0
  0
VERTEX
  5
F9
330
EE
100
AcDbEntity
  8
_U+30EC_U+30A4_U+30E4_U+30FC 1
370
     0
100
AcDbVertex
100
AcDb2dVertex
 10
97.18132050521857
 20
-117.6756767826471
 30
0.0
  0
VERTEX
  5
FA
330
EE
100
AcDbEntity
  8
_U+30EC_U+30A4_U+30E4_U+30FC 1
370
     0
100
AcDbVertex
100
AcDb2dVertex
 10
96.97427026655505
 20
-117.6756767826471
 30
0.0
  0
SEQEND
  5
FB
330
EE
100
AcDbEntity
  8
_U+30EC_U+30A4_U+30E4_U+30FC 1
370
     0
  0
POLYLINE
  5
FC
330
E8
100
AcDbEntity
  8
_U+30EC_U+30A4_U+30E4_U+30FC 1
370
     0
100
AcDb2dPolyline
 66
     1
 10
0.0
 20
0.0
 30
0.0
  0
VERTEX
  5
FD
330
FC
100
AcDbEntity
  8
_U+30EC_U+30A4_U+30E4_U+30FC 1
370
     0
100
AcDbVertex
100
AcDb2dVertex
 10
96.75619572233873
 20
-116.8209485927566
 30
0.0
  0
VERTEX
  5
FE
330
FC
100
AcDbEntity
  8
_U+30EC_U+30A4_U+30E4_U+30FC 1
370
     0
100
AcDbVertex
100
AcDb2dVertex
 10
96.2993760609946
 20
-117.4768947731481
 30
0.0
  0
VERTEX
  5
FF
330
FC
100
AcDbEntity
  8
_U+30EC_U+30A4_U+30E4_U+30FC 1
370
     0
100
AcDbVertex
100
AcDb2dVertex
 10
96.75619572233873
 20
-117.4768947731481
 30
0.0
  0
VERTEX
  5
100
330
FC
100
AcDbEntity
  8
_U+30EC_U+30A4_U+30E4_U+30FC 1
370
     0
100
AcDbVertex
100
AcDb2dVertex
 10
96.75619572233873
 20
-116.8209485927566
 30
0.0
  0
SEQEND
  5
101
330
FC
100
AcDbEntity
  8
_U+30EC_U+30A4_U+30E4_U+30FC 1
370
     0
  0
HATCH
  5
102
330
E8
100
AcDbEntity
  8
_U+30EC_U+30A4_U+30E4_U+30FC 1
 62
   179
420
  2234388
100
AcDbHatch
 10
0.0
 20
0.0
 30
0.0
210
0.0
220
0.0
230
1.0
  2
SOLID
 70
     1
 71
     0
 91
        2
 92
        1
 93
       11
 72
     1
 10
96.97427026655505
 20
-117.6756767826471
 11
96.97427026655505
 21
-118.0225978980117
 72
     1
 10
96.97427026655505
 20
-118.0225978980117
 11
96.75619572233873
 21
-118.0225978980117
 72
     1
 10
96.75619572233873
 20
-118.0225978980117
 11
96.75619572233873
 21
-117.6756767826471
 72
     1
 10
96.75619572233873
 20
-117.6756767826471
 11
96.10024954194716
 21
-117.6756767826471
 72
     1
 10
96.10024954194716
 20
-117.6756767826471
 11
96.10024954194716
 21
-117.4514010665573
 72
     1
 10
96.10024954194716
 20
-117.4514010665573
 11
96.77962237163844
 21
-116.4783338467485
 72
     1
 10
96.77962237163844
 20
-116.4783338467485
 11
96.97427026655505
 21
-116.4783338467485
 72
     1
 10
96.97427026655505
 20
-116.4783338467485
 11
96.97427026655505
 21
-117.4768947731481
 72
     1
 10
96.97427026655505
 20
-117.4768947731481
 11
97.18132050521857
 21
-117.4768947731481
 72
     1
 10
97.18132050521857
 20
-117.4768947731481
 11
97.18132050521857
 21
-117.6756767826471
 72
     1
 10
97.18132050521857
 20
-117.6756767826471
 11
96.97427026655505
 21
-117.6756767826471
 97
        0
 92
        1
 93
        3
 72
     1
 10
96.75619572233873
 20
-116.8209485927566
 11
96.2993760609946
 21
-117.4768947731481
 72
     1
 10
96.2993760609946
 20
-117.4768947731481
 11
96.75619572233873
 21
-117.4768947731481
 72
     1
 10
96.75619572233873
 20
-117.4768947731481
 11
96.75619572233873
 21
-116.8209485927566
 97
        0
 75
     2
 76
     1
 98
        0
  0
POLYLINE
  5
103
330
E8
100
AcDbEntity
  8
_U+30EC_U+30A4_U+30E4_U+30FC 1
370
     0
100
AcDb2dPolyline
 66
     1
 10
0.0
 20
0.0
 30
0.0
  0
VERTEX
  5
104
330
103
100
AcDbEntity
  8
_U+30EC_U+30A4_U+30E4_U+30FC 1
370
     0
100
AcDbVertex
100
AcDb2dVertex
 10
97.37872447652337
 20
-118.0225978980117
 30
0.0
  0
VERTEX
  5
105
330
103
100
AcDbEntity
  8
_U+30EC_U+30A4_U+30E4_U+30FC 1
370
     0
100
AcDbVertex
100
AcDb2dVertex
 10
97.37872447652337
 20
-117.7709336728142
 30
0.0
  0
VERTEX
  5
106
330
103
100
AcDbEntity
  8
_U+30EC_U+30A4_U+30E4_U+30FC 1
370
     0
100
AcDbVertex
100
AcDb2dVertex
 10
97.63056095649515
 20
-117.7709336728142
 30
0.0
  0
VERTEX
  5
107
330
103
100
AcDbEntity
  8
_U+30EC_U+30A4_U+30E4_U+30FC 1
370
     0
100
AcDbVertex
100
AcDb2dVertex
 10
97.63056095649515
 20
-118.0225978980117
 30
0.0
  0
VERTEX
  5
108
330
103
100
AcDbEntity
  8
_U+30EC_U+30A4_U+30E4_U+30FC 1
370
     0
100
AcDbVertex
100
AcDb2dVertex
 10
97.37872447652337
 20
-118.0225978980117
 30
0.0
  0
SEQEND
  5
109
330
103
100
AcDbEntity
  8
_U+30EC_U+30A4_U+30E4_U+30FC 1
370
     0
  0
HATCH
  5
10A
330
E8
100
AcDbEntity
  8
_U+30EC_U+30A4_U+30E4_U+30FC 1
 62
   179
420
  2234388
100
AcDbHatch
 10
0.0
 20
0.0
 30
0.0
210
0.0
220
0.0
230
1.0
  2
SOLID
 70
     1
 71
     0
 91
        1
 92
        1
 93
        4
 72
     1
 10
97.37872447652337
 20
-118.0225978980117
 11
97.37872447652337
 21
-117.7709336728142
 72
     1
 10
97.37872447652337
 20
-117.7709336728142
 11
97.63056095649515
 21
-117.7709336728142
 72
     1
 10
97.63056095649515
 20
-117.7709336728142
 11
97.63056095649515
 21
-118.0225978980117
 72
     1
 10
97.63056095649515
 20
-118.0225978980117
 11
97.37872447652337
 21
-118.0225978980117
 97
        0
 75
     2
 76
     1
 98
        0
  0
SPLINE
  5
10B
330
E8
100
AcDbEntity
  8
_U+30EC_U+30A4_U+30E4_U+30FC 1
370
     0
100
AcDbSpline
210
0.0
220
0.0
230
1.0
 70
    11
 71
     3
 72
    53
 73
    49
 74
     0
 42
0.0000000001
 43
0.0000000001
 12
1.0
 22
0.0
 32
0.0
 13
1.0
 23
0.0
 33
0.0
 40
0.0
 40
0.0
 40
0.0
 40
0.0
 40
1.0
 40
1.0
 40
1.0
 40
2.0
 40
2.0
 40
2.0
 40
3.0
 40
3.0
 40
3.0
 40
4.0
 40
4.0
 40
4.0
 40
5.0
 40
5.0
 40
5.0
 40
6.0
 40
6.0
 40
6.0
 40
7.0
 40
7.0
 40
7.0
 40
8.0
 40
8.0
 40
8.0
 40
9.0
 40
9.0
 40
9.0
 40
10.0
 40
10.0
 40
10.0
 40
11.0
 40
11.0
 40
11.0
 40
12.0
 40
12.0
 40
12.0
 40
13.0
 40
13.0
 40
13.0
 40
14.0
 40
14.0
 40
14.0
 40
15.0
 40
15.0
 40
15.0
 40
16.0
 40
16.0
 40
16.0
 40
16.0
 10
98.34782983652416
 20
-118.0734130564192
 30
0.0
 10
98.26962616900899
 20
-118.0734130564192
 30
0.0
 10
98.16834036174264
 20
-118.0565320885414
 30
0.0
 10
98.06671004492777
 20
-117.9929700768386
 30
0.0
 10
97.89307723247119
 20
-117.8830715308591
 30
0.0
 10
97.87206215001116
 20
-117.7518133928711
 30
0.0
 10
97.85311412484228
 20
-117.6439819041828
 30
0.0
 10
97.85311412484228
 20
-117.6439819041828
 30
0.0
 10
98.07497827409237
 20
-117.6439819041828
 30
0.0
 10
98.07497827409237
 20
-117.6439819041828
 30
0.0
 10
98.13009980185637
 20
-117.8427639136817
 30
0.0
 10
98.25687931571356
 20
-117.8723917348548
 30
0.0
 10
98.35024140336384
 20
-117.8723917348548
 30
0.0
 10
98.48976777051645
 20
-117.8723917348548
 30
0.0
 10
98.64204099096449
 20
-117.7730007301054
 30
0.0
 10
98.64204099096449
 20
-117.5402845300767
 30
0.0
 10
98.64204099096449
 20
-117.2843139355227
 30
0.0
 10
98.46220700663446
 20
-117.2145507519464
 30
0.0
 10
98.34162866465071
 20
-117.2145507519464
 30
0.0
 10
98.3099337861864
 20
-117.2145507519464
 30
0.0
 10
98.16834036174264
 20
-117.2145507519464
 30
0.0
 10
98.0794568982232
 20
-117.343569577869
 30
0.0
 10
98.0794568982232
 20
-117.343569577869
 30
0.0
 10
97.90375702847545
 20
-117.3244492979258
 30
0.0
 10
97.90375702847545
 20
-117.3244492979258
 30
0.0
 10
97.90375702847545
 20
-117.3244492979258
 30
0.0
 10
98.0243353704592
 20
-116.4783338467485
 30
0.0
 10
98.0243353704592
 20
-116.4783338467485
 30
0.0
 10
98.0243353704592
 20
-116.4783338467485
 30
0.0
 10
98.80292695012567
 20
-116.4783338467485
 30
0.0
 10
98.80292695012567
 20
-116.4783338467485
 30
0.0
 10
98.80292695012567
 20
-116.4783338467485
 30
0.0
 10
98.80292695012567
 20
-116.6729817416651
 30
0.0
 10
98.80292695012567
 20
-116.6729817416651
 30
0.0
 10
98.80292695012567
 20
-116.6729817416651
 30
0.0
 10
98.18728838691152
 20
-116.6729817416651
 30
0.0
 10
98.18728838691152
 20
-116.6729817416651
 30
0.0
 10
98.18728838691152
 20
-116.6729817416651
 30
0.0
 10
98.12148706314325
 20
-117.0960394672538
 30
0.0
 10
98.12148706314325
 20
-117.0960394672538
 30
0.0
 10
98.18280976278069
 20
-117.0622775314983
 30
0.0
 10
98.26549205442669
 20
-117.0219699143209
 30
0.0
 10
98.38400333911927
 20
-117.0219699143209
 30
0.0
 10
98.63790687638219
 20
-117.0219699143209
 30
0.0
 10
98.87458493621885
 20
-117.2081773252986
 30
0.0
 10
98.87458493621885
 20
-117.5213365049079
 30
0.0
 10
98.87458493621885
 20
-117.8386297990994
 30
0.0
 10
98.65065372967761
 20
-118.0734130564192
 30
0.0
 10
98.34782983652416
 20
-118.0734130564192
 30
0.0
  0
HATCH
  5
10C
330
E8
100
AcDbEntity
  8
_U+30EC_U+30A4_U+30E4_U+30FC 1
 62
   179
420
  2234388
100
AcDbHatch
 10
0.0
 20
0.0
 30
0.0
210
0.0
220
0.0
230
1.0
  2
SOLID
 70
     1
 71
     0
 91
        1
 92
        1
 93
        1
 72
     4
 94
        3
 73
     0
 74
     1
 95
       53
 96
       49
 40
0.0
 40
0.0
 40
0.0
 40
0.0
 40
1.0
 40
1.0
 40
1.0
 40
2.0
 40
2.0
 40
2.0
 40
3.0
 40
3.0
 40
3.0
 40
4.0
 40
4.0
 40
4.0
 40
5.0
 40
5.0
 40
5.0
 40
6.0
 40
6.0
 40
6.0
 40
7.0
 40
7.0
 40
7.0
 40
8.0
 40
8.0
 40
8.0
 40
9.0
 40
9.0
 40
9.0
 40
10.0
 40
10.0
 40
10.0
 40
11.0
 40
11.0
 40
11.0
 40
12.0
 40
12.0
 40
12.0
 40
13.0
 40
13.0
 40
13.0
 40
14.0
 40
14.0
 40
14.0
 40
15.0
 40
15.0
 40
15.0
 40
16.0
 40
16.0
 40
16.0
 40
16.0
 10
98.34782983652416
 20
-118.0734130564192
 10
98.26962616900899
 20
-118.0734130564192
 10
98.16834036174264
 20
-118.0565320885414
 10
98.06671004492777
 20
-117.9929700768386
 10
97.89307723247119
 20
-117.8830715308591
 10
97.87206215001116
 20
-117.7518133928711
 10
97.85311412484228
 20
-117.6439819041828
 10
97.85311412484228
 20
-117.6439819041828
 10
98.07497827409237
 20
-117.6439819041828
 10
98.07497827409237
 20
-117.6439819041828
 10
98.13009980185637
 20
-117.8427639136817
 10
98.25687931571356
 20
-117.8723917348548
 10
98.35024140336384
 20
-117.8723917348548
 10
98.48976777051645
 20
-117.8723917348548
 10
98.64204099096449
 20
-117.7730007301054
 10
98.64204099096449
 20
-117.5402845300767
 10
98.64204099096449
 20
-117.2843139355227
 10
98.46220700663446
 20
-117.2145507519464
 10
98.34162866465071
 20
-117.2145507519464
 10
98.3099337861864
 20
-117.2145507519464
 10
98.16834036174264
 20
-117.2145507519464
 10
98.0794568982232
 20
-117.343569577869
 10
98.0794568982232
 20
-117.343569577869
 10
97.90375702847545
 20
-117.3244492979258
 10
97.90375702847545
 20
-117.3244492979258
 10
97.90375702847545
 20
-117.3244492979258
 10
98.0243353704592
 20
-116.4783338467485
 10
98.0243353704592
 20
-116.4783338467485
 10
98.0243353704592
 20
-116.4783338467485
 10
98.80292695012567
 20
-116.4783338467485
 10
98.80292695012567
 20
-116.4783338467485
 10
98.80292695012567
 20
-116.4783338467485
 10
98.80292695012567
 20
-116.6729817416651
 10
98.80292695012567
 20
-116.6729817416651
 10
98.80292695012567
 20
-116.6729817416651
 10
98.18728838691152
 20
-116.6729817416651
 10
98.18728838691152
 20
-116.6729817416651
 10
98.18728838691152
 20
-116.6729817416651
 10
98.12148706314325
 20
-117.0960394672538
 10
98.12148706314325
 20
-117.0960394672538
 10
98.18280976278069
 20
-117.0622775314983
 10
98.26549205442669
 20
-117.0219699143209
 10
98.38400333911927
 20
-117.0219699143209
 10
98.63790687638219
 20
-117.0219699143209
 10
98.87458493621885
 20
-117.2081773252986
 10
98.87458493621885
 20
-117.5213365049079
 10
98.87458493621885
 20
-117.8386297990994
 10
98.65065372967761
 20
-118.0734130564192
 10
98.34782983652416
 20
-118.0734130564192
 97
        0
 97
        0
 75
     2
 76
     1
 98
        0
  0
ENDBLK
  5
EB
330
E8
100
AcDbEntity
  8
0
100
AcDbBlockEnd
  0
BLOCK
  5
10F
330
10D
100
AcDbEntity
  8
0
100
AcDbBlockBegin
  2
block 7
 70
     0
 10
0.0
 20
0.0
 30
0.0
  3
block 7
  1

  0
SPLINE
  5
111
330
10D
100
AcDbEntity
  8
_U+30EC_U+30A4_U+30E4_U+30FC 1
 62
   179
420
  2234388
370
    25
100
AcDbSpline
210
0.0
220
0.0
230
1.0
 70
    11
 71
     3
 72
    17
 73
    13
 74
     0
 42
0.0000000001
 43
0.0000000001
 12
1.0
 22
0.0
 32
0.0
 13
1.0
 23
0.0
 33
0.0
 40
0.0
 40
0.0
 40
0.0
 40
0.0
 40
1.0
 40
1.0
 40
1.0
 40
2.0
 40
2.0
 40
2.0
 40
3.0
 40
3.0
 40
3.0
 40
4.0
 40
4.0
 40
4.0
 40
4.0
 10
89.70168521151936
 20
-122.3952974694011
 30
0.0
 10
89.70168521151936
 20
-122.4145944138409
 30
0.0
 10
89.68581021192436
 20
-122.4304341360592
 30
0.0
 10
89.6665485457491
 20
-122.4304341360592
 30
0.0
 10
89.64689882402818
 20
-122.4304341360592
 30
0.0
 10
89.63105910221006
 20
-122.4145944138409
 30
0.0
 10
89.63105910221006
 20
-122.3952974694011
 30
0.0
 10
89.63105910221006
 20
-122.3752949694061
 30
0.0
 10
89.64689882402818
 20
-122.3594552471879
 30
0.0
 10
89.6665485457491
 20
-122.3594552471879
 30
0.0
 10
89.68581021192436
 20
-122.3594552471879
 30
0.0
 10
89.70168521151936
 20
-122.3752949694061
 30
0.0
 10
89.70168521151936
 20
-122.3952974694011
 30
0.0
  0
ENDBLK
  5
110
330
10D
100
AcDbEntity
  8
0
100
AcDbBlockEnd
  0
BLOCK
  5
114
330
112
100
AcDbEntity
  8
0
100
AcDbBlockBegin
  2
block 8
 70
     0
 10
0.0
 20
0.0
 30
0.0
  3
block 8
  1

  0
SPLINE
  5
116
330
112
100
AcDbEntity
  8
_U+30EC_U+30A4_U+30E4_U+30FC 1
 62
   179
420
  2234388
370
    25
100
AcDbSpline
210
0.0
220
0.0
230
1.0
 70
    11
 71
     3
 72
    17
 73
    13
 74
     0
 42
0.0000000001
 43
0.0000000001
 12
1.0
 22
0.0
 32
0.0
 13
1.0
 23
0.0
 33
0.0
 40
0.0
 40
0.0
 40
0.0
 40
0.0
 40
1.0
 40
1.0
 40
1.0
 40
2.0
 40
2.0
 40
2.0
 40
3.0
 40
3.0
 40
3.0
 40
4.0
 40
4.0
 40
4.0
 40
4.0
 10
104.2017360850607
 20
-122.3952974694011
 30
0.0
 10
104.2017360850607
 20
-122.4145944138409
 30
0.0
 10
104.1858937308853
 20
-122.4304341360592
 30
0.0
 10
104.1662440091644
 20
-122.4304341360592
 30
0.0
 10
104.1469470652122
 20
-122.4304341360592
 30
0.0
 10
104.1311073433941
 20
-122.4145944138409
 30
0.0
 10
104.1311073433941
 20
-122.3952974694011
 30
0.0
 10
104.1311073433941
 20
-122.3752949694061
 30
0.0
 10
104.1469470652122
 20
-122.3594552471879
 30
0.0
 10
104.1662440091644
 20
-122.3594552471879
 30
0.0
 10
104.1858937308853
 20
-122.3594552471879
 30
0.0
 10
104.2017360850607
 20
-122.3752949694061
 30
0.0
 10
104.2017360850607
 20
-122.3952974694011
 30
0.0
  0
ENDBLK
  5
115
330
112
100
AcDbEntity
  8
0
100
AcDbBlockEnd
  0
BLOCK
  5
119
330
117
100
AcDbEntity
  8
0
100
AcDbBlockBegin
  2
block 9
 70
     0
 10
0.0
 20
0.0
 30
0.0
  3
block 9
  1

  0
SPLINE
  5
11B
330
117
100
AcDbEntity
  8
_U+30EC_U+30A4_U+30E4_U+30FC 1
 62
   179
420
  2234388
370
     9
100
AcDbSpline
210
0.0
220
0.0
230
1.0
 70
    11
 71
     3
 72
    17
 73
    13
 74
     0
 42
0.0000000001
 43
0.0000000001
 12
1.0
 22
0.0
 32
0.0
 13
1.0
 23
0.0
 33
0.0
 40
0.0
 40
0.0
 40
0.0
 40
0.0
 40
1.0
 40
1.0
 40
1.0
 40
2.0
 40
2.0
 40
2.0
 40
3.0
 40
3.0
 40
3.0
 40
4.0
 40
4.0
 40
4.0
 40
4.0
 10
104.2017360850607
 20
-118.394832748179
 30
0.0
 10
104.2017360850607
 20
-118.4148352481741
 30
0.0
 10
104.1858937308853
 20
-118.4299694148371
 30
0.0
 10
104.1662440091644
 20
-118.4299694148371
 30
0.0
 10
104.1469470652122
 20
-118.4299694148371
 30
0.0
 10
104.1311073433941
 20
-118.4148352481741
 30
0.0
 10
104.1311073433941
 20
-118.394832748179
 30
0.0
 10
104.1311073433941
 20
-118.3755358037395
 30
0.0
 10
104.1469470652122
 20
-118.3596960815213
 30
0.0
 10
104.1662440091644
 20
-118.3596960815213
 30
0.0
 10
104.1858937308853
 20
-118.3596960815213
 30
0.0
 10
104.2017360850607
 20
-118.3755358037395
 30
0.0
 10
104.2017360850607
 20
-118.394832748179
 30
0.0
  0
ENDBLK
  5
11A
330
117
100
AcDbEntity
  8
0
100
AcDbBlockEnd
  0
BLOCK
  5
11E
330
11C
100
AcDbEntity
  8
0
100
AcDbBlockBegin
  2
block 10
 70
     0
 10
0.0
 20
0.0
 30
0.0
  3
block 10
  1

  0
POLYLINE
  5
120
330
11C
100
AcDbEntity
  8
_U+30EC_U+30A4_U+30E4_U+30FC 1
 62
   179
420
  2234388
370
     9
100
AcDb2dPolyline
 66
     1
 10
0.0
 20
0.0
 30
0.0
  0
VERTEX
  5
121
330
120
100
AcDbEntity
  8
_U+30EC_U+30A4_U+30E4_U+30FC 1
 62
   179
420
  2234388
370
     9
100
AcDbVertex
100
AcDb2dVertex
 10
83.16633593380556
 20
-140.3952191315678
 30
0.0
  0
VERTEX
  5
122
330
120
100
AcDbEntity
  8
_U+30EC_U+30A4_U+30E4_U+30FC 1
 62
   179
420
  2234388
370
     9
100
AcDbVertex
100
AcDb2dVertex
 10
93.16642151201546
 20
-140.3952191315678
 30
0.0
  0
SEQEND
  5
123
330
120
100
AcDbEntity
  8
_U+30EC_U+30A4_U+30E4_U+30FC 1
 62
   179
420
  2234388
370
     9
  0
POLYLINE
  5
124
330
11C
100
AcDbEntity
  8
_U+30EC_U+30A4_U+30E4_U+30FC 1
 62
   179
420
  2234388
370
     9
100
AcDb2dPolyline
 66
     1
 10
0.0
 20
0.0
 30
0.0
  0
VERTEX
  5
125
330
124
100
AcDbEntity
  8
_U+30EC_U+30A4_U+30E4_U+30FC 1
 62
   179
420
  2234388
370
     9
100
AcDbVertex
100
AcDb2dVertex
 10
83.16633593380556
 20
-138.9351777430441
 30
0.0
  0
VERTEX
  5
126
330
124
100
AcDbEntity
  8
_U+30EC_U+30A4_U+30E4_U+30FC 1
 62
   179
420
  2234388
370
     9
100
AcDbVertex
100
AcDb2dVertex
 10
83.16633593380556
 20
-141.3949913535403
 30
0.0
  0
SEQEND
  5
127
330
124
100
AcDbEntity
  8
_U+30EC_U+30A4_U+30E4_U+30FC 1
 62
   179
420
  2234388
370
     9
  0
POLYLINE
  5
128
330
11C
100
AcDbEntity
  8
_U+30EC_U+30A4_U+30E4_U+30FC 1
 62
   179
420
  2234388
370
     9
100
AcDb2dPolyline
 66
     1
 10
0.0
 20
0.0
 30
0.0
  0
VERTEX
  5
129
330
128
100
AcDbEntity
  8
_U+30EC_U+30A4_U+30E4_U+30FC 1
 62
   179
420
  2234388
370
     9
100
AcDbVertex
100
AcDb2dVertex
 10
93.16642151201546
 20
-138.9351777430441
 30
0.0
  0
VERTEX
  5
12A
330
128
100
AcDbEntity
  8
_U+30EC_U+30A4_U+30E4_U+30FC 1
 62
   179
420
  2234388
370
     9
100
AcDbVertex
100
AcDb2dVertex
 10
93.16642151201546
 20
-141.3949913535403
 30
0.0
  0
SEQEND
  5
12B
330
128
100
AcDbEntity
  8
_U+30EC_U+30A4_U+30E4_U+30FC 1
 62
   179
420
  2234388
370
     9
  0
INSERT
  5
12D
330
11C
100
AcDbEntity
  8
_U+30EC_U+30A4_U+30E4_U+30FC 1
100
AcDbBlockReference
  2
block 11
 10
0.0
 20
0.0
 30
0.0
  0
INSERT
  5
136
330
11C
100
AcDbEntity
  8
_U+30EC_U+30A4_U+30E4_U+30FC 1
100
AcDbBlockReference
  2
block 12
 10
0.0
 20
0.0
 30
0.0
  0
INSERT
  5
13B
330
11C
100
AcDbEntity
  8
_U+30EC_U+30A4_U+30E4_U+30FC 1
100
AcDbBlockReference
  2
block 13
 10
0.0
 20
0.0
 30
0.0
  0
INSERT
  5
140
330
11C
100
AcDbEntity
  8
_U+30EC_U+30A4_U+30E4_U+30FC 1
100
AcDbBlockReference
  2
block 14
 10
0.0
 20
0.0
 30
0.0
  0
ENDBLK
  5
11F
330
11C
100
AcDbEntity
  8
0
100
AcDbBlockEnd
  0
BLOCK
  5
12E
330
12C
100
AcDbEntity
  8
0
100
AcDbBlockBegin
  2
block 11
 70
     0
 10
0.0
 20
0.0
 30
0.0
  3
block 11
  1

  0
SPLINE
  5
130
330
12C
100
AcDbEntity
  8
_U+30EC_U+30A4_U+30E4_U+30FC 1
370
     0
100
AcDbSpline
210
0.0
220
0.0
230
1.0
 70
    11
 71
     3
 72
    26
 73
    22
 74
     0
 42
0.0000000001
 43
0.0000000001
 12
1.0
 22
0.0
 32
0.0
 13
1.0
 23
0.0
 33
0.0
 40
0.0
 40
0.0
 40
0.0
 40
0.0
 40
1.0
 40
1.0
 40
1.0
 40
2.0
 40
2.0
 40
2.0
 40
3.0
 40
3.0
 40
3.0
 40
4.0
 40
4.0
 40
4.0
 40
5.0
 40
5.0
 40
5.0
 40
6.0
 40
6.0
 40
6.0
 40
7.0
 40
7.0
 40
7.0
 40
7.0
 10
87.52902422941983
 20
-140.0224609024944
 30
0.0
 10
87.52902422941983
 20
-140.0224609024944
 30
0.0
 10
87.52902422941983
 20
-138.9179632899233
 30
0.0
 10
87.52902422941983
 20
-138.9179632899233
 30
0.0
 10
87.52902422941983
 20
-138.9179632899233
 30
0.0
 10
87.19898408193289
 20
-138.9179632899233
 30
0.0
 10
87.19898408193289
 20
-138.9179632899233
 30
0.0
 10
87.19898408193289
 20
-138.9179632899233
 30
0.0
 10
87.19898408193289
 20
-138.7698241840575
 30
0.0
 10
87.19898408193289
 20
-138.7698241840575
 30
0.0
 10
87.53109128671097
 20
-138.755010273471
 30
0.0
 10
87.57760007576185
 20
-138.5924017665672
 30
0.0
 10
87.607227896935
 20
-138.4780245964569
 30
0.0
 10
87.607227896935
 20
-138.4780245964569
 30
0.0
 10
87.75312769073534
 20
-138.4780245964569
 30
0.0
 10
87.75312769073534
 20
-138.4780245964569
 30
0.0
 10
87.75312769073534
 20
-138.4780245964569
 30
0.0
 10
87.75312769073534
 20
-140.0224609024944
 30
0.0
 10
87.75312769073534
 20
-140.0224609024944
 30
0.0
 10
87.75312769073534
 20
-140.0224609024944
 30
0.0
 10
87.52902422941983
 20
-140.0224609024944
 30
0.0
 10
87.52902422941983
 20
-140.0224609024944
 30
0.0
  0
HATCH
  5
131
330
12C
100
AcDbEntity
  8
_U+30EC_U+30A4_U+30E4_U+30FC 1
 62
   179
420
  2234388
100
AcDbHatch
 10
0.0
 20
0.0
 30
0.0
210
0.0
220
0.0
230
1.0
  2
SOLID
 70
     1
 71
     0
 91
        1
 92
        1
 93
        1
 72
     4
 94
        3
 73
     0
 74
     1
 95
       26
 96
       22
 40
0.0
 40
0.0
 40
0.0
 40
0.0
 40
1.0
 40
1.0
 40
1.0
 40
2.0
 40
2.0
 40
2.0
 40
3.0
 40
3.0
 40
3.0
 40
4.0
 40
4.0
 40
4.0
 40
5.0
 40
5.0
 40
5.0
 40
6.0
 40
6.0
 40
6.0
 40
7.0
 40
7.0
 40
7.0
 40
7.0
 10
87.52902422941983
 20
-140.0224609024944
 10
87.52902422941983
 20
-140.0224609024944
 10
87.52902422941983
 20
-138.9179632899233
 10
87.52902422941983
 20
-138.9179632899233
 10
87.52902422941983
 20
-138.9179632899233
 10
87.19898408193289
 20
-138.9179632899233
 10
87.19898408193289
 20
-138.9179632899233
 10
87.19898408193289
 20
-138.9179632899233
 10
87.19898408193289
 20
-138.7698241840575
 10
87.19898408193289
 20
-138.7698241840575
 10
87.53109128671097
 20
-138.755010273471
 10
87.57760007576185
 20
-138.5924017665672
 10
87.607227896935
 20
-138.4780245964569
 10
87.607227896935
 20
-138.4780245964569
 10
87.75312769073534
 20
-138.4780245964569
 10
87.75312769073534
 20
-138.4780245964569
 10
87.75312769073534
 20
-138.4780245964569
 10
87.75312769073534
 20
-140.0224609024944
 10
87.75312769073534
 20
-140.0224609024944
 10
87.75312769073534
 20
-140.0224609024944
 10
87.52902422941983
 20
-140.0224609024944
 10
87.52902422941983
 20
-140.0224609024944
 97
        0
 97
        0
 75
     2
 76
     1
 98
        0
  0
SPLINE
  5
132
330
12C
100
AcDbEntity
  8
_U+30EC_U+30A4_U+30E4_U+30FC 1
370
     0
100
AcDbSpline
210
0.0
220
0.0
230
1.0
 70
    11
 71
     3
 72
    29
 73
    25
 74
     0
 42
0.0000000001
 43
0.0000000001
 12
1.0
 22
0.0
 32
0.0
 13
1.0
 23
0.0
 33
0.0
 40
0.0
 40
0.0
 40
0.0
 40
0.0
 40
1.0
 40
1.0
 40
1.0
 40
2.0
 40
2.0
 40
2.0
 40
3.0
 40
3.0
 40
3.0
 40
4.0
 40
4.0
 40
4.0
 40
5.0
 40
5.0
 40
5.0
 40
6.0
 40
6.0
 40
6.0
 40
7.0
 40
7.0
 40
7.0
 40
8.0
 40
8.0
 40
8.0
 40
8.0
 10
89.1521809672953
 20
-139.8446939754555
 30
0.0
 10
89.04434947860697
 20
-140.0541557809587
 30
0.0
 10
88.87088892092464
 20
-140.0731038061276
 30
0.0
 10
88.7544446935232
 20
-140.0731038061276
 30
0.0
 10
88.59373098913629
 20
-140.0731038061276
 30
0.0
 10
88.45196530991826
 20
-140.0265950170767
 30
0.0
 10
88.3567084197511
 20
-139.8446939754555
 30
0.0
 10
88.25318330041935
 20
-139.6500460805389
 30
0.0
 10
88.23406302047621
 20
-139.4130235111537
 30
0.0
 10
88.23406302047621
 20
-139.2500704947014
 30
0.0
 10
88.23406302047621
 20
-139.1064100129664
 30
0.0
 10
88.25094398835394
 20
-138.8545735329947
 30
0.0
 10
88.3567084197511
 20
-138.6557915234958
 30
0.0
 10
88.46471216321369
 20
-138.452530889866
 30
0.0
 10
88.6254258676006
 20
-138.4294487501149
 30
0.0
 10
88.7544446935232
 20
-138.4294487501149
 30
0.0
 10
88.91309134061895
 20
-138.4294487501149
 30
0.0
 10
89.05692407712813
 20
-138.4738904818746
 30
0.0
 10
89.1521809672953
 20
-138.6557915234958
 30
0.0
 10
89.25157197204474
 20
-138.8483723611212
 30
0.0
 10
89.27482636657018
 20
-139.0767821917933
 30
0.0
 10
89.27482636657018
 20
-139.2500704947014
 30
0.0
 10
89.27482636657018
 20
-139.4216362498668
 30
0.0
 10
89.25381128411016
 20
-139.65211313783
 30
0.0
 10
89.1521809672953
 20
-139.8446939754555
 30
0.0
  0
SPLINE
  5
133
330
12C
100
AcDbEntity
  8
_U+30EC_U+30A4_U+30E4_U+30FC 1
370
     0
100
AcDbSpline
210
0.0
220
0.0
230
1.0
 70
    11
 71
     3
 72
    17
 73
    13
 74
     0
 42
0.0000000001
 43
0.0000000001
 12
1.0
 22
0.0
 32
0.0
 13
1.0
 23
0.0
 33
0.0
 40
0.0
 40
0.0
 40
0.0
 40
0.0
 40
1.0
 40
1.0
 40
1.0
 40
2.0
 40
2.0
 40
2.0
 40
3.0
 40
3.0
 40
3.0
 40
4.0
 40
4.0
 40
4.0
 40
4.0
 10
88.7544446935232
 20
-138.6216850781918
 30
0.0
 10
88.50484752561685
 20
-138.6216850781918
 30
0.0
 10
88.45833873656598
 20
-138.9052164366279
 30
0.0
 10
88.45833873656598
 20
-139.2500704947014
 30
0.0
 10
88.45833873656598
 20
-139.5697753557326
 30
0.0
 10
88.49433998438684
 20
-139.8784559112109
 30
0.0
 10
88.7544446935232
 20
-139.8784559112109
 30
0.0
 10
89.0019748041384
 20
-139.8784559112109
 30
0.0
 10
89.05072290525469
 20
-139.596991610066
 30
0.0
 10
89.05072290525469
 20
-139.2500704947014
 30
0.0
 10
89.05072290525469
 20
-138.9307101432187
 30
0.0
 10
89.01265460014267
 20
-138.6216850781918
 30
0.0
 10
88.7544446935232
 20
-138.6216850781918
 30
0.0
  0
HATCH
  5
134
330
12C
100
AcDbEntity
  8
_U+30EC_U+30A4_U+30E4_U+30FC 1
 62
   179
420
  2234388
100
AcDbHatch
 10
0.0
 20
0.0
 30
0.0
210
0.0
220
0.0
230
1.0
  2
SOLID
 70
     1
 71
     0
 91
        2
 92
        1
 93
        1
 72
     4
 94
        3
 73
     0
 74
     1
 95
       29
 96
       25
 40
0.0
 40
0.0
 40
0.0
 40
0.0
 40
1.0
 40
1.0
 40
1.0
 40
2.0
 40
2.0
 40
2.0
 40
3.0
 40
3.0
 40
3.0
 40
4.0
 40
4.0
 40
4.0
 40
5.0
 40
5.0
 40
5.0
 40
6.0
 40
6.0
 40
6.0
 40
7.0
 40
7.0
 40
7.0
 40
8.0
 40
8.0
 40
8.0
 40
8.0
 10
89.1521809672953
 20
-139.8446939754555
 10
89.04434947860697
 20
-140.0541557809587
 10
88.87088892092464
 20
-140.0731038061276
 10
88.7544446935232
 20
-140.0731038061276
 10
88.59373098913629
 20
-140.0731038061276
 10
88.45196530991826
 20
-140.0265950170767
 10
88.3567084197511
 20
-139.8446939754555
 10
88.25318330041935
 20
-139.6500460805389
 10
88.23406302047621
 20
-139.4130235111537
 10
88.23406302047621
 20
-139.2500704947014
 10
88.23406302047621
 20
-139.1064100129664
 10
88.25094398835394
 20
-138.8545735329947
 10
88.3567084197511
 20
-138.6557915234958
 10
88.46471216321369
 20
-138.452530889866
 10
88.6254258676006
 20
-138.4294487501149
 10
88.7544446935232
 20
-138.4294487501149
 10
88.91309134061895
 20
-138.4294487501149
 10
89.05692407712813
 20
-138.4738904818746
 10
89.1521809672953
 20
-138.6557915234958
 10
89.25157197204474
 20
-138.8483723611212
 10
89.27482636657018
 20
-139.0767821917933
 10
89.27482636657018
 20
-139.2500704947014
 10
89.27482636657018
 20
-139.4216362498668
 10
89.25381128411016
 20
-139.65211313783
 10
89.1521809672953
 20
-139.8446939754555
 97
        0
 97
        0
 92
        1
 93
        1
 72
     4
 94
        3
 73
     0
 74
     1
 95
       17
 96
       13
 40
0.0
 40
0.0
 40
0.0
 40
0.0
 40
1.0
 40
1.0
 40
1.0
 40
2.0
 40
2.0
 40
2.0
 40
3.0
 40
3.0
 40
3.0
 40
4.0
 40
4.0
 40
4.0
 40
4.0
 10
88.7544446935232
 20
-138.6216850781918
 10
88.50484752561685
 20
-138.6216850781918
 10
88.45833873656598
 20
-138.9052164366279
 10
88.45833873656598
 20
-139.2500704947014
 10
88.45833873656598
 20
-139.5697753557326
 10
88.49433998438684
 20
-139.8784559112109
 10
88.7544446935232
 20
-139.8784559112109
 10
89.0019748041384
 20
-139.8784559112109
 10
89.05072290525469
 20
-139.596991610066
 10
89.05072290525469
 20
-139.2500704947014
 10
89.05072290525469
 20
-138.9307101432187
 10
89.01265460014267
 20
-138.6216850781918
 10
88.7544446935232
 20
-138.6216850781918
 97
        0
 97
        0
 75
     2
 76
     1
 98
        0
  0
ENDBLK
  5
12F
330
12C
100
AcDbEntity
  8
0
100
AcDbBlockEnd
  0
BLOCK
  5
137
330
135
100
AcDbEntity
  8
0
100
AcDbBlockBegin
  2
block 12
 70
     0
 10
0.0
 20
0.0
 30
0.0
  3
block 12
  1

  0
SPLINE
  5
139
330
135
100
AcDbEntity
  8
_U+30EC_U+30A4_U+30E4_U+30FC 1
 62
   179
420
  2234388
370
    25
100
AcDbSpline
210
0.0
220
0.0
230
1.0
 70
    11
 71
     3
 72
    17
 73
    13
 74
     0
 42
0.0000000001
 43
0.0000000001
 12
1.0
 22
0.0
 32
0.0
 13
1.0
 23
0.0
 33
0.0
 40
0.0
 40
0.0
 40
0.0
 40
0.0
 40
1.0
 40
1.0
 40
1.0
 40
2.0
 40
2.0
 40
2.0
 40
3.0
 40
3.0
 40
3.0
 40
4.0
 40
4.0
 40
4.0
 40
4.0
 10
83.20182537734459
 20
-136.3947896881236
 30
0.0
 10
83.20182537734459
 20
-136.4147569103408
 30
0.0
 10
83.1859503777496
 20
-136.4305966325593
 30
0.0
 10
83.16633593380556
 20
-136.4305966325593
 30
0.0
 10
83.14703898985343
 20
-136.4305966325593
 30
0.0
 10
83.1311992680353
 20
-136.4147569103408
 30
0.0
 10
83.1311992680353
 20
-136.3947896881236
 30
0.0
 10
83.1311992680353
 20
-136.3754927436837
 30
0.0
 10
83.14703898985343
 20
-136.3596530214658
 30
0.0
 10
83.16633593380556
 20
-136.3596530214658
 30
0.0
 10
83.1859503777496
 20
-136.3596530214658
 30
0.0
 10
83.20182537734459
 20
-136.3754927436837
 30
0.0
 10
83.20182537734459
 20
-136.3947896881236
 30
0.0
  0
ENDBLK
  5
138
330
135
100
AcDbEntity
  8
0
100
AcDbBlockEnd
  0
BLOCK
  5
13C
330
13A
100
AcDbEntity
  8
0
100
AcDbBlockBegin
  2
block 13
 70
     0
 10
0.0
 20
0.0
 30
0.0
  3
block 13
  1

  0
SPLINE
  5
13E
330
13A
100
AcDbEntity
  8
_U+30EC_U+30A4_U+30E4_U+30FC 1
 62
   179
420
  2234388
370
    25
100
AcDbSpline
210
0.0
220
0.0
230
1.0
 70
    11
 71
     3
 72
    17
 73
    13
 74
     0
 42
0.0000000001
 43
0.0000000001
 12
1.0
 22
0.0
 32
0.0
 13
1.0
 23
0.0
 33
0.0
 40
0.0
 40
0.0
 40
0.0
 40
0.0
 40
1.0
 40
1.0
 40
1.0
 40
2.0
 40
2.0
 40
2.0
 40
3.0
 40
3.0
 40
3.0
 40
4.0
 40
4.0
 40
4.0
 40
4.0
 10
93.20155817778571
 20
-136.3947896881236
 30
0.0
 10
93.20155817778571
 20
-136.4147569103408
 30
0.0
 10
93.1860359559595
 20
-136.4305966325593
 30
0.0
 10
93.16642151201546
 20
-136.4305966325593
 30
0.0
 10
93.14677179029454
 20
-136.4305966325593
 30
0.0
 10
93.13124956846832
 20
-136.4147569103408
 30
0.0
 10
93.13124956846832
 20
-136.3947896881236
 30
0.0
 10
93.13124956846832
 20
-136.3754927436837
 30
0.0
 10
93.14677179029454
 20
-136.3596530214658
 30
0.0
 10
93.16642151201546
 20
-136.3596530214658
 30
0.0
 10
93.1860359559595
 20
-136.3596530214658
 30
0.0
 10
93.20155817778571
 20
-136.3754927436837
 30
0.0
 10
93.20155817778571
 20
-136.3947896881236
 30
0.0
  0
ENDBLK
  5
13D
330
13A
100
AcDbEntity
  8
0
100
AcDbBlockEnd
  0
BLOCK
  5
141
330
13F
100
AcDbEntity
  8
0
100
AcDbBlockBegin
  2
block 14
 70
     0
 10
0.0
 20
0.0
 30
0.0
  3
block 14
  1

  0
SPLINE
  5
143
330
13F
100
AcDbEntity
  8
_U+30EC_U+30A4_U+30E4_U+30FC 1
 62
   179
420
  2234388
370
     9
100
AcDbSpline
210
0.0
220
0.0
230
1.0
 70
    11
 71
     3
 72
    17
 73
    13
 74
     0
 42
0.0000000001
 43
0.0000000001
 12
1.0
 22
0.0
 32
0.0
 13
1.0
 23
0.0
 33
0.0
 40
0.0
 40
0.0
 40
0.0
 40
0.0
 40
1.0
 40
1.0
 40
1.0
 40
2.0
 40
2.0
 40
2.0
 40
3.0
 40
3.0
 40
3.0
 40
4.0
 40
4.0
 40
4.0
 40
4.0
 10
93.20155817778571
 20
-140.3952191315678
 30
0.0
 10
93.20155817778571
 20
-140.4145160760077
 30
0.0
 10
93.1860359559595
 20
-140.4303557982255
 30
0.0
 10
93.16642151201546
 20
-140.4303557982255
 30
0.0
 10
93.14677179029454
 20
-140.4303557982255
 30
0.0
 10
93.13124956846832
 20
-140.4145160760077
 30
0.0
 10
93.13124956846832
 20
-140.3952191315678
 30
0.0
 10
93.13124956846832
 20
-140.3752519093506
 30
0.0
 10
93.14677179029454
 20
-140.3600824649101
 30
0.0
 10
93.16642151201546
 20
-140.3600824649101
 30
0.0
 10
93.1860359559595
 20
-140.3600824649101
 30
0.0
 10
93.20155817778571
 20
-140.3752519093506
 30
0.0
 10
93.20155817778571
 20
-140.3952191315678
 30
0.0
  0
ENDBLK
  5
142
330
13F
100
AcDbEntity
  8
0
100
AcDbBlockEnd
  0
BLOCK
  5
146
330
144
100
AcDbEntity
  8
0
100
AcDbBlockBegin
  2
block 15
 70
     0
 10
0.0
 20
0.0
 30
0.0
  3
block 15
  1

  0
POLYLINE
  5
148
330
144
100
AcDbEntity
  8
_U+30EC_U+30A4_U+30E4_U+30FC 1
 62
   179
420
  2234388
370
     9
100
AcDb2dPolyline
 66
     1
 10
0.0
 20
0.0
 30
0.0
  0
VERTEX
  5
149
330
148
100
AcDbEntity
  8
_U+30EC_U+30A4_U+30E4_U+30FC 1
 62
   179
420
  2234388
370
     9
100
AcDbVertex
100
AcDb2dVertex
 10
93.16642151201546
 20
-140.3952191315678
 30
0.0
  0
VERTEX
  5
14A
330
148
100
AcDbEntity
  8
_U+30EC_U+30A4_U+30E4_U+30FC 1
 62
   179
420
  2234388
370
     9
100
AcDbVertex
100
AcDb2dVertex
 10
101.166257141256
 20
-140.3952191315678
 30
0.0
  0
SEQEND
  5
14B
330
148
100
AcDbEntity
  8
_U+30EC_U+30A4_U+30E4_U+30FC 1
 62
   179
420
  2234388
370
     9
  0
POLYLINE
  5
14C
330
144
100
AcDbEntity
  8
_U+30EC_U+30A4_U+30E4_U+30FC 1
 62
   179
420
  2234388
370
     9
100
AcDb2dPolyline
 66
     1
 10
0.0
 20
0.0
 30
0.0
  0
VERTEX
  5
14D
330
14C
100
AcDbEntity
  8
_U+30EC_U+30A4_U+30E4_U+30FC 1
 62
   179
420
  2234388
370
     9
100
AcDbVertex
100
AcDb2dVertex
 10
93.16642151201546
 20
-138.9351777430441
 30
0.0
  0
VERTEX
  5
14E
330
14C
100
AcDbEntity
  8
_U+30EC_U+30A4_U+30E4_U+30FC 1
 62
   179
420
  2234388
370
     9
100
AcDbVertex
100
AcDb2dVertex
 10
93.16642151201546
 20
-141.3949913535403
 30
0.0
  0
SEQEND
  5
14F
330
14C
100
AcDbEntity
  8
_U+30EC_U+30A4_U+30E4_U+30FC 1
 62
   179
420
  2234388
370
     9
  0
POLYLINE
  5
150
330
144
100
AcDbEntity
  8
_U+30EC_U+30A4_U+30E4_U+30FC 1
 62
   179
420
  2234388
370
     9
100
AcDb2dPolyline
 66
     1
 10
0.0
 20
0.0
 30
0.0
  0
VERTEX
  5
151
330
150
100
AcDbEntity
  8
_U+30EC_U+30A4_U+30E4_U+30FC 1
 62
   179
420
  2234388
370
     9
100
AcDbVertex
100
AcDb2dVertex
 10
101.166257141256
 20
-138.9351777430441
 30
0.0
  0
VERTEX
  5
152
330
150
100
AcDbEntity
  8
_U+30EC_U+30A4_U+30E4_U+30FC 1
 62
   179
420
  2234388
370
     9
100
AcDbVertex
100
AcDb2dVertex
 10
101.166257141256
 20
-141.3949913535403
 30
0.0
  0
SEQEND
  5
153
330
150
100
AcDbEntity
  8
_U+30EC_U+30A4_U+30E4_U+30FC 1
 62
   179
420
  2234388
370
     9
  0
INSERT
  5
155
330
144
100
AcDbEntity
  8
_U+30EC_U+30A4_U+30E4_U+30FC 1
100
AcDbBlockReference
  2
block 16
 10
0.0
 20
0.0
 30
0.0
  0
INSERT
  5
15D
330
144
100
AcDbEntity
  8
_U+30EC_U+30A4_U+30E4_U+30FC 1
100
AcDbBlockReference
  2
block 17
 10
0.0
 20
0.0
 30
0.0
  0
INSERT
  5
162
330
144
100
AcDbEntity
  8
_U+30EC_U+30A4_U+30E4_U+30FC 1
100
AcDbBlockReference
  2
block 18
 10
0.0
 20
0.0
 30
0.0
  0
INSERT
  5
167
330
144
100
AcDbEntity
  8
_U+30EC_U+30A4_U+30E4_U+30FC 1
100
AcDbBlockReference
  2
block 19
 10
0.0
 20
0.0
 30
0.0
  0
ENDBLK
  5
147
330
144
100
AcDbEntity
  8
0
100
AcDbBlockEnd
  0
BLOCK
  5
156
330
154
100
AcDbEntity
  8
0
100
AcDbBlockBegin
  2
block 16
 70
     0
 10
0.0
 20
0.0
 30
0.0
  3
block 16
  1

  0
SPLINE
  5
158
330
154
100
AcDbEntity
  8
_U+30EC_U+30A4_U+30E4_U+30FC 1
370
     0
100
AcDbSpline
210
0.0
220
0.0
230
1.0
 70
    11
 71
     3
 72
    29
 73
    25
 74
     0
 42
0.0000000001
 43
0.0000000001
 12
1.0
 22
0.0
 32
0.0
 13
1.0
 23
0.0
 33
0.0
 40
0.0
 40
0.0
 40
0.0
 40
0.0
 40
1.0
 40
1.0
 40
1.0
 40
2.0
 40
2.0
 40
2.0
 40
3.0
 40
3.0
 40
3.0
 40
4.0
 40
4.0
 40
4.0
 40
5.0
 40
5.0
 40
5.0
 40
6.0
 40
6.0
 40
6.0
 40
7.0
 40
7.0
 40
7.0
 40
8.0
 40
8.0
 40
8.0
 40
8.0
 10
97.16616208508347
 20
-140.0731038061276
 30
0.0
 10
96.89951169452513
 20
-140.0731038061276
 30
0.0
 10
96.64560815726222
 20
-139.9356444962661
 30
0.0
 10
96.64560815726222
 20
-139.5866563236103
 30
0.0
 10
96.64560815726222
 20
-139.3306857290562
 30
0.0
 10
96.78720158170599
 20
-139.2352565841148
 30
0.0
 10
96.89296601310315
 20
-139.1739338844773
 30
0.0
 10
96.7682535565371
 20
-139.114678242131
 30
0.0
 10
96.69211694631309
 20
-139.0006455815693
 30
0.0
 10
96.69211694631309
 20
-138.8397596224081
 30
0.0
 10
96.69211694631309
 20
-138.5648410026852
 30
0.0
 10
96.890898955812
 20
-138.4294487501149
 30
0.0
 10
97.16616208508347
 20
-138.4294487501149
 30
0.0
 10
97.449348933971
 20
-138.4294487501149
 30
0.0
 10
97.63986271430532
 20
-138.5731092318498
 30
0.0
 10
97.63986271430532
 20
-138.8397596224081
 30
0.0
 10
97.63986271430532
 20
-139.0006455815693
 30
0.0
 10
97.56165904679014
 20
-139.114678242131
 30
0.0
 10
97.4369465902241
 20
-139.1739338844773
 30
0.0
 10
97.52548554419502
 20
-139.2249212976591
 30
0.0
 10
97.68430444606504
 20
-139.320005933052
 30
0.0
 10
97.68430444606504
 20
-139.5821776994795
 30
0.0
 10
97.68430444606504
 20
-139.9566595787261
 30
0.0
 10
97.40490720221128
 20
-140.0731038061276
 30
0.0
 10
97.16616208508347
 20
-140.0731038061276
 30
0.0
  0
SPLINE
  5
159
330
154
100
AcDbEntity
  8
_U+30EC_U+30A4_U+30E4_U+30FC 1
370
     0
100
AcDbSpline
210
0.0
220
0.0
230
1.0
 70
    11
 71
     3
 72
    17
 73
    13
 74
     0
 42
0.0000000001
 43
0.0000000001
 12
1.0
 22
0.0
 32
0.0
 13
1.0
 23
0.0
 33
0.0
 40
0.0
 40
0.0
 40
0.0
 40
0.0
 40
1.0
 40
1.0
 40
1.0
 40
2.0
 40
2.0
 40
2.0
 40
3.0
 40
3.0
 40
3.0
 40
4.0
 40
4.0
 40
4.0
 40
4.0
 10
97.16616208508347
 20
-139.2817653731657
 30
0.0
 10
97.02215709380002
 20
-139.2817653731657
 30
0.0
 10
96.86988387335198
 20
-139.368581779394
 30
0.0
 10
96.86988387335198
 20
-139.5718424130237
 30
0.0
 10
96.86988387335198
 20
-139.7768255943961
 30
0.0
 10
96.99666338720917
 20
-139.8784559112109
 30
0.0
 10
97.16616208508347
 20
-139.8784559112109
 30
0.0
 10
97.35219724128696
 20
-139.8784559112109
 30
0.0
 10
97.46209578726642
 20
-139.7558105119361
 30
0.0
 10
97.46209578726642
 20
-139.5780435848972
 30
0.0
 10
97.46209578726642
 20
-139.3558349260985
 30
0.0
 10
97.29914277081411
 20
-139.2817653731657
 30
0.0
 10
97.16616208508347
 20
-139.2817653731657
 30
0.0
  0
SPLINE
  5
15A
330
154
100
AcDbEntity
  8
_U+30EC_U+30A4_U+30E4_U+30FC 1
370
     0
100
AcDbSpline
210
0.0
220
0.0
230
1.0
 70
    11
 71
     3
 72
    17
 73
    13
 74
     0
 42
0.0000000001
 43
0.0000000001
 12
1.0
 22
0.0
 32
0.0
 13
1.0
 23
0.0
 33
0.0
 40
0.0
 40
0.0
 40
0.0
 40
0.0
 40
1.0
 40
1.0
 40
1.0
 40
2.0
 40
2.0
 40
2.0
 40
3.0
 40
3.0
 40
3.0
 40
4.0
 40
4.0
 40
4.0
 40
4.0
 10
97.16616208508347
 20
-138.6216850781918
 30
0.0
 10
97.00114201134
 20
-138.6216850781918
 30
0.0
 10
96.91639266240286
 20
-138.7171142231332
 30
0.0
 10
96.91639266240286
 20
-138.8525064757035
 30
0.0
 10
96.91639266240286
 20
-138.9751518749785
 30
0.0
 10
96.98839515804457
 20
-139.093663159671
 30
0.0
 10
97.16616208508347
 20
-139.093663159671
 30
0.0
 10
97.34358450257383
 20
-139.093663159671
 30
0.0
 10
97.41558699821555
 20
-138.9751518749785
 30
0.0
 10
97.41558699821555
 20
-138.8525064757035
 30
0.0
 10
97.41558699821555
 20
-138.7171142231332
 30
0.0
 10
97.32877059198725
 20
-138.6216850781918
 30
0.0
 10
97.16616208508347
 20
-138.6216850781918
 30
0.0
  0
HATCH
  5
15B
330
154
100
AcDbEntity
  8
_U+30EC_U+30A4_U+30E4_U+30FC 1
 62
   179
420
  2234388
100
AcDbHatch
 10
0.0
 20
0.0
 30
0.0
210
0.0
220
0.0
230
1.0
  2
SOLID
 70
     1
 71
     0
 91
        3
 92
        1
 93
        1
 72
     4
 94
        3
 73
     0
 74
     1
 95
       29
 96
       25
 40
0.0
 40
0.0
 40
0.0
 40
0.0
 40
1.0
 40
1.0
 40
1.0
 40
2.0
 40
2.0
 40
2.0
 40
3.0
 40
3.0
 40
3.0
 40
4.0
 40
4.0
 40
4.0
 40
5.0
 40
5.0
 40
5.0
 40
6.0
 40
6.0
 40
6.0
 40
7.0
 40
7.0
 40
7.0
 40
8.0
 40
8.0
 40
8.0
 40
8.0
 10
97.16616208508347
 20
-140.0731038061276
 10
96.89951169452513
 20
-140.0731038061276
 10
96.64560815726222
 20
-139.9356444962661
 10
96.64560815726222
 20
-139.5866563236103
 10
96.64560815726222
 20
-139.3306857290562
 10
96.78720158170599
 20
-139.2352565841148
 10
96.89296601310315
 20
-139.1739338844773
 10
96.7682535565371
 20
-139.114678242131
 10
96.69211694631309
 20
-139.0006455815693
 10
96.69211694631309
 20
-138.8397596224081
 10
96.69211694631309
 20
-138.5648410026852
 10
96.890898955812
 20
-138.4294487501149
 10
97.16616208508347
 20
-138.4294487501149
 10
97.449348933971
 20
-138.4294487501149
 10
97.63986271430532
 20
-138.5731092318498
 10
97.63986271430532
 20
-138.8397596224081
 10
97.63986271430532
 20
-139.0006455815693
 10
97.56165904679014
 20
-139.114678242131
 10
97.4369465902241
 20
-139.1739338844773
 10
97.52548554419502
 20
-139.2249212976591
 10
97.68430444606504
 20
-139.320005933052
 10
97.68430444606504
 20
-139.5821776994795
 10
97.68430444606504
 20
-139.9566595787261
 10
97.40490720221128
 20
-140.0731038061276
 10
97.16616208508347
 20
-140.0731038061276
 97
        0
 97
        0
 92
        1
 93
        1
 72
     4
 94
        3
 73
     0
 74
     1
 95
       17
 96
       13
 40
0.0
 40
0.0
 40
0.0
 40
0.0
 40
1.0
 40
1.0
 40
1.0
 40
2.0
 40
2.0
 40
2.0
 40
3.0
 40
3.0
 40
3.0
 40
4.0
 40
4.0
 40
4.0
 40
4.0
 10
97.16616208508347
 20
-139.2817653731657
 10
97.02215709380002
 20
-139.2817653731657
 10
96.86988387335198
 20
-139.368581779394
 10
96.86988387335198
 20
-139.5718424130237
 10
96.86988387335198
 20
-139.7768255943961
 10
96.99666338720917
 20
-139.8784559112109
 10
97.16616208508347
 20
-139.8784559112109
 10
97.35219724128696
 20
-139.8784559112109
 10
97.46209578726642
 20
-139.7558105119361
 10
97.46209578726642
 20
-139.5780435848972
 10
97.46209578726642
 20
-139.3558349260985
 10
97.29914277081411
 20
-139.2817653731657
 10
97.16616208508347
 20
-139.2817653731657
 97
        0
 97
        0
 92
        1
 93
        1
 72
     4
 94
        3
 73
     0
 74
     1
 95
       17
 96
       13
 40
0.0
 40
0.0
 40
0.0
 40
0.0
 40
1.0
 40
1.0
 40
1.0
 40
2.0
 40
2.0
 40
2.0
 40
3.0
 40
3.0
 40
3.0
 40
4.0
 40
4.0
 40
4.0
 40
4.0
 10
97.16616208508347
 20
-138.6216850781918
 10
97.00114201134
 20
-138.6216850781918
 10
96.91639266240286
 20
-138.7171142231332
 10
96.91639266240286
 20
-138.8525064757035
 10
96.91639266240286
 20
-138.9751518749785
 10
96.98839515804457
 20
-139.093663159671
 10
97.16616208508347
 20
-139.093663159671
 10
97.34358450257383
 20
-139.093663159671
 10
97.41558699821555
 20
-138.9751518749785
 10
97.41558699821555
 20
-138.8525064757035
 10
97.41558699821555
 20
-138.7171142231332
 10
97.32877059198725
 20
-138.6216850781918
 10
97.16616208508347
 20
-138.6216850781918
 97
        0
 97
        0
 75
     2
 76
     1
 98
        0
  0
ENDBLK
  5
157
330
154
100
AcDbEntity
  8
0
100
AcDbBlockEnd
  0
BLOCK
  5
15E
330
15C
100
AcDbEntity
  8
0
100
AcDbBlockBegin
  2
block 17
 70
     0
 10
0.0
 20
0.0
 30
0.0
  3
block 17
  1

  0
SPLINE
  5
160
330
15C
100
AcDbEntity
  8
_U+30EC_U+30A4_U+30E4_U+30FC 1
 62
   179
420
  2234388
370
    25
100
AcDbSpline
210
0.0
220
0.0
230
1.0
 70
    11
 71
     3
 72
    17
 73
    13
 74
     0
 42
0.0000000001
 43
0.0000000001
 12
1.0
 22
0.0
 32
0.0
 13
1.0
 23
0.0
 33
0.0
 40
0.0
 40
0.0
 40
0.0
 40
0.0
 40
1.0
 40
1.0
 40
1.0
 40
2.0
 40
2.0
 40
2.0
 40
3.0
 40
3.0
 40
3.0
 40
4.0
 40
4.0
 40
4.0
 40
4.0
 10
93.20155817778571
 20
-136.3947896881236
 30
0.0
 10
93.20155817778571
 20
-136.4147569103408
 30
0.0
 10
93.1860359559595
 20
-136.4305966325593
 30
0.0
 10
93.16642151201546
 20
-136.4305966325593
 30
0.0
 10
93.14677179029454
 20
-136.4305966325593
 30
0.0
 10
93.13124956846832
 20
-136.4147569103408
 30
0.0
 10
93.13124956846832
 20
-136.3947896881236
 30
0.0
 10
93.13124956846832
 20
-136.3754927436837
 30
0.0
 10
93.14677179029454
 20
-136.3596530214658
 30
0.0
 10
93.16642151201546
 20
-136.3596530214658
 30
0.0
 10
93.1860359559595
 20
-136.3596530214658
 30
0.0
 10
93.20155817778571
 20
-136.3754927436837
 30
0.0
 10
93.20155817778571
 20
-136.3947896881236
 30
0.0
  0
ENDBLK
  5
15F
330
15C
100
AcDbEntity
  8
0
100
AcDbBlockEnd
  0
BLOCK
  5
163
330
161
100
AcDbEntity
  8
0
100
AcDbBlockBegin
  2
block 18
 70
     0
 10
0.0
 20
0.0
 30
0.0
  3
block 18
  1

  0
SPLINE
  5
165
330
161
100
AcDbEntity
  8
_U+30EC_U+30A4_U+30E4_U+30FC 1
 62
   179
420
  2234388
370
    25
100
AcDbSpline
210
0.0
220
0.0
230
1.0
 70
    11
 71
     3
 72
    17
 73
    13
 74
     0
 42
0.0000000001
 43
0.0000000001
 12
1.0
 22
0.0
 32
0.0
 13
1.0
 23
0.0
 33
0.0
 40
0.0
 40
0.0
 40
0.0
 40
0.0
 40
1.0
 40
1.0
 40
1.0
 40
2.0
 40
2.0
 40
2.0
 40
3.0
 40
3.0
 40
3.0
 40
4.0
 40
4.0
 40
4.0
 40
4.0
 10
101.201746584795
 20
-136.3947896881236
 30
0.0
 10
101.201746584795
 20
-136.4147569103408
 30
0.0
 10
101.1859068629769
 20
-136.4305966325593
 30
0.0
 10
101.166257141256
 20
-136.4305966325593
 30
0.0
 10
101.1469601973038
 20
-136.4305966325593
 30
0.0
 10
101.1311204754857
 20
-136.4147569103408
 30
0.0
 10
101.1311204754857
 20
-136.3947896881236
 30
0.0
 10
101.1311204754857
 20
-136.3754927436837
 30
0.0
 10
101.1469601973038
 20
-136.3596530214658
 30
0.0
 10
101.166257141256
 20
-136.3596530214658
 30
0.0
 10
101.1859068629769
 20
-136.3596530214658
 30
0.0
 10
101.201746584795
 20
-136.3754927436837
 30
0.0
 10
101.201746584795
 20
-136.3947896881236
 30
0.0
  0
ENDBLK
  5
164
330
161
100
AcDbEntity
  8
0
100
AcDbBlockEnd
  0
BLOCK
  5
168
330
166
100
AcDbEntity
  8
0
100
AcDbBlockBegin
  2
block 19
 70
     0
 10
0.0
 20
0.0
 30
0.0
  3
block 19
  1

  0
SPLINE
  5
16A
330
166
100
AcDbEntity
  8
_U+30EC_U+30A4_U+30E4_U+30FC 1
 62
   179
420
  2234388
370
     9
100
AcDbSpline
210
0.0
220
0.0
230
1.0
 70
    11
 71
     3
 72
    17
 73
    13
 74
     0
 42
0.0000000001
 43
0.0000000001
 12
1.0
 22
0.0
 32
0.0
 13
1.0
 23
0.0
 33
0.0
 40
0.0
 40
0.0
 40
0.0
 40
0.0
 40
1.0
 40
1.0
 40
1.0
 40
2.0
 40
2.0
 40
2.0
 40
3.0
 40
3.0
 40
3.0
 40
4.0
 40
4.0
 40
4.0
 40
4.0
 10
101.201746584795
 20
-140.3952191315678
 30
0.0
 10
101.201746584795
 20
-140.4145160760077
 30
0.0
 10
101.1859068629769
 20
-140.4303557982255
 30
0.0
 10
101.166257141256
 20
-140.4303557982255
 30
0.0
 10
101.1469601973038
 20
-140.4303557982255
 30
0.0
 10
101.1311204754857
 20
-140.4145160760077
 30
0.0
 10
101.1311204754857
 20
-140.3952191315678
 30
0.0
 10
101.1311204754857
 20
-140.3752519093506
 30
0.0
 10
101.1469601973038
 20
-140.3600824649101
 30
0.0
 10
101.166257141256
 20
-140.3600824649101
 30
0.0
 10
101.1859068629769
 20
-140.3600824649101
 30
0.0
 10
101.201746584795
 20
-140.3752519093506
 30
0.0
 10
101.201746584795
 20
-140.3952191315678
 30
0.0
  0
ENDBLK
  5
169
330
166
100
AcDbEntity
  8
0
100
AcDbBlockEnd
  0
BLOCK
  5
16D
330
16B
100
AcDbEntity
  8
0
100
AcDbBlockBegin
  2
block 20
 70
     0
 10
0.0
 20
0.0
 30
0.0
  3
block 20
  1

  0
POLYLINE
  5
16F
330
16B
100
AcDbEntity
  8
_U+30EC_U+30A4_U+30E4_U+30FC 1
 62
   179
420
  2234388
370
     9
100
AcDb2dPolyline
 66
     1
 10
0.0
 20
0.0
 30
0.0
  0
VERTEX
  5
170
330
16F
100
AcDbEntity
  8
_U+30EC_U+30A4_U+30E4_U+30FC 1
 62
   179
420
  2234388
370
     9
100
AcDbVertex
100
AcDb2dVertex
 10
101.166257141256
 20
-140.3952191315678
 30
0.0
  0
VERTEX
  5
171
330
16F
100
AcDbEntity
  8
_U+30EC_U+30A4_U+30E4_U+30FC 1
 62
   179
420
  2234388
370
     9
100
AcDbVertex
100
AcDb2dVertex
 10
106.1664586803569
 20
-140.3952191315678
 30
0.0
  0
SEQEND
  5
172
330
16F
100
AcDbEntity
  8
_U+30EC_U+30A4_U+30E4_U+30FC 1
 62
   179
420
  2234388
370
     9
  0
POLYLINE
  5
173
330
16B
100
AcDbEntity
  8
_U+30EC_U+30A4_U+30E4_U+30FC 1
 62
   179
420
  2234388
370
     9
100
AcDb2dPolyline
 66
     1
 10
0.0
 20
0.0
 30
0.0
  0
VERTEX
  5
174
330
173
100
AcDbEntity
  8
_U+30EC_U+30A4_U+30E4_U+30FC 1
 62
   179
420
  2234388
370
     9
100
AcDbVertex
100
AcDb2dVertex
 10
106.1664586803569
 20
-138.9351777430441
 30
0.0
  0
VERTEX
  5
175
330
173
100
AcDbEntity
  8
_U+30EC_U+30A4_U+30E4_U+30FC 1
 62
   179
420
  2234388
370
     9
100
AcDbVertex
100
AcDb2dVertex
 10
106.1664586803569
 20
-141.3949913535403
 30
0.0
  0
SEQEND
  5
176
330
173
100
AcDbEntity
  8
_U+30EC_U+30A4_U+30E4_U+30FC 1
 62
   179
420
  2234388
370
     9
  0
INSERT
  5
178
330
16B
100
AcDbEntity
  8
_U+30EC_U+30A4_U+30E4_U+30FC 1
100
AcDbBlockReference
  2
block 21
 10
0.0
 20
0.0
 30
0.0
  0
INSERT
  5
17E
330
16B
100
AcDbEntity
  8
_U+30EC_U+30A4_U+30E4_U+30FC 1
100
AcDbBlockReference
  2
block 22
 10
0.0
 20
0.0
 30
0.0
  0
INSERT
  5
183
330
16B
100
AcDbEntity
  8
_U+30EC_U+30A4_U+30E4_U+30FC 1
100
AcDbBlockReference
  2
block 23
 10
0.0
 20
0.0
 30
0.0
  0
INSERT
  5
188
330
16B
100
AcDbEntity
  8
_U+30EC_U+30A4_U+30E4_U+30FC 1
100
AcDbBlockReference
  2
block 24
 10
0.0
 20
0.0
 30
0.0
  0
ENDBLK
  5
16E
330
16B
100
AcDbEntity
  8
0
100
AcDbBlockEnd
  0
BLOCK
  5
179
330
177
100
AcDbEntity
  8
0
100
AcDbBlockBegin
  2
block 21
 70
     0
 10
0.0
 20
0.0
 30
0.0
  3
block 21
  1

  0
SPLINE
  5
17B
330
177
100
AcDbEntity
  8
_U+30EC_U+30A4_U+30E4_U+30FC 1
370
     0
100
AcDbSpline
210
0.0
220
0.0
230
1.0
 70
    11
 71
     3
 72
    53
 73
    49
 74
     0
 42
0.0000000001
 43
0.0000000001
 12
1.0
 22
0.0
 32
0.0
 13
1.0
 23
0.0
 33
0.0
 40
0.0
 40
0.0
 40
0.0
 40
0.0
 40
1.0
 40
1.0
 40
1.0
 40
2.0
 40
2.0
 40
2.0
 40
3.0
 40
3.0
 40
3.0
 40
4.0
 40
4.0
 40
4.0
 40
5.0
 40
5.0
 40
5.0
 40
6.0
 40
6.0
 40
6.0
 40
7.0
 40
7.0
 40
7.0
 40
8.0
 40
8.0
 40
8.0
 40
9.0
 40
9.0
 40
9.0
 40
10.0
 40
10.0
 40
10.0
 40
11.0
 40
11.0
 40
11.0
 40
12.0
 40
12.0
 40
12.0
 40
13.0
 40
13.0
 40
13.0
 40
14.0
 40
14.0
 40
14.0
 40
15.0
 40
15.0
 40
15.0
 40
16.0
 40
16.0
 40
16.0
 40
16.0
 10
103.6470757119355
 20
-140.0731038061276
 30
0.0
 10
103.5688720444203
 20
-140.0731038061276
 30
0.0
 10
103.4672417276054
 20
-140.0562228382499
 30
0.0
 10
103.3659559203391
 20
-139.9928330813212
 30
0.0
 10
103.1923231078825
 20
-139.8825900257932
 30
0.0
 10
103.1713080254225
 20
-139.7516763973537
 30
0.0
 10
103.1520154907051
 20
-139.6435003991169
 30
0.0
 10
103.1520154907051
 20
-139.6435003991169
 30
0.0
 10
103.3742241495037
 20
-139.6435003991169
 30
0.0
 10
103.3742241495037
 20
-139.6435003991169
 30
0.0
 10
103.4293456772677
 20
-139.8426269181643
 30
0.0
 10
103.5561251911249
 20
-139.8722547393375
 30
0.0
 10
103.6491427692266
 20
-139.8722547393375
 30
0.0
 10
103.7890136459278
 20
-139.8722547393375
 30
0.0
 10
103.9412868663758
 20
-139.7726914798138
 30
0.0
 10
103.9412868663758
 20
-139.5401475345594
 30
0.0
 10
103.9412868663758
 20
-139.2841769400054
 30
0.0
 10
103.7614528820458
 20
-139.2142415016548
 30
0.0
 10
103.640874540062
 20
-139.2142415016548
 30
0.0
 10
103.6091796615977
 20
-139.2142415016548
 30
0.0
 10
103.4672417276054
 20
-139.2142415016548
 30
0.0
 10
103.378358264086
 20
-139.3430880728031
 30
0.0
 10
103.378358264086
 20
-139.3430880728031
 30
0.0
 10
103.2030029038868
 20
-139.3241400476342
 30
0.0
 10
103.2030029038868
 20
-139.3241400476342
 30
0.0
 10
103.2030029038868
 20
-139.3241400476342
 30
0.0
 10
103.3235812458705
 20
-138.4780245964569
 30
0.0
 10
103.3235812458705
 20
-138.4780245964569
 30
0.0
 10
103.3235812458705
 20
-138.4780245964569
 30
0.0
 10
104.102172825537
 20
-138.4780245964569
 30
0.0
 10
104.102172825537
 20
-138.4780245964569
 30
0.0
 10
104.102172825537
 20
-138.4780245964569
 30
0.0
 10
104.102172825537
 20
-138.6726724913735
 30
0.0
 10
104.102172825537
 20
-138.6726724913735
 30
0.0
 10
104.102172825537
 20
-138.6726724913735
 30
0.0
 10
103.4865342623228
 20
-138.6726724913735
 30
0.0
 10
103.4865342623228
 20
-138.6726724913735
 30
0.0
 10
103.4865342623228
 20
-138.6726724913735
 30
0.0
 10
103.4207329385546
 20
-139.0957302169622
 30
0.0
 10
103.4207329385546
 20
-139.0957302169622
 30
0.0
 10
103.482055638192
 20
-139.0619682812067
 30
0.0
 10
103.564737929838
 20
-139.0216606640293
 30
0.0
 10
103.6832492145306
 20
-139.0216606640293
 30
0.0
 10
103.9371527517935
 20
-139.0216606640293
 30
0.0
 10
104.1738308116302
 20
-139.2076958202328
 30
0.0
 10
104.1738308116302
 20
-139.520854999842
 30
0.0
 10
104.1738308116302
 20
-139.8381482940335
 30
0.0
 10
103.9495550955404
 20
-140.0731038061276
 30
0.0
 10
103.6470757119355
 20
-140.0731038061276
 30
0.0
  0
HATCH
  5
17C
330
177
100
AcDbEntity
  8
_U+30EC_U+30A4_U+30E4_U+30FC 1
 62
   179
420
  2234388
100
AcDbHatch
 10
0.0
 20
0.0
 30
0.0
210
0.0
220
0.0
230
1.0
  2
SOLID
 70
     1
 71
     0
 91
        1
 92
        1
 93
        1
 72
     4
 94
        3
 73
     0
 74
     1
 95
       53
 96
       49
 40
0.0
 40
0.0
 40
0.0
 40
0.0
 40
1.0
 40
1.0
 40
1.0
 40
2.0
 40
2.0
 40
2.0
 40
3.0
 40
3.0
 40
3.0
 40
4.0
 40
4.0
 40
4.0
 40
5.0
 40
5.0
 40
5.0
 40
6.0
 40
6.0
 40
6.0
 40
7.0
 40
7.0
 40
7.0
 40
8.0
 40
8.0
 40
8.0
 40
9.0
 40
9.0
 40
9.0
 40
10.0
 40
10.0
 40
10.0
 40
11.0
 40
11.0
 40
11.0
 40
12.0
 40
12.0
 40
12.0
 40
13.0
 40
13.0
 40
13.0
 40
14.0
 40
14.0
 40
14.0
 40
15.0
 40
15.0
 40
15.0
 40
16.0
 40
16.0
 40
16.0
 40
16.0
 10
103.6470757119355
 20
-140.0731038061276
 10
103.5688720444203
 20
-140.0731038061276
 10
103.4672417276054
 20
-140.0562228382499
 10
103.3659559203391
 20
-139.9928330813212
 10
103.1923231078825
 20
-139.8825900257932
 10
103.1713080254225
 20
-139.7516763973537
 10
103.1520154907051
 20
-139.6435003991169
 10
103.1520154907051
 20
-139.6435003991169
 10
103.3742241495037
 20
-139.6435003991169
 10
103.3742241495037
 20
-139.6435003991169
 10
103.4293456772677
 20
-139.8426269181643
 10
103.5561251911249
 20
-139.8722547393375
 10
103.6491427692266
 20
-139.8722547393375
 10
103.7890136459278
 20
-139.8722547393375
 10
103.9412868663758
 20
-139.7726914798138
 10
103.9412868663758
 20
-139.5401475345594
 10
103.9412868663758
 20
-139.2841769400054
 10
103.7614528820458
 20
-139.2142415016548
 10
103.640874540062
 20
-139.2142415016548
 10
103.6091796615977
 20
-139.2142415016548
 10
103.4672417276054
 20
-139.2142415016548
 10
103.378358264086
 20
-139.3430880728031
 10
103.378358264086
 20
-139.3430880728031
 10
103.2030029038868
 20
-139.3241400476342
 10
103.2030029038868
 20
-139.3241400476342
 10
103.2030029038868
 20
-139.3241400476342
 10
103.3235812458705
 20
-138.4780245964569
 10
103.3235812458705
 20
-138.4780245964569
 10
103.3235812458705
 20
-138.4780245964569
 10
104.102172825537
 20
-138.4780245964569
 10
104.102172825537
 20
-138.4780245964569
 10
104.102172825537
 20
-138.4780245964569
 10
104.102172825537
 20
-138.6726724913735
 10
104.102172825537
 20
-138.6726724913735
 10
104.102172825537
 20
-138.6726724913735
 10
103.4865342623228
 20
-138.6726724913735
 10
103.4865342623228
 20
-138.6726724913735
 10
103.4865342623228
 20
-138.6726724913735
 10
103.4207329385546
 20
-139.0957302169622
 10
103.4207329385546
 20
-139.0957302169622
 10
103.482055638192
 20
-139.0619682812067
 10
103.564737929838
 20
-139.0216606640293
 10
103.6832492145306
 20
-139.0216606640293
 10
103.9371527517935
 20
-139.0216606640293
 10
104.1738308116302
 20
-139.2076958202328
 10
104.1738308116302
 20
-139.520854999842
 10
104.1738308116302
 20
-139.8381482940335
 10
103.9495550955404
 20
-140.0731038061276
 10
103.6470757119355
 20
-140.0731038061276
 97
        0
 97
        0
 75
     2
 76
     1
 98
        0
  0
ENDBLK
  5
17A
330
177
100
AcDbEntity
  8
0
100
AcDbBlockEnd
  0
BLOCK
  5
17F
330
17D
100
AcDbEntity
  8
0
100
AcDbBlockBegin
  2
block 22
 70
     0
 10
0.0
 20
0.0
 30
0.0
  3
block 22
  1

  0
SPLINE
  5
181
330
17D
100
AcDbEntity
  8
_U+30EC_U+30A4_U+30E4_U+30FC 1
 62
   179
420
  2234388
370
    25
100
AcDbSpline
210
0.0
220
0.0
230
1.0
 70
    11
 71
     3
 72
    17
 73
    13
 74
     0
 42
0.0000000001
 43
0.0000000001
 12
1.0
 22
0.0
 32
0.0
 13
1.0
 23
0.0
 33
0.0
 40
0.0
 40
0.0
 40
0.0
 40
0.0
 40
1.0
 40
1.0
 40
1.0
 40
2.0
 40
2.0
 40
2.0
 40
3.0
 40
3.0
 40
3.0
 40
4.0
 40
4.0
 40
4.0
 40
4.0
 10
101.201746584795
 20
-136.3947896881236
 30
0.0
 10
101.201746584795
 20
-136.4147569103408
 30
0.0
 10
101.1859068629769
 20
-136.4305966325593
 30
0.0
 10
101.166257141256
 20
-136.4305966325593
 30
0.0
 10
101.1469601973038
 20
-136.4305966325593
 30
0.0
 10
101.1311204754857
 20
-136.4147569103408
 30
0.0
 10
101.1311204754857
 20
-136.3947896881236
 30
0.0
 10
101.1311204754857
 20
-136.3754927436837
 30
0.0
 10
101.1469601973038
 20
-136.3596530214658
 30
0.0
 10
101.166257141256
 20
-136.3596530214658
 30
0.0
 10
101.1859068629769
 20
-136.3596530214658
 30
0.0
 10
101.201746584795
 20
-136.3754927436837
 30
0.0
 10
101.201746584795
 20
-136.3947896881236
 30
0.0
  0
ENDBLK
  5
180
330
17D
100
AcDbEntity
  8
0
100
AcDbBlockEnd
  0
BLOCK
  5
184
330
182
100
AcDbEntity
  8
0
100
AcDbBlockBegin
  2
block 23
 70
     0
 10
0.0
 20
0.0
 30
0.0
  3
block 23
  1

  0
SPLINE
  5
186
330
182
100
AcDbEntity
  8
_U+30EC_U+30A4_U+30E4_U+30FC 1
 62
   179
420
  2234388
370
    25
100
AcDbSpline
210
0.0
220
0.0
230
1.0
 70
    11
 71
     3
 72
    17
 73
    13
 74
     0
 42
0.0000000001
 43
0.0000000001
 12
1.0
 22
0.0
 32
0.0
 13
1.0
 23
0.0
 33
0.0
 40
0.0
 40
0.0
 40
0.0
 40
0.0
 40
1.0
 40
1.0
 40
1.0
 40
2.0
 40
2.0
 40
2.0
 40
3.0
 40
3.0
 40
3.0
 40
4.0
 40
4.0
 40
4.0
 40
4.0
 10
106.2015953461271
 20
-136.3947896881236
 30
0.0
 10
106.2015953461271
 20
-136.4147569103408
 30
0.0
 10
106.1857583067868
 20
-136.4305966325593
 30
0.0
 10
106.1664586803569
 20
-136.4305966325593
 30
0.0
 10
106.1468442364128
 20
-136.4305966325593
 30
0.0
 10
106.1310045145947
 20
-136.4147569103408
 30
0.0
 10
106.1310045145947
 20
-136.3947896881236
 30
0.0
 10
106.1310045145947
 20
-136.3754927436837
 30
0.0
 10
106.1468442364128
 20
-136.3596530214658
 30
0.0
 10
106.1664586803569
 20
-136.3596530214658
 30
0.0
 10
106.1857583067868
 20
-136.3596530214658
 30
0.0
 10
106.2015953461271
 20
-136.3754927436837
 30
0.0
 10
106.2015953461271
 20
-136.3947896881236
 30
0.0
  0
ENDBLK
  5
185
330
182
100
AcDbEntity
  8
0
100
AcDbBlockEnd
  0
BLOCK
  5
189
330
187
100
AcDbEntity
  8
0
100
AcDbBlockBegin
  2
block 24
 70
     0
 10
0.0
 20
0.0
 30
0.0
  3
block 24
  1

  0
SPLINE
  5
18B
330
187
100
AcDbEntity
  8
_U+30EC_U+30A4_U+30E4_U+30FC 1
 62
   179
420
  2234388
370
     9
100
AcDbSpline
210
0.0
220
0.0
230
1.0
 70
    11
 71
     3
 72
    17
 73
    13
 74
     0
 42
0.0000000001
 43
0.0000000001
 12
1.0
 22
0.0
 32
0.0
 13
1.0
 23
0.0
 33
0.0
 40
0.0
 40
0.0
 40
0.0
 40
0.0
 40
1.0
 40
1.0
 40
1.0
 40
2.0
 40
2.0
 40
2.0
 40
3.0
 40
3.0
 40
3.0
 40
4.0
 40
4.0
 40
4.0
 40
4.0
 10
106.2015953461271
 20
-140.3952191315678
 30
0.0
 10
106.2015953461271
 20
-140.4145160760077
 30
0.0
 10
106.1857583067868
 20
-140.4303557982255
 30
0.0
 10
106.1664586803569
 20
-140.4303557982255
 30
0.0
 10
106.1468442364128
 20
-140.4303557982255
 30
0.0
 10
106.1310045145947
 20
-140.4145160760077
 30
0.0
 10
106.1310045145947
 20
-140.3952191315678
 30
0.0
 10
106.1310045145947
 20
-140.3752519093506
 30
0.0
 10
106.1468442364128
 20
-140.3600824649101
 30
0.0
 10
106.1664586803569
 20
-140.3600824649101
 30
0.0
 10
106.1857583067868
 20
-140.3600824649101
 30
0.0
 10
106.2015953461271
 20
-140.3752519093506
 30
0.0
 10
106.2015953461271
 20
-140.3952191315678
 30
0.0
  0
ENDBLK
  5
18A
330
187
100
AcDbEntity
  8
0
100
AcDbBlockEnd
  0
BLOCK
  5
18E
330
18C
100
AcDbEntity
  8
0
100
AcDbBlockBegin
  2
block 25
 70
     0
 10
0.0
 20
0.0
 30
0.0
  3
block 25
  1

  0
POLYLINE
  5
190
330
18C
100
AcDbEntity
  8
_U+30EC_U+30A4_U+30E4_U+30FC 1
 62
   179
420
  2234388
370
     9
100
AcDb2dPolyline
 66
     1
 10
0.0
 20
0.0
 30
0.0
  0
VERTEX
  5
191
330
190
100
AcDbEntity
  8
_U+30EC_U+30A4_U+30E4_U+30FC 1
 62
   179
420
  2234388
370
     9
100
AcDbVertex
100
AcDb2dVertex
 10
79.16657686918126
 20
-136.3947896881236
 30
0.0
  0
VERTEX
  5
192
330
190
100
AcDbEntity
  8
_U+30EC_U+30A4_U+30E4_U+30FC 1
 62
   179
420
  2234388
370
     9
100
AcDbVertex
100
AcDb2dVertex
 10
79.16657686918126
 20
-132.3950305224567
 30
0.0
  0
SEQEND
  5
193
330
190
100
AcDbEntity
  8
_U+30EC_U+30A4_U+30E4_U+30FC 1
 62
   179
420
  2234388
370
     9
  0
POLYLINE
  5
194
330
18C
100
AcDbEntity
  8
_U+30EC_U+30A4_U+30E4_U+30FC 1
 62
   179
420
  2234388
370
     9
100
AcDb2dPolyline
 66
     1
 10
0.0
 20
0.0
 30
0.0
  0
VERTEX
  5
195
330
194
100
AcDbEntity
  8
_U+30EC_U+30A4_U+30E4_U+30FC 1
 62
   179
420
  2234388
370
     9
100
AcDbVertex
100
AcDb2dVertex
 10
80.6262654430526
 20
-136.3947896881236
 30
0.0
  0
VERTEX
  5
196
330
194
100
AcDbEntity
  8
_U+30EC_U+30A4_U+30E4_U+30FC 1
 62
   179
420
  2234388
370
     9
100
AcDbVertex
100
AcDb2dVertex
 10
78.16645189469656
 20
-136.3947896881236
 30
0.0
  0
SEQEND
  5
197
330
194
100
AcDbEntity
  8
_U+30EC_U+30A4_U+30E4_U+30FC 1
 62
   179
420
  2234388
370
     9
  0
POLYLINE
  5
198
330
18C
100
AcDbEntity
  8
_U+30EC_U+30A4_U+30E4_U+30FC 1
 62
   179
420
  2234388
370
     9
100
AcDb2dPolyline
 66
     1
 10
0.0
 20
0.0
 30
0.0
  0
VERTEX
  5
199
330
198
100
AcDbEntity
  8
_U+30EC_U+30A4_U+30E4_U+30FC 1
 62
   179
420
  2234388
370
     9
100
AcDbVertex
100
AcDb2dVertex
 10
80.6262654430526
 20
-132.3950305224567
 30
0.0
  0
VERTEX
  5
19A
330
198
100
AcDbEntity
  8
_U+30EC_U+30A4_U+30E4_U+30FC 1
 62
   179
420
  2234388
370
     9
100
AcDbVertex
100
AcDb2dVertex
 10
78.16645189469656
 20
-132.3950305224567
 30
0.0
  0
SEQEND
  5
19B
330
198
100
AcDbEntity
  8
_U+30EC_U+30A4_U+30E4_U+30FC 1
 62
   179
420
  2234388
370
     9
  0
INSERT
  5
19D
330
18C
100
AcDbEntity
  8
_U+30EC_U+30A4_U+30E4_U+30FC 1
100
AcDbBlockReference
  2
block 26
 10
0.0
 20
0.0
 30
0.0
  0
INSERT
  5
1B6
330
18C
100
AcDbEntity
  8
_U+30EC_U+30A4_U+30E4_U+30FC 1
100
AcDbBlockReference
  2
block 27
 10
0.0
 20
0.0
 30
0.0
  0
INSERT
  5
1BB
330
18C
100
AcDbEntity
  8
_U+30EC_U+30A4_U+30E4_U+30FC 1
100
AcDbBlockReference
  2
block 28
 10
0.0
 20
0.0
 30
0.0
  0
INSERT
  5
1C0
330
18C
100
AcDbEntity
  8
_U+30EC_U+30A4_U+30E4_U+30FC 1
100
AcDbBlockReference
  2
block 29
 10
0.0
 20
0.0
 30
0.0
  0
ENDBLK
  5
18F
330
18C
100
AcDbEntity
  8
0
100
AcDbBlockEnd
  0
BLOCK
  5
19E
330
19C
100
AcDbEntity
  8
0
100
AcDbBlockBegin
  2
block 26
 70
     0
 10
0.0
 20
0.0
 30
0.0
  3
block 26
  1

  0
POLYLINE
  5
1A0
330
19C
100
AcDbEntity
  8
_U+30EC_U+30A4_U+30E4_U+30FC 1
370
     0
100
AcDb2dPolyline
 66
     1
 10
0.0
 20
0.0
 30
0.0
  0
VERTEX
  5
1A1
330
1A0
100
AcDbEntity
  8
_U+30EC_U+30A4_U+30E4_U+30FC 1
370
     0
100
AcDbVertex
100
AcDb2dVertex
 10
78.4470635112042
 20
-134.0634792416577
 30
0.0
  0
VERTEX
  5
1A2
330
1A0
100
AcDbEntity
  8
_U+30EC_U+30A4_U+30E4_U+30FC 1
370
     0
100
AcDbVertex
100
AcDb2dVertex
 10
78.79398462656887
 20
-134.0634792416577
 30
0.0
  0
VERTEX
  5
1A3
330
1A0
100
AcDbEntity
  8
_U+30EC_U+30A4_U+30E4_U+30FC 1
370
     0
100
AcDbVertex
100
AcDb2dVertex
 10
78.79398462656887
 20
-134.2812092763255
 30
0.0
  0
VERTEX
  5
1A4
330
1A0
100
AcDbEntity
  8
_U+30EC_U+30A4_U+30E4_U+30FC 1
370
     0
100
AcDbVertex
100
AcDb2dVertex
 10
78.4470635112042
 20
-134.2812092763255
 30
0.0
  0
VERTEX
  5
1A5
330
1A0
100
AcDbEntity
  8
_U+30EC_U+30A4_U+30E4_U+30FC 1
370
     0
100
AcDbVertex
100
AcDb2dVertex
 10
78.4470635112042
 20
-134.9371554567171
 30
0.0
  0
VERTEX
  5
1A6
330
1A0
100
AcDbEntity
  8
_U+30EC_U+30A4_U+30E4_U+30FC 1
370
     0
100
AcDbVertex
100
AcDb2dVertex
 10
78.22278779511444
 20
-134.9371554567171
 30
0.0
  0
VERTEX
  5
1A7
330
1A0
100
AcDbEntity
  8
_U+30EC_U+30A4_U+30E4_U+30FC 1
370
     0
100
AcDbVertex
100
AcDb2dVertex
 10
77.24972057530563
 20
-134.2581271365744
 30
0.0
  0
VERTEX
  5
1A8
330
1A0
100
AcDbEntity
  8
_U+30EC_U+30A4_U+30E4_U+30FC 1
370
     0
100
AcDbVertex
100
AcDb2dVertex
 10
77.24972057530563
 20
-134.0634792416577
 30
0.0
  0
VERTEX
  5
1A9
330
1A0
100
AcDbEntity
  8
_U+30EC_U+30A4_U+30E4_U+30FC 1
370
     0
100
AcDbVertex
100
AcDb2dVertex
 10
78.24828150170529
 20
-134.0634792416577
 30
0.0
  0
VERTEX
  5
1AA
330
1A0
100
AcDbEntity
  8
_U+30EC_U+30A4_U+30E4_U+30FC 1
370
     0
100
AcDbVertex
100
AcDb2dVertex
 10
78.24828150170529
 20
-133.8560844934457
 30
0.0
  0
VERTEX
  5
1AB
330
1A0
100
AcDbEntity
  8
_U+30EC_U+30A4_U+30E4_U+30FC 1
370
     0
100
AcDbVertex
100
AcDb2dVertex
 10
78.4470635112042
 20
-133.8560844934457
 30
0.0
  0
VERTEX
  5
1AC
330
1A0
100
AcDbEntity
  8
_U+30EC_U+30A4_U+30E4_U+30FC 1
370
     0
100
AcDbVertex
100
AcDb2dVertex
 10
78.4470635112042
 20
-134.0634792416577
 30
0.0
  0
SEQEND
  5
1AD
330
1A0
100
AcDbEntity
  8
_U+30EC_U+30A4_U+30E4_U+30FC 1
370
     0
  0
POLYLINE
  5
1AE
330
19C
100
AcDbEntity
  8
_U+30EC_U+30A4_U+30E4_U+30FC 1
370
     0
100
AcDb2dPolyline
 66
     1
 10
0.0
 20
0.0
 30
0.0
  0
VERTEX
  5
1AF
330
1AE
100
AcDbEntity
  8
_U+30EC_U+30A4_U+30E4_U+30FC 1
370
     0
100
AcDbVertex
100
AcDb2dVertex
 10
77.59233532131373
 20
-134.2812092763255
 30
0.0
  0
VERTEX
  5
1B0
330
1AE
100
AcDbEntity
  8
_U+30EC_U+30A4_U+30E4_U+30FC 1
370
     0
100
AcDbVertex
100
AcDb2dVertex
 10
78.24828150170529
 20
-134.7383734472182
 30
0.0
  0
VERTEX
  5
1B1
330
1AE
100
AcDbEntity
  8
_U+30EC_U+30A4_U+30E4_U+30FC 1
370
     0
100
AcDbVertex
100
AcDb2dVertex
 10
78.24828150170529
 20
-134.2812092763255
 30
0.0
  0
VERTEX
  5
1B2
330
1AE
100
AcDbEntity
  8
_U+30EC_U+30A4_U+30E4_U+30FC 1
370
     0
100
AcDbVertex
100
AcDb2dVertex
 10
77.59233532131373
 20
-134.2812092763255
 30
0.0
  0
SEQEND
  5
1B3
330
1AE
100
AcDbEntity
  8
_U+30EC_U+30A4_U+30E4_U+30FC 1
370
     0
  0
HATCH
  5
1B4
330
19C
100
AcDbEntity
  8
_U+30EC_U+30A4_U+30E4_U+30FC 1
 62
   179
420
  2234388
100
AcDbHatch
 10
0.0
 20
0.0
 30
0.0
210
0.0
220
0.0
230
1.0
  2
SOLID
 70
     1
 71
     0
 91
        2
 92
        1
 93
       11
 72
     1
 10
78.4470635112042
 20
-134.0634792416577
 11
78.79398462656887
 21
-134.0634792416577
 72
     1
 10
78.79398462656887
 20
-134.0634792416577
 11
78.79398462656887
 21
-134.2812092763255
 72
     1
 10
78.79398462656887
 20
-134.2812092763255
 11
78.4470635112042
 21
-134.2812092763255
 72
     1
 10
78.4470635112042
 20
-134.2812092763255
 11
78.4470635112042
 21
-134.9371554567171
 72
     1
 10
78.4470635112042
 20
-134.9371554567171
 11
78.22278779511444
 21
-134.9371554567171
 72
     1
 10
78.22278779511444
 20
-134.9371554567171
 11
77.24972057530563
 21
-134.2581271365744
 72
     1
 10
77.24972057530563
 20
-134.2581271365744
 11
77.24972057530563
 21
-134.0634792416577
 72
     1
 10
77.24972057530563
 20
-134.0634792416577
 11
78.24828150170529
 21
-134.0634792416577
 72
     1
 10
78.24828150170529
 20
-134.0634792416577
 11
78.24828150170529
 21
-133.8560844934457
 72
     1
 10
78.24828150170529
 20
-133.8560844934457
 11
78.4470635112042
 21
-133.8560844934457
 72
     1
 10
78.4470635112042
 20
-133.8560844934457
 11
78.4470635112042
 21
-134.0634792416577
 97
        0
 92
        1
 93
        3
 72
     1
 10
77.59233532131373
 20
-134.2812092763255
 11
78.24828150170529
 21
-134.7383734472182
 72
     1
 10
78.24828150170529
 20
-134.7383734472182
 11
78.24828150170529
 21
-134.2812092763255
 72
     1
 10
78.24828150170529
 20
-134.2812092763255
 11
77.59233532131373
 21
-134.2812092763255
 97
        0
 75
     2
 76
     1
 98
        0
  0
ENDBLK
  5
19F
330
19C
100
AcDbEntity
  8
0
100
AcDbBlockEnd
  0
BLOCK
  5
1B7
330
1B5
100
AcDbEntity
  8
0
100
AcDbBlockBegin
  2
block 27
 70
     0
 10
0.0
 20
0.0
 30
0.0
  3
block 27
  1

  0
SPLINE
  5
1B9
330
1B5
100
AcDbEntity
  8
_U+30EC_U+30A4_U+30E4_U+30FC 1
 62
   179
420
  2234388
370
    25
100
AcDbSpline
210
0.0
220
0.0
230
1.0
 70
    11
 71
     3
 72
    17
 73
    13
 74
     0
 42
0.0000000001
 43
0.0000000001
 12
1.0
 22
0.0
 32
0.0
 13
1.0
 23
0.0
 33
0.0
 40
0.0
 40
0.0
 40
0.0
 40
0.0
 40
1.0
 40
1.0
 40
1.0
 40
2.0
 40
2.0
 40
2.0
 40
3.0
 40
3.0
 40
3.0
 40
4.0
 40
4.0
 40
4.0
 40
4.0
 10
83.20182537734459
 20
-136.3947896881236
 30
0.0
 10
83.20182537734459
 20
-136.4147569103408
 30
0.0
 10
83.1859503777496
 20
-136.4305966325593
 30
0.0
 10
83.16633593380556
 20
-136.4305966325593
 30
0.0
 10
83.14703898985343
 20
-136.4305966325593
 30
0.0
 10
83.1311992680353
 20
-136.4147569103408
 30
0.0
 10
83.1311992680353
 20
-136.3947896881236
 30
0.0
 10
83.1311992680353
 20
-136.3754927436837
 30
0.0
 10
83.14703898985343
 20
-136.3596530214658
 30
0.0
 10
83.16633593380556
 20
-136.3596530214658
 30
0.0
 10
83.1859503777496
 20
-136.3596530214658
 30
0.0
 10
83.20182537734459
 20
-136.3754927436837
 30
0.0
 10
83.20182537734459
 20
-136.3947896881236
 30
0.0
  0
ENDBLK
  5
1B8
330
1B5
100
AcDbEntity
  8
0
100
AcDbBlockEnd
  0
BLOCK
  5
1BC
330
1BA
100
AcDbEntity
  8
0
100
AcDbBlockBegin
  2
block 28
 70
     0
 10
0.0
 20
0.0
 30
0.0
  3
block 28
  1

  0
SPLINE
  5
1BE
330
1BA
100
AcDbEntity
  8
_U+30EC_U+30A4_U+30E4_U+30FC 1
 62
   179
420
  2234388
370
    25
100
AcDbSpline
210
0.0
220
0.0
230
1.0
 70
    11
 71
     3
 72
    17
 73
    13
 74
     0
 42
0.0000000001
 43
0.0000000001
 12
1.0
 22
0.0
 32
0.0
 13
1.0
 23
0.0
 33
0.0
 40
0.0
 40
0.0
 40
0.0
 40
0.0
 40
1.0
 40
1.0
 40
1.0
 40
2.0
 40
2.0
 40
2.0
 40
3.0
 40
3.0
 40
3.0
 40
4.0
 40
4.0
 40
4.0
 40
4.0
 10
83.20182537734459
 20
-132.3950305224567
 30
0.0
 10
83.20182537734459
 20
-132.4143274668965
 30
0.0
 10
83.1859503777496
 20
-132.4301671891144
 30
0.0
 10
83.16633593380556
 20
-132.4301671891144
 30
0.0
 10
83.14703898985343
 20
-132.4301671891144
 30
0.0
 10
83.1311992680353
 20
-132.4143274668965
 30
0.0
 10
83.1311992680353
 20
-132.3950305224567
 30
0.0
 10
83.1311992680353
 20
-132.3757335780175
 30
0.0
 10
83.14703898985343
 20
-132.359893855799
 30
0.0
 10
83.16633593380556
 20
-132.359893855799
 30
0.0
 10
83.1859503777496
 20
-132.359893855799
 30
0.0
 10
83.20182537734459
 20
-132.3757335780175
 30
0.0
 10
83.20182537734459
 20
-132.3950305224567
 30
0.0
  0
ENDBLK
  5
1BD
330
1BA
100
AcDbEntity
  8
0
100
AcDbBlockEnd
  0
BLOCK
  5
1C1
330
1BF
100
AcDbEntity
  8
0
100
AcDbBlockBegin
  2
block 29
 70
     0
 10
0.0
 20
0.0
 30
0.0
  3
block 29
  1

  0
SPLINE
  5
1C3
330
1BF
100
AcDbEntity
  8
_U+30EC_U+30A4_U+30E4_U+30FC 1
 62
   179
420
  2234388
370
     9
100
AcDbSpline
210
0.0
220
0.0
230
1.0
 70
    11
 71
     3
 72
    17
 73
    13
 74
     0
 42
0.0000000001
 43
0.0000000001
 12
1.0
 22
0.0
 32
0.0
 13
1.0
 23
0.0
 33
0.0
 40
0.0
 40
0.0
 40
0.0
 40
0.0
 40
1.0
 40
1.0
 40
1.0
 40
2.0
 40
2.0
 40
2.0
 40
3.0
 40
3.0
 40
3.0
 40
4.0
 40
4.0
 40
4.0
 40
4.0
 10
79.20171353495151
 20
-132.3950305224567
 30
0.0
 10
79.20171353495151
 20
-132.4143274668965
 30
0.0
 10
79.18587381313338
 20
-132.4301671891144
 30
0.0
 10
79.16657686918126
 20
-132.4301671891144
 30
0.0
 10
79.14692714746033
 20
-132.4301671891144
 30
0.0
 10
79.13108742564222
 20
-132.4143274668965
 30
0.0
 10
79.13108742564222
 20
-132.3950305224567
 30
0.0
 10
79.13108742564222
 20
-132.3757335780175
 30
0.0
 10
79.14692714746033
 20
-132.359893855799
 30
0.0
 10
79.16657686918126
 20
-132.359893855799
 30
0.0
 10
79.18587381313338
 20
-132.359893855799
 30
0.0
 10
79.20171353495151
 20
-132.3757335780175
 30
0.0
 10
79.20171353495151
 20
-132.3950305224567
 30
0.0
  0
ENDBLK
  5
1C2
330
1BF
100
AcDbEntity
  8
0
100
AcDbBlockEnd
  0
BLOCK
  5
1C6
330
1C4
100
AcDbEntity
  8
0
100
AcDbBlockBegin
  2
block 30
 70
     0
 10
0.0
 20
0.0
 30
0.0
  3
block 30
  1

  0
POLYLINE
  5
1C8
330
1C4
100
AcDbEntity
  8
_U+30EC_U+30A4_U+30E4_U+30FC 1
 62
   179
420
  2234388
370
     9
100
AcDb2dPolyline
 66
     1
 10
0.0
 20
0.0
 30
0.0
  0
VERTEX
  5
1C9
330
1C8
100
AcDbEntity
  8
_U+30EC_U+30A4_U+30E4_U+30FC 1
 62
   179
420
  2234388
370
     9
100
AcDbVertex
100
AcDb2dVertex
 10
79.16657686918126
 20
-132.3950305224567
 30
0.0
  0
VERTEX
  5
1CA
330
1C8
100
AcDbEntity
  8
_U+30EC_U+30A4_U+30E4_U+30FC 1
 62
   179
420
  2234388
370
     9
100
AcDbVertex
100
AcDb2dVertex
 10
79.16657686918126
 20
-122.3952974694011
 30
0.0
  0
SEQEND
  5
1CB
330
1C8
100
AcDbEntity
  8
_U+30EC_U+30A4_U+30E4_U+30FC 1
 62
   179
420
  2234388
370
     9
  0
POLYLINE
  5
1CC
330
1C4
100
AcDbEntity
  8
_U+30EC_U+30A4_U+30E4_U+30FC 1
 62
   179
420
  2234388
370
     9
100
AcDb2dPolyline
 66
     1
 10
0.0
 20
0.0
 30
0.0
  0
VERTEX
  5
1CD
330
1CC
100
AcDbEntity
  8
_U+30EC_U+30A4_U+30E4_U+30FC 1
 62
   179
420
  2234388
370
     9
100
AcDbVertex
100
AcDb2dVertex
 10
87.12647805499614
 20
-122.3952974694011
 30
0.0
  0
VERTEX
  5
1CE
330
1CC
100
AcDbEntity
  8
_U+30EC_U+30A4_U+30E4_U+30FC 1
 62
   179
420
  2234388
370
     9
100
AcDbVertex
100
AcDb2dVertex
 10
78.16645189469656
 20
-122.3952974694011
 30
0.0
  0
SEQEND
  5
1CF
330
1CC
100
AcDbEntity
  8
_U+30EC_U+30A4_U+30E4_U+30FC 1
 62
   179
420
  2234388
370
     9
  0
INSERT
  5
1D1
330
1C4
100
AcDbEntity
  8
_U+30EC_U+30A4_U+30E4_U+30FC 1
100
AcDbBlockReference
  2
block 31
 10
0.0
 20
0.0
 30
0.0
  0
INSERT
  5
1DA
330
1C4
100
AcDbEntity
  8
_U+30EC_U+30A4_U+30E4_U+30FC 1
100
AcDbBlockReference
  2
block 32
 10
0.0
 20
0.0
 30
0.0
  0
INSERT
  5
1DF
330
1C4
100
AcDbEntity
  8
_U+30EC_U+30A4_U+30E4_U+30FC 1
100
AcDbBlockReference
  2
block 33
 10
0.0
 20
0.0
 30
0.0
  0
INSERT
  5
1E4
330
1C4
100
AcDbEntity
  8
_U+30EC_U+30A4_U+30E4_U+30FC 1
100
AcDbBlockReference
  2
block 34
 10
0.0
 20
0.0
 30
0.0
  0
ENDBLK
  5
1C7
330
1C4
100
AcDbEntity
  8
0
100
AcDbBlockEnd
  0
BLOCK
  5
1D2
330
1D0
100
AcDbEntity
  8
0
100
AcDbBlockBegin
  2
block 31
 70
     0
 10
0.0
 20
0.0
 30
0.0
  3
block 31
  1

  0
SPLINE
  5
1D4
330
1D0
100
AcDbEntity
  8
_U+30EC_U+30A4_U+30E4_U+30FC 1
370
     0
100
AcDbSpline
210
0.0
220
0.0
230
1.0
 70
    11
 71
     3
 72
    26
 73
    22
 74
     0
 42
0.0000000001
 43
0.0000000001
 12
1.0
 22
0.0
 32
0.0
 13
1.0
 23
0.0
 33
0.0
 40
0.0
 40
0.0
 40
0.0
 40
0.0
 40
1.0
 40
1.0
 40
1.0
 40
2.0
 40
2.0
 40
2.0
 40
3.0
 40
3.0
 40
3.0
 40
4.0
 40
4.0
 40
4.0
 40
5.0
 40
5.0
 40
5.0
 40
6.0
 40
6.0
 40
6.0
 40
7.0
 40
7.0
 40
7.0
 40
7.0
 10
78.79398462656887
 20
-128.0324950851794
 30
0.0
 10
78.79398462656887
 20
-128.0324950851794
 30
0.0
 10
77.68965926877203
 20
-128.0324950851794
 30
0.0
 10
77.68965926877203
 20
-128.0324950851794
 30
0.0
 10
77.68965926877203
 20
-128.0324950851794
 30
0.0
 10
77.68965926877203
 20
-128.3625352326663
 30
0.0
 10
77.68965926877203
 20
-128.3625352326663
 30
0.0
 10
77.68965926877203
 20
-128.3625352326663
 30
0.0
 10
77.54169241768055
 20
-128.3625352326663
 30
0.0
 10
77.54169241768055
 20
-128.3625352326663
 30
0.0
 10
77.52687850709398
 20
-128.0304280278882
 30
0.0
 10
77.36392549064166
 20
-127.9839192388374
 30
0.0
 10
77.24972057530563
 20
-127.9542914176642
 30
0.0
 10
77.24972057530563
 20
-127.9542914176642
 30
0.0
 10
77.24972057530563
 20
-127.8083916238639
 30
0.0
 10
77.24972057530563
 20
-127.8083916238639
 30
0.0
 10
77.24972057530563
 20
-127.8083916238639
 30
0.0
 10
78.79398462656887
 20
-127.8083916238639
 30
0.0
 10
78.79398462656887
 20
-127.8083916238639
 30
0.0
 10
78.79398462656887
 20
-127.8083916238639
 30
0.0
 10
78.79398462656887
 20
-128.0324950851794
 30
0.0
 10
78.79398462656887
 20
-128.0324950851794
 30
0.0
  0
HATCH
  5
1D5
330
1D0
100
AcDbEntity
  8
_U+30EC_U+30A4_U+30E4_U+30FC 1
 62
   179
420
  2234388
100
AcDbHatch
 10
0.0
 20
0.0
 30
0.0
210
0.0
220
0.0
230
1.0
  2
SOLID
 70
     1
 71
     0
 91
        1
 92
        1
 93
        1
 72
     4
 94
        3
 73
     0
 74
     1
 95
       26
 96
       22
 40
0.0
 40
0.0
 40
0.0
 40
0.0
 40
1.0
 40
1.0
 40
1.0
 40
2.0
 40
2.0
 40
2.0
 40
3.0
 40
3.0
 40
3.0
 40
4.0
 40
4.0
 40
4.0
 40
5.0
 40
5.0
 40
5.0
 40
6.0
 40
6.0
 40
6.0
 40
7.0
 40
7.0
 40
7.0
 40
7.0
 10
78.79398462656887
 20
-128.0324950851794
 10
78.79398462656887
 20
-128.0324950851794
 10
77.68965926877203
 20
-128.0324950851794
 10
77.68965926877203
 20
-128.0324950851794
 10
77.68965926877203
 20
-128.0324950851794
 10
77.68965926877203
 20
-128.3625352326663
 10
77.68965926877203
 20
-128.3625352326663
 10
77.68965926877203
 20
-128.3625352326663
 10
77.54169241768055
 20
-128.3625352326663
 10
77.54169241768055
 20
-128.3625352326663
 10
77.52687850709398
 20
-128.0304280278882
 10
77.36392549064166
 20
-127.9839192388374
 10
77.24972057530563
 20
-127.9542914176642
 10
77.24972057530563
 20
-127.9542914176642
 10
77.24972057530563
 20
-127.8083916238639
 10
77.24972057530563
 20
-127.8083916238639
 10
77.24972057530563
 20
-127.8083916238639
 10
78.79398462656887
 20
-127.8083916238639
 10
78.79398462656887
 20
-127.8083916238639
 10
78.79398462656887
 20
-127.8083916238639
 10
78.79398462656887
 20
-128.0324950851794
 10
78.79398462656887
 20
-128.0324950851794
 97
        0
 97
        0
 75
     2
 76
     1
 98
        0
  0
SPLINE
  5
1D6
330
1D0
100
AcDbEntity
  8
_U+30EC_U+30A4_U+30E4_U+30FC 1
370
     0
100
AcDbSpline
210
0.0
220
0.0
230
1.0
 70
    11
 71
     3
 72
    29
 73
    25
 74
     0
 42
0.0000000001
 43
0.0000000001
 12
1.0
 22
0.0
 32
0.0
 13
1.0
 23
0.0
 33
0.0
 40
0.0
 40
0.0
 40
0.0
 40
0.0
 40
1.0
 40
1.0
 40
1.0
 40
2.0
 40
2.0
 40
2.0
 40
3.0
 40
3.0
 40
3.0
 40
4.0
 40
4.0
 40
4.0
 40
5.0
 40
5.0
 40
5.0
 40
6.0
 40
6.0
 40
6.0
 40
7.0
 40
7.0
 40
7.0
 40
8.0
 40
8.0
 40
8.0
 40
8.0
 10
78.61638995430424
 20
-126.4093383473039
 30
0.0
 10
78.82567950503316
 20
-126.5171698359922
 30
0.0
 10
78.8447997849763
 20
-126.6906303936746
 30
0.0
 10
78.8447997849763
 20
-126.807074621076
 30
0.0
 10
78.8447997849763
 20
-126.9677883254629
 30
0.0
 10
78.79829099592543
 20
-127.1095540046809
 30
0.0
 10
78.61638995430424
 20
-127.2048108948481
 30
0.0
 10
78.42174205938763
 20
-127.3083360141799
 30
0.0
 10
78.18471949000244
 20
-127.327456294123
 30
0.0
 10
78.02193872832439
 20
-127.327456294123
 30
0.0
 10
77.87793373704093
 20
-127.327456294123
 30
0.0
 10
77.62626951184343
 20
-127.3105753262453
 30
0.0
 10
77.42748750234452
 20
-127.2048108948481
 30
0.0
 10
77.22422686871478
 20
-127.0968071513855
 30
0.0
 10
77.20097247418934
 20
-126.9360934469986
 30
0.0
 10
77.20097247418934
 20
-126.807074621076
 30
0.0
 10
77.20097247418934
 20
-126.6484279739803
 30
0.0
 10
77.24541420594906
 20
-126.5045952374711
 30
0.0
 10
77.42748750234452
 20
-126.4093383473039
 30
0.0
 10
77.61989608519572
 20
-126.3099473425545
 30
0.0
 10
77.84830591586778
 20
-126.286692948029
 30
0.0
 10
78.02193872832439
 20
-126.286692948029
 30
0.0
 10
78.19315997394129
 20
-126.286692948029
 30
0.0
 10
78.42380911667877
 20
-126.3077080304891
 30
0.0
 10
78.61638995430424
 20
-126.4093383473039
 30
0.0
  0
SPLINE
  5
1D7
330
1D0
100
AcDbEntity
  8
_U+30EC_U+30A4_U+30E4_U+30FC 1
370
     0
100
AcDbSpline
210
0.0
220
0.0
230
1.0
 70
    11
 71
     3
 72
    17
 73
    13
 74
     0
 42
0.0000000001
 43
0.0000000001
 12
1.0
 22
0.0
 32
0.0
 13
1.0
 23
0.0
 33
0.0
 40
0.0
 40
0.0
 40
0.0
 40
0.0
 40
1.0
 40
1.0
 40
1.0
 40
2.0
 40
2.0
 40
2.0
 40
3.0
 40
3.0
 40
3.0
 40
4.0
 40
4.0
 40
4.0
 40
4.0
 10
77.39355331181481
 20
-126.807074621076
 30
0.0
 10
77.39355331181481
 20
-127.0566717889824
 30
0.0
 10
77.67708467025088
 20
-127.1031805780332
 30
0.0
 10
78.02193872832439
 20
-127.1031805780332
 30
0.0
 10
78.34129907980704
 20
-127.1031805780332
 30
0.0
 10
78.65015189005969
 20
-127.0671793302124
 30
0.0
 10
78.65015189005969
 20
-126.807074621076
 30
0.0
 10
78.65015189005969
 20
-126.5595445104608
 30
0.0
 10
78.36885984368904
 20
-126.5107964093445
 30
0.0
 10
78.02193872832439
 20
-126.5107964093445
 30
0.0
 10
77.70240612206746
 20
-126.5107964093445
 30
0.0
 10
77.39355331181481
 20
-126.5490369692308
 30
0.0
 10
77.39355331181481
 20
-126.807074621076
 30
0.0
  0
HATCH
  5
1D8
330
1D0
100
AcDbEntity
  8
_U+30EC_U+30A4_U+30E4_U+30FC 1
 62
   179
420
  2234388
100
AcDbHatch
 10
0.0
 20
0.0
 30
0.0
210
0.0
220
0.0
230
1.0
  2
SOLID
 70
     1
 71
     0
 91
        2
 92
        1
 93
        1
 72
     4
 94
        3
 73
     0
 74
     1
 95
       29
 96
       25
 40
0.0
 40
0.0
 40
0.0
 40
0.0
 40
1.0
 40
1.0
 40
1.0
 40
2.0
 40
2.0
 40
2.0
 40
3.0
 40
3.0
 40
3.0
 40
4.0
 40
4.0
 40
4.0
 40
5.0
 40
5.0
 40
5.0
 40
6.0
 40
6.0
 40
6.0
 40
7.0
 40
7.0
 40
7.0
 40
8.0
 40
8.0
 40
8.0
 40
8.0
 10
78.61638995430424
 20
-126.4093383473039
 10
78.82567950503316
 20
-126.5171698359922
 10
78.8447997849763
 20
-126.6906303936746
 10
78.8447997849763
 20
-126.807074621076
 10
78.8447997849763
 20
-126.9677883254629
 10
78.79829099592543
 20
-127.1095540046809
 10
78.61638995430424
 20
-127.2048108948481
 10
78.42174205938763
 20
-127.3083360141799
 10
78.18471949000244
 20
-127.327456294123
 10
78.02193872832439
 20
-127.327456294123
 10
77.87793373704093
 20
-127.327456294123
 10
77.62626951184343
 20
-127.3105753262453
 10
77.42748750234452
 20
-127.2048108948481
 10
77.22422686871478
 20
-127.0968071513855
 10
77.20097247418934
 20
-126.9360934469986
 10
77.20097247418934
 20
-126.807074621076
 10
77.20097247418934
 20
-126.6484279739803
 10
77.24541420594906
 20
-126.5045952374711
 10
77.42748750234452
 20
-126.4093383473039
 10
77.61989608519572
 20
-126.3099473425545
 10
77.84830591586778
 20
-126.286692948029
 10
78.02193872832439
 20
-126.286692948029
 10
78.19315997394129
 20
-126.286692948029
 10
78.42380911667877
 20
-126.3077080304891
 10
78.61638995430424
 20
-126.4093383473039
 97
        0
 97
        0
 92
        1
 93
        1
 72
     4
 94
        3
 73
     0
 74
     1
 95
       17
 96
       13
 40
0.0
 40
0.0
 40
0.0
 40
0.0
 40
1.0
 40
1.0
 40
1.0
 40
2.0
 40
2.0
 40
2.0
 40
3.0
 40
3.0
 40
3.0
 40
4.0
 40
4.0
 40
4.0
 40
4.0
 10
77.39355331181481
 20
-126.807074621076
 10
77.39355331181481
 20
-127.0566717889824
 10
77.67708467025088
 20
-127.1031805780332
 10
78.02193872832439
 20
-127.1031805780332
 10
78.34129907980704
 20
-127.1031805780332
 10
78.65015189005969
 20
-127.0671793302124
 10
78.65015189005969
 20
-126.807074621076
 10
78.65015189005969
 20
-126.5595445104608
 10
78.36885984368904
 20
-126.5107964093445
 10
78.02193872832439
 20
-126.5107964093445
 10
77.70240612206746
 20
-126.5107964093445
 10
77.39355331181481
 20
-126.5490369692308
 10
77.39355331181481
 20
-126.807074621076
 97
        0
 97
        0
 75
     2
 76
     1
 98
        0
  0
ENDBLK
  5
1D3
330
1D0
100
AcDbEntity
  8
0
100
AcDbBlockEnd
  0
BLOCK
  5
1DB
330
1D9
100
AcDbEntity
  8
0
100
AcDbBlockBegin
  2
block 32
 70
     0
 10
0.0
 20
0.0
 30
0.0
  3
block 32
  1

  0
SPLINE
  5
1DD
330
1D9
100
AcDbEntity
  8
_U+30EC_U+30A4_U+30E4_U+30FC 1
 62
   179
420
  2234388
370
    25
100
AcDbSpline
210
0.0
220
0.0
230
1.0
 70
    11
 71
     3
 72
    17
 73
    13
 74
     0
 42
0.0000000001
 43
0.0000000001
 12
1.0
 22
0.0
 32
0.0
 13
1.0
 23
0.0
 33
0.0
 40
0.0
 40
0.0
 40
0.0
 40
0.0
 40
1.0
 40
1.0
 40
1.0
 40
2.0
 40
2.0
 40
2.0
 40
3.0
 40
3.0
 40
3.0
 40
4.0
 40
4.0
 40
4.0
 40
4.0
 10
83.20182537734459
 20
-132.3950305224567
 30
0.0
 10
83.20182537734459
 20
-132.4143274668965
 30
0.0
 10
83.1859503777496
 20
-132.4301671891144
 30
0.0
 10
83.16633593380556
 20
-132.4301671891144
 30
0.0
 10
83.14703898985343
 20
-132.4301671891144
 30
0.0
 10
83.1311992680353
 20
-132.4143274668965
 30
0.0
 10
83.1311992680353
 20
-132.3950305224567
 30
0.0
 10
83.1311992680353
 20
-132.3757335780175
 30
0.0
 10
83.14703898985343
 20
-132.359893855799
 30
0.0
 10
83.16633593380556
 20
-132.359893855799
 30
0.0
 10
83.1859503777496
 20
-132.359893855799
 30
0.0
 10
83.20182537734459
 20
-132.3757335780175
 30
0.0
 10
83.20182537734459
 20
-132.3950305224567
 30
0.0
  0
ENDBLK
  5
1DC
330
1D9
100
AcDbEntity
  8
0
100
AcDbBlockEnd
  0
BLOCK
  5
1E0
330
1DE
100
AcDbEntity
  8
0
100
AcDbBlockBegin
  2
block 33
 70
     0
 10
0.0
 20
0.0
 30
0.0
  3
block 33
  1

  0
SPLINE
  5
1E2
330
1DE
100
AcDbEntity
  8
_U+30EC_U+30A4_U+30E4_U+30FC 1
 62
   179
420
  2234388
370
    25
100
AcDbSpline
210
0.0
220
0.0
230
1.0
 70
    11
 71
     3
 72
    17
 73
    13
 74
     0
 42
0.0000000001
 43
0.0000000001
 12
1.0
 22
0.0
 32
0.0
 13
1.0
 23
0.0
 33
0.0
 40
0.0
 40
0.0
 40
0.0
 40
0.0
 40
1.0
 40
1.0
 40
1.0
 40
2.0
 40
2.0
 40
2.0
 40
3.0
 40
3.0
 40
3.0
 40
4.0
 40
4.0
 40
4.0
 40
4.0
 10
89.70168521151936
 20
-122.3952974694011
 30
0.0
 10
89.70168521151936
 20
-122.4145944138409
 30
0.0
 10
89.68581021192436
 20
-122.4304341360592
 30
0.0
 10
89.6665485457491
 20
-122.4304341360592
 30
0.0
 10
89.64689882402818
 20
-122.4304341360592
 30
0.0
 10
89.63105910221006
 20
-122.4145944138409
 30
0.0
 10
89.63105910221006
 20
-122.3952974694011
 30
0.0
 10
89.63105910221006
 20
-122.3752949694061
 30
0.0
 10
89.64689882402818
 20
-122.3594552471879
 30
0.0
 10
89.6665485457491
 20
-122.3594552471879
 30
0.0
 10
89.68581021192436
 20
-122.3594552471879
 30
0.0
 10
89.70168521151936
 20
-122.3752949694061
 30
0.0
 10
89.70168521151936
 20
-122.3952974694011
 30
0.0
  0
ENDBLK
  5
1E1
330
1DE
100
AcDbEntity
  8
0
100
AcDbBlockEnd
  0
BLOCK
  5
1E5
330
1E3
100
AcDbEntity
  8
0
100
AcDbBlockBegin
  2
block 34
 70
     0
 10
0.0
 20
0.0
 30
0.0
  3
block 34
  1

  0
SPLINE
  5
1E7
330
1E3
100
AcDbEntity
  8
_U+30EC_U+30A4_U+30E4_U+30FC 1
 62
   179
420
  2234388
370
     9
100
AcDbSpline
210
0.0
220
0.0
230
1.0
 70
    11
 71
     3
 72
    17
 73
    13
 74
     0
 42
0.0000000001
 43
0.0000000001
 12
1.0
 22
0.0
 32
0.0
 13
1.0
 23
0.0
 33
0.0
 40
0.0
 40
0.0
 40
0.0
 40
0.0
 40
1.0
 40
1.0
 40
1.0
 40
2.0
 40
2.0
 40
2.0
 40
3.0
 40
3.0
 40
3.0
 40
4.0
 40
4.0
 40
4.0
 40
4.0
 10
79.20171353495151
 20
-122.3952974694011
 30
0.0
 10
79.20171353495151
 20
-122.4145944138409
 30
0.0
 10
79.18587381313338
 20
-122.4304341360592
 30
0.0
 10
79.16657686918126
 20
-122.4304341360592
 30
0.0
 10
79.14692714746033
 20
-122.4304341360592
 30
0.0
 10
79.13108742564222
 20
-122.4145944138409
 30
0.0
 10
79.13108742564222
 20
-122.3952974694011
 30
0.0
 10
79.13108742564222
 20
-122.3752949694061
 30
0.0
 10
79.14692714746033
 20
-122.3594552471879
 30
0.0
 10
79.16657686918126
 20
-122.3594552471879
 30
0.0
 10
79.18587381313338
 20
-122.3594552471879
 30
0.0
 10
79.20171353495151
 20
-122.3752949694061
 30
0.0
 10
79.20171353495151
 20
-122.3952974694011
 30
0.0
  0
ENDBLK
  5
1E6
330
1E3
100
AcDbEntity
  8
0
100
AcDbBlockEnd
  0
ENDSEC
  0
SECTION
  2
ENTITIES
  0
INSERT
  5
42
330
1F
100
AcDbEntity
  8
_U+30EC_U+30A4_U+30E4_U+30FC 1
100
AcDbBlockReference
  2
block 2
 10
0.0
 20
0.0
 30
0.0
  0
INSERT
  5
4C
330
1F
100
AcDbEntity
  8
_U+30EC_U+30A4_U+30E4_U+30FC 1
100
AcDbBlockReference
  2
block 4
 10
0.0
 20
0.0
 30
0.0
  0
ENDSEC
  0
SECTION
  2
OBJECTS
  0
DICTIONARY
  5
C
330
0
100
AcDbDictionary
281
     1
  3
ACAD_GROUP
350
D
  3
ACAD_LAYOUT
350
1A
  3
ACAD_MATERIAL
350
3B
  3
ACAD_MLEADERSTYLE
350
1E9
  3
ACAD_MLINESTYLE
350
17
  3
ACAD_PLOTSETTINGS
350
19
  3
ACAD_PLOTSTYLENAME
350
E
  3
ACAD_TABLESTYLE
350
1E8
  3
ACAD_VISUALSTYLE
350
2A
  0
SUN
  5
3F
330
29
100
AcDbSun
 90
        1
290
     0
 63
     7
421
 16777215
 40
1.0
291
     1
 91
  2455826
 92
 54000000
292
     0
 70
     2
 71
   256
280
     1
  0
DICTIONARY
  5
D
102
{ACAD_REACTORS
330
C
102
}
330
C
100
AcDbDictionary
281
     1
  0
DICTIONARY
  5
1A
102
{ACAD_REACTORS
330
C
102
}
330
C
100
AcDbDictionary
281
     1
  3
Layout1
350
1E
  3
Layout2
350
26
  3
Model
350
22
  0
DICTIONARY
  5
3B
102
{ACAD_REACTORS
330
C
102
}
330
C
100
AcDbDictionary
281
     1
  3
ByBlock
350
3D
  3
ByLayer
350
3C
  3
Global
350
3E
  0
DICTIONARY
  5
1E9
102
{ACAD_REACTORS
330
C
102
}
330
C
100
AcDbDictionary
281
     1
  0
DICTIONARY
  5
17
102
{ACAD_REACTORS
330
C
102
}
330
C
100
AcDbDictionary
281
     1
  3
Standard
350
18
  0
DICTIONARY
  5
19
102
{ACAD_REACTORS
330
C
102
}
330
C
100
AcDbDictionary
281
     1
  0
ACDBDICTIONARYWDFLT
  5
E
102
{ACAD_REACTORS
330
C
102
}
330
C
100
AcDbDictionary
281
     1
  3
Normal
350
F
100
AcDbDictionaryWithDefault
340
F
  0
DICTIONARY
  5
1E8
102
{ACAD_REACTORS
330
C
102
}
330
C
100
AcDbDictionary
281
     1
  0
DICTIONARY
  5
2A
102
{ACAD_REACTORS
330
C
102
}
330
C
100
AcDbDictionary
281
     1
  3
2dWireframe
350
2F
  3
3D Hidden
350
31
  3
3dWireframe
350
30
  3
Basic
350
32
  3
Brighten
350
36
  3
ColorChange
350
3A
  3
Conceptual
350
34
  3
Dim
350
35
  3
Facepattern
350
39
  3
Flat
350
2B
  3
FlatWithEdges
350
2C
  3
Gouraud
350
2D
  3
GouraudWithEdges
350
2E
  3
Linepattern
350
38
  3
Realistic
350
33
  3
Thicken
350
37
  0
LAYOUT
  5
1E
102
{ACAD_REACTORS
330
1A
102
}
330
1A
100
AcDbPlotSettings
  1

  2
none_device
  4

  6

 40
0.0
 41
0.0
 42
0.0
 43
0.0
 44
0.0
 45
0.0
 46
0.0
 47
0.0
 48
0.0
 49
0.0
140
0.0
141
0.0
142
1.0
143
1.0
 70
   688
 72
     0
 73
     0
 74
     5
  7

 75
    16
 76
     0
 77
     2
 78
   300
147
1.0
148
0.0
149
0.0
100
AcDbLayout
  1
Layout1
 70
     1
 71
     1
 10
0.0
 20
0.0
 11
12.0
 21
9.0
 12
0.0
 22
0.0
 32
0.0
 14
1.000000000000000E+20
 24
1.000000000000000E+20
 34
1.000000000000000E+20
 15
-1.000000000000000E+20
 25
-1.000000000000000E+20
 35
-1.000000000000000E+20
146
0.0
 13
0.0
 23
0.0
 33
0.0
 16
1.0
 26
0.0
 36
0.0
 17
0.0
 27
1.0
 37
0.0
 76
     0
330
1B
  0
LAYOUT
  5
26
102
{ACAD_REACTORS
330
1A
102
}
330
1A
100
AcDbPlotSettings
  1

  2
none_device
  4

  6

 40
0.0
 41
0.0
 42
0.0
 43
0.0
 44
0.0
 45
0.0
 46
0.0
 47
0.0
 48
0.0
 49
0.0
140
0.0
141
0.0
142
1.0
143
1.0
 70
   688
 72
     0
 73
     0
 74
     5
  7

 75
    16
 76
     0
 77
     2
 78
   300
147
1.0
148
0.0
149
0.0
100
AcDbLayout
  1
Layout2
 70
     1
 71
     2
 10
0.0
 20
0.0
 11
0.0
 21
0.0
 12
0.0
 22
0.0
 32
0.0
 14
0.0
 24
0.0
 34
0.0
 15
0.0
 25
0.0
 35
0.0
146
0.0
 13
0.0
 23
0.0
 33
0.0
 16
1.0
 26
0.0
 36
0.0
 17
0.0
 27
1.0
 37
0.0
 76
     0
330
23
  0
LAYOUT
  5
22
102
{ACAD_REACTORS
330
1A
102
}
330
1A
100
AcDbPlotSettings
  1

  2
none_device
  4

  6

 40
0.0
 41
0.0
 42
0.0
 43
0.0
 44
0.0
 45
0.0
 46
0.0
 47
0.0
 48
0.0
 49
0.0
140
0.0
141
0.0
142
1.0
143
1.0
 70
  1712
 72
     0
 73
     0
 74
     0
  7

 75
     0
 76
     0
 77
     2
 78
   300
147
1.0
148
0.0
149
0.0
100
AcDbLayout
  1
Model
 70
     1
 71
     0
 10
0.0
 20
0.0
 11
12.0
 21
9.0
 12
0.0
 22
0.0
 32
0.0
 14
1.000000000000000E+20
 24
1.000000000000000E+20
 34
1.000000000000000E+20
 15
-1.000000000000000E+20
 25
-1.000000000000000E+20
 35
-1.000000000000000E+20
146
0.0
 13
0.0
 23
0.0
 33
0.0
 16
1.0
 26
0.0
 36
0.0
 17
0.0
 27
1.0
 37
0.0
 76
     0
330
1F
331
29
  0
MATERIAL
  5
3D
102
{ACAD_REACTORS
330
3B
102
}
330
3B
100
AcDbMaterial
  1
ByBlock
 72
     1
 94
      127
  0
MATERIAL
  5
3C
102
{ACAD_REACTORS
330
3B
102
}
330
3B
100
AcDbMaterial
  1
ByLayer
 72
     1
 94
      127
  0
MATERIAL
  5
3E
102
{ACAD_REACTORS
330
3B
102
}
330
3B
100
AcDbMaterial
  1
Global
 72
     1
 94
      127
  0
MLINESTYLE
  5
18
102
{ACAD_REACTORS
330
17
102
}
330
17
100
AcDbMlineStyle
  2
Standard
 70
     0
  3

 62
   256
 51
90.0
 52
90.0
 71
     2
 49
0.5
 62
   256
  6
BYLAYER
 49
-0.5
 62
   256
  6
BYLAYER
  0
ACDBPLACEHOLDER
  5
F
102
{ACAD_REACTORS
330
E
102
}
330
E
  0
VISUALSTYLE
  5
2F
102
{ACAD_REACTORS
330
2A
102
}
330
2A
100
AcDbVisualStyle
  2
2dWireframe
 70
     4
177
     2
291
     0
 71
     0
176
     1
 72
     2
176
     1
 73
     0
176
     1
 90
        0
176
     1
 40
-0.6
176
     1
 41
-30.0
176
     1
 62
     5
 63
     7
421
 16777215
176
     1
 74
     1
176
     1
 91
        4
176
     1
 64
     7
176
     1
 65
   257
176
     1
 75
     1
176
     1
175
     1
176
     1
 42
1.0
176
     1
 92
        0
176
     1
 66
   257
176
     1
 43
1.0
176
     1
 76
     1
176
     1
 77
     6
176
     1
 78
     2
176
     1
 67
     7
176
     1
 79
     5
176
     1
170
     0
176
     1
171
     0
176
     1
290
     0
176
     1
 93
        1
176
     1
 44
0.0
176
     1
173
     0
176
     1
  0
VISUALSTYLE
  5
31
102
{ACAD_REACTORS
330
2A
102
}
330
2A
100
AcDbVisualStyle
  2
3D Hidden
 70
     6
177
     2
291
     0
 71
     1
176
     1
 72
     2
176
     1
 73
     2
176
     1
 90
        0
176
     1
 40
-0.6
176
     1
 41
-30.0
176
     1
 62
     5
 63
     7
421
 16777215
176
     1
 74
     2
176
     1
 91
        2
176
     1
 64
     7
176
     1
 65
   257
176
     1
 75
     2
176
     1
175
     1
176
     1
 42
40.0
176
     1
 92
        0
176
     1
 66
   257
176
     1
 43
1.0
176
     1
 76
     1
176
     1
 77
     6
176
     1
 78
     2
176
     1
 67
     7
176
     1
 79
     3
176
     1
170
     0
176
     1
171
     0
176
     1
290
     0
176
     1
 93
        1
176
     1
 44
0.0
176
     1
173
     0
176
     1
  0
VISUALSTYLE
  5
30
102
{ACAD_REACTORS
330
2A
102
}
330
2A
100
AcDbVisualStyle
  2
3dWireframe
 70
     5
177
     2
291
     0
 71
     0
176
     1
 72
     2
176
     1
 73
     0
176
     1
 90
        0
176
     1
 40
-0.6
176
     1
 41
-30.0
176
     1
 62
     5
 63
     7
421
 16777215
176
     1
 74
     1
176
     1
 91
        4
176
     1
 64
     7
176
     1
 65
   257
176
     1
 75
     1
176
     1
175
     1
176
     1
 42
1.0
176
     1
 92
        0
176
     1
 66
   257
176
     1
 43
1.0
176
     1
 76
     1
176
     1
 77
     6
176
     1
 78
     2
176
     1
 67
     7
176
     1
 79
     5
176
     1
170
     0
176
     1
171
     0
176
     1
290
     0
176
     1
 93
        1
176
     1
 44
0.0
176
     1
173
     0
176
     1
  0
VISUALSTYLE
  5
32
102
{ACAD_REACTORS
330
2A
102
}
330
2A
100
AcDbVisualStyle
  2
Basic
 70
     7
177
     2
291
     1
 71
     1
176
     1
 72
     0
176
     1
 73
     1
176
     1
 90
        0
176
     1
 40
-0.6
176
     1
 41
-30.0
176
     1
 62
     5
 63
     7
421
 16777215
176
     1
 74
     0
176
     1
 91
        4
176
     1
 64
     7
176
     1
 65
   257
176
     1
 75
     1
176
     1
175
     1
176
     1
 42
1.0
176
     1
 92
        8
176
     1
 66
     7
176
     1
 43
1.0
176
     1
 76
     1
176
     1
 77
     6
176
     1
 78
     2
176
     1
 67
     7
176
     1
 79
     5
176
     1
170
     0
176
     1
171
     0
176
     1
290
     0
176
     1
 93
        1
176
     1
 44
0.0
176
     1
173
     0
176
     1
  0
VISUALSTYLE
  5
36
102
{ACAD_REACTORS
330
2A
102
}
330
2A
100
AcDbVisualStyle
  2
Brighten
 70
    12
177
     2
291
     1
 71
     2
176
     1
 72
     2
176
     1
 73
     0
176
     1
 90
        0
176
     1
 40
-0.6
176
     1
 41
-30.0
176
     1
 62
     5
 63
     7
421
 16777215
176
     1
 74
     1
176
     1
 91
        4
176
     1
 64
     7
176
     1
 65
   257
176
     1
 75
     1
176
     1
175
     1
176
     1
 42
1.0
176
     1
 92
        8
176
     1
 66
     7
176
     1
 43
1.0
176
     1
 76
     1
176
     1
 77
     6
176
     1
 78
     2
176
     1
 67
     7
176
     1
 79
     5
176
     1
170
     0
176
     1
171
     0
176
     1
290
     0
176
     1
 93
        1
176
     1
 44
50.0
176
     1
173
     0
176
     1
  0
VISUALSTYLE
  5
3A
102
{ACAD_REACTORS
330
2A
102
}
330
2A
100
AcDbVisualStyle
  2
ColorChange
 70
    16
177
     2
291
     1
 71
     2
176
     1
 72
     2
176
     1
 73
     3
176
     1
 90
        0
176
     1
 40
-0.6
176
     1
 41
-30.0
176
     1
 62
     5
 63
     8
421
  8421504
176
     1
 74
     1
176
     1
 91
        4
176
     1
 64
     7
176
     1
 65
   257
176
     1
 75
     1
176
     1
175
     1
176
     1
 42
1.0
176
     1
 92
        8
176
     1
 66
     8
424
  8421504
176
     1
 43
1.0
176
     1
 76
     1
176
     1
 77
     6
176
     1
 78
     2
176
     1
 67
     7
176
     1
 79
     5
176
     1
170
     0
176
     1
171
     0
176
     1
290
     0
176
     1
 93
        1
176
     1
 44
0.0
176
     1
173
     0
176
     1
  0
VISUALSTYLE
  5
34
102
{ACAD_REACTORS
330
2A
102
}
330
2A
100
AcDbVisualStyle
  2
Conceptual
 70
     9
177
     2
291
     0
 71
     3
176
     1
 72
     2
176
     1
 73
     0
176
     1
 90
        0
176
     1
 40
-0.6
176
     1
 41
-30.0
176
     1
 62
     5
 63
     7
421
 16777215
176
     1
 74
     2
176
     1
 91
        2
176
     1
 64
     7
176
     1
 65
   257
176
     1
 75
     1
176
     1
175
     1
176
     1
 42
40.0
176
     1
 92
        8
176
     1
 66
     7
176
     1
 43
1.0
176
     1
 76
     1
176
     1
 77
     6
176
     1
 78
     2
176
     1
 67
     7
176
     1
 79
     3
176
     1
170
     0
176
     1
171
     0
176
     1
290
     0
176
     1
 93
        1
176
     1
 44
0.0
176
     1
173
     0
176
     1
  0
VISUALSTYLE
  5
35
102
{ACAD_REACTORS
330
2A
102
}
330
2A
100
AcDbVisualStyle
  2
Dim
 70
    11
177
     2
291
     1
 71
     2
176
     1
 72
     2
176
     1
 73
     0
176
     1
 90
        0
176
     1
 40
-0.6
176
     1
 41
-30.0
176
     1
 62
     5
 63
     7
421
 16777215
176
     1
 74
     1
176
     1
 91
        4
176
     1
 64
     7
176
     1
 65
   257
176
     1
 75
     1
176
     1
175
     1
176
     1
 42
1.0
176
     1
 92
        8
176
     1
 66
     7
176
     1
 43
1.0
176
     1
 76
     1
176
     1
 77
     6
176
     1
 78
     2
176
     1
 67
     7
176
     1
 79
     5
176
     1
170
     0
176
     1
171
     0
176
     1
290
     0
176
     1
 93
        1
176
     1
 44
-50.0
176
     1
173
     0
176
     1
  0
VISUALSTYLE
  5
39
102
{ACAD_REACTORS
330
2A
102
}
330
2A
100
AcDbVisualStyle
  2
Facepattern
 70
    15
177
     2
291
     1
 71
     2
176
     1
 72
     2
176
     1
 73
     0
176
     1
 90
        0
176
     1
 40
-0.6
176
     1
 41
-30.0
176
     1
 62
     5
 63
     7
421
 16777215
176
     1
 74
     1
176
     1
 91
        4
176
     1
 64
     7
176
     1
 65
   257
176
     1
 75
     1
176
     1
175
     1
176
     1
 42
1.0
176
     1
 92
        8
176
     1
 66
     7
176
     1
 43
1.0
176
     1
 76
     1
176
     1
 77
     6
176
     1
 78
     2
176
     1
 67
     7
176
     1
 79
     5
176
     1
170
     0
176
     1
171
     0
176
     1
290
     0
176
     1
 93
        1
176
     1
 44
0.0
176
     1
173
     0
176
     1
  0
VISUALSTYLE
  5
2B
102
{ACAD_REACTORS
330
2A
102
}
330
2A
100
AcDbVisualStyle
  2
Flat
 70
     0
177
     2
291
     1
 71
     2
176
     1
 72
     1
176
     1
 73
     1
176
     1
 90
        2
176
     1
 40
-0.6
176
     1
 41
30.0
176
     1
 62
     5
 63
     7
421
 16777215
176
     1
 74
     0
176
     1
 91
        4
176
     1
 64
     7
176
     1
 65
   257
176
     1
 75
     1
176
     1
175
     1
176
     1
 42
1.0
176
     1
 92
        8
176
     1
 66
     7
176
     1
 43
1.0
176
     1
 76
     1
176
     1
 77
     6
176
     1
 78
     2
176
     1
 67
     7
176
     1
 79
     5
176
     1
170
     0
176
     1
171
     0
176
     1
290
     0
176
     1
 93
       13
176
     1
 44
0.0
176
     1
173
     0
176
     1
  0
VISUALSTYLE
  5
2C
102
{ACAD_REACTORS
330
2A
102
}
330
2A
100
AcDbVisualStyle
  2
FlatWithEdges
 70
     1
177
     2
291
     1
 71
     2
176
     1
 72
     1
176
     1
 73
     1
176
     1
 90
        2
176
     1
 40
-0.6
176
     1
 41
30.0
176
     1
 62
     5
 63
     7
421
 16777215
176
     1
 74
     1
176
     1
 91
        4
176
     1
 64
     7
176
     1
 65
   257
176
     1
 75
     1
176
     1
175
     1
176
     1
 42
1.0
176
     1
 92
        0
176
     1
 66
   257
176
     1
 43
1.0
176
     1
 76
     1
176
     1
 77
     6
176
     1
 78
     2
176
     1
 67
     7
176
     1
 79
     5
176
     1
170
     0
176
     1
171
     0
176
     1
290
     0
176
     1
 93
       13
176
     1
 44
0.0
176
     1
173
     0
176
     1
  0
VISUALSTYLE
  5
2D
102
{ACAD_REACTORS
330
2A
102
}
330
2A
100
AcDbVisualStyle
  2
Gouraud
 70
     2
177
     2
291
     1
 71
     2
176
     1
 72
     2
176
     1
 73
     1
176
     1
 90
        2
176
     1
 40
-0.6
176
     1
 41
30.0
176
     1
 62
     5
 63
     7
421
 16777215
176
     1
 74
     0
176
     1
 91
        4
176
     1
 64
     7
176
     1
 65
   257
176
     1
 75
     1
176
     1
175
     1
176
     1
 42
1.0
176
     1
 92
        0
176
     1
 66
     7
176
     1
 43
1.0
176
     1
 76
     1
176
     1
 77
     6
176
     1
 78
     2
176
     1
 67
     7
176
     1
 79
     5
176
     1
170
     0
176
     1
171
     0
176
     1
290
     0
176
     1
 93
       13
176
     1
 44
0.0
176
     1
173
     0
176
     1
  0
VISUALSTYLE
  5
2E
102
{ACAD_REACTORS
330
2A
102
}
330
2A
100
AcDbVisualStyle
  2
GouraudWithEdges
 70
     3
177
     2
291
     1
 71
     2
176
     1
 72
     2
176
     1
 73
     1
176
     1
 90
        2
176
     1
 40
-0.6
176
     1
 41
30.0
176
     1
 62
     5
 63
     7
421
 16777215
176
     1
 74
     1
176
     1
 91
        4
176
     1
 64
     7
176
     1
 65
   257
176
     1
 75
     1
176
     1
175
     1
176
     1
 42
1.0
176
     1
 92
        0
176
     1
 66
   257
176
     1
 43
1.0
176
     1
 76
     1
176
     1
 77
     6
176
     1
 78
     2
176
     1
 67
     7
176
     1
 79
     5
176
     1
170
     0
176
     1
171
     0
176
     1
290
     0
176
     1
 93
       13
176
     1
 44
0.0
176
     1
173
     0
176
     1
  0
VISUALSTYLE
  5
38
102
{ACAD_REACTORS
330
2A
102
}
330
2A
100
AcDbVisualStyle
  2
Linepattern
 70
    14
177
     2
291
     1
 71
     2
176
     1
 72
     2
176
     1
 73
     0
176
     1
 90
        0
176
     1
 40
-0.6
176
     1
 41
-30.0
176
     1
 62
     5
 63
     7
421
 16777215
176
     1
 74
     1
176
     1
 91
        4
176
     1
 64
     7
176
     1
 65
   257
176
     1
 75
     7
176
     1
175
     7
176
     1
 42
1.0
176
     1
 92
        8
176
     1
 66
     7
176
     1
 43
1.0
176
     1
 76
     1
176
     1
 77
     6
176
     1
 78
     2
176
     1
 67
     7
176
     1
 79
     5
176
     1
170
     0
176
     1
171
     0
176
     1
290
     0
176
     1
 93
        1
176
     1
 44
0.0
176
     1
173
     0
176
     1
  0
VISUALSTYLE
  5
33
102
{ACAD_REACTORS
330
2A
102
}
330
2A
100
AcDbVisualStyle
  2
Realistic
 70
     8
177
     2
291
     0
 71
     2
176
     1
 72
     2
176
     1
 73
     0
176
     1
 90
        0
176
     1
 40
-0.6
176
     1
 41
-30.0
176
     1
 62
     5
 63
     7
421
 16777215
176
     1
 74
     1
176
     1
 91
        0
176
     1
 64
     7
176
     1
 65
   257
176
     1
 75
     1
176
     1
175
     1
176
     1
 42
1.0
176
     1
 92
        8
176
     1
 66
     8
424
  7895160
176
     1
 43
1.0
176
     1
 76
     1
176
     1
 77
     6
176
     1
 78
     2
176
     1
 67
     7
176
     1
 79
     5
176
     1
170
     0
176
     1
171
     0
176
     1
290
     0
176
     1
 93
       13
176
     1
 44
0.0
176
     1
173
     0
176
     1
  0
VISUALSTYLE
  5
37
102
{ACAD_REACTORS
330
2A
102
}
330
2A
100
AcDbVisualStyle
  2
Thicken
 70
    13
177
     2
291
     1
 71
     2
176
     1
 72
     2
176
     1
 73
     0
176
     1
 90
        0
176
     1
 40
-0.6
176
     1
 41
-30.0
176
     1
 62
     5
 63
     7
421
 16777215
176
     1
 74
     1
176
     1
 91
        4
176
     1
 64
     7
176
     1
 65
   257
176
     1
 75
     1
176
     1
175
     1
176
     1
 42
1.0
176
     1
 92
       12
176
     1
 66
     7
176
     1
 43
1.0
176
     1
 76
     1
176
     1
 77
     6
176
     1
 78
     2
176
     1
 67
     7
176
     1
 79
     5
176
     1
170
     0
176
     1
171
     0
176
     1
290
     0
176
     1
 93
        1
176
     1
 44
0.0
176
     1
173
     0
176
     1
  0
ENDSEC
  0
EOF
