  0
SECTION
  2
HEADER
  9
$ACADVER
  1
AC1024
  9
$ACADMAINTVER
 70
     6
  9
$DWGCODEPAGE
  3
UNDEFINED
  9
$INSBASE
 10
0.0
 20
0.0
 30
0.0
  9
$EXTMIN
 10
1.000000000000000E+20
 20
1.000000000000000E+20
 30
1.000000000000000E+20
  9
$EXTMAX
 10
-1.000000000000000E+20
 20
-1.000000000000000E+20
 30
-1.000000000000000E+20
  9
$LIMMIN
 10
0.0
 20
0.0
  9
$LIMMAX
 10
12.0
 20
9.0
  9
$ORTHOMODE
 70
     0
  9
$REGENMODE
 70
     1
  9
$FILLMODE
 70
     1
  9
$QTEXTMODE
 70
     0
  9
$MIRRTEXT
 70
     1
  9
$LTSCALE
 40
1.0
  9
$ATTMODE
 70
     1
  9
$TEXTSIZE
 40
0.2
  9
$TRACEWID
 40
0.05
  9
$TEXTSTYLE
  7
Standard
  9
$CLAYER
  8
0
  9
$CELTYPE
  6
ByLayer
  9
$CECOLOR
 62
   256
  9
$CELTSCALE
 40
1.0
  9
$DISPSILH
 70
     0
  9
$DIMSCALE
 40
1.0
  9
$DIMASZ
 40
0.18
  9
$DIMEXO
 40
0.0625
  9
$DIMDLI
 40
0.38
  9
$DIMRND
 40
0.0
  9
$DIMDLE
 40
0.0
  9
$DIMEXE
 40
0.18
  9
$DIMTP
 40
0.0
  9
$DIMTM
 40
0.0
  9
$DIMTXT
 40
0.18
  9
$DIMCEN
 40
0.09
  9
$DIMTSZ
 40
0.0
  9
$DIMTOL
 70
     0
  9
$DIMLIM
 70
     0
  9
$DIMTIH
 70
     1
  9
$DIMTOH
 70
     1
  9
$DIMSE1
 70
     0
  9
$DIMSE2
 70
     0
  9
$DIMTAD
 70
     0
  9
$DIMZIN
 70
     0
  9
$DIMBLK
  1

  9
$DIMASO
 70
     1
  9
$DIMSHO
 70
     1
  9
$DIMPOST
  1

  9
$DIMAPOST
  1

  9
$DIMALT
 70
     0
  9
$DIMALTD
 70
     2
  9
$DIMALTF
 40
25.4
  9
$DIMLFAC
 40
1.0
  9
$DIMTOFL
 70
     0
  9
$DIMTVP
 40
0.0
  9
$DIMTIX
 70
     0
  9
$DIMSOXD
 70
     0
  9
$DIMSAH
 70
     0
  9
$DIMBLK1
  1

  9
$DIMBLK2
  1

  9
$DIMSTYLE
  2
Standard
  9
$DIMCLRD
 70
     0
  9
$DIMCLRE
 70
     0
  9
$DIMCLRT
 70
     0
  9
$DIMTFAC
 40
1.0
  9
$DIMGAP
 40
0.09
  9
$DIMJUST
 70
     0
  9
$DIMSD1
 70
     0
  9
$DIMSD2
 70
     0
  9
$DIMTOLJ
 70
     1
  9
$DIMTZIN
 70
     0
  9
$DIMALTZ
 70
     0
  9
$DIMALTTZ
 70
     0
  9
$DIMUPT
 70
     0
  9
$DIMDEC
 70
     4
  9
$DIMTDEC
 70
     4
  9
$DIMALTU
 70
     2
  9
$DIMALTTD
 70
     2
  9
$DIMTXSTY
  7
Standard
  9
$DIMAUNIT
 70
     0
  9
$DIMADEC
 70
     0
  9
$DIMALTRND
 40
0.0
  9
$DIMAZIN
 70
     0
  9
$DIMDSEP
 70
    46
  9
$DIMATFIT
 70
     3
  9
$DIMFRAC
 70
     0
  9
$DIMLDRBLK
  1

  9
$DIMLUNIT
 70
     2
  9
$DIMLWD
 70
    -2
  9
$DIMLWE
 70
    -2
  9
$DIMTMOVE
 70
     0
  9
$DIMFXL
 40
1.0
  9
$DIMFXLON
 70
     0
  9
$DIMJOGANG
 40
0.7853981633974483
  9
$DIMTFILL
 70
     0
  9
$DIMTFILLCLR
 70
     0
  9
$DIMARCSYM
 70
     0
  9
$DIMLTYPE
  6

  9
$DIMLTEX1
  6

  9
$DIMLTEX2
  6

  9
$DIMTXTDIRECTION
 70
     0
  9
$LUNITS
 70
     2
  9
$LUPREC
 70
     4
  9
$SKETCHINC
 40
0.1
  9
$FILLETRAD
 40
0.5
  9
$AUNITS
 70
     0
  9
$AUPREC
 70
     0
  9
$MENU
  1
.
  9
$ELEVATION
 40
0.0
  9
$PELEVATION
 40
0.0
  9
$THICKNESS
 40
0.0
  9
$LIMCHECK
 70
     0
  9
$CHAMFERA
 40
0.5
  9
$CHAMFERB
 40
0.5
  9
$CHAMFERC
 40
1.0
  9
$CHAMFERD
 40
0.0
  9
$SKPOLY
 70
     0
  9
$TDCREATE
 40
2457917.628715266
  9
$TDUCREATE
 40
2457917.253715278
  9
$TDUPDATE
 40
2457917.628715266
  9
$TDUUPDATE
 40
2457917.253715278
  9
$TDINDWG
 40
0.0000000116
  9
$TDUSRTIMER
 40
0.0000000116
  9
$USRTIMER
 70
     1
  9
$ANGBASE
 50
0.0
  9
$ANGDIR
 70
     0
  9
$PDMODE
 70
     0
  9
$PDSIZE
 40
0.0
  9
$PLINEWID
 40
0.0
  9
$SPLFRAME
 70
     0
  9
$SPLINETYPE
 70
     6
  9
$SPLINESEGS
 70
     8
  9
$HANDSEED
  5
200
  9
$SURFTAB1
 70
     6
  9
$SURFTAB2
 70
     6
  9
$SURFTYPE
 70
     6
  9
$SURFU
 70
     6
  9
$SURFV
 70
     6
  9
$UCSBASE
  2

  9
$UCSNAME
  2

  9
$UCSORG
 10
0.0
 20
0.0
 30
0.0
  9
$UCSXDIR
 10
1.0
 20
0.0
 30
0.0
  9
$UCSYDIR
 10
0.0
 20
1.0
 30
0.0
  9
$UCSORTHOREF
  2

  9
$UCSORTHOVIEW
 70
     0
  9
$UCSORGTOP
 10
0.0
 20
0.0
 30
0.0
  9
$UCSORGBOTTOM
 10
0.0
 20
0.0
 30
0.0
  9
$UCSORGLEFT
 10
0.0
 20
0.0
 30
0.0
  9
$UCSORGRIGHT
 10
0.0
 20
0.0
 30
0.0
  9
$UCSORGFRONT
 10
0.0
 20
0.0
 30
0.0
  9
$UCSORGBACK
 10
0.0
 20
0.0
 30
0.0
  9
$PUCSBASE
  2

  9
$PUCSNAME
  2

  9
$PUCSORG
 10
0.0
 20
0.0
 30
0.0
  9
$PUCSXDIR
 10
1.0
 20
0.0
 30
0.0
  9
$PUCSYDIR
 10
0.0
 20
1.0
 30
0.0
  9
$PUCSORTHOREF
  2

  9
$PUCSORTHOVIEW
 70
     0
  9
$PUCSORGTOP
 10
0.0
 20
0.0
 30
0.0
  9
$PUCSORGBOTTOM
 10
0.0
 20
0.0
 30
0.0
  9
$PUCSORGLEFT
 10
0.0
 20
0.0
 30
0.0
  9
$PUCSORGRIGHT
 10
0.0
 20
0.0
 30
0.0
  9
$PUCSORGFRONT
 10
0.0
 20
0.0
 30
0.0
  9
$PUCSORGBACK
 10
0.0
 20
0.0
 30
0.0
  9
$USERI1
 70
     0
  9
$USERI2
 70
     0
  9
$USERI3
 70
     0
  9
$USERI4
 70
     0
  9
$USERI5
 70
     0
  9
$USERR1
 40
0.0
  9
$USERR2
 40
0.0
  9
$USERR3
 40
0.0
  9
$USERR4
 40
0.0
  9
$USERR5
 40
0.0
  9
$WORLDVIEW
 70
     1
  9
$SHADEDGE
 70
     3
  9
$SHADEDIF
 70
    70
  9
$TILEMODE
 70
     1
  9
$MAXACTVP
 70
    64
  9
$PINSBASE
 10
0.0
 20
0.0
 30
0.0
  9
$PLIMCHECK
 70
     0
  9
$PEXTMIN
 10
1.000000000000000E+20
 20
1.000000000000000E+20
 30
1.000000000000000E+20
  9
$PEXTMAX
 10
-1.000000000000000E+20
 20
-1.000000000000000E+20
 30
-1.000000000000000E+20
  9
$PLIMMIN
 10
0.0
 20
0.0
  9
$PLIMMAX
 10
12.0
 20
9.0
  9
$UNITMODE
 70
     0
  9
$VISRETAIN
 70
     1
  9
$PLINEGEN
 70
     0
  9
$PSLTSCALE
 70
     1
  9
$TREEDEPTH
 70
  3020
  9
$CMLSTYLE
  2
Standard
  9
$CMLJUST
 70
     0
  9
$CMLSCALE
 40
1.0
  9
$PROXYGRAPHICS
 70
     1
  9
$MEASUREMENT
 70
     0
  9
$CELWEIGHT
370
    -1
  9
$ENDCAPS
280
     0
  9
$JOINSTYLE
280
     0
  9
$LWDISPLAY
290
     1
  9
$INSUNITS
 70
     1
  9
$HYPERLINKBASE
  1

  9
$STYLESHEET
  1

  9
$XEDIT
290
     1
  9
$CEPSNTYPE
380
     0
  9
$PSTYLEMODE
290
     1
  9
$FINGERPRINTGUID
  2
{259B5C52-2B24-6324-436B-E6FD42E563F0}
  9
$VERSIONGUID
  2
{FAEB1C32-E019-11D5-929B-00C0DF256EC4}
  9
$EXTNAMES
290
     1
  9
$PSVPSCALE
 40
0.0
  9
$OLESTARTUP
290
     0
  9
$SORTENTS
280
   127
  9
$INDEXCTL
280
     0
  9
$HIDETEXT
280
     1
  9
$XCLIPFRAME
280
     2
  9
$HALOGAP
280
     0
  9
$OBSCOLOR
 70
   257
  9
$OBSLTYPE
280
     0
  9
$INTERSECTIONDISPLAY
280
     0
  9
$INTERSECTIONCOLOR
 70
   257
  9
$DIMASSOC
280
     2
  9
$PROJECTNAME
  1

  9
$CAMERADISPLAY
290
     0
  9
$LENSLENGTH
 40
50.0
  9
$CAMERAHEIGHT
 40
0.0
  9
$STEPSPERSEC
 40
2.0
  9
$STEPSIZE
 40
6.0
  9
$3DDWFPREC
 40
2.0
  9
$PSOLWIDTH
 40
0.25
  9
$PSOLHEIGHT
 40
4.0
  9
$LOFTANG1
 40
1.570796326794897
  9
$LOFTANG2
 40
1.570796326794897
  9
$LOFTMAG1
 40
0.0
  9
$LOFTMAG2
 40
0.0
  9
$LOFTPARAM
 70
     7
  9
$LOFTNORMALS
280
     1
  9
$LATITUDE
 40
37.795
  9
$LONGITUDE
 40
-122.394
  9
$NORTHDIRECTION
 40
0.0
  9
$TIMEZONE
 70
 -8000
  9
$LIGHTGLYPHDISPLAY
280
     1
  9
$TILEMODELIGHTSYNCH
280
     1
  9
$CMATERIAL
347
3C
  9
$SOLIDHIST
280
     1
  9
$SHOWHIST
280
     1
  9
$DWFFRAME
280
     2
  9
$DGNFRAME
280
     2
  9
$REALWORLDSCALE
290
     1
  9
$INTERFERECOLOR
 62
   256
  9
$CSHADOW
280
     0
  9
$SHADOWPLANELOCATION
 40
0.0
  0
ENDSEC
  0
SECTION
  2
CLASSES
  0
CLASS
  1
ACDBDICTIONARYWDFLT
  2
AcDbDictionaryWithDefault
  3
ObjectDBX Classes
 90
        0
 91
        4
280
     0
281
     0
  0
CLASS
  1
VISUALSTYLE
  2
AcDbVisualStyle
  3
ObjectDBX Classes
 90
     4095
 91
        4
280
     0
281
     0
  0
CLASS
  1
MATERIAL
  2
AcDbMaterial
  3
ObjectDBX Classes
 90
     1153
 91
        4
280
     0
281
     0
  0
CLASS
  1
SUN
  2
AcDbSun
  3
SCENEOE
 90
     1024
 91
        4
280
     0
281
     0
  0
ENDSEC
  0
SECTION
  2
TABLES
  0
TABLE
  2
VPORT
  5
8
330
0
100
AcDbSymbolTable
 70
     1
  0
VPORT
  5
29
330
8
100
AcDbSymbolTableRecord
100
AcDbViewportTableRecord
  2
*Active
 70
     0
 10
0.0
 20
0.0
 11
1.0
 21
1.0
 12
0.0
 22
0.0
 13
0.0
 23
0.0
 14
0.5
 24
0.5
 15
0.5
 25
0.5
 16
0.0
 26
0.0
 36
1.0
 17
91.00082462281999
 27
-128.4993055234307
 37
0.0
 40
256.9986110468615
 41
0.7081814508812795
 42
50.0
 43
0.0
 44
0.0
 50
0.0
 51
0.0
 71
     0
 72
   100
 73
     1
 74
     3
 75
     0
 76
     0
 77
     0
 78
     0
281
     0
 65
     1
110
0.0
120
0.0
130
0.0
111
1.0
121
0.0
131
0.0
112
0.0
122
1.0
132
0.0
 79
     0
146
0.0
 60
     3
 61
     5
292
     1
282
     1
141
0.0
142
0.0
 63
   250
361
3F
  0
ENDTAB
  0
TABLE
  2
LTYPE
  5
5
330
0
100
AcDbSymbolTable
 70
     3
  0
LTYPE
  5
14
330
5
100
AcDbSymbolTableRecord
100
AcDbLinetypeTableRecord
  2
ByBlock
 70
     0
  3

 72
    65
 73
     0
 40
0.0
  0
LTYPE
  5
15
330
5
100
AcDbSymbolTableRecord
100
AcDbLinetypeTableRecord
  2
ByLayer
 70
     0
  3

 72
    65
 73
     0
 40
0.0
  0
LTYPE
  5
16
330
5
100
AcDbSymbolTableRecord
100
AcDbLinetypeTableRecord
  2
Continuous
 70
     0
  3
Solid line
 72
    65
 73
     0
 40
0.0
  0
LTYPE
  5
1D2
330
5
100
AcDbSymbolTableRecord
100
AcDbLinetypeTableRecord
  2
AI-Linetype-1
 70
     0
  3
Adobe Illustrator Linetype No. 1
 72
    65
 73
     2
 40
0.7055555553791667
 49
0.3527777776895833
 74
     0
 49
-0.3527777776895833
 74
     0
  0
LTYPE
  5
1FB
330
5
100
AcDbSymbolTableRecord
100
AcDbLinetypeTableRecord
  2
AI-Linetype-2
 70
     0
  3
Adobe Illustrator Linetype No. 2
 72
    65
 73
     2
 40
0.7055555553791667
 49
0.3527777776895833
 74
     0
 49
-0.3527777776895833
 74
     0
  0
ENDTAB
  0
TABLE
  2
LAYER
  5
2
330
0
100
AcDbSymbolTable
 70
     2
  0
LAYER
  5
10
330
2
100
AcDbSymbolTableRecord
100
AcDbLayerTableRecord
  2
0
 70
     0
 62
     7
  6
Continuous
370
    -3
390
F
347
3E
  0
LAYER
  5
40
330
2
100
AcDbSymbolTableRecord
100
AcDbLayerTableRecord
  2
_U+30EC_U+30A4_U+30E4_U+30FC 1
 70
     0
 62
     7
  6
Continuous
370
    -3
390
F
347
3E
  0
ENDTAB
  0
TABLE
  2
STYLE
  5
3
330
0
100
AcDbSymbolTable
 70
     1
  0
STYLE
  5
11
330
3
100
AcDbSymbolTableRecord
100
AcDbTextStyleTableRecord
  2
Standard
 70
     0
 40
0.0
 41
1.0
 50
0.0
 71
     0
 42
0.2
  3
txt
  4

  0
ENDTAB
  0
TABLE
  2
VIEW
  5
6
330
0
100
AcDbSymbolTable
 70
     0
  0
ENDTAB
  0
TABLE
  2
UCS
  5
7
330
0
100
AcDbSymbolTable
 70
     0
  0
ENDTAB
  0
TABLE
  2
APPID
  5
9
330
0
100
AcDbSymbolTable
 70
     1
  0
APPID
  5
12
330
9
100
AcDbSymbolTableRecord
100
AcDbRegAppTableRecord
  2
ACAD
 70
     0
  0
ENDTAB
  0
TABLE
  2
DIMSTYLE
  5
A
330
0
100
AcDbSymbolTable
 70
     1
100
AcDbDimStyleTable
  0
DIMSTYLE
105
27
330
A
100
AcDbSymbolTableRecord
100
AcDbDimStyleTableRecord
  2
Standard
 70
     0
178
     0
340
11
  0
ENDTAB
  0
TABLE
  2
BLOCK_RECORD
  5
1
330
0
100
AcDbSymbolTable
 70
    12
  0
BLOCK_RECORD
  5
1F
330
1
100
AcDbSymbolTableRecord
100
AcDbBlockTableRecord
  2
*Model_Space
340
22
 70
     0
280
     1
281
     0
  0
BLOCK_RECORD
  5
1B
330
1
100
AcDbSymbolTableRecord
100
AcDbBlockTableRecord
  2
*Paper_Space
340
1E
 70
     0
280
     1
281
     0
  0
BLOCK_RECORD
  5
23
330
1
100
AcDbSymbolTableRecord
100
AcDbBlockTableRecord
  2
*Paper_Space0
340
26
 70
     0
280
     1
281
     0
  0
BLOCK_RECORD
  5
4F
330
1
100
AcDbSymbolTableRecord
100
AcDbBlockTableRecord
  2
block 2
340
0
102
{BLKREFS
331
50
102
}
 70
     0
280
     1
281
     0
  0
BLOCK_RECORD
  5
79
330
1
100
AcDbSymbolTableRecord
100
AcDbBlockTableRecord
  2
block 3
340
0
102
{BLKREFS
331
7A
102
}
 70
     0
280
     1
281
     0
  0
BLOCK_RECORD
  5
AA
330
1
100
AcDbSymbolTableRecord
100
AcDbBlockTableRecord
  2
block 4
340
0
102
{BLKREFS
331
AB
102
}
 70
     0
280
     1
281
     0
  0
BLOCK_RECORD
  5
B2
330
1
100
AcDbSymbolTableRecord
100
AcDbBlockTableRecord
  2
block 5
340
0
102
{BLKREFS
331
B3
102
}
 70
     0
280
     1
281
     0
  0
BLOCK_RECORD
  5
B8
330
1
100
AcDbSymbolTableRecord
100
AcDbBlockTableRecord
  2
block 6
340
0
102
{BLKREFS
331
B9
102
}
 70
     0
280
     1
281
     0
  0
BLOCK_RECORD
  5
D0
330
1
100
AcDbSymbolTableRecord
100
AcDbBlockTableRecord
  2
block 7
340
0
102
{BLKREFS
331
D1
102
}
 70
     0
280
     1
281
     0
  0
BLOCK_RECORD
  5
E7
330
1
100
AcDbSymbolTableRecord
100
AcDbBlockTableRecord
  2
block 8
340
0
102
{BLKREFS
331
E8
102
}
 70
     0
280
     1
281
     0
  0
BLOCK_RECORD
  5
F9
330
1
100
AcDbSymbolTableRecord
100
AcDbBlockTableRecord
  2
block 9
340
0
102
{BLKREFS
331
FA
102
}
 70
     0
280
     1
281
     0
  0
BLOCK_RECORD
  5
11D
330
1
100
AcDbSymbolTableRecord
100
AcDbBlockTableRecord
  2
block 10
340
0
102
{BLKREFS
331
11E
102
}
 70
     0
280
     1
281
     0
  0
BLOCK_RECORD
  5
132
330
1
100
AcDbSymbolTableRecord
100
AcDbBlockTableRecord
  2
block 11
340
0
102
{BLKREFS
331
133
102
}
 70
     0
280
     1
281
     0
  0
BLOCK_RECORD
  5
155
330
1
100
AcDbSymbolTableRecord
100
AcDbBlockTableRecord
  2
block 12
340
0
102
{BLKREFS
331
156
102
}
 70
     0
280
     1
281
     0
  0
ENDTAB
  0
ENDSEC
  0
SECTION
  2
BLOCKS
  0
BLOCK
  5
20
330
1F
100
AcDbEntity
  8
0
100
AcDbBlockBegin
  2
*Model_Space
 70
     0
 10
0.0
 20
0.0
 30
0.0
  3
*Model_Space
  1

  0
ENDBLK
  5
21
330
1F
100
AcDbEntity
  8
0
100
AcDbBlockEnd
  0
BLOCK
  5
1C
330
1B
100
AcDbEntity
 67
     1
  8
0
100
AcDbBlockBegin
  2
*Paper_Space
 70
     0
 10
0.0
 20
0.0
 30
0.0
  3
*Paper_Space
  1

  0
ENDBLK
  5
1D
330
1B
100
AcDbEntity
 67
     1
  8
0
100
AcDbBlockEnd
  0
BLOCK
  5
24
330
23
100
AcDbEntity
  8
0
100
AcDbBlockBegin
  2
*Paper_Space0
 70
     0
 10
0.0
 20
0.0
 30
0.0
  3
*Paper_Space0
  1

  0
ENDBLK
  5
25
330
23
100
AcDbEntity
  8
0
100
AcDbBlockEnd
  0
BLOCK
  5
51
330
4F
100
AcDbEntity
  8
0
100
AcDbBlockBegin
  2
block 2
 70
     0
 10
0.0
 20
0.0
 30
0.0
  3
block 2
  1

  0
SPLINE
  5
53
330
4F
100
AcDbEntity
  8
_U+30EC_U+30A4_U+30E4_U+30FC 1
370
     0
100
AcDbSpline
210
0.0
220
0.0
230
1.0
 70
    11
 71
     3
 72
    26
 73
    22
 74
     0
 42
0.0000000001
 43
0.0000000001
 12
1.0
 22
0.0
 32
0.0
 13
1.0
 23
0.0
 33
0.0
 40
0.0
 40
0.0
 40
0.0
 40
0.0
 40
1.0
 40
1.0
 40
1.0
 40
2.0
 40
2.0
 40
2.0
 40
3.0
 40
3.0
 40
3.0
 40
4.0
 40
4.0
 40
4.0
 40
5.0
 40
5.0
 40
5.0
 40
6.0
 40
6.0
 40
6.0
 40
7.0
 40
7.0
 40
7.0
 40
7.0
 10
75.66669919983333
 20
-140.285321688019
 30
0.0
 10
75.66669919983333
 20
-140.285321688019
 30
0.0
 10
76.14418943408896
 20
-139.2896890927817
 30
0.0
 10
76.14418943408896
 20
-139.2896890927817
 30
0.0
 10
76.14418943408896
 20
-139.2896890927817
 30
0.0
 10
75.84653318416338
 20
-139.1470621396924
 30
0.0
 10
75.84653318416338
 20
-139.1470621396924
 30
0.0
 10
75.84653318416338
 20
-139.1470621396924
 30
0.0
 10
75.91061196018902
 20
-139.0133924348647
 30
0.0
 10
75.91061196018902
 20
-139.0133924348647
 30
0.0
 10
76.2165364392792
 20
-139.1439615537557
 30
0.0
 10
76.32901880687261
 20
-139.01683753035
 30
0.0
 10
76.40515541709664
 20
-138.9265760286364
 30
0.0
 10
76.40515541709664
 20
-138.9265760286364
 30
0.0
 10
76.53693031940743
 20
-138.9896212760165
 30
0.0
 10
76.53693031940743
 20
-138.9896212760165
 30
0.0
 10
76.53693031940743
 20
-138.9896212760165
 30
0.0
 10
75.86892630481749
 20
-140.3821288711545
 30
0.0
 10
75.86892630481749
 20
-140.3821288711545
 30
0.0
 10
75.86892630481749
 20
-140.3821288711545
 30
0.0
 10
75.66669919983333
 20
-140.285321688019
 30
0.0
 10
75.66669919983333
 20
-140.285321688019
 30
0.0
  0
HATCH
  5
54
330
4F
100
AcDbEntity
  8
_U+30EC_U+30A4_U+30E4_U+30FC 1
 62
   179
420
  2234388
100
AcDbHatch
 10
0.0
 20
0.0
 30
0.0
210
0.0
220
0.0
230
1.0
  2
SOLID
 70
     1
 71
     0
 91
        1
 92
        1
 93
        1
 72
     4
 94
        3
 73
     0
 74
     1
 95
       26
 96
       22
 40
0.0
 40
0.0
 40
0.0
 40
0.0
 40
1.0
 40
1.0
 40
1.0
 40
2.0
 40
2.0
 40
2.0
 40
3.0
 40
3.0
 40
3.0
 40
4.0
 40
4.0
 40
4.0
 40
5.0
 40
5.0
 40
5.0
 40
6.0
 40
6.0
 40
6.0
 40
7.0
 40
7.0
 40
7.0
 40
7.0
 10
75.66669919983333
 20
-140.285321688019
 10
75.66669919983333
 20
-140.285321688019
 10
76.14418943408896
 20
-139.2896890927817
 10
76.14418943408896
 20
-139.2896890927817
 10
76.14418943408896
 20
-139.2896890927817
 10
75.84653318416338
 20
-139.1470621396924
 10
75.84653318416338
 20
-139.1470621396924
 10
75.84653318416338
 20
-139.1470621396924
 10
75.91061196018902
 20
-139.0133924348647
 10
75.91061196018902
 20
-139.0133924348647
 10
76.2165364392792
 20
-139.1439615537557
 10
76.32901880687261
 20
-139.01683753035
 10
76.40515541709664
 20
-138.9265760286364
 10
76.40515541709664
 20
-138.9265760286364
 10
76.53693031940743
 20
-138.9896212760165
 10
76.53693031940743
 20
-138.9896212760165
 10
76.53693031940743
 20
-138.9896212760165
 10
75.86892630481749
 20
-140.3821288711545
 10
75.86892630481749
 20
-140.3821288711545
 10
75.86892630481749
 20
-140.3821288711545
 10
75.66669919983333
 20
-140.285321688019
 10
75.66669919983333
 20
-140.285321688019
 97
        0
 97
        0
 75
     2
 76
     1
 98
        0
  0
POLYLINE
  5
55
330
4F
100
AcDbEntity
  8
_U+30EC_U+30A4_U+30E4_U+30FC 1
370
     0
100
AcDb2dPolyline
 66
     1
 10
0.0
 20
0.0
 30
0.0
  0
VERTEX
  5
56
330
55
100
AcDbEntity
  8
_U+30EC_U+30A4_U+30E4_U+30FC 1
370
     0
100
AcDbVertex
100
AcDb2dVertex
 10
77.22112628277806
 20
-140.6463676948731
 30
0.0
  0
VERTEX
  5
57
330
55
100
AcDbEntity
  8
_U+30EC_U+30A4_U+30E4_U+30FC 1
370
     0
100
AcDbVertex
100
AcDb2dVertex
 10
77.07092011962116
 20
-140.9591823649338
 30
0.0
  0
VERTEX
  5
58
330
55
100
AcDbEntity
  8
_U+30EC_U+30A4_U+30E4_U+30FC 1
370
     0
100
AcDbVertex
100
AcDb2dVertex
 10
76.87454967696192
 20
-140.864786748638
 30
0.0
  0
VERTEX
  5
59
330
55
100
AcDbEntity
  8
_U+30EC_U+30A4_U+30E4_U+30FC 1
370
     0
100
AcDbVertex
100
AcDb2dVertex
 10
77.02458358534456
 20
-140.5519720785773
 30
0.0
  0
VERTEX
  5
5A
330
55
100
AcDbEntity
  8
_U+30EC_U+30A4_U+30E4_U+30FC 1
370
     0
100
AcDbVertex
100
AcDb2dVertex
 10
76.43323294530141
 20
-140.2684407201412
 30
0.0
  0
VERTEX
  5
5B
330
55
100
AcDbEntity
  8
_U+30EC_U+30A4_U+30E4_U+30FC 1
370
     0
100
AcDbVertex
100
AcDb2dVertex
 10
76.53021238321121
 20
-140.0662136151571
 30
0.0
  0
VERTEX
  5
5C
330
55
100
AcDbEntity
  8
_U+30EC_U+30A4_U+30E4_U+30FC 1
370
     0
100
AcDbVertex
100
AcDb2dVertex
 10
77.56356877401188
 20
-139.4822699304072
 30
0.0
  0
VERTEX
  5
5D
330
55
100
AcDbEntity
  8
_U+30EC_U+30A4_U+30E4_U+30FC 1
370
     0
100
AcDbVertex
100
AcDb2dVertex
 10
77.7389241342111
 20
-139.5666747697958
 30
0.0
  0
VERTEX
  5
5E
330
55
100
AcDbEntity
  8
_U+30EC_U+30A4_U+30E4_U+30FC 1
370
     0
100
AcDbVertex
100
AcDb2dVertex
 10
77.30690916036077
 20
-140.4672227296402
 30
0.0
  0
VERTEX
  5
5F
330
55
100
AcDbEntity
  8
_U+30EC_U+30A4_U+30E4_U+30FC 1
370
     0
100
AcDbVertex
100
AcDb2dVertex
 10
77.49397784520984
 20
-140.5567952122566
 30
0.0
  0
VERTEX
  5
60
330
55
100
AcDbEntity
  8
_U+30EC_U+30A4_U+30E4_U+30FC 1
370
     0
100
AcDbVertex
100
AcDb2dVertex
 10
77.4078504580786
 20
-140.7359401774896
 30
0.0
  0
VERTEX
  5
61
330
55
100
AcDbEntity
  8
_U+30EC_U+30A4_U+30E4_U+30FC 1
370
     0
100
AcDbVertex
100
AcDb2dVertex
 10
77.22112628277806
 20
-140.6463676948731
 30
0.0
  0
SEQEND
  5
62
330
55
100
AcDbEntity
  8
_U+30EC_U+30A4_U+30E4_U+30FC 1
370
     0
  0
POLYLINE
  5
63
330
4F
100
AcDbEntity
  8
_U+30EC_U+30A4_U+30E4_U+30FC 1
370
     0
100
AcDb2dPolyline
 66
     1
 10
0.0
 20
0.0
 30
0.0
  0
VERTEX
  5
64
330
63
100
AcDbEntity
  8
_U+30EC_U+30A4_U+30E4_U+30FC 1
370
     0
100
AcDbVertex
100
AcDb2dVertex
 10
77.39424233091187
 20
-139.7813042185269
 30
0.0
  0
VERTEX
  5
65
330
63
100
AcDbEntity
  8
_U+30EC_U+30A4_U+30E4_U+30FC 1
370
     0
100
AcDbVertex
100
AcDb2dVertex
 10
76.69850529766566
 20
-140.175078632491
 30
0.0
  0
VERTEX
  5
66
330
63
100
AcDbEntity
  8
_U+30EC_U+30A4_U+30E4_U+30FC 1
370
     0
100
AcDbVertex
100
AcDb2dVertex
 10
77.11053871770153
 20
-140.3728271133443
 30
0.0
  0
VERTEX
  5
67
330
63
100
AcDbEntity
  8
_U+30EC_U+30A4_U+30E4_U+30FC 1
370
     0
100
AcDbVertex
100
AcDb2dVertex
 10
77.39424233091187
 20
-139.7813042185269
 30
0.0
  0
SEQEND
  5
68
330
63
100
AcDbEntity
  8
_U+30EC_U+30A4_U+30E4_U+30FC 1
370
     0
  0
HATCH
  5
69
330
4F
100
AcDbEntity
  8
_U+30EC_U+30A4_U+30E4_U+30FC 1
 62
   179
420
  2234388
100
AcDbHatch
 10
0.0
 20
0.0
 30
0.0
210
0.0
220
0.0
230
1.0
  2
SOLID
 70
     1
 71
     0
 91
        2
 92
        1
 93
       11
 72
     1
 10
77.22112628277806
 20
-140.6463676948731
 11
77.07092011962116
 21
-140.9591823649338
 72
     1
 10
77.07092011962116
 20
-140.9591823649338
 11
76.87454967696192
 21
-140.864786748638
 72
     1
 10
76.87454967696192
 20
-140.864786748638
 11
77.02458358534456
 21
-140.5519720785773
 72
     1
 10
77.02458358534456
 20
-140.5519720785773
 11
76.43323294530141
 21
-140.2684407201412
 72
     1
 10
76.43323294530141
 20
-140.2684407201412
 11
76.53021238321121
 21
-140.0662136151571
 72
     1
 10
76.53021238321121
 20
-140.0662136151571
 11
77.56356877401188
 21
-139.4822699304072
 72
     1
 10
77.56356877401188
 20
-139.4822699304072
 11
77.7389241342111
 21
-139.5666747697958
 72
     1
 10
77.7389241342111
 20
-139.5666747697958
 11
77.30690916036077
 21
-140.4672227296402
 72
     1
 10
77.30690916036077
 20
-140.4672227296402
 11
77.49397784520984
 21
-140.5567952122566
 72
     1
 10
77.49397784520984
 20
-140.5567952122566
 11
77.4078504580786
 21
-140.7359401774896
 72
     1
 10
77.4078504580786
 20
-140.7359401774896
 11
77.22112628277806
 21
-140.6463676948731
 97
        0
 92
        1
 93
        3
 72
     1
 10
77.39424233091187
 20
-139.7813042185269
 11
76.69850529766566
 21
-140.175078632491
 72
     1
 10
76.69850529766566
 20
-140.175078632491
 11
77.11053871770153
 21
-140.3728271133443
 72
     1
 10
77.11053871770153
 20
-140.3728271133443
 11
77.39424233091187
 21
-139.7813042185269
 97
        0
 75
     2
 76
     1
 98
        0
  0
ENDBLK
  5
52
330
4F
100
AcDbEntity
  8
0
100
AcDbBlockEnd
  0
BLOCK
  5
7B
330
79
100
AcDbEntity
  8
0
100
AcDbBlockBegin
  2
block 3
 70
     0
 10
0.0
 20
0.0
 30
0.0
  3
block 3
  1

  0
POLYLINE
  5
7D
330
79
100
AcDbEntity
  8
_U+30EC_U+30A4_U+30E4_U+30FC 1
370
     0
100
AcDb2dPolyline
 66
     1
 10
0.0
 20
0.0
 30
0.0
  0
VERTEX
  5
7E
330
7D
100
AcDbEntity
  8
_U+30EC_U+30A4_U+30E4_U+30FC 1
370
     0
100
AcDbVertex
100
AcDb2dVertex
 10
92.36990015051865
 20
-128.5630397899079
 30
0.0
  0
VERTEX
  5
7F
330
7D
100
AcDbEntity
  8
_U+30EC_U+30A4_U+30E4_U+30FC 1
370
     0
100
AcDbVertex
100
AcDb2dVertex
 10
92.71716577543182
 20
-128.5630397899079
 30
0.0
  0
VERTEX
  5
80
330
7D
100
AcDbEntity
  8
_U+30EC_U+30A4_U+30E4_U+30FC 1
370
     0
100
AcDbVertex
100
AcDb2dVertex
 10
92.71716577543182
 20
-128.7807698245757
 30
0.0
  0
VERTEX
  5
81
330
7D
100
AcDbEntity
  8
_U+30EC_U+30A4_U+30E4_U+30FC 1
370
     0
100
AcDbVertex
100
AcDb2dVertex
 10
92.36990015051865
 20
-128.7807698245757
 30
0.0
  0
VERTEX
  5
82
330
7D
100
AcDbEntity
  8
_U+30EC_U+30A4_U+30E4_U+30FC 1
370
     0
100
AcDbVertex
100
AcDb2dVertex
 10
92.36990015051865
 20
-129.4367160049672
 30
0.0
  0
VERTEX
  5
83
330
7D
100
AcDbEntity
  8
_U+30EC_U+30A4_U+30E4_U+30FC 1
370
     0
100
AcDbVertex
100
AcDb2dVertex
 10
92.1459689439774
 20
-129.4367160049672
 30
0.0
  0
VERTEX
  5
84
330
7D
100
AcDbEntity
  8
_U+30EC_U+30A4_U+30E4_U+30FC 1
370
     0
100
AcDbVertex
100
AcDb2dVertex
 10
91.17255721462006
 20
-128.7576876848245
 30
0.0
  0
VERTEX
  5
85
330
7D
100
AcDbEntity
  8
_U+30EC_U+30A4_U+30E4_U+30FC 1
370
     0
100
AcDbVertex
100
AcDb2dVertex
 10
91.17255721462006
 20
-128.5630397899079
 30
0.0
  0
VERTEX
  5
86
330
7D
100
AcDbEntity
  8
_U+30EC_U+30A4_U+30E4_U+30FC 1
370
     0
100
AcDbVertex
100
AcDb2dVertex
 10
92.17146265056824
 20
-128.5630397899079
 30
0.0
  0
VERTEX
  5
87
330
7D
100
AcDbEntity
  8
_U+30EC_U+30A4_U+30E4_U+30FC 1
370
     0
100
AcDbVertex
100
AcDb2dVertex
 10
92.17146265056824
 20
-128.3556450416958
 30
0.0
  0
VERTEX
  5
88
330
7D
100
AcDbEntity
  8
_U+30EC_U+30A4_U+30E4_U+30FC 1
370
     0
100
AcDbVertex
100
AcDb2dVertex
 10
92.36990015051865
 20
-128.3556450416958
 30
0.0
  0
VERTEX
  5
89
330
7D
100
AcDbEntity
  8
_U+30EC_U+30A4_U+30E4_U+30FC 1
370
     0
100
AcDbVertex
100
AcDb2dVertex
 10
92.36990015051865
 20
-128.5630397899079
 30
0.0
  0
SEQEND
  5
8A
330
7D
100
AcDbEntity
  8
_U+30EC_U+30A4_U+30E4_U+30FC 1
370
     0
  0
POLYLINE
  5
8B
330
79
100
AcDbEntity
  8
_U+30EC_U+30A4_U+30E4_U+30FC 1
370
     0
100
AcDb2dPolyline
 66
     1
 10
0.0
 20
0.0
 30
0.0
  0
VERTEX
  5
8C
330
8B
100
AcDbEntity
  8
_U+30EC_U+30A4_U+30E4_U+30FC 1
370
     0
100
AcDbVertex
100
AcDb2dVertex
 10
91.51551647017668
 20
-128.7807698245757
 30
0.0
  0
VERTEX
  5
8D
330
8B
100
AcDbEntity
  8
_U+30EC_U+30A4_U+30E4_U+30FC 1
370
     0
100
AcDbVertex
100
AcDb2dVertex
 10
92.17146265056824
 20
-129.2379339954683
 30
0.0
  0
VERTEX
  5
8E
330
8B
100
AcDbEntity
  8
_U+30EC_U+30A4_U+30E4_U+30FC 1
370
     0
100
AcDbVertex
100
AcDb2dVertex
 10
92.17146265056824
 20
-128.7807698245757
 30
0.0
  0
VERTEX
  5
8F
330
8B
100
AcDbEntity
  8
_U+30EC_U+30A4_U+30E4_U+30FC 1
370
     0
100
AcDbVertex
100
AcDb2dVertex
 10
91.51551647017668
 20
-128.7807698245757
 30
0.0
  0
SEQEND
  5
90
330
8B
100
AcDbEntity
  8
_U+30EC_U+30A4_U+30E4_U+30FC 1
370
     0
  0
HATCH
  5
91
330
79
100
AcDbEntity
  8
_U+30EC_U+30A4_U+30E4_U+30FC 1
 62
   179
420
  2234388
100
AcDbHatch
 10
0.0
 20
0.0
 30
0.0
210
0.0
220
0.0
230
1.0
  2
SOLID
 70
     1
 71
     0
 91
        2
 92
        1
 93
       11
 72
     1
 10
92.36990015051865
 20
-128.5630397899079
 11
92.71716577543182
 21
-128.5630397899079
 72
     1
 10
92.71716577543182
 20
-128.5630397899079
 11
92.71716577543182
 21
-128.7807698245757
 72
     1
 10
92.71716577543182
 20
-128.7807698245757
 11
92.36990015051865
 21
-128.7807698245757
 72
     1
 10
92.36990015051865
 20
-128.7807698245757
 11
92.36990015051865
 21
-129.4367160049672
 72
     1
 10
92.36990015051865
 20
-129.4367160049672
 11
92.1459689439774
 21
-129.4367160049672
 72
     1
 10
92.1459689439774
 20
-129.4367160049672
 11
91.17255721462006
 21
-128.7576876848245
 72
     1
 10
91.17255721462006
 20
-128.7576876848245
 11
91.17255721462006
 21
-128.5630397899079
 72
     1
 10
91.17255721462006
 20
-128.5630397899079
 11
92.17146265056824
 21
-128.5630397899079
 72
     1
 10
92.17146265056824
 20
-128.5630397899079
 11
92.17146265056824
 21
-128.3556450416958
 72
     1
 10
92.17146265056824
 20
-128.3556450416958
 11
92.36990015051865
 21
-128.3556450416958
 72
     1
 10
92.36990015051865
 20
-128.3556450416958
 11
92.36990015051865
 21
-128.5630397899079
 97
        0
 92
        1
 93
        3
 72
     1
 10
91.51551647017668
 20
-128.7807698245757
 11
92.17146265056824
 21
-129.2379339954683
 72
     1
 10
92.17146265056824
 20
-129.2379339954683
 11
92.17146265056824
 21
-128.7807698245757
 72
     1
 10
92.17146265056824
 20
-128.7807698245757
 11
91.51551647017668
 21
-128.7807698245757
 97
        0
 75
     2
 76
     1
 98
        0
  0
SPLINE
  5
92
330
79
100
AcDbEntity
  8
_U+30EC_U+30A4_U+30E4_U+30FC 1
370
     0
100
AcDbSpline
210
0.0
220
0.0
230
1.0
 70
    11
 71
     3
 72
    44
 73
    40
 74
     0
 42
0.0000000001
 43
0.0000000001
 12
1.0
 22
0.0
 32
0.0
 13
1.0
 23
0.0
 33
0.0
 40
0.0
 40
0.0
 40
0.0
 40
0.0
 40
1.0
 40
1.0
 40
1.0
 40
2.0
 40
2.0
 40
2.0
 40
3.0
 40
3.0
 40
3.0
 40
4.0
 40
4.0
 40
4.0
 40
5.0
 40
5.0
 40
5.0
 40
6.0
 40
6.0
 40
6.0
 40
7.0
 40
7.0
 40
7.0
 40
8.0
 40
8.0
 40
8.0
 40
9.0
 40
9.0
 40
9.0
 40
10.0
 40
10.0
 40
10.0
 40
11.0
 40
11.0
 40
11.0
 40
12.0
 40
12.0
 40
12.0
 40
13.0
 40
13.0
 40
13.0
 40
13.0
 10
92.1349446384246
 20
-127.6252847988228
 30
0.0
 10
92.29410804984315
 20
-127.8430148334906
 30
0.0
 10
92.36783309322749
 20
-127.9360324115924
 30
0.0
 10
92.51183808451093
 20
-127.9849527674829
 30
0.0
 10
92.51183808451093
 20
-127.9849527674829
 30
0.0
 10
92.51183808451093
 20
-127.2063611878165
 30
0.0
 10
92.51183808451093
 20
-127.2063611878165
 30
0.0
 10
92.51183808451093
 20
-127.2063611878165
 30
0.0
 10
92.71716577543182
 20
-127.2063611878165
 30
0.0
 10
92.71716577543182
 20
-127.2063611878165
 30
0.0
 10
92.71716577543182
 20
-127.2063611878165
 30
0.0
 10
92.71716577543182
 20
-128.234377680615
 30
0.0
 10
92.71716577543182
 20
-128.234377680615
 30
0.0
 10
92.35956486406289
 20
-128.2026828021507
 30
0.0
 10
92.2810166869992
 20
-128.137225987931
 30
0.0
 10
91.98267141797656
 20
-127.75206431268
 30
0.0
 10
91.78423391802617
 20
-127.496093718126
 30
0.0
 10
91.71602102741822
 20
-127.4306369039062
 30
0.0
 10
91.57890622710528
 20
-127.4306369039062
 30
0.0
 10
91.46039494241268
 20
-127.4306369039062
 30
0.0
 10
91.32930905919892
 20
-127.502639399548
 30
0.0
 10
91.32930905919892
 20
-127.6993543517557
 30
0.0
 10
91.32930905919892
 20
-127.9594590608921
 30
0.0
 10
91.55961369238788
 20
-127.9680717996052
 30
0.0
 10
91.67605791978933
 20
-127.9722059141875
 30
0.0
 10
91.67605791978933
 20
-127.9722059141875
 30
0.0
 10
91.67605791978933
 20
-128.1964816302773
 30
0.0
 10
91.67605791978933
 20
-128.1964816302773
 30
0.0
 10
91.54927840593213
 20
-128.1878688915641
 30
0.0
 10
91.43696829311298
 20
-128.1771890955599
 30
0.0
 10
91.31862926319465
 20
-128.0969183707535
 30
0.0
 10
91.15774330403349
 20
-127.9870198247741
 30
0.0
 10
91.12398136827804
 20
-127.8006401590221
 30
0.0
 10
91.12398136827804
 20
-127.6845404411691
 30
0.0
 10
91.12398136827804
 20
-127.4072102546065
 30
0.0
 10
91.30794946719038
 20
-127.1998155063945
 30
0.0
 10
91.58097328439642
 20
-127.1998155063945
 30
0.0
 10
91.80972762461701
 20
-127.1998155063945
 30
0.0
 10
91.90894637459222
 20
-127.3162597337959
 30
0.0
 10
92.1349446384246
 20
-127.6252847988228
 30
0.0
  0
HATCH
  5
93
330
79
100
AcDbEntity
  8
_U+30EC_U+30A4_U+30E4_U+30FC 1
 62
   179
420
  2234388
100
AcDbHatch
 10
0.0
 20
0.0
 30
0.0
210
0.0
220
0.0
230
1.0
  2
SOLID
 70
     1
 71
     0
 91
        1
 92
        1
 93
        1
 72
     4
 94
        3
 73
     0
 74
     1
 95
       44
 96
       40
 40
0.0
 40
0.0
 40
0.0
 40
0.0
 40
1.0
 40
1.0
 40
1.0
 40
2.0
 40
2.0
 40
2.0
 40
3.0
 40
3.0
 40
3.0
 40
4.0
 40
4.0
 40
4.0
 40
5.0
 40
5.0
 40
5.0
 40
6.0
 40
6.0
 40
6.0
 40
7.0
 40
7.0
 40
7.0
 40
8.0
 40
8.0
 40
8.0
 40
9.0
 40
9.0
 40
9.0
 40
10.0
 40
10.0
 40
10.0
 40
11.0
 40
11.0
 40
11.0
 40
12.0
 40
12.0
 40
12.0
 40
13.0
 40
13.0
 40
13.0
 40
13.0
 10
92.1349446384246
 20
-127.6252847988228
 10
92.29410804984315
 20
-127.8430148334906
 10
92.36783309322749
 20
-127.9360324115924
 10
92.51183808451093
 20
-127.9849527674829
 10
92.51183808451093
 20
-127.9849527674829
 10
92.51183808451093
 20
-127.2063611878165
 10
92.51183808451093
 20
-127.2063611878165
 10
92.51183808451093
 20
-127.2063611878165
 10
92.71716577543182
 20
-127.2063611878165
 10
92.71716577543182
 20
-127.2063611878165
 10
92.71716577543182
 20
-127.2063611878165
 10
92.71716577543182
 20
-128.234377680615
 10
92.71716577543182
 20
-128.234377680615
 10
92.35956486406289
 20
-128.2026828021507
 10
92.2810166869992
 20
-128.137225987931
 10
91.98267141797656
 20
-127.75206431268
 10
91.78423391802617
 20
-127.496093718126
 10
91.71602102741822
 20
-127.4306369039062
 10
91.57890622710528
 20
-127.4306369039062
 10
91.46039494241268
 20
-127.4306369039062
 10
91.32930905919892
 20
-127.502639399548
 10
91.32930905919892
 20
-127.6993543517557
 10
91.32930905919892
 20
-127.9594590608921
 10
91.55961369238788
 20
-127.9680717996052
 10
91.67605791978933
 20
-127.9722059141875
 10
91.67605791978933
 20
-127.9722059141875
 10
91.67605791978933
 20
-128.1964816302773
 10
91.67605791978933
 20
-128.1964816302773
 10
91.54927840593213
 20
-128.1878688915641
 10
91.43696829311298
 20
-128.1771890955599
 10
91.31862926319465
 20
-128.0969183707535
 10
91.15774330403349
 20
-127.9870198247741
 10
91.12398136827804
 20
-127.8006401590221
 10
91.12398136827804
 20
-127.6845404411691
 10
91.12398136827804
 20
-127.4072102546065
 10
91.30794946719038
 20
-127.1998155063945
 10
91.58097328439642
 20
-127.1998155063945
 10
91.80972762461701
 20
-127.1998155063945
 10
91.90894637459222
 20
-127.3162597337959
 10
92.1349446384246
 20
-127.6252847988228
 97
        0
 97
        0
 75
     2
 76
     1
 98
        0
  0
ENDBLK
  5
7C
330
79
100
AcDbEntity
  8
0
100
AcDbBlockEnd
  0
BLOCK
  5
AC
330
AA
100
AcDbEntity
  8
0
100
AcDbBlockBegin
  2
block 4
 70
     0
 10
0.0
 20
0.0
 30
0.0
  3
block 4
  1

  0
SPLINE
  5
AE
330
AA
100
AcDbEntity
  8
_U+30EC_U+30A4_U+30E4_U+30FC 1
370
     0
100
AcDbSpline
210
0.0
220
0.0
230
1.0
 70
    11
 71
     3
 72
    26
 73
    22
 74
     0
 42
0.0000000001
 43
0.0000000001
 12
1.0
 22
0.0
 32
0.0
 13
1.0
 23
0.0
 33
0.0
 40
0.0
 40
0.0
 40
0.0
 40
0.0
 40
1.0
 40
1.0
 40
1.0
 40
2.0
 40
2.0
 40
2.0
 40
3.0
 40
3.0
 40
3.0
 40
4.0
 40
4.0
 40
4.0
 40
5.0
 40
5.0
 40
5.0
 40
6.0
 40
6.0
 40
6.0
 40
7.0
 40
7.0
 40
7.0
 40
7.0
 10
95.29030759336493
 20
-126.1604301984946
 30
0.0
 10
95.29030759336493
 20
-126.1604301984946
 30
0.0
 10
94.18615449034236
 20
-126.1604301984946
 30
0.0
 10
94.18615449034236
 20
-126.1604301984946
 30
0.0
 10
94.18615449034236
 20
-126.1604301984946
 30
0.0
 10
94.18615449034236
 20
-126.4904703459815
 30
0.0
 10
94.18615449034236
 20
-126.4904703459815
 30
0.0
 10
94.18615449034236
 20
-126.4904703459815
 30
0.0
 10
94.03801538447661
 20
-126.4904703459815
 30
0.0
 10
94.03801538447661
 20
-126.4904703459815
 30
0.0
 10
94.02320147389004
 20
-126.1583631412035
 30
0.0
 10
93.86024845743772
 20
-126.1118543521526
 30
0.0
 10
93.74587128732743
 20
-126.0822265309795
 30
0.0
 10
93.74587128732743
 20
-126.0822265309795
 30
0.0
 10
93.74587128732743
 20
-125.9361544824049
 30
0.0
 10
93.74587128732743
 20
-125.9361544824049
 30
0.0
 10
93.74587128732743
 20
-125.9361544824049
 30
0.0
 10
95.29030759336493
 20
-125.9361544824049
 30
0.0
 10
95.29030759336493
 20
-125.9361544824049
 30
0.0
 10
95.29030759336493
 20
-125.9361544824049
 30
0.0
 10
95.29030759336493
 20
-126.1604301984946
 30
0.0
 10
95.29030759336493
 20
-126.1604301984946
 30
0.0
  0
HATCH
  5
AF
330
AA
100
AcDbEntity
  8
_U+30EC_U+30A4_U+30E4_U+30FC 1
 62
   179
420
  2234388
100
AcDbHatch
 10
0.0
 20
0.0
 30
0.0
210
0.0
220
0.0
230
1.0
  2
SOLID
 70
     1
 71
     0
 91
        1
 92
        1
 93
        1
 72
     4
 94
        3
 73
     0
 74
     1
 95
       26
 96
       22
 40
0.0
 40
0.0
 40
0.0
 40
0.0
 40
1.0
 40
1.0
 40
1.0
 40
2.0
 40
2.0
 40
2.0
 40
3.0
 40
3.0
 40
3.0
 40
4.0
 40
4.0
 40
4.0
 40
5.0
 40
5.0
 40
5.0
 40
6.0
 40
6.0
 40
6.0
 40
7.0
 40
7.0
 40
7.0
 40
7.0
 10
95.29030759336493
 20
-126.1604301984946
 10
95.29030759336493
 20
-126.1604301984946
 10
94.18615449034236
 20
-126.1604301984946
 10
94.18615449034236
 20
-126.1604301984946
 10
94.18615449034236
 20
-126.1604301984946
 10
94.18615449034236
 20
-126.4904703459815
 10
94.18615449034236
 20
-126.4904703459815
 10
94.18615449034236
 20
-126.4904703459815
 10
94.03801538447661
 20
-126.4904703459815
 10
94.03801538447661
 20
-126.4904703459815
 10
94.02320147389004
 20
-126.1583631412035
 10
93.86024845743772
 20
-126.1118543521526
 10
93.74587128732743
 20
-126.0822265309795
 10
93.74587128732743
 20
-126.0822265309795
 10
93.74587128732743
 20
-125.9361544824049
 10
93.74587128732743
 20
-125.9361544824049
 10
93.74587128732743
 20
-125.9361544824049
 10
95.29030759336493
 20
-125.9361544824049
 10
95.29030759336493
 20
-125.9361544824049
 10
95.29030759336493
 20
-125.9361544824049
 10
95.29030759336493
 20
-126.1604301984946
 10
95.29030759336493
 20
-126.1604301984946
 97
        0
 97
        0
 75
     2
 76
     1
 98
        0
  0
SPLINE
  5
B0
330
AA
100
AcDbEntity
  8
_U+30EC_U+30A4_U+30E4_U+30FC 1
370
     0
100
AcDbSpline
210
0.0
220
0.0
230
1.0
 70
    11
 71
     3
 72
    53
 73
    49
 74
     0
 42
0.0000000001
 43
0.0000000001
 12
1.0
 22
0.0
 32
0.0
 13
1.0
 23
0.0
 33
0.0
 40
0.0
 40
0.0
 40
0.0
 40
0.0
 40
1.0
 40
1.0
 40
1.0
 40
2.0
 40
2.0
 40
2.0
 40
3.0
 40
3.0
 40
3.0
 40
4.0
 40
4.0
 40
4.0
 40
5.0
 40
5.0
 40
5.0
 40
6.0
 40
6.0
 40
6.0
 40
7.0
 40
7.0
 40
7.0
 40
8.0
 40
8.0
 40
8.0
 40
9.0
 40
9.0
 40
9.0
 40
10.0
 40
10.0
 40
10.0
 40
11.0
 40
11.0
 40
11.0
 40
12.0
 40
12.0
 40
12.0
 40
13.0
 40
13.0
 40
13.0
 40
14.0
 40
14.0
 40
14.0
 40
15.0
 40
15.0
 40
15.0
 40
16.0
 40
16.0
 40
16.0
 40
16.0
 10
95.3409504969981
 20
-124.9539577595601
 30
0.0
 10
95.3409504969981
 20
-125.0321614270753
 30
0.0
 10
95.32406952912038
 20
-125.1337917438902
 30
0.0
 10
95.26067977219178
 20
-125.235422060705
 30
0.0
 10
95.1507812262123
 20
-125.4087103636131
 30
0.0
 10
95.01952308822429
 20
-125.4300699556217
 30
0.0
 10
94.91169159953597
 20
-125.4490179807905
 30
0.0
 10
94.91169159953597
 20
-125.4490179807905
 30
0.0
 10
94.91169159953597
 20
-125.2268093219919
 30
0.0
 10
94.91169159953597
 20
-125.2268093219919
 30
0.0
 10
95.11047360903488
 20
-125.1720323037764
 30
0.0
 10
95.14010143020803
 20
-125.0449082803707
 30
0.0
 10
95.14010143020803
 20
-124.951890702269
 30
0.0
 10
95.14010143020803
 20
-124.8123643351164
 30
0.0
 10
95.04053817068431
 20
-124.6600911146683
 30
0.0
 10
94.80799422542995
 20
-124.6600911146683
 30
0.0
 10
94.5520236308759
 20
-124.6600911146683
 30
0.0
 10
94.48208819252531
 20
-124.8399250989984
 30
0.0
 10
94.48208819252531
 20
-124.9605034409821
 30
0.0
 10
94.48208819252531
 20
-124.9921983194464
 30
0.0
 10
94.48208819252531
 20
-125.1337917438902
 30
0.0
 10
94.61127927322218
 20
-125.2226752074096
 30
0.0
 10
94.61127927322218
 20
-125.2226752074096
 30
0.0
 10
94.59233124805331
 20
-125.3983750771574
 30
0.0
 10
94.59233124805331
 20
-125.3983750771574
 30
0.0
 10
94.59233124805331
 20
-125.3983750771574
 30
0.0
 10
93.74587128732743
 20
-125.2777967351736
 30
0.0
 10
93.74587128732743
 20
-125.2777967351736
 30
0.0
 10
93.74587128732743
 20
-125.2777967351736
 30
0.0
 10
93.74587128732743
 20
-124.4992051555072
 30
0.0
 10
93.74587128732743
 20
-124.4992051555072
 30
0.0
 10
93.74587128732743
 20
-124.4992051555072
 30
0.0
 10
93.94051918224405
 20
-124.4992051555072
 30
0.0
 10
93.94051918224405
 20
-124.4992051555072
 30
0.0
 10
93.94051918224405
 20
-124.4992051555072
 30
0.0
 10
93.94051918224405
 20
-125.1148437187213
 30
0.0
 10
93.94051918224405
 20
-125.1148437187213
 30
0.0
 10
93.94051918224405
 20
-125.1148437187213
 30
0.0
 10
94.36357690783272
 20
-125.180300532941
 30
0.0
 10
94.36357690783272
 20
-125.180300532941
 30
0.0
 10
94.32981497207727
 20
-125.1189778333036
 30
0.0
 10
94.28950735489985
 20
-125.0366400512061
 30
0.0
 10
94.28950735489985
 20
-124.9181287665135
 30
0.0
 10
94.28950735489985
 20
-124.6642252292506
 30
0.0
 10
94.47588702065187
 20
-124.4272026598654
 30
0.0
 10
94.78904620026108
 20
-124.4272026598654
 30
0.0
 10
95.10633949445258
 20
-124.4272026598654
 30
0.0
 10
95.3409504969981
 20
-124.6514783759552
 30
0.0
 10
95.3409504969981
 20
-124.9539577595601
 30
0.0
  0
HATCH
  5
B1
330
AA
100
AcDbEntity
  8
_U+30EC_U+30A4_U+30E4_U+30FC 1
 62
   179
420
  2234388
100
AcDbHatch
 10
0.0
 20
0.0
 30
0.0
210
0.0
220
0.0
230
1.0
  2
SOLID
 70
     1
 71
     0
 91
        1
 92
        1
 93
        1
 72
     4
 94
        3
 73
     0
 74
     1
 95
       53
 96
       49
 40
0.0
 40
0.0
 40
0.0
 40
0.0
 40
1.0
 40
1.0
 40
1.0
 40
2.0
 40
2.0
 40
2.0
 40
3.0
 40
3.0
 40
3.0
 40
4.0
 40
4.0
 40
4.0
 40
5.0
 40
5.0
 40
5.0
 40
6.0
 40
6.0
 40
6.0
 40
7.0
 40
7.0
 40
7.0
 40
8.0
 40
8.0
 40
8.0
 40
9.0
 40
9.0
 40
9.0
 40
10.0
 40
10.0
 40
10.0
 40
11.0
 40
11.0
 40
11.0
 40
12.0
 40
12.0
 40
12.0
 40
13.0
 40
13.0
 40
13.0
 40
14.0
 40
14.0
 40
14.0
 40
15.0
 40
15.0
 40
15.0
 40
16.0
 40
16.0
 40
16.0
 40
16.0
 10
95.3409504969981
 20
-124.9539577595601
 10
95.3409504969981
 20
-125.0321614270753
 10
95.32406952912038
 20
-125.1337917438902
 10
95.26067977219178
 20
-125.235422060705
 10
95.1507812262123
 20
-125.4087103636131
 10
95.01952308822429
 20
-125.4300699556217
 10
94.91169159953597
 20
-125.4490179807905
 10
94.91169159953597
 20
-125.4490179807905
 10
94.91169159953597
 20
-125.2268093219919
 10
94.91169159953597
 20
-125.2268093219919
 10
95.11047360903488
 20
-125.1720323037764
 10
95.14010143020803
 20
-125.0449082803707
 10
95.14010143020803
 20
-124.951890702269
 10
95.14010143020803
 20
-124.8123643351164
 10
95.04053817068431
 20
-124.6600911146683
 10
94.80799422542995
 20
-124.6600911146683
 10
94.5520236308759
 20
-124.6600911146683
 10
94.48208819252531
 20
-124.8399250989984
 10
94.48208819252531
 20
-124.9605034409821
 10
94.48208819252531
 20
-124.9921983194464
 10
94.48208819252531
 20
-125.1337917438902
 10
94.61127927322218
 20
-125.2226752074096
 10
94.61127927322218
 20
-125.2226752074096
 10
94.59233124805331
 20
-125.3983750771574
 10
94.59233124805331
 20
-125.3983750771574
 10
94.59233124805331
 20
-125.3983750771574
 10
93.74587128732743
 20
-125.2777967351736
 10
93.74587128732743
 20
-125.2777967351736
 10
93.74587128732743
 20
-125.2777967351736
 10
93.74587128732743
 20
-124.4992051555072
 10
93.74587128732743
 20
-124.4992051555072
 10
93.74587128732743
 20
-124.4992051555072
 10
93.94051918224405
 20
-124.4992051555072
 10
93.94051918224405
 20
-124.4992051555072
 10
93.94051918224405
 20
-124.4992051555072
 10
93.94051918224405
 20
-125.1148437187213
 10
93.94051918224405
 20
-125.1148437187213
 10
93.94051918224405
 20
-125.1148437187213
 10
94.36357690783272
 20
-125.180300532941
 10
94.36357690783272
 20
-125.180300532941
 10
94.32981497207727
 20
-125.1189778333036
 10
94.28950735489985
 20
-125.0366400512061
 10
94.28950735489985
 20
-124.9181287665135
 10
94.28950735489985
 20
-124.6642252292506
 10
94.47588702065187
 20
-124.4272026598654
 10
94.78904620026108
 20
-124.4272026598654
 10
95.10633949445258
 20
-124.4272026598654
 10
95.3409504969981
 20
-124.6514783759552
 10
95.3409504969981
 20
-124.9539577595601
 97
        0
 97
        0
 75
     2
 76
     1
 98
        0
  0
ENDBLK
  5
AD
330
AA
100
AcDbEntity
  8
0
100
AcDbBlockEnd
  0
BLOCK
  5
B4
330
B2
100
AcDbEntity
  8
0
100
AcDbBlockBegin
  2
block 5
 70
     0
 10
0.0
 20
0.0
 30
0.0
  3
block 5
  1

  0
SPLINE
  5
B6
330
B2
100
AcDbEntity
  8
_U+30EC_U+30A4_U+30E4_U+30FC 1
370
     0
100
AcDbSpline
210
0.0
220
0.0
230
1.0
 70
    11
 71
     3
 72
    62
 73
    58
 74
     0
 42
0.0000000001
 43
0.0000000001
 12
1.0
 22
0.0
 32
0.0
 13
1.0
 23
0.0
 33
0.0
 40
0.0
 40
0.0
 40
0.0
 40
0.0
 40
1.0
 40
1.0
 40
1.0
 40
2.0
 40
2.0
 40
2.0
 40
3.0
 40
3.0
 40
3.0
 40
4.0
 40
4.0
 40
4.0
 40
5.0
 40
5.0
 40
5.0
 40
6.0
 40
6.0
 40
6.0
 40
7.0
 40
7.0
 40
7.0
 40
8.0
 40
8.0
 40
8.0
 40
9.0
 40
9.0
 40
9.0
 40
10.0
 40
10.0
 40
10.0
 40
11.0
 40
11.0
 40
11.0
 40
12.0
 40
12.0
 40
12.0
 40
13.0
 40
13.0
 40
13.0
 40
14.0
 40
14.0
 40
14.0
 40
15.0
 40
15.0
 40
15.0
 40
16.0
 40
16.0
 40
16.0
 40
17.0
 40
17.0
 40
17.0
 40
18.0
 40
18.0
 40
18.0
 40
19.0
 40
19.0
 40
19.0
 40
19.0
 10
95.3409504969981
 20
-121.1708984072073
 30
0.0
 10
95.3409504969981
 20
-121.2663275521487
 30
0.0
 10
95.31993541453808
 20
-121.4840575868165
 30
0.0
 10
95.13390025833459
 20
-121.6091145529311
 30
0.0
 10
95.02159014551545
 20
-121.6831841058639
 30
0.0
 10
94.92237139554024
 20
-121.6873182204462
 30
0.0
 10
94.8376220466031
 20
-121.6914523350285
 30
0.0
 10
94.8376220466031
 20
-121.6914523350285
 30
0.0
 10
94.8376220466031
 20
-121.4713107335211
 30
0.0
 10
94.8376220466031
 20
-121.4713107335211
 30
0.0
 10
94.91169159953597
 20
-121.4692436762299
 30
0.0
 10
95.14630260208149
 20
-121.4589083897742
 30
0.0
 10
95.14630260208149
 20
-121.1753770313381
 30
0.0
 10
95.14630260208149
 20
-121.0379177214766
 30
0.0
 10
95.07671167327943
 20
-120.8852999914801
 30
0.0
 10
94.84830184260737
 20
-120.8852999914801
 30
0.0
 10
94.73185761520593
 20
-120.8852999914801
 30
0.0
 10
94.6832817688639
 20
-120.9235405513663
 30
0.0
 10
94.65158689039961
 20
-120.9552354298306
 30
0.0
 10
94.57751733746673
 20
-121.0293049827635
 30
0.0
 10
94.5647704841713
 20
-121.145749210165
 30
0.0
 10
94.5647704841713
 20
-121.2005262283804
 30
0.0
 10
94.5647704841713
 20
-121.2198187630978
 30
0.0
 10
94.56683754146246
 20
-121.2556477561444
 30
0.0
 10
94.57097165604476
 20
-121.2832085200264
 30
0.0
 10
94.57097165604476
 20
-121.2832085200264
 30
0.0
 10
94.37632376112815
 20
-121.2832085200264
 30
0.0
 10
94.37632376112815
 20
-121.2832085200264
 30
0.0
 10
94.38286944255012
 20
-121.2449679601402
 30
0.0
 10
94.38493649984127
 20
-121.2029377952201
 30
0.0
 10
94.38493649984127
 20
-121.1963921137981
 30
0.0
 10
94.38493649984127
 20
-121.1309352995784
 30
0.0
 10
94.36357690783272
 20
-120.9321532900795
 30
0.0
 10
94.12689884799606
 20
-120.9321532900795
 30
0.0
 10
93.94913192095717
 20
-120.9321532900795
 30
0.0
 10
93.89401039319317
 20
-121.063066918519
 30
0.0
 10
93.89401039319317
 20
-121.173309974047
 30
0.0
 10
93.89401039319317
 20
-121.4375487977656
 30
0.0
 10
94.12689884799606
 20
-121.4461615364787
 30
0.0
 10
94.19855683408926
 20
-121.450295651061
 30
0.0
 10
94.19855683408926
 20
-121.450295651061
 30
0.0
 10
94.19855683408926
 20
-121.6535562846908
 30
0.0
 10
94.19855683408926
 20
-121.6535562846908
 30
0.0
 10
94.07384437752322
 20
-121.6449435459777
 30
0.0
 10
93.6972954409854
 20
-121.6173827820957
 30
0.0
 10
93.6972954409854
 20
-121.1605631207515
 30
0.0
 10
93.6972954409854
 20
-120.9362874046618
 30
0.0
 10
93.82441946439113
 20
-120.6951307206943
 30
0.0
 10
94.12035316657408
 20
-120.6951307206943
 30
0.0
 10
94.3067328323261
 20
-120.6951307206943
 30
0.0
 10
94.38907061442357
 20
-120.7902153560872
 30
0.0
 10
94.45039331406102
 20
-120.8897786156109
 30
0.0
 10
94.47795407794301
 20
-120.8284559159734
 30
0.0
 10
94.55822480274934
 20
-120.6465548743523
 30
0.0
 10
94.83555498931194
 20
-120.6465548743523
 30
0.0
 10
95.17386336596348
 20
-120.6465548743523
 30
0.0
 10
95.3409504969981
 20
-120.8939127301932
 30
0.0
 10
95.3409504969981
 20
-121.1708984072073
 30
0.0
  0
HATCH
  5
B7
330
B2
100
AcDbEntity
  8
_U+30EC_U+30A4_U+30E4_U+30FC 1
 62
   179
420
  2234388
100
AcDbHatch
 10
0.0
 20
0.0
 30
0.0
210
0.0
220
0.0
230
1.0
  2
SOLID
 70
     1
 71
     0
 91
        1
 92
        1
 93
        1
 72
     4
 94
        3
 73
     0
 74
     1
 95
       62
 96
       58
 40
0.0
 40
0.0
 40
0.0
 40
0.0
 40
1.0
 40
1.0
 40
1.0
 40
2.0
 40
2.0
 40
2.0
 40
3.0
 40
3.0
 40
3.0
 40
4.0
 40
4.0
 40
4.0
 40
5.0
 40
5.0
 40
5.0
 40
6.0
 40
6.0
 40
6.0
 40
7.0
 40
7.0
 40
7.0
 40
8.0
 40
8.0
 40
8.0
 40
9.0
 40
9.0
 40
9.0
 40
10.0
 40
10.0
 40
10.0
 40
11.0
 40
11.0
 40
11.0
 40
12.0
 40
12.0
 40
12.0
 40
13.0
 40
13.0
 40
13.0
 40
14.0
 40
14.0
 40
14.0
 40
15.0
 40
15.0
 40
15.0
 40
16.0
 40
16.0
 40
16.0
 40
17.0
 40
17.0
 40
17.0
 40
18.0
 40
18.0
 40
18.0
 40
19.0
 40
19.0
 40
19.0
 40
19.0
 10
95.3409504969981
 20
-121.1708984072073
 10
95.3409504969981
 20
-121.2663275521487
 10
95.31993541453808
 20
-121.4840575868165
 10
95.13390025833459
 20
-121.6091145529311
 10
95.02159014551545
 20
-121.6831841058639
 10
94.92237139554024
 20
-121.6873182204462
 10
94.8376220466031
 20
-121.6914523350285
 10
94.8376220466031
 20
-121.6914523350285
 10
94.8376220466031
 20
-121.4713107335211
 10
94.8376220466031
 20
-121.4713107335211
 10
94.91169159953597
 20
-121.4692436762299
 10
95.14630260208149
 20
-121.4589083897742
 10
95.14630260208149
 20
-121.1753770313381
 10
95.14630260208149
 20
-121.0379177214766
 10
95.07671167327943
 20
-120.8852999914801
 10
94.84830184260737
 20
-120.8852999914801
 10
94.73185761520593
 20
-120.8852999914801
 10
94.6832817688639
 20
-120.9235405513663
 10
94.65158689039961
 20
-120.9552354298306
 10
94.57751733746673
 20
-121.0293049827635
 10
94.5647704841713
 20
-121.145749210165
 10
94.5647704841713
 20
-121.2005262283804
 10
94.5647704841713
 20
-121.2198187630978
 10
94.56683754146246
 20
-121.2556477561444
 10
94.57097165604476
 20
-121.2832085200264
 10
94.57097165604476
 20
-121.2832085200264
 10
94.37632376112815
 20
-121.2832085200264
 10
94.37632376112815
 20
-121.2832085200264
 10
94.38286944255012
 20
-121.2449679601402
 10
94.38493649984127
 20
-121.2029377952201
 10
94.38493649984127
 20
-121.1963921137981
 10
94.38493649984127
 20
-121.1309352995784
 10
94.36357690783272
 20
-120.9321532900795
 10
94.12689884799606
 20
-120.9321532900795
 10
93.94913192095717
 20
-120.9321532900795
 10
93.89401039319317
 20
-121.063066918519
 10
93.89401039319317
 20
-121.173309974047
 10
93.89401039319317
 20
-121.4375487977656
 10
94.12689884799606
 20
-121.4461615364787
 10
94.19855683408926
 20
-121.450295651061
 10
94.19855683408926
 20
-121.450295651061
 10
94.19855683408926
 20
-121.6535562846908
 10
94.19855683408926
 20
-121.6535562846908
 10
94.07384437752322
 20
-121.6449435459777
 10
93.6972954409854
 20
-121.6173827820957
 10
93.6972954409854
 20
-121.1605631207515
 10
93.6972954409854
 20
-120.9362874046618
 10
93.82441946439113
 20
-120.6951307206943
 10
94.12035316657408
 20
-120.6951307206943
 10
94.3067328323261
 20
-120.6951307206943
 10
94.38907061442357
 20
-120.7902153560872
 10
94.45039331406102
 20
-120.8897786156109
 10
94.47795407794301
 20
-120.8284559159734
 10
94.55822480274934
 20
-120.6465548743523
 10
94.83555498931194
 20
-120.6465548743523
 10
95.17386336596348
 20
-120.6465548743523
 10
95.3409504969981
 20
-120.8939127301932
 10
95.3409504969981
 20
-121.1708984072073
 97
        0
 97
        0
 75
     2
 76
     1
 98
        0
  0
ENDBLK
  5
B5
330
B2
100
AcDbEntity
  8
0
100
AcDbBlockEnd
  0
BLOCK
  5
BA
330
B8
100
AcDbEntity
  8
0
100
AcDbBlockBegin
  2
block 6
 70
     0
 10
0.0
 20
0.0
 30
0.0
  3
block 6
  1

  0
SPLINE
  5
BC
330
B8
100
AcDbEntity
  8
_U+30EC_U+30A4_U+30E4_U+30FC 1
370
     0
100
AcDbSpline
210
0.0
220
0.0
230
1.0
 70
    11
 71
     3
 72
    26
 73
    22
 74
     0
 42
0.0000000001
 43
0.0000000001
 12
1.0
 22
0.0
 32
0.0
 13
1.0
 23
0.0
 33
0.0
 40
0.0
 40
0.0
 40
0.0
 40
0.0
 40
1.0
 40
1.0
 40
1.0
 40
2.0
 40
2.0
 40
2.0
 40
3.0
 40
3.0
 40
3.0
 40
4.0
 40
4.0
 40
4.0
 40
5.0
 40
5.0
 40
5.0
 40
6.0
 40
6.0
 40
6.0
 40
7.0
 40
7.0
 40
7.0
 40
7.0
 10
95.29030759336493
 20
-134.4930826486684
 30
0.0
 10
95.29030759336493
 20
-134.4930826486684
 30
0.0
 10
94.18615449034236
 20
-134.4930826486684
 30
0.0
 10
94.18615449034236
 20
-134.4930826486684
 30
0.0
 10
94.18615449034236
 20
-134.4930826486684
 30
0.0
 10
94.18615449034236
 20
-134.8231227961553
 30
0.0
 10
94.18615449034236
 20
-134.8231227961553
 30
0.0
 10
94.18615449034236
 20
-134.8231227961553
 30
0.0
 10
94.03801538447661
 20
-134.8231227961553
 30
0.0
 10
94.03801538447661
 20
-134.8231227961553
 30
0.0
 10
94.02320147389004
 20
-134.4910155913772
 30
0.0
 10
93.86024845743772
 20
-134.4445068023264
 30
0.0
 10
93.74587128732743
 20
-134.4148789811532
 30
0.0
 10
93.74587128732743
 20
-134.4148789811532
 30
0.0
 10
93.74587128732743
 20
-134.2688069325786
 30
0.0
 10
93.74587128732743
 20
-134.2688069325786
 30
0.0
 10
93.74587128732743
 20
-134.2688069325786
 30
0.0
 10
95.29030759336493
 20
-134.2688069325786
 30
0.0
 10
95.29030759336493
 20
-134.2688069325786
 30
0.0
 10
95.29030759336493
 20
-134.2688069325786
 30
0.0
 10
95.29030759336493
 20
-134.4930826486684
 30
0.0
 10
95.29030759336493
 20
-134.4930826486684
 30
0.0
  0
HATCH
  5
BD
330
B8
100
AcDbEntity
  8
_U+30EC_U+30A4_U+30E4_U+30FC 1
 62
   179
420
  2234388
100
AcDbHatch
 10
0.0
 20
0.0
 30
0.0
210
0.0
220
0.0
230
1.0
  2
SOLID
 70
     1
 71
     0
 91
        1
 92
        1
 93
        1
 72
     4
 94
        3
 73
     0
 74
     1
 95
       26
 96
       22
 40
0.0
 40
0.0
 40
0.0
 40
0.0
 40
1.0
 40
1.0
 40
1.0
 40
2.0
 40
2.0
 40
2.0
 40
3.0
 40
3.0
 40
3.0
 40
4.0
 40
4.0
 40
4.0
 40
5.0
 40
5.0
 40
5.0
 40
6.0
 40
6.0
 40
6.0
 40
7.0
 40
7.0
 40
7.0
 40
7.0
 10
95.29030759336493
 20
-134.4930826486684
 10
95.29030759336493
 20
-134.4930826486684
 10
94.18615449034236
 20
-134.4930826486684
 10
94.18615449034236
 20
-134.4930826486684
 10
94.18615449034236
 20
-134.4930826486684
 10
94.18615449034236
 20
-134.8231227961553
 10
94.18615449034236
 20
-134.8231227961553
 10
94.18615449034236
 20
-134.8231227961553
 10
94.03801538447661
 20
-134.8231227961553
 10
94.03801538447661
 20
-134.8231227961553
 10
94.02320147389004
 20
-134.4910155913772
 10
93.86024845743772
 20
-134.4445068023264
 10
93.74587128732743
 20
-134.4148789811532
 10
93.74587128732743
 20
-134.4148789811532
 10
93.74587128732743
 20
-134.2688069325786
 10
93.74587128732743
 20
-134.2688069325786
 10
93.74587128732743
 20
-134.2688069325786
 10
95.29030759336493
 20
-134.2688069325786
 10
95.29030759336493
 20
-134.2688069325786
 10
95.29030759336493
 20
-134.2688069325786
 10
95.29030759336493
 20
-134.4930826486684
 10
95.29030759336493
 20
-134.4930826486684
 97
        0
 97
        0
 75
     2
 76
     1
 98
        0
  0
SPLINE
  5
BE
330
B8
100
AcDbEntity
  8
_U+30EC_U+30A4_U+30E4_U+30FC 1
370
     0
100
AcDbSpline
210
0.0
220
0.0
230
1.0
 70
    11
 71
     3
 72
    32
 73
    28
 74
     0
 42
0.0000000001
 43
0.0000000001
 12
1.0
 22
0.0
 32
0.0
 13
1.0
 23
0.0
 33
0.0
 40
0.0
 40
0.0
 40
0.0
 40
0.0
 40
1.0
 40
1.0
 40
1.0
 40
2.0
 40
2.0
 40
2.0
 40
3.0
 40
3.0
 40
3.0
 40
4.0
 40
4.0
 40
4.0
 40
5.0
 40
5.0
 40
5.0
 40
6.0
 40
6.0
 40
6.0
 40
7.0
 40
7.0
 40
7.0
 40
8.0
 40
8.0
 40
8.0
 40
9.0
 40
9.0
 40
9.0
 40
9.0
 10
95.3409504969981
 20
-133.3100368590336
 30
0.0
 10
95.3409504969981
 20
-133.4833251619417
 30
0.0
 10
95.27135956819605
 20
-133.72896047004
 30
0.0
 10
94.93925236341796
 20
-133.7668565203777
 30
0.0
 10
94.93925236341796
 20
-133.7668565203777
 30
0.0
 10
94.93925236341796
 20
-133.5532606002922
 30
0.0
 10
94.93925236341796
 20
-133.5532606002922
 30
0.0
 10
94.99850800576426
 20
-133.542580804288
 30
0.0
 10
95.14630260208149
 20
-133.5108859258237
 30
0.0
 10
95.14630260208149
 20
-133.3079698017424
 30
0.0
 10
95.14630260208149
 20
-133.0158257045933
 30
0.0
 10
94.81626245459455
 20
-132.9779296542555
 30
0.0
 10
94.61127927322218
 20
-132.9651828009601
 30
0.0
 10
94.6915499980285
 20
-133.0561333217707
 30
0.0
 10
94.74873858308365
 20
-133.1236571932816
 30
0.0
 10
94.74873858308365
 20
-133.3055582349028
 30
0.0
 10
94.74873858308365
 20
-133.4853922192328
 30
0.0
 10
94.64297415168649
 20
-133.7882161123863
 30
0.0
 10
94.23679739397552
 20
-133.7882161123863
 30
0.0
 10
93.91743704249286
 20
-133.7882161123863
 30
0.0
 10
93.6972954409854
 20
-133.5890895933389
 30
0.0
 10
93.6972954409854
 20
-133.2717962991473
 30
0.0
 10
93.6972954409854
 20
-132.7577880527481
 30
0.0
 10
94.2516113045621
 20
-132.7471082567438
 30
0.0
 10
94.46520722464759
 20
-132.7471082567438
 30
0.0
 10
94.6956841126108
 20
-132.7471082567438
 30
0.0
 10
95.3409504969981
 20
-132.7664007914612
 30
0.0
 10
95.3409504969981
 20
-133.3100368590336
 30
0.0
  0
SPLINE
  5
BF
330
B8
100
AcDbEntity
  8
_U+30EC_U+30A4_U+30E4_U+30FC 1
370
     0
100
AcDbSpline
210
0.0
220
0.0
230
1.0
 70
    11
 71
     3
 72
    17
 73
    13
 74
     0
 42
0.0000000001
 43
0.0000000001
 12
1.0
 22
0.0
 32
0.0
 13
1.0
 23
0.0
 33
0.0
 40
0.0
 40
0.0
 40
0.0
 40
0.0
 40
1.0
 40
1.0
 40
1.0
 40
2.0
 40
2.0
 40
2.0
 40
3.0
 40
3.0
 40
3.0
 40
4.0
 40
4.0
 40
4.0
 40
4.0
 10
93.88987627861087
 20
-133.2697292418562
 30
0.0
 10
93.88987627861087
 20
-133.3882405265488
 30
0.0
 10
93.94706486366601
 20
-133.5639403962965
 30
0.0
 10
94.23266327939322
 20
-133.5639403962965
 30
0.0
 10
94.45900605277414
 20
-133.5639403962965
 30
0.0
 10
94.55409068816704
 20
-133.4240695195954
 30
0.0
 10
94.55409068816704
 20
-133.2886772670251
 30
0.0
 10
94.55409068816704
 20
-133.0265055005976
 30
0.0
 10
94.34462888266384
 20
-132.9882649407113
 30
0.0
 10
94.2281846552624
 20
-132.9882649407113
 30
0.0
 10
94.05282929506319
 20
-132.9882649407113
 30
0.0
 10
93.88987627861087
 20
-133.0836940856527
 30
0.0
 10
93.88987627861087
 20
-133.2697292418562
 30
0.0
  0
HATCH
  5
C0
330
B8
100
AcDbEntity
  8
_U+30EC_U+30A4_U+30E4_U+30FC 1
 62
   179
420
  2234388
100
AcDbHatch
 10
0.0
 20
0.0
 30
0.0
210
0.0
220
0.0
230
1.0
  2
SOLID
 70
     1
 71
     0
 91
        2
 92
        1
 93
        1
 72
     4
 94
        3
 73
     0
 74
     1
 95
       32
 96
       28
 40
0.0
 40
0.0
 40
0.0
 40
0.0
 40
1.0
 40
1.0
 40
1.0
 40
2.0
 40
2.0
 40
2.0
 40
3.0
 40
3.0
 40
3.0
 40
4.0
 40
4.0
 40
4.0
 40
5.0
 40
5.0
 40
5.0
 40
6.0
 40
6.0
 40
6.0
 40
7.0
 40
7.0
 40
7.0
 40
8.0
 40
8.0
 40
8.0
 40
9.0
 40
9.0
 40
9.0
 40
9.0
 10
95.3409504969981
 20
-133.3100368590336
 10
95.3409504969981
 20
-133.4833251619417
 10
95.27135956819605
 20
-133.72896047004
 10
94.93925236341796
 20
-133.7668565203777
 10
94.93925236341796
 20
-133.7668565203777
 10
94.93925236341796
 20
-133.5532606002922
 10
94.93925236341796
 20
-133.5532606002922
 10
94.99850800576426
 20
-133.542580804288
 10
95.14630260208149
 20
-133.5108859258237
 10
95.14630260208149
 20
-133.3079698017424
 10
95.14630260208149
 20
-133.0158257045933
 10
94.81626245459455
 20
-132.9779296542555
 10
94.61127927322218
 20
-132.9651828009601
 10
94.6915499980285
 20
-133.0561333217707
 10
94.74873858308365
 20
-133.1236571932816
 10
94.74873858308365
 20
-133.3055582349028
 10
94.74873858308365
 20
-133.4853922192328
 10
94.64297415168649
 20
-133.7882161123863
 10
94.23679739397552
 20
-133.7882161123863
 10
93.91743704249286
 20
-133.7882161123863
 10
93.6972954409854
 20
-133.5890895933389
 10
93.6972954409854
 20
-133.2717962991473
 10
93.6972954409854
 20
-132.7577880527481
 10
94.2516113045621
 20
-132.7471082567438
 10
94.46520722464759
 20
-132.7471082567438
 10
94.6956841126108
 20
-132.7471082567438
 10
95.3409504969981
 20
-132.7664007914612
 10
95.3409504969981
 20
-133.3100368590336
 97
        0
 97
        0
 92
        1
 93
        1
 72
     4
 94
        3
 73
     0
 74
     1
 95
       17
 96
       13
 40
0.0
 40
0.0
 40
0.0
 40
0.0
 40
1.0
 40
1.0
 40
1.0
 40
2.0
 40
2.0
 40
2.0
 40
3.0
 40
3.0
 40
3.0
 40
4.0
 40
4.0
 40
4.0
 40
4.0
 10
93.88987627861087
 20
-133.2697292418562
 10
93.88987627861087
 20
-133.3882405265488
 10
93.94706486366601
 20
-133.5639403962965
 10
94.23266327939322
 20
-133.5639403962965
 10
94.45900605277414
 20
-133.5639403962965
 10
94.55409068816704
 20
-133.4240695195954
 10
94.55409068816704
 20
-133.2886772670251
 10
94.55409068816704
 20
-133.0265055005976
 10
94.34462888266384
 20
-132.9882649407113
 10
94.2281846552624
 20
-132.9882649407113
 10
94.05282929506319
 20
-132.9882649407113
 10
93.88987627861087
 20
-133.0836940856527
 10
93.88987627861087
 20
-133.2697292418562
 97
        0
 97
        0
 75
     2
 76
     1
 98
        0
  0
ENDBLK
  5
BB
330
B8
100
AcDbEntity
  8
0
100
AcDbBlockEnd
  0
BLOCK
  5
D2
330
D0
100
AcDbEntity
  8
0
100
AcDbBlockBegin
  2
block 7
 70
     0
 10
0.0
 20
0.0
 30
0.0
  3
block 7
  1

  0
SPLINE
  5
D4
330
D0
100
AcDbEntity
  8
_U+30EC_U+30A4_U+30E4_U+30FC 1
370
     0
100
AcDbSpline
210
0.0
220
0.0
230
1.0
 70
    11
 71
     3
 72
    26
 73
    22
 74
     0
 42
0.0000000001
 43
0.0000000001
 12
1.0
 22
0.0
 32
0.0
 13
1.0
 23
0.0
 33
0.0
 40
0.0
 40
0.0
 40
0.0
 40
0.0
 40
1.0
 40
1.0
 40
1.0
 40
2.0
 40
2.0
 40
2.0
 40
3.0
 40
3.0
 40
3.0
 40
4.0
 40
4.0
 40
4.0
 40
5.0
 40
5.0
 40
5.0
 40
6.0
 40
6.0
 40
6.0
 40
7.0
 40
7.0
 40
7.0
 40
7.0
 10
85.60924477026435
 20
-136.4988172401809
 30
0.0
 10
85.60924477026435
 20
-136.4988172401809
 30
0.0
 10
84.50509166724179
 20
-136.4988172401809
 30
0.0
 10
84.50509166724179
 20
-136.4988172401809
 30
0.0
 10
84.50509166724179
 20
-136.4988172401809
 30
0.0
 10
84.50509166724179
 20
-136.8288573876678
 30
0.0
 10
84.50509166724179
 20
-136.8288573876678
 30
0.0
 10
84.50509166724179
 20
-136.8288573876678
 30
0.0
 10
84.35695256137605
 20
-136.8288573876678
 30
0.0
 10
84.35695256137605
 20
-136.8288573876678
 30
0.0
 10
84.34213865078947
 20
-136.4967501828897
 30
0.0
 10
84.17918563433714
 20
-136.4502413938388
 30
0.0
 10
84.06480846422686
 20
-136.4206135726657
 30
0.0
 10
84.06480846422686
 20
-136.4206135726657
 30
0.0
 10
84.06480846422686
 20
-136.2745415240911
 30
0.0
 10
84.06480846422686
 20
-136.2745415240911
 30
0.0
 10
84.06480846422686
 20
-136.2745415240911
 30
0.0
 10
85.60924477026435
 20
-136.2745415240911
 30
0.0
 10
85.60924477026435
 20
-136.2745415240911
 30
0.0
 10
85.60924477026435
 20
-136.2745415240911
 30
0.0
 10
85.60924477026435
 20
-136.4988172401809
 30
0.0
 10
85.60924477026435
 20
-136.4988172401809
 30
0.0
  0
HATCH
  5
D5
330
D0
100
AcDbEntity
  8
_U+30EC_U+30A4_U+30E4_U+30FC 1
 62
   179
420
  2234388
100
AcDbHatch
 10
0.0
 20
0.0
 30
0.0
210
0.0
220
0.0
230
1.0
  2
SOLID
 70
     1
 71
     0
 91
        1
 92
        1
 93
        1
 72
     4
 94
        3
 73
     0
 74
     1
 95
       26
 96
       22
 40
0.0
 40
0.0
 40
0.0
 40
0.0
 40
1.0
 40
1.0
 40
1.0
 40
2.0
 40
2.0
 40
2.0
 40
3.0
 40
3.0
 40
3.0
 40
4.0
 40
4.0
 40
4.0
 40
5.0
 40
5.0
 40
5.0
 40
6.0
 40
6.0
 40
6.0
 40
7.0
 40
7.0
 40
7.0
 40
7.0
 10
85.60924477026435
 20
-136.4988172401809
 10
85.60924477026435
 20
-136.4988172401809
 10
84.50509166724179
 20
-136.4988172401809
 10
84.50509166724179
 20
-136.4988172401809
 10
84.50509166724179
 20
-136.4988172401809
 10
84.50509166724179
 20
-136.8288573876678
 10
84.50509166724179
 20
-136.8288573876678
 10
84.50509166724179
 20
-136.8288573876678
 10
84.35695256137605
 20
-136.8288573876678
 10
84.35695256137605
 20
-136.8288573876678
 10
84.34213865078947
 20
-136.4967501828897
 10
84.17918563433714
 20
-136.4502413938388
 10
84.06480846422686
 20
-136.4206135726657
 10
84.06480846422686
 20
-136.4206135726657
 10
84.06480846422686
 20
-136.2745415240911
 10
84.06480846422686
 20
-136.2745415240911
 10
84.06480846422686
 20
-136.2745415240911
 10
85.60924477026435
 20
-136.2745415240911
 10
85.60924477026435
 20
-136.2745415240911
 10
85.60924477026435
 20
-136.2745415240911
 10
85.60924477026435
 20
-136.4988172401809
 10
85.60924477026435
 20
-136.4988172401809
 97
        0
 97
        0
 75
     2
 76
     1
 98
        0
  0
SPLINE
  5
D6
330
D0
100
AcDbEntity
  8
_U+30EC_U+30A4_U+30E4_U+30FC 1
370
     0
100
AcDbSpline
210
0.0
220
0.0
230
1.0
 70
    11
 71
     3
 72
    44
 73
    40
 74
     0
 42
0.0000000001
 43
0.0000000001
 12
1.0
 22
0.0
 32
0.0
 13
1.0
 23
0.0
 33
0.0
 40
0.0
 40
0.0
 40
0.0
 40
0.0
 40
1.0
 40
1.0
 40
1.0
 40
2.0
 40
2.0
 40
2.0
 40
3.0
 40
3.0
 40
3.0
 40
4.0
 40
4.0
 40
4.0
 40
5.0
 40
5.0
 40
5.0
 40
6.0
 40
6.0
 40
6.0
 40
7.0
 40
7.0
 40
7.0
 40
8.0
 40
8.0
 40
8.0
 40
9.0
 40
9.0
 40
9.0
 40
10.0
 40
10.0
 40
10.0
 40
11.0
 40
11.0
 40
11.0
 40
12.0
 40
12.0
 40
12.0
 40
13.0
 40
13.0
 40
13.0
 40
13.0
 10
85.02736814280566
 20
-135.1800346884272
 30
0.0
 10
85.18618704467568
 20
-135.3981092326435
 30
0.0
 10
85.26025659760855
 20
-135.4911268107453
 30
0.0
 10
85.40391707934347
 20
-135.5397026570873
 30
0.0
 10
85.40391707934347
 20
-135.5397026570873
 30
0.0
 10
85.40391707934347
 20
-134.7614555869694
 30
0.0
 10
85.40391707934347
 20
-134.7614555869694
 30
0.0
 10
85.40391707934347
 20
-134.7614555869694
 30
0.0
 10
85.60924477026435
 20
-134.7614555869694
 30
0.0
 10
85.60924477026435
 20
-134.7614555869694
 30
0.0
 10
85.60924477026435
 20
-134.7614555869694
 30
0.0
 10
85.60924477026435
 20
-135.7894720797679
 30
0.0
 10
85.60924477026435
 20
-135.7894720797679
 30
0.0
 10
85.25164385889542
 20
-135.7577772013036
 30
0.0
 10
85.17344019138025
 20
-135.6923203870839
 30
0.0
 10
84.87509492235762
 20
-135.3071587118329
 30
0.0
 10
84.6763129128587
 20
-135.0511881172789
 30
0.0
 10
84.60844453179928
 20
-134.9857313030591
 30
0.0
 10
84.47098522193781
 20
-134.9857313030591
 30
0.0
 10
84.35247393724522
 20
-134.9857313030591
 30
0.0
 10
84.22156030880572
 20
-135.0573892891523
 30
0.0
 10
84.22156030880572
 20
-135.2541042413601
 30
0.0
 10
84.22156030880572
 20
-135.514553460045
 30
0.0
 10
84.45203719676894
 20
-135.5228216892096
 30
0.0
 10
84.56848142417039
 20
-135.5273003133404
 30
0.0
 10
84.56848142417039
 20
-135.5273003133404
 30
0.0
 10
84.56848142417039
 20
-135.7512315198817
 30
0.0
 10
84.56848142417039
 20
-135.7512315198817
 30
0.0
 10
84.44135740076466
 20
-135.7429632907171
 30
0.0
 10
84.32939179749404
 20
-135.7322834947128
 30
0.0
 10
84.21088051280145
 20
-135.6520127699064
 30
0.0
 10
84.04999455364029
 20
-135.542114223927
 30
0.0
 10
84.01623261788484
 20
-135.355734558175
 30
0.0
 10
84.01623261788484
 20
-135.2392903307735
 30
0.0
 10
84.01623261788484
 20
-134.9623046537594
 30
0.0
 10
84.20020071679717
 20
-134.7549099055474
 30
0.0
 10
84.47305227922897
 20
-134.7549099055474
 30
0.0
 10
84.70180661944956
 20
-134.7549099055474
 30
0.0
 10
84.80102536942475
 20
-134.8713541329488
 30
0.0
 10
85.02736814280566
 20
-135.1800346884272
 30
0.0
  0
HATCH
  5
D7
330
D0
100
AcDbEntity
  8
_U+30EC_U+30A4_U+30E4_U+30FC 1
 62
   179
420
  2234388
100
AcDbHatch
 10
0.0
 20
0.0
 30
0.0
210
0.0
220
0.0
230
1.0
  2
SOLID
 70
     1
 71
     0
 91
        1
 92
        1
 93
        1
 72
     4
 94
        3
 73
     0
 74
     1
 95
       44
 96
       40
 40
0.0
 40
0.0
 40
0.0
 40
0.0
 40
1.0
 40
1.0
 40
1.0
 40
2.0
 40
2.0
 40
2.0
 40
3.0
 40
3.0
 40
3.0
 40
4.0
 40
4.0
 40
4.0
 40
5.0
 40
5.0
 40
5.0
 40
6.0
 40
6.0
 40
6.0
 40
7.0
 40
7.0
 40
7.0
 40
8.0
 40
8.0
 40
8.0
 40
9.0
 40
9.0
 40
9.0
 40
10.0
 40
10.0
 40
10.0
 40
11.0
 40
11.0
 40
11.0
 40
12.0
 40
12.0
 40
12.0
 40
13.0
 40
13.0
 40
13.0
 40
13.0
 10
85.02736814280566
 20
-135.1800346884272
 10
85.18618704467568
 20
-135.3981092326435
 10
85.26025659760855
 20
-135.4911268107453
 10
85.40391707934347
 20
-135.5397026570873
 10
85.40391707934347
 20
-135.5397026570873
 10
85.40391707934347
 20
-134.7614555869694
 10
85.40391707934347
 20
-134.7614555869694
 10
85.40391707934347
 20
-134.7614555869694
 10
85.60924477026435
 20
-134.7614555869694
 10
85.60924477026435
 20
-134.7614555869694
 10
85.60924477026435
 20
-134.7614555869694
 10
85.60924477026435
 20
-135.7894720797679
 10
85.60924477026435
 20
-135.7894720797679
 10
85.25164385889542
 20
-135.7577772013036
 10
85.17344019138025
 20
-135.6923203870839
 10
84.87509492235762
 20
-135.3071587118329
 10
84.6763129128587
 20
-135.0511881172789
 10
84.60844453179928
 20
-134.9857313030591
 10
84.47098522193781
 20
-134.9857313030591
 10
84.35247393724522
 20
-134.9857313030591
 10
84.22156030880572
 20
-135.0573892891523
 10
84.22156030880572
 20
-135.2541042413601
 10
84.22156030880572
 20
-135.514553460045
 10
84.45203719676894
 20
-135.5228216892096
 10
84.56848142417039
 20
-135.5273003133404
 10
84.56848142417039
 20
-135.5273003133404
 10
84.56848142417039
 20
-135.7512315198817
 10
84.56848142417039
 20
-135.7512315198817
 10
84.44135740076466
 20
-135.7429632907171
 10
84.32939179749404
 20
-135.7322834947128
 10
84.21088051280145
 20
-135.6520127699064
 10
84.04999455364029
 20
-135.542114223927
 10
84.01623261788484
 20
-135.355734558175
 10
84.01623261788484
 20
-135.2392903307735
 10
84.01623261788484
 20
-134.9623046537594
 10
84.20020071679717
 20
-134.7549099055474
 10
84.47305227922897
 20
-134.7549099055474
 10
84.70180661944956
 20
-134.7549099055474
 10
84.80102536942475
 20
-134.8713541329488
 10
85.02736814280566
 20
-135.1800346884272
 97
        0
 97
        0
 75
     2
 76
     1
 98
        0
  0
ENDBLK
  5
D3
330
D0
100
AcDbEntity
  8
0
100
AcDbBlockEnd
  0
BLOCK
  5
E9
330
E7
100
AcDbEntity
  8
0
100
AcDbBlockBegin
  2
block 8
 70
     0
 10
0.0
 20
0.0
 30
0.0
  3
block 8
  1

  0
SPLINE
  5
EB
330
E7
100
AcDbEntity
  8
_U+30EC_U+30A4_U+30E4_U+30FC 1
370
     0
100
AcDbSpline
210
0.0
220
0.0
230
1.0
 70
    11
 71
     3
 72
    26
 73
    22
 74
     0
 42
0.0000000001
 43
0.0000000001
 12
1.0
 22
0.0
 32
0.0
 13
1.0
 23
0.0
 33
0.0
 40
0.0
 40
0.0
 40
0.0
 40
0.0
 40
1.0
 40
1.0
 40
1.0
 40
2.0
 40
2.0
 40
2.0
 40
3.0
 40
3.0
 40
3.0
 40
4.0
 40
4.0
 40
4.0
 40
5.0
 40
5.0
 40
5.0
 40
6.0
 40
6.0
 40
6.0
 40
7.0
 40
7.0
 40
7.0
 40
7.0
 10
76.43581676691535
 20
-114.7883422564592
 30
0.0
 10
76.43581676691535
 20
-114.7883422564592
 30
0.0
 10
76.43581676691535
 20
-113.6840168986623
 30
0.0
 10
76.43581676691535
 20
-113.6840168986623
 30
0.0
 10
76.43581676691535
 20
-113.6840168986623
 30
0.0
 10
76.10577661942843
 20
-113.6840168986623
 30
0.0
 10
76.10577661942843
 20
-113.6840168986623
 30
0.0
 10
76.10577661942843
 20
-113.6840168986623
 30
0.0
 10
76.10577661942843
 20
-113.5358777927966
 30
0.0
 10
76.10577661942843
 20
-113.5358777927966
 30
0.0
 10
76.43788382420651
 20
-113.5212361369843
 30
0.0
 10
76.48439261325738
 20
-113.358283120532
 30
0.0
 10
76.51402043443052
 20
-113.2440782051959
 30
0.0
 10
76.51402043443052
 20
-113.2440782051959
 30
0.0
 10
76.66009248300512
 20
-113.2440782051959
 30
0.0
 10
76.66009248300512
 20
-113.2440782051959
 30
0.0
 10
76.66009248300512
 20
-113.2440782051959
 30
0.0
 10
76.66009248300512
 20
-114.7883422564592
 30
0.0
 10
76.66009248300512
 20
-114.7883422564592
 30
0.0
 10
76.66009248300512
 20
-114.7883422564592
 30
0.0
 10
76.43581676691535
 20
-114.7883422564592
 30
0.0
 10
76.43581676691535
 20
-114.7883422564592
 30
0.0
  0
HATCH
  5
EC
330
E7
100
AcDbEntity
  8
_U+30EC_U+30A4_U+30E4_U+30FC 1
 62
   179
420
  2234388
100
AcDbHatch
 10
0.0
 20
0.0
 30
0.0
210
0.0
220
0.0
230
1.0
  2
SOLID
 70
     1
 71
     0
 91
        1
 92
        1
 93
        1
 72
     4
 94
        3
 73
     0
 74
     1
 95
       26
 96
       22
 40
0.0
 40
0.0
 40
0.0
 40
0.0
 40
1.0
 40
1.0
 40
1.0
 40
2.0
 40
2.0
 40
2.0
 40
3.0
 40
3.0
 40
3.0
 40
4.0
 40
4.0
 40
4.0
 40
5.0
 40
5.0
 40
5.0
 40
6.0
 40
6.0
 40
6.0
 40
7.0
 40
7.0
 40
7.0
 40
7.0
 10
76.43581676691535
 20
-114.7883422564592
 10
76.43581676691535
 20
-114.7883422564592
 10
76.43581676691535
 20
-113.6840168986623
 10
76.43581676691535
 20
-113.6840168986623
 10
76.43581676691535
 20
-113.6840168986623
 10
76.10577661942843
 20
-113.6840168986623
 10
76.10577661942843
 20
-113.6840168986623
 10
76.10577661942843
 20
-113.6840168986623
 10
76.10577661942843
 20
-113.5358777927966
 10
76.10577661942843
 20
-113.5358777927966
 10
76.43788382420651
 20
-113.5212361369843
 10
76.48439261325738
 20
-113.358283120532
 10
76.51402043443052
 20
-113.2440782051959
 10
76.51402043443052
 20
-113.2440782051959
 10
76.66009248300512
 20
-113.2440782051959
 10
76.66009248300512
 20
-113.2440782051959
 10
76.66009248300512
 20
-113.2440782051959
 10
76.66009248300512
 20
-114.7883422564592
 10
76.66009248300512
 20
-114.7883422564592
 10
76.66009248300512
 20
-114.7883422564592
 10
76.43581676691535
 20
-114.7883422564592
 10
76.43581676691535
 20
-114.7883422564592
 97
        0
 97
        0
 75
     2
 76
     1
 98
        0
  0
SPLINE
  5
ED
330
E7
100
AcDbEntity
  8
_U+30EC_U+30A4_U+30E4_U+30FC 1
370
     0
100
AcDbSpline
210
0.0
220
0.0
230
1.0
 70
    11
 71
     3
 72
    26
 73
    22
 74
     0
 42
0.0000000001
 43
0.0000000001
 12
1.0
 22
0.0
 32
0.0
 13
1.0
 23
0.0
 33
0.0
 40
0.0
 40
0.0
 40
0.0
 40
0.0
 40
1.0
 40
1.0
 40
1.0
 40
2.0
 40
2.0
 40
2.0
 40
3.0
 40
3.0
 40
3.0
 40
4.0
 40
4.0
 40
4.0
 40
5.0
 40
5.0
 40
5.0
 40
6.0
 40
6.0
 40
6.0
 40
7.0
 40
7.0
 40
7.0
 40
7.0
 10
77.6126613846767
 20
-114.7883422564592
 30
0.0
 10
77.6126613846767
 20
-114.7883422564592
 30
0.0
 10
77.6126613846767
 20
-113.6840168986623
 30
0.0
 10
77.6126613846767
 20
-113.6840168986623
 30
0.0
 10
77.6126613846767
 20
-113.6840168986623
 30
0.0
 10
77.28262123718976
 20
-113.6840168986623
 30
0.0
 10
77.28262123718976
 20
-113.6840168986623
 30
0.0
 10
77.28262123718976
 20
-113.6840168986623
 30
0.0
 10
77.28262123718976
 20
-113.5358777927966
 30
0.0
 10
77.28262123718976
 20
-113.5358777927966
 30
0.0
 10
77.61472844196786
 20
-113.5212361369843
 30
0.0
 10
77.66123723101872
 20
-113.358283120532
 30
0.0
 10
77.69086505219187
 20
-113.2440782051959
 30
0.0
 10
77.69086505219187
 20
-113.2440782051959
 30
0.0
 10
77.83693710076646
 20
-113.2440782051959
 30
0.0
 10
77.83693710076646
 20
-113.2440782051959
 30
0.0
 10
77.83693710076646
 20
-113.2440782051959
 30
0.0
 10
77.83693710076646
 20
-114.7883422564592
 30
0.0
 10
77.83693710076646
 20
-114.7883422564592
 30
0.0
 10
77.83693710076646
 20
-114.7883422564592
 30
0.0
 10
77.6126613846767
 20
-114.7883422564592
 30
0.0
 10
77.6126613846767
 20
-114.7883422564592
 30
0.0
  0
HATCH
  5
EE
330
E7
100
AcDbEntity
  8
_U+30EC_U+30A4_U+30E4_U+30FC 1
 62
   179
420
  2234388
100
AcDbHatch
 10
0.0
 20
0.0
 30
0.0
210
0.0
220
0.0
230
1.0
  2
SOLID
 70
     1
 71
     0
 91
        1
 92
        1
 93
        1
 72
     4
 94
        3
 73
     0
 74
     1
 95
       26
 96
       22
 40
0.0
 40
0.0
 40
0.0
 40
0.0
 40
1.0
 40
1.0
 40
1.0
 40
2.0
 40
2.0
 40
2.0
 40
3.0
 40
3.0
 40
3.0
 40
4.0
 40
4.0
 40
4.0
 40
5.0
 40
5.0
 40
5.0
 40
6.0
 40
6.0
 40
6.0
 40
7.0
 40
7.0
 40
7.0
 40
7.0
 10
77.6126613846767
 20
-114.7883422564592
 10
77.6126613846767
 20
-114.7883422564592
 10
77.6126613846767
 20
-113.6840168986623
 10
77.6126613846767
 20
-113.6840168986623
 10
77.6126613846767
 20
-113.6840168986623
 10
77.28262123718976
 20
-113.6840168986623
 10
77.28262123718976
 20
-113.6840168986623
 10
77.28262123718976
 20
-113.6840168986623
 10
77.28262123718976
 20
-113.5358777927966
 10
77.28262123718976
 20
-113.5358777927966
 10
77.61472844196786
 20
-113.5212361369843
 10
77.66123723101872
 20
-113.358283120532
 10
77.69086505219187
 20
-113.2440782051959
 10
77.69086505219187
 20
-113.2440782051959
 10
77.83693710076646
 20
-113.2440782051959
 10
77.83693710076646
 20
-113.2440782051959
 10
77.83693710076646
 20
-113.2440782051959
 10
77.83693710076646
 20
-114.7883422564592
 10
77.83693710076646
 20
-114.7883422564592
 10
77.83693710076646
 20
-114.7883422564592
 10
77.6126613846767
 20
-114.7883422564592
 10
77.6126613846767
 20
-114.7883422564592
 97
        0
 97
        0
 75
     2
 76
     1
 98
        0
  0
POLYLINE
  5
EF
330
E7
100
AcDbEntity
  8
_U+30EC_U+30A4_U+30E4_U+30FC 1
370
     0
100
AcDb2dPolyline
 66
     1
 10
0.0
 20
0.0
 30
0.0
  0
VERTEX
  5
F0
330
EF
100
AcDbEntity
  8
_U+30EC_U+30A4_U+30E4_U+30FC 1
370
     0
100
AcDbVertex
100
AcDb2dVertex
 10
78.39814315531366
 20
-114.7883422564592
 30
0.0
  0
VERTEX
  5
F1
330
EF
100
AcDbEntity
  8
_U+30EC_U+30A4_U+30E4_U+30FC 1
370
     0
100
AcDbVertex
100
AcDb2dVertex
 10
78.39814315531366
 20
-114.5366780312617
 30
0.0
  0
VERTEX
  5
F2
330
EF
100
AcDbEntity
  8
_U+30EC_U+30A4_U+30E4_U+30FC 1
370
     0
100
AcDbVertex
100
AcDb2dVertex
 10
78.64997963528542
 20
-114.5366780312617
 30
0.0
  0
VERTEX
  5
F3
330
EF
100
AcDbEntity
  8
_U+30EC_U+30A4_U+30E4_U+30FC 1
370
     0
100
AcDbVertex
100
AcDb2dVertex
 10
78.64997963528542
 20
-114.7883422564592
 30
0.0
  0
VERTEX
  5
F4
330
EF
100
AcDbEntity
  8
_U+30EC_U+30A4_U+30E4_U+30FC 1
370
     0
100
AcDbVertex
100
AcDb2dVertex
 10
78.39814315531366
 20
-114.7883422564592
 30
0.0
  0
SEQEND
  5
F5
330
EF
100
AcDbEntity
  8
_U+30EC_U+30A4_U+30E4_U+30FC 1
370
     0
  0
HATCH
  5
F6
330
E7
100
AcDbEntity
  8
_U+30EC_U+30A4_U+30E4_U+30FC 1
 62
   179
420
  2234388
100
AcDbHatch
 10
0.0
 20
0.0
 30
0.0
210
0.0
220
0.0
230
1.0
  2
SOLID
 70
     1
 71
     0
 91
        1
 92
        1
 93
        4
 72
     1
 10
78.39814315531366
 20
-114.7883422564592
 11
78.39814315531366
 21
-114.5366780312617
 72
     1
 10
78.39814315531366
 20
-114.5366780312617
 11
78.64997963528542
 21
-114.5366780312617
 72
     1
 10
78.64997963528542
 20
-114.5366780312617
 11
78.64997963528542
 21
-114.7883422564592
 72
     1
 10
78.64997963528542
 20
-114.7883422564592
 11
78.39814315531366
 21
-114.7883422564592
 97
        0
 75
     2
 76
     1
 98
        0
  0
SPLINE
  5
F7
330
E7
100
AcDbEntity
  8
_U+30EC_U+30A4_U+30E4_U+30FC 1
370
     0
100
AcDbSpline
210
0.0
220
0.0
230
1.0
 70
    11
 71
     3
 72
    53
 73
    49
 74
     0
 42
0.0000000001
 43
0.0000000001
 12
1.0
 22
0.0
 32
0.0
 13
1.0
 23
0.0
 33
0.0
 40
0.0
 40
0.0
 40
0.0
 40
0.0
 40
1.0
 40
1.0
 40
1.0
 40
2.0
 40
2.0
 40
2.0
 40
3.0
 40
3.0
 40
3.0
 40
4.0
 40
4.0
 40
4.0
 40
5.0
 40
5.0
 40
5.0
 40
6.0
 40
6.0
 40
6.0
 40
7.0
 40
7.0
 40
7.0
 40
8.0
 40
8.0
 40
8.0
 40
9.0
 40
9.0
 40
9.0
 40
10.0
 40
10.0
 40
10.0
 40
11.0
 40
11.0
 40
11.0
 40
12.0
 40
12.0
 40
12.0
 40
13.0
 40
13.0
 40
13.0
 40
14.0
 40
14.0
 40
14.0
 40
15.0
 40
15.0
 40
15.0
 40
16.0
 40
16.0
 40
16.0
 40
16.0
 10
79.36724851531444
 20
-114.8391574148666
 30
0.0
 10
79.28904484779927
 20
-114.8391574148666
 30
0.0
 10
79.1874145309844
 20
-114.8222764469889
 30
0.0
 10
79.08578421416954
 20
-114.758714435286
 30
0.0
 10
78.91249591126146
 20
-114.6486436345323
 30
0.0
 10
78.89113631925291
 20
-114.5175577513185
 30
0.0
 10
78.87218829408404
 20
-114.4097262626302
 30
0.0
 10
78.87218829408404
 20
-114.4097262626302
 30
0.0
 10
79.09439695288266
 20
-114.4097262626302
 30
0.0
 10
79.09439695288266
 20
-114.4097262626302
 30
0.0
 10
79.14917397109812
 20
-114.6085082721291
 30
0.0
 10
79.27629799450385
 20
-114.6381360933023
 30
0.0
 10
79.36931557260559
 20
-114.6381360933023
 30
0.0
 10
79.50884193975821
 20
-114.6381360933023
 30
0.0
 10
79.66111516020625
 20
-114.5387450885528
 30
0.0
 10
79.66111516020625
 20
-114.3060288885242
 30
0.0
 10
79.66111516020625
 20
-114.0500582939701
 30
0.0
 10
79.4812811758762
 20
-113.9802951103938
 30
0.0
 10
79.36070283389246
 20
-113.9802951103938
 30
0.0
 10
79.32900795542817
 20
-113.9802951103938
 30
0.0
 10
79.1874145309844
 20
-113.9802951103938
 30
0.0
 10
79.09853106746496
 20
-114.1093139363164
 30
0.0
 10
79.09853106746496
 20
-114.1093139363164
 30
0.0
 10
78.92283119771722
 20
-114.0901936563733
 30
0.0
 10
78.92283119771722
 20
-114.0901936563733
 30
0.0
 10
78.92283119771722
 20
-114.0901936563733
 30
0.0
 10
79.04340953970096
 20
-113.2440782051959
 30
0.0
 10
79.04340953970096
 20
-113.2440782051959
 30
0.0
 10
79.04340953970096
 20
-113.2440782051959
 30
0.0
 10
79.82200111936741
 20
-113.2440782051959
 30
0.0
 10
79.82200111936741
 20
-113.2440782051959
 30
0.0
 10
79.82200111936741
 20
-113.2440782051959
 30
0.0
 10
79.82200111936741
 20
-113.4387261001125
 30
0.0
 10
79.82200111936741
 20
-113.4387261001125
 30
0.0
 10
79.82200111936741
 20
-113.4387261001125
 30
0.0
 10
79.20636255615328
 20
-113.4387261001125
 30
0.0
 10
79.20636255615328
 20
-113.4387261001125
 30
0.0
 10
79.20636255615328
 20
-113.4387261001125
 30
0.0
 10
79.14090574193352
 20
-113.8617838257012
 30
0.0
 10
79.14090574193352
 20
-113.8617838257012
 30
0.0
 10
79.20222844157098
 20
-113.8278496351715
 30
0.0
 10
79.28456622366845
 20
-113.7877142727684
 30
0.0
 10
79.40307750836104
 20
-113.7877142727684
 30
0.0
 10
79.65698104562395
 20
-113.7877142727684
 30
0.0
 10
79.89400361500914
 20
-113.9739216837461
 30
0.0
 10
79.89400361500914
 20
-114.2869086085811
 30
0.0
 10
79.89400361500914
 20
-114.6043741575468
 30
0.0
 10
79.66972789891938
 20
-114.8391574148666
 30
0.0
 10
79.36724851531444
 20
-114.8391574148666
 30
0.0
  0
HATCH
  5
F8
330
E7
100
AcDbEntity
  8
_U+30EC_U+30A4_U+30E4_U+30FC 1
 62
   179
420
  2234388
100
AcDbHatch
 10
0.0
 20
0.0
 30
0.0
210
0.0
220
0.0
230
1.0
  2
SOLID
 70
     1
 71
     0
 91
        1
 92
        1
 93
        1
 72
     4
 94
        3
 73
     0
 74
     1
 95
       53
 96
       49
 40
0.0
 40
0.0
 40
0.0
 40
0.0
 40
1.0
 40
1.0
 40
1.0
 40
2.0
 40
2.0
 40
2.0
 40
3.0
 40
3.0
 40
3.0
 40
4.0
 40
4.0
 40
4.0
 40
5.0
 40
5.0
 40
5.0
 40
6.0
 40
6.0
 40
6.0
 40
7.0
 40
7.0
 40
7.0
 40
8.0
 40
8.0
 40
8.0
 40
9.0
 40
9.0
 40
9.0
 40
10.0
 40
10.0
 40
10.0
 40
11.0
 40
11.0
 40
11.0
 40
12.0
 40
12.0
 40
12.0
 40
13.0
 40
13.0
 40
13.0
 40
14.0
 40
14.0
 40
14.0
 40
15.0
 40
15.0
 40
15.0
 40
16.0
 40
16.0
 40
16.0
 40
16.0
 10
79.36724851531444
 20
-114.8391574148666
 10
79.28904484779927
 20
-114.8391574148666
 10
79.1874145309844
 20
-114.8222764469889
 10
79.08578421416954
 20
-114.758714435286
 10
78.91249591126146
 20
-114.6486436345323
 10
78.89113631925291
 20
-114.5175577513185
 10
78.87218829408404
 20
-114.4097262626302
 10
78.87218829408404
 20
-114.4097262626302
 10
79.09439695288266
 20
-114.4097262626302
 10
79.09439695288266
 20
-114.4097262626302
 10
79.14917397109812
 20
-114.6085082721291
 10
79.27629799450385
 20
-114.6381360933023
 10
79.36931557260559
 20
-114.6381360933023
 10
79.50884193975821
 20
-114.6381360933023
 10
79.66111516020625
 20
-114.5387450885528
 10
79.66111516020625
 20
-114.3060288885242
 10
79.66111516020625
 20
-114.0500582939701
 10
79.4812811758762
 20
-113.9802951103938
 10
79.36070283389246
 20
-113.9802951103938
 10
79.32900795542817
 20
-113.9802951103938
 10
79.1874145309844
 20
-113.9802951103938
 10
79.09853106746496
 20
-114.1093139363164
 10
79.09853106746496
 20
-114.1093139363164
 10
78.92283119771722
 20
-114.0901936563733
 10
78.92283119771722
 20
-114.0901936563733
 10
78.92283119771722
 20
-114.0901936563733
 10
79.04340953970096
 20
-113.2440782051959
 10
79.04340953970096
 20
-113.2440782051959
 10
79.04340953970096
 20
-113.2440782051959
 10
79.82200111936741
 20
-113.2440782051959
 10
79.82200111936741
 20
-113.2440782051959
 10
79.82200111936741
 20
-113.2440782051959
 10
79.82200111936741
 20
-113.4387261001125
 10
79.82200111936741
 20
-113.4387261001125
 10
79.82200111936741
 20
-113.4387261001125
 10
79.20636255615328
 20
-113.4387261001125
 10
79.20636255615328
 20
-113.4387261001125
 10
79.20636255615328
 20
-113.4387261001125
 10
79.14090574193352
 20
-113.8617838257012
 10
79.14090574193352
 20
-113.8617838257012
 10
79.20222844157098
 20
-113.8278496351715
 10
79.28456622366845
 20
-113.7877142727684
 10
79.40307750836104
 20
-113.7877142727684
 10
79.65698104562395
 20
-113.7877142727684
 10
79.89400361500914
 20
-113.9739216837461
 10
79.89400361500914
 20
-114.2869086085811
 10
79.89400361500914
 20
-114.6043741575468
 10
79.66972789891938
 20
-114.8391574148666
 10
79.36724851531444
 20
-114.8391574148666
 97
        0
 97
        0
 75
     2
 76
     1
 98
        0
  0
ENDBLK
  5
EA
330
E7
100
AcDbEntity
  8
0
100
AcDbBlockEnd
  0
BLOCK
  5
FB
330
F9
100
AcDbEntity
  8
0
100
AcDbBlockBegin
  2
block 9
 70
     0
 10
0.0
 20
0.0
 30
0.0
  3
block 9
  1

  0
SPLINE
  5
FD
330
F9
100
AcDbEntity
  8
_U+30EC_U+30A4_U+30E4_U+30FC 1
370
     0
100
AcDbSpline
210
0.0
220
0.0
230
1.0
 70
    11
 71
     3
 72
    35
 73
    31
 74
     0
 42
0.0000000001
 43
0.0000000001
 12
1.0
 22
0.0
 32
0.0
 13
1.0
 23
0.0
 33
0.0
 40
0.0
 40
0.0
 40
0.0
 40
0.0
 40
1.0
 40
1.0
 40
1.0
 40
2.0
 40
2.0
 40
2.0
 40
3.0
 40
3.0
 40
3.0
 40
4.0
 40
4.0
 40
4.0
 40
5.0
 40
5.0
 40
5.0
 40
6.0
 40
6.0
 40
6.0
 40
7.0
 40
7.0
 40
7.0
 40
8.0
 40
8.0
 40
8.0
 40
9.0
 40
9.0
 40
9.0
 40
10.0
 40
10.0
 40
10.0
 40
10.0
 10
82.79029538945868
 20
-128.0247436203376
 30
0.0
 10
82.79029538945868
 20
-128.0247436203376
 30
0.0
 10
82.7396524858255
 20
-128.2891546988305
 30
0.0
 10
82.7396524858255
 20
-128.2891546988305
 30
0.0
 10
82.87917885297813
 20
-128.3019015521259
 30
0.0
 10
83.20715194317391
 20
-128.3928520729365
 30
0.0
 10
83.20715194317391
 20
-128.7842149200609
 30
0.0
 10
83.20715194317391
 20
-129.2623941734136
 30
0.0
 10
82.80097518546296
 20
-129.3871066299796
 30
0.0
 10
82.5257120561915
 20
-129.3871066299796
 30
0.0
 10
82.5257120561915
 20
-129.3871066299796
 30
0.0
 10
82.4581881846806
 20
-129.7405734267662
 30
0.0
 10
82.4581881846806
 20
-129.7405734267662
 30
0.0
 10
82.4581881846806
 20
-129.7405734267662
 30
0.0
 10
82.25079343646856
 20
-129.7405734267662
 30
0.0
 10
82.25079343646856
 20
-129.7405734267662
 30
0.0
 10
82.25079343646856
 20
-129.7405734267662
 30
0.0
 10
82.32279593211028
 20
-129.372292719393
 30
0.0
 10
82.32279593211028
 20
-129.372292719393
 30
0.0
 10
82.21496444342196
 20
-129.3533446942242
 30
0.0
 10
81.86356470392647
 20
-129.2920219945867
 30
0.0
 10
81.86356470392647
 20
-128.8751654408715
 30
0.0
 10
81.86356470392647
 20
-128.426614008692
 30
0.0
 10
82.21909855800426
 20
-128.2764078455351
 30
0.0
 10
82.53432479490462
 20
-128.2764078455351
 30
0.0
 10
82.53432479490462
 20
-128.2764078455351
 30
0.0
 10
82.58290064124664
 20
-128.0247436203376
 30
0.0
 10
82.58290064124664
 20
-128.0247436203376
 30
0.0
 10
82.58290064124664
 20
-128.0247436203376
 30
0.0
 10
82.79029538945868
 20
-128.0247436203376
 30
0.0
 10
82.79029538945868
 20
-128.0247436203376
 30
0.0
  0
SPLINE
  5
FE
330
F9
100
AcDbEntity
  8
_U+30EC_U+30A4_U+30E4_U+30FC 1
370
     0
100
AcDbSpline
210
0.0
220
0.0
230
1.0
 70
    11
 71
     3
 72
    14
 73
    10
 74
     0
 42
0.0000000001
 43
0.0000000001
 12
1.0
 22
0.0
 32
0.0
 13
1.0
 23
0.0
 33
0.0
 40
0.0
 40
0.0
 40
0.0
 40
0.0
 40
1.0
 40
1.0
 40
1.0
 40
2.0
 40
2.0
 40
2.0
 40
3.0
 40
3.0
 40
3.0
 40
3.0
 10
82.50056285914917
 20
-128.4498684032174
 30
0.0
 10
82.37998451716543
 20
-128.4583088871562
 30
0.0
 10
82.08577336272509
 20
-128.481735536456
 30
0.0
 10
82.08577336272509
 20
-128.8792995554538
 30
0.0
 10
82.08577336272509
 20
-128.9430338219309
 30
0.0
 10
82.08577336272509
 20
-129.1566297420164
 30
0.0
 10
82.35449081057457
 20
-129.2010714737761
 30
0.0
 10
82.35449081057457
 20
-129.2010714737761
 30
0.0
 10
82.50056285914917
 20
-128.4498684032174
 30
0.0
 10
82.50056285914917
 20
-128.4498684032174
 30
0.0
  0
SPLINE
  5
FF
330
F9
100
AcDbEntity
  8
_U+30EC_U+30A4_U+30E4_U+30FC 1
370
     0
100
AcDbSpline
210
0.0
220
0.0
230
1.0
 70
    11
 71
     3
 72
    14
 73
    10
 74
     0
 42
0.0000000001
 43
0.0000000001
 12
1.0
 22
0.0
 32
0.0
 13
1.0
 23
0.0
 33
0.0
 40
0.0
 40
0.0
 40
0.0
 40
0.0
 40
1.0
 40
1.0
 40
1.0
 40
2.0
 40
2.0
 40
2.0
 40
3.0
 40
3.0
 40
3.0
 40
3.0
 10
82.56188555878661
 20
-129.2093397029407
 30
0.0
 10
82.7437866004078
 20
-129.2052055883584
 30
0.0
 10
82.98701034166645
 20
-129.1249348635521
 30
0.0
 10
82.98701034166645
 20
-128.7694010094743
 30
0.0
 10
82.98701034166645
 20
-128.6762111765983
 30
0.0
 10
82.97426348837102
 20
-128.4879367083294
 30
0.0
 10
82.70347898323038
 20
-128.4605481992217
 30
0.0
 10
82.70347898323038
 20
-128.4605481992217
 30
0.0
 10
82.56188555878661
 20
-129.2093397029407
 30
0.0
 10
82.56188555878661
 20
-129.2093397029407
 30
0.0
  0
HATCH
  5
100
330
F9
100
AcDbEntity
  8
_U+30EC_U+30A4_U+30E4_U+30FC 1
 62
   179
420
  2234388
100
AcDbHatch
 10
0.0
 20
0.0
 30
0.0
210
0.0
220
0.0
230
1.0
  2
SOLID
 70
     1
 71
     0
 91
        3
 92
        1
 93
        1
 72
     4
 94
        3
 73
     0
 74
     1
 95
       35
 96
       31
 40
0.0
 40
0.0
 40
0.0
 40
0.0
 40
1.0
 40
1.0
 40
1.0
 40
2.0
 40
2.0
 40
2.0
 40
3.0
 40
3.0
 40
3.0
 40
4.0
 40
4.0
 40
4.0
 40
5.0
 40
5.0
 40
5.0
 40
6.0
 40
6.0
 40
6.0
 40
7.0
 40
7.0
 40
7.0
 40
8.0
 40
8.0
 40
8.0
 40
9.0
 40
9.0
 40
9.0
 40
10.0
 40
10.0
 40
10.0
 40
10.0
 10
82.79029538945868
 20
-128.0247436203376
 10
82.79029538945868
 20
-128.0247436203376
 10
82.7396524858255
 20
-128.2891546988305
 10
82.7396524858255
 20
-128.2891546988305
 10
82.87917885297813
 20
-128.3019015521259
 10
83.20715194317391
 20
-128.3928520729365
 10
83.20715194317391
 20
-128.7842149200609
 10
83.20715194317391
 20
-129.2623941734136
 10
82.80097518546296
 20
-129.3871066299796
 10
82.5257120561915
 20
-129.3871066299796
 10
82.5257120561915
 20
-129.3871066299796
 10
82.4581881846806
 20
-129.7405734267662
 10
82.4581881846806
 20
-129.7405734267662
 10
82.4581881846806
 20
-129.7405734267662
 10
82.25079343646856
 20
-129.7405734267662
 10
82.25079343646856
 20
-129.7405734267662
 10
82.25079343646856
 20
-129.7405734267662
 10
82.32279593211028
 20
-129.372292719393
 10
82.32279593211028
 20
-129.372292719393
 10
82.21496444342196
 20
-129.3533446942242
 10
81.86356470392647
 20
-129.2920219945867
 10
81.86356470392647
 20
-128.8751654408715
 10
81.86356470392647
 20
-128.426614008692
 10
82.21909855800426
 20
-128.2764078455351
 10
82.53432479490462
 20
-128.2764078455351
 10
82.53432479490462
 20
-128.2764078455351
 10
82.58290064124664
 20
-128.0247436203376
 10
82.58290064124664
 20
-128.0247436203376
 10
82.58290064124664
 20
-128.0247436203376
 10
82.79029538945868
 20
-128.0247436203376
 10
82.79029538945868
 20
-128.0247436203376
 97
        0
 97
        0
 92
        1
 93
        1
 72
     4
 94
        3
 73
     0
 74
     1
 95
       14
 96
       10
 40
0.0
 40
0.0
 40
0.0
 40
0.0
 40
1.0
 40
1.0
 40
1.0
 40
2.0
 40
2.0
 40
2.0
 40
3.0
 40
3.0
 40
3.0
 40
3.0
 10
82.50056285914917
 20
-128.4498684032174
 10
82.37998451716543
 20
-128.4583088871562
 10
82.08577336272509
 20
-128.481735536456
 10
82.08577336272509
 20
-128.8792995554538
 10
82.08577336272509
 20
-128.9430338219309
 10
82.08577336272509
 20
-129.1566297420164
 10
82.35449081057457
 20
-129.2010714737761
 10
82.35449081057457
 20
-129.2010714737761
 10
82.50056285914917
 20
-128.4498684032174
 10
82.50056285914917
 20
-128.4498684032174
 97
        0
 97
        0
 92
        1
 93
        1
 72
     4
 94
        3
 73
     0
 74
     1
 95
       14
 96
       10
 40
0.0
 40
0.0
 40
0.0
 40
0.0
 40
1.0
 40
1.0
 40
1.0
 40
2.0
 40
2.0
 40
2.0
 40
3.0
 40
3.0
 40
3.0
 40
3.0
 10
82.56188555878661
 20
-129.2093397029407
 10
82.7437866004078
 20
-129.2052055883584
 10
82.98701034166645
 20
-129.1249348635521
 10
82.98701034166645
 20
-128.7694010094743
 10
82.98701034166645
 20
-128.6762111765983
 10
82.97426348837102
 20
-128.4879367083294
 10
82.70347898323038
 20
-128.4605481992217
 10
82.70347898323038
 20
-128.4605481992217
 10
82.56188555878661
 20
-129.2093397029407
 10
82.56188555878661
 20
-129.2093397029407
 97
        0
 97
        0
 75
     2
 76
     1
 98
        0
  0
SPLINE
  5
101
330
F9
100
AcDbEntity
  8
_U+30EC_U+30A4_U+30E4_U+30FC 1
370
     0
100
AcDbSpline
210
0.0
220
0.0
230
1.0
 70
    11
 71
     3
 72
    32
 73
    28
 74
     0
 42
0.0000000001
 43
0.0000000001
 12
1.0
 22
0.0
 32
0.0
 13
1.0
 23
0.0
 33
0.0
 40
0.0
 40
0.0
 40
0.0
 40
0.0
 40
1.0
 40
1.0
 40
1.0
 40
2.0
 40
2.0
 40
2.0
 40
3.0
 40
3.0
 40
3.0
 40
4.0
 40
4.0
 40
4.0
 40
5.0
 40
5.0
 40
5.0
 40
6.0
 40
6.0
 40
6.0
 40
7.0
 40
7.0
 40
7.0
 40
8.0
 40
8.0
 40
8.0
 40
9.0
 40
9.0
 40
9.0
 40
9.0
 10
83.92304278500883
 20
-129.4463622723259
 30
0.0
 10
83.4069674813184
 20
-129.4463622723259
 30
0.0
 10
83.39835474260528
 20
-128.8920464087492
 30
0.0
 10
83.39835474260528
 20
-128.6784504886637
 30
0.0
 10
83.39835474260528
 20
-128.4478013459263
 30
0.0
 10
83.41764727732267
 20
-127.8004679042478
 30
0.0
 10
83.9612833448951
 20
-127.8004679042478
 30
0.0
 10
84.13457164780317
 20
-127.8004679042478
 30
0.0
 10
84.38020695590149
 20
-127.8702310878241
 30
0.0
 10
84.41810300623922
 20
-128.2023382926022
 30
0.0
 10
84.41810300623922
 20
-128.2023382926022
 30
0.0
 10
84.20450708615374
 20
-128.2023382926022
 30
0.0
 10
84.20450708615374
 20
-128.2023382926022
 30
0.0
 10
84.19382729014946
 20
-128.1453219623213
 30
0.0
 10
84.16213241168516
 20
-127.9971828564556
 30
0.0
 10
83.95921628760395
 20
-127.9971828564556
 30
0.0
 10
83.66707219045476
 20
-127.9971828564556
 30
0.0
 10
83.62710908282587
 20
-128.3251559466514
 30
0.0
 10
83.61436222953044
 20
-128.530311382798
 30
0.0
 10
83.7073798076322
 20
-128.4521077152828
 30
0.0
 10
83.7752481886916
 20
-128.3928520729365
 30
0.0
 10
83.9571492303128
 20
-128.3928520729365
 30
0.0
 10
84.13698321464284
 20
-128.3928520729365
 30
0.0
 10
84.43946259824777
 20
-128.5006835616248
 30
0.0
 10
84.43946259824777
 20
-128.9068603193358
 30
0.0
 10
84.43946259824777
 20
-129.2262206708185
 30
0.0
 10
84.24033607920033
 20
-129.4463622723259
 30
0.0
 10
83.92304278500883
 20
-129.4463622723259
 30
0.0
  0
SPLINE
  5
102
330
F9
100
AcDbEntity
  8
_U+30EC_U+30A4_U+30E4_U+30FC 1
370
     0
100
AcDbSpline
210
0.0
220
0.0
230
1.0
 70
    11
 71
     3
 72
    17
 73
    13
 74
     0
 42
0.0000000001
 43
0.0000000001
 12
1.0
 22
0.0
 32
0.0
 13
1.0
 23
0.0
 33
0.0
 40
0.0
 40
0.0
 40
0.0
 40
0.0
 40
1.0
 40
1.0
 40
1.0
 40
2.0
 40
2.0
 40
2.0
 40
3.0
 40
3.0
 40
3.0
 40
4.0
 40
4.0
 40
4.0
 40
4.0
 10
83.93992375288656
 20
-128.5874999678531
 30
0.0
 10
83.67775198645904
 20
-128.5874999678531
 30
0.0
 10
83.6398559361213
 20
-128.7990288306475
 30
0.0
 10
83.6398559361213
 20
-128.9154730580489
 30
0.0
 10
83.6398559361213
 20
-129.0908284182481
 30
0.0
 10
83.73494057151419
 20
-129.2537814347004
 30
0.0
 10
83.91890867042653
 20
-129.2537814347004
 30
0.0
 10
84.03948701241028
 20
-129.2537814347004
 30
0.0
 10
84.21518688215801
 20
-129.1945257923541
 30
0.0
 10
84.21518688215801
 20
-128.9089273766269
 30
0.0
 10
84.21518688215801
 20
-128.6846516605372
 30
0.0
 10
84.0756605150054
 20
-128.5874999678531
 30
0.0
 10
83.93992375288656
 20
-128.5874999678531
 30
0.0
  0
HATCH
  5
103
330
F9
100
AcDbEntity
  8
_U+30EC_U+30A4_U+30E4_U+30FC 1
 62
   179
420
  2234388
100
AcDbHatch
 10
0.0
 20
0.0
 30
0.0
210
0.0
220
0.0
230
1.0
  2
SOLID
 70
     1
 71
     0
 91
        2
 92
        1
 93
        1
 72
     4
 94
        3
 73
     0
 74
     1
 95
       32
 96
       28
 40
0.0
 40
0.0
 40
0.0
 40
0.0
 40
1.0
 40
1.0
 40
1.0
 40
2.0
 40
2.0
 40
2.0
 40
3.0
 40
3.0
 40
3.0
 40
4.0
 40
4.0
 40
4.0
 40
5.0
 40
5.0
 40
5.0
 40
6.0
 40
6.0
 40
6.0
 40
7.0
 40
7.0
 40
7.0
 40
8.0
 40
8.0
 40
8.0
 40
9.0
 40
9.0
 40
9.0
 40
9.0
 10
83.92304278500883
 20
-129.4463622723259
 10
83.4069674813184
 20
-129.4463622723259
 10
83.39835474260528
 20
-128.8920464087492
 10
83.39835474260528
 20
-128.6784504886637
 10
83.39835474260528
 20
-128.4478013459263
 10
83.41764727732267
 20
-127.8004679042478
 10
83.9612833448951
 20
-127.8004679042478
 10
84.13457164780317
 20
-127.8004679042478
 10
84.38020695590149
 20
-127.8702310878241
 10
84.41810300623922
 20
-128.2023382926022
 10
84.41810300623922
 20
-128.2023382926022
 10
84.20450708615374
 20
-128.2023382926022
 10
84.20450708615374
 20
-128.2023382926022
 10
84.19382729014946
 20
-128.1453219623213
 10
84.16213241168516
 20
-127.9971828564556
 10
83.95921628760395
 20
-127.9971828564556
 10
83.66707219045476
 20
-127.9971828564556
 10
83.62710908282587
 20
-128.3251559466514
 10
83.61436222953044
 20
-128.530311382798
 10
83.7073798076322
 20
-128.4521077152828
 10
83.7752481886916
 20
-128.3928520729365
 10
83.9571492303128
 20
-128.3928520729365
 10
84.13698321464284
 20
-128.3928520729365
 10
84.43946259824777
 20
-128.5006835616248
 10
84.43946259824777
 20
-128.9068603193358
 10
84.43946259824777
 20
-129.2262206708185
 10
84.24033607920033
 20
-129.4463622723259
 10
83.92304278500883
 20
-129.4463622723259
 97
        0
 97
        0
 92
        1
 93
        1
 72
     4
 94
        3
 73
     0
 74
     1
 95
       17
 96
       13
 40
0.0
 40
0.0
 40
0.0
 40
0.0
 40
1.0
 40
1.0
 40
1.0
 40
2.0
 40
2.0
 40
2.0
 40
3.0
 40
3.0
 40
3.0
 40
4.0
 40
4.0
 40
4.0
 40
4.0
 10
83.93992375288656
 20
-128.5874999678531
 10
83.67775198645904
 20
-128.5874999678531
 10
83.6398559361213
 20
-128.7990288306475
 10
83.6398559361213
 20
-128.9154730580489
 10
83.6398559361213
 20
-129.0908284182481
 10
83.73494057151419
 20
-129.2537814347004
 10
83.91890867042653
 20
-129.2537814347004
 10
84.03948701241028
 20
-129.2537814347004
 10
84.21518688215801
 20
-129.1945257923541
 10
84.21518688215801
 20
-128.9089273766269
 10
84.21518688215801
 20
-128.6846516605372
 10
84.0756605150054
 20
-128.5874999678531
 10
83.93992375288656
 20
-128.5874999678531
 97
        0
 97
        0
 75
     2
 76
     1
 98
        0
  0
POLYLINE
  5
104
330
F9
100
AcDbEntity
  8
_U+30EC_U+30A4_U+30E4_U+30FC 1
370
     0
100
AcDb2dPolyline
 66
     1
 10
0.0
 20
0.0
 30
0.0
  0
VERTEX
  5
105
330
104
100
AcDbEntity
  8
_U+30EC_U+30A4_U+30E4_U+30FC 1
370
     0
100
AcDbVertex
100
AcDb2dVertex
 10
84.65581459472146
 20
-129.3957193686927
 30
0.0
  0
VERTEX
  5
106
330
104
100
AcDbEntity
  8
_U+30EC_U+30A4_U+30E4_U+30FC 1
370
     0
100
AcDbVertex
100
AcDb2dVertex
 10
84.65581459472146
 20
-129.143882888721
 30
0.0
  0
VERTEX
  5
107
330
104
100
AcDbEntity
  8
_U+30EC_U+30A4_U+30E4_U+30FC 1
370
     0
100
AcDbVertex
100
AcDb2dVertex
 10
84.90765107469323
 20
-129.143882888721
 30
0.0
  0
VERTEX
  5
108
330
104
100
AcDbEntity
  8
_U+30EC_U+30A4_U+30E4_U+30FC 1
370
     0
100
AcDbVertex
100
AcDb2dVertex
 10
84.90765107469323
 20
-129.3957193686927
 30
0.0
  0
VERTEX
  5
109
330
104
100
AcDbEntity
  8
_U+30EC_U+30A4_U+30E4_U+30FC 1
370
     0
100
AcDbVertex
100
AcDb2dVertex
 10
84.65581459472146
 20
-129.3957193686927
 30
0.0
  0
SEQEND
  5
10A
330
104
100
AcDbEntity
  8
_U+30EC_U+30A4_U+30E4_U+30FC 1
370
     0
  0
HATCH
  5
10B
330
F9
100
AcDbEntity
  8
_U+30EC_U+30A4_U+30E4_U+30FC 1
 62
   179
420
  2234388
100
AcDbHatch
 10
0.0
 20
0.0
 30
0.0
210
0.0
220
0.0
230
1.0
  2
SOLID
 70
     1
 71
     0
 91
        1
 92
        1
 93
        4
 72
     1
 10
84.65581459472146
 20
-129.3957193686927
 11
84.65581459472146
 21
-129.143882888721
 72
     1
 10
84.65581459472146
 20
-129.143882888721
 11
84.90765107469323
 21
-129.143882888721
 72
     1
 10
84.90765107469323
 20
-129.143882888721
 11
84.90765107469323
 21
-129.3957193686927
 72
     1
 10
84.90765107469323
 20
-129.3957193686927
 11
84.65581459472146
 21
-129.3957193686927
 97
        0
 75
     2
 76
     1
 98
        0
  0
SPLINE
  5
10C
330
F9
100
AcDbEntity
  8
_U+30EC_U+30A4_U+30E4_U+30FC 1
370
     0
100
AcDbSpline
210
0.0
220
0.0
230
1.0
 70
    11
 71
     3
 72
    53
 73
    49
 74
     0
 42
0.0000000001
 43
0.0000000001
 12
1.0
 22
0.0
 32
0.0
 13
1.0
 23
0.0
 33
0.0
 40
0.0
 40
0.0
 40
0.0
 40
0.0
 40
1.0
 40
1.0
 40
1.0
 40
2.0
 40
2.0
 40
2.0
 40
3.0
 40
3.0
 40
3.0
 40
4.0
 40
4.0
 40
4.0
 40
5.0
 40
5.0
 40
5.0
 40
6.0
 40
6.0
 40
6.0
 40
7.0
 40
7.0
 40
7.0
 40
8.0
 40
8.0
 40
8.0
 40
9.0
 40
9.0
 40
9.0
 40
10.0
 40
10.0
 40
10.0
 40
11.0
 40
11.0
 40
11.0
 40
12.0
 40
12.0
 40
12.0
 40
13.0
 40
13.0
 40
13.0
 40
14.0
 40
14.0
 40
14.0
 40
15.0
 40
15.0
 40
15.0
 40
16.0
 40
16.0
 40
16.0
 40
16.0
 10
85.62491995472224
 20
-129.4463622723259
 30
0.0
 10
85.54671628720708
 20
-129.4463622723259
 30
0.0
 10
85.4450859703922
 20
-129.4294813044482
 30
0.0
 10
85.34345565357734
 20
-129.3660915475196
 30
0.0
 10
85.17016735066927
 20
-129.2558484919916
 30
0.0
 10
85.14880775866072
 20
-129.1249348635521
 30
0.0
 10
85.12985973349184
 20
-129.0171033748638
 30
0.0
 10
85.12985973349184
 20
-129.0171033748638
 30
0.0
 10
85.35206839229046
 20
-129.0171033748638
 30
0.0
 10
85.35206839229046
 20
-129.0171033748638
 30
0.0
 10
85.40684541050594
 20
-129.2158853843627
 30
0.0
 10
85.53396943391165
 20
-129.2455132055358
 30
0.0
 10
85.6269870120134
 20
-129.2455132055358
 30
0.0
 10
85.76651337916601
 20
-129.2455132055358
 30
0.0
 10
85.91878659961405
 20
-129.1459499460121
 30
0.0
 10
85.91878659961405
 20
-128.9134060007578
 30
0.0
 10
85.91878659961405
 20
-128.6572631514294
 30
0.0
 10
85.73895261528402
 20
-128.5874999678531
 30
0.0
 10
85.61837427330028
 20
-128.5874999678531
 30
0.0
 10
85.58667939483597
 20
-128.5874999678531
 30
0.0
 10
85.4450859703922
 20
-128.5874999678531
 30
0.0
 10
85.35620250687276
 20
-128.7165187937757
 30
0.0
 10
85.35620250687276
 20
-128.7165187937757
 30
0.0
 10
85.18050263712502
 20
-128.6973985138326
 30
0.0
 10
85.18050263712502
 20
-128.6973985138326
 30
0.0
 10
85.18050263712502
 20
-128.6973985138326
 30
0.0
 10
85.30108097910876
 20
-127.8512830626552
 30
0.0
 10
85.30108097910876
 20
-127.8512830626552
 30
0.0
 10
85.30108097910876
 20
-127.8512830626552
 30
0.0
 10
86.07967255877523
 20
-127.8512830626552
 30
0.0
 10
86.07967255877523
 20
-127.8512830626552
 30
0.0
 10
86.07967255877523
 20
-127.8512830626552
 30
0.0
 10
86.07967255877523
 20
-128.0459309575719
 30
0.0
 10
86.07967255877523
 20
-128.0459309575719
 30
0.0
 10
86.07967255877523
 20
-128.0459309575719
 30
0.0
 10
85.46403399556108
 20
-128.0459309575719
 30
0.0
 10
85.46403399556108
 20
-128.0459309575719
 30
0.0
 10
85.46403399556108
 20
-128.0459309575719
 30
0.0
 10
85.39857718134134
 20
-128.4689886831605
 30
0.0
 10
85.39857718134134
 20
-128.4689886831605
 30
0.0
 10
85.45989988097878
 20
-128.4350544926308
 30
0.0
 10
85.54223766307625
 20
-128.3949191302277
 30
0.0
 10
85.66074894776884
 20
-128.3949191302277
 30
0.0
 10
85.91465248503175
 20
-128.3949191302277
 30
0.0
 10
86.15167505441694
 20
-128.5811265412054
 30
0.0
 10
86.15167505441694
 20
-128.8941134660404
 30
0.0
 10
86.15167505441694
 20
-129.2117512697804
 30
0.0
 10
85.92739933832718
 20
-129.4463622723259
 30
0.0
 10
85.62491995472224
 20
-129.4463622723259
 30
0.0
  0
HATCH
  5
10D
330
F9
100
AcDbEntity
  8
_U+30EC_U+30A4_U+30E4_U+30FC 1
 62
   179
420
  2234388
100
AcDbHatch
 10
0.0
 20
0.0
 30
0.0
210
0.0
220
0.0
230
1.0
  2
SOLID
 70
     1
 71
     0
 91
        1
 92
        1
 93
        1
 72
     4
 94
        3
 73
     0
 74
     1
 95
       53
 96
       49
 40
0.0
 40
0.0
 40
0.0
 40
0.0
 40
1.0
 40
1.0
 40
1.0
 40
2.0
 40
2.0
 40
2.0
 40
3.0
 40
3.0
 40
3.0
 40
4.0
 40
4.0
 40
4.0
 40
5.0
 40
5.0
 40
5.0
 40
6.0
 40
6.0
 40
6.0
 40
7.0
 40
7.0
 40
7.0
 40
8.0
 40
8.0
 40
8.0
 40
9.0
 40
9.0
 40
9.0
 40
10.0
 40
10.0
 40
10.0
 40
11.0
 40
11.0
 40
11.0
 40
12.0
 40
12.0
 40
12.0
 40
13.0
 40
13.0
 40
13.0
 40
14.0
 40
14.0
 40
14.0
 40
15.0
 40
15.0
 40
15.0
 40
16.0
 40
16.0
 40
16.0
 40
16.0
 10
85.62491995472224
 20
-129.4463622723259
 10
85.54671628720708
 20
-129.4463622723259
 10
85.4450859703922
 20
-129.4294813044482
 10
85.34345565357734
 20
-129.3660915475196
 10
85.17016735066927
 20
-129.2558484919916
 10
85.14880775866072
 20
-129.1249348635521
 10
85.12985973349184
 20
-129.0171033748638
 10
85.12985973349184
 20
-129.0171033748638
 10
85.35206839229046
 20
-129.0171033748638
 10
85.35206839229046
 20
-129.0171033748638
 10
85.40684541050594
 20
-129.2158853843627
 10
85.53396943391165
 20
-129.2455132055358
 10
85.6269870120134
 20
-129.2455132055358
 10
85.76651337916601
 20
-129.2455132055358
 10
85.91878659961405
 20
-129.1459499460121
 10
85.91878659961405
 20
-128.9134060007578
 10
85.91878659961405
 20
-128.6572631514294
 10
85.73895261528402
 20
-128.5874999678531
 10
85.61837427330028
 20
-128.5874999678531
 10
85.58667939483597
 20
-128.5874999678531
 10
85.4450859703922
 20
-128.5874999678531
 10
85.35620250687276
 20
-128.7165187937757
 10
85.35620250687276
 20
-128.7165187937757
 10
85.18050263712502
 20
-128.6973985138326
 10
85.18050263712502
 20
-128.6973985138326
 10
85.18050263712502
 20
-128.6973985138326
 10
85.30108097910876
 20
-127.8512830626552
 10
85.30108097910876
 20
-127.8512830626552
 10
85.30108097910876
 20
-127.8512830626552
 10
86.07967255877523
 20
-127.8512830626552
 10
86.07967255877523
 20
-127.8512830626552
 10
86.07967255877523
 20
-127.8512830626552
 10
86.07967255877523
 20
-128.0459309575719
 10
86.07967255877523
 20
-128.0459309575719
 10
86.07967255877523
 20
-128.0459309575719
 10
85.46403399556108
 20
-128.0459309575719
 10
85.46403399556108
 20
-128.0459309575719
 10
85.46403399556108
 20
-128.0459309575719
 10
85.39857718134134
 20
-128.4689886831605
 10
85.39857718134134
 20
-128.4689886831605
 10
85.45989988097878
 20
-128.4350544926308
 10
85.54223766307625
 20
-128.3949191302277
 10
85.66074894776884
 20
-128.3949191302277
 10
85.91465248503175
 20
-128.3949191302277
 10
86.15167505441694
 20
-128.5811265412054
 10
86.15167505441694
 20
-128.8941134660404
 10
86.15167505441694
 20
-129.2117512697804
 10
85.92739933832718
 20
-129.4463622723259
 10
85.62491995472224
 20
-129.4463622723259
 97
        0
 97
        0
 75
     2
 76
     1
 98
        0
  0
ENDBLK
  5
FC
330
F9
100
AcDbEntity
  8
0
100
AcDbBlockEnd
  0
BLOCK
  5
11F
330
11D
100
AcDbEntity
  8
0
100
AcDbBlockBegin
  2
block 10
 70
     0
 10
0.0
 20
0.0
 30
0.0
  3
block 10
  1

  0
SPLINE
  5
121
330
11D
100
AcDbEntity
  8
_U+30EC_U+30A4_U+30E4_U+30FC 1
370
     0
100
AcDbSpline
210
0.0
220
0.0
230
1.0
 70
    11
 71
     3
 72
    26
 73
    22
 74
     0
 42
0.0000000001
 43
0.0000000001
 12
1.0
 22
0.0
 32
0.0
 13
1.0
 23
0.0
 33
0.0
 40
0.0
 40
0.0
 40
0.0
 40
0.0
 40
1.0
 40
1.0
 40
1.0
 40
2.0
 40
2.0
 40
2.0
 40
3.0
 40
3.0
 40
3.0
 40
4.0
 40
4.0
 40
4.0
 40
5.0
 40
5.0
 40
5.0
 40
6.0
 40
6.0
 40
6.0
 40
7.0
 40
7.0
 40
7.0
 40
7.0
 10
100.4713866936322
 20
-114.7883422564592
 30
0.0
 10
100.4713866936322
 20
-114.7883422564592
 30
0.0
 10
100.234364124247
 20
-114.7883422564592
 30
0.0
 10
100.234364124247
 20
-114.7883422564592
 30
0.0
 10
100.2598578308378
 20
-114.4794894462065
 30
0.0
 10
100.4524386684633
 20
-113.9611748304507
 30
0.0
 10
100.8586154261742
 20
-113.4556070679903
 30
0.0
 10
100.8586154261742
 20
-113.4556070679903
 30
0.0
 10
100.0207682041615
 20
-113.4556070679903
 30
0.0
 10
100.0207682041615
 20
-113.4556070679903
 30
0.0
 10
100.0207682041615
 20
-113.4556070679903
 30
0.0
 10
100.0207682041615
 20
-113.2440782051959
 30
0.0
 10
100.0207682041615
 20
-113.2440782051959
 30
0.0
 10
100.0207682041615
 20
-113.2440782051959
 30
0.0
 10
101.0956379955594
 20
-113.2440782051959
 30
0.0
 10
101.0956379955594
 20
-113.2440782051959
 30
0.0
 10
101.0956379955594
 20
-113.2440782051959
 30
0.0
 10
101.0956379955594
 20
-113.4556070679903
 30
0.0
 10
101.0956379955594
 20
-113.4556070679903
 30
0.0
 10
100.7717990199459
 20
-113.7453395982998
 30
0.0
 10
100.5051486293876
 20
-114.3377237669885
 30
0.0
 10
100.4713866936322
 20
-114.7883422564592
 30
0.0
  0
HATCH
  5
122
330
11D
100
AcDbEntity
  8
_U+30EC_U+30A4_U+30E4_U+30FC 1
 62
   179
420
  2234388
100
AcDbHatch
 10
0.0
 20
0.0
 30
0.0
210
0.0
220
0.0
230
1.0
  2
SOLID
 70
     1
 71
     0
 91
        1
 92
        1
 93
        1
 72
     4
 94
        3
 73
     0
 74
     1
 95
       26
 96
       22
 40
0.0
 40
0.0
 40
0.0
 40
0.0
 40
1.0
 40
1.0
 40
1.0
 40
2.0
 40
2.0
 40
2.0
 40
3.0
 40
3.0
 40
3.0
 40
4.0
 40
4.0
 40
4.0
 40
5.0
 40
5.0
 40
5.0
 40
6.0
 40
6.0
 40
6.0
 40
7.0
 40
7.0
 40
7.0
 40
7.0
 10
100.4713866936322
 20
-114.7883422564592
 10
100.4713866936322
 20
-114.7883422564592
 10
100.234364124247
 20
-114.7883422564592
 10
100.234364124247
 20
-114.7883422564592
 10
100.2598578308378
 20
-114.4794894462065
 10
100.4524386684633
 20
-113.9611748304507
 10
100.8586154261742
 20
-113.4556070679903
 10
100.8586154261742
 20
-113.4556070679903
 10
100.0207682041615
 20
-113.4556070679903
 10
100.0207682041615
 20
-113.4556070679903
 10
100.0207682041615
 20
-113.4556070679903
 10
100.0207682041615
 20
-113.2440782051959
 10
100.0207682041615
 20
-113.2440782051959
 10
100.0207682041615
 20
-113.2440782051959
 10
101.0956379955594
 20
-113.2440782051959
 10
101.0956379955594
 20
-113.2440782051959
 10
101.0956379955594
 20
-113.2440782051959
 10
101.0956379955594
 20
-113.4556070679903
 10
101.0956379955594
 20
-113.4556070679903
 10
100.7717990199459
 20
-113.7453395982998
 10
100.5051486293876
 20
-114.3377237669885
 10
100.4713866936322
 20
-114.7883422564592
 97
        0
 97
        0
 75
     2
 76
     1
 98
        0
  0
ENDBLK
  5
120
330
11D
100
AcDbEntity
  8
0
100
AcDbBlockEnd
  0
BLOCK
  5
134
330
132
100
AcDbEntity
  8
0
100
AcDbBlockBegin
  2
block 11
 70
     0
 10
0.0
 20
0.0
 30
0.0
  3
block 11
  1

  0
SPLINE
  5
136
330
132
100
AcDbEntity
  8
_U+30EC_U+30A4_U+30E4_U+30FC 1
370
     0
100
AcDbSpline
210
0.0
220
0.0
230
1.0
 70
    11
 71
     3
 72
    35
 73
    31
 74
     0
 42
0.0000000001
 43
0.0000000001
 12
1.0
 22
0.0
 32
0.0
 13
1.0
 23
0.0
 33
0.0
 40
0.0
 40
0.0
 40
0.0
 40
0.0
 40
1.0
 40
1.0
 40
1.0
 40
2.0
 40
2.0
 40
2.0
 40
3.0
 40
3.0
 40
3.0
 40
4.0
 40
4.0
 40
4.0
 40
5.0
 40
5.0
 40
5.0
 40
6.0
 40
6.0
 40
6.0
 40
7.0
 40
7.0
 40
7.0
 40
8.0
 40
8.0
 40
8.0
 40
9.0
 40
9.0
 40
9.0
 40
10.0
 40
10.0
 40
10.0
 40
10.0
 10
103.2949869533429
 20
-139.3816731422379
 30
0.0
 10
103.2949869533429
 20
-139.3816731422379
 30
0.0
 10
103.2443440497098
 20
-139.6459119659566
 30
0.0
 10
103.2443440497098
 20
-139.6459119659566
 30
0.0
 10
103.3838704168624
 20
-139.658658819252
 30
0.0
 10
103.7118435070581
 20
-139.7496093400626
 30
0.0
 10
103.7118435070581
 20
-140.140972187187
 30
0.0
 10
103.7118435070581
 20
-140.6191514405397
 30
0.0
 10
103.3056667493472
 20
-140.7438638971057
 30
0.0
 10
103.0304036200757
 20
-140.7438638971057
 30
0.0
 10
103.0304036200757
 20
-140.7438638971057
 30
0.0
 10
102.9628797485648
 20
-141.0973306938923
 30
0.0
 10
102.9628797485648
 20
-141.0973306938923
 30
0.0
 10
102.9628797485648
 20
-141.0973306938923
 30
0.0
 10
102.7554850003528
 20
-141.0973306938923
 30
0.0
 10
102.7554850003528
 20
-141.0973306938923
 30
0.0
 10
102.7554850003528
 20
-141.0973306938923
 30
0.0
 10
102.8274874959945
 20
-140.7290499865191
 30
0.0
 10
102.8274874959945
 20
-140.7290499865191
 30
0.0
 10
102.7196560073062
 20
-140.7101019613503
 30
0.0
 10
102.3682562678107
 20
-140.6487792617128
 30
0.0
 10
102.3682562678107
 20
-140.2319227079976
 30
0.0
 10
102.3682562678107
 20
-139.7837157853666
 30
0.0
 10
102.7237901218885
 20
-139.6335096222097
 30
0.0
 10
103.0390163587889
 20
-139.6335096222097
 30
0.0
 10
103.0390163587889
 20
-139.6335096222097
 30
0.0
 10
103.0875922051309
 20
-139.3816731422379
 30
0.0
 10
103.0875922051309
 20
-139.3816731422379
 30
0.0
 10
103.0875922051309
 20
-139.3816731422379
 30
0.0
 10
103.2949869533429
 20
-139.3816731422379
 30
0.0
 10
103.2949869533429
 20
-139.3816731422379
 30
0.0
  0
SPLINE
  5
137
330
132
100
AcDbEntity
  8
_U+30EC_U+30A4_U+30E4_U+30FC 1
370
     0
100
AcDbSpline
210
0.0
220
0.0
230
1.0
 70
    11
 71
     3
 72
    14
 73
    10
 74
     0
 42
0.0000000001
 43
0.0000000001
 12
1.0
 22
0.0
 32
0.0
 13
1.0
 23
0.0
 33
0.0
 40
0.0
 40
0.0
 40
0.0
 40
0.0
 40
1.0
 40
1.0
 40
1.0
 40
2.0
 40
2.0
 40
2.0
 40
3.0
 40
3.0
 40
3.0
 40
3.0
 10
103.0052544230334
 20
-139.8067979251178
 30
0.0
 10
102.8846760810497
 20
-139.8154106638309
 30
0.0
 10
102.5904649266093
 20
-139.8384928035821
 30
0.0
 10
102.5904649266093
 20
-140.2364013321284
 30
0.0
 10
102.5904649266093
 20
-140.299791089057
 30
0.0
 10
102.5904649266093
 20
-140.5133870091425
 30
0.0
 10
102.8591823744588
 20
-140.5578287409022
 30
0.0
 10
102.8591823744588
 20
-140.5578287409022
 30
0.0
 10
103.0052544230334
 20
-139.8067979251178
 30
0.0
 10
103.0052544230334
 20
-139.8067979251178
 30
0.0
  0
SPLINE
  5
138
330
132
100
AcDbEntity
  8
_U+30EC_U+30A4_U+30E4_U+30FC 1
370
     0
100
AcDbSpline
210
0.0
220
0.0
230
1.0
 70
    11
 71
     3
 72
    14
 73
    10
 74
     0
 42
0.0000000001
 43
0.0000000001
 12
1.0
 22
0.0
 32
0.0
 13
1.0
 23
0.0
 33
0.0
 40
0.0
 40
0.0
 40
0.0
 40
0.0
 40
1.0
 40
1.0
 40
1.0
 40
2.0
 40
2.0
 40
2.0
 40
3.0
 40
3.0
 40
3.0
 40
3.0
 10
103.0665771226709
 20
-140.5664414796153
 30
0.0
 10
103.2484781642921
 20
-140.5619628554845
 30
0.0
 10
103.4917019055507
 20
-140.4816921306782
 30
0.0
 10
103.4917019055507
 20
-140.1261582766004
 30
0.0
 10
103.4917019055507
 20
-140.0331406984987
 30
0.0
 10
103.4789550522553
 20
-139.845038485004
 30
0.0
 10
103.2081705471146
 20
-139.817477721122
 30
0.0
 10
103.2081705471146
 20
-139.817477721122
 30
0.0
 10
103.0665771226709
 20
-140.5664414796153
 30
0.0
 10
103.0665771226709
 20
-140.5664414796153
 30
0.0
  0
HATCH
  5
139
330
132
100
AcDbEntity
  8
_U+30EC_U+30A4_U+30E4_U+30FC 1
 62
   179
420
  2234388
100
AcDbHatch
 10
0.0
 20
0.0
 30
0.0
210
0.0
220
0.0
230
1.0
  2
SOLID
 70
     1
 71
     0
 91
        3
 92
        1
 93
        1
 72
     4
 94
        3
 73
     0
 74
     1
 95
       35
 96
       31
 40
0.0
 40
0.0
 40
0.0
 40
0.0
 40
1.0
 40
1.0
 40
1.0
 40
2.0
 40
2.0
 40
2.0
 40
3.0
 40
3.0
 40
3.0
 40
4.0
 40
4.0
 40
4.0
 40
5.0
 40
5.0
 40
5.0
 40
6.0
 40
6.0
 40
6.0
 40
7.0
 40
7.0
 40
7.0
 40
8.0
 40
8.0
 40
8.0
 40
9.0
 40
9.0
 40
9.0
 40
10.0
 40
10.0
 40
10.0
 40
10.0
 10
103.2949869533429
 20
-139.3816731422379
 10
103.2949869533429
 20
-139.3816731422379
 10
103.2443440497098
 20
-139.6459119659566
 10
103.2443440497098
 20
-139.6459119659566
 10
103.3838704168624
 20
-139.658658819252
 10
103.7118435070581
 20
-139.7496093400626
 10
103.7118435070581
 20
-140.140972187187
 10
103.7118435070581
 20
-140.6191514405397
 10
103.3056667493472
 20
-140.7438638971057
 10
103.0304036200757
 20
-140.7438638971057
 10
103.0304036200757
 20
-140.7438638971057
 10
102.9628797485648
 20
-141.0973306938923
 10
102.9628797485648
 20
-141.0973306938923
 10
102.9628797485648
 20
-141.0973306938923
 10
102.7554850003528
 20
-141.0973306938923
 10
102.7554850003528
 20
-141.0973306938923
 10
102.7554850003528
 20
-141.0973306938923
 10
102.8274874959945
 20
-140.7290499865191
 10
102.8274874959945
 20
-140.7290499865191
 10
102.7196560073062
 20
-140.7101019613503
 10
102.3682562678107
 20
-140.6487792617128
 10
102.3682562678107
 20
-140.2319227079976
 10
102.3682562678107
 20
-139.7837157853666
 10
102.7237901218885
 20
-139.6335096222097
 10
103.0390163587889
 20
-139.6335096222097
 10
103.0390163587889
 20
-139.6335096222097
 10
103.0875922051309
 20
-139.3816731422379
 10
103.0875922051309
 20
-139.3816731422379
 10
103.0875922051309
 20
-139.3816731422379
 10
103.2949869533429
 20
-139.3816731422379
 10
103.2949869533429
 20
-139.3816731422379
 97
        0
 97
        0
 92
        1
 93
        1
 72
     4
 94
        3
 73
     0
 74
     1
 95
       14
 96
       10
 40
0.0
 40
0.0
 40
0.0
 40
0.0
 40
1.0
 40
1.0
 40
1.0
 40
2.0
 40
2.0
 40
2.0
 40
3.0
 40
3.0
 40
3.0
 40
3.0
 10
103.0052544230334
 20
-139.8067979251178
 10
102.8846760810497
 20
-139.8154106638309
 10
102.5904649266093
 20
-139.8384928035821
 10
102.5904649266093
 20
-140.2364013321284
 10
102.5904649266093
 20
-140.299791089057
 10
102.5904649266093
 20
-140.5133870091425
 10
102.8591823744588
 20
-140.5578287409022
 10
102.8591823744588
 20
-140.5578287409022
 10
103.0052544230334
 20
-139.8067979251178
 10
103.0052544230334
 20
-139.8067979251178
 97
        0
 97
        0
 92
        1
 93
        1
 72
     4
 94
        3
 73
     0
 74
     1
 95
       14
 96
       10
 40
0.0
 40
0.0
 40
0.0
 40
0.0
 40
1.0
 40
1.0
 40
1.0
 40
2.0
 40
2.0
 40
2.0
 40
3.0
 40
3.0
 40
3.0
 40
3.0
 10
103.0665771226709
 20
-140.5664414796153
 10
103.2484781642921
 20
-140.5619628554845
 10
103.4917019055507
 20
-140.4816921306782
 10
103.4917019055507
 20
-140.1261582766004
 10
103.4917019055507
 20
-140.0331406984987
 10
103.4789550522553
 20
-139.845038485004
 10
103.2081705471146
 20
-139.817477721122
 10
103.2081705471146
 20
-139.817477721122
 10
103.0665771226709
 20
-140.5664414796153
 10
103.0665771226709
 20
-140.5664414796153
 97
        0
 97
        0
 75
     2
 76
     1
 98
        0
  0
SPLINE
  5
13A
330
132
100
AcDbEntity
  8
_U+30EC_U+30A4_U+30E4_U+30FC 1
370
     0
100
AcDbSpline
210
0.0
220
0.0
230
1.0
 70
    11
 71
     3
 72
    62
 73
    58
 74
     0
 42
0.0000000001
 43
0.0000000001
 12
1.0
 22
0.0
 32
0.0
 13
1.0
 23
0.0
 33
0.0
 40
0.0
 40
0.0
 40
0.0
 40
0.0
 40
1.0
 40
1.0
 40
1.0
 40
2.0
 40
2.0
 40
2.0
 40
3.0
 40
3.0
 40
3.0
 40
4.0
 40
4.0
 40
4.0
 40
5.0
 40
5.0
 40
5.0
 40
6.0
 40
6.0
 40
6.0
 40
7.0
 40
7.0
 40
7.0
 40
8.0
 40
8.0
 40
8.0
 40
9.0
 40
9.0
 40
9.0
 40
10.0
 40
10.0
 40
10.0
 40
11.0
 40
11.0
 40
11.0
 40
12.0
 40
12.0
 40
12.0
 40
13.0
 40
13.0
 40
13.0
 40
14.0
 40
14.0
 40
14.0
 40
15.0
 40
15.0
 40
15.0
 40
16.0
 40
16.0
 40
16.0
 40
17.0
 40
17.0
 40
17.0
 40
18.0
 40
18.0
 40
18.0
 40
19.0
 40
19.0
 40
19.0
 40
19.0
 10
104.4153320051462
 20
-140.803119539452
 30
0.0
 10
104.3199028602047
 20
-140.803119539452
 30
0.0
 10
104.102172825537
 20
-140.782104456992
 30
0.0
 10
103.9771158594224
 20
-140.5960693007885
 30
0.0
 10
103.903390816038
 20
-140.4837591879694
 30
0.0
 10
103.8989121919072
 20
-140.3845404379942
 30
0.0
 10
103.8947780773249
 20
-140.299791089057
 30
0.0
 10
103.8947780773249
 20
-140.299791089057
 30
0.0
 10
104.1149196788324
 20
-140.299791089057
 30
0.0
 10
104.1149196788324
 20
-140.299791089057
 30
0.0
 10
104.1169867361235
 20
-140.3738606419899
 30
0.0
 10
104.1273220225793
 20
-140.6084716445354
 30
0.0
 10
104.4108533810153
 20
-140.6084716445354
 30
0.0
 10
104.5483126908768
 20
-140.6084716445354
 30
0.0
 10
104.7009304208734
 20
-140.5388807157333
 30
0.0
 10
104.7009304208734
 20
-140.3104708850613
 30
0.0
 10
104.7009304208734
 20
-140.1940266576598
 30
0.0
 10
104.6626898609871
 20
-140.1454508113178
 30
0.0
 10
104.6309949825228
 20
-140.1137559328535
 30
0.0
 10
104.5569254295899
 20
-140.0396863799207
 30
0.0
 10
104.4404812021885
 20
-140.0269395266252
 30
0.0
 10
104.385704183973
 20
-140.0269395266252
 30
0.0
 10
104.3664116492556
 20
-140.0269395266252
 30
0.0
 10
104.330582656209
 20
-140.0290065839164
 30
0.0
 10
104.303021892327
 20
-140.0331406984987
 30
0.0
 10
104.303021892327
 20
-140.0331406984987
 30
0.0
 10
104.303021892327
 20
-139.8384928035821
 30
0.0
 10
104.303021892327
 20
-139.8384928035821
 30
0.0
 10
104.3412624522133
 20
-139.845038485004
 30
0.0
 10
104.3832926171333
 20
-139.8471055422952
 30
0.0
 10
104.3898382985553
 20
-139.8471055422952
 30
0.0
 10
104.4552951127751
 20
-139.8471055422952
 30
0.0
 10
104.654077122274
 20
-139.8257459502866
 30
0.0
 10
104.654077122274
 20
-139.58906789045
 30
0.0
 10
104.654077122274
 20
-139.4113009634111
 30
0.0
 10
104.5231634938345
 20
-139.3561794356471
 30
0.0
 10
104.4129204383065
 20
-139.3561794356471
 30
0.0
 10
104.1486816145878
 20
-139.3561794356471
 30
0.0
 10
104.1400688758747
 20
-139.58906789045
 30
0.0
 10
104.1359347612924
 20
-139.6607258765432
 30
0.0
 10
104.1359347612924
 20
-139.6607258765432
 30
0.0
 10
103.9326741276627
 20
-139.6607258765432
 30
0.0
 10
103.9326741276627
 20
-139.6607258765432
 30
0.0
 10
103.9412868663758
 20
-139.5360134199771
 30
0.0
 10
103.9688476302578
 20
-139.1594644834393
 30
0.0
 10
104.4256672916019
 20
-139.1594644834393
 30
0.0
 10
104.6499430076917
 20
-139.1594644834393
 30
0.0
 10
104.8910996916592
 20
-139.286588506845
 30
0.0
 10
104.8910996916592
 20
-139.582522209028
 30
0.0
 10
104.8910996916592
 20
-139.76890187478
 30
0.0
 10
104.7960150562663
 20
-139.8512396568775
 30
0.0
 10
104.6964517967426
 20
-139.9125623565149
 30
0.0
 10
104.75777449638
 20
-139.9401231203969
 30
0.0
 10
104.9396755380012
 20
-140.0203938452032
 30
0.0
 10
104.9396755380012
 20
-140.2977240317659
 30
0.0
 10
104.9396755380012
 20
-140.6360324084174
 30
0.0
 10
104.6923176821603
 20
-140.803119539452
 30
0.0
 10
104.4153320051462
 20
-140.803119539452
 30
0.0
  0
HATCH
  5
13B
330
132
100
AcDbEntity
  8
_U+30EC_U+30A4_U+30E4_U+30FC 1
 62
   179
420
  2234388
100
AcDbHatch
 10
0.0
 20
0.0
 30
0.0
210
0.0
220
0.0
230
1.0
  2
SOLID
 70
     1
 71
     0
 91
        1
 92
        1
 93
        1
 72
     4
 94
        3
 73
     0
 74
     1
 95
       62
 96
       58
 40
0.0
 40
0.0
 40
0.0
 40
0.0
 40
1.0
 40
1.0
 40
1.0
 40
2.0
 40
2.0
 40
2.0
 40
3.0
 40
3.0
 40
3.0
 40
4.0
 40
4.0
 40
4.0
 40
5.0
 40
5.0
 40
5.0
 40
6.0
 40
6.0
 40
6.0
 40
7.0
 40
7.0
 40
7.0
 40
8.0
 40
8.0
 40
8.0
 40
9.0
 40
9.0
 40
9.0
 40
10.0
 40
10.0
 40
10.0
 40
11.0
 40
11.0
 40
11.0
 40
12.0
 40
12.0
 40
12.0
 40
13.0
 40
13.0
 40
13.0
 40
14.0
 40
14.0
 40
14.0
 40
15.0
 40
15.0
 40
15.0
 40
16.0
 40
16.0
 40
16.0
 40
17.0
 40
17.0
 40
17.0
 40
18.0
 40
18.0
 40
18.0
 40
19.0
 40
19.0
 40
19.0
 40
19.0
 10
104.4153320051462
 20
-140.803119539452
 10
104.3199028602047
 20
-140.803119539452
 10
104.102172825537
 20
-140.782104456992
 10
103.9771158594224
 20
-140.5960693007885
 10
103.903390816038
 20
-140.4837591879694
 10
103.8989121919072
 20
-140.3845404379942
 10
103.8947780773249
 20
-140.299791089057
 10
103.8947780773249
 20
-140.299791089057
 10
104.1149196788324
 20
-140.299791089057
 10
104.1149196788324
 20
-140.299791089057
 10
104.1169867361235
 20
-140.3738606419899
 10
104.1273220225793
 20
-140.6084716445354
 10
104.4108533810153
 20
-140.6084716445354
 10
104.5483126908768
 20
-140.6084716445354
 10
104.7009304208734
 20
-140.5388807157333
 10
104.7009304208734
 20
-140.3104708850613
 10
104.7009304208734
 20
-140.1940266576598
 10
104.6626898609871
 20
-140.1454508113178
 10
104.6309949825228
 20
-140.1137559328535
 10
104.5569254295899
 20
-140.0396863799207
 10
104.4404812021885
 20
-140.0269395266252
 10
104.385704183973
 20
-140.0269395266252
 10
104.3664116492556
 20
-140.0269395266252
 10
104.330582656209
 20
-140.0290065839164
 10
104.303021892327
 20
-140.0331406984987
 10
104.303021892327
 20
-140.0331406984987
 10
104.303021892327
 20
-139.8384928035821
 10
104.303021892327
 20
-139.8384928035821
 10
104.3412624522133
 20
-139.845038485004
 10
104.3832926171333
 20
-139.8471055422952
 10
104.3898382985553
 20
-139.8471055422952
 10
104.4552951127751
 20
-139.8471055422952
 10
104.654077122274
 20
-139.8257459502866
 10
104.654077122274
 20
-139.58906789045
 10
104.654077122274
 20
-139.4113009634111
 10
104.5231634938345
 20
-139.3561794356471
 10
104.4129204383065
 20
-139.3561794356471
 10
104.1486816145878
 20
-139.3561794356471
 10
104.1400688758747
 20
-139.58906789045
 10
104.1359347612924
 20
-139.6607258765432
 10
104.1359347612924
 20
-139.6607258765432
 10
103.9326741276627
 20
-139.6607258765432
 10
103.9326741276627
 20
-139.6607258765432
 10
103.9412868663758
 20
-139.5360134199771
 10
103.9688476302578
 20
-139.1594644834393
 10
104.4256672916019
 20
-139.1594644834393
 10
104.6499430076917
 20
-139.1594644834393
 10
104.8910996916592
 20
-139.286588506845
 10
104.8910996916592
 20
-139.582522209028
 10
104.8910996916592
 20
-139.76890187478
 10
104.7960150562663
 20
-139.8512396568775
 10
104.6964517967426
 20
-139.9125623565149
 10
104.75777449638
 20
-139.9401231203969
 10
104.9396755380012
 20
-140.0203938452032
 10
104.9396755380012
 20
-140.2977240317659
 10
104.9396755380012
 20
-140.6360324084174
 10
104.6923176821603
 20
-140.803119539452
 10
104.4153320051462
 20
-140.803119539452
 97
        0
 97
        0
 75
     2
 76
     1
 98
        0
  0
POLYLINE
  5
13C
330
132
100
AcDbEntity
  8
_U+30EC_U+30A4_U+30E4_U+30FC 1
370
     0
100
AcDb2dPolyline
 66
     1
 10
0.0
 20
0.0
 30
0.0
  0
VERTEX
  5
13D
330
13C
100
AcDbEntity
  8
_U+30EC_U+30A4_U+30E4_U+30FC 1
370
     0
100
AcDbVertex
100
AcDb2dVertex
 10
105.1605061586057
 20
-140.7524766358188
 30
0.0
  0
VERTEX
  5
13E
330
13C
100
AcDbEntity
  8
_U+30EC_U+30A4_U+30E4_U+30FC 1
370
     0
100
AcDbVertex
100
AcDb2dVertex
 10
105.1605061586057
 20
-140.5006401558471
 30
0.0
  0
VERTEX
  5
13F
330
13C
100
AcDbEntity
  8
_U+30EC_U+30A4_U+30E4_U+30FC 1
370
     0
100
AcDbVertex
100
AcDb2dVertex
 10
105.4123426385775
 20
-140.5006401558471
 30
0.0
  0
VERTEX
  5
140
330
13C
100
AcDbEntity
  8
_U+30EC_U+30A4_U+30E4_U+30FC 1
370
     0
100
AcDbVertex
100
AcDb2dVertex
 10
105.4123426385775
 20
-140.7524766358188
 30
0.0
  0
VERTEX
  5
141
330
13C
100
AcDbEntity
  8
_U+30EC_U+30A4_U+30E4_U+30FC 1
370
     0
100
AcDbVertex
100
AcDb2dVertex
 10
105.1605061586057
 20
-140.7524766358188
 30
0.0
  0
SEQEND
  5
142
330
13C
100
AcDbEntity
  8
_U+30EC_U+30A4_U+30E4_U+30FC 1
370
     0
  0
HATCH
  5
143
330
132
100
AcDbEntity
  8
_U+30EC_U+30A4_U+30E4_U+30FC 1
 62
   179
420
  2234388
100
AcDbHatch
 10
0.0
 20
0.0
 30
0.0
210
0.0
220
0.0
230
1.0
  2
SOLID
 70
     1
 71
     0
 91
        1
 92
        1
 93
        4
 72
     1
 10
105.1605061586057
 20
-140.7524766358188
 11
105.1605061586057
 21
-140.5006401558471
 72
     1
 10
105.1605061586057
 20
-140.5006401558471
 11
105.4123426385775
 21
-140.5006401558471
 72
     1
 10
105.4123426385775
 20
-140.5006401558471
 11
105.4123426385775
 21
-140.7524766358188
 72
     1
 10
105.4123426385775
 20
-140.7524766358188
 11
105.1605061586057
 21
-140.7524766358188
 97
        0
 75
     2
 76
     1
 98
        0
  0
SPLINE
  5
144
330
132
100
AcDbEntity
  8
_U+30EC_U+30A4_U+30E4_U+30FC 1
370
     0
100
AcDbSpline
210
0.0
220
0.0
230
1.0
 70
    11
 71
     3
 72
    53
 73
    49
 74
     0
 42
0.0000000001
 43
0.0000000001
 12
1.0
 22
0.0
 32
0.0
 13
1.0
 23
0.0
 33
0.0
 40
0.0
 40
0.0
 40
0.0
 40
0.0
 40
1.0
 40
1.0
 40
1.0
 40
2.0
 40
2.0
 40
2.0
 40
3.0
 40
3.0
 40
3.0
 40
4.0
 40
4.0
 40
4.0
 40
5.0
 40
5.0
 40
5.0
 40
6.0
 40
6.0
 40
6.0
 40
7.0
 40
7.0
 40
7.0
 40
8.0
 40
8.0
 40
8.0
 40
9.0
 40
9.0
 40
9.0
 40
10.0
 40
10.0
 40
10.0
 40
11.0
 40
11.0
 40
11.0
 40
12.0
 40
12.0
 40
12.0
 40
13.0
 40
13.0
 40
13.0
 40
14.0
 40
14.0
 40
14.0
 40
15.0
 40
15.0
 40
15.0
 40
16.0
 40
16.0
 40
16.0
 40
16.0
 10
106.1296115186065
 20
-140.803119539452
 30
0.0
 10
106.0514078510913
 20
-140.803119539452
 30
0.0
 10
105.9497775342764
 20
-140.7862385715743
 30
0.0
 10
105.8481472174616
 20
-140.7228488146457
 30
0.0
 10
105.6748589145535
 20
-140.6129502686662
 30
0.0
 10
105.653499322545
 20
-140.4816921306782
 30
0.0
 10
105.6345512973761
 20
-140.3738606419899
 30
0.0
 10
105.6345512973761
 20
-140.3738606419899
 30
0.0
 10
105.8567599561747
 20
-140.3738606419899
 30
0.0
 10
105.8567599561747
 20
-140.3738606419899
 30
0.0
 10
105.9115369743902
 20
-140.5726426514888
 30
0.0
 10
106.0386609977959
 20
-140.6022704726619
 30
0.0
 10
106.1316785758976
 20
-140.6022704726619
 30
0.0
 10
106.2712049430503
 20
-140.6022704726619
 30
0.0
 10
106.4234781634983
 20
-140.5027072131382
 30
0.0
 10
106.4234781634983
 20
-140.2701632678838
 30
0.0
 10
106.4234781634983
 20
-140.0141926733298
 30
0.0
 10
106.2436441791683
 20
-139.9442572349792
 30
0.0
 10
106.1230658371845
 20
-139.9442572349792
 30
0.0
 10
106.0913709587202
 20
-139.9442572349792
 30
0.0
 10
105.9497775342764
 20
-139.9442572349792
 30
0.0
 10
105.860894070757
 20
-140.0734483156761
 30
0.0
 10
105.860894070757
 20
-140.0734483156761
 30
0.0
 10
105.6851942010093
 20
-140.0545002905072
 30
0.0
 10
105.6851942010093
 20
-140.0545002905072
 30
0.0
 10
105.6851942010093
 20
-140.0545002905072
 30
0.0
 10
105.805772542993
 20
-139.2080403297813
 30
0.0
 10
105.805772542993
 20
-139.2080403297813
 30
0.0
 10
105.805772542993
 20
-139.2080403297813
 30
0.0
 10
106.5843641226595
 20
-139.2080403297813
 30
0.0
 10
106.5843641226595
 20
-139.2080403297813
 30
0.0
 10
106.5843641226595
 20
-139.2080403297813
 30
0.0
 10
106.5843641226595
 20
-139.402688224698
 30
0.0
 10
106.5843641226595
 20
-139.402688224698
 30
0.0
 10
106.5843641226595
 20
-139.402688224698
 30
0.0
 10
105.9687255594453
 20
-139.402688224698
 30
0.0
 10
105.9687255594453
 20
-139.402688224698
 30
0.0
 10
105.9687255594453
 20
-139.402688224698
 30
0.0
 10
105.9032687452256
 20
-139.8257459502866
 30
0.0
 10
105.9032687452256
 20
-139.8257459502866
 30
0.0
 10
105.964591444863
 20
-139.7919840145312
 30
0.0
 10
106.0469292269605
 20
-139.7516763973537
 30
0.0
 10
106.1654405116531
 20
-139.7516763973537
 30
0.0
 10
106.419344048916
 20
-139.7516763973537
 30
0.0
 10
106.6563666183012
 20
-139.9380560631058
 30
0.0
 10
106.6563666183012
 20
-140.251215242715
 30
0.0
 10
106.6563666183012
 20
-140.5685085369065
 30
0.0
 10
106.4320909022114
 20
-140.803119539452
 30
0.0
 10
106.1296115186065
 20
-140.803119539452
 30
0.0
  0
HATCH
  5
145
330
132
100
AcDbEntity
  8
_U+30EC_U+30A4_U+30E4_U+30FC 1
 62
   179
420
  2234388
100
AcDbHatch
 10
0.0
 20
0.0
 30
0.0
210
0.0
220
0.0
230
1.0
  2
SOLID
 70
     1
 71
     0
 91
        1
 92
        1
 93
        1
 72
     4
 94
        3
 73
     0
 74
     1
 95
       53
 96
       49
 40
0.0
 40
0.0
 40
0.0
 40
0.0
 40
1.0
 40
1.0
 40
1.0
 40
2.0
 40
2.0
 40
2.0
 40
3.0
 40
3.0
 40
3.0
 40
4.0
 40
4.0
 40
4.0
 40
5.0
 40
5.0
 40
5.0
 40
6.0
 40
6.0
 40
6.0
 40
7.0
 40
7.0
 40
7.0
 40
8.0
 40
8.0
 40
8.0
 40
9.0
 40
9.0
 40
9.0
 40
10.0
 40
10.0
 40
10.0
 40
11.0
 40
11.0
 40
11.0
 40
12.0
 40
12.0
 40
12.0
 40
13.0
 40
13.0
 40
13.0
 40
14.0
 40
14.0
 40
14.0
 40
15.0
 40
15.0
 40
15.0
 40
16.0
 40
16.0
 40
16.0
 40
16.0
 10
106.1296115186065
 20
-140.803119539452
 10
106.0514078510913
 20
-140.803119539452
 10
105.9497775342764
 20
-140.7862385715743
 10
105.8481472174616
 20
-140.7228488146457
 10
105.6748589145535
 20
-140.6129502686662
 10
105.653499322545
 20
-140.4816921306782
 10
105.6345512973761
 20
-140.3738606419899
 10
105.6345512973761
 20
-140.3738606419899
 10
105.8567599561747
 20
-140.3738606419899
 10
105.8567599561747
 20
-140.3738606419899
 10
105.9115369743902
 20
-140.5726426514888
 10
106.0386609977959
 20
-140.6022704726619
 10
106.1316785758976
 20
-140.6022704726619
 10
106.2712049430503
 20
-140.6022704726619
 10
106.4234781634983
 20
-140.5027072131382
 10
106.4234781634983
 20
-140.2701632678838
 10
106.4234781634983
 20
-140.0141926733298
 10
106.2436441791683
 20
-139.9442572349792
 10
106.1230658371845
 20
-139.9442572349792
 10
106.0913709587202
 20
-139.9442572349792
 10
105.9497775342764
 20
-139.9442572349792
 10
105.860894070757
 20
-140.0734483156761
 10
105.860894070757
 20
-140.0734483156761
 10
105.6851942010093
 20
-140.0545002905072
 10
105.6851942010093
 20
-140.0545002905072
 10
105.6851942010093
 20
-140.0545002905072
 10
105.805772542993
 20
-139.2080403297813
 10
105.805772542993
 20
-139.2080403297813
 10
105.805772542993
 20
-139.2080403297813
 10
106.5843641226595
 20
-139.2080403297813
 10
106.5843641226595
 20
-139.2080403297813
 10
106.5843641226595
 20
-139.2080403297813
 10
106.5843641226595
 20
-139.402688224698
 10
106.5843641226595
 20
-139.402688224698
 10
106.5843641226595
 20
-139.402688224698
 10
105.9687255594453
 20
-139.402688224698
 10
105.9687255594453
 20
-139.402688224698
 10
105.9687255594453
 20
-139.402688224698
 10
105.9032687452256
 20
-139.8257459502866
 10
105.9032687452256
 20
-139.8257459502866
 10
105.964591444863
 20
-139.7919840145312
 10
106.0469292269605
 20
-139.7516763973537
 10
106.1654405116531
 20
-139.7516763973537
 10
106.419344048916
 20
-139.7516763973537
 10
106.6563666183012
 20
-139.9380560631058
 10
106.6563666183012
 20
-140.251215242715
 10
106.6563666183012
 20
-140.5685085369065
 10
106.4320909022114
 20
-140.803119539452
 10
106.1296115186065
 20
-140.803119539452
 97
        0
 97
        0
 75
     2
 76
     1
 98
        0
  0
ENDBLK
  5
135
330
132
100
AcDbEntity
  8
0
100
AcDbBlockEnd
  0
BLOCK
  5
157
330
155
100
AcDbEntity
  8
0
100
AcDbBlockBegin
  2
block 12
 70
     0
 10
0.0
 20
0.0
 30
0.0
  3
block 12
  1

  0
SPLINE
  5
159
330
155
100
AcDbEntity
  8
_U+30EC_U+30A4_U+30E4_U+30FC 1
370
     0
100
AcDbSpline
210
0.0
220
0.0
230
1.0
 70
    11
 71
     3
 72
    35
 73
    31
 74
     0
 42
0.0000000001
 43
0.0000000001
 12
1.0
 22
0.0
 32
0.0
 13
1.0
 23
0.0
 33
0.0
 40
0.0
 40
0.0
 40
0.0
 40
0.0
 40
1.0
 40
1.0
 40
1.0
 40
2.0
 40
2.0
 40
2.0
 40
3.0
 40
3.0
 40
3.0
 40
4.0
 40
4.0
 40
4.0
 40
5.0
 40
5.0
 40
5.0
 40
6.0
 40
6.0
 40
6.0
 40
7.0
 40
7.0
 40
7.0
 40
8.0
 40
8.0
 40
8.0
 40
9.0
 40
9.0
 40
9.0
 40
10.0
 40
10.0
 40
10.0
 40
10.0
 10
98.98999563497473
 20
-141.9906439532176
 30
0.0
 10
98.98999563497473
 20
-141.9906439532176
 30
0.0
 10
98.94348684592386
 20
-142.2548827769363
 30
0.0
 10
98.94348684592386
 20
-142.2548827769363
 30
0.0
 10
99.07061086932957
 20
-142.2676296302317
 30
0.0
 10
99.36964515744926
 20
-142.3585801510423
 30
0.0
 10
99.36964515744926
 20
-142.7499429981667
 30
0.0
 10
99.36964515744926
 20
-143.2281222515194
 30
0.0
 10
98.99964190233342
 20
-143.3528347080854
 30
0.0
 10
98.74883895100724
 20
-143.3528347080854
 30
0.0
 10
98.74883895100724
 20
-143.3528347080854
 30
0.0
 10
98.68717174182127
 20
-143.706301504872
 30
0.0
 10
98.68717174182127
 20
-143.706301504872
 30
0.0
 10
98.68717174182127
 20
-143.706301504872
 30
0.0
 10
98.49838050922958
 20
-143.706301504872
 30
0.0
 10
98.49838050922958
 20
-143.706301504872
 30
0.0
 10
98.49838050922958
 20
-143.706301504872
 30
0.0
 10
98.56383732344932
 20
-143.3380207974988
 30
0.0
 10
98.56383732344932
 20
-143.3380207974988
 30
0.0
 10
98.4656521021197
 20
-143.31907277233
 30
0.0
 10
98.14560273154
 20
-143.2577500726925
 30
0.0
 10
98.14560273154
 20
-142.8408935189773
 30
0.0
 10
98.14560273154
 20
-142.3926865963463
 30
0.0
 10
98.46944170715348
 20
-142.2424804331894
 30
0.0
 10
98.75676267062332
 20
-142.2424804331894
 30
0.0
 10
98.75676267062332
 20
-142.2424804331894
 30
0.0
 10
98.80085989283451
 20
-141.9906439532176
 30
0.0
 10
98.80085989283451
 20
-141.9906439532176
 30
0.0
 10
98.80085989283451
 20
-141.9906439532176
 30
0.0
 10
98.98999563497473
 20
-141.9906439532176
 30
0.0
 10
98.98999563497473
 20
-141.9906439532176
 30
0.0
  0
SPLINE
  5
15A
330
155
100
AcDbEntity
  8
_U+30EC_U+30A4_U+30E4_U+30FC 1
370
     0
100
AcDbSpline
210
0.0
220
0.0
230
1.0
 70
    11
 71
     3
 72
    14
 73
    10
 74
     0
 42
0.0000000001
 43
0.0000000001
 12
1.0
 22
0.0
 32
0.0
 13
1.0
 23
0.0
 33
0.0
 40
0.0
 40
0.0
 40
0.0
 40
0.0
 40
1.0
 40
1.0
 40
1.0
 40
2.0
 40
2.0
 40
2.0
 40
3.0
 40
3.0
 40
3.0
 40
3.0
 10
98.72575681125606
 20
-142.4157687360974
 30
0.0
 10
98.6158582652766
 20
-142.4243814748106
 30
0.0
 10
98.34817434607268
 20
-142.4474636145617
 30
0.0
 10
98.34817434607268
 20
-142.8453721431081
 30
0.0
 10
98.34817434607268
 20
-142.9087619000367
 30
0.0
 10
98.34817434607268
 20
-143.1223578201222
 30
0.0
 10
98.59277612552542
 20
-143.1667995518819
 30
0.0
 10
98.59277612552542
 20
-143.1667995518819
 30
0.0
 10
98.72575681125606
 20
-142.4157687360974
 30
0.0
 10
98.72575681125606
 20
-142.4157687360974
 30
0.0
  0
SPLINE
  5
15B
330
155
100
AcDbEntity
  8
_U+30EC_U+30A4_U+30E4_U+30FC 1
370
     0
100
AcDbSpline
210
0.0
220
0.0
230
1.0
 70
    11
 71
     3
 72
    14
 73
    10
 74
     0
 42
0.0000000001
 43
0.0000000001
 12
1.0
 22
0.0
 32
0.0
 13
1.0
 23
0.0
 33
0.0
 40
0.0
 40
0.0
 40
0.0
 40
0.0
 40
1.0
 40
1.0
 40
1.0
 40
2.0
 40
2.0
 40
2.0
 40
3.0
 40
3.0
 40
3.0
 40
3.0
 10
98.78156735811712
 20
-143.175412290595
 30
0.0
 10
98.94727645095763
 20
-143.1709336664642
 30
0.0
 10
99.16914060020773
 20
-143.0906629416579
 30
0.0
 10
99.16914060020773
 20
-142.7351290875801
 30
0.0
 10
99.16914060020773
 20
-142.6421115094784
 30
0.0
 10
99.15742727555786
 20
-142.4540092959837
 30
0.0
 10
98.91075843881399
 20
-142.4264485321017
 30
0.0
 10
98.91075843881399
 20
-142.4264485321017
 30
0.0
 10
98.78156735811712
 20
-143.175412290595
 30
0.0
 10
98.78156735811712
 20
-143.175412290595
 30
0.0
  0
HATCH
  5
15C
330
155
100
AcDbEntity
  8
_U+30EC_U+30A4_U+30E4_U+30FC 1
 62
   179
420
  2234388
100
AcDbHatch
 10
0.0
 20
0.0
 30
0.0
210
0.0
220
0.0
230
1.0
  2
SOLID
 70
     1
 71
     0
 91
        3
 92
        1
 93
        1
 72
     4
 94
        3
 73
     0
 74
     1
 95
       35
 96
       31
 40
0.0
 40
0.0
 40
0.0
 40
0.0
 40
1.0
 40
1.0
 40
1.0
 40
2.0
 40
2.0
 40
2.0
 40
3.0
 40
3.0
 40
3.0
 40
4.0
 40
4.0
 40
4.0
 40
5.0
 40
5.0
 40
5.0
 40
6.0
 40
6.0
 40
6.0
 40
7.0
 40
7.0
 40
7.0
 40
8.0
 40
8.0
 40
8.0
 40
9.0
 40
9.0
 40
9.0
 40
10.0
 40
10.0
 40
10.0
 40
10.0
 10
98.98999563497473
 20
-141.9906439532176
 10
98.98999563497473
 20
-141.9906439532176
 10
98.94348684592386
 20
-142.2548827769363
 10
98.94348684592386
 20
-142.2548827769363
 10
99.07061086932957
 20
-142.2676296302317
 10
99.36964515744926
 20
-142.3585801510423
 10
99.36964515744926
 20
-142.7499429981667
 10
99.36964515744926
 20
-143.2281222515194
 10
98.99964190233342
 20
-143.3528347080854
 10
98.74883895100724
 20
-143.3528347080854
 10
98.74883895100724
 20
-143.3528347080854
 10
98.68717174182127
 20
-143.706301504872
 10
98.68717174182127
 20
-143.706301504872
 10
98.68717174182127
 20
-143.706301504872
 10
98.49838050922958
 20
-143.706301504872
 10
98.49838050922958
 20
-143.706301504872
 10
98.49838050922958
 20
-143.706301504872
 10
98.56383732344932
 20
-143.3380207974988
 10
98.56383732344932
 20
-143.3380207974988
 10
98.4656521021197
 20
-143.31907277233
 10
98.14560273154
 20
-143.2577500726925
 10
98.14560273154
 20
-142.8408935189773
 10
98.14560273154
 20
-142.3926865963463
 10
98.46944170715348
 20
-142.2424804331894
 10
98.75676267062332
 20
-142.2424804331894
 10
98.75676267062332
 20
-142.2424804331894
 10
98.80085989283451
 20
-141.9906439532176
 10
98.80085989283451
 20
-141.9906439532176
 10
98.80085989283451
 20
-141.9906439532176
 10
98.98999563497473
 20
-141.9906439532176
 10
98.98999563497473
 20
-141.9906439532176
 97
        0
 97
        0
 92
        1
 93
        1
 72
     4
 94
        3
 73
     0
 74
     1
 95
       14
 96
       10
 40
0.0
 40
0.0
 40
0.0
 40
0.0
 40
1.0
 40
1.0
 40
1.0
 40
2.0
 40
2.0
 40
2.0
 40
3.0
 40
3.0
 40
3.0
 40
3.0
 10
98.72575681125606
 20
-142.4157687360974
 10
98.6158582652766
 20
-142.4243814748106
 10
98.34817434607268
 20
-142.4474636145617
 10
98.34817434607268
 20
-142.8453721431081
 10
98.34817434607268
 20
-142.9087619000367
 10
98.34817434607268
 20
-143.1223578201222
 10
98.59277612552542
 20
-143.1667995518819
 10
98.59277612552542
 20
-143.1667995518819
 10
98.72575681125606
 20
-142.4157687360974
 10
98.72575681125606
 20
-142.4157687360974
 97
        0
 97
        0
 92
        1
 93
        1
 72
     4
 94
        3
 73
     0
 74
     1
 95
       14
 96
       10
 40
0.0
 40
0.0
 40
0.0
 40
0.0
 40
1.0
 40
1.0
 40
1.0
 40
2.0
 40
2.0
 40
2.0
 40
3.0
 40
3.0
 40
3.0
 40
3.0
 10
98.78156735811712
 20
-143.175412290595
 10
98.94727645095763
 20
-143.1709336664642
 10
99.16914060020773
 20
-143.0906629416579
 10
99.16914060020773
 20
-142.7351290875801
 10
99.16914060020773
 20
-142.6421115094784
 10
99.15742727555786
 20
-142.4540092959837
 10
98.91075843881399
 20
-142.4264485321017
 10
98.91075843881399
 20
-142.4264485321017
 10
98.78156735811712
 20
-143.175412290595
 10
98.78156735811712
 20
-143.175412290595
 97
        0
 97
        0
 75
     2
 76
     1
 98
        0
  0
SPLINE
  5
15D
330
155
100
AcDbEntity
  8
_U+30EC_U+30A4_U+30E4_U+30FC 1
370
     0
100
AcDbSpline
210
0.0
220
0.0
230
1.0
 70
    11
 71
     3
 72
    26
 73
    22
 74
     0
 42
0.0000000001
 43
0.0000000001
 12
1.0
 22
0.0
 32
0.0
 13
1.0
 23
0.0
 33
0.0
 40
0.0
 40
0.0
 40
0.0
 40
0.0
 40
1.0
 40
1.0
 40
1.0
 40
2.0
 40
2.0
 40
2.0
 40
3.0
 40
3.0
 40
3.0
 40
4.0
 40
4.0
 40
4.0
 40
5.0
 40
5.0
 40
5.0
 40
6.0
 40
6.0
 40
6.0
 40
7.0
 40
7.0
 40
7.0
 40
7.0
 10
99.9715033387224
 20
-143.3614474467985
 30
0.0
 10
99.9715033387224
 20
-143.3614474467985
 30
0.0
 10
99.9715033387224
 20
-142.257294343776
 30
0.0
 10
99.9715033387224
 20
-142.257294343776
 30
0.0
 10
99.9715033387224
 20
-142.257294343776
 30
0.0
 10
99.67109101240862
 20
-142.257294343776
 30
0.0
 10
99.67109101240862
 20
-142.257294343776
 30
0.0
 10
99.67109101240862
 20
-142.257294343776
 30
0.0
 10
99.67109101240862
 20
-142.1091552379102
 30
0.0
 10
99.67109101240862
 20
-142.1091552379102
 30
0.0
 10
99.97357039601356
 20
-142.0943413273236
 30
0.0
 10
100.0159450704821
 20
-141.9313883108713
 30
0.0
 10
100.0428168152671
 20
-141.817011140761
 30
0.0
 10
100.0428168152671
 20
-141.817011140761
 30
0.0
 10
100.1757975009977
 20
-141.817011140761
 30
0.0
 10
100.1757975009977
 20
-141.817011140761
 30
0.0
 10
100.1757975009977
 20
-141.817011140761
 30
0.0
 10
100.1757975009977
 20
-143.3614474467985
 30
0.0
 10
100.1757975009977
 20
-143.3614474467985
 30
0.0
 10
100.1757975009977
 20
-143.3614474467985
 30
0.0
 10
99.9715033387224
 20
-143.3614474467985
 30
0.0
 10
99.9715033387224
 20
-143.3614474467985
 30
0.0
  0
HATCH
  5
15E
330
155
100
AcDbEntity
  8
_U+30EC_U+30A4_U+30E4_U+30FC 1
 62
   179
420
  2234388
100
AcDbHatch
 10
0.0
 20
0.0
 30
0.0
210
0.0
220
0.0
230
1.0
  2
SOLID
 70
     1
 71
     0
 91
        1
 92
        1
 93
        1
 72
     4
 94
        3
 73
     0
 74
     1
 95
       26
 96
       22
 40
0.0
 40
0.0
 40
0.0
 40
0.0
 40
1.0
 40
1.0
 40
1.0
 40
2.0
 40
2.0
 40
2.0
 40
3.0
 40
3.0
 40
3.0
 40
4.0
 40
4.0
 40
4.0
 40
5.0
 40
5.0
 40
5.0
 40
6.0
 40
6.0
 40
6.0
 40
7.0
 40
7.0
 40
7.0
 40
7.0
 10
99.9715033387224
 20
-143.3614474467985
 10
99.9715033387224
 20
-143.3614474467985
 10
99.9715033387224
 20
-142.257294343776
 10
99.9715033387224
 20
-142.257294343776
 10
99.9715033387224
 20
-142.257294343776
 10
99.67109101240862
 20
-142.257294343776
 10
99.67109101240862
 20
-142.257294343776
 10
99.67109101240862
 20
-142.257294343776
 10
99.67109101240862
 20
-142.1091552379102
 10
99.67109101240862
 20
-142.1091552379102
 10
99.97357039601356
 20
-142.0943413273236
 10
100.0159450704821
 20
-141.9313883108713
 10
100.0428168152671
 20
-141.817011140761
 10
100.0428168152671
 20
-141.817011140761
 10
100.1757975009977
 20
-141.817011140761
 10
100.1757975009977
 20
-141.817011140761
 10
100.1757975009977
 20
-141.817011140761
 10
100.1757975009977
 20
-143.3614474467985
 10
100.1757975009977
 20
-143.3614474467985
 10
100.1757975009977
 20
-143.3614474467985
 10
99.9715033387224
 20
-143.3614474467985
 10
99.9715033387224
 20
-143.3614474467985
 97
        0
 97
        0
 75
     2
 76
     1
 98
        0
  0
SPLINE
  5
15F
330
155
100
AcDbEntity
  8
_U+30EC_U+30A4_U+30E4_U+30FC 1
370
     0
100
AcDbSpline
210
0.0
220
0.0
230
1.0
 70
    11
 71
     3
 72
    26
 73
    22
 74
     0
 42
0.0000000001
 43
0.0000000001
 12
1.0
 22
0.0
 32
0.0
 13
1.0
 23
0.0
 33
0.0
 40
0.0
 40
0.0
 40
0.0
 40
0.0
 40
1.0
 40
1.0
 40
1.0
 40
2.0
 40
2.0
 40
2.0
 40
3.0
 40
3.0
 40
3.0
 40
4.0
 40
4.0
 40
4.0
 40
5.0
 40
5.0
 40
5.0
 40
6.0
 40
6.0
 40
6.0
 40
7.0
 40
7.0
 40
7.0
 40
7.0
 10
101.0429280346351
 20
-143.3614474467985
 30
0.0
 10
101.0429280346351
 20
-143.3614474467985
 30
0.0
 10
101.0429280346351
 20
-142.257294343776
 30
0.0
 10
101.0429280346351
 20
-142.257294343776
 30
0.0
 10
101.0429280346351
 20
-142.257294343776
 30
0.0
 10
100.7425157083213
 20
-142.257294343776
 30
0.0
 10
100.7425157083213
 20
-142.257294343776
 30
0.0
 10
100.7425157083213
 20
-142.257294343776
 30
0.0
 10
100.7425157083213
 20
-142.1091552379102
 30
0.0
 10
100.7425157083213
 20
-142.1091552379102
 30
0.0
 10
101.0449950919263
 20
-142.0943413273236
 30
0.0
 10
101.0873697663948
 20
-141.9313883108713
 30
0.0
 10
101.1142415111798
 20
-141.817011140761
 30
0.0
 10
101.1142415111798
 20
-141.817011140761
 30
0.0
 10
101.2472221969104
 20
-141.817011140761
 30
0.0
 10
101.2472221969104
 20
-141.817011140761
 30
0.0
 10
101.2472221969104
 20
-141.817011140761
 30
0.0
 10
101.2472221969104
 20
-143.3614474467985
 30
0.0
 10
101.2472221969104
 20
-143.3614474467985
 30
0.0
 10
101.2472221969104
 20
-143.3614474467985
 30
0.0
 10
101.0429280346351
 20
-143.3614474467985
 30
0.0
 10
101.0429280346351
 20
-143.3614474467985
 30
0.0
  0
HATCH
  5
160
330
155
100
AcDbEntity
  8
_U+30EC_U+30A4_U+30E4_U+30FC 1
 62
   179
420
  2234388
100
AcDbHatch
 10
0.0
 20
0.0
 30
0.0
210
0.0
220
0.0
230
1.0
  2
SOLID
 70
     1
 71
     0
 91
        1
 92
        1
 93
        1
 72
     4
 94
        3
 73
     0
 74
     1
 95
       26
 96
       22
 40
0.0
 40
0.0
 40
0.0
 40
0.0
 40
1.0
 40
1.0
 40
1.0
 40
2.0
 40
2.0
 40
2.0
 40
3.0
 40
3.0
 40
3.0
 40
4.0
 40
4.0
 40
4.0
 40
5.0
 40
5.0
 40
5.0
 40
6.0
 40
6.0
 40
6.0
 40
7.0
 40
7.0
 40
7.0
 40
7.0
 10
101.0429280346351
 20
-143.3614474467985
 10
101.0429280346351
 20
-143.3614474467985
 10
101.0429280346351
 20
-142.257294343776
 10
101.0429280346351
 20
-142.257294343776
 10
101.0429280346351
 20
-142.257294343776
 10
100.7425157083213
 20
-142.257294343776
 10
100.7425157083213
 20
-142.257294343776
 10
100.7425157083213
 20
-142.257294343776
 10
100.7425157083213
 20
-142.1091552379102
 10
100.7425157083213
 20
-142.1091552379102
 10
101.0449950919263
 20
-142.0943413273236
 10
101.0873697663948
 20
-141.9313883108713
 10
101.1142415111798
 20
-141.817011140761
 10
101.1142415111798
 20
-141.817011140761
 10
101.2472221969104
 20
-141.817011140761
 10
101.2472221969104
 20
-141.817011140761
 10
101.2472221969104
 20
-141.817011140761
 10
101.2472221969104
 20
-143.3614474467985
 10
101.2472221969104
 20
-143.3614474467985
 10
101.2472221969104
 20
-143.3614474467985
 10
101.0429280346351
 20
-143.3614474467985
 10
101.0429280346351
 20
-143.3614474467985
 97
        0
 97
        0
 75
     2
 76
     1
 98
        0
  0
POLYLINE
  5
161
330
155
100
AcDbEntity
  8
_U+30EC_U+30A4_U+30E4_U+30FC 1
370
     0
100
AcDb2dPolyline
 66
     1
 10
0.0
 20
0.0
 30
0.0
  0
VERTEX
  5
162
330
161
100
AcDbEntity
  8
_U+30EC_U+30A4_U+30E4_U+30FC 1
370
     0
100
AcDbVertex
100
AcDb2dVertex
 10
101.7574408382759
 20
-143.3614474467985
 30
0.0
  0
VERTEX
  5
163
330
161
100
AcDbEntity
  8
_U+30EC_U+30A4_U+30E4_U+30FC 1
370
     0
100
AcDbVertex
100
AcDb2dVertex
 10
101.7574408382759
 20
-143.1096109668268
 30
0.0
  0
VERTEX
  5
164
330
161
100
AcDbEntity
  8
_U+30EC_U+30A4_U+30E4_U+30FC 1
370
     0
100
AcDbVertex
100
AcDb2dVertex
 10
101.986539688045
 20
-143.1096109668268
 30
0.0
  0
VERTEX
  5
165
330
161
100
AcDbEntity
  8
_U+30EC_U+30A4_U+30E4_U+30FC 1
370
     0
100
AcDbVertex
100
AcDb2dVertex
 10
101.986539688045
 20
-143.3614474467985
 30
0.0
  0
VERTEX
  5
166
330
161
100
AcDbEntity
  8
_U+30EC_U+30A4_U+30E4_U+30FC 1
370
     0
100
AcDbVertex
100
AcDb2dVertex
 10
101.7574408382759
 20
-143.3614474467985
 30
0.0
  0
SEQEND
  5
167
330
161
100
AcDbEntity
  8
_U+30EC_U+30A4_U+30E4_U+30FC 1
370
     0
  0
HATCH
  5
168
330
155
100
AcDbEntity
  8
_U+30EC_U+30A4_U+30E4_U+30FC 1
 62
   179
420
  2234388
100
AcDbHatch
 10
0.0
 20
0.0
 30
0.0
210
0.0
220
0.0
230
1.0
  2
SOLID
 70
     1
 71
     0
 91
        1
 92
        1
 93
        4
 72
     1
 10
101.7574408382759
 20
-143.3614474467985
 11
101.7574408382759
 21
-143.1096109668268
 72
     1
 10
101.7574408382759
 20
-143.1096109668268
 11
101.986539688045
 21
-143.1096109668268
 72
     1
 10
101.986539688045
 20
-143.1096109668268
 11
101.986539688045
 21
-143.3614474467985
 72
     1
 10
101.986539688045
 20
-143.3614474467985
 11
101.7574408382759
 21
-143.3614474467985
 97
        0
 75
     2
 76
     1
 98
        0
  0
SPLINE
  5
169
330
155
100
AcDbEntity
  8
_U+30EC_U+30A4_U+30E4_U+30FC 1
370
     0
100
AcDbSpline
210
0.0
220
0.0
230
1.0
 70
    11
 71
     3
 72
    53
 73
    49
 74
     0
 42
0.0000000001
 43
0.0000000001
 12
1.0
 22
0.0
 32
0.0
 13
1.0
 23
0.0
 33
0.0
 40
0.0
 40
0.0
 40
0.0
 40
0.0
 40
1.0
 40
1.0
 40
1.0
 40
2.0
 40
2.0
 40
2.0
 40
3.0
 40
3.0
 40
3.0
 40
4.0
 40
4.0
 40
4.0
 40
5.0
 40
5.0
 40
5.0
 40
6.0
 40
6.0
 40
6.0
 40
7.0
 40
7.0
 40
7.0
 40
8.0
 40
8.0
 40
8.0
 40
9.0
 40
9.0
 40
9.0
 40
10.0
 40
10.0
 40
10.0
 40
11.0
 40
11.0
 40
11.0
 40
12.0
 40
12.0
 40
12.0
 40
13.0
 40
13.0
 40
13.0
 40
14.0
 40
14.0
 40
14.0
 40
15.0
 40
15.0
 40
15.0
 40
16.0
 40
16.0
 40
16.0
 40
16.0
 10
102.6397297920484
 20
-143.4120903504317
 30
0.0
 10
102.5684163155037
 20
-143.4120903504317
 30
0.0
 10
102.4757432469505
 20
-143.395209382554
 30
0.0
 10
102.3834146879458
 20
-143.3318196256254
 30
0.0
 10
102.2252848051728
 20
-143.2219210796459
 30
0.0
 10
102.2059922704555
 20
-143.0906629416579
 30
0.0
 10
102.1887667930292
 20
-142.9828314529696
 30
0.0
 10
102.1887667930292
 20
-142.9828314529696
 30
0.0
 10
102.3909938980134
 20
-142.9828314529696
 30
0.0
 10
102.3909938980134
 20
-142.9828314529696
 30
0.0
 10
102.441292292098
 20
-143.1816134624685
 30
0.0
 10
102.5567029908539
 20
-143.2112412836416
 30
0.0
 10
102.641452339791
 20
-143.2112412836416
 30
0.0
 10
102.7685763631967
 20
-143.2112412836416
 30
0.0
 10
102.9074137112523
 20
-143.1116780241179
 30
0.0
 10
102.9074137112523
 20
-142.8791340788636
 30
0.0
 10
102.9074137112523
 20
-142.6231634843095
 30
0.0
 10
102.7437716757029
 20
-142.5532280459589
 30
0.0
 10
102.6338731297235
 20
-142.5532280459589
 30
0.0
 10
102.6049343276474
 20
-142.5532280459589
 30
0.0
 10
102.4757432469505
 20
-142.5532280459589
 30
0.0
 10
102.3947835030471
 20
-142.6824191266558
 30
0.0
 10
102.3947835030471
 20
-142.6824191266558
 30
0.0
 10
102.2349310725316
 20
-142.6634711014869
 30
0.0
 10
102.2349310725316
 20
-142.6634711014869
 30
0.0
 10
102.2349310725316
 20
-142.6634711014869
 30
0.0
 10
102.344829618511
 20
-141.817011140761
 30
0.0
 10
102.344829618511
 20
-141.817011140761
 30
0.0
 10
102.344829618511
 20
-141.817011140761
 30
0.0
 10
103.0538302693754
 20
-141.817011140761
 30
0.0
 10
103.0538302693754
 20
-141.817011140761
 30
0.0
 10
103.0538302693754
 20
-141.817011140761
 30
0.0
 10
103.0538302693754
 20
-142.0116590356776
 30
0.0
 10
103.0538302693754
 20
-142.0116590356776
 30
0.0
 10
103.0538302693754
 20
-142.0116590356776
 30
0.0
 10
102.4933132339253
 20
-142.0116590356776
 30
0.0
 10
102.4933132339253
 20
-142.0116590356776
 30
0.0
 10
102.4933132339253
 20
-142.0116590356776
 30
0.0
 10
102.4333685724819
 20
-142.4347167612663
 30
0.0
 10
102.4333685724819
 20
-142.4347167612663
 30
0.0
 10
102.489179119343
 20
-142.4009548255109
 30
0.0
 10
102.56462671047
 20
-142.3606472083335
 30
0.0
 10
102.6724581991583
 20
-142.3606472083335
 30
0.0
 10
102.9036241062185
 20
-142.3606472083335
 30
0.0
 10
103.1196315931437
 20
-142.5470268740855
 30
0.0
 10
103.1196315931437
 20
-142.8601860536947
 30
0.0
 10
103.1196315931437
 20
-143.1774793478862
 30
0.0
 10
102.9153374308684
 20
-143.4120903504317
 30
0.0
 10
102.6397297920484
 20
-143.4120903504317
 30
0.0
  0
HATCH
  5
16A
330
155
100
AcDbEntity
  8
_U+30EC_U+30A4_U+30E4_U+30FC 1
 62
   179
420
  2234388
100
AcDbHatch
 10
0.0
 20
0.0
 30
0.0
210
0.0
220
0.0
230
1.0
  2
SOLID
 70
     1
 71
     0
 91
        1
 92
        1
 93
        1
 72
     4
 94
        3
 73
     0
 74
     1
 95
       53
 96
       49
 40
0.0
 40
0.0
 40
0.0
 40
0.0
 40
1.0
 40
1.0
 40
1.0
 40
2.0
 40
2.0
 40
2.0
 40
3.0
 40
3.0
 40
3.0
 40
4.0
 40
4.0
 40
4.0
 40
5.0
 40
5.0
 40
5.0
 40
6.0
 40
6.0
 40
6.0
 40
7.0
 40
7.0
 40
7.0
 40
8.0
 40
8.0
 40
8.0
 40
9.0
 40
9.0
 40
9.0
 40
10.0
 40
10.0
 40
10.0
 40
11.0
 40
11.0
 40
11.0
 40
12.0
 40
12.0
 40
12.0
 40
13.0
 40
13.0
 40
13.0
 40
14.0
 40
14.0
 40
14.0
 40
15.0
 40
15.0
 40
15.0
 40
16.0
 40
16.0
 40
16.0
 40
16.0
 10
102.6397297920484
 20
-143.4120903504317
 10
102.5684163155037
 20
-143.4120903504317
 10
102.4757432469505
 20
-143.395209382554
 10
102.3834146879458
 20
-143.3318196256254
 10
102.2252848051728
 20
-143.2219210796459
 10
102.2059922704555
 20
-143.0906629416579
 10
102.1887667930292
 20
-142.9828314529696
 10
102.1887667930292
 20
-142.9828314529696
 10
102.3909938980134
 20
-142.9828314529696
 10
102.3909938980134
 20
-142.9828314529696
 10
102.441292292098
 20
-143.1816134624685
 10
102.5567029908539
 20
-143.2112412836416
 10
102.641452339791
 20
-143.2112412836416
 10
102.7685763631967
 20
-143.2112412836416
 10
102.9074137112523
 20
-143.1116780241179
 10
102.9074137112523
 20
-142.8791340788636
 10
102.9074137112523
 20
-142.6231634843095
 10
102.7437716757029
 20
-142.5532280459589
 10
102.6338731297235
 20
-142.5532280459589
 10
102.6049343276474
 20
-142.5532280459589
 10
102.4757432469505
 20
-142.5532280459589
 10
102.3947835030471
 20
-142.6824191266558
 10
102.3947835030471
 20
-142.6824191266558
 10
102.2349310725316
 20
-142.6634711014869
 10
102.2349310725316
 20
-142.6634711014869
 10
102.2349310725316
 20
-142.6634711014869
 10
102.344829618511
 20
-141.817011140761
 10
102.344829618511
 20
-141.817011140761
 10
102.344829618511
 20
-141.817011140761
 10
103.0538302693754
 20
-141.817011140761
 10
103.0538302693754
 20
-141.817011140761
 10
103.0538302693754
 20
-141.817011140761
 10
103.0538302693754
 20
-142.0116590356776
 10
103.0538302693754
 20
-142.0116590356776
 10
103.0538302693754
 20
-142.0116590356776
 10
102.4933132339253
 20
-142.0116590356776
 10
102.4933132339253
 20
-142.0116590356776
 10
102.4933132339253
 20
-142.0116590356776
 10
102.4333685724819
 20
-142.4347167612663
 10
102.4333685724819
 20
-142.4347167612663
 10
102.489179119343
 20
-142.4009548255109
 10
102.56462671047
 20
-142.3606472083335
 10
102.6724581991583
 20
-142.3606472083335
 10
102.9036241062185
 20
-142.3606472083335
 10
103.1196315931437
 20
-142.5470268740855
 10
103.1196315931437
 20
-142.8601860536947
 10
103.1196315931437
 20
-143.1774793478862
 10
102.9153374308684
 20
-143.4120903504317
 10
102.6397297920484
 20
-143.4120903504317
 97
        0
 97
        0
 75
     2
 76
     1
 98
        0
  0
ENDBLK
  5
158
330
155
100
AcDbEntity
  8
0
100
AcDbBlockEnd
  0
ENDSEC
  0
SECTION
  2
ENTITIES
  0
SPLINE
  5
41
330
1F
100
AcDbEntity
  8
_U+30EC_U+30A4_U+30E4_U+30FC 1
 62
   179
420
  2234388
370
     9
100
AcDbSpline
210
0.0
220
0.0
230
1.0
 70
    11
 71
     3
 72
    17
 73
    13
 74
     0
 42
0.0000000001
 43
0.0000000001
 12
1.0
 22
0.0
 32
0.0
 13
1.0
 23
0.0
 33
0.0
 40
0.0
 40
0.0
 40
0.0
 40
0.0
 40
1.0
 40
1.0
 40
1.0
 40
2.0
 40
2.0
 40
2.0
 40
3.0
 40
3.0
 40
3.0
 40
4.0
 40
4.0
 40
4.0
 40
4.0
 10
72.74058869978853
 20
-139.3926952429295
 30
0.0
 10
72.76299008810591
 20
-139.3765027429338
 30
0.0
 10
72.76747220403051
 20
-139.3454935762748
 30
0.0
 10
72.75127786618249
 20
-139.3230921873914
 30
0.0
 10
72.73543814436438
 20
-139.3003732985084
 30
0.0
 10
72.70442897848882
 20
-139.2955402429536
 30
0.0
 10
72.68202759017144
 20
-139.3117327429499
 30
0.0
 10
72.65966147963094
 20
-139.3279252429456
 30
0.0
 10
72.65412286866112
 20
-139.3589344096047
 30
0.0
 10
72.6706681460168
 20
-139.3816885762658
 30
0.0
 10
72.68650786783492
 20
-139.404054687371
 30
0.0
 10
72.71822258924803
 20
-139.4088877429258
 30
0.0
 10
72.74058869978853
 20
-139.3926952429295
 30
0.0
  0
SPLINE
  5
42
330
1F
100
AcDbEntity
  8
_U+30EC_U+30A4_U+30E4_U+30FC 1
 62
   179
420
  2234388
370
     9
100
AcDbSpline
210
0.0
220
0.0
230
1.0
 70
    11
 71
     3
 72
    17
 73
    13
 74
     0
 42
0.0000000001
 43
0.0000000001
 12
1.0
 22
0.0
 32
0.0
 13
1.0
 23
0.0
 33
0.0
 40
0.0
 40
0.0
 40
0.0
 40
0.0
 40
1.0
 40
1.0
 40
1.0
 40
2.0
 40
2.0
 40
2.0
 40
3.0
 40
3.0
 40
3.0
 40
4.0
 40
4.0
 40
4.0
 40
4.0
 10
79.19190831353528
 20
-142.5232452421468
 30
0.0
 10
79.21427242351999
 20
-142.5070527421511
 30
0.0
 10
79.2198110344898
 20
-142.4757260754925
 30
0.0
 10
79.2036185349029
 20
-142.4536774643869
 30
0.0
 10
79.18774353530792
 20
-142.4309232977257
 30
0.0
 10
79.1557113139029
 20
-142.4257727421713
 30
0.0
 10
79.13366270335429
 20
-142.441965242167
 30
0.0
 10
79.11126131503691
 20
-142.4581577421633
 30
0.0
 10
79.10678103737344
 20
-142.489484408822
 30
0.0
 10
79.12265603696844
 20
-142.5118857977053
 30
0.0
 10
79.13884853655533
 20
-142.5342871865887
 30
0.0
 10
79.1695049246621
 20
-142.5391202421428
 30
0.0
 10
79.19190831353528
 20
-142.5232452421468
 30
0.0
  0
POLYLINE
  5
43
330
1F
100
AcDbEntity
  8
_U+30EC_U+30A4_U+30E4_U+30FC 1
 62
   179
420
  2234388
370
     9
100
AcDb2dPolyline
 66
     1
 10
0.0
 20
0.0
 30
0.0
  0
VERTEX
  5
44
330
43
100
AcDbEntity
  8
_U+30EC_U+30A4_U+30E4_U+30FC 1
 62
   179
420
  2234388
370
     9
100
AcDbVertex
100
AcDb2dVertex
 10
72.71130814497998
 20
-139.3523727429398
 30
0.0
  0
VERTEX
  5
45
330
43
100
AcDbEntity
  8
_U+30EC_U+30A4_U+30E4_U+30FC 1
 62
   179
420
  2234388
370
     9
100
AcDbVertex
100
AcDb2dVertex
 10
79.13711992548832
 20
-142.45709940883
 30
0.0
  0
SEQEND
  5
46
330
43
100
AcDbEntity
  8
_U+30EC_U+30A4_U+30E4_U+30FC 1
 62
   179
420
  2234388
370
     9
  0
POLYLINE
  5
47
330
1F
100
AcDbEntity
  8
_U+30EC_U+30A4_U+30E4_U+30FC 1
 62
   179
420
  2234388
370
     9
100
AcDb2dPolyline
 66
     1
 10
0.0
 20
0.0
 30
0.0
  0
VERTEX
  5
48
330
47
100
AcDbEntity
  8
_U+30EC_U+30A4_U+30E4_U+30FC 1
 62
   179
420
  2234388
370
     9
100
AcDbVertex
100
AcDb2dVertex
 10
74.11829172019596
 20
-136.4616057992177
 30
0.0
  0
VERTEX
  5
49
330
47
100
AcDbEntity
  8
_U+30EC_U+30A4_U+30E4_U+30FC 1
 62
   179
420
  2234388
370
     9
100
AcDbVertex
100
AcDb2dVertex
 10
72.49498481716552
 20
-139.8026582983824
 30
0.0
  0
SEQEND
  5
4A
330
47
100
AcDbEntity
  8
_U+30EC_U+30A4_U+30E4_U+30FC 1
 62
   179
420
  2234388
370
     9
  0
POLYLINE
  5
4B
330
1F
100
AcDbEntity
  8
_U+30EC_U+30A4_U+30E4_U+30FC 1
 62
   179
420
  2234388
370
     9
100
AcDb2dPolyline
 66
     1
 10
0.0
 20
0.0
 30
0.0
  0
VERTEX
  5
4C
330
4B
100
AcDbEntity
  8
_U+30EC_U+30A4_U+30E4_U+30FC 1
 62
   179
420
  2234388
370
     9
100
AcDbVertex
100
AcDb2dVertex
 10
80.52685266781106
 20
-139.6810557984129
 30
0.0
  0
VERTEX
  5
4D
330
4B
100
AcDbEntity
  8
_U+30EC_U+30A4_U+30E4_U+30FC 1
 62
   179
420
  2234388
370
     9
100
AcDbVertex
100
AcDb2dVertex
 10
78.9465846525715
 20
-142.9335610753775
 30
0.0
  0
SEQEND
  5
4E
330
4B
100
AcDbEntity
  8
_U+30EC_U+30A4_U+30E4_U+30FC 1
 62
   179
420
  2234388
370
     9
  0
INSERT
  5
50
330
1F
100
AcDbEntity
  8
_U+30EC_U+30A4_U+30E4_U+30FC 1
100
AcDbBlockReference
  2
block 2
 10
0.0
 20
0.0
 30
0.0
  0
SPLINE
  5
6A
330
1F
100
AcDbEntity
  8
_U+30EC_U+30A4_U+30E4_U+30FC 1
 62
   179
420
  2234388
370
     9
100
AcDbSpline
210
0.0
220
0.0
230
1.0
 70
    11
 71
     3
 72
    17
 73
    13
 74
     0
 42
0.0000000001
 43
0.0000000001
 12
1.0
 22
0.0
 32
0.0
 13
1.0
 23
0.0
 33
0.0
 40
0.0
 40
0.0
 40
0.0
 40
0.0
 40
1.0
 40
1.0
 40
1.0
 40
2.0
 40
2.0
 40
2.0
 40
3.0
 40
3.0
 40
3.0
 40
4.0
 40
4.0
 40
4.0
 40
4.0
 10
79.17292686901925
 20
-142.4963988532645
 30
0.0
 10
79.1653774247674
 20
-142.5025724643741
 30
0.0
 10
79.15468825837344
 20
-142.5008791310416
 30
0.0
 10
79.14883214741174
 20
-142.4929416310432
 30
0.0
 10
79.1433288142188
 20
-142.4850041310455
 30
0.0
 10
79.14470464751703
 20
-142.4739974643818
 30
0.0
 10
79.15228936954576
 20
-142.4681413532719
 30
0.0
 10
79.16054436933516
 20
-142.4626380199397
 30
0.0
 10
79.17225659125857
 20
-142.4643313532728
 30
0.0
 10
79.17775992445151
 20
-142.4722688532705
 30
0.0
 10
79.18326325764443
 20
-142.4802063532689
 30
0.0
 10
79.18051159104797
 20
-142.4912130199326
 30
0.0
 10
79.17292686901925
 20
-142.4963988532645
 30
0.0
  0
SPLINE
  5
6B
330
1F
100
AcDbEntity
  8
_U+30EC_U+30A4_U+30E4_U+30FC 1
 62
   179
420
  2234388
370
     9
100
AcDbSpline
210
0.0
220
0.0
230
1.0
 70
    11
 71
     3
 72
    17
 73
    13
 74
     0
 42
0.0000000001
 43
0.0000000001
 12
1.0
 22
0.0
 32
0.0
 13
1.0
 23
0.0
 33
0.0
 40
0.0
 40
0.0
 40
0.0
 40
0.0
 40
1.0
 40
1.0
 40
1.0
 40
2.0
 40
2.0
 40
2.0
 40
3.0
 40
3.0
 40
3.0
 40
4.0
 40
4.0
 40
4.0
 40
4.0
 10
93.22702873269147
 20
-117.8260491372102
 30
0.0
 10
93.22702873269147
 20
-117.7977916372172
 30
0.0
 10
93.20498012214286
 20
-117.7757430261116
 30
0.0
 10
93.1774305322612
 20
-117.7757430261116
 30
0.0
 10
93.14917067912224
 20
-117.7757430261116
 30
0.0
 10
93.12712206857363
 20
-117.7977916372172
 30
0.0
 10
93.12712206857363
 20
-117.8260491372102
 30
0.0
 10
93.12712206857363
 20
-117.8536010816477
 30
0.0
 10
93.14917067912224
 20
-117.8756496927533
 30
0.0
 10
93.1774305322612
 20
-117.8756496927533
 30
0.0
 10
93.20498012214286
 20
-117.8756496927533
 30
0.0
 10
93.22702873269147
 20
-117.8536010816477
 30
0.0
 10
93.22702873269147
 20
-117.8260491372102
 30
0.0
  0
SPLINE
  5
6C
330
1F
100
AcDbEntity
  8
_U+30EC_U+30A4_U+30E4_U+30FC 1
 62
   179
420
  2234388
370
     9
100
AcDbSpline
210
0.0
220
0.0
230
1.0
 70
    11
 71
     3
 72
    17
 73
    13
 74
     0
 42
0.0000000001
 43
0.0000000001
 12
1.0
 22
0.0
 32
0.0
 13
1.0
 23
0.0
 33
0.0
 40
0.0
 40
0.0
 40
0.0
 40
0.0
 40
1.0
 40
1.0
 40
1.0
 40
2.0
 40
2.0
 40
2.0
 40
3.0
 40
3.0
 40
3.0
 40
4.0
 40
4.0
 40
4.0
 40
4.0
 10
93.22702873269147
 20
-138.7873991319697
 30
0.0
 10
93.22702873269147
 20
-138.759847187532
 30
0.0
 10
93.20498012214286
 20
-138.7370930208715
 30
0.0
 10
93.1774305322612
 20
-138.7370930208715
 30
0.0
 10
93.14917067912224
 20
-138.7370930208715
 30
0.0
 10
93.12712206857363
 20
-138.759847187532
 30
0.0
 10
93.12712206857363
 20
-138.7873991319697
 30
0.0
 10
93.12712206857363
 20
-138.8149510764075
 30
0.0
 10
93.14917067912224
 20
-138.8369996875131
 30
0.0
 10
93.1774305322612
 20
-138.8369996875131
 30
0.0
 10
93.20498012214286
 20
-138.8369996875131
 30
0.0
 10
93.22702873269147
 20
-138.8149510764075
 30
0.0
 10
93.22702873269147
 20
-138.7873991319697
 30
0.0
  0
POLYLINE
  5
6D
330
1F
100
AcDbEntity
  8
_U+30EC_U+30A4_U+30E4_U+30FC 1
 62
   179
420
  2234388
370
     9
100
AcDb2dPolyline
 66
     1
 10
0.0
 20
0.0
 30
0.0
  0
VERTEX
  5
6E
330
6D
100
AcDbEntity
  8
_U+30EC_U+30A4_U+30E4_U+30FC 1
 62
   179
420
  2234388
370
     9
100
AcDbVertex
100
AcDb2dVertex
 10
93.1774305322612
 20
-117.8256963594324
 30
0.0
  0
VERTEX
  5
6F
330
6D
100
AcDbEntity
  8
_U+30EC_U+30A4_U+30E4_U+30FC 1
 62
   179
420
  2234388
370
     9
100
AcDbVertex
100
AcDb2dVertex
 10
93.1774305322612
 20
-138.7873991319697
 30
0.0
  0
SEQEND
  5
70
330
6D
100
AcDbEntity
  8
_U+30EC_U+30A4_U+30E4_U+30FC 1
 62
   179
420
  2234388
370
     9
  0
POLYLINE
  5
71
330
1F
100
AcDbEntity
  8
_U+30EC_U+30A4_U+30E4_U+30FC 1
 62
   179
420
  2234388
370
     9
100
AcDb2dPolyline
 66
     1
 10
0.0
 20
0.0
 30
0.0
  0
VERTEX
  5
72
330
71
100
AcDbEntity
  8
_U+30EC_U+30A4_U+30E4_U+30FC 1
 62
   179
420
  2234388
370
     9
100
AcDbVertex
100
AcDb2dVertex
 10
98.15491082919294
 20
-117.8260491372102
 30
0.0
  0
VERTEX
  5
73
330
71
100
AcDbEntity
  8
_U+30EC_U+30A4_U+30E4_U+30FC 1
 62
   179
420
  2234388
370
     9
100
AcDbVertex
100
AcDb2dVertex
 10
92.6771916434975
 20
-117.8260491372102
 30
0.0
  0
SEQEND
  5
74
330
71
100
AcDbEntity
  8
_U+30EC_U+30A4_U+30E4_U+30FC 1
 62
   179
420
  2234388
370
     9
  0
POLYLINE
  5
75
330
1F
100
AcDbEntity
  8
_U+30EC_U+30A4_U+30E4_U+30FC 1
 62
   179
420
  2234388
370
     9
100
AcDb2dPolyline
 66
     1
 10
0.0
 20
0.0
 30
0.0
  0
VERTEX
  5
76
330
75
100
AcDbEntity
  8
_U+30EC_U+30A4_U+30E4_U+30FC 1
 62
   179
420
  2234388
370
     9
100
AcDbVertex
100
AcDb2dVertex
 10
97.34944862751976
 20
-138.7873991319697
 30
0.0
  0
VERTEX
  5
77
330
75
100
AcDbEntity
  8
_U+30EC_U+30A4_U+30E4_U+30FC 1
 62
   179
420
  2234388
370
     9
100
AcDbVertex
100
AcDb2dVertex
 10
92.6771916434975
 20
-138.7873991319697
 30
0.0
  0
SEQEND
  5
78
330
75
100
AcDbEntity
  8
_U+30EC_U+30A4_U+30E4_U+30FC 1
 62
   179
420
  2234388
370
     9
  0
INSERT
  5
7A
330
1F
100
AcDbEntity
  8
_U+30EC_U+30A4_U+30E4_U+30FC 1
100
AcDbBlockReference
  2
block 3
 10
0.0
 20
0.0
 30
0.0
  0
SPLINE
  5
94
330
1F
100
AcDbEntity
  8
_U+30EC_U+30A4_U+30E4_U+30FC 1
 62
   179
420
  2234388
370
     9
100
AcDbSpline
210
0.0
220
0.0
230
1.0
 70
    11
 71
     3
 72
    17
 73
    13
 74
     0
 42
0.0000000001
 43
0.0000000001
 12
1.0
 22
0.0
 32
0.0
 13
1.0
 23
0.0
 33
0.0
 40
0.0
 40
0.0
 40
0.0
 40
0.0
 40
1.0
 40
1.0
 40
1.0
 40
2.0
 40
2.0
 40
2.0
 40
3.0
 40
3.0
 40
3.0
 40
4.0
 40
4.0
 40
4.0
 40
4.0
 10
93.19464373351767
 20
-138.7873991319697
 30
0.0
 10
93.19464373351767
 20
-138.7970299653006
 30
0.0
 10
93.18705901148896
 20
-138.8046146875212
 30
0.0
 10
93.1774305322612
 20
-138.8046146875212
 30
0.0
 10
93.16709178977614
 20
-138.8046146875212
 30
0.0
 10
93.15950706774741
 20
-138.7970299653006
 30
0.0
 10
93.15950706774741
 20
-138.7873991319697
 30
0.0
 10
93.15950706774741
 20
-138.7777330208614
 30
0.0
 10
93.16709178977614
 20
-138.7694780208634
 30
0.0
 10
93.1774305322612
 20
-138.7694780208634
 30
0.0
 10
93.18705901148896
 20
-138.7694780208634
 30
0.0
 10
93.19464373351767
 20
-138.7777330208614
 30
0.0
 10
93.19464373351767
 20
-138.7873991319697
 30
0.0
  0
SPLINE
  5
95
330
1F
100
AcDbEntity
  8
_U+30EC_U+30A4_U+30E4_U+30FC 1
 62
   179
420
  2234388
370
     9
100
AcDbSpline
210
0.0
220
0.0
230
1.0
 70
    11
 71
     3
 72
    17
 73
    13
 74
     0
 42
0.0000000001
 43
0.0000000001
 12
1.0
 22
0.0
 32
0.0
 13
1.0
 23
0.0
 33
0.0
 40
0.0
 40
0.0
 40
0.0
 40
0.0
 40
1.0
 40
1.0
 40
1.0
 40
2.0
 40
2.0
 40
2.0
 40
3.0
 40
3.0
 40
3.0
 40
4.0
 40
4.0
 40
4.0
 40
4.0
 10
95.80050727814766
 20
-117.8260491372102
 30
0.0
 10
95.80050727814766
 20
-117.7977916372172
 30
0.0
 10
95.77846108716636
 20
-117.7757430261116
 30
0.0
 10
95.75090672385753
 20
-117.7757430261116
 30
0.0
 10
95.72264922457843
 20
-117.7757430261116
 30
0.0
 10
95.70060061402982
 20
-117.7977916372172
 30
0.0
 10
95.70060061402982
 20
-117.8260491372102
 30
0.0
 10
95.70060061402982
 20
-117.8536010816477
 30
0.0
 10
95.72264922457843
 20
-117.8756496927533
 30
0.0
 10
95.75090672385753
 20
-117.8756496927533
 30
0.0
 10
95.77846108716636
 20
-117.8756496927533
 30
0.0
 10
95.80050727814766
 20
-117.8536010816477
 30
0.0
 10
95.80050727814766
 20
-117.8260491372102
 30
0.0
  0
SPLINE
  5
96
330
1F
100
AcDbEntity
  8
_U+30EC_U+30A4_U+30E4_U+30FC 1
 62
   179
420
  2234388
370
     9
100
AcDbSpline
210
0.0
220
0.0
230
1.0
 70
    11
 71
     3
 72
    17
 73
    13
 74
     0
 42
0.0000000001
 43
0.0000000001
 12
1.0
 22
0.0
 32
0.0
 13
1.0
 23
0.0
 33
0.0
 40
0.0
 40
0.0
 40
0.0
 40
0.0
 40
1.0
 40
1.0
 40
1.0
 40
2.0
 40
2.0
 40
2.0
 40
3.0
 40
3.0
 40
3.0
 40
4.0
 40
4.0
 40
4.0
 40
4.0
 10
95.80050727814766
 20
-138.7873991319697
 30
0.0
 10
95.80050727814766
 20
-138.759847187532
 30
0.0
 10
95.77846108716636
 20
-138.7370930208715
 30
0.0
 10
95.75090672385753
 20
-138.7370930208715
 30
0.0
 10
95.72264922457843
 20
-138.7370930208715
 30
0.0
 10
95.70060061402982
 20
-138.759847187532
 30
0.0
 10
95.70060061402982
 20
-138.7873991319697
 30
0.0
 10
95.70060061402982
 20
-138.8149510764075
 30
0.0
 10
95.72264922457843
 20
-138.8369996875131
 30
0.0
 10
95.75090672385753
 20
-138.8369996875131
 30
0.0
 10
95.77846108716636
 20
-138.8369996875131
 30
0.0
 10
95.80050727814766
 20
-138.8149510764075
 30
0.0
 10
95.80050727814766
 20
-138.7873991319697
 30
0.0
  0
POLYLINE
  5
97
330
1F
100
AcDbEntity
  8
_U+30EC_U+30A4_U+30E4_U+30FC 1
 62
   179
420
  2234388
370
     9
100
AcDb2dPolyline
 66
     1
 10
0.0
 20
0.0
 30
0.0
  0
VERTEX
  5
98
330
97
100
AcDbEntity
  8
_U+30EC_U+30A4_U+30E4_U+30FC 1
 62
   179
420
  2234388
370
     9
100
AcDbVertex
100
AcDb2dVertex
 10
95.75090672385753
 20
-117.8256963594324
 30
0.0
  0
VERTEX
  5
99
330
97
100
AcDbEntity
  8
_U+30EC_U+30A4_U+30E4_U+30FC 1
 62
   179
420
  2234388
370
     9
100
AcDbVertex
100
AcDb2dVertex
 10
95.75090672385753
 20
-138.7873991319697
 30
0.0
  0
SEQEND
  5
9A
330
97
100
AcDbEntity
  8
_U+30EC_U+30A4_U+30E4_U+30FC 1
 62
   179
420
  2234388
370
     9
  0
SPLINE
  5
9B
330
1F
100
AcDbEntity
  8
_U+30EC_U+30A4_U+30E4_U+30FC 1
 62
   179
420
  2234388
370
     9
100
AcDbSpline
210
0.0
220
0.0
230
1.0
 70
    11
 71
     3
 72
    17
 73
    13
 74
     0
 42
0.0000000001
 43
0.0000000001
 12
1.0
 22
0.0
 32
0.0
 13
1.0
 23
0.0
 33
0.0
 40
0.0
 40
0.0
 40
0.0
 40
0.0
 40
1.0
 40
1.0
 40
1.0
 40
2.0
 40
2.0
 40
2.0
 40
3.0
 40
3.0
 40
3.0
 40
4.0
 40
4.0
 40
4.0
 40
4.0
 10
95.80050727814766
 20
-120.3637208032425
 30
0.0
 10
95.80050727814766
 20
-120.3354633032495
 30
0.0
 10
95.77846108716636
 20
-120.3134146921439
 30
0.0
 10
95.75090672385753
 20
-120.3134146921439
 30
0.0
 10
95.72264922457843
 20
-120.3134146921439
 30
0.0
 10
95.70060061402982
 20
-120.3354633032495
 30
0.0
 10
95.70060061402982
 20
-120.3637208032425
 30
0.0
 10
95.70060061402982
 20
-120.3912727476799
 30
0.0
 10
95.72264922457843
 20
-120.4133213587855
 30
0.0
 10
95.75090672385753
 20
-120.4133213587855
 30
0.0
 10
95.77846108716636
 20
-120.4133213587855
 30
0.0
 10
95.80050727814766
 20
-120.3912727476799
 30
0.0
 10
95.80050727814766
 20
-120.3637208032425
 30
0.0
  0
POLYLINE
  5
9C
330
1F
100
AcDbEntity
  8
_U+30EC_U+30A4_U+30E4_U+30FC 1
 62
   179
420
  2234388
370
     9
100
AcDb2dPolyline
 66
     1
 10
0.0
 20
0.0
 30
0.0
  0
VERTEX
  5
9D
330
9C
100
AcDbEntity
  8
_U+30EC_U+30A4_U+30E4_U+30FC 1
 62
   179
420
  2234388
370
     9
100
AcDbVertex
100
AcDb2dVertex
 10
96.34830059750563
 20
-120.3637208032425
 30
0.0
  0
VERTEX
  5
9E
330
9C
100
AcDbEntity
  8
_U+30EC_U+30A4_U+30E4_U+30FC 1
 62
   179
420
  2234388
370
     9
100
AcDbVertex
100
AcDb2dVertex
 10
95.25070553174302
 20
-120.3637208032425
 30
0.0
  0
SEQEND
  5
9F
330
9C
100
AcDbEntity
  8
_U+30EC_U+30A4_U+30E4_U+30FC 1
 62
   179
420
  2234388
370
     9
  0
SPLINE
  5
A0
330
1F
100
AcDbEntity
  8
_U+30EC_U+30A4_U+30E4_U+30FC 1
 62
   179
420
  2234388
370
     9
100
AcDbSpline
210
0.0
220
0.0
230
1.0
 70
    11
 71
     3
 72
    17
 73
    13
 74
     0
 42
0.0000000001
 43
0.0000000001
 12
1.0
 22
0.0
 32
0.0
 13
1.0
 23
0.0
 33
0.0
 40
0.0
 40
0.0
 40
0.0
 40
0.0
 40
1.0
 40
1.0
 40
1.0
 40
2.0
 40
2.0
 40
2.0
 40
3.0
 40
3.0
 40
3.0
 40
4.0
 40
4.0
 40
4.0
 40
4.0
 10
95.80050727814766
 20
-121.7934233028851
 30
0.0
 10
95.80050727814766
 20
-121.7651658028921
 30
0.0
 10
95.77846108716636
 20
-121.7431171917865
 30
0.0
 10
95.75090672385753
 20
-121.7431171917865
 30
0.0
 10
95.72264922457843
 20
-121.7431171917865
 30
0.0
 10
95.70060061402982
 20
-121.7651658028921
 30
0.0
 10
95.70060061402982
 20
-121.7934233028851
 30
0.0
 10
95.70060061402982
 20
-121.8209752473226
 30
0.0
 10
95.72264922457843
 20
-121.8430238584282
 30
0.0
 10
95.75090672385753
 20
-121.8430238584282
 30
0.0
 10
95.77846108716636
 20
-121.8430238584282
 30
0.0
 10
95.80050727814766
 20
-121.8209752473226
 30
0.0
 10
95.80050727814766
 20
-121.7934233028851
 30
0.0
  0
POLYLINE
  5
A1
330
1F
100
AcDbEntity
  8
_U+30EC_U+30A4_U+30E4_U+30FC 1
 62
   179
420
  2234388
370
     9
100
AcDb2dPolyline
 66
     1
 10
0.0
 20
0.0
 30
0.0
  0
VERTEX
  5
A2
330
A1
100
AcDbEntity
  8
_U+30EC_U+30A4_U+30E4_U+30FC 1
 62
   179
420
  2234388
370
     9
100
AcDbVertex
100
AcDb2dVertex
 10
96.34830059750563
 20
-121.7934233028851
 30
0.0
  0
VERTEX
  5
A3
330
A1
100
AcDbEntity
  8
_U+30EC_U+30A4_U+30E4_U+30FC 1
 62
   179
420
  2234388
370
     9
100
AcDbVertex
100
AcDb2dVertex
 10
95.25070553174302
 20
-121.7934233028851
 30
0.0
  0
SEQEND
  5
A4
330
A1
100
AcDbEntity
  8
_U+30EC_U+30A4_U+30E4_U+30FC 1
 62
   179
420
  2234388
370
     9
  0
SPLINE
  5
A5
330
1F
100
AcDbEntity
  8
_U+30EC_U+30A4_U+30E4_U+30FC 1
 62
   179
420
  2234388
370
     9
100
AcDbSpline
210
0.0
220
0.0
230
1.0
 70
    11
 71
     3
 72
    17
 73
    13
 74
     0
 42
0.0000000001
 43
0.0000000001
 12
1.0
 22
0.0
 32
0.0
 13
1.0
 23
0.0
 33
0.0
 40
0.0
 40
0.0
 40
0.0
 40
0.0
 40
1.0
 40
1.0
 40
1.0
 40
2.0
 40
2.0
 40
2.0
 40
3.0
 40
3.0
 40
3.0
 40
4.0
 40
4.0
 40
4.0
 40
4.0
 10
95.80050727814766
 20
-129.2992644121194
 30
0.0
 10
95.80050727814766
 20
-129.2710069121267
 30
0.0
 10
95.77846108716636
 20
-129.2489583010211
 30
0.0
 10
95.75090672385753
 20
-129.2489583010211
 30
0.0
 10
95.72264922457843
 20
-129.2489583010211
 30
0.0
 10
95.70060061402982
 20
-129.2710069121267
 30
0.0
 10
95.70060061402982
 20
-129.2992644121194
 30
0.0
 10
95.70060061402982
 20
-129.3268163565571
 30
0.0
 10
95.72264922457843
 20
-129.3488649676627
 30
0.0
 10
95.75090672385753
 20
-129.3488649676627
 30
0.0
 10
95.77846108716636
 20
-129.3488649676627
 30
0.0
 10
95.80050727814766
 20
-129.3268163565571
 30
0.0
 10
95.80050727814766
 20
-129.2992644121194
 30
0.0
  0
POLYLINE
  5
A6
330
1F
100
AcDbEntity
  8
_U+30EC_U+30A4_U+30E4_U+30FC 1
 62
   179
420
  2234388
370
     9
100
AcDb2dPolyline
 66
     1
 10
0.0
 20
0.0
 30
0.0
  0
VERTEX
  5
A7
330
A6
100
AcDbEntity
  8
_U+30EC_U+30A4_U+30E4_U+30FC 1
 62
   179
420
  2234388
370
     9
100
AcDbVertex
100
AcDb2dVertex
 10
96.34830059750563
 20
-129.2992644121194
 30
0.0
  0
VERTEX
  5
A8
330
A6
100
AcDbEntity
  8
_U+30EC_U+30A4_U+30E4_U+30FC 1
 62
   179
420
  2234388
370
     9
100
AcDbVertex
100
AcDb2dVertex
 10
95.25070553174302
 20
-129.2992644121194
 30
0.0
  0
SEQEND
  5
A9
330
A6
100
AcDbEntity
  8
_U+30EC_U+30A4_U+30E4_U+30FC 1
 62
   179
420
  2234388
370
     9
  0
INSERT
  5
AB
330
1F
100
AcDbEntity
  8
_U+30EC_U+30A4_U+30E4_U+30FC 1
100
AcDbBlockReference
  2
block 4
 10
0.0
 20
0.0
 30
0.0
  0
INSERT
  5
B3
330
1F
100
AcDbEntity
  8
_U+30EC_U+30A4_U+30E4_U+30FC 1
100
AcDbBlockReference
  2
block 5
 10
0.0
 20
0.0
 30
0.0
  0
INSERT
  5
B9
330
1F
100
AcDbEntity
  8
_U+30EC_U+30A4_U+30E4_U+30FC 1
100
AcDbBlockReference
  2
block 6
 10
0.0
 20
0.0
 30
0.0
  0
SPLINE
  5
C1
330
1F
100
AcDbEntity
  8
_U+30EC_U+30A4_U+30E4_U+30FC 1
 62
   179
420
  2234388
370
     9
100
AcDbSpline
210
0.0
220
0.0
230
1.0
 70
    11
 71
     3
 72
    17
 73
    13
 74
     0
 42
0.0000000001
 43
0.0000000001
 12
1.0
 22
0.0
 32
0.0
 13
1.0
 23
0.0
 33
0.0
 40
0.0
 40
0.0
 40
0.0
 40
0.0
 40
1.0
 40
1.0
 40
1.0
 40
2.0
 40
2.0
 40
2.0
 40
3.0
 40
3.0
 40
3.0
 40
4.0
 40
4.0
 40
4.0
 40
4.0
 10
95.76815755675075
 20
-138.7873991319697
 30
0.0
 10
95.76815755675075
 20
-138.7970299653006
 30
0.0
 10
95.76057283472203
 20
-138.8046146875212
 30
0.0
 10
95.75090672385753
 20
-138.8046146875212
 30
0.0
 10
95.74057033523233
 20
-138.8046146875212
 30
0.0
 10
95.73298561320362
 20
-138.7970299653006
 30
0.0
 10
95.73298561320362
 20
-138.7873991319697
 30
0.0
 10
95.73298561320362
 20
-138.7777330208614
 30
0.0
 10
95.74057033523233
 20
-138.7694780208634
 30
0.0
 10
95.75090672385753
 20
-138.7694780208634
 30
0.0
 10
95.76057283472203
 20
-138.7694780208634
 30
0.0
 10
95.76815755675075
 20
-138.7777330208614
 30
0.0
 10
95.76815755675075
 20
-138.7873991319697
 30
0.0
  0
SPLINE
  5
C2
330
1F
100
AcDbEntity
  8
_U+30EC_U+30A4_U+30E4_U+30FC 1
 62
   179
420
  2234388
370
     9
100
AcDbSpline
210
0.0
220
0.0
230
1.0
 70
    11
 71
     3
 72
    17
 73
    13
 74
     0
 42
0.0000000001
 43
0.0000000001
 12
1.0
 22
0.0
 32
0.0
 13
1.0
 23
0.0
 33
0.0
 40
0.0
 40
0.0
 40
0.0
 40
0.0
 40
1.0
 40
1.0
 40
1.0
 40
2.0
 40
2.0
 40
2.0
 40
3.0
 40
3.0
 40
3.0
 40
4.0
 40
4.0
 40
4.0
 40
4.0
 10
86.11481942291559
 20
-132.8566755223414
 30
0.0
 10
86.11481942291559
 20
-132.8290883001261
 30
0.0
 10
86.09276863692382
 20
-132.8070396890205
 30
0.0
 10
86.06521669318228
 20
-132.8070396890205
 30
0.0
 10
86.03762947166388
 20
-132.8070396890205
 30
0.0
 10
86.01491058335459
 20
-132.8290883001261
 30
0.0
 10
86.01491058335459
 20
-132.8566755223414
 30
0.0
 10
86.01491058335459
 20
-132.8842274667792
 30
0.0
 10
86.03762947166388
 20
-132.9069463556621
 30
0.0
 10
86.06521669318228
 20
-132.9069463556621
 30
0.0
 10
86.09276863692382
 20
-132.9069463556621
 30
0.0
 10
86.11481942291559
 20
-132.8842274667792
 30
0.0
 10
86.11481942291559
 20
-132.8566755223414
 30
0.0
  0
SPLINE
  5
C3
330
1F
100
AcDbEntity
  8
_U+30EC_U+30A4_U+30E4_U+30FC 1
 62
   179
420
  2234388
370
     9
100
AcDbSpline
210
0.0
220
0.0
230
1.0
 70
    11
 71
     3
 72
    17
 73
    13
 74
     0
 42
0.0000000001
 43
0.0000000001
 12
1.0
 22
0.0
 32
0.0
 13
1.0
 23
0.0
 33
0.0
 40
0.0
 40
0.0
 40
0.0
 40
0.0
 40
1.0
 40
1.0
 40
1.0
 40
2.0
 40
2.0
 40
2.0
 40
3.0
 40
3.0
 40
3.0
 40
4.0
 40
4.0
 40
4.0
 40
4.0
 10
86.11481942291559
 20
-138.8659274652838
 30
0.0
 10
86.11481942291559
 20
-138.838375520846
 30
0.0
 10
86.09276863692382
 20
-138.8163269097404
 30
0.0
 10
86.06521669318228
 20
-138.8163269097404
 30
0.0
 10
86.03762947166388
 20
-138.8163269097404
 30
0.0
 10
86.01491058335459
 20
-138.838375520846
 30
0.0
 10
86.01491058335459
 20
-138.8659274652838
 30
0.0
 10
86.01491058335459
 20
-138.8935146874991
 30
0.0
 10
86.03762947166388
 20
-138.916233576382
 30
0.0
 10
86.06521669318228
 20
-138.916233576382
 30
0.0
 10
86.09276863692382
 20
-138.916233576382
 30
0.0
 10
86.11481942291559
 20
-138.8935146874991
 30
0.0
 10
86.11481942291559
 20
-138.8659274652838
 30
0.0
  0
POLYLINE
  5
C4
330
1F
100
AcDbEntity
  8
_U+30EC_U+30A4_U+30E4_U+30FC 1
 62
   179
420
  2234388
370
     9
100
AcDb2dPolyline
 66
     1
 10
0.0
 20
0.0
 30
0.0
  0
VERTEX
  5
C5
330
C4
100
AcDbEntity
  8
_U+30EC_U+30A4_U+30E4_U+30FC 1
 62
   179
420
  2234388
370
     9
100
AcDbVertex
100
AcDb2dVertex
 10
86.06521669318228
 20
-132.8566755223414
 30
0.0
  0
VERTEX
  5
C6
330
C4
100
AcDbEntity
  8
_U+30EC_U+30A4_U+30E4_U+30FC 1
 62
   179
420
  2234388
370
     9
100
AcDbVertex
100
AcDb2dVertex
 10
86.06521669318228
 20
-138.8662802430609
 30
0.0
  0
SEQEND
  5
C7
330
C4
100
AcDbEntity
  8
_U+30EC_U+30A4_U+30E4_U+30FC 1
 62
   179
420
  2234388
370
     9
  0
POLYLINE
  5
C8
330
1F
100
AcDbEntity
  8
_U+30EC_U+30A4_U+30E4_U+30FC 1
 62
   179
420
  2234388
370
     9
100
AcDb2dPolyline
 66
     1
 10
0.0
 20
0.0
 30
0.0
  0
VERTEX
  5
C9
330
C8
100
AcDbEntity
  8
_U+30EC_U+30A4_U+30E4_U+30FC 1
 62
   179
420
  2234388
370
     9
100
AcDbVertex
100
AcDb2dVertex
 10
83.92509035889256
 20
-132.8566755223414
 30
0.0
  0
VERTEX
  5
CA
330
C8
100
AcDbEntity
  8
_U+30EC_U+30A4_U+30E4_U+30FC 1
 62
   179
420
  2234388
370
     9
100
AcDbVertex
100
AcDb2dVertex
 10
86.56542029153213
 20
-132.8566755223414
 30
0.0
  0
SEQEND
  5
CB
330
C8
100
AcDbEntity
  8
_U+30EC_U+30A4_U+30E4_U+30FC 1
 62
   179
420
  2234388
370
     9
  0
POLYLINE
  5
CC
330
1F
100
AcDbEntity
  8
_U+30EC_U+30A4_U+30E4_U+30FC 1
 62
   179
420
  2234388
370
     9
100
AcDb2dPolyline
 66
     1
 10
0.0
 20
0.0
 30
0.0
  0
VERTEX
  5
CD
330
CC
100
AcDbEntity
  8
_U+30EC_U+30A4_U+30E4_U+30FC 1
 62
   179
420
  2234388
370
     9
100
AcDbVertex
100
AcDb2dVertex
 10
82.1753499794562
 20
-138.8659274652838
 30
0.0
  0
VERTEX
  5
CE
330
CC
100
AcDbEntity
  8
_U+30EC_U+30A4_U+30E4_U+30FC 1
 62
   179
420
  2234388
370
     9
100
AcDbVertex
100
AcDb2dVertex
 10
86.56542029153213
 20
-138.8659274652838
 30
0.0
  0
SEQEND
  5
CF
330
CC
100
AcDbEntity
  8
_U+30EC_U+30A4_U+30E4_U+30FC 1
 62
   179
420
  2234388
370
     9
  0
INSERT
  5
D1
330
1F
100
AcDbEntity
  8
_U+30EC_U+30A4_U+30E4_U+30FC 1
100
AcDbBlockReference
  2
block 7
 10
0.0
 20
0.0
 30
0.0
  0
SPLINE
  5
D8
330
1F
100
AcDbEntity
  8
_U+30EC_U+30A4_U+30E4_U+30FC 1
 62
   179
420
  2234388
370
     9
100
AcDbSpline
210
0.0
220
0.0
230
1.0
 70
    11
 71
     3
 72
    17
 73
    13
 74
     0
 42
0.0000000001
 43
0.0000000001
 12
1.0
 22
0.0
 32
0.0
 13
1.0
 23
0.0
 33
0.0
 40
0.0
 40
0.0
 40
0.0
 40
0.0
 40
1.0
 40
1.0
 40
1.0
 40
2.0
 40
2.0
 40
2.0
 40
3.0
 40
3.0
 40
3.0
 40
4.0
 40
4.0
 40
4.0
 40
4.0
 10
86.08243224829863
 20
-138.8659274652838
 30
0.0
 10
86.08243224829863
 20
-138.8755935763921
 30
0.0
 10
86.07484752626992
 20
-138.8838485763901
 30
0.0
 10
86.06521669318228
 20
-138.8838485763901
 30
0.0
 10
86.05555275626386
 20
-138.8838485763901
 30
0.0
 10
86.04729558252838
 20
-138.8755935763921
 30
0.0
 10
86.04729558252838
 20
-138.8659274652838
 30
0.0
 10
86.04729558252838
 20
-138.8562966319523
 30
0.0
 10
86.05555275626386
 20
-138.8487119097323
 30
0.0
 10
86.06521669318228
 20
-138.8487119097323
 30
0.0
 10
86.07484752626992
 20
-138.8487119097323
 30
0.0
 10
86.08243224829863
 20
-138.8562966319523
 30
0.0
 10
86.08243224829863
 20
-138.8659274652838
 30
0.0
  0
SPLINE
  5
D9
330
1F
100
AcDbEntity
  8
_U+30EC_U+30A4_U+30E4_U+30FC 1
 62
   179
420
  2234388
370
     9
100
AcDbSpline
210
0.0
220
0.0
230
1.0
 70
    11
 71
     3
 72
    17
 73
    13
 74
     0
 42
0.0000000001
 43
0.0000000001
 12
1.0
 22
0.0
 32
0.0
 13
1.0
 23
0.0
 33
0.0
 40
0.0
 40
0.0
 40
0.0
 40
0.0
 40
1.0
 40
1.0
 40
1.0
 40
2.0
 40
2.0
 40
2.0
 40
3.0
 40
3.0
 40
3.0
 40
4.0
 40
4.0
 40
4.0
 40
4.0
 10
80.82004627144218
 20
-115.0751585823423
 30
0.0
 10
80.82004627144218
 20
-115.047571360127
 30
0.0
 10
80.79764488312479
 20
-115.0248524712437
 30
0.0
 10
80.77009293938326
 20
-115.0248524712437
 30
0.0
 10
80.74254099564172
 20
-115.0248524712437
 30
0.0
 10
80.7197888687089
 20
-115.047571360127
 30
0.0
 10
80.7197888687089
 20
-115.0751585823423
 30
0.0
 10
80.7197888687089
 20
-115.10271052678
 30
0.0
 10
80.74254099564172
 20
-115.1247591378856
 30
0.0
 10
80.77009293938326
 20
-115.1247591378856
 30
0.0
 10
80.79764488312479
 20
-115.1247591378856
 30
0.0
 10
80.82004627144218
 20
-115.10271052678
 30
0.0
 10
80.82004627144218
 20
-115.0751585823423
 30
0.0
  0
SPLINE
  5
DA
330
1F
100
AcDbEntity
  8
_U+30EC_U+30A4_U+30E4_U+30FC 1
 62
   179
420
  2234388
370
     9
100
AcDbSpline
210
0.0
220
0.0
230
1.0
 70
    11
 71
     3
 72
    17
 73
    13
 74
     0
 42
0.0000000001
 43
0.0000000001
 12
1.0
 22
0.0
 32
0.0
 13
1.0
 23
0.0
 33
0.0
 40
0.0
 40
0.0
 40
0.0
 40
0.0
 40
1.0
 40
1.0
 40
1.0
 40
2.0
 40
2.0
 40
2.0
 40
3.0
 40
3.0
 40
3.0
 40
4.0
 40
4.0
 40
4.0
 40
4.0
 10
75.15182474938389
 20
-115.0751585823423
 30
0.0
 10
75.15182474938389
 20
-115.047571360127
 30
0.0
 10
75.1291058610746
 20
-115.0248524712437
 30
0.0
 10
75.10151863955619
 20
-115.0248524712437
 30
0.0
 10
75.07396669581466
 20
-115.0248524712437
 30
0.0
 10
75.05191808526605
 20
-115.047571360127
 30
0.0
 10
75.05191808526605
 20
-115.0751585823423
 30
0.0
 10
75.05191808526605
 20
-115.10271052678
 30
0.0
 10
75.07396669581466
 20
-115.1247591378856
 30
0.0
 10
75.10151863955619
 20
-115.1247591378856
 30
0.0
 10
75.1291058610746
 20
-115.1247591378856
 30
0.0
 10
75.15182474938389
 20
-115.10271052678
 30
0.0
 10
75.15182474938389
 20
-115.0751585823423
 30
0.0
  0
POLYLINE
  5
DB
330
1F
100
AcDbEntity
  8
_U+30EC_U+30A4_U+30E4_U+30FC 1
 62
   179
420
  2234388
370
     9
100
AcDb2dPolyline
 66
     1
 10
0.0
 20
0.0
 30
0.0
  0
VERTEX
  5
DC
330
DB
100
AcDbEntity
  8
_U+30EC_U+30A4_U+30E4_U+30FC 1
 62
   179
420
  2234388
370
     9
100
AcDbVertex
100
AcDb2dVertex
 10
75.10151863955619
 20
-115.0751585823423
 30
0.0
  0
VERTEX
  5
DD
330
DB
100
AcDbEntity
  8
_U+30EC_U+30A4_U+30E4_U+30FC 1
 62
   179
420
  2234388
370
     9
100
AcDbVertex
100
AcDb2dVertex
 10
80.77009293938326
 20
-115.0751585823423
 30
0.0
  0
SEQEND
  5
DE
330
DB
100
AcDbEntity
  8
_U+30EC_U+30A4_U+30E4_U+30FC 1
 62
   179
420
  2234388
370
     9
  0
POLYLINE
  5
DF
330
1F
100
AcDbEntity
  8
_U+30EC_U+30A4_U+30E4_U+30FC 1
 62
   179
420
  2234388
370
     9
100
AcDb2dPolyline
 66
     1
 10
0.0
 20
0.0
 30
0.0
  0
VERTEX
  5
E0
330
DF
100
AcDbEntity
  8
_U+30EC_U+30A4_U+30E4_U+30FC 1
 62
   179
420
  2234388
370
     9
100
AcDbVertex
100
AcDb2dVertex
 10
75.10151863955619
 20
-117.4301971928645
 30
0.0
  0
VERTEX
  5
E1
330
DF
100
AcDbEntity
  8
_U+30EC_U+30A4_U+30E4_U+30FC 1
 62
   179
420
  2234388
370
     9
100
AcDbVertex
100
AcDb2dVertex
 10
75.10151863955619
 20
-114.5749196935786
 30
0.0
  0
SEQEND
  5
E2
330
DF
100
AcDbEntity
  8
_U+30EC_U+30A4_U+30E4_U+30FC 1
 62
   179
420
  2234388
370
     9
  0
POLYLINE
  5
E3
330
1F
100
AcDbEntity
  8
_U+30EC_U+30A4_U+30E4_U+30FC 1
 62
   179
420
  2234388
370
     9
100
AcDb2dPolyline
 66
     1
 10
0.0
 20
0.0
 30
0.0
  0
VERTEX
  5
E4
330
E3
100
AcDbEntity
  8
_U+30EC_U+30A4_U+30E4_U+30FC 1
 62
   179
420
  2234388
370
     9
100
AcDbVertex
100
AcDb2dVertex
 10
80.77009293938326
 20
-117.4301971928645
 30
0.0
  0
VERTEX
  5
E5
330
E3
100
AcDbEntity
  8
_U+30EC_U+30A4_U+30E4_U+30FC 1
 62
   179
420
  2234388
370
     9
100
AcDbVertex
100
AcDb2dVertex
 10
80.77009293938326
 20
-114.5749196935786
 30
0.0
  0
SEQEND
  5
E6
330
E3
100
AcDbEntity
  8
_U+30EC_U+30A4_U+30E4_U+30FC 1
 62
   179
420
  2234388
370
     9
  0
INSERT
  5
E8
330
1F
100
AcDbEntity
  8
_U+30EC_U+30A4_U+30E4_U+30FC 1
100
AcDbBlockReference
  2
block 8
 10
0.0
 20
0.0
 30
0.0
  0
INSERT
  5
FA
330
1F
100
AcDbEntity
  8
_U+30EC_U+30A4_U+30E4_U+30FC 1
100
AcDbBlockReference
  2
block 9
 10
0.0
 20
0.0
 30
0.0
  0
SPLINE
  5
10E
330
1F
100
AcDbEntity
  8
_U+30EC_U+30A4_U+30E4_U+30FC 1
 62
   179
420
  2234388
370
     9
100
AcDbSpline
210
0.0
220
0.0
230
1.0
 70
    11
 71
     3
 72
    17
 73
    13
 74
     0
 42
0.0000000001
 43
0.0000000001
 12
1.0
 22
0.0
 32
0.0
 13
1.0
 23
0.0
 33
0.0
 40
0.0
 40
0.0
 40
0.0
 40
0.0
 40
1.0
 40
1.0
 40
1.0
 40
2.0
 40
2.0
 40
2.0
 40
3.0
 40
3.0
 40
3.0
 40
4.0
 40
4.0
 40
4.0
 40
4.0
 10
80.78766127226838
 20
-115.0751585823423
 30
0.0
 10
80.78766127226838
 20
-115.0847894156731
 30
0.0
 10
80.77972377247089
 20
-115.0923741378937
 30
0.0
 10
80.77009293938326
 20
-115.0923741378937
 30
0.0
 10
80.76042682851875
 20
-115.0923741378937
 30
0.0
 10
80.75217182872935
 20
-115.0847894156731
 30
0.0
 10
80.75217182872935
 20
-115.0751585823423
 30
0.0
 10
80.75217182872935
 20
-115.0654924712336
 30
0.0
 10
80.76042682851875
 20
-115.0572374712356
 30
0.0
 10
80.77009293938326
 20
-115.0572374712356
 30
0.0
 10
80.77972377247089
 20
-115.0572374712356
 30
0.0
 10
80.78766127226838
 20
-115.0654924712336
 30
0.0
 10
80.78766127226838
 20
-115.0751585823423
 30
0.0
  0
SPLINE
  5
10F
330
1F
100
AcDbEntity
  8
_U+30EC_U+30A4_U+30E4_U+30FC 1
 62
   179
420
  2234388
370
     9
100
AcDbSpline
210
0.0
220
0.0
230
1.0
 70
    11
 71
     3
 72
    17
 73
    13
 74
     0
 42
0.0000000001
 43
0.0000000001
 12
1.0
 22
0.0
 32
0.0
 13
1.0
 23
0.0
 33
0.0
 40
0.0
 40
0.0
 40
0.0
 40
0.0
 40
1.0
 40
1.0
 40
1.0
 40
2.0
 40
2.0
 40
2.0
 40
3.0
 40
3.0
 40
3.0
 40
4.0
 40
4.0
 40
4.0
 40
4.0
 10
102.3014254456288
 20
-115.0751585823423
 30
0.0
 10
102.3014254456288
 20
-115.047571360127
 30
0.0
 10
102.2786712795426
 20
-115.0248524712437
 30
0.0
 10
102.2511193358011
 20
-115.0248524712437
 30
0.0
 10
102.2235673920595
 20
-115.0248524712437
 30
0.0
 10
102.2008132259734
 20
-115.047571360127
 30
0.0
 10
102.2008132259734
 20
-115.0751585823423
 30
0.0
 10
102.2008132259734
 20
-115.10271052678
 30
0.0
 10
102.2235673920595
 20
-115.1247591378856
 30
0.0
 10
102.2511193358011
 20
-115.1247591378856
 30
0.0
 10
102.2786712795426
 20
-115.1247591378856
 30
0.0
 10
102.3014254456288
 20
-115.10271052678
 30
0.0
 10
102.3014254456288
 20
-115.0751585823423
 30
0.0
  0
SPLINE
  5
110
330
1F
100
AcDbEntity
  8
_U+30EC_U+30A4_U+30E4_U+30FC 1
 62
   179
420
  2234388
370
     9
100
AcDbSpline
210
0.0
220
0.0
230
1.0
 70
    11
 71
     3
 72
    17
 73
    13
 74
     0
 42
0.0000000001
 43
0.0000000001
 12
1.0
 22
0.0
 32
0.0
 13
1.0
 23
0.0
 33
0.0
 40
0.0
 40
0.0
 40
0.0
 40
0.0
 40
1.0
 40
1.0
 40
1.0
 40
2.0
 40
2.0
 40
2.0
 40
3.0
 40
3.0
 40
3.0
 40
4.0
 40
4.0
 40
4.0
 40
4.0
 10
98.9204033096636
 20
-115.0751585823423
 30
0.0
 10
98.9204033096636
 20
-115.047571360127
 30
0.0
 10
98.89764914357744
 20
-115.0248524712437
 30
0.0
 10
98.8700971998359
 20
-115.0248524712437
 30
0.0
 10
98.84254525609437
 20
-115.0248524712437
 30
0.0
 10
98.82049664554576
 20
-115.047571360127
 30
0.0
 10
98.82049664554576
 20
-115.0751585823423
 30
0.0
 10
98.82049664554576
 20
-115.10271052678
 30
0.0
 10
98.84254525609437
 20
-115.1247591378856
 30
0.0
 10
98.8700971998359
 20
-115.1247591378856
 30
0.0
 10
98.89764914357744
 20
-115.1247591378856
 30
0.0
 10
98.9204033096636
 20
-115.10271052678
 30
0.0
 10
98.9204033096636
 20
-115.0751585823423
 30
0.0
  0
POLYLINE
  5
111
330
1F
100
AcDbEntity
  8
_U+30EC_U+30A4_U+30E4_U+30FC 1
 62
   179
420
  2234388
370
     9
100
AcDb2dPolyline
 66
     1
 10
0.0
 20
0.0
 30
0.0
  0
VERTEX
  5
112
330
111
100
AcDbEntity
  8
_U+30EC_U+30A4_U+30E4_U+30FC 1
 62
   179
420
  2234388
370
     9
100
AcDbVertex
100
AcDb2dVertex
 10
98.8700971998359
 20
-115.0751585823423
 30
0.0
  0
VERTEX
  5
113
330
111
100
AcDbEntity
  8
_U+30EC_U+30A4_U+30E4_U+30FC 1
 62
   179
420
  2234388
370
     9
100
AcDbVertex
100
AcDb2dVertex
 10
102.2511193358011
 20
-115.0751585823423
 30
0.0
  0
SEQEND
  5
114
330
111
100
AcDbEntity
  8
_U+30EC_U+30A4_U+30E4_U+30FC 1
 62
   179
420
  2234388
370
     9
  0
POLYLINE
  5
115
330
1F
100
AcDbEntity
  8
_U+30EC_U+30A4_U+30E4_U+30FC 1
 62
   179
420
  2234388
370
     9
100
AcDb2dPolyline
 66
     1
 10
0.0
 20
0.0
 30
0.0
  0
VERTEX
  5
116
330
115
100
AcDbEntity
  8
_U+30EC_U+30A4_U+30E4_U+30FC 1
 62
   179
420
  2234388
370
     9
100
AcDbVertex
100
AcDb2dVertex
 10
98.8700971998359
 20
-117.4301971928645
 30
0.0
  0
VERTEX
  5
117
330
115
100
AcDbEntity
  8
_U+30EC_U+30A4_U+30E4_U+30FC 1
 62
   179
420
  2234388
370
     9
100
AcDbVertex
100
AcDb2dVertex
 10
98.8700971998359
 20
-114.5749196935786
 30
0.0
  0
SEQEND
  5
118
330
115
100
AcDbEntity
  8
_U+30EC_U+30A4_U+30E4_U+30FC 1
 62
   179
420
  2234388
370
     9
  0
POLYLINE
  5
119
330
1F
100
AcDbEntity
  8
_U+30EC_U+30A4_U+30E4_U+30FC 1
 62
   179
420
  2234388
370
     9
100
AcDb2dPolyline
 66
     1
 10
0.0
 20
0.0
 30
0.0
  0
VERTEX
  5
11A
330
119
100
AcDbEntity
  8
_U+30EC_U+30A4_U+30E4_U+30FC 1
 62
   179
420
  2234388
370
     9
100
AcDbVertex
100
AcDb2dVertex
 10
102.2511193358011
 20
-117.4301971928645
 30
0.0
  0
VERTEX
  5
11B
330
119
100
AcDbEntity
  8
_U+30EC_U+30A4_U+30E4_U+30FC 1
 62
   179
420
  2234388
370
     9
100
AcDbVertex
100
AcDb2dVertex
 10
102.2511193358011
 20
-114.5749196935786
 30
0.0
  0
SEQEND
  5
11C
330
119
100
AcDbEntity
  8
_U+30EC_U+30A4_U+30E4_U+30FC 1
 62
   179
420
  2234388
370
     9
  0
INSERT
  5
11E
330
1F
100
AcDbEntity
  8
_U+30EC_U+30A4_U+30E4_U+30FC 1
100
AcDbBlockReference
  2
block 10
 10
0.0
 20
0.0
 30
0.0
  0
SPLINE
  5
123
330
1F
100
AcDbEntity
  8
_U+30EC_U+30A4_U+30E4_U+30FC 1
 62
   179
420
  2234388
370
     9
100
AcDbSpline
210
0.0
220
0.0
230
1.0
 70
    11
 71
     3
 72
    17
 73
    13
 74
     0
 42
0.0000000001
 43
0.0000000001
 12
1.0
 22
0.0
 32
0.0
 13
1.0
 23
0.0
 33
0.0
 40
0.0
 40
0.0
 40
0.0
 40
0.0
 40
1.0
 40
1.0
 40
1.0
 40
2.0
 40
2.0
 40
2.0
 40
3.0
 40
3.0
 40
3.0
 40
4.0
 40
4.0
 40
4.0
 40
4.0
 10
102.269040446455
 20
-115.0751585823423
 30
0.0
 10
102.269040446455
 20
-115.0847894156731
 30
0.0
 10
102.2607527522125
 20
-115.0923741378937
 30
0.0
 10
102.2511193358011
 20
-115.0923741378937
 30
0.0
 10
102.2414885027134
 20
-115.0923741378937
 30
0.0
 10
102.2331982251472
 20
-115.0847894156731
 30
0.0
 10
102.2331982251472
 20
-115.0751585823423
 30
0.0
 10
102.2331982251472
 20
-115.0654924712336
 30
0.0
 10
102.2414885027134
 20
-115.0572374712356
 30
0.0
 10
102.2511193358011
 20
-115.0572374712356
 30
0.0
 10
102.2607527522125
 20
-115.0572374712356
 30
0.0
 10
102.269040446455
 20
-115.0654924712336
 30
0.0
 10
102.269040446455
 20
-115.0751585823423
 30
0.0
  0
SPLINE
  5
124
330
1F
100
AcDbEntity
  8
_U+30EC_U+30A4_U+30E4_U+30FC 1
 62
   179
420
  2234388
370
     9
100
AcDbSpline
210
0.0
220
0.0
230
1.0
 70
    11
 71
     3
 72
    17
 73
    13
 74
     0
 42
0.0000000001
 43
0.0000000001
 12
1.0
 22
0.0
 32
0.0
 13
1.0
 23
0.0
 33
0.0
 40
0.0
 40
0.0
 40
0.0
 40
0.0
 40
1.0
 40
1.0
 40
1.0
 40
2.0
 40
2.0
 40
2.0
 40
3.0
 40
3.0
 40
3.0
 40
4.0
 40
4.0
 40
4.0
 40
4.0
 10
101.7894743475786
 20
-140.9495388536513
 30
0.0
 10
101.7894743475786
 20
-140.9219869092142
 30
0.0
 10
101.76742573703
 20
-140.8999382981086
 30
0.0
 10
101.7398737932885
 20
-140.8999382981086
 30
0.0
 10
101.7123218495469
 20
-140.8999382981086
 30
0.0
 10
101.6895676834608
 20
-140.9219869092142
 30
0.0
 10
101.6895676834608
 20
-140.9495388536513
 30
0.0
 10
101.6895676834608
 20
-140.9770907980891
 30
0.0
 10
101.7123218495469
 20
-140.9998449647502
 30
0.0
 10
101.7398737932885
 20
-140.9998449647502
 30
0.0
 10
101.76742573703
 20
-140.9998449647502
 30
0.0
 10
101.7894743475786
 20
-140.9770907980891
 30
0.0
 10
101.7894743475786
 20
-140.9495388536513
 30
0.0
  0
SPLINE
  5
125
330
1F
100
AcDbEntity
  8
_U+30EC_U+30A4_U+30E4_U+30FC 1
 62
   179
420
  2234388
370
     9
100
AcDbSpline
210
0.0
220
0.0
230
1.0
 70
    11
 71
     3
 72
    17
 73
    13
 74
     0
 42
0.0000000001
 43
0.0000000001
 12
1.0
 22
0.0
 32
0.0
 13
1.0
 23
0.0
 33
0.0
 40
0.0
 40
0.0
 40
0.0
 40
0.0
 40
1.0
 40
1.0
 40
1.0
 40
2.0
 40
2.0
 40
2.0
 40
3.0
 40
3.0
 40
3.0
 40
4.0
 40
4.0
 40
4.0
 40
4.0
 10
99.78992995414679
 20
-140.9495388536513
 30
0.0
 10
99.78992995414679
 20
-140.9219869092142
 30
0.0
 10
99.76721106583751
 20
-140.8999382981086
 30
0.0
 10
99.73965912209597
 20
-140.8999382981086
 30
0.0
 10
99.71207190057756
 20
-140.8999382981086
 30
0.0
 10
99.69002329002896
 20
-140.9219869092142
 30
0.0
 10
99.69002329002896
 20
-140.9495388536513
 30
0.0
 10
99.69002329002896
 20
-140.9770907980891
 30
0.0
 10
99.71207190057756
 20
-140.9998449647502
 30
0.0
 10
99.73965912209597
 20
-140.9998449647502
 30
0.0
 10
99.76721106583751
 20
-140.9998449647502
 30
0.0
 10
99.78992995414679
 20
-140.9770907980891
 30
0.0
 10
99.78992995414679
 20
-140.9495388536513
 30
0.0
  0
POLYLINE
  5
126
330
1F
100
AcDbEntity
  8
_U+30EC_U+30A4_U+30E4_U+30FC 1
 62
   179
420
  2234388
370
     9
100
AcDb2dPolyline
 66
     1
 10
0.0
 20
0.0
 30
0.0
  0
VERTEX
  5
127
330
126
100
AcDbEntity
  8
_U+30EC_U+30A4_U+30E4_U+30FC 1
 62
   179
420
  2234388
370
     9
100
AcDbVertex
100
AcDb2dVertex
 10
99.73965912209597
 20
-140.9495388536513
 30
0.0
  0
VERTEX
  5
128
330
126
100
AcDbEntity
  8
_U+30EC_U+30A4_U+30E4_U+30FC 1
 62
   179
420
  2234388
370
     9
100
AcDbVertex
100
AcDb2dVertex
 10
101.7398737932885
 20
-140.9495388536513
 30
0.0
  0
SEQEND
  5
129
330
126
100
AcDbEntity
  8
_U+30EC_U+30A4_U+30E4_U+30FC 1
 62
   179
420
  2234388
370
     9
  0
POLYLINE
  5
12A
330
1F
100
AcDbEntity
  8
_U+30EC_U+30A4_U+30E4_U+30FC 1
 62
   179
420
  2234388
370
     9
100
AcDb2dPolyline
 66
     1
 10
0.0
 20
0.0
 30
0.0
  0
VERTEX
  5
12B
330
12A
100
AcDbEntity
  8
_U+30EC_U+30A4_U+30E4_U+30FC 1
 62
   179
420
  2234388
370
     9
100
AcDbVertex
100
AcDb2dVertex
 10
99.73965912209597
 20
-139.7007055206305
 30
0.0
  0
VERTEX
  5
12C
330
12A
100
AcDbEntity
  8
_U+30EC_U+30A4_U+30E4_U+30FC 1
 62
   179
420
  2234388
370
     9
100
AcDbVertex
100
AcDb2dVertex
 10
99.73965912209597
 20
-141.449777742415
 30
0.0
  0
SEQEND
  5
12D
330
12A
100
AcDbEntity
  8
_U+30EC_U+30A4_U+30E4_U+30FC 1
 62
   179
420
  2234388
370
     9
  0
POLYLINE
  5
12E
330
1F
100
AcDbEntity
  8
_U+30EC_U+30A4_U+30E4_U+30FC 1
 62
   179
420
  2234388
370
     9
100
AcDb2dPolyline
 66
     1
 10
0.0
 20
0.0
 30
0.0
  0
VERTEX
  5
12F
330
12E
100
AcDbEntity
  8
_U+30EC_U+30A4_U+30E4_U+30FC 1
 62
   179
420
  2234388
370
     9
100
AcDbVertex
100
AcDb2dVertex
 10
101.7398737932885
 20
-139.7007055206305
 30
0.0
  0
VERTEX
  5
130
330
12E
100
AcDbEntity
  8
_U+30EC_U+30A4_U+30E4_U+30FC 1
 62
   179
420
  2234388
370
     9
100
AcDbVertex
100
AcDb2dVertex
 10
101.7398737932885
 20
-141.449777742415
 30
0.0
  0
SEQEND
  5
131
330
12E
100
AcDbEntity
  8
_U+30EC_U+30A4_U+30E4_U+30FC 1
 62
   179
420
  2234388
370
     9
  0
INSERT
  5
133
330
1F
100
AcDbEntity
  8
_U+30EC_U+30A4_U+30E4_U+30FC 1
100
AcDbBlockReference
  2
block 11
 10
0.0
 20
0.0
 30
0.0
  0
SPLINE
  5
146
330
1F
100
AcDbEntity
  8
_U+30EC_U+30A4_U+30E4_U+30FC 1
 62
   179
420
  2234388
370
     9
100
AcDbSpline
210
0.0
220
0.0
230
1.0
 70
    11
 71
     3
 72
    17
 73
    13
 74
     0
 42
0.0000000001
 43
0.0000000001
 12
1.0
 22
0.0
 32
0.0
 13
1.0
 23
0.0
 33
0.0
 40
0.0
 40
0.0
 40
0.0
 40
0.0
 40
1.0
 40
1.0
 40
1.0
 40
2.0
 40
2.0
 40
2.0
 40
3.0
 40
3.0
 40
3.0
 40
4.0
 40
4.0
 40
4.0
 40
4.0
 10
101.7570893484048
 20
-140.9495388536513
 30
0.0
 10
101.7570893484048
 20
-140.9591696869822
 30
0.0
 10
101.7495046263761
 20
-140.9674599647583
 30
0.0
 10
101.7398737932885
 20
-140.9674599647583
 30
0.0
 10
101.730207682424
 20
-140.9674599647583
 30
0.0
 10
101.7219526826346
 20
-140.9591696869822
 30
0.0
 10
101.7219526826346
 20
-140.9495388536513
 30
0.0
 10
101.7219526826346
 20
-140.939872742543
 30
0.0
 10
101.730207682424
 20
-140.9323232981005
 30
0.0
 10
101.7398737932885
 20
-140.9323232981005
 30
0.0
 10
101.7495046263761
 20
-140.9323232981005
 30
0.0
 10
101.7570893484048
 20
-140.939872742543
 30
0.0
 10
101.7570893484048
 20
-140.9495388536513
 30
0.0
  0
SPLINE
  5
147
330
1F
100
AcDbEntity
  8
_U+30EC_U+30A4_U+30E4_U+30FC 1
 62
   179
420
  2234388
370
     9
100
AcDbSpline
210
0.0
220
0.0
230
1.0
 70
    11
 71
     3
 72
    17
 73
    13
 74
     0
 42
0.0000000001
 43
0.0000000001
 12
1.0
 22
0.0
 32
0.0
 13
1.0
 23
0.0
 33
0.0
 40
0.0
 40
0.0
 40
0.0
 40
0.0
 40
1.0
 40
1.0
 40
1.0
 40
2.0
 40
2.0
 40
2.0
 40
3.0
 40
3.0
 40
3.0
 40
4.0
 40
4.0
 40
4.0
 40
4.0
 10
103.5406305296705
 20
-143.5585069085548
 30
0.0
 10
103.5406305296705
 20
-143.5309549641171
 30
0.0
 10
103.5185793034655
 20
-143.5089063530114
 30
0.0
 10
103.4910273597239
 20
-143.5089063530114
 30
0.0
 10
103.4634401382055
 20
-143.5089063530114
 30
0.0
 10
103.4407212498962
 20
-143.5309549641171
 30
0.0
 10
103.4407212498962
 20
-143.5585069085548
 30
0.0
 10
103.4407212498962
 20
-143.5860588529926
 30
0.0
 10
103.4634401382055
 20
-143.6088130196531
 30
0.0
 10
103.4910273597239
 20
-143.6088130196531
 30
0.0
 10
103.5185793034655
 20
-143.6088130196531
 30
0.0
 10
103.5406305296705
 20
-143.5860588529926
 30
0.0
 10
103.5406305296705
 20
-143.5585069085548
 30
0.0
  0
SPLINE
  5
148
330
1F
100
AcDbEntity
  8
_U+30EC_U+30A4_U+30E4_U+30FC 1
 62
   179
420
  2234388
370
     9
100
AcDbSpline
210
0.0
220
0.0
230
1.0
 70
    11
 71
     3
 72
    17
 73
    13
 74
     0
 42
0.0000000001
 43
0.0000000001
 12
1.0
 22
0.0
 32
0.0
 13
1.0
 23
0.0
 33
0.0
 40
0.0
 40
0.0
 40
0.0
 40
0.0
 40
1.0
 40
1.0
 40
1.0
 40
2.0
 40
2.0
 40
2.0
 40
3.0
 40
3.0
 40
3.0
 40
4.0
 40
4.0
 40
4.0
 40
4.0
 10
97.78833944965606
 20
-143.5585069085548
 30
0.0
 10
97.78833944965606
 20
-143.5309549641171
 30
0.0
 10
97.76562056134678
 20
-143.5089063530114
 30
0.0
 10
97.73803333982836
 20
-143.5089063530114
 30
0.0
 10
97.71048139608683
 20
-143.5089063530114
 30
0.0
 10
97.68843278553823
 20
-143.5309549641171
 30
0.0
 10
97.68843278553823
 20
-143.5585069085548
 30
0.0
 10
97.68843278553823
 20
-143.5860588529926
 30
0.0
 10
97.71048139608683
 20
-143.6088130196531
 30
0.0
 10
97.73803333982836
 20
-143.6088130196531
 30
0.0
 10
97.76562056134678
 20
-143.6088130196531
 30
0.0
 10
97.78833944965606
 20
-143.5860588529926
 30
0.0
 10
97.78833944965606
 20
-143.5585069085548
 30
0.0
  0
POLYLINE
  5
149
330
1F
100
AcDbEntity
  8
_U+30EC_U+30A4_U+30E4_U+30FC 1
 62
   179
420
  2234388
370
     9
100
AcDb2dPolyline
 66
     1
 10
0.0
 20
0.0
 30
0.0
  0
VERTEX
  5
14A
330
149
100
AcDbEntity
  8
_U+30EC_U+30A4_U+30E4_U+30FC 1
 62
   179
420
  2234388
370
     9
100
AcDbVertex
100
AcDb2dVertex
 10
97.73803333982836
 20
-143.5585069085548
 30
0.0
  0
VERTEX
  5
14B
330
149
100
AcDbEntity
  8
_U+30EC_U+30A4_U+30E4_U+30FC 1
 62
   179
420
  2234388
370
     9
100
AcDbVertex
100
AcDb2dVertex
 10
103.4910273597239
 20
-143.5585069085548
 30
0.0
  0
SEQEND
  5
14C
330
149
100
AcDbEntity
  8
_U+30EC_U+30A4_U+30E4_U+30FC 1
 62
   179
420
  2234388
370
     9
  0
POLYLINE
  5
14D
330
1F
100
AcDbEntity
  8
_U+30EC_U+30A4_U+30E4_U+30FC 1
 62
   179
420
  2234388
370
     9
100
AcDb2dPolyline
 66
     1
 10
0.0
 20
0.0
 30
0.0
  0
VERTEX
  5
14E
330
14D
100
AcDbEntity
  8
_U+30EC_U+30A4_U+30E4_U+30FC 1
 62
   179
420
  2234388
370
     9
100
AcDbVertex
100
AcDb2dVertex
 10
97.73803333982836
 20
-142.3096735755334
 30
0.0
  0
VERTEX
  5
14F
330
14D
100
AcDbEntity
  8
_U+30EC_U+30A4_U+30E4_U+30FC 1
 62
   179
420
  2234388
370
     9
100
AcDbVertex
100
AcDb2dVertex
 10
97.73803333982836
 20
-144.0587457973185
 30
0.0
  0
SEQEND
  5
150
330
14D
100
AcDbEntity
  8
_U+30EC_U+30A4_U+30E4_U+30FC 1
 62
   179
420
  2234388
370
     9
  0
POLYLINE
  5
151
330
1F
100
AcDbEntity
  8
_U+30EC_U+30A4_U+30E4_U+30FC 1
 62
   179
420
  2234388
370
     9
100
AcDb2dPolyline
 66
     1
 10
0.0
 20
0.0
 30
0.0
  0
VERTEX
  5
152
330
151
100
AcDbEntity
  8
_U+30EC_U+30A4_U+30E4_U+30FC 1
 62
   179
420
  2234388
370
     9
100
AcDbVertex
100
AcDb2dVertex
 10
103.4910273597239
 20
-142.3096735755334
 30
0.0
  0
VERTEX
  5
153
330
151
100
AcDbEntity
  8
_U+30EC_U+30A4_U+30E4_U+30FC 1
 62
   179
420
  2234388
370
     9
100
AcDbVertex
100
AcDb2dVertex
 10
103.4910273597239
 20
-144.0587457973185
 30
0.0
  0
SEQEND
  5
154
330
151
100
AcDbEntity
  8
_U+30EC_U+30A4_U+30E4_U+30FC 1
 62
   179
420
  2234388
370
     9
  0
INSERT
  5
156
330
1F
100
AcDbEntity
  8
_U+30EC_U+30A4_U+30E4_U+30FC 1
100
AcDbBlockReference
  2
block 12
 10
0.0
 20
0.0
 30
0.0
  0
SPLINE
  5
16B
330
1F
100
AcDbEntity
  8
_U+30EC_U+30A4_U+30E4_U+30FC 1
 62
   179
420
  2234388
370
     9
100
AcDbSpline
210
0.0
220
0.0
230
1.0
 70
    11
 71
     3
 72
    17
 73
    13
 74
     0
 42
0.0000000001
 43
0.0000000001
 12
1.0
 22
0.0
 32
0.0
 13
1.0
 23
0.0
 33
0.0
 40
0.0
 40
0.0
 40
0.0
 40
0.0
 40
1.0
 40
1.0
 40
1.0
 40
2.0
 40
2.0
 40
2.0
 40
3.0
 40
3.0
 40
3.0
 40
4.0
 40
4.0
 40
4.0
 40
4.0
 10
103.5082429148403
 20
-143.5585069085548
 30
0.0
 10
103.5082429148403
 20
-143.5681377418857
 30
0.0
 10
103.5006581928116
 20
-143.5764280196618
 30
0.0
 10
103.4910273597239
 20
-143.5764280196618
 30
0.0
 10
103.4813638630187
 20
-143.5764280196618
 30
0.0
 10
103.47310624907
 20
-143.5681377418857
 30
0.0
 10
103.47310624907
 20
-143.5585069085548
 30
0.0
 10
103.47310624907
 20
-143.548876075224
 30
0.0
 10
103.4813638630187
 20
-143.5412913530034
 30
0.0
 10
103.4910273597239
 20
-143.5412913530034
 30
0.0
 10
103.5006581928116
 20
-143.5412913530034
 30
0.0
 10
103.5082429148403
 20
-143.548876075224
 30
0.0
 10
103.5082429148403
 20
-143.5585069085548
 30
0.0
  0
POLYLINE
  5
16C
330
1F
100
AcDbEntity
  8
_U+30EC_U+30A4_U+30E4_U+30FC 1
 62
     7
420
 16777215
370
     9
100
AcDb2dPolyline
 66
     1
 10
0.0
 20
0.0
 30
0.0
  0
VERTEX
  5
16D
330
16C
100
AcDbEntity
  8
_U+30EC_U+30A4_U+30E4_U+30FC 1
 62
     7
420
 16777215
370
     9
100
AcDbVertex
100
AcDb2dVertex
 10
81.19141542863443
 20
-121.8240796917661
 30
0.0
  0
VERTEX
  5
16E
330
16C
100
AcDbEntity
  8
_U+30EC_U+30A4_U+30E4_U+30FC 1
 62
     7
420
 16777215
370
     9
100
AcDbVertex
100
AcDb2dVertex
 10
74.62540976281385
 20
-121.8240796917661
 30
0.0
  0
VERTEX
  5
16F
330
16C
100
AcDbEntity
  8
_U+30EC_U+30A4_U+30E4_U+30FC 1
 62
     7
420
 16777215
370
     9
100
AcDbVertex
100
AcDb2dVertex
 10
74.62540976281385
 20
-120.2641669143783
 30
0.0
  0
VERTEX
  5
170
330
16C
100
AcDbEntity
  8
_U+30EC_U+30A4_U+30E4_U+30FC 1
 62
     7
420
 16777215
370
     9
100
AcDbVertex
100
AcDb2dVertex
 10
81.19141542863443
 20
-120.2641669143783
 30
0.0
  0
VERTEX
  5
171
330
16C
100
AcDbEntity
  8
_U+30EC_U+30A4_U+30E4_U+30FC 1
 62
     7
420
 16777215
370
     9
100
AcDbVertex
100
AcDb2dVertex
 10
81.19141542863443
 20
-121.8240796917661
 30
0.0
  0
SEQEND
  5
172
330
16C
100
AcDbEntity
  8
_U+30EC_U+30A4_U+30E4_U+30FC 1
 62
     7
420
 16777215
370
     9
  0
POLYLINE
  5
173
330
1F
100
AcDbEntity
  8
_U+30EC_U+30A4_U+30E4_U+30FC 1
 62
     7
420
 16777215
370
     9
100
AcDb2dPolyline
 66
     1
 10
0.0
 20
0.0
 30
0.0
  0
VERTEX
  5
174
330
173
100
AcDbEntity
  8
_U+30EC_U+30A4_U+30E4_U+30FC 1
 62
     7
420
 16777215
370
     9
100
AcDbVertex
100
AcDb2dVertex
 10
76.1857105563406
 20
-120.3275258032515
 30
0.0
  0
VERTEX
  5
175
330
173
100
AcDbEntity
  8
_U+30EC_U+30A4_U+30E4_U+30FC 1
 62
     7
420
 16777215
370
     9
100
AcDbVertex
100
AcDb2dVertex
 10
76.1857105563406
 20
-121.7707044140018
 30
0.0
  0
SEQEND
  5
176
330
173
100
AcDbEntity
  8
_U+30EC_U+30A4_U+30E4_U+30FC 1
 62
     7
420
 16777215
370
     9
  0
POLYLINE
  5
177
330
1F
100
AcDbEntity
  8
_U+30EC_U+30A4_U+30E4_U+30FC 1
 62
     7
420
 16777215
370
     9
100
AcDb2dPolyline
 66
     1
 10
0.0
 20
0.0
 30
0.0
  0
VERTEX
  5
178
330
177
100
AcDbEntity
  8
_U+30EC_U+30A4_U+30E4_U+30FC 1
 62
     7
420
 16777215
370
     9
100
AcDbVertex
100
AcDb2dVertex
 10
79.68762963366586
 20
-120.3165191365874
 30
0.0
  0
VERTEX
  5
179
330
177
100
AcDbEntity
  8
_U+30EC_U+30A4_U+30E4_U+30FC 1
 62
     7
420
 16777215
370
     9
100
AcDbVertex
100
AcDb2dVertex
 10
79.68762963366586
 20
-121.7927530251074
 30
0.0
  0
SEQEND
  5
17A
330
177
100
AcDbEntity
  8
_U+30EC_U+30A4_U+30E4_U+30FC 1
 62
     7
420
 16777215
370
     9
  0
POLYLINE
  5
17B
330
1F
100
AcDbEntity
  8
_U+30EC_U+30A4_U+30E4_U+30FC 1
 62
     7
420
 16777215
370
     9
100
AcDb2dPolyline
 66
     1
 10
0.0
 20
0.0
 30
0.0
  0
VERTEX
  5
17C
330
17B
100
AcDbEntity
  8
_U+30EC_U+30A4_U+30E4_U+30FC 1
 62
     7
420
 16777215
370
     9
100
AcDbVertex
100
AcDb2dVertex
 10
80.45037044754005
 20
-129.1742046899286
 30
0.0
  0
VERTEX
  5
17D
330
17B
100
AcDbEntity
  8
_U+30EC_U+30A4_U+30E4_U+30FC 1
 62
     7
420
 16777215
370
     9
100
AcDbVertex
100
AcDb2dVertex
 10
75.4229697424664
 20
-129.1742046899286
 30
0.0
  0
VERTEX
  5
17E
330
17B
100
AcDbEntity
  8
_U+30EC_U+30A4_U+30E4_U+30FC 1
 62
     7
420
 16777215
370
     9
100
AcDbVertex
100
AcDb2dVertex
 10
75.4229697424664
 20
-121.8240796917661
 30
0.0
  0
VERTEX
  5
17F
330
17B
100
AcDbEntity
  8
_U+30EC_U+30A4_U+30E4_U+30FC 1
 62
     7
420
 16777215
370
     9
100
AcDbVertex
100
AcDb2dVertex
 10
80.45037044754005
 20
-121.8240796917661
 30
0.0
  0
VERTEX
  5
180
330
17B
100
AcDbEntity
  8
_U+30EC_U+30A4_U+30E4_U+30FC 1
 62
     7
420
 16777215
370
     9
100
AcDbVertex
100
AcDb2dVertex
 10
80.45037044754005
 20
-129.1742046899286
 30
0.0
  0
SEQEND
  5
181
330
17B
100
AcDbEntity
  8
_U+30EC_U+30A4_U+30E4_U+30FC 1
 62
     7
420
 16777215
370
     9
  0
SPLINE
  5
182
330
1F
100
AcDbEntity
  8
_U+30EC_U+30A4_U+30E4_U+30FC 1
 62
     7
420
 16777215
370
     9
100
AcDbSpline
210
0.0
220
0.0
230
1.0
 70
     8
 71
     3
 72
    35
 73
    31
 74
     0
 42
0.0000000001
 43
0.0000000001
 12
1.0
 22
0.0
 32
0.0
 13
1.0
 23
0.0
 33
0.0
 40
0.0
 40
0.0
 40
0.0
 40
0.0
 40
1.0
 40
1.0
 40
1.0
 40
2.0
 40
2.0
 40
2.0
 40
3.0
 40
3.0
 40
3.0
 40
4.0
 40
4.0
 40
4.0
 40
5.0
 40
5.0
 40
5.0
 40
6.0
 40
6.0
 40
6.0
 40
7.0
 40
7.0
 40
7.0
 40
8.0
 40
8.0
 40
8.0
 40
9.0
 40
9.0
 40
9.0
 40
10.0
 40
10.0
 40
10.0
 40
10.0
 10
76.51333527020442
 20
-120.228324692165
 30
0.0
 10
76.51333527020442
 20
-120.228324692165
 30
0.0
 10
76.53538388075302
 20
-119.8645049700339
 30
0.0
 10
76.53538388075302
 20
-119.8645049700339
 30
0.0
 10
76.53538388075302
 20
-119.8645049700339
 30
0.0
 10
75.08017558454515
 20
-119.8645049700339
 30
0.0
 10
75.08017558454515
 20
-119.8645049700339
 30
0.0
 10
75.08017558454515
 20
-119.8645049700339
 30
0.0
 10
75.08017558454515
 20
-118.5856855259092
 30
0.0
 10
75.08017558454515
 20
-118.5856855259092
 30
0.0
 10
75.08017558454515
 20
-118.5856855259092
 30
0.0
 10
75.08017558454515
 20
-118.43134524817
 30
0.0
 10
75.3447589111284
 20
-118.4092966370644
 30
0.0
 10
75.3447589111284
 20
-118.4092966370644
 30
0.0
 10
76.49128665965581
 20
-117.6375952483684
 30
0.0
 10
77.74805746092625
 20
-117.7037410816852
 30
0.0
 10
77.74805746092625
 20
-117.7037410816852
 30
0.0
 10
80.21750184236991
 20
-117.7919355261076
 30
0.0
 10
80.43798794785596
 20
-118.4533938592756
 30
0.0
 10
80.43798794785596
 20
-118.4533938592756
 30
0.0
 10
80.68052266389061
 20
-118.2990535815364
 30
0.0
 10
80.79076571663363
 20
-118.6077341370147
 30
0.0
 10
80.79076571663363
 20
-118.6077341370147
 30
0.0
 10
80.79076571663363
 20
-119.8424563589283
 30
0.0
 10
80.79076571663363
 20
-119.8424563589283
 30
0.0
 10
80.79076571663363
 20
-119.8424563589283
 30
0.0
 10
79.33555742042576
 20
-119.8424563589283
 30
0.0
 10
79.33555742042576
 20
-119.8424563589283
 30
0.0
 10
79.33555742042576
 20
-119.8424563589283
 30
0.0
 10
79.33555742042576
 20
-120.2613799699347
 30
0.0
 10
79.33555742042576
 20
-120.2613799699347
 30
0.0
  0
POLYLINE
  5
183
330
1F
100
AcDbEntity
  8
_U+30EC_U+30A4_U+30E4_U+30FC 1
 62
     7
420
 16777215
370
     9
100
AcDb2dPolyline
 66
     1
 10
0.0
 20
0.0
 30
0.0
  0
VERTEX
  5
184
330
183
100
AcDbEntity
  8
_U+30EC_U+30A4_U+30E4_U+30FC 1
 62
     7
420
 16777215
370
     9
100
AcDbVertex
100
AcDb2dVertex
 10
76.05031444868372
 20
-119.8645049700339
 30
0.0
  0
VERTEX
  5
185
330
183
100
AcDbEntity
  8
_U+30EC_U+30A4_U+30E4_U+30FC 1
 62
     7
420
 16777215
370
     9
100
AcDbVertex
100
AcDb2dVertex
 10
76.05031444868372
 20
-120.2393313588291
 30
0.0
  0
SEQEND
  5
186
330
183
100
AcDbEntity
  8
_U+30EC_U+30A4_U+30E4_U+30FC 1
 62
     7
420
 16777215
370
     9
  0
POLYLINE
  5
187
330
1F
100
AcDbEntity
  8
_U+30EC_U+30A4_U+30E4_U+30FC 1
 62
     7
420
 16777215
370
     9
100
AcDb2dPolyline
 66
     1
 10
0.0
 20
0.0
 30
0.0
  0
VERTEX
  5
188
330
187
100
AcDbEntity
  8
_U+30EC_U+30A4_U+30E4_U+30FC 1
 62
     7
420
 16777215
370
     9
100
AcDbVertex
100
AcDb2dVertex
 10
79.79857824194644
 20
-119.8424563589283
 30
0.0
  0
VERTEX
  5
189
330
187
100
AcDbEntity
  8
_U+30EC_U+30A4_U+30E4_U+30FC 1
 62
     7
420
 16777215
370
     9
100
AcDbVertex
100
AcDb2dVertex
 10
79.79857824194644
 20
-120.2393313588291
 30
0.0
  0
SEQEND
  5
18A
330
187
100
AcDbEntity
  8
_U+30EC_U+30A4_U+30E4_U+30FC 1
 62
     7
420
 16777215
370
     9
  0
POLYLINE
  5
18B
330
1F
100
AcDbEntity
  8
_U+30EC_U+30A4_U+30E4_U+30FC 1
 62
     7
420
 16777215
370
     9
100
AcDb2dPolyline
 66
     1
 10
0.0
 20
0.0
 30
0.0
  0
VERTEX
  5
18C
330
18B
100
AcDbEntity
  8
_U+30EC_U+30A4_U+30E4_U+30FC 1
 62
     7
420
 16777215
370
     9
100
AcDbVertex
100
AcDb2dVertex
 10
77.6488210745691
 20
-128.4414146901119
 30
0.0
  0
VERTEX
  5
18D
330
18B
100
AcDbEntity
  8
_U+30EC_U+30A4_U+30E4_U+30FC 1
 62
     7
420
 16777215
370
     9
100
AcDbVertex
100
AcDb2dVertex
 10
77.6488210745691
 20
-126.5011369128192
 30
0.0
  0
SEQEND
  5
18E
330
18B
100
AcDbEntity
  8
_U+30EC_U+30A4_U+30E4_U+30FC 1
 62
     7
420
 16777215
370
     9
  0
POLYLINE
  5
18F
330
1F
100
AcDbEntity
  8
_U+30EC_U+30A4_U+30E4_U+30FC 1
 62
     7
420
 16777215
370
     9
100
AcDb2dPolyline
 66
     1
 10
0.0
 20
0.0
 30
0.0
  0
VERTEX
  5
190
330
18F
100
AcDbEntity
  8
_U+30EC_U+30A4_U+30E4_U+30FC 1
 62
     7
420
 16777215
370
     9
100
AcDbVertex
100
AcDb2dVertex
 10
78.2220849488328
 20
-126.5011369128192
 30
0.0
  0
VERTEX
  5
191
330
18F
100
AcDbEntity
  8
_U+30EC_U+30A4_U+30E4_U+30FC 1
 62
     7
420
 16777215
370
     9
100
AcDbVertex
100
AcDb2dVertex
 10
78.2220849488328
 20
-128.4414146901119
 30
0.0
  0
SEQEND
  5
192
330
18F
100
AcDbEntity
  8
_U+30EC_U+30A4_U+30E4_U+30FC 1
 62
     7
420
 16777215
370
     9
  0
SPLINE
  5
193
330
1F
100
AcDbEntity
  8
_U+30EC_U+30A4_U+30E4_U+30FC 1
 62
     7
420
 16777215
370
     9
100
AcDbSpline
210
0.0
220
0.0
230
1.0
 70
     8
 71
     3
 72
    11
 73
     7
 74
     0
 42
0.0000000001
 43
0.0000000001
 12
1.0
 22
0.0
 32
0.0
 13
1.0
 23
0.0
 33
0.0
 40
0.0
 40
0.0
 40
0.0
 40
0.0
 40
1.0
 40
1.0
 40
1.0
 40
2.0
 40
2.0
 40
2.0
 40
2.0
 10
77.6488210745691
 20
-126.4901302461551
 30
0.0
 10
77.6488210745691
 20
-126.3319799684169
 30
0.0
 10
77.77698523796602
 20
-126.2034983017823
 30
0.0
 10
77.93545301170094
 20
-126.2034983017823
 30
0.0
 10
78.09395606321276
 20
-126.2034983017823
 30
0.0
 10
78.2220849488328
 20
-126.3319799684169
 30
0.0
 10
78.2220849488328
 20
-126.4901302461551
 30
0.0
  0
SPLINE
  5
194
330
1F
100
AcDbEntity
  8
_U+30EC_U+30A4_U+30E4_U+30FC 1
 62
     7
420
 16777215
370
     9
100
AcDbSpline
210
0.0
220
0.0
230
1.0
 70
     8
 71
     3
 72
    11
 73
     7
 74
     0
 42
0.0000000001
 43
0.0000000001
 12
1.0
 22
0.0
 32
0.0
 13
1.0
 23
0.0
 33
0.0
 40
0.0
 40
0.0
 40
0.0
 40
0.0
 40
1.0
 40
1.0
 40
1.0
 40
2.0
 40
2.0
 40
2.0
 40
2.0
 10
78.2220849488328
 20
-128.4414146901119
 30
0.0
 10
78.2220849488328
 20
-128.5999177456279
 30
0.0
 10
78.09395606321276
 20
-128.7280466344847
 30
0.0
 10
77.93545301170094
 20
-128.7280466344847
 30
0.0
 10
77.77698523796602
 20
-128.7280466344847
 30
0.0
 10
77.6488210745691
 20
-128.5999177456279
 30
0.0
 10
77.6488210745691
 20
-128.4414146901119
 30
0.0
  0
POLYLINE
  5
195
330
1F
100
AcDbEntity
  8
_U+30EC_U+30A4_U+30E4_U+30FC 1
 62
     7
420
 16777215
370
     9
100
AcDb2dPolyline
 66
     1
 10
0.0
 20
0.0
 30
0.0
  0
VERTEX
  5
196
330
195
100
AcDbEntity
  8
_U+30EC_U+30A4_U+30E4_U+30FC 1
 62
     7
420
 16777215
370
     9
100
AcDbVertex
100
AcDb2dVertex
 10
100.299834941138
 20
-128.4414146901119
 30
0.0
  0
VERTEX
  5
197
330
195
100
AcDbEntity
  8
_U+30EC_U+30A4_U+30E4_U+30FC 1
 62
     7
420
 16777215
370
     9
100
AcDbVertex
100
AcDb2dVertex
 10
100.299834941138
 20
-126.5011369128192
 30
0.0
  0
SEQEND
  5
198
330
195
100
AcDbEntity
  8
_U+30EC_U+30A4_U+30E4_U+30FC 1
 62
     7
420
 16777215
370
     9
  0
POLYLINE
  5
199
330
1F
100
AcDbEntity
  8
_U+30EC_U+30A4_U+30E4_U+30FC 1
 62
     7
420
 16777215
370
     9
100
AcDb2dPolyline
 66
     1
 10
0.0
 20
0.0
 30
0.0
  0
VERTEX
  5
19A
330
199
100
AcDbEntity
  8
_U+30EC_U+30A4_U+30E4_U+30FC 1
 62
     7
420
 16777215
370
     9
100
AcDbVertex
100
AcDb2dVertex
 10
100.8730988154017
 20
-126.5011369128192
 30
0.0
  0
VERTEX
  5
19B
330
199
100
AcDbEntity
  8
_U+30EC_U+30A4_U+30E4_U+30FC 1
 62
     7
420
 16777215
370
     9
100
AcDbVertex
100
AcDb2dVertex
 10
100.8730988154017
 20
-128.4414146901119
 30
0.0
  0
SEQEND
  5
19C
330
199
100
AcDbEntity
  8
_U+30EC_U+30A4_U+30E4_U+30FC 1
 62
     7
420
 16777215
370
     9
  0
SPLINE
  5
19D
330
1F
100
AcDbEntity
  8
_U+30EC_U+30A4_U+30E4_U+30FC 1
 62
     7
420
 16777215
370
     9
100
AcDbSpline
210
0.0
220
0.0
230
1.0
 70
     8
 71
     3
 72
    11
 73
     7
 74
     0
 42
0.0000000001
 43
0.0000000001
 12
1.0
 22
0.0
 32
0.0
 13
1.0
 23
0.0
 33
0.0
 40
0.0
 40
0.0
 40
0.0
 40
0.0
 40
1.0
 40
1.0
 40
1.0
 40
2.0
 40
2.0
 40
2.0
 40
2.0
 10
100.299834941138
 20
-126.4901302461551
 30
0.0
 10
100.299834941138
 20
-126.3319799684169
 30
0.0
 10
100.4286693822956
 20
-126.2034983017823
 30
0.0
 10
100.586469419298
 20
-126.2034983017823
 30
0.0
 10
100.7449346520048
 20
-126.2034983017823
 30
0.0
 10
100.8730988154017
 20
-126.3319799684169
 30
0.0
 10
100.8730988154017
 20
-126.4901302461551
 30
0.0
  0
SPLINE
  5
19E
330
1F
100
AcDbEntity
  8
_U+30EC_U+30A4_U+30E4_U+30FC 1
 62
     7
420
 16777215
370
     9
100
AcDbSpline
210
0.0
220
0.0
230
1.0
 70
     8
 71
     3
 72
    11
 73
     7
 74
     0
 42
0.0000000001
 43
0.0000000001
 12
1.0
 22
0.0
 32
0.0
 13
1.0
 23
0.0
 33
0.0
 40
0.0
 40
0.0
 40
0.0
 40
0.0
 40
1.0
 40
1.0
 40
1.0
 40
2.0
 40
2.0
 40
2.0
 40
2.0
 10
100.8730988154017
 20
-128.4414146901119
 30
0.0
 10
100.8730988154017
 20
-128.5999177456279
 30
0.0
 10
100.7449346520048
 20
-128.7280466344847
 30
0.0
 10
100.586469419298
 20
-128.7280466344847
 30
0.0
 10
100.4286693822956
 20
-128.7280466344847
 30
0.0
 10
100.299834941138
 20
-128.5999177456279
 30
0.0
 10
100.299834941138
 20
-128.4414146901119
 30
0.0
  0
POLYLINE
  5
19F
330
1F
100
AcDbEntity
  8
_U+30EC_U+30A4_U+30E4_U+30FC 1
 62
     7
420
 16777215
370
     9
100
AcDb2dPolyline
 66
     1
 10
0.0
 20
0.0
 30
0.0
  0
VERTEX
  5
1A0
330
19F
100
AcDbEntity
  8
_U+30EC_U+30A4_U+30E4_U+30FC 1
 62
     7
420
 16777215
370
     9
100
AcDbVertex
100
AcDb2dVertex
 10
99.727241344635
 20
-137.5998785767109
 30
0.0
  0
VERTEX
  5
1A1
330
19F
100
AcDbEntity
  8
_U+30EC_U+30A4_U+30E4_U+30FC 1
 62
     7
420
 16777215
370
     9
100
AcDbVertex
100
AcDb2dVertex
 10
99.727241344635
 20
-129.4012171898719
 30
0.0
  0
SEQEND
  5
1A2
330
19F
100
AcDbEntity
  8
_U+30EC_U+30A4_U+30E4_U+30FC 1
 62
     7
420
 16777215
370
     9
  0
POLYLINE
  5
1A3
330
1F
100
AcDbEntity
  8
_U+30EC_U+30A4_U+30E4_U+30FC 1
 62
     7
420
 16777215
370
     9
100
AcDb2dPolyline
 66
     1
 10
0.0
 20
0.0
 30
0.0
  0
VERTEX
  5
1A4
330
1A3
100
AcDbEntity
  8
_U+30EC_U+30A4_U+30E4_U+30FC 1
 62
     7
420
 16777215
370
     9
100
AcDbVertex
100
AcDb2dVertex
 10
101.5200579655631
 20
-129.4012171898719
 30
0.0
  0
VERTEX
  5
1A5
330
1A3
100
AcDbEntity
  8
_U+30EC_U+30A4_U+30E4_U+30FC 1
 62
     7
420
 16777215
370
     9
100
AcDbVertex
100
AcDb2dVertex
 10
101.5200579655631
 20
-137.5998785767109
 30
0.0
  0
SEQEND
  5
1A6
330
1A3
100
AcDbEntity
  8
_U+30EC_U+30A4_U+30E4_U+30FC 1
 62
     7
420
 16777215
370
     9
  0
SPLINE
  5
1A7
330
1F
100
AcDbEntity
  8
_U+30EC_U+30A4_U+30E4_U+30FC 1
 62
     7
420
 16777215
370
     9
100
AcDbSpline
210
0.0
220
0.0
230
1.0
 70
     8
 71
     3
 72
    11
 73
     7
 74
     0
 42
0.0000000001
 43
0.0000000001
 12
1.0
 22
0.0
 32
0.0
 13
1.0
 23
0.0
 33
0.0
 40
0.0
 40
0.0
 40
0.0
 40
0.0
 40
1.0
 40
1.0
 40
1.0
 40
2.0
 40
2.0
 40
2.0
 40
2.0
 10
101.5200579655631
 20
-137.5998785767109
 30
0.0
 10
101.5200579655631
 20
-138.2699446876546
 30
0.0
 10
101.1190554757935
 20
-138.8114938541862
 30
0.0
 10
100.623649655099
 20
-138.8114938541862
 30
0.0
 10
100.1282438344046
 20
-138.8114938541862
 30
0.0
 10
99.727241344635
 20
-138.2699446876546
 30
0.0
 10
99.727241344635
 20
-137.5998785767109
 30
0.0
  0
POLYLINE
  5
1A8
330
1F
100
AcDbEntity
  8
_U+30EC_U+30A4_U+30E4_U+30FC 1
 62
     7
420
 16777215
370
     9
100
AcDb2dPolyline
 66
     1
 10
0.0
 20
0.0
 30
0.0
  0
VERTEX
  5
1A9
330
1A8
100
AcDbEntity
  8
_U+30EC_U+30A4_U+30E4_U+30FC 1
 62
     7
420
 16777215
370
     9
100
AcDbVertex
100
AcDb2dVertex
 10
79.51194630481459
 20
-128.3973174679007
 30
0.0
  0
VERTEX
  5
1AA
330
1A8
100
AcDbEntity
  8
_U+30EC_U+30A4_U+30E4_U+30FC 1
 62
     7
420
 16777215
370
     9
100
AcDbVertex
100
AcDb2dVertex
 10
79.51194630481459
 20
-126.457039690608
 30
0.0
  0
SEQEND
  5
1AB
330
1A8
100
AcDbEntity
  8
_U+30EC_U+30A4_U+30E4_U+30FC 1
 62
     7
420
 16777215
370
     9
  0
POLYLINE
  5
1AC
330
1F
100
AcDbEntity
  8
_U+30EC_U+30A4_U+30E4_U+30FC 1
 62
     7
420
 16777215
370
     9
100
AcDb2dPolyline
 66
     1
 10
0.0
 20
0.0
 30
0.0
  0
VERTEX
  5
1AD
330
1AC
100
AcDbEntity
  8
_U+30EC_U+30A4_U+30E4_U+30FC 1
 62
     7
420
 16777215
370
     9
100
AcDbVertex
100
AcDb2dVertex
 10
79.95291851578666
 20
-126.457039690608
 30
0.0
  0
VERTEX
  5
1AE
330
1AC
100
AcDbEntity
  8
_U+30EC_U+30A4_U+30E4_U+30FC 1
 62
     7
420
 16777215
370
     9
100
AcDbVertex
100
AcDb2dVertex
 10
79.95291851578666
 20
-128.3973174679007
 30
0.0
  0
SEQEND
  5
1AF
330
1AC
100
AcDbEntity
  8
_U+30EC_U+30A4_U+30E4_U+30FC 1
 62
     7
420
 16777215
370
     9
  0
SPLINE
  5
1B0
330
1F
100
AcDbEntity
  8
_U+30EC_U+30A4_U+30E4_U+30FC 1
 62
     7
420
 16777215
370
     9
100
AcDbSpline
210
0.0
220
0.0
230
1.0
 70
     8
 71
     3
 72
    11
 73
     7
 74
     0
 42
0.0000000001
 43
0.0000000001
 12
1.0
 22
0.0
 32
0.0
 13
1.0
 23
0.0
 33
0.0
 40
0.0
 40
0.0
 40
0.0
 40
0.0
 40
1.0
 40
1.0
 40
1.0
 40
2.0
 40
2.0
 40
2.0
 40
2.0
 10
79.51194630481459
 20
-126.4460330239439
 30
0.0
 10
79.51194630481459
 20
-126.2878827462057
 30
0.0
 10
79.61047713563418
 20
-126.1594010795712
 30
0.0
 10
79.73243241030063
 20
-126.1594010795712
 30
0.0
 10
79.85438768496707
 20
-126.1594010795712
 30
0.0
 10
79.95291851578666
 20
-126.2878827462057
 30
0.0
 10
79.95291851578666
 20
-126.4460330239439
 30
0.0
  0
SPLINE
  5
1B1
330
1F
100
AcDbEntity
  8
_U+30EC_U+30A4_U+30E4_U+30FC 1
 62
     7
420
 16777215
370
     9
100
AcDbSpline
210
0.0
220
0.0
230
1.0
 70
     8
 71
     3
 72
    11
 73
     7
 74
     0
 42
0.0000000001
 43
0.0000000001
 12
1.0
 22
0.0
 32
0.0
 13
1.0
 23
0.0
 33
0.0
 40
0.0
 40
0.0
 40
0.0
 40
0.0
 40
1.0
 40
1.0
 40
1.0
 40
2.0
 40
2.0
 40
2.0
 40
2.0
 10
79.95291851578666
 20
-128.3973174679007
 30
0.0
 10
79.95291851578666
 20
-128.5558205234167
 30
0.0
 10
79.85438768496707
 20
-128.6839494122735
 30
0.0
 10
79.73243241030063
 20
-128.6839494122735
 30
0.0
 10
79.61047713563418
 20
-128.6839494122735
 30
0.0
 10
79.51194630481459
 20
-128.5558205234167
 30
0.0
 10
79.51194630481459
 20
-128.3973174679007
 30
0.0
  0
POLYLINE
  5
1B2
330
1F
100
AcDbEntity
  8
_U+30EC_U+30A4_U+30E4_U+30FC 1
 62
     7
420
 16777215
370
     9
100
AcDb2dPolyline
 66
     1
 10
0.0
 20
0.0
 30
0.0
  0
VERTEX
  5
1B3
330
1B2
100
AcDbEntity
  8
_U+30EC_U+30A4_U+30E4_U+30FC 1
 62
     7
420
 16777215
370
     9
100
AcDbVertex
100
AcDb2dVertex
 10
98.60621942879021
 20
-128.3973174679007
 30
0.0
  0
VERTEX
  5
1B4
330
1B2
100
AcDbEntity
  8
_U+30EC_U+30A4_U+30E4_U+30FC 1
 62
     7
420
 16777215
370
     9
100
AcDbVertex
100
AcDb2dVertex
 10
98.60621942879021
 20
-126.457039690608
 30
0.0
  0
SEQEND
  5
1B5
330
1B2
100
AcDbEntity
  8
_U+30EC_U+30A4_U+30E4_U+30FC 1
 62
     7
420
 16777215
370
     9
  0
POLYLINE
  5
1B6
330
1F
100
AcDbEntity
  8
_U+30EC_U+30A4_U+30E4_U+30FC 1
 62
     7
420
 16777215
370
     9
100
AcDb2dPolyline
 66
     1
 10
0.0
 20
0.0
 30
0.0
  0
VERTEX
  5
1B7
330
1B6
100
AcDbEntity
  8
_U+30EC_U+30A4_U+30E4_U+30FC 1
 62
     7
420
 16777215
370
     9
100
AcDbVertex
100
AcDb2dVertex
 10
99.04719163976229
 20
-126.457039690608
 30
0.0
  0
VERTEX
  5
1B8
330
1B6
100
AcDbEntity
  8
_U+30EC_U+30A4_U+30E4_U+30FC 1
 62
     7
420
 16777215
370
     9
100
AcDbVertex
100
AcDb2dVertex
 10
99.04719163976229
 20
-128.3973174679007
 30
0.0
  0
SEQEND
  5
1B9
330
1B6
100
AcDbEntity
  8
_U+30EC_U+30A4_U+30E4_U+30FC 1
 62
     7
420
 16777215
370
     9
  0
SPLINE
  5
1BA
330
1F
100
AcDbEntity
  8
_U+30EC_U+30A4_U+30E4_U+30FC 1
 62
     7
420
 16777215
370
     9
100
AcDbSpline
210
0.0
220
0.0
230
1.0
 70
     8
 71
     3
 72
    11
 73
     7
 74
     0
 42
0.0000000001
 43
0.0000000001
 12
1.0
 22
0.0
 32
0.0
 13
1.0
 23
0.0
 33
0.0
 40
0.0
 40
0.0
 40
0.0
 40
0.0
 40
1.0
 40
1.0
 40
1.0
 40
2.0
 40
2.0
 40
2.0
 40
2.0
 10
98.60621942879021
 20
-126.4460330239439
 30
0.0
 10
98.60621942879021
 20
-126.2878827462057
 30
0.0
 10
98.70475275310147
 20
-126.1594010795712
 30
0.0
 10
98.82670553427624
 20
-126.1594010795712
 30
0.0
 10
98.94795525340513
 20
-126.1594010795712
 30
0.0
 10
99.04719163976229
 20
-126.2878827462057
 30
0.0
 10
99.04719163976229
 20
-126.4460330239439
 30
0.0
  0
SPLINE
  5
1BB
330
1F
100
AcDbEntity
  8
_U+30EC_U+30A4_U+30E4_U+30FC 1
 62
     7
420
 16777215
370
     9
100
AcDbSpline
210
0.0
220
0.0
230
1.0
 70
     8
 71
     3
 72
    11
 73
     7
 74
     0
 42
0.0000000001
 43
0.0000000001
 12
1.0
 22
0.0
 32
0.0
 13
1.0
 23
0.0
 33
0.0
 40
0.0
 40
0.0
 40
0.0
 40
0.0
 40
1.0
 40
1.0
 40
1.0
 40
2.0
 40
2.0
 40
2.0
 40
2.0
 10
99.04719163976229
 20
-128.3973174679007
 30
0.0
 10
99.04719163976229
 20
-128.5558205234167
 30
0.0
 10
98.94795525340513
 20
-128.6839494122735
 30
0.0
 10
98.82670553427624
 20
-128.6839494122735
 30
0.0
 10
98.70475275310147
 20
-128.6839494122735
 30
0.0
 10
98.60621942879021
 20
-128.5558205234167
 30
0.0
 10
98.60621942879021
 20
-128.3973174679007
 30
0.0
  0
POLYLINE
  5
1BC
330
1F
100
AcDbEntity
  8
_U+30EC_U+30A4_U+30E4_U+30FC 1
 62
     7
420
 16777215
370
     9
100
AcDb2dPolyline
 66
     1
 10
0.0
 20
0.0
 30
0.0
  0
VERTEX
  5
1BD
330
1BC
100
AcDbEntity
  8
_U+30EC_U+30A4_U+30E4_U+30FC 1
 62
     7
420
 16777215
370
     9
100
AcDbVertex
100
AcDb2dVertex
 10
102.192558226184
 20
-128.3973174679007
 30
0.0
  0
VERTEX
  5
1BE
330
1BC
100
AcDbEntity
  8
_U+30EC_U+30A4_U+30E4_U+30FC 1
 62
     7
420
 16777215
370
     9
100
AcDbVertex
100
AcDb2dVertex
 10
102.192558226184
 20
-126.457039690608
 30
0.0
  0
SEQEND
  5
1BF
330
1BC
100
AcDbEntity
  8
_U+30EC_U+30A4_U+30E4_U+30FC 1
 62
     7
420
 16777215
370
     9
  0
POLYLINE
  5
1C0
330
1F
100
AcDbEntity
  8
_U+30EC_U+30A4_U+30E4_U+30FC 1
 62
     7
420
 16777215
370
     9
100
AcDb2dPolyline
 66
     1
 10
0.0
 20
0.0
 30
0.0
  0
VERTEX
  5
1C1
330
1C0
100
AcDbEntity
  8
_U+30EC_U+30A4_U+30E4_U+30FC 1
 62
     7
420
 16777215
370
     9
100
AcDbVertex
100
AcDb2dVertex
 10
102.6335304371561
 20
-126.457039690608
 30
0.0
  0
VERTEX
  5
1C2
330
1C0
100
AcDbEntity
  8
_U+30EC_U+30A4_U+30E4_U+30FC 1
 62
     7
420
 16777215
370
     9
100
AcDbVertex
100
AcDb2dVertex
 10
102.6335304371561
 20
-128.3973174679007
 30
0.0
  0
SEQEND
  5
1C3
330
1C0
100
AcDbEntity
  8
_U+30EC_U+30A4_U+30E4_U+30FC 1
 62
     7
420
 16777215
370
     9
  0
SPLINE
  5
1C4
330
1F
100
AcDbEntity
  8
_U+30EC_U+30A4_U+30E4_U+30FC 1
 62
     7
420
 16777215
370
     9
100
AcDbSpline
210
0.0
220
0.0
230
1.0
 70
     8
 71
     3
 72
    11
 73
     7
 74
     0
 42
0.0000000001
 43
0.0000000001
 12
1.0
 22
0.0
 32
0.0
 13
1.0
 23
0.0
 33
0.0
 40
0.0
 40
0.0
 40
0.0
 40
0.0
 40
1.0
 40
1.0
 40
1.0
 40
2.0
 40
2.0
 40
2.0
 40
2.0
 10
102.192558226184
 20
-126.4460330239439
 30
0.0
 10
102.192558226184
 20
-126.2878827462057
 30
0.0
 10
102.2910916410942
 20
-126.1594010795712
 30
0.0
 10
102.41304433167
 20
-126.1594010795712
 30
0.0
 10
102.5349996063365
 20
-126.1594010795712
 30
0.0
 10
102.6335304371561
 20
-126.2878827462057
 30
0.0
 10
102.6335304371561
 20
-126.4460330239439
 30
0.0
  0
SPLINE
  5
1C5
330
1F
100
AcDbEntity
  8
_U+30EC_U+30A4_U+30E4_U+30FC 1
 62
     7
420
 16777215
370
     9
100
AcDbSpline
210
0.0
220
0.0
230
1.0
 70
     8
 71
     3
 72
    11
 73
     7
 74
     0
 42
0.0000000001
 43
0.0000000001
 12
1.0
 22
0.0
 32
0.0
 13
1.0
 23
0.0
 33
0.0
 40
0.0
 40
0.0
 40
0.0
 40
0.0
 40
1.0
 40
1.0
 40
1.0
 40
2.0
 40
2.0
 40
2.0
 40
2.0
 10
102.6335304371561
 20
-128.3973174679007
 30
0.0
 10
102.6335304371561
 20
-128.5558205234167
 30
0.0
 10
102.5349996063365
 20
-128.6839494122735
 30
0.0
 10
102.41304433167
 20
-128.6839494122735
 30
0.0
 10
102.2910916410942
 20
-128.6839494122735
 30
0.0
 10
102.192558226184
 20
-128.5558205234167
 30
0.0
 10
102.192558226184
 20
-128.3973174679007
 30
0.0
  0
POLYLINE
  5
1C6
330
1F
100
AcDbEntity
  8
_U+30EC_U+30A4_U+30E4_U+30FC 1
 62
     7
420
 16777215
370
     9
100
AcDb2dPolyline
 66
     1
 10
0.0
 20
0.0
 30
0.0
  0
VERTEX
  5
1C7
330
1C6
100
AcDbEntity
  8
_U+30EC_U+30A4_U+30E4_U+30FC 1
 62
     7
420
 16777215
370
     9
100
AcDbVertex
100
AcDb2dVertex
 10
75.96212000648931
 20
-128.3973174679007
 30
0.0
  0
VERTEX
  5
1C8
330
1C6
100
AcDbEntity
  8
_U+30EC_U+30A4_U+30E4_U+30FC 1
 62
     7
420
 16777215
370
     9
100
AcDbVertex
100
AcDb2dVertex
 10
75.96212000648931
 20
-126.457039690608
 30
0.0
  0
SEQEND
  5
1C9
330
1C6
100
AcDbEntity
  8
_U+30EC_U+30A4_U+30E4_U+30FC 1
 62
     7
420
 16777215
370
     9
  0
POLYLINE
  5
1CA
330
1F
100
AcDbEntity
  8
_U+30EC_U+30A4_U+30E4_U+30FC 1
 62
     7
420
 16777215
370
     9
100
AcDb2dPolyline
 66
     1
 10
0.0
 20
0.0
 30
0.0
  0
VERTEX
  5
1CB
330
1CA
100
AcDbEntity
  8
_U+30EC_U+30A4_U+30E4_U+30FC 1
 62
     7
420
 16777215
370
     9
100
AcDbVertex
100
AcDb2dVertex
 10
76.40309221746139
 20
-126.457039690608
 30
0.0
  0
VERTEX
  5
1CC
330
1CA
100
AcDbEntity
  8
_U+30EC_U+30A4_U+30E4_U+30FC 1
 62
     7
420
 16777215
370
     9
100
AcDbVertex
100
AcDb2dVertex
 10
76.40309221746139
 20
-128.3973174679007
 30
0.0
  0
SEQEND
  5
1CD
330
1CA
100
AcDbEntity
  8
_U+30EC_U+30A4_U+30E4_U+30FC 1
 62
     7
420
 16777215
370
     9
  0
SPLINE
  5
1CE
330
1F
100
AcDbEntity
  8
_U+30EC_U+30A4_U+30E4_U+30FC 1
 62
     7
420
 16777215
370
     9
100
AcDbSpline
210
0.0
220
0.0
230
1.0
 70
     8
 71
     3
 72
    11
 73
     7
 74
     0
 42
0.0000000001
 43
0.0000000001
 12
1.0
 22
0.0
 32
0.0
 13
1.0
 23
0.0
 33
0.0
 40
0.0
 40
0.0
 40
0.0
 40
0.0
 40
1.0
 40
1.0
 40
1.0
 40
2.0
 40
2.0
 40
2.0
 40
2.0
 10
75.96212000648931
 20
-126.4460330239439
 30
0.0
 10
75.96212000648931
 20
-126.2878827462057
 30
0.0
 10
76.06065275876246
 20
-126.1594010795712
 30
0.0
 10
76.18260611197535
 20
-126.1594010795712
 30
0.0
 10
76.3045613866418
 20
-126.1594010795712
 30
0.0
 10
76.40309221746139
 20
-126.2878827462057
 30
0.0
 10
76.40309221746139
 20
-126.4460330239439
 30
0.0
  0
SPLINE
  5
1CF
330
1F
100
AcDbEntity
  8
_U+30EC_U+30A4_U+30E4_U+30FC 1
 62
     7
420
 16777215
370
     9
100
AcDbSpline
210
0.0
220
0.0
230
1.0
 70
     8
 71
     3
 72
    11
 73
     7
 74
     0
 42
0.0000000001
 43
0.0000000001
 12
1.0
 22
0.0
 32
0.0
 13
1.0
 23
0.0
 33
0.0
 40
0.0
 40
0.0
 40
0.0
 40
0.0
 40
1.0
 40
1.0
 40
1.0
 40
2.0
 40
2.0
 40
2.0
 40
2.0
 10
76.40309221746139
 20
-128.3973174679007
 30
0.0
 10
76.40309221746139
 20
-128.5558205234167
 30
0.0
 10
76.3045613866418
 20
-128.6839494122735
 30
0.0
 10
76.18260611197535
 20
-128.6839494122735
 30
0.0
 10
76.06065275876246
 20
-128.6839494122735
 30
0.0
 10
75.96212000648931
 20
-128.5558205234167
 30
0.0
 10
75.96212000648931
 20
-128.3973174679007
 30
0.0
  0
SPLINE
  5
1D0
330
1F
100
AcDbEntity
  8
_U+30EC_U+30A4_U+30E4_U+30FC 1
 62
     7
420
 16777215
370
     9
100
AcDbSpline
210
0.0
220
0.0
230
1.0
 70
     8
 71
     3
 72
    41
 73
    37
 74
     0
 42
0.0000000001
 43
0.0000000001
 12
1.0
 22
0.0
 32
0.0
 13
1.0
 23
0.0
 33
0.0
 40
0.0
 40
0.0
 40
0.0
 40
0.0
 40
1.0
 40
1.0
 40
1.0
 40
2.0
 40
2.0
 40
2.0
 40
3.0
 40
3.0
 40
3.0
 40
4.0
 40
4.0
 40
4.0
 40
5.0
 40
5.0
 40
5.0
 40
6.0
 40
6.0
 40
6.0
 40
7.0
 40
7.0
 40
7.0
 40
8.0
 40
8.0
 40
8.0
 40
9.0
 40
9.0
 40
9.0
 40
10.0
 40
10.0
 40
10.0
 40
11.0
 40
11.0
 40
11.0
 40
12.0
 40
12.0
 40
12.0
 40
12.0
 10
77.12311164353662
 20
-129.19142024548
 30
0.0
 10
77.12311164353662
 20
-129.19142024548
 30
0.0
 10
77.12311164353662
 20
-130.5436174673644
 30
0.0
 10
77.12311164353662
 20
-130.5436174673644
 30
0.0
 10
77.12311164353662
 20
-130.5436174673644
 30
0.0
 10
75.47705057442002
 20
-133.5422285777258
 30
0.0
 10
75.35922279964828
 20
-135.0415341329066
 30
0.0
 10
75.35922279964828
 20
-135.0415341329066
 30
0.0
 10
75.1535533604509
 20
-137.7166480211262
 30
0.0
 10
77.5640838545087
 20
-138.5985924653502
 30
0.0
 10
77.5640838545087
 20
-138.5985924653502
 30
0.0
 10
80.68052266389061
 20
-139.4512563540264
 30
0.0
 10
81.85668374499535
 20
-136.8054230213545
 30
0.0
 10
81.85668374499535
 20
-136.8054230213545
 30
0.0
 10
83.2381614875287
 20
-133.7478980221184
 30
0.0
 10
83.2381614875287
 20
-133.7478980221184
 30
0.0
 10
83.2381614875287
 20
-133.7478980221184
 30
0.0
 10
83.29672259714579
 20
-133.1009035778361
 30
0.0
 10
82.88538371875103
 20
-132.8659535778945
 30
0.0
 10
82.88538371875103
 20
-132.8659535778945
 30
0.0
 10
82.15054762638715
 20
-132.5724424668566
 30
0.0
 10
81.68029486060652
 20
-133.1601702444878
 30
0.0
 10
81.68029486060652
 20
-133.1601702444878
 30
0.0
 10
80.68052266389061
 20
-135.2768369106253
 30
0.0
 10
80.68052266389061
 20
-135.2768369106253
 30
0.0
 10
80.68052266389061
 20
-135.2768369106253
 30
0.0
 10
79.94533379375795
 20
-137.7462813544524
 30
0.0
 10
77.91686162328637
 20
-136.8054230213545
 30
0.0
 10
77.91686162328637
 20
-136.8054230213545
 30
0.0
 10
76.41755610598128
 20
-136.2759035770424
 30
0.0
 10
77.38769497011987
 20
-134.100675799808
 30
0.0
 10
77.38769497011987
 20
-134.100675799808
 30
0.0
 10
78.76987826819077
 20
-131.1609785783211
 30
0.0
 10
78.85807271038517
 20
-130.8082008006316
 30
0.0
 10
78.85807271038517
 20
-130.8082008006316
 30
0.0
 10
78.85807271038517
 20
-129.19142024548
 30
0.0
 10
78.85807271038517
 20
-129.19142024548
 30
0.0
  0
SPLINE
  5
1D1
330
1F
100
AcDbEntity
  8
_U+30EC_U+30A4_U+30E4_U+30FC 1
  6
AI-Linetype-1
 62
     7
420
 16777215
370
     9
100
AcDbSpline
210
0.0
220
0.0
230
1.0
 70
    11
 71
     3
 72
    17
 73
    13
 74
     0
 42
0.0000000001
 43
0.0000000001
 12
1.0
 22
0.0
 32
0.0
 13
1.0
 23
0.0
 33
0.0
 40
0.0
 40
0.0
 40
0.0
 40
0.0
 40
1.0
 40
1.0
 40
1.0
 40
2.0
 40
2.0
 40
2.0
 40
3.0
 40
3.0
 40
3.0
 40
4.0
 40
4.0
 40
4.0
 40
4.0
 10
79.12265603696844
 20
-131.3373674671659
 30
0.0
 10
79.12265603696844
 20
-130.4606088562739
 30
0.0
 10
79.83300935217915
 20
-129.7498674675628
 30
0.0
 10
80.71015599646793
 20
-129.7498674675628
 30
0.0
 10
81.58656386849233
 20
-129.7498674675628
 30
0.0
 10
82.29765595596743
 20
-130.4606088562739
 30
0.0
 10
82.29765595596743
 20
-131.3373674671659
 30
0.0
 10
82.29765595596743
 20
-132.2141613558355
 30
0.0
 10
81.58656386849233
 20
-132.9248674667691
 30
0.0
 10
80.71015599646793
 20
-132.9248674667691
 30
0.0
 10
79.83300935217915
 20
-132.9248674667691
 30
0.0
 10
79.12265603696844
 20
-132.2141613558355
 30
0.0
 10
79.12265603696844
 20
-131.3373674671659
 30
0.0
  0
POLYLINE
  5
1D3
330
1F
100
AcDbEntity
  8
_U+30EC_U+30A4_U+30E4_U+30FC 1
 62
     7
420
 16777215
370
     9
100
AcDb2dPolyline
 66
     1
 10
0.0
 20
0.0
 30
0.0
  0
VERTEX
  5
1D4
330
1D3
100
AcDbEntity
  8
_U+30EC_U+30A4_U+30E4_U+30FC 1
 62
     7
420
 16777215
370
     9
100
AcDbVertex
100
AcDb2dVertex
 10
103.9340456817549
 20
-121.9298424695177
 30
0.0
  0
VERTEX
  5
1D5
330
1D3
100
AcDbEntity
  8
_U+30EC_U+30A4_U+30E4_U+30FC 1
 62
     7
420
 16777215
370
     9
100
AcDbVertex
100
AcDb2dVertex
 10
97.3790819600971
 20
-121.9298424695177
 30
0.0
  0
VERTEX
  5
1D6
330
1D3
100
AcDbEntity
  8
_U+30EC_U+30A4_U+30E4_U+30FC 1
 62
     7
420
 16777215
370
     9
100
AcDbVertex
100
AcDb2dVertex
 10
97.3790819600971
 20
-120.4012563587885
 30
0.0
  0
VERTEX
  5
1D7
330
1D3
100
AcDbEntity
  8
_U+30EC_U+30A4_U+30E4_U+30FC 1
 62
     7
420
 16777215
370
     9
100
AcDbVertex
100
AcDb2dVertex
 10
103.9340456817549
 20
-120.4012563587885
 30
0.0
  0
VERTEX
  5
1D8
330
1D3
100
AcDbEntity
  8
_U+30EC_U+30A4_U+30E4_U+30FC 1
 62
     7
420
 16777215
370
     9
100
AcDbVertex
100
AcDb2dVertex
 10
103.9340456817549
 20
-121.9298424695177
 30
0.0
  0
SEQEND
  5
1D9
330
1D3
100
AcDbEntity
  8
_U+30EC_U+30A4_U+30E4_U+30FC 1
 62
     7
420
 16777215
370
     9
  0
SPLINE
  5
1DA
330
1F
100
AcDbEntity
  8
_U+30EC_U+30A4_U+30E4_U+30FC 1
 62
     7
420
 16777215
370
     9
100
AcDbSpline
210
0.0
220
0.0
230
1.0
 70
     8
 71
     3
 72
    14
 73
    10
 74
     0
 42
0.0000000001
 43
0.0000000001
 12
1.0
 22
0.0
 32
0.0
 13
1.0
 23
0.0
 33
0.0
 40
0.0
 40
0.0
 40
0.0
 40
0.0
 40
1.0
 40
1.0
 40
1.0
 40
2.0
 40
2.0
 40
2.0
 40
3.0
 40
3.0
 40
3.0
 40
3.0
 10
98.90731525444194
 20
-121.9005619139693
 30
0.0
 10
98.90731525444194
 20
-121.9005619139693
 30
0.0
 10
98.90731525444194
 20
-118.1374813593547
 30
0.0
 10
98.90731525444194
 20
-118.1374813593547
 30
0.0
 10
98.90731525444194
 20
-118.1374813593547
 30
0.0
 10
101.0536151996853
 20
-117.4615591373014
 30
0.0
 10
102.4061651651788
 20
-118.1963952482286
 30
0.0
 10
102.4061651651788
 20
-118.1963952482286
 30
0.0
 10
102.4061651651788
 20
-121.9298424695177
 30
0.0
 10
102.4061651651788
 20
-121.9298424695177
 30
0.0
  0
POLYLINE
  5
1DB
330
1F
100
AcDbEntity
  8
_U+30EC_U+30A4_U+30E4_U+30FC 1
 62
     7
420
 16777215
370
     9
100
AcDb2dPolyline
 66
     1
 10
0.0
 20
0.0
 30
0.0
  0
VERTEX
  5
1DC
330
1DB
100
AcDbEntity
  8
_U+30EC_U+30A4_U+30E4_U+30FC 1
 62
     7
420
 16777215
370
     9
100
AcDbVertex
100
AcDb2dVertex
 10
98.87838747740217
 20
-118.6080869147925
 30
0.0
  0
VERTEX
  5
1DD
330
1DB
100
AcDbEntity
  8
_U+30EC_U+30A4_U+30E4_U+30FC 1
 62
     7
420
 16777215
370
     9
100
AcDbVertex
100
AcDb2dVertex
 10
102.3468985000242
 20
-118.6080869147925
 30
0.0
  0
SEQEND
  5
1DE
330
1DB
100
AcDbEntity
  8
_U+30EC_U+30A4_U+30E4_U+30FC 1
 62
     7
420
 16777215
370
     9
  0
POLYLINE
  5
1DF
330
1F
100
AcDbEntity
  8
_U+30EC_U+30A4_U+30E4_U+30FC 1
 62
     7
420
 16777215
370
     9
100
AcDb2dPolyline
 66
     1
 10
0.0
 20
0.0
 30
0.0
  0
VERTEX
  5
1E0
330
1DF
100
AcDbEntity
  8
_U+30EC_U+30A4_U+30E4_U+30FC 1
 62
     7
420
 16777215
370
     9
100
AcDbVertex
100
AcDb2dVertex
 10
98.90731525444194
 20
-119.8131758033802
 30
0.0
  0
VERTEX
  5
1E1
330
1DF
100
AcDbEntity
  8
_U+30EC_U+30A4_U+30E4_U+30FC 1
 62
     7
420
 16777215
370
     9
100
AcDbVertex
100
AcDb2dVertex
 10
102.4061651651788
 20
-119.8131758033802
 30
0.0
  0
SEQEND
  5
1E2
330
1DF
100
AcDbEntity
  8
_U+30EC_U+30A4_U+30E4_U+30FC 1
 62
     7
420
 16777215
370
     9
  0
SPLINE
  5
1E3
330
1F
100
AcDbEntity
  8
_U+30EC_U+30A4_U+30E4_U+30FC 1
 62
     7
420
 16777215
370
     9
100
AcDbSpline
210
0.0
220
0.0
230
1.0
 70
     8
 71
     3
 72
     8
 73
     4
 74
     0
 42
0.0000000001
 43
0.0000000001
 12
1.0
 22
0.0
 32
0.0
 13
1.0
 23
0.0
 33
0.0
 40
0.0
 40
0.0
 40
0.0
 40
0.0
 40
1.0
 40
1.0
 40
1.0
 40
1.0
 10
99.20153191360252
 20
-119.8131758033802
 30
0.0
 10
99.20153191360252
 20
-119.8131758033802
 30
0.0
 10
99.12780135992799
 20
-120.2982452477034
 30
0.0
 10
99.34828746541403
 20
-120.3716230254627
 30
0.0
  0
SPLINE
  5
1E4
330
1F
100
AcDbEntity
  8
_U+30EC_U+30A4_U+30E4_U+30FC 1
 62
     7
420
 16777215
370
     9
100
AcDbSpline
210
0.0
220
0.0
230
1.0
 70
     8
 71
     3
 72
     8
 73
     4
 74
     0
 42
0.0000000001
 43
0.0000000001
 12
1.0
 22
0.0
 32
0.0
 13
1.0
 23
0.0
 33
0.0
 40
0.0
 40
0.0
 40
0.0
 40
0.0
 40
1.0
 40
1.0
 40
1.0
 40
1.0
 10
102.0561416411525
 20
-119.8131758033802
 30
0.0
 10
102.0561416411525
 20
-119.8131758033802
 30
0.0
 10
102.1298721966899
 20
-120.2982452477034
 30
0.0
 10
101.9093860856339
 20
-120.3716230254627
 30
0.0
  0
POLYLINE
  5
1E5
330
1F
100
AcDbEntity
  8
_U+30EC_U+30A4_U+30E4_U+30FC 1
 62
     7
420
 16777215
370
     9
100
AcDb2dPolyline
 66
     1
 10
0.0
 20
0.0
 30
0.0
  0
VERTEX
  5
1E6
330
1E5
100
AcDbEntity
  8
_U+30EC_U+30A4_U+30E4_U+30FC 1
 62
     7
420
 16777215
370
     9
100
AcDbVertex
100
AcDb2dVertex
 10
103.1847457008712
 20
-129.3526396898843
 30
0.0
  0
VERTEX
  5
1E7
330
1E5
100
AcDbEntity
  8
_U+30EC_U+30A4_U+30E4_U+30FC 1
 62
     7
420
 16777215
370
     9
100
AcDbVertex
100
AcDb2dVertex
 10
98.14319860726951
 20
-129.3526396898843
 30
0.0
  0
VERTEX
  5
1E8
330
1E5
100
AcDbEntity
  8
_U+30EC_U+30A4_U+30E4_U+30FC 1
 62
     7
420
 16777215
370
     9
100
AcDbVertex
100
AcDb2dVertex
 10
98.14319860726951
 20
-121.9298424695177
 30
0.0
  0
VERTEX
  5
1E9
330
1E5
100
AcDbEntity
  8
_U+30EC_U+30A4_U+30E4_U+30FC 1
 62
     7
420
 16777215
370
     9
100
AcDbVertex
100
AcDb2dVertex
 10
103.1847457008712
 20
-121.9298424695177
 30
0.0
  0
VERTEX
  5
1EA
330
1E5
100
AcDbEntity
  8
_U+30EC_U+30A4_U+30E4_U+30FC 1
 62
     7
420
 16777215
370
     9
100
AcDbVertex
100
AcDb2dVertex
 10
103.1847457008712
 20
-129.3526396898843
 30
0.0
  0
SEQEND
  5
1EB
330
1E5
100
AcDbEntity
  8
_U+30EC_U+30A4_U+30E4_U+30FC 1
 62
     7
420
 16777215
370
     9
  0
POLYLINE
  5
1EC
330
1F
100
AcDbEntity
  8
_U+30EC_U+30A4_U+30E4_U+30FC 1
 62
     7
420
 16777215
370
     9
100
AcDb2dPolyline
 66
     1
 10
0.0
 20
0.0
 30
0.0
  0
VERTEX
  5
1ED
330
1EC
100
AcDbEntity
  8
_U+30EC_U+30A4_U+30E4_U+30FC 1
 62
     7
420
 16777215
370
     9
100
AcDbVertex
100
AcDb2dVertex
 10
99.77479578786622
 20
-137.9515980210679
 30
0.0
  0
VERTEX
  5
1FD
330
1EC
100
AcDbEntity
  8
0
100
AcDbVertex
100
AcDb2dVertex
 10
99.77479578786622
 20
-137.9515980210679
 30
0.0
  0
SEQEND
  5
1EE
330
1EC
100
AcDbEntity
  8
_U+30EC_U+30A4_U+30E4_U+30FC 1
 62
     7
420
 16777215
370
     9
  0
SPLINE
  5
1EF
330
1F
100
AcDbEntity
  8
_U+30EC_U+30A4_U+30E4_U+30FC 1
 62
     7
420
 16777215
370
     9
100
AcDbSpline
210
0.0
220
0.0
230
1.0
 70
     8
 71
     3
 72
    14
 73
    10
 74
     0
 42
0.0000000001
 43
0.0000000001
 12
1.0
 22
0.0
 32
0.0
 13
1.0
 23
0.0
 33
0.0
 40
0.0
 40
0.0
 40
0.0
 40
0.0
 40
1.0
 40
1.0
 40
1.0
 40
2.0
 40
2.0
 40
2.0
 40
3.0
 40
3.0
 40
3.0
 40
3.0
 10
75.67548806935746
 20
-119.8645049700339
 30
0.0
 10
75.67548806935746
 20
-119.8645049700339
 30
0.0
 10
75.67548806935746
 20
-118.5415883036979
 30
0.0
 10
75.67548806935746
 20
-118.5415883036979
 30
0.0
 10
75.67548806935746
 20
-118.5415883036979
 30
0.0
 10
77.72600885037765
 20
-117.32891469289
 30
0.0
 10
80.17340462127271
 20
-118.5856855259092
 30
0.0
 10
80.17340462127271
 20
-118.5856855259092
 30
0.0
 10
80.17340462127271
 20
-119.8424563589283
 30
0.0
 10
80.17340462127271
 20
-119.8424563589283
 30
0.0
  0
SPLINE
  5
1F0
330
1F
100
AcDbEntity
  8
_U+30EC_U+30A4_U+30E4_U+30FC 1
 62
     7
420
 16777215
370
     9
100
AcDbSpline
210
0.0
220
0.0
230
1.0
 70
     8
 71
     3
 72
     8
 73
     4
 74
     0
 42
0.0000000001
 43
0.0000000001
 12
1.0
 22
0.0
 32
0.0
 13
1.0
 23
0.0
 33
0.0
 40
0.0
 40
0.0
 40
0.0
 40
0.0
 40
1.0
 40
1.0
 40
1.0
 40
1.0
 10
75.30066169003119
 20
-118.4092966370644
 30
0.0
 10
75.30066169003119
 20
-118.4092966370644
 30
0.0
 10
75.366807521677
 20
-118.3541927481891
 30
0.0
 10
75.65343945880885
 20
-118.5526302481395
 30
0.0
  0
POLYLINE
  5
1F1
330
1F
100
AcDbEntity
  8
_U+30EC_U+30A4_U+30E4_U+30FC 1
 62
     7
420
 16777215
370
     9
100
AcDb2dPolyline
 66
     1
 10
0.0
 20
0.0
 30
0.0
  0
VERTEX
  5
1F2
330
1F1
100
AcDbEntity
  8
_U+30EC_U+30A4_U+30E4_U+30FC 1
 62
     7
420
 16777215
370
     9
100
AcDbVertex
100
AcDb2dVertex
 10
77.83625190312067
 20
-117.7478383038964
 30
0.0
  0
VERTEX
  5
1F3
330
1F1
100
AcDbEntity
  8
_U+30EC_U+30A4_U+30E4_U+30FC 1
 62
     7
420
 16777215
370
     9
100
AcDbVertex
100
AcDb2dVertex
 10
77.83625190312067
 20
-118.0124216371636
 30
0.0
  0
SEQEND
  5
1F4
330
1F1
100
AcDbEntity
  8
_U+30EC_U+30A4_U+30E4_U+30FC 1
 62
     7
420
 16777215
370
     9
  0
POLYLINE
  5
1F5
330
1F
100
AcDbEntity
  8
_U+30EC_U+30A4_U+30E4_U+30FC 1
 62
     7
420
 16777215
370
     9
100
AcDb2dPolyline
 66
     1
 10
0.0
 20
0.0
 30
0.0
  0
VERTEX
  5
1F6
330
1F5
100
AcDbEntity
  8
_U+30EC_U+30A4_U+30E4_U+30FC 1
 62
     7
420
 16777215
370
     9
100
AcDbVertex
100
AcDb2dVertex
 10
76.42514082801
 20
-117.9021785816356
 30
0.0
  0
VERTEX
  5
1F7
330
1F5
100
AcDbEntity
  8
_U+30EC_U+30A4_U+30E4_U+30FC 1
 62
     7
420
 16777215
370
     9
100
AcDbVertex
100
AcDb2dVertex
 10
76.42514082801
 20
-118.210859137114
 30
0.0
  0
SEQEND
  5
1F8
330
1F5
100
AcDbEntity
  8
_U+30EC_U+30A4_U+30E4_U+30FC 1
 62
     7
420
 16777215
370
     9
  0
SPLINE
  5
1F9
330
1F
100
AcDbEntity
  8
_U+30EC_U+30A4_U+30E4_U+30FC 1
 62
     7
420
 16777215
370
     9
100
AcDbSpline
210
0.0
220
0.0
230
1.0
 70
     8
 71
     3
 72
     8
 73
     4
 74
     0
 42
0.0000000001
 43
0.0000000001
 12
1.0
 22
0.0
 32
0.0
 13
1.0
 23
0.0
 33
0.0
 40
0.0
 40
0.0
 40
0.0
 40
0.0
 40
1.0
 40
1.0
 40
1.0
 40
1.0
 10
80.43798794785596
 20
-118.4644358037171
 30
0.0
 10
80.43798794785596
 20
-118.4644358037171
 30
0.0
 10
80.23955045291852
 20
-118.4864844148227
 30
0.0
 10
80.19545323182132
 20
-118.7069705258787
 30
0.0
  0
SPLINE
  5
1FA
330
1F
100
AcDbEntity
  8
_U+30EC_U+30A4_U+30E4_U+30FC 1
  6
AI-Linetype-2
 62
     7
420
 16777215
370
     9
100
AcDbSpline
210
0.0
220
0.0
230
1.0
 70
     8
 71
     3
 72
    11
 73
     7
 74
     0
 42
0.0000000001
 43
0.0000000001
 12
1.0
 22
0.0
 32
0.0
 13
1.0
 23
0.0
 33
0.0
 40
0.0
 40
0.0
 40
0.0
 40
0.0
 40
1.0
 40
1.0
 40
1.0
 40
2.0
 40
2.0
 40
2.0
 40
2.0
 10
99.77479578786622
 20
-137.8923666321936
 30
0.0
 10
99.77479578786622
 20
-137.4172807989791
 30
0.0
 10
100.159961086071
 20
-137.0324707990753
 30
0.0
 10
100.6346915992618
 20
-137.0324707990753
 30
0.0
 10
101.1094246427059
 20
-137.0324707990753
 30
0.0
 10
101.4945874106574
 20
-137.4172807989791
 30
0.0
 10
101.4945874106574
 20
-137.8923666321936
 30
0.0
  0
SPLINE
  5
1FC
330
1F
100
AcDbEntity
  8
_U+30EC_U+30A4_U+30E4_U+30FC 1
 62
     7
420
 16777215
370
     9
100
AcDbSpline
210
0.0
220
0.0
230
1.0
 70
     8
 71
     3
 72
    11
 73
     7
 74
     0
 42
0.0000000001
 43
0.0000000001
 12
1.0
 22
0.0
 32
0.0
 13
1.0
 23
0.0
 33
0.0
 40
0.0
 40
0.0
 40
0.0
 40
0.0
 40
1.0
 40
1.0
 40
1.0
 40
2.0
 40
2.0
 40
2.0
 40
2.0
 10
99.73069856676902
 20
-133.8064591332153
 30
0.0
 10
99.73069856676902
 20
-133.3035038555633
 30
0.0
 10
100.1385802230298
 20
-132.8952341334429
 30
0.0
 10
100.6422763212905
 20
-132.8952341334429
 30
0.0
 10
101.1452315862368
 20
-132.8952341334429
 30
0.0
 10
101.5531485202744
 20
-133.3035038555633
 30
0.0
 10
101.5531485202744
 20
-133.8064591332153
 30
0.0
  0
ENDSEC
  0
SECTION
  2
OBJECTS
  0
DICTIONARY
  5
C
330
0
100
AcDbDictionary
281
     1
  3
ACAD_GROUP
350
D
  3
ACAD_LAYOUT
350
1A
  3
ACAD_MATERIAL
350
3B
  3
ACAD_MLEADERSTYLE
350
1FF
  3
ACAD_MLINESTYLE
350
17
  3
ACAD_PLOTSETTINGS
350
19
  3
ACAD_PLOTSTYLENAME
350
E
  3
ACAD_TABLESTYLE
350
1FE
  3
ACAD_VISUALSTYLE
350
2A
  0
SUN
  5
3F
330
29
100
AcDbSun
 90
        1
290
     0
 63
     7
421
 16777215
 40
1.0
291
     1
 91
  2455826
 92
 54000000
292
     0
 70
     2
 71
   256
280
     1
  0
DICTIONARY
  5
D
102
{ACAD_REACTORS
330
C
102
}
330
C
100
AcDbDictionary
281
     1
  0
DICTIONARY
  5
1A
102
{ACAD_REACTORS
330
C
102
}
330
C
100
AcDbDictionary
281
     1
  3
Layout1
350
1E
  3
Layout2
350
26
  3
Model
350
22
  0
DICTIONARY
  5
3B
102
{ACAD_REACTORS
330
C
102
}
330
C
100
AcDbDictionary
281
     1
  3
ByBlock
350
3D
  3
ByLayer
350
3C
  3
Global
350
3E
  0
DICTIONARY
  5
1FF
102
{ACAD_REACTORS
330
C
102
}
330
C
100
AcDbDictionary
281
     1
  0
DICTIONARY
  5
17
102
{ACAD_REACTORS
330
C
102
}
330
C
100
AcDbDictionary
281
     1
  3
Standard
350
18
  0
DICTIONARY
  5
19
102
{ACAD_REACTORS
330
C
102
}
330
C
100
AcDbDictionary
281
     1
  0
ACDBDICTIONARYWDFLT
  5
E
102
{ACAD_REACTORS
330
C
102
}
330
C
100
AcDbDictionary
281
     1
  3
Normal
350
F
100
AcDbDictionaryWithDefault
340
F
  0
DICTIONARY
  5
1FE
102
{ACAD_REACTORS
330
C
102
}
330
C
100
AcDbDictionary
281
     1
  0
DICTIONARY
  5
2A
102
{ACAD_REACTORS
330
C
102
}
330
C
100
AcDbDictionary
281
     1
  3
2dWireframe
350
2F
  3
3D Hidden
350
31
  3
3dWireframe
350
30
  3
Basic
350
32
  3
Brighten
350
36
  3
ColorChange
350
3A
  3
Conceptual
350
34
  3
Dim
350
35
  3
Facepattern
350
39
  3
Flat
350
2B
  3
FlatWithEdges
350
2C
  3
Gouraud
350
2D
  3
GouraudWithEdges
350
2E
  3
Linepattern
350
38
  3
Realistic
350
33
  3
Thicken
350
37
  0
LAYOUT
  5
1E
102
{ACAD_REACTORS
330
1A
102
}
330
1A
100
AcDbPlotSettings
  1

  2
none_device
  4

  6

 40
0.0
 41
0.0
 42
0.0
 43
0.0
 44
0.0
 45
0.0
 46
0.0
 47
0.0
 48
0.0
 49
0.0
140
0.0
141
0.0
142
1.0
143
1.0
 70
   688
 72
     0
 73
     0
 74
     5
  7

 75
    16
 76
     0
 77
     2
 78
   300
147
1.0
148
0.0
149
0.0
100
AcDbLayout
  1
Layout1
 70
     1
 71
     1
 10
0.0
 20
0.0
 11
12.0
 21
9.0
 12
0.0
 22
0.0
 32
0.0
 14
1.000000000000000E+20
 24
1.000000000000000E+20
 34
1.000000000000000E+20
 15
-1.000000000000000E+20
 25
-1.000000000000000E+20
 35
-1.000000000000000E+20
146
0.0
 13
0.0
 23
0.0
 33
0.0
 16
1.0
 26
0.0
 36
0.0
 17
0.0
 27
1.0
 37
0.0
 76
     0
330
1B
  0
LAYOUT
  5
26
102
{ACAD_REACTORS
330
1A
102
}
330
1A
100
AcDbPlotSettings
  1

  2
none_device
  4

  6

 40
0.0
 41
0.0
 42
0.0
 43
0.0
 44
0.0
 45
0.0
 46
0.0
 47
0.0
 48
0.0
 49
0.0
140
0.0
141
0.0
142
1.0
143
1.0
 70
   688
 72
     0
 73
     0
 74
     5
  7

 75
    16
 76
     0
 77
     2
 78
   300
147
1.0
148
0.0
149
0.0
100
AcDbLayout
  1
Layout2
 70
     1
 71
     2
 10
0.0
 20
0.0
 11
0.0
 21
0.0
 12
0.0
 22
0.0
 32
0.0
 14
0.0
 24
0.0
 34
0.0
 15
0.0
 25
0.0
 35
0.0
146
0.0
 13
0.0
 23
0.0
 33
0.0
 16
1.0
 26
0.0
 36
0.0
 17
0.0
 27
1.0
 37
0.0
 76
     0
330
23
  0
LAYOUT
  5
22
102
{ACAD_REACTORS
330
1A
102
}
330
1A
100
AcDbPlotSettings
  1

  2
none_device
  4

  6

 40
0.0
 41
0.0
 42
0.0
 43
0.0
 44
0.0
 45
0.0
 46
0.0
 47
0.0
 48
0.0
 49
0.0
140
0.0
141
0.0
142
1.0
143
1.0
 70
  1712
 72
     0
 73
     0
 74
     0
  7

 75
     0
 76
     0
 77
     2
 78
   300
147
1.0
148
0.0
149
0.0
100
AcDbLayout
  1
Model
 70
     1
 71
     0
 10
0.0
 20
0.0
 11
12.0
 21
9.0
 12
0.0
 22
0.0
 32
0.0
 14
1.000000000000000E+20
 24
1.000000000000000E+20
 34
1.000000000000000E+20
 15
-1.000000000000000E+20
 25
-1.000000000000000E+20
 35
-1.000000000000000E+20
146
0.0
 13
0.0
 23
0.0
 33
0.0
 16
1.0
 26
0.0
 36
0.0
 17
0.0
 27
1.0
 37
0.0
 76
     0
330
1F
331
29
  0
MATERIAL
  5
3D
102
{ACAD_REACTORS
330
3B
102
}
330
3B
100
AcDbMaterial
  1
ByBlock
 72
     1
 94
      127
  0
MATERIAL
  5
3C
102
{ACAD_REACTORS
330
3B
102
}
330
3B
100
AcDbMaterial
  1
ByLayer
 72
     1
 94
      127
  0
MATERIAL
  5
3E
102
{ACAD_REACTORS
330
3B
102
}
330
3B
100
AcDbMaterial
  1
Global
 72
     1
 94
      127
  0
MLINESTYLE
  5
18
102
{ACAD_REACTORS
330
17
102
}
330
17
100
AcDbMlineStyle
  2
Standard
 70
     0
  3

 62
   256
 51
90.0
 52
90.0
 71
     2
 49
0.5
 62
   256
  6
BYLAYER
 49
-0.5
 62
   256
  6
BYLAYER
  0
ACDBPLACEHOLDER
  5
F
102
{ACAD_REACTORS
330
E
102
}
330
E
  0
VISUALSTYLE
  5
2F
102
{ACAD_REACTORS
330
2A
102
}
330
2A
100
AcDbVisualStyle
  2
2dWireframe
 70
     4
177
     2
291
     0
 71
     0
176
     1
 72
     2
176
     1
 73
     0
176
     1
 90
        0
176
     1
 40
-0.6
176
     1
 41
-30.0
176
     1
 62
     5
 63
     7
421
 16777215
176
     1
 74
     1
176
     1
 91
        4
176
     1
 64
     7
176
     1
 65
   257
176
     1
 75
     1
176
     1
175
     1
176
     1
 42
1.0
176
     1
 92
        0
176
     1
 66
   257
176
     1
 43
1.0
176
     1
 76
     1
176
     1
 77
     6
176
     1
 78
     2
176
     1
 67
     7
176
     1
 79
     5
176
     1
170
     0
176
     1
171
     0
176
     1
290
     0
176
     1
 93
        1
176
     1
 44
0.0
176
     1
173
     0
176
     1
  0
VISUALSTYLE
  5
31
102
{ACAD_REACTORS
330
2A
102
}
330
2A
100
AcDbVisualStyle
  2
3D Hidden
 70
     6
177
     2
291
     0
 71
     1
176
     1
 72
     2
176
     1
 73
     2
176
     1
 90
        0
176
     1
 40
-0.6
176
     1
 41
-30.0
176
     1
 62
     5
 63
     7
421
 16777215
176
     1
 74
     2
176
     1
 91
        2
176
     1
 64
     7
176
     1
 65
   257
176
     1
 75
     2
176
     1
175
     1
176
     1
 42
40.0
176
     1
 92
        0
176
     1
 66
   257
176
     1
 43
1.0
176
     1
 76
     1
176
     1
 77
     6
176
     1
 78
     2
176
     1
 67
     7
176
     1
 79
     3
176
     1
170
     0
176
     1
171
     0
176
     1
290
     0
176
     1
 93
        1
176
     1
 44
0.0
176
     1
173
     0
176
     1
  0
VISUALSTYLE
  5
30
102
{ACAD_REACTORS
330
2A
102
}
330
2A
100
AcDbVisualStyle
  2
3dWireframe
 70
     5
177
     2
291
     0
 71
     0
176
     1
 72
     2
176
     1
 73
     0
176
     1
 90
        0
176
     1
 40
-0.6
176
     1
 41
-30.0
176
     1
 62
     5
 63
     7
421
 16777215
176
     1
 74
     1
176
     1
 91
        4
176
     1
 64
     7
176
     1
 65
   257
176
     1
 75
     1
176
     1
175
     1
176
     1
 42
1.0
176
     1
 92
        0
176
     1
 66
   257
176
     1
 43
1.0
176
     1
 76
     1
176
     1
 77
     6
176
     1
 78
     2
176
     1
 67
     7
176
     1
 79
     5
176
     1
170
     0
176
     1
171
     0
176
     1
290
     0
176
     1
 93
        1
176
     1
 44
0.0
176
     1
173
     0
176
     1
  0
VISUALSTYLE
  5
32
102
{ACAD_REACTORS
330
2A
102
}
330
2A
100
AcDbVisualStyle
  2
Basic
 70
     7
177
     2
291
     1
 71
     1
176
     1
 72
     0
176
     1
 73
     1
176
     1
 90
        0
176
     1
 40
-0.6
176
     1
 41
-30.0
176
     1
 62
     5
 63
     7
421
 16777215
176
     1
 74
     0
176
     1
 91
        4
176
     1
 64
     7
176
     1
 65
   257
176
     1
 75
     1
176
     1
175
     1
176
     1
 42
1.0
176
     1
 92
        8
176
     1
 66
     7
176
     1
 43
1.0
176
     1
 76
     1
176
     1
 77
     6
176
     1
 78
     2
176
     1
 67
     7
176
     1
 79
     5
176
     1
170
     0
176
     1
171
     0
176
     1
290
     0
176
     1
 93
        1
176
     1
 44
0.0
176
     1
173
     0
176
     1
  0
VISUALSTYLE
  5
36
102
{ACAD_REACTORS
330
2A
102
}
330
2A
100
AcDbVisualStyle
  2
Brighten
 70
    12
177
     2
291
     1
 71
     2
176
     1
 72
     2
176
     1
 73
     0
176
     1
 90
        0
176
     1
 40
-0.6
176
     1
 41
-30.0
176
     1
 62
     5
 63
     7
421
 16777215
176
     1
 74
     1
176
     1
 91
        4
176
     1
 64
     7
176
     1
 65
   257
176
     1
 75
     1
176
     1
175
     1
176
     1
 42
1.0
176
     1
 92
        8
176
     1
 66
     7
176
     1
 43
1.0
176
     1
 76
     1
176
     1
 77
     6
176
     1
 78
     2
176
     1
 67
     7
176
     1
 79
     5
176
     1
170
     0
176
     1
171
     0
176
     1
290
     0
176
     1
 93
        1
176
     1
 44
50.0
176
     1
173
     0
176
     1
  0
VISUALSTYLE
  5
3A
102
{ACAD_REACTORS
330
2A
102
}
330
2A
100
AcDbVisualStyle
  2
ColorChange
 70
    16
177
     2
291
     1
 71
     2
176
     1
 72
     2
176
     1
 73
     3
176
     1
 90
        0
176
     1
 40
-0.6
176
     1
 41
-30.0
176
     1
 62
     5
 63
     8
421
  8421504
176
     1
 74
     1
176
     1
 91
        4
176
     1
 64
     7
176
     1
 65
   257
176
     1
 75
     1
176
     1
175
     1
176
     1
 42
1.0
176
     1
 92
        8
176
     1
 66
     8
424
  8421504
176
     1
 43
1.0
176
     1
 76
     1
176
     1
 77
     6
176
     1
 78
     2
176
     1
 67
     7
176
     1
 79
     5
176
     1
170
     0
176
     1
171
     0
176
     1
290
     0
176
     1
 93
        1
176
     1
 44
0.0
176
     1
173
     0
176
     1
  0
VISUALSTYLE
  5
34
102
{ACAD_REACTORS
330
2A
102
}
330
2A
100
AcDbVisualStyle
  2
Conceptual
 70
     9
177
     2
291
     0
 71
     3
176
     1
 72
     2
176
     1
 73
     0
176
     1
 90
        0
176
     1
 40
-0.6
176
     1
 41
-30.0
176
     1
 62
     5
 63
     7
421
 16777215
176
     1
 74
     2
176
     1
 91
        2
176
     1
 64
     7
176
     1
 65
   257
176
     1
 75
     1
176
     1
175
     1
176
     1
 42
40.0
176
     1
 92
        8
176
     1
 66
     7
176
     1
 43
1.0
176
     1
 76
     1
176
     1
 77
     6
176
     1
 78
     2
176
     1
 67
     7
176
     1
 79
     3
176
     1
170
     0
176
     1
171
     0
176
     1
290
     0
176
     1
 93
        1
176
     1
 44
0.0
176
     1
173
     0
176
     1
  0
VISUALSTYLE
  5
35
102
{ACAD_REACTORS
330
2A
102
}
330
2A
100
AcDbVisualStyle
  2
Dim
 70
    11
177
     2
291
     1
 71
     2
176
     1
 72
     2
176
     1
 73
     0
176
     1
 90
        0
176
     1
 40
-0.6
176
     1
 41
-30.0
176
     1
 62
     5
 63
     7
421
 16777215
176
     1
 74
     1
176
     1
 91
        4
176
     1
 64
     7
176
     1
 65
   257
176
     1
 75
     1
176
     1
175
     1
176
     1
 42
1.0
176
     1
 92
        8
176
     1
 66
     7
176
     1
 43
1.0
176
     1
 76
     1
176
     1
 77
     6
176
     1
 78
     2
176
     1
 67
     7
176
     1
 79
     5
176
     1
170
     0
176
     1
171
     0
176
     1
290
     0
176
     1
 93
        1
176
     1
 44
-50.0
176
     1
173
     0
176
     1
  0
VISUALSTYLE
  5
39
102
{ACAD_REACTORS
330
2A
102
}
330
2A
100
AcDbVisualStyle
  2
Facepattern
 70
    15
177
     2
291
     1
 71
     2
176
     1
 72
     2
176
     1
 73
     0
176
     1
 90
        0
176
     1
 40
-0.6
176
     1
 41
-30.0
176
     1
 62
     5
 63
     7
421
 16777215
176
     1
 74
     1
176
     1
 91
        4
176
     1
 64
     7
176
     1
 65
   257
176
     1
 75
     1
176
     1
175
     1
176
     1
 42
1.0
176
     1
 92
        8
176
     1
 66
     7
176
     1
 43
1.0
176
     1
 76
     1
176
     1
 77
     6
176
     1
 78
     2
176
     1
 67
     7
176
     1
 79
     5
176
     1
170
     0
176
     1
171
     0
176
     1
290
     0
176
     1
 93
        1
176
     1
 44
0.0
176
     1
173
     0
176
     1
  0
VISUALSTYLE
  5
2B
102
{ACAD_REACTORS
330
2A
102
}
330
2A
100
AcDbVisualStyle
  2
Flat
 70
     0
177
     2
291
     1
 71
     2
176
     1
 72
     1
176
     1
 73
     1
176
     1
 90
        2
176
     1
 40
-0.6
176
     1
 41
30.0
176
     1
 62
     5
 63
     7
421
 16777215
176
     1
 74
     0
176
     1
 91
        4
176
     1
 64
     7
176
     1
 65
   257
176
     1
 75
     1
176
     1
175
     1
176
     1
 42
1.0
176
     1
 92
        8
176
     1
 66
     7
176
     1
 43
1.0
176
     1
 76
     1
176
     1
 77
     6
176
     1
 78
     2
176
     1
 67
     7
176
     1
 79
     5
176
     1
170
     0
176
     1
171
     0
176
     1
290
     0
176
     1
 93
       13
176
     1
 44
0.0
176
     1
173
     0
176
     1
  0
VISUALSTYLE
  5
2C
102
{ACAD_REACTORS
330
2A
102
}
330
2A
100
AcDbVisualStyle
  2
FlatWithEdges
 70
     1
177
     2
291
     1
 71
     2
176
     1
 72
     1
176
     1
 73
     1
176
     1
 90
        2
176
     1
 40
-0.6
176
     1
 41
30.0
176
     1
 62
     5
 63
     7
421
 16777215
176
     1
 74
     1
176
     1
 91
        4
176
     1
 64
     7
176
     1
 65
   257
176
     1
 75
     1
176
     1
175
     1
176
     1
 42
1.0
176
     1
 92
        0
176
     1
 66
   257
176
     1
 43
1.0
176
     1
 76
     1
176
     1
 77
     6
176
     1
 78
     2
176
     1
 67
     7
176
     1
 79
     5
176
     1
170
     0
176
     1
171
     0
176
     1
290
     0
176
     1
 93
       13
176
     1
 44
0.0
176
     1
173
     0
176
     1
  0
VISUALSTYLE
  5
2D
102
{ACAD_REACTORS
330
2A
102
}
330
2A
100
AcDbVisualStyle
  2
Gouraud
 70
     2
177
     2
291
     1
 71
     2
176
     1
 72
     2
176
     1
 73
     1
176
     1
 90
        2
176
     1
 40
-0.6
176
     1
 41
30.0
176
     1
 62
     5
 63
     7
421
 16777215
176
     1
 74
     0
176
     1
 91
        4
176
     1
 64
     7
176
     1
 65
   257
176
     1
 75
     1
176
     1
175
     1
176
     1
 42
1.0
176
     1
 92
        0
176
     1
 66
     7
176
     1
 43
1.0
176
     1
 76
     1
176
     1
 77
     6
176
     1
 78
     2
176
     1
 67
     7
176
     1
 79
     5
176
     1
170
     0
176
     1
171
     0
176
     1
290
     0
176
     1
 93
       13
176
     1
 44
0.0
176
     1
173
     0
176
     1
  0
VISUALSTYLE
  5
2E
102
{ACAD_REACTORS
330
2A
102
}
330
2A
100
AcDbVisualStyle
  2
GouraudWithEdges
 70
     3
177
     2
291
     1
 71
     2
176
     1
 72
     2
176
     1
 73
     1
176
     1
 90
        2
176
     1
 40
-0.6
176
     1
 41
30.0
176
     1
 62
     5
 63
     7
421
 16777215
176
     1
 74
     1
176
     1
 91
        4
176
     1
 64
     7
176
     1
 65
   257
176
     1
 75
     1
176
     1
175
     1
176
     1
 42
1.0
176
     1
 92
        0
176
     1
 66
   257
176
     1
 43
1.0
176
     1
 76
     1
176
     1
 77
     6
176
     1
 78
     2
176
     1
 67
     7
176
     1
 79
     5
176
     1
170
     0
176
     1
171
     0
176
     1
290
     0
176
     1
 93
       13
176
     1
 44
0.0
176
     1
173
     0
176
     1
  0
VISUALSTYLE
  5
38
102
{ACAD_REACTORS
330
2A
102
}
330
2A
100
AcDbVisualStyle
  2
Linepattern
 70
    14
177
     2
291
     1
 71
     2
176
     1
 72
     2
176
     1
 73
     0
176
     1
 90
        0
176
     1
 40
-0.6
176
     1
 41
-30.0
176
     1
 62
     5
 63
     7
421
 16777215
176
     1
 74
     1
176
     1
 91
        4
176
     1
 64
     7
176
     1
 65
   257
176
     1
 75
     7
176
     1
175
     7
176
     1
 42
1.0
176
     1
 92
        8
176
     1
 66
     7
176
     1
 43
1.0
176
     1
 76
     1
176
     1
 77
     6
176
     1
 78
     2
176
     1
 67
     7
176
     1
 79
     5
176
     1
170
     0
176
     1
171
     0
176
     1
290
     0
176
     1
 93
        1
176
     1
 44
0.0
176
     1
173
     0
176
     1
  0
VISUALSTYLE
  5
33
102
{ACAD_REACTORS
330
2A
102
}
330
2A
100
AcDbVisualStyle
  2
Realistic
 70
     8
177
     2
291
     0
 71
     2
176
     1
 72
     2
176
     1
 73
     0
176
     1
 90
        0
176
     1
 40
-0.6
176
     1
 41
-30.0
176
     1
 62
     5
 63
     7
421
 16777215
176
     1
 74
     1
176
     1
 91
        0
176
     1
 64
     7
176
     1
 65
   257
176
     1
 75
     1
176
     1
175
     1
176
     1
 42
1.0
176
     1
 92
        8
176
     1
 66
     8
424
  7895160
176
     1
 43
1.0
176
     1
 76
     1
176
     1
 77
     6
176
     1
 78
     2
176
     1
 67
     7
176
     1
 79
     5
176
     1
170
     0
176
     1
171
     0
176
     1
290
     0
176
     1
 93
       13
176
     1
 44
0.0
176
     1
173
     0
176
     1
  0
VISUALSTYLE
  5
37
102
{ACAD_REACTORS
330
2A
102
}
330
2A
100
AcDbVisualStyle
  2
Thicken
 70
    13
177
     2
291
     1
 71
     2
176
     1
 72
     2
176
     1
 73
     0
176
     1
 90
        0
176
     1
 40
-0.6
176
     1
 41
-30.0
176
     1
 62
     5
 63
     7
421
 16777215
176
     1
 74
     1
176
     1
 91
        4
176
     1
 64
     7
176
     1
 65
   257
176
     1
 75
     1
176
     1
175
     1
176
     1
 42
1.0
176
     1
 92
       12
176
     1
 66
     7
176
     1
 43
1.0
176
     1
 76
     1
176
     1
 77
     6
176
     1
 78
     2
176
     1
 67
     7
176
     1
 79
     5
176
     1
170
     0
176
     1
171
     0
176
     1
290
     0
176
     1
 93
        1
176
     1
 44
0.0
176
     1
173
     0
176
     1
  0
ENDSEC
  0
EOF
