  0
SECTION
  2
HEADER
  9
$ACADVER
  1
AC1024
  9
$ACADMAINTVER
 70
     6
  9
$DWGCODEPAGE
  3
UNDEFINED
  9
$INSBASE
 10
0.0
 20
0.0
 30
0.0
  9
$EXTMIN
 10
1.000000000000000E+20
 20
1.000000000000000E+20
 30
1.000000000000000E+20
  9
$EXTMAX
 10
-1.000000000000000E+20
 20
-1.000000000000000E+20
 30
-1.000000000000000E+20
  9
$LIMMIN
 10
0.0
 20
0.0
  9
$LIMMAX
 10
12.0
 20
9.0
  9
$ORTHOMODE
 70
     0
  9
$REGENMODE
 70
     1
  9
$FILLMODE
 70
     1
  9
$QTEXTMODE
 70
     0
  9
$MIRRTEXT
 70
     1
  9
$LTSCALE
 40
1.0
  9
$ATTMODE
 70
     1
  9
$TEXTSIZE
 40
0.2
  9
$TRACEWID
 40
0.05
  9
$TEXTSTYLE
  7
Standard
  9
$CLAYER
  8
0
  9
$CELTYPE
  6
ByLayer
  9
$CECOLOR
 62
   256
  9
$CELTSCALE
 40
1.0
  9
$DISPSILH
 70
     0
  9
$DIMSCALE
 40
1.0
  9
$DIMASZ
 40
0.18
  9
$DIMEXO
 40
0.0625
  9
$DIMDLI
 40
0.38
  9
$DIMRND
 40
0.0
  9
$DIMDLE
 40
0.0
  9
$DIMEXE
 40
0.18
  9
$DIMTP
 40
0.0
  9
$DIMTM
 40
0.0
  9
$DIMTXT
 40
0.18
  9
$DIMCEN
 40
0.09
  9
$DIMTSZ
 40
0.0
  9
$DIMTOL
 70
     0
  9
$DIMLIM
 70
     0
  9
$DIMTIH
 70
     1
  9
$DIMTOH
 70
     1
  9
$DIMSE1
 70
     0
  9
$DIMSE2
 70
     0
  9
$DIMTAD
 70
     0
  9
$DIMZIN
 70
     0
  9
$DIMBLK
  1

  9
$DIMASO
 70
     1
  9
$DIMSHO
 70
     1
  9
$DIMPOST
  1

  9
$DIMAPOST
  1

  9
$DIMALT
 70
     0
  9
$DIMALTD
 70
     2
  9
$DIMALTF
 40
25.4
  9
$DIMLFAC
 40
1.0
  9
$DIMTOFL
 70
     0
  9
$DIMTVP
 40
0.0
  9
$DIMTIX
 70
     0
  9
$DIMSOXD
 70
     0
  9
$DIMSAH
 70
     0
  9
$DIMBLK1
  1

  9
$DIMBLK2
  1

  9
$DIMSTYLE
  2
Standard
  9
$DIMCLRD
 70
     0
  9
$DIMCLRE
 70
     0
  9
$DIMCLRT
 70
     0
  9
$DIMTFAC
 40
1.0
  9
$DIMGAP
 40
0.09
  9
$DIMJUST
 70
     0
  9
$DIMSD1
 70
     0
  9
$DIMSD2
 70
     0
  9
$DIMTOLJ
 70
     1
  9
$DIMTZIN
 70
     0
  9
$DIMALTZ
 70
     0
  9
$DIMALTTZ
 70
     0
  9
$DIMUPT
 70
     0
  9
$DIMDEC
 70
     4
  9
$DIMTDEC
 70
     4
  9
$DIMALTU
 70
     2
  9
$DIMALTTD
 70
     2
  9
$DIMTXSTY
  7
Standard
  9
$DIMAUNIT
 70
     0
  9
$DIMADEC
 70
     0
  9
$DIMALTRND
 40
0.0
  9
$DIMAZIN
 70
     0
  9
$DIMDSEP
 70
    46
  9
$DIMATFIT
 70
     3
  9
$DIMFRAC
 70
     0
  9
$DIMLDRBLK
  1

  9
$DIMLUNIT
 70
     2
  9
$DIMLWD
 70
    -2
  9
$DIMLWE
 70
    -2
  9
$DIMTMOVE
 70
     0
  9
$DIMFXL
 40
1.0
  9
$DIMFXLON
 70
     0
  9
$DIMJOGANG
 40
0.7853981633974483
  9
$DIMTFILL
 70
     0
  9
$DIMTFILLCLR
 70
     0
  9
$DIMARCSYM
 70
     0
  9
$DIMLTYPE
  6

  9
$DIMLTEX1
  6

  9
$DIMLTEX2
  6

  9
$DIMTXTDIRECTION
 70
     0
  9
$LUNITS
 70
     2
  9
$LUPREC
 70
     4
  9
$SKETCHINC
 40
0.1
  9
$FILLETRAD
 40
0.5
  9
$AUNITS
 70
     0
  9
$AUPREC
 70
     0
  9
$MENU
  1
.
  9
$ELEVATION
 40
0.0
  9
$PELEVATION
 40
0.0
  9
$THICKNESS
 40
0.0
  9
$LIMCHECK
 70
     0
  9
$CHAMFERA
 40
0.5
  9
$CHAMFERB
 40
0.5
  9
$CHAMFERC
 40
1.0
  9
$CHAMFERD
 40
0.0
  9
$SKPOLY
 70
     0
  9
$TDCREATE
 40
2457917.628645822
  9
$TDUCREATE
 40
2457917.253645833
  9
$TDUPDATE
 40
2457917.628645822
  9
$TDUUPDATE
 40
2457917.253645833
  9
$TDINDWG
 40
0.0000000116
  9
$TDUSRTIMER
 40
0.0000000116
  9
$USRTIMER
 70
     1
  9
$ANGBASE
 50
0.0
  9
$ANGDIR
 70
     0
  9
$PDMODE
 70
     0
  9
$PDSIZE
 40
0.0
  9
$PLINEWID
 40
0.0
  9
$SPLFRAME
 70
     0
  9
$SPLINETYPE
 70
     6
  9
$SPLINESEGS
 70
     8
  9
$HANDSEED
  5
190
  9
$SURFTAB1
 70
     6
  9
$SURFTAB2
 70
     6
  9
$SURFTYPE
 70
     6
  9
$SURFU
 70
     6
  9
$SURFV
 70
     6
  9
$UCSBASE
  2

  9
$UCSNAME
  2

  9
$UCSORG
 10
0.0
 20
0.0
 30
0.0
  9
$UCSXDIR
 10
1.0
 20
0.0
 30
0.0
  9
$UCSYDIR
 10
0.0
 20
1.0
 30
0.0
  9
$UCSORTHOREF
  2

  9
$UCSORTHOVIEW
 70
     0
  9
$UCSORGTOP
 10
0.0
 20
0.0
 30
0.0
  9
$UCSORGBOTTOM
 10
0.0
 20
0.0
 30
0.0
  9
$UCSORGLEFT
 10
0.0
 20
0.0
 30
0.0
  9
$UCSORGRIGHT
 10
0.0
 20
0.0
 30
0.0
  9
$UCSORGFRONT
 10
0.0
 20
0.0
 30
0.0
  9
$UCSORGBACK
 10
0.0
 20
0.0
 30
0.0
  9
$PUCSBASE
  2

  9
$PUCSNAME
  2

  9
$PUCSORG
 10
0.0
 20
0.0
 30
0.0
  9
$PUCSXDIR
 10
1.0
 20
0.0
 30
0.0
  9
$PUCSYDIR
 10
0.0
 20
1.0
 30
0.0
  9
$PUCSORTHOREF
  2

  9
$PUCSORTHOVIEW
 70
     0
  9
$PUCSORGTOP
 10
0.0
 20
0.0
 30
0.0
  9
$PUCSORGBOTTOM
 10
0.0
 20
0.0
 30
0.0
  9
$PUCSORGLEFT
 10
0.0
 20
0.0
 30
0.0
  9
$PUCSORGRIGHT
 10
0.0
 20
0.0
 30
0.0
  9
$PUCSORGFRONT
 10
0.0
 20
0.0
 30
0.0
  9
$PUCSORGBACK
 10
0.0
 20
0.0
 30
0.0
  9
$USERI1
 70
     0
  9
$USERI2
 70
     0
  9
$USERI3
 70
     0
  9
$USERI4
 70
     0
  9
$USERI5
 70
     0
  9
$USERR1
 40
0.0
  9
$USERR2
 40
0.0
  9
$USERR3
 40
0.0
  9
$USERR4
 40
0.0
  9
$USERR5
 40
0.0
  9
$WORLDVIEW
 70
     1
  9
$SHADEDGE
 70
     3
  9
$SHADEDIF
 70
    70
  9
$TILEMODE
 70
     1
  9
$MAXACTVP
 70
    64
  9
$PINSBASE
 10
0.0
 20
0.0
 30
0.0
  9
$PLIMCHECK
 70
     0
  9
$PEXTMIN
 10
1.000000000000000E+20
 20
1.000000000000000E+20
 30
1.000000000000000E+20
  9
$PEXTMAX
 10
-1.000000000000000E+20
 20
-1.000000000000000E+20
 30
-1.000000000000000E+20
  9
$PLIMMIN
 10
0.0
 20
0.0
  9
$PLIMMAX
 10
12.0
 20
9.0
  9
$UNITMODE
 70
     0
  9
$VISRETAIN
 70
     1
  9
$PLINEGEN
 70
     0
  9
$PSLTSCALE
 70
     1
  9
$TREEDEPTH
 70
  3020
  9
$CMLSTYLE
  2
Standard
  9
$CMLJUST
 70
     0
  9
$CMLSCALE
 40
1.0
  9
$PROXYGRAPHICS
 70
     1
  9
$MEASUREMENT
 70
     0
  9
$CELWEIGHT
370
    -1
  9
$ENDCAPS
280
     0
  9
$JOINSTYLE
280
     0
  9
$LWDISPLAY
290
     1
  9
$INSUNITS
 70
     1
  9
$HYPERLINKBASE
  1

  9
$STYLESHEET
  1

  9
$XEDIT
290
     1
  9
$CEPSNTYPE
380
     0
  9
$PSTYLEMODE
290
     1
  9
$FINGERPRINTGUID
  2
{A189DAE2-DF27-4975-1B3D-7EE537F36E76}
  9
$VERSIONGUID
  2
{FAEB1C32-E019-11D5-929B-00C0DF256EC4}
  9
$EXTNAMES
290
     1
  9
$PSVPSCALE
 40
0.0
  9
$OLESTARTUP
290
     0
  9
$SORTENTS
280
   127
  9
$INDEXCTL
280
     0
  9
$HIDETEXT
280
     1
  9
$XCLIPFRAME
280
     2
  9
$HALOGAP
280
     0
  9
$OBSCOLOR
 70
   257
  9
$OBSLTYPE
280
     0
  9
$INTERSECTIONDISPLAY
280
     0
  9
$INTERSECTIONCOLOR
 70
   257
  9
$DIMASSOC
280
     2
  9
$PROJECTNAME
  1

  9
$CAMERADISPLAY
290
     0
  9
$LENSLENGTH
 40
50.0
  9
$CAMERAHEIGHT
 40
0.0
  9
$STEPSPERSEC
 40
2.0
  9
$STEPSIZE
 40
6.0
  9
$3DDWFPREC
 40
2.0
  9
$PSOLWIDTH
 40
0.25
  9
$PSOLHEIGHT
 40
4.0
  9
$LOFTANG1
 40
1.570796326794897
  9
$LOFTANG2
 40
1.570796326794897
  9
$LOFTMAG1
 40
0.0
  9
$LOFTMAG2
 40
0.0
  9
$LOFTPARAM
 70
     7
  9
$LOFTNORMALS
280
     1
  9
$LATITUDE
 40
37.795
  9
$LONGITUDE
 40
-122.394
  9
$NORTHDIRECTION
 40
0.0
  9
$TIMEZONE
 70
 -8000
  9
$LIGHTGLYPHDISPLAY
280
     1
  9
$TILEMODELIGHTSYNCH
280
     1
  9
$CMATERIAL
347
3C
  9
$SOLIDHIST
280
     1
  9
$SHOWHIST
280
     1
  9
$DWFFRAME
280
     2
  9
$DGNFRAME
280
     2
  9
$REALWORLDSCALE
290
     1
  9
$INTERFERECOLOR
 62
   256
  9
$CSHADOW
280
     0
  9
$SHADOWPLANELOCATION
 40
0.0
  0
ENDSEC
  0
SECTION
  2
CLASSES
  0
CLASS
  1
ACDBDICTIONARYWDFLT
  2
AcDbDictionaryWithDefault
  3
ObjectDBX Classes
 90
        0
 91
        4
280
     0
281
     0
  0
CLASS
  1
VISUALSTYLE
  2
AcDbVisualStyle
  3
ObjectDBX Classes
 90
     4095
 91
        4
280
     0
281
     0
  0
CLASS
  1
MATERIAL
  2
AcDbMaterial
  3
ObjectDBX Classes
 90
     1153
 91
        4
280
     0
281
     0
  0
CLASS
  1
SUN
  2
AcDbSun
  3
SCENEOE
 90
     1024
 91
        4
280
     0
281
     0
  0
ENDSEC
  0
SECTION
  2
TABLES
  0
TABLE
  2
VPORT
  5
8
330
0
100
AcDbSymbolTable
 70
     1
  0
VPORT
  5
29
330
8
100
AcDbSymbolTableRecord
100
AcDbViewportTableRecord
  2
*Active
 70
     0
 10
0.0
 20
0.0
 11
1.0
 21
1.0
 12
0.0
 22
0.0
 13
0.0
 23
0.0
 14
0.5
 24
0.5
 15
0.5
 25
0.5
 16
0.0
 26
0.0
 36
1.0
 17
91.00082462281999
 27
-128.4993055234307
 37
0.0
 40
256.9986110468615
 41
0.7081814508812795
 42
50.0
 43
0.0
 44
0.0
 50
0.0
 51
0.0
 71
     0
 72
   100
 73
     1
 74
     3
 75
     0
 76
     0
 77
     0
 78
     0
281
     0
 65
     1
110
0.0
120
0.0
130
0.0
111
1.0
121
0.0
131
0.0
112
0.0
122
1.0
132
0.0
 79
     0
146
0.0
 60
     3
 61
     5
292
     1
282
     1
141
0.0
142
0.0
 63
   250
361
3F
  0
ENDTAB
  0
TABLE
  2
LTYPE
  5
5
330
0
100
AcDbSymbolTable
 70
     1
  0
LTYPE
  5
14
330
5
100
AcDbSymbolTableRecord
100
AcDbLinetypeTableRecord
  2
ByBlock
 70
     0
  3

 72
    65
 73
     0
 40
0.0
  0
LTYPE
  5
15
330
5
100
AcDbSymbolTableRecord
100
AcDbLinetypeTableRecord
  2
ByLayer
 70
     0
  3

 72
    65
 73
     0
 40
0.0
  0
LTYPE
  5
16
330
5
100
AcDbSymbolTableRecord
100
AcDbLinetypeTableRecord
  2
Continuous
 70
     0
  3
Solid line
 72
    65
 73
     0
 40
0.0
  0
ENDTAB
  0
TABLE
  2
LAYER
  5
2
330
0
100
AcDbSymbolTable
 70
     2
  0
LAYER
  5
10
330
2
100
AcDbSymbolTableRecord
100
AcDbLayerTableRecord
  2
0
 70
     0
 62
     7
  6
Continuous
370
    -3
390
F
347
3E
  0
LAYER
  5
40
330
2
100
AcDbSymbolTableRecord
100
AcDbLayerTableRecord
  2
_U+30EC_U+30A4_U+30E4_U+30FC 1
 70
     0
 62
     7
  6
Continuous
370
    -3
390
F
347
3E
  0
ENDTAB
  0
TABLE
  2
STYLE
  5
3
330
0
100
AcDbSymbolTable
 70
     1
  0
STYLE
  5
11
330
3
100
AcDbSymbolTableRecord
100
AcDbTextStyleTableRecord
  2
Standard
 70
     0
 40
0.0
 41
1.0
 50
0.0
 71
     0
 42
0.2
  3
txt
  4

  0
ENDTAB
  0
TABLE
  2
VIEW
  5
6
330
0
100
AcDbSymbolTable
 70
     0
  0
ENDTAB
  0
TABLE
  2
UCS
  5
7
330
0
100
AcDbSymbolTable
 70
     0
  0
ENDTAB
  0
TABLE
  2
APPID
  5
9
330
0
100
AcDbSymbolTable
 70
     1
  0
APPID
  5
12
330
9
100
AcDbSymbolTableRecord
100
AcDbRegAppTableRecord
  2
ACAD
 70
     0
  0
ENDTAB
  0
TABLE
  2
DIMSTYLE
  5
A
330
0
100
AcDbSymbolTable
 70
     1
100
AcDbDimStyleTable
  0
DIMSTYLE
105
27
330
A
100
AcDbSymbolTableRecord
100
AcDbDimStyleTableRecord
  2
Standard
 70
     0
178
     0
340
11
  0
ENDTAB
  0
TABLE
  2
BLOCK_RECORD
  5
1
330
0
100
AcDbSymbolTable
 70
    33
  0
BLOCK_RECORD
  5
1F
330
1
100
AcDbSymbolTableRecord
100
AcDbBlockTableRecord
  2
*Model_Space
340
22
 70
     0
280
     1
281
     0
  0
BLOCK_RECORD
  5
1B
330
1
100
AcDbSymbolTableRecord
100
AcDbBlockTableRecord
  2
*Paper_Space
340
1E
 70
     0
280
     1
281
     0
  0
BLOCK_RECORD
  5
23
330
1
100
AcDbSymbolTableRecord
100
AcDbBlockTableRecord
  2
*Paper_Space0
340
26
 70
     0
280
     1
281
     0
  0
BLOCK_RECORD
  5
41
330
1
100
AcDbSymbolTableRecord
100
AcDbBlockTableRecord
  2
block 2
340
0
102
{BLKREFS
331
42
102
}
 70
     0
280
     1
281
     0
  0
BLOCK_RECORD
  5
45
330
1
100
AcDbSymbolTableRecord
100
AcDbBlockTableRecord
  2
block 3
340
0
102
{BLKREFS
331
46
102
}
 70
     0
280
     1
281
     0
  0
BLOCK_RECORD
  5
A2
330
1
100
AcDbSymbolTableRecord
100
AcDbBlockTableRecord
  2
block 4
340
0
102
{BLKREFS
331
A3
102
}
 70
     0
280
     1
281
     0
  0
BLOCK_RECORD
  5
B2
330
1
100
AcDbSymbolTableRecord
100
AcDbBlockTableRecord
  2
block 5
340
0
102
{BLKREFS
331
B3
102
}
 70
     0
280
     1
281
     0
  0
BLOCK_RECORD
  5
B9
330
1
100
AcDbSymbolTableRecord
100
AcDbBlockTableRecord
  2
block 6
340
0
102
{BLKREFS
331
BA
102
}
 70
     0
280
     1
281
     0
  0
BLOCK_RECORD
  5
BE
330
1
100
AcDbSymbolTableRecord
100
AcDbBlockTableRecord
  2
block 7
340
0
102
{BLKREFS
331
BF
102
}
 70
     0
280
     1
281
     0
  0
BLOCK_RECORD
  5
C3
330
1
100
AcDbSymbolTableRecord
100
AcDbBlockTableRecord
  2
block 8
340
0
102
{BLKREFS
331
C4
102
}
 70
     0
280
     1
281
     0
  0
BLOCK_RECORD
  5
C8
330
1
100
AcDbSymbolTableRecord
100
AcDbBlockTableRecord
  2
block 9
340
0
102
{BLKREFS
331
C9
102
}
 70
     0
280
     1
281
     0
  0
BLOCK_RECORD
  5
D8
330
1
100
AcDbSymbolTableRecord
100
AcDbBlockTableRecord
  2
block 10
340
0
102
{BLKREFS
331
D9
102
}
 70
     0
280
     1
281
     0
  0
BLOCK_RECORD
  5
E0
330
1
100
AcDbSymbolTableRecord
100
AcDbBlockTableRecord
  2
block 11
340
0
102
{BLKREFS
331
E1
102
}
 70
     0
280
     1
281
     0
  0
BLOCK_RECORD
  5
E5
330
1
100
AcDbSymbolTableRecord
100
AcDbBlockTableRecord
  2
block 12
340
0
102
{BLKREFS
331
E6
102
}
 70
     0
280
     1
281
     0
  0
BLOCK_RECORD
  5
EA
330
1
100
AcDbSymbolTableRecord
100
AcDbBlockTableRecord
  2
block 13
340
0
102
{BLKREFS
331
EB
102
}
 70
     0
280
     1
281
     0
  0
BLOCK_RECORD
  5
EF
330
1
100
AcDbSymbolTableRecord
100
AcDbBlockTableRecord
  2
block 14
340
0
102
{BLKREFS
331
F0
102
}
 70
     0
280
     1
281
     0
  0
BLOCK_RECORD
  5
FB
330
1
100
AcDbSymbolTableRecord
100
AcDbBlockTableRecord
  2
block 15
340
0
102
{BLKREFS
331
FC
102
}
 70
     0
280
     1
281
     0
  0
BLOCK_RECORD
  5
102
330
1
100
AcDbSymbolTableRecord
100
AcDbBlockTableRecord
  2
block 16
340
0
102
{BLKREFS
331
103
102
}
 70
     0
280
     1
281
     0
  0
BLOCK_RECORD
  5
107
330
1
100
AcDbSymbolTableRecord
100
AcDbBlockTableRecord
  2
block 17
340
0
102
{BLKREFS
331
108
102
}
 70
     0
280
     1
281
     0
  0
BLOCK_RECORD
  5
10C
330
1
100
AcDbSymbolTableRecord
100
AcDbBlockTableRecord
  2
block 18
340
0
102
{BLKREFS
331
10D
102
}
 70
     0
280
     1
281
     0
  0
BLOCK_RECORD
  5
111
330
1
100
AcDbSymbolTableRecord
100
AcDbBlockTableRecord
  2
block 19
340
0
102
{BLKREFS
331
112
102
}
 70
     0
280
     1
281
     0
  0
BLOCK_RECORD
  5
121
330
1
100
AcDbSymbolTableRecord
100
AcDbBlockTableRecord
  2
block 20
340
0
102
{BLKREFS
331
122
102
}
 70
     0
280
     1
281
     0
  0
BLOCK_RECORD
  5
127
330
1
100
AcDbSymbolTableRecord
100
AcDbBlockTableRecord
  2
block 21
340
0
102
{BLKREFS
331
128
102
}
 70
     0
280
     1
281
     0
  0
BLOCK_RECORD
  5
12C
330
1
100
AcDbSymbolTableRecord
100
AcDbBlockTableRecord
  2
block 22
340
0
102
{BLKREFS
331
12D
102
}
 70
     0
280
     1
281
     0
  0
BLOCK_RECORD
  5
131
330
1
100
AcDbSymbolTableRecord
100
AcDbBlockTableRecord
  2
block 23
340
0
102
{BLKREFS
331
132
102
}
 70
     0
280
     1
281
     0
  0
BLOCK_RECORD
  5
136
330
1
100
AcDbSymbolTableRecord
100
AcDbBlockTableRecord
  2
block 24
340
0
102
{BLKREFS
331
137
102
}
 70
     0
280
     1
281
     0
  0
BLOCK_RECORD
  5
146
330
1
100
AcDbSymbolTableRecord
100
AcDbBlockTableRecord
  2
block 25
340
0
102
{BLKREFS
331
147
102
}
 70
     0
280
     1
281
     0
  0
BLOCK_RECORD
  5
14F
330
1
100
AcDbSymbolTableRecord
100
AcDbBlockTableRecord
  2
block 26
340
0
102
{BLKREFS
331
150
102
}
 70
     0
280
     1
281
     0
  0
BLOCK_RECORD
  5
154
330
1
100
AcDbSymbolTableRecord
100
AcDbBlockTableRecord
  2
block 27
340
0
102
{BLKREFS
331
155
102
}
 70
     0
280
     1
281
     0
  0
BLOCK_RECORD
  5
159
330
1
100
AcDbSymbolTableRecord
100
AcDbBlockTableRecord
  2
block 28
340
0
102
{BLKREFS
331
15A
102
}
 70
     0
280
     1
281
     0
  0
BLOCK_RECORD
  5
15E
330
1
100
AcDbSymbolTableRecord
100
AcDbBlockTableRecord
  2
block 29
340
0
102
{BLKREFS
331
15F
102
}
 70
     0
280
     1
281
     0
  0
BLOCK_RECORD
  5
16E
330
1
100
AcDbSymbolTableRecord
100
AcDbBlockTableRecord
  2
block 30
340
0
102
{BLKREFS
331
16F
102
}
 70
     0
280
     1
281
     0
  0
BLOCK_RECORD
  5
17F
330
1
100
AcDbSymbolTableRecord
100
AcDbBlockTableRecord
  2
block 31
340
0
102
{BLKREFS
331
180
102
}
 70
     0
280
     1
281
     0
  0
BLOCK_RECORD
  5
184
330
1
100
AcDbSymbolTableRecord
100
AcDbBlockTableRecord
  2
block 32
340
0
102
{BLKREFS
331
185
102
}
 70
     0
280
     1
281
     0
  0
BLOCK_RECORD
  5
189
330
1
100
AcDbSymbolTableRecord
100
AcDbBlockTableRecord
  2
block 33
340
0
102
{BLKREFS
331
18A
102
}
 70
     0
280
     1
281
     0
  0
ENDTAB
  0
ENDSEC
  0
SECTION
  2
BLOCKS
  0
BLOCK
  5
20
330
1F
100
AcDbEntity
  8
0
100
AcDbBlockBegin
  2
*Model_Space
 70
     0
 10
0.0
 20
0.0
 30
0.0
  3
*Model_Space
  1

  0
ENDBLK
  5
21
330
1F
100
AcDbEntity
  8
0
100
AcDbBlockEnd
  0
BLOCK
  5
1C
330
1B
100
AcDbEntity
 67
     1
  8
0
100
AcDbBlockBegin
  2
*Paper_Space
 70
     0
 10
0.0
 20
0.0
 30
0.0
  3
*Paper_Space
  1

  0
ENDBLK
  5
1D
330
1B
100
AcDbEntity
 67
     1
  8
0
100
AcDbBlockEnd
  0
BLOCK
  5
24
330
23
100
AcDbEntity
  8
0
100
AcDbBlockBegin
  2
*Paper_Space0
 70
     0
 10
0.0
 20
0.0
 30
0.0
  3
*Paper_Space0
  1

  0
ENDBLK
  5
25
330
23
100
AcDbEntity
  8
0
100
AcDbBlockEnd
  0
BLOCK
  5
43
330
41
100
AcDbEntity
  8
0
100
AcDbBlockBegin
  2
block 2
 70
     0
 10
0.0
 20
0.0
 30
0.0
  3
block 2
  1

  0
INSERT
  5
46
330
41
100
AcDbEntity
  8
_U+30EC_U+30A4_U+30E4_U+30FC 1
100
AcDbBlockReference
  2
block 3
 10
0.0
 20
0.0
 30
0.0
  0
ENDBLK
  5
44
330
41
100
AcDbEntity
  8
0
100
AcDbBlockEnd
  0
BLOCK
  5
47
330
45
100
AcDbEntity
  8
0
100
AcDbBlockBegin
  2
block 3
 70
     0
 10
0.0
 20
0.0
 30
0.0
  3
block 3
  1

  0
SPLINE
  5
49
330
45
100
AcDbEntity
  8
_U+30EC_U+30A4_U+30E4_U+30FC 1
370
     0
100
AcDbSpline
210
0.0
220
0.0
230
1.0
 70
    11
 71
     3
 72
    86
 73
    82
 74
     0
 42
0.0000000001
 43
0.0000000001
 12
1.0
 22
0.0
 32
0.0
 13
1.0
 23
0.0
 33
0.0
 40
0.0
 40
0.0
 40
0.0
 40
0.0
 40
1.0
 40
1.0
 40
1.0
 40
2.0
 40
2.0
 40
2.0
 40
3.0
 40
3.0
 40
3.0
 40
4.0
 40
4.0
 40
4.0
 40
5.0
 40
5.0
 40
5.0
 40
6.0
 40
6.0
 40
6.0
 40
7.0
 40
7.0
 40
7.0
 40
8.0
 40
8.0
 40
8.0
 40
9.0
 40
9.0
 40
9.0
 40
10.0
 40
10.0
 40
10.0
 40
11.0
 40
11.0
 40
11.0
 40
12.0
 40
12.0
 40
12.0
 40
13.0
 40
13.0
 40
13.0
 40
14.0
 40
14.0
 40
14.0
 40
15.0
 40
15.0
 40
15.0
 40
16.0
 40
16.0
 40
16.0
 40
17.0
 40
17.0
 40
17.0
 40
18.0
 40
18.0
 40
18.0
 40
19.0
 40
19.0
 40
19.0
 40
20.0
 40
20.0
 40
20.0
 40
21.0
 40
21.0
 40
21.0
 40
22.0
 40
22.0
 40
22.0
 40
23.0
 40
23.0
 40
23.0
 40
24.0
 40
24.0
 40
24.0
 40
25.0
 40
25.0
 40
25.0
 40
26.0
 40
26.0
 40
26.0
 40
27.0
 40
27.0
 40
27.0
 40
27.0
 10
102.8919048750088
 20
-133.2848771889008
 30
0.0
 10
102.8919048750088
 20
-133.2848771889008
 30
0.0
 10
102.8919048750088
 20
-123.7846774690538
 30
0.0
 10
102.8919048750088
 20
-123.7846774690538
 30
0.0
 10
102.8919048750088
 20
-123.7846774690538
 30
0.0
 10
86.89149278321334
 20
-123.7846774690538
 30
0.0
 10
86.89149278321334
 20
-123.7846774690538
 30
0.0
 10
86.89149278321334
 20
-123.7846774690538
 30
0.0
 10
86.89149278321334
 20
-133.2848771889008
 30
0.0
 10
86.89149278321334
 20
-133.2848771889008
 30
0.0
 10
86.89149278321334
 20
-133.2848771889008
 30
0.0
 10
84.89198366755839
 20
-133.2848771889008
 30
0.0
 10
84.89198366755839
 20
-133.2848771889008
 30
0.0
 10
84.89198366755839
 20
-133.2848771889008
 30
0.0
 10
84.89198366755839
 20
-135.2851271884008
 30
0.0
 10
84.89198366755839
 20
-135.2851271884008
 30
0.0
 10
84.89198366755839
 20
-135.2851271884008
 30
0.0
 10
90.8919574033752
 20
-135.2851271884008
 30
0.0
 10
90.8919574033752
 20
-135.2851271884008
 30
0.0
 10
90.8919574033752
 20
-135.2851271884008
 30
0.0
 10
90.8919574033752
 20
-133.2848771889008
 30
0.0
 10
90.8919574033752
 20
-133.2848771889008
 30
0.0
 10
90.8919574033752
 20
-133.2848771889008
 30
0.0
 10
89.39194633053256
 20
-133.2848771889008
 30
0.0
 10
89.39194633053256
 20
-133.2848771889008
 30
0.0
 10
89.39194633053256
 20
-133.2848771889008
 30
0.0
 10
89.39194633053256
 20
-127.8938330235821
 30
0.0
 10
89.39194633053256
 20
-127.8938330235821
 30
0.0
 10
89.39194633053256
 20
-127.8938330235821
 30
0.0
 10
89.61176215825793
 20
-127.8938330235821
 30
0.0
 10
89.61176215825793
 20
-127.8938330235821
 30
0.0
 10
90.6004924108111
 20
-128.0150827457741
 30
0.0
 10
91.50310961000564
 20
-127.3315758015005
 30
0.0
 10
91.62781655126854
 20
-126.3674694128527
 30
0.0
 10
91.63677710659549
 20
-126.2940916350931
 30
0.0
 10
91.64161016202775
 20
-126.2207138573338
 30
0.0
 10
91.64161016202775
 20
-126.1473360795741
 30
0.0
 10
91.64161016202775
 20
-126.1473360795741
 30
0.0
 10
91.64161016202775
 20
-125.7849274685537
 30
0.0
 10
91.64161016202775
 20
-125.7849274685537
 30
0.0
 10
91.64161016202775
 20
-125.7849274685537
 30
0.0
 10
94.51689008867325
 20
-125.7849274685537
 30
0.0
 10
94.51689008867325
 20
-125.7849274685537
 30
0.0
 10
94.51689008867325
 20
-125.7849274685537
 30
0.0
 10
94.89171646799952
 20
-125.135181357605
 30
0.0
 10
94.89171646799952
 20
-125.135181357605
 30
0.0
 10
94.89171646799952
 20
-125.135181357605
 30
0.0
 10
95.26654284732578
 20
-125.7849274685537
 30
0.0
 10
95.26654284732578
 20
-125.7849274685537
 30
0.0
 10
95.26654284732578
 20
-125.7849274685537
 30
0.0
 10
98.14182277397128
 20
-125.7849274685537
 30
0.0
 10
98.14182277397128
 20
-125.7849274685537
 30
0.0
 10
98.14182277397128
 20
-125.7849274685537
 30
0.0
 10
98.14182277397128
 20
-126.1473360795741
 30
0.0
 10
98.14182277397128
 20
-126.1473360795741
 30
0.0
 10
98.14182277397128
 20
-126.2207138573338
 30
0.0
 10
98.14662055162665
 20
-126.2940916350931
 30
0.0
 10
98.15558110695362
 20
-126.3674694128527
 30
0.0
 10
98.28028804821652
 20
-127.3315758015005
 30
0.0
 10
99.18290524741106
 20
-128.0150827457741
 30
0.0
 10
100.1716707777411
 20
-127.8938330235821
 30
0.0
 10
100.1716707777411
 20
-127.8938330235821
 30
0.0
 10
100.3914513276896
 20
-127.8938330235821
 30
0.0
 10
100.3914513276896
 20
-127.8938330235821
 30
0.0
 10
100.3914513276896
 20
-127.8938330235821
 30
0.0
 10
100.3914513276896
 20
-133.2848771889008
 30
0.0
 10
100.3914513276896
 20
-133.2848771889008
 30
0.0
 10
100.3914513276896
 20
-133.2848771889008
 30
0.0
 10
98.89147553262383
 20
-133.2848771889008
 30
0.0
 10
98.89147553262383
 20
-133.2848771889008
 30
0.0
 10
98.89147553262383
 20
-133.2848771889008
 30
0.0
 10
98.89147553262383
 20
-135.2851271884008
 30
0.0
 10
98.89147553262383
 20
-135.2851271884008
 30
0.0
 10
98.89147553262383
 20
-135.2851271884008
 30
0.0
 10
104.8914492684406
 20
-135.2851271884008
 30
0.0
 10
104.8914492684406
 20
-135.2851271884008
 30
0.0
 10
104.8914492684406
 20
-135.2851271884008
 30
0.0
 10
104.8914492684406
 20
-133.2848771889008
 30
0.0
 10
104.8914492684406
 20
-133.2848771889008
 30
0.0
 10
104.8914492684406
 20
-133.2848771889008
 30
0.0
 10
102.8919048750088
 20
-133.2848771889008
 30
0.0
 10
102.8919048750088
 20
-133.2848771889008
 30
0.0
  0
HATCH
  5
4A
330
45
100
AcDbEntity
  8
_U+30EC_U+30A4_U+30E4_U+30FC 1
 62
   253
420
 11711154
100
AcDbHatch
 10
0.0
 20
0.0
 30
0.0
210
0.0
220
0.0
230
1.0
  2
SOLID
 70
     1
 71
     0
 91
        1
 92
        1
 93
        1
 72
     4
 94
        3
 73
     0
 74
     1
 95
       86
 96
       82
 40
0.0
 40
0.0
 40
0.0
 40
0.0
 40
1.0
 40
1.0
 40
1.0
 40
2.0
 40
2.0
 40
2.0
 40
3.0
 40
3.0
 40
3.0
 40
4.0
 40
4.0
 40
4.0
 40
5.0
 40
5.0
 40
5.0
 40
6.0
 40
6.0
 40
6.0
 40
7.0
 40
7.0
 40
7.0
 40
8.0
 40
8.0
 40
8.0
 40
9.0
 40
9.0
 40
9.0
 40
10.0
 40
10.0
 40
10.0
 40
11.0
 40
11.0
 40
11.0
 40
12.0
 40
12.0
 40
12.0
 40
13.0
 40
13.0
 40
13.0
 40
14.0
 40
14.0
 40
14.0
 40
15.0
 40
15.0
 40
15.0
 40
16.0
 40
16.0
 40
16.0
 40
17.0
 40
17.0
 40
17.0
 40
18.0
 40
18.0
 40
18.0
 40
19.0
 40
19.0
 40
19.0
 40
20.0
 40
20.0
 40
20.0
 40
21.0
 40
21.0
 40
21.0
 40
22.0
 40
22.0
 40
22.0
 40
23.0
 40
23.0
 40
23.0
 40
24.0
 40
24.0
 40
24.0
 40
25.0
 40
25.0
 40
25.0
 40
26.0
 40
26.0
 40
26.0
 40
27.0
 40
27.0
 40
27.0
 40
27.0
 10
102.8919048750088
 20
-133.2848771889008
 10
102.8919048750088
 20
-133.2848771889008
 10
102.8919048750088
 20
-123.7846774690538
 10
102.8919048750088
 20
-123.7846774690538
 10
102.8919048750088
 20
-123.7846774690538
 10
86.89149278321334
 20
-123.7846774690538
 10
86.89149278321334
 20
-123.7846774690538
 10
86.89149278321334
 20
-123.7846774690538
 10
86.89149278321334
 20
-133.2848771889008
 10
86.89149278321334
 20
-133.2848771889008
 10
86.89149278321334
 20
-133.2848771889008
 10
84.89198366755839
 20
-133.2848771889008
 10
84.89198366755839
 20
-133.2848771889008
 10
84.89198366755839
 20
-133.2848771889008
 10
84.89198366755839
 20
-135.2851271884008
 10
84.89198366755839
 20
-135.2851271884008
 10
84.89198366755839
 20
-135.2851271884008
 10
90.8919574033752
 20
-135.2851271884008
 10
90.8919574033752
 20
-135.2851271884008
 10
90.8919574033752
 20
-135.2851271884008
 10
90.8919574033752
 20
-133.2848771889008
 10
90.8919574033752
 20
-133.2848771889008
 10
90.8919574033752
 20
-133.2848771889008
 10
89.39194633053256
 20
-133.2848771889008
 10
89.39194633053256
 20
-133.2848771889008
 10
89.39194633053256
 20
-133.2848771889008
 10
89.39194633053256
 20
-127.8938330235821
 10
89.39194633053256
 20
-127.8938330235821
 10
89.39194633053256
 20
-127.8938330235821
 10
89.61176215825793
 20
-127.8938330235821
 10
89.61176215825793
 20
-127.8938330235821
 10
90.6004924108111
 20
-128.0150827457741
 10
91.50310961000564
 20
-127.3315758015005
 10
91.62781655126854
 20
-126.3674694128527
 10
91.63677710659549
 20
-126.2940916350931
 10
91.64161016202775
 20
-126.2207138573338
 10
91.64161016202775
 20
-126.1473360795741
 10
91.64161016202775
 20
-126.1473360795741
 10
91.64161016202775
 20
-125.7849274685537
 10
91.64161016202775
 20
-125.7849274685537
 10
91.64161016202775
 20
-125.7849274685537
 10
94.51689008867325
 20
-125.7849274685537
 10
94.51689008867325
 20
-125.7849274685537
 10
94.51689008867325
 20
-125.7849274685537
 10
94.89171646799952
 20
-125.135181357605
 10
94.89171646799952
 20
-125.135181357605
 10
94.89171646799952
 20
-125.135181357605
 10
95.26654284732578
 20
-125.7849274685537
 10
95.26654284732578
 20
-125.7849274685537
 10
95.26654284732578
 20
-125.7849274685537
 10
98.14182277397128
 20
-125.7849274685537
 10
98.14182277397128
 20
-125.7849274685537
 10
98.14182277397128
 20
-125.7849274685537
 10
98.14182277397128
 20
-126.1473360795741
 10
98.14182277397128
 20
-126.1473360795741
 10
98.14182277397128
 20
-126.2207138573338
 10
98.14662055162665
 20
-126.2940916350931
 10
98.15558110695362
 20
-126.3674694128527
 10
98.28028804821652
 20
-127.3315758015005
 10
99.18290524741106
 20
-128.0150827457741
 10
100.1716707777411
 20
-127.8938330235821
 10
100.1716707777411
 20
-127.8938330235821
 10
100.3914513276896
 20
-127.8938330235821
 10
100.3914513276896
 20
-127.8938330235821
 10
100.3914513276896
 20
-127.8938330235821
 10
100.3914513276896
 20
-133.2848771889008
 10
100.3914513276896
 20
-133.2848771889008
 10
100.3914513276896
 20
-133.2848771889008
 10
98.89147553262383
 20
-133.2848771889008
 10
98.89147553262383
 20
-133.2848771889008
 10
98.89147553262383
 20
-133.2848771889008
 10
98.89147553262383
 20
-135.2851271884008
 10
98.89147553262383
 20
-135.2851271884008
 10
98.89147553262383
 20
-135.2851271884008
 10
104.8914492684406
 20
-135.2851271884008
 10
104.8914492684406
 20
-135.2851271884008
 10
104.8914492684406
 20
-135.2851271884008
 10
104.8914492684406
 20
-133.2848771889008
 10
104.8914492684406
 20
-133.2848771889008
 10
104.8914492684406
 20
-133.2848771889008
 10
102.8919048750088
 20
-133.2848771889008
 10
102.8919048750088
 20
-133.2848771889008
 97
        0
 97
        0
 75
     2
 76
     1
 98
        0
  0
ENDBLK
  5
48
330
45
100
AcDbEntity
  8
0
100
AcDbBlockEnd
  0
BLOCK
  5
A4
330
A2
100
AcDbEntity
  8
0
100
AcDbBlockBegin
  2
block 4
 70
     0
 10
0.0
 20
0.0
 30
0.0
  3
block 4
  1

  0
POLYLINE
  5
A6
330
A2
100
AcDbEntity
  8
_U+30EC_U+30A4_U+30E4_U+30FC 1
 62
   179
420
  2234388
370
     9
100
AcDb2dPolyline
 66
     1
 10
0.0
 20
0.0
 30
0.0
  0
VERTEX
  5
A7
330
A6
100
AcDbEntity
  8
_U+30EC_U+30A4_U+30E4_U+30FC 1
 62
   179
420
  2234388
370
     9
100
AcDbVertex
100
AcDb2dVertex
 10
84.85684700178814
 20
-139.2848510762902
 30
0.0
  0
VERTEX
  5
A8
330
A6
100
AcDbEntity
  8
_U+30EC_U+30A4_U+30E4_U+30FC 1
 62
   179
420
  2234388
370
     9
100
AcDbVertex
100
AcDb2dVertex
 10
90.85682073760495
 20
-139.2848510762902
 30
0.0
  0
SEQEND
  5
A9
330
A6
100
AcDbEntity
  8
_U+30EC_U+30A4_U+30E4_U+30FC 1
 62
   179
420
  2234388
370
     9
  0
POLYLINE
  5
AA
330
A2
100
AcDbEntity
  8
_U+30EC_U+30A4_U+30E4_U+30FC 1
 62
   179
420
  2234388
370
     9
100
AcDb2dPolyline
 66
     1
 10
0.0
 20
0.0
 30
0.0
  0
VERTEX
  5
AB
330
AA
100
AcDbEntity
  8
_U+30EC_U+30A4_U+30E4_U+30FC 1
 62
   179
420
  2234388
370
     9
100
AcDbVertex
100
AcDb2dVertex
 10
84.85684700178814
 20
-137.824844965544
 30
0.0
  0
VERTEX
  5
AC
330
AA
100
AcDbEntity
  8
_U+30EC_U+30A4_U+30E4_U+30FC 1
 62
   179
420
  2234388
370
     9
100
AcDbVertex
100
AcDb2dVertex
 10
84.85684700178814
 20
-140.2846232982621
 30
0.0
  0
SEQEND
  5
AD
330
AA
100
AcDbEntity
  8
_U+30EC_U+30A4_U+30E4_U+30FC 1
 62
   179
420
  2234388
370
     9
  0
POLYLINE
  5
AE
330
A2
100
AcDbEntity
  8
_U+30EC_U+30A4_U+30E4_U+30FC 1
 62
   179
420
  2234388
370
     9
100
AcDb2dPolyline
 66
     1
 10
0.0
 20
0.0
 30
0.0
  0
VERTEX
  5
AF
330
AE
100
AcDbEntity
  8
_U+30EC_U+30A4_U+30E4_U+30FC 1
 62
   179
420
  2234388
370
     9
100
AcDbVertex
100
AcDb2dVertex
 10
90.85682073760495
 20
-137.824844965544
 30
0.0
  0
VERTEX
  5
B0
330
AE
100
AcDbEntity
  8
_U+30EC_U+30A4_U+30E4_U+30FC 1
 62
   179
420
  2234388
370
     9
100
AcDbVertex
100
AcDb2dVertex
 10
90.85682073760495
 20
-140.2846232982621
 30
0.0
  0
SEQEND
  5
B1
330
AE
100
AcDbEntity
  8
_U+30EC_U+30A4_U+30E4_U+30FC 1
 62
   179
420
  2234388
370
     9
  0
INSERT
  5
B3
330
A2
100
AcDbEntity
  8
_U+30EC_U+30A4_U+30E4_U+30FC 1
100
AcDbBlockReference
  2
block 5
 10
0.0
 20
0.0
 30
0.0
  0
INSERT
  5
BA
330
A2
100
AcDbEntity
  8
_U+30EC_U+30A4_U+30E4_U+30FC 1
100
AcDbBlockReference
  2
block 6
 10
0.0
 20
0.0
 30
0.0
  0
INSERT
  5
BF
330
A2
100
AcDbEntity
  8
_U+30EC_U+30A4_U+30E4_U+30FC 1
100
AcDbBlockReference
  2
block 7
 10
0.0
 20
0.0
 30
0.0
  0
INSERT
  5
C4
330
A2
100
AcDbEntity
  8
_U+30EC_U+30A4_U+30E4_U+30FC 1
100
AcDbBlockReference
  2
block 8
 10
0.0
 20
0.0
 30
0.0
  0
ENDBLK
  5
A5
330
A2
100
AcDbEntity
  8
0
100
AcDbBlockEnd
  0
BLOCK
  5
B4
330
B2
100
AcDbEntity
  8
0
100
AcDbBlockBegin
  2
block 5
 70
     0
 10
0.0
 20
0.0
 30
0.0
  3
block 5
  1

  0
SPLINE
  5
B6
330
B2
100
AcDbEntity
  8
_U+30EC_U+30A4_U+30E4_U+30FC 1
370
     0
100
AcDbSpline
210
0.0
220
0.0
230
1.0
 70
    11
 71
     3
 72
    32
 73
    28
 74
     0
 42
0.0000000001
 43
0.0000000001
 12
1.0
 22
0.0
 32
0.0
 13
1.0
 23
0.0
 33
0.0
 40
0.0
 40
0.0
 40
0.0
 40
0.0
 40
1.0
 40
1.0
 40
1.0
 40
2.0
 40
2.0
 40
2.0
 40
3.0
 40
3.0
 40
3.0
 40
4.0
 40
4.0
 40
4.0
 40
5.0
 40
5.0
 40
5.0
 40
6.0
 40
6.0
 40
6.0
 40
7.0
 40
7.0
 40
7.0
 40
8.0
 40
8.0
 40
8.0
 40
9.0
 40
9.0
 40
9.0
 40
9.0
 10
87.86078692464939
 20
-138.962405021683
 30
0.0
 10
87.3445393661847
 20
-138.962405021683
 30
0.0
 10
87.33609888224584
 20
-138.4080891581063
 30
0.0
 10
87.33609888224584
 20
-138.1944932380208
 30
0.0
 10
87.33609888224584
 20
-137.9640163500576
 30
0.0
 10
87.35504690741472
 20
-137.3166829083792
 30
0.0
 10
87.8988552297614
 20
-137.3166829083792
 30
0.0
 10
88.07231578744373
 20
-137.3166829083792
 30
0.0
 10
88.31760658599352
 20
-137.3862738371812
 30
0.0
 10
88.35567489110554
 20
-137.7183810419593
 30
0.0
 10
88.35567489110554
 20
-137.7183810419593
 30
0.0
 10
88.14207897102004
 20
-137.7183810419593
 30
0.0
 10
88.14207897102004
 20
-137.7183810419593
 30
0.0
 10
88.13157142979003
 20
-137.6611924569042
 30
0.0
 10
88.09970429655147
 20
-137.5133978605869
 30
0.0
 10
87.89661591769598
 20
-137.5133978605869
 30
0.0
 10
87.60481633009533
 20
-137.5133978605869
 30
0.0
 10
87.5645087129179
 20
-137.8410264412342
 30
0.0
 10
87.55193411439674
 20
-138.0463541321551
 30
0.0
 10
87.6449516924985
 20
-137.9681504646399
 30
0.0
 10
87.71264781878365
 20
-137.9088948222936
 30
0.0
 10
87.89454886040484
 20
-137.9088948222936
 30
0.0
 10
88.07438284473488
 20
-137.9088948222936
 30
0.0
 10
88.37686222833982
 20
-138.0167263109819
 30
0.0
 10
88.37686222833982
 20
-138.4229030686929
 30
0.0
 10
88.37686222833982
 20
-138.7422634201756
 30
0.0
 10
88.1780802188409
 20
-138.962405021683
 30
0.0
 10
87.86078692464939
 20
-138.962405021683
 30
0.0
  0
SPLINE
  5
B7
330
B2
100
AcDbEntity
  8
_U+30EC_U+30A4_U+30E4_U+30FC 1
370
     0
100
AcDbSpline
210
0.0
220
0.0
230
1.0
 70
    11
 71
     3
 72
    17
 73
    13
 74
     0
 42
0.0000000001
 43
0.0000000001
 12
1.0
 22
0.0
 32
0.0
 13
1.0
 23
0.0
 33
0.0
 40
0.0
 40
0.0
 40
0.0
 40
0.0
 40
1.0
 40
1.0
 40
1.0
 40
2.0
 40
2.0
 40
2.0
 40
3.0
 40
3.0
 40
3.0
 40
4.0
 40
4.0
 40
4.0
 40
4.0
 10
87.87766789252711
 20
-138.1035427172102
 30
0.0
 10
87.61532387132534
 20
-138.1035427172102
 30
0.0
 10
87.57725556621332
 20
-138.3150715800046
 30
0.0
 10
87.57725556621332
 20
-138.431515807406
 30
0.0
 10
87.57725556621332
 20
-138.6068711676052
 30
0.0
 10
87.67251245638049
 20
-138.7698241840575
 30
0.0
 10
87.85648055529283
 20
-138.7698241840575
 30
0.0
 10
87.97705889727658
 20
-138.7698241840575
 30
0.0
 10
88.15275876702431
 20
-138.7105685417112
 30
0.0
 10
88.15275876702431
 20
-138.424970125984
 30
0.0
 10
88.15275876702431
 20
-138.2006944098943
 30
0.0
 10
88.01306014509743
 20
-138.1035427172102
 30
0.0
 10
87.87766789252711
 20
-138.1035427172102
 30
0.0
  0
HATCH
  5
B8
330
B2
100
AcDbEntity
  8
_U+30EC_U+30A4_U+30E4_U+30FC 1
 62
   179
420
  2234388
100
AcDbHatch
 10
0.0
 20
0.0
 30
0.0
210
0.0
220
0.0
230
1.0
  2
SOLID
 70
     1
 71
     0
 91
        2
 92
        1
 93
        1
 72
     4
 94
        3
 73
     0
 74
     1
 95
       32
 96
       28
 40
0.0
 40
0.0
 40
0.0
 40
0.0
 40
1.0
 40
1.0
 40
1.0
 40
2.0
 40
2.0
 40
2.0
 40
3.0
 40
3.0
 40
3.0
 40
4.0
 40
4.0
 40
4.0
 40
5.0
 40
5.0
 40
5.0
 40
6.0
 40
6.0
 40
6.0
 40
7.0
 40
7.0
 40
7.0
 40
8.0
 40
8.0
 40
8.0
 40
9.0
 40
9.0
 40
9.0
 40
9.0
 10
87.86078692464939
 20
-138.962405021683
 10
87.3445393661847
 20
-138.962405021683
 10
87.33609888224584
 20
-138.4080891581063
 10
87.33609888224584
 20
-138.1944932380208
 10
87.33609888224584
 20
-137.9640163500576
 10
87.35504690741472
 20
-137.3166829083792
 10
87.8988552297614
 20
-137.3166829083792
 10
88.07231578744373
 20
-137.3166829083792
 10
88.31760658599352
 20
-137.3862738371812
 10
88.35567489110554
 20
-137.7183810419593
 10
88.35567489110554
 20
-137.7183810419593
 10
88.14207897102004
 20
-137.7183810419593
 10
88.14207897102004
 20
-137.7183810419593
 10
88.13157142979003
 20
-137.6611924569042
 10
88.09970429655147
 20
-137.5133978605869
 10
87.89661591769598
 20
-137.5133978605869
 10
87.60481633009533
 20
-137.5133978605869
 10
87.5645087129179
 20
-137.8410264412342
 10
87.55193411439674
 20
-138.0463541321551
 10
87.6449516924985
 20
-137.9681504646399
 10
87.71264781878365
 20
-137.9088948222936
 10
87.89454886040484
 20
-137.9088948222936
 10
88.07438284473488
 20
-137.9088948222936
 10
88.37686222833982
 20
-138.0167263109819
 10
88.37686222833982
 20
-138.4229030686929
 10
88.37686222833982
 20
-138.7422634201756
 10
88.1780802188409
 20
-138.962405021683
 10
87.86078692464939
 20
-138.962405021683
 97
        0
 97
        0
 92
        1
 93
        1
 72
     4
 94
        3
 73
     0
 74
     1
 95
       17
 96
       13
 40
0.0
 40
0.0
 40
0.0
 40
0.0
 40
1.0
 40
1.0
 40
1.0
 40
2.0
 40
2.0
 40
2.0
 40
3.0
 40
3.0
 40
3.0
 40
4.0
 40
4.0
 40
4.0
 40
4.0
 10
87.87766789252711
 20
-138.1035427172102
 10
87.61532387132534
 20
-138.1035427172102
 10
87.57725556621332
 20
-138.3150715800046
 10
87.57725556621332
 20
-138.431515807406
 10
87.57725556621332
 20
-138.6068711676052
 10
87.67251245638049
 20
-138.7698241840575
 10
87.85648055529283
 20
-138.7698241840575
 10
87.97705889727658
 20
-138.7698241840575
 10
88.15275876702431
 20
-138.7105685417112
 10
88.15275876702431
 20
-138.424970125984
 10
88.15275876702431
 20
-138.2006944098943
 10
88.01306014509743
 20
-138.1035427172102
 10
87.87766789252711
 20
-138.1035427172102
 97
        0
 97
        0
 75
     2
 76
     1
 98
        0
  0
ENDBLK
  5
B5
330
B2
100
AcDbEntity
  8
0
100
AcDbBlockEnd
  0
BLOCK
  5
BB
330
B9
100
AcDbEntity
  8
0
100
AcDbBlockBegin
  2
block 6
 70
     0
 10
0.0
 20
0.0
 30
0.0
  3
block 6
  1

  0
SPLINE
  5
BD
330
B9
100
AcDbEntity
  8
_U+30EC_U+30A4_U+30E4_U+30FC 1
 62
   179
420
  2234388
370
    25
100
AcDbSpline
210
0.0
220
0.0
230
1.0
 70
    11
 71
     3
 72
    17
 73
    13
 74
     0
 42
0.0000000001
 43
0.0000000001
 12
1.0
 22
0.0
 32
0.0
 13
1.0
 23
0.0
 33
0.0
 40
0.0
 40
0.0
 40
0.0
 40
0.0
 40
1.0
 40
1.0
 40
1.0
 40
2.0
 40
2.0
 40
2.0
 40
3.0
 40
3.0
 40
3.0
 40
4.0
 40
4.0
 40
4.0
 40
4.0
 10
84.89198366755839
 20
-135.2851271884008
 30
0.0
 10
84.89198366755839
 20
-135.3043888550631
 30
0.0
 10
84.87614394574028
 20
-135.3202638550585
 30
0.0
 10
84.85684700178814
 20
-135.3202638550585
 30
0.0
 10
84.83719728006723
 20
-135.3202638550585
 30
0.0
 10
84.8213575582491
 20
-135.3043888550631
 30
0.0
 10
84.8213575582491
 20
-135.2851271884008
 30
0.0
 10
84.8213575582491
 20
-135.2651246884061
 30
0.0
 10
84.83719728006723
 20
-135.2499552439656
 30
0.0
 10
84.85684700178814
 20
-135.2499552439656
 30
0.0
 10
84.87614394574028
 20
-135.2499552439656
 30
0.0
 10
84.89198366755839
 20
-135.2651246884061
 30
0.0
 10
84.89198366755839
 20
-135.2851271884008
 30
0.0
  0
ENDBLK
  5
BC
330
B9
100
AcDbEntity
  8
0
100
AcDbBlockEnd
  0
BLOCK
  5
C0
330
BE
100
AcDbEntity
  8
0
100
AcDbBlockBegin
  2
block 7
 70
     0
 10
0.0
 20
0.0
 30
0.0
  3
block 7
  1

  0
SPLINE
  5
C2
330
BE
100
AcDbEntity
  8
_U+30EC_U+30A4_U+30E4_U+30FC 1
 62
   179
420
  2234388
370
    25
100
AcDbSpline
210
0.0
220
0.0
230
1.0
 70
    11
 71
     3
 72
    17
 73
    13
 74
     0
 42
0.0000000001
 43
0.0000000001
 12
1.0
 22
0.0
 32
0.0
 13
1.0
 23
0.0
 33
0.0
 40
0.0
 40
0.0
 40
0.0
 40
0.0
 40
1.0
 40
1.0
 40
1.0
 40
2.0
 40
2.0
 40
2.0
 40
3.0
 40
3.0
 40
3.0
 40
4.0
 40
4.0
 40
4.0
 40
4.0
 10
90.8919574033752
 20
-135.2851271884008
 30
0.0
 10
90.8919574033752
 20
-135.3043888550631
 30
0.0
 10
90.87611768155709
 20
-135.3202638550585
 30
0.0
 10
90.85682073760495
 20
-135.3202638550585
 30
0.0
 10
90.83717101588404
 20
-135.3202638550585
 30
0.0
 10
90.8216840718347
 20
-135.3043888550631
 30
0.0
 10
90.8216840718347
 20
-135.2851271884008
 30
0.0
 10
90.8216840718347
 20
-135.2651246884061
 30
0.0
 10
90.83717101588404
 20
-135.2499552439656
 30
0.0
 10
90.85682073760495
 20
-135.2499552439656
 30
0.0
 10
90.87611768155709
 20
-135.2499552439656
 30
0.0
 10
90.8919574033752
 20
-135.2651246884061
 30
0.0
 10
90.8919574033752
 20
-135.2851271884008
 30
0.0
  0
ENDBLK
  5
C1
330
BE
100
AcDbEntity
  8
0
100
AcDbBlockEnd
  0
BLOCK
  5
C5
330
C3
100
AcDbEntity
  8
0
100
AcDbBlockBegin
  2
block 8
 70
     0
 10
0.0
 20
0.0
 30
0.0
  3
block 8
  1

  0
SPLINE
  5
C7
330
C3
100
AcDbEntity
  8
_U+30EC_U+30A4_U+30E4_U+30FC 1
 62
   179
420
  2234388
370
     9
100
AcDbSpline
210
0.0
220
0.0
230
1.0
 70
    11
 71
     3
 72
    17
 73
    13
 74
     0
 42
0.0000000001
 43
0.0000000001
 12
1.0
 22
0.0
 32
0.0
 13
1.0
 23
0.0
 33
0.0
 40
0.0
 40
0.0
 40
0.0
 40
0.0
 40
1.0
 40
1.0
 40
1.0
 40
2.0
 40
2.0
 40
2.0
 40
3.0
 40
3.0
 40
3.0
 40
4.0
 40
4.0
 40
4.0
 40
4.0
 10
90.8919574033752
 20
-139.2848510762902
 30
0.0
 10
90.8919574033752
 20
-139.3041480207293
 30
0.0
 10
90.87611768155709
 20
-139.3200230207254
 30
0.0
 10
90.85682073760495
 20
-139.3200230207254
 30
0.0
 10
90.83717101588404
 20
-139.3200230207254
 30
0.0
 10
90.8216840718347
 20
-139.3041480207293
 30
0.0
 10
90.8216840718347
 20
-139.2848510762902
 30
0.0
 10
90.8216840718347
 20
-139.2655894096279
 30
0.0
 10
90.83717101588404
 20
-139.2497144096318
 30
0.0
 10
90.85682073760495
 20
-139.2497144096318
 30
0.0
 10
90.87611768155709
 20
-139.2497144096318
 30
0.0
 10
90.8919574033752
 20
-139.2655894096279
 30
0.0
 10
90.8919574033752
 20
-139.2848510762902
 30
0.0
  0
ENDBLK
  5
C6
330
C3
100
AcDbEntity
  8
0
100
AcDbBlockEnd
  0
BLOCK
  5
CA
330
C8
100
AcDbEntity
  8
0
100
AcDbBlockBegin
  2
block 9
 70
     0
 10
0.0
 20
0.0
 30
0.0
  3
block 9
  1

  0
POLYLINE
  5
CC
330
C8
100
AcDbEntity
  8
_U+30EC_U+30A4_U+30E4_U+30FC 1
 62
   179
420
  2234388
370
     9
100
AcDb2dPolyline
 66
     1
 10
0.0
 20
0.0
 30
0.0
  0
VERTEX
  5
CD
330
CC
100
AcDbEntity
  8
_U+30EC_U+30A4_U+30E4_U+30FC 1
 62
   179
420
  2234388
370
     9
100
AcDbVertex
100
AcDb2dVertex
 10
90.85682073760495
 20
-139.2848510762902
 30
0.0
  0
VERTEX
  5
CE
330
CC
100
AcDbEntity
  8
_U+30EC_U+30A4_U+30E4_U+30FC 1
 62
   179
420
  2234388
370
     9
100
AcDbVertex
100
AcDb2dVertex
 10
98.85665636684547
 20
-139.2848510762902
 30
0.0
  0
SEQEND
  5
CF
330
CC
100
AcDbEntity
  8
_U+30EC_U+30A4_U+30E4_U+30FC 1
 62
   179
420
  2234388
370
     9
  0
POLYLINE
  5
D0
330
C8
100
AcDbEntity
  8
_U+30EC_U+30A4_U+30E4_U+30FC 1
 62
   179
420
  2234388
370
     9
100
AcDb2dPolyline
 66
     1
 10
0.0
 20
0.0
 30
0.0
  0
VERTEX
  5
D1
330
D0
100
AcDbEntity
  8
_U+30EC_U+30A4_U+30E4_U+30FC 1
 62
   179
420
  2234388
370
     9
100
AcDbVertex
100
AcDb2dVertex
 10
90.85682073760495
 20
-137.824844965544
 30
0.0
  0
VERTEX
  5
D2
330
D0
100
AcDbEntity
  8
_U+30EC_U+30A4_U+30E4_U+30FC 1
 62
   179
420
  2234388
370
     9
100
AcDbVertex
100
AcDb2dVertex
 10
90.85682073760495
 20
-140.2846232982621
 30
0.0
  0
SEQEND
  5
D3
330
D0
100
AcDbEntity
  8
_U+30EC_U+30A4_U+30E4_U+30FC 1
 62
   179
420
  2234388
370
     9
  0
POLYLINE
  5
D4
330
C8
100
AcDbEntity
  8
_U+30EC_U+30A4_U+30E4_U+30FC 1
 62
   179
420
  2234388
370
     9
100
AcDb2dPolyline
 66
     1
 10
0.0
 20
0.0
 30
0.0
  0
VERTEX
  5
D5
330
D4
100
AcDbEntity
  8
_U+30EC_U+30A4_U+30E4_U+30FC 1
 62
   179
420
  2234388
370
     9
100
AcDbVertex
100
AcDb2dVertex
 10
98.85665636684547
 20
-137.824844965544
 30
0.0
  0
VERTEX
  5
D6
330
D4
100
AcDbEntity
  8
_U+30EC_U+30A4_U+30E4_U+30FC 1
 62
   179
420
  2234388
370
     9
100
AcDbVertex
100
AcDb2dVertex
 10
98.85665636684547
 20
-140.2846232982621
 30
0.0
  0
SEQEND
  5
D7
330
D4
100
AcDbEntity
  8
_U+30EC_U+30A4_U+30E4_U+30FC 1
 62
   179
420
  2234388
370
     9
  0
INSERT
  5
D9
330
C8
100
AcDbEntity
  8
_U+30EC_U+30A4_U+30E4_U+30FC 1
100
AcDbBlockReference
  2
block 10
 10
0.0
 20
0.0
 30
0.0
  0
INSERT
  5
E1
330
C8
100
AcDbEntity
  8
_U+30EC_U+30A4_U+30E4_U+30FC 1
100
AcDbBlockReference
  2
block 11
 10
0.0
 20
0.0
 30
0.0
  0
INSERT
  5
E6
330
C8
100
AcDbEntity
  8
_U+30EC_U+30A4_U+30E4_U+30FC 1
100
AcDbBlockReference
  2
block 12
 10
0.0
 20
0.0
 30
0.0
  0
INSERT
  5
EB
330
C8
100
AcDbEntity
  8
_U+30EC_U+30A4_U+30E4_U+30FC 1
100
AcDbBlockReference
  2
block 13
 10
0.0
 20
0.0
 30
0.0
  0
ENDBLK
  5
CB
330
C8
100
AcDbEntity
  8
0
100
AcDbBlockEnd
  0
BLOCK
  5
DA
330
D8
100
AcDbEntity
  8
0
100
AcDbBlockBegin
  2
block 10
 70
     0
 10
0.0
 20
0.0
 30
0.0
  3
block 10
  1

  0
SPLINE
  5
DC
330
D8
100
AcDbEntity
  8
_U+30EC_U+30A4_U+30E4_U+30FC 1
370
     0
100
AcDbSpline
210
0.0
220
0.0
230
1.0
 70
    11
 71
     3
 72
    29
 73
    25
 74
     0
 42
0.0000000001
 43
0.0000000001
 12
1.0
 22
0.0
 32
0.0
 13
1.0
 23
0.0
 33
0.0
 40
0.0
 40
0.0
 40
0.0
 40
0.0
 40
1.0
 40
1.0
 40
1.0
 40
2.0
 40
2.0
 40
2.0
 40
3.0
 40
3.0
 40
3.0
 40
4.0
 40
4.0
 40
4.0
 40
5.0
 40
5.0
 40
5.0
 40
6.0
 40
6.0
 40
6.0
 40
7.0
 40
7.0
 40
7.0
 40
8.0
 40
8.0
 40
8.0
 40
8.0
 10
94.85657007177197
 20
-138.962405021683
 30
0.0
 10
94.58991968121363
 20
-138.962405021683
 30
0.0
 10
94.33601614395073
 20
-138.8249457118216
 30
0.0
 10
94.33601614395073
 20
-138.4759575391657
 30
0.0
 10
94.33601614395073
 20
-138.2199869446117
 30
0.0
 10
94.47760956839448
 20
-138.1245577996702
 30
0.0
 10
94.58337399979166
 20
-138.0632351000328
 30
0.0
 10
94.45866154322562
 20
-138.0039794576865
 30
0.0
 10
94.38252493300159
 20
-137.8899467971247
 30
0.0
 10
94.38252493300159
 20
-137.7290608379636
 30
0.0
 10
94.38252493300159
 20
-137.4541422182406
 30
0.0
 10
94.5813069425005
 20
-137.3187499656703
 30
0.0
 10
94.85657007177197
 20
-137.3187499656703
 30
0.0
 10
95.13975692065951
 20
-137.3187499656703
 30
0.0
 10
95.33027070099382
 20
-137.4624104474052
 30
0.0
 10
95.33027070099382
 20
-137.7290608379636
 30
0.0
 10
95.33027070099382
 20
-137.8899467971247
 30
0.0
 10
95.25206703347865
 20
-138.0039794576865
 30
0.0
 10
95.12735457691261
 20
-138.0632351000328
 30
0.0
 10
95.21589353088353
 20
-138.1142225132145
 30
0.0
 10
95.37471243275355
 20
-138.2093071486074
 30
0.0
 10
95.37471243275355
 20
-138.4714789150349
 30
0.0
 10
95.37471243275355
 20
-138.8459607942816
 30
0.0
 10
95.09531518889979
 20
-138.962405021683
 30
0.0
 10
94.85657007177197
 20
-138.962405021683
 30
0.0
  0
SPLINE
  5
DD
330
D8
100
AcDbEntity
  8
_U+30EC_U+30A4_U+30E4_U+30FC 1
370
     0
100
AcDbSpline
210
0.0
220
0.0
230
1.0
 70
    11
 71
     3
 72
    17
 73
    13
 74
     0
 42
0.0000000001
 43
0.0000000001
 12
1.0
 22
0.0
 32
0.0
 13
1.0
 23
0.0
 33
0.0
 40
0.0
 40
0.0
 40
0.0
 40
0.0
 40
1.0
 40
1.0
 40
1.0
 40
2.0
 40
2.0
 40
2.0
 40
3.0
 40
3.0
 40
3.0
 40
4.0
 40
4.0
 40
4.0
 40
4.0
 10
94.85657007177197
 20
-138.1710665887211
 30
0.0
 10
94.71256508048853
 20
-138.1710665887211
 30
0.0
 10
94.5602918600405
 20
-138.2578829949494
 30
0.0
 10
94.5602918600405
 20
-138.4611436285792
 30
0.0
 10
94.5602918600405
 20
-138.6661268099515
 30
0.0
 10
94.68707137389768
 20
-138.7677571267664
 30
0.0
 10
94.85657007177197
 20
-138.7677571267664
 30
0.0
 10
95.04260522797546
 20
-138.7677571267664
 30
0.0
 10
95.15250377395493
 20
-138.6451117274915
 30
0.0
 10
95.15250377395493
 20
-138.4673448004526
 30
0.0
 10
95.15250377395493
 20
-138.245136141654
 30
0.0
 10
94.98955075750261
 20
-138.1710665887211
 30
0.0
 10
94.85657007177197
 20
-138.1710665887211
 30
0.0
  0
SPLINE
  5
DE
330
D8
100
AcDbEntity
  8
_U+30EC_U+30A4_U+30E4_U+30FC 1
370
     0
100
AcDbSpline
210
0.0
220
0.0
230
1.0
 70
    11
 71
     3
 72
    17
 73
    13
 74
     0
 42
0.0000000001
 43
0.0000000001
 12
1.0
 22
0.0
 32
0.0
 13
1.0
 23
0.0
 33
0.0
 40
0.0
 40
0.0
 40
0.0
 40
0.0
 40
1.0
 40
1.0
 40
1.0
 40
2.0
 40
2.0
 40
2.0
 40
3.0
 40
3.0
 40
3.0
 40
4.0
 40
4.0
 40
4.0
 40
4.0
 10
94.85657007177197
 20
-137.5109862937473
 30
0.0
 10
94.6915499980285
 20
-137.5109862937473
 30
0.0
 10
94.60680064909135
 20
-137.6064154386887
 30
0.0
 10
94.60680064909135
 20
-137.741807691259
 30
0.0
 10
94.60680064909135
 20
-137.8644530905339
 30
0.0
 10
94.67880314473308
 20
-137.9829643752265
 30
0.0
 10
94.85657007177197
 20
-137.9829643752265
 30
0.0
 10
95.03399248926235
 20
-137.9829643752265
 30
0.0
 10
95.10599498490406
 20
-137.8644530905339
 30
0.0
 10
95.10599498490406
 20
-137.741807691259
 30
0.0
 10
95.10599498490406
 20
-137.6064154386887
 30
0.0
 10
95.01917857867576
 20
-137.5109862937473
 30
0.0
 10
94.85657007177197
 20
-137.5109862937473
 30
0.0
  0
HATCH
  5
DF
330
D8
100
AcDbEntity
  8
_U+30EC_U+30A4_U+30E4_U+30FC 1
 62
   179
420
  2234388
100
AcDbHatch
 10
0.0
 20
0.0
 30
0.0
210
0.0
220
0.0
230
1.0
  2
SOLID
 70
     1
 71
     0
 91
        3
 92
        1
 93
        1
 72
     4
 94
        3
 73
     0
 74
     1
 95
       29
 96
       25
 40
0.0
 40
0.0
 40
0.0
 40
0.0
 40
1.0
 40
1.0
 40
1.0
 40
2.0
 40
2.0
 40
2.0
 40
3.0
 40
3.0
 40
3.0
 40
4.0
 40
4.0
 40
4.0
 40
5.0
 40
5.0
 40
5.0
 40
6.0
 40
6.0
 40
6.0
 40
7.0
 40
7.0
 40
7.0
 40
8.0
 40
8.0
 40
8.0
 40
8.0
 10
94.85657007177197
 20
-138.962405021683
 10
94.58991968121363
 20
-138.962405021683
 10
94.33601614395073
 20
-138.8249457118216
 10
94.33601614395073
 20
-138.4759575391657
 10
94.33601614395073
 20
-138.2199869446117
 10
94.47760956839448
 20
-138.1245577996702
 10
94.58337399979166
 20
-138.0632351000328
 10
94.45866154322562
 20
-138.0039794576865
 10
94.38252493300159
 20
-137.8899467971247
 10
94.38252493300159
 20
-137.7290608379636
 10
94.38252493300159
 20
-137.4541422182406
 10
94.5813069425005
 20
-137.3187499656703
 10
94.85657007177197
 20
-137.3187499656703
 10
95.13975692065951
 20
-137.3187499656703
 10
95.33027070099382
 20
-137.4624104474052
 10
95.33027070099382
 20
-137.7290608379636
 10
95.33027070099382
 20
-137.8899467971247
 10
95.25206703347865
 20
-138.0039794576865
 10
95.12735457691261
 20
-138.0632351000328
 10
95.21589353088353
 20
-138.1142225132145
 10
95.37471243275355
 20
-138.2093071486074
 10
95.37471243275355
 20
-138.4714789150349
 10
95.37471243275355
 20
-138.8459607942816
 10
95.09531518889979
 20
-138.962405021683
 10
94.85657007177197
 20
-138.962405021683
 97
        0
 97
        0
 92
        1
 93
        1
 72
     4
 94
        3
 73
     0
 74
     1
 95
       17
 96
       13
 40
0.0
 40
0.0
 40
0.0
 40
0.0
 40
1.0
 40
1.0
 40
1.0
 40
2.0
 40
2.0
 40
2.0
 40
3.0
 40
3.0
 40
3.0
 40
4.0
 40
4.0
 40
4.0
 40
4.0
 10
94.85657007177197
 20
-138.1710665887211
 10
94.71256508048853
 20
-138.1710665887211
 10
94.5602918600405
 20
-138.2578829949494
 10
94.5602918600405
 20
-138.4611436285792
 10
94.5602918600405
 20
-138.6661268099515
 10
94.68707137389768
 20
-138.7677571267664
 10
94.85657007177197
 20
-138.7677571267664
 10
95.04260522797546
 20
-138.7677571267664
 10
95.15250377395493
 20
-138.6451117274915
 10
95.15250377395493
 20
-138.4673448004526
 10
95.15250377395493
 20
-138.245136141654
 10
94.98955075750261
 20
-138.1710665887211
 10
94.85657007177197
 20
-138.1710665887211
 97
        0
 97
        0
 92
        1
 93
        1
 72
     4
 94
        3
 73
     0
 74
     1
 95
       17
 96
       13
 40
0.0
 40
0.0
 40
0.0
 40
0.0
 40
1.0
 40
1.0
 40
1.0
 40
2.0
 40
2.0
 40
2.0
 40
3.0
 40
3.0
 40
3.0
 40
4.0
 40
4.0
 40
4.0
 40
4.0
 10
94.85657007177197
 20
-137.5109862937473
 10
94.6915499980285
 20
-137.5109862937473
 10
94.60680064909135
 20
-137.6064154386887
 10
94.60680064909135
 20
-137.741807691259
 10
94.60680064909135
 20
-137.8644530905339
 10
94.67880314473308
 20
-137.9829643752265
 10
94.85657007177197
 20
-137.9829643752265
 10
95.03399248926235
 20
-137.9829643752265
 10
95.10599498490406
 20
-137.8644530905339
 10
95.10599498490406
 20
-137.741807691259
 10
95.10599498490406
 20
-137.6064154386887
 10
95.01917857867576
 20
-137.5109862937473
 10
94.85657007177197
 20
-137.5109862937473
 97
        0
 97
        0
 75
     2
 76
     1
 98
        0
  0
ENDBLK
  5
DB
330
D8
100
AcDbEntity
  8
0
100
AcDbBlockEnd
  0
BLOCK
  5
E2
330
E0
100
AcDbEntity
  8
0
100
AcDbBlockBegin
  2
block 11
 70
     0
 10
0.0
 20
0.0
 30
0.0
  3
block 11
  1

  0
SPLINE
  5
E4
330
E0
100
AcDbEntity
  8
_U+30EC_U+30A4_U+30E4_U+30FC 1
 62
   179
420
  2234388
370
    25
100
AcDbSpline
210
0.0
220
0.0
230
1.0
 70
    11
 71
     3
 72
    17
 73
    13
 74
     0
 42
0.0000000001
 43
0.0000000001
 12
1.0
 22
0.0
 32
0.0
 13
1.0
 23
0.0
 33
0.0
 40
0.0
 40
0.0
 40
0.0
 40
0.0
 40
1.0
 40
1.0
 40
1.0
 40
2.0
 40
2.0
 40
2.0
 40
3.0
 40
3.0
 40
3.0
 40
4.0
 40
4.0
 40
4.0
 40
4.0
 10
90.8919574033752
 20
-135.2851271884008
 30
0.0
 10
90.8919574033752
 20
-135.3043888550631
 30
0.0
 10
90.87611768155709
 20
-135.3202638550585
 30
0.0
 10
90.85682073760495
 20
-135.3202638550585
 30
0.0
 10
90.83717101588404
 20
-135.3202638550585
 30
0.0
 10
90.8216840718347
 20
-135.3043888550631
 30
0.0
 10
90.8216840718347
 20
-135.2851271884008
 30
0.0
 10
90.8216840718347
 20
-135.2651246884061
 30
0.0
 10
90.83717101588404
 20
-135.2499552439656
 30
0.0
 10
90.85682073760495
 20
-135.2499552439656
 30
0.0
 10
90.87611768155709
 20
-135.2499552439656
 30
0.0
 10
90.8919574033752
 20
-135.2651246884061
 30
0.0
 10
90.8919574033752
 20
-135.2851271884008
 30
0.0
  0
ENDBLK
  5
E3
330
E0
100
AcDbEntity
  8
0
100
AcDbBlockEnd
  0
BLOCK
  5
E7
330
E5
100
AcDbEntity
  8
0
100
AcDbBlockBegin
  2
block 12
 70
     0
 10
0.0
 20
0.0
 30
0.0
  3
block 12
  1

  0
SPLINE
  5
E9
330
E5
100
AcDbEntity
  8
_U+30EC_U+30A4_U+30E4_U+30FC 1
 62
   179
420
  2234388
370
    25
100
AcDbSpline
210
0.0
220
0.0
230
1.0
 70
    11
 71
     3
 72
    17
 73
    13
 74
     0
 42
0.0000000001
 43
0.0000000001
 12
1.0
 22
0.0
 32
0.0
 13
1.0
 23
0.0
 33
0.0
 40
0.0
 40
0.0
 40
0.0
 40
0.0
 40
1.0
 40
1.0
 40
1.0
 40
2.0
 40
2.0
 40
2.0
 40
3.0
 40
3.0
 40
3.0
 40
4.0
 40
4.0
 40
4.0
 40
4.0
 10
98.8921458103845
 20
-135.2851271884008
 30
0.0
 10
98.8921458103845
 20
-135.3043888550631
 30
0.0
 10
98.8763060885664
 20
-135.3202638550585
 30
0.0
 10
98.85665636684547
 20
-135.3202638550585
 30
0.0
 10
98.83735942289333
 20
-135.3202638550585
 30
0.0
 10
98.82152219751677
 20
-135.3043888550631
 30
0.0
 10
98.82152219751677
 20
-135.2851271884008
 30
0.0
 10
98.82152219751677
 20
-135.2651246884061
 30
0.0
 10
98.83735942289333
 20
-135.2499552439656
 30
0.0
 10
98.85665636684547
 20
-135.2499552439656
 30
0.0
 10
98.8763060885664
 20
-135.2499552439656
 30
0.0
 10
98.8921458103845
 20
-135.2651246884061
 30
0.0
 10
98.8921458103845
 20
-135.2851271884008
 30
0.0
  0
ENDBLK
  5
E8
330
E5
100
AcDbEntity
  8
0
100
AcDbBlockEnd
  0
BLOCK
  5
EC
330
EA
100
AcDbEntity
  8
0
100
AcDbBlockBegin
  2
block 13
 70
     0
 10
0.0
 20
0.0
 30
0.0
  3
block 13
  1

  0
SPLINE
  5
EE
330
EA
100
AcDbEntity
  8
_U+30EC_U+30A4_U+30E4_U+30FC 1
 62
   179
420
  2234388
370
     9
100
AcDbSpline
210
0.0
220
0.0
230
1.0
 70
    11
 71
     3
 72
    17
 73
    13
 74
     0
 42
0.0000000001
 43
0.0000000001
 12
1.0
 22
0.0
 32
0.0
 13
1.0
 23
0.0
 33
0.0
 40
0.0
 40
0.0
 40
0.0
 40
0.0
 40
1.0
 40
1.0
 40
1.0
 40
2.0
 40
2.0
 40
2.0
 40
3.0
 40
3.0
 40
3.0
 40
4.0
 40
4.0
 40
4.0
 40
4.0
 10
98.8921458103845
 20
-139.2848510762902
 30
0.0
 10
98.8921458103845
 20
-139.3041480207293
 30
0.0
 10
98.8763060885664
 20
-139.3200230207254
 30
0.0
 10
98.85665636684547
 20
-139.3200230207254
 30
0.0
 10
98.83735942289333
 20
-139.3200230207254
 30
0.0
 10
98.82152219751677
 20
-139.3041480207293
 30
0.0
 10
98.82152219751677
 20
-139.2848510762902
 30
0.0
 10
98.82152219751677
 20
-139.2655894096279
 30
0.0
 10
98.83735942289333
 20
-139.2497144096318
 30
0.0
 10
98.85665636684547
 20
-139.2497144096318
 30
0.0
 10
98.8763060885664
 20
-139.2497144096318
 30
0.0
 10
98.8921458103845
 20
-139.2655894096279
 30
0.0
 10
98.8921458103845
 20
-139.2848510762902
 30
0.0
  0
ENDBLK
  5
ED
330
EA
100
AcDbEntity
  8
0
100
AcDbBlockEnd
  0
BLOCK
  5
F1
330
EF
100
AcDbEntity
  8
0
100
AcDbBlockBegin
  2
block 14
 70
     0
 10
0.0
 20
0.0
 30
0.0
  3
block 14
  1

  0
POLYLINE
  5
F3
330
EF
100
AcDbEntity
  8
_U+30EC_U+30A4_U+30E4_U+30FC 1
 62
   179
420
  2234388
370
     9
100
AcDb2dPolyline
 66
     1
 10
0.0
 20
0.0
 30
0.0
  0
VERTEX
  5
F4
330
F3
100
AcDbEntity
  8
_U+30EC_U+30A4_U+30E4_U+30FC 1
 62
   179
420
  2234388
370
     9
100
AcDbVertex
100
AcDb2dVertex
 10
98.85665636684547
 20
-139.2848510762902
 30
0.0
  0
VERTEX
  5
F5
330
F3
100
AcDbEntity
  8
_U+30EC_U+30A4_U+30E4_U+30FC 1
 62
   179
420
  2234388
370
     9
100
AcDbVertex
100
AcDb2dVertex
 10
104.8566301026623
 20
-139.2848510762902
 30
0.0
  0
SEQEND
  5
F6
330
F3
100
AcDbEntity
  8
_U+30EC_U+30A4_U+30E4_U+30FC 1
 62
   179
420
  2234388
370
     9
  0
POLYLINE
  5
F7
330
EF
100
AcDbEntity
  8
_U+30EC_U+30A4_U+30E4_U+30FC 1
 62
   179
420
  2234388
370
     9
100
AcDb2dPolyline
 66
     1
 10
0.0
 20
0.0
 30
0.0
  0
VERTEX
  5
F8
330
F7
100
AcDbEntity
  8
_U+30EC_U+30A4_U+30E4_U+30FC 1
 62
   179
420
  2234388
370
     9
100
AcDbVertex
100
AcDb2dVertex
 10
104.8566301026623
 20
-137.824844965544
 30
0.0
  0
VERTEX
  5
F9
330
F7
100
AcDbEntity
  8
_U+30EC_U+30A4_U+30E4_U+30FC 1
 62
   179
420
  2234388
370
     9
100
AcDbVertex
100
AcDb2dVertex
 10
104.8566301026623
 20
-140.2846232982621
 30
0.0
  0
SEQEND
  5
FA
330
F7
100
AcDbEntity
  8
_U+30EC_U+30A4_U+30E4_U+30FC 1
 62
   179
420
  2234388
370
     9
  0
INSERT
  5
FC
330
EF
100
AcDbEntity
  8
_U+30EC_U+30A4_U+30E4_U+30FC 1
100
AcDbBlockReference
  2
block 15
 10
0.0
 20
0.0
 30
0.0
  0
INSERT
  5
103
330
EF
100
AcDbEntity
  8
_U+30EC_U+30A4_U+30E4_U+30FC 1
100
AcDbBlockReference
  2
block 16
 10
0.0
 20
0.0
 30
0.0
  0
INSERT
  5
108
330
EF
100
AcDbEntity
  8
_U+30EC_U+30A4_U+30E4_U+30FC 1
100
AcDbBlockReference
  2
block 17
 10
0.0
 20
0.0
 30
0.0
  0
INSERT
  5
10D
330
EF
100
AcDbEntity
  8
_U+30EC_U+30A4_U+30E4_U+30FC 1
100
AcDbBlockReference
  2
block 18
 10
0.0
 20
0.0
 30
0.0
  0
ENDBLK
  5
F2
330
EF
100
AcDbEntity
  8
0
100
AcDbBlockEnd
  0
BLOCK
  5
FD
330
FB
100
AcDbEntity
  8
0
100
AcDbBlockBegin
  2
block 15
 70
     0
 10
0.0
 20
0.0
 30
0.0
  3
block 15
  1

  0
SPLINE
  5
FF
330
FB
100
AcDbEntity
  8
_U+30EC_U+30A4_U+30E4_U+30FC 1
370
     0
100
AcDbSpline
210
0.0
220
0.0
230
1.0
 70
    11
 71
     3
 72
    32
 73
    28
 74
     0
 42
0.0000000001
 43
0.0000000001
 12
1.0
 22
0.0
 32
0.0
 13
1.0
 23
0.0
 33
0.0
 40
0.0
 40
0.0
 40
0.0
 40
0.0
 40
1.0
 40
1.0
 40
1.0
 40
2.0
 40
2.0
 40
2.0
 40
3.0
 40
3.0
 40
3.0
 40
4.0
 40
4.0
 40
4.0
 40
5.0
 40
5.0
 40
5.0
 40
6.0
 40
6.0
 40
6.0
 40
7.0
 40
7.0
 40
7.0
 40
8.0
 40
8.0
 40
8.0
 40
9.0
 40
9.0
 40
9.0
 40
9.0
 10
101.8607937028334
 20
-138.962405021683
 30
0.0
 10
101.344718399143
 20
-138.962405021683
 30
0.0
 10
101.3361056604299
 20
-138.4080891581063
 30
0.0
 10
101.3361056604299
 20
-138.1944932380208
 30
0.0
 10
101.3361056604299
 20
-137.9640163500576
 30
0.0
 10
101.3550536855987
 20
-137.3166829083792
 30
0.0
 10
101.8986897531712
 20
-137.3166829083792
 30
0.0
 10
102.0723225656278
 20
-137.3166829083792
 30
0.0
 10
102.3176133641775
 20
-137.3862738371812
 30
0.0
 10
102.3558539240638
 20
-137.7183810419593
 30
0.0
 10
102.3558539240638
 20
-137.7183810419593
 30
0.0
 10
102.1422580039783
 20
-137.7183810419593
 30
0.0
 10
102.1422580039783
 20
-137.7183810419593
 30
0.0
 10
102.1315782079741
 20
-137.6611924569042
 30
0.0
 10
102.0998833295098
 20
-137.5133978605869
 30
0.0
 10
101.89662269588
 20
-137.5133978605869
 30
0.0
 10
101.6048231082793
 20
-137.5133978605869
 30
0.0
 10
101.5645154911019
 20
-137.8410264412342
 30
0.0
 10
101.5517686378065
 20
-138.0463541321551
 30
0.0
 10
101.6447862159083
 20
-137.9681504646399
 30
0.0
 10
101.7126545969677
 20
-137.9088948222936
 30
0.0
 10
101.8945556385889
 20
-137.9088948222936
 30
0.0
 10
102.0743896229189
 20
-137.9088948222936
 30
0.0
 10
102.3768690065238
 20
-138.0167263109819
 30
0.0
 10
102.3768690065238
 20
-138.4229030686929
 30
0.0
 10
102.3768690065238
 20
-138.7422634201756
 30
0.0
 10
102.1780869970249
 20
-138.962405021683
 30
0.0
 10
101.8607937028334
 20
-138.962405021683
 30
0.0
  0
SPLINE
  5
100
330
FB
100
AcDbEntity
  8
_U+30EC_U+30A4_U+30E4_U+30FC 1
370
     0
100
AcDbSpline
210
0.0
220
0.0
230
1.0
 70
    11
 71
     3
 72
    17
 73
    13
 74
     0
 42
0.0000000001
 43
0.0000000001
 12
1.0
 22
0.0
 32
0.0
 13
1.0
 23
0.0
 33
0.0
 40
0.0
 40
0.0
 40
0.0
 40
0.0
 40
1.0
 40
1.0
 40
1.0
 40
2.0
 40
2.0
 40
2.0
 40
3.0
 40
3.0
 40
3.0
 40
4.0
 40
4.0
 40
4.0
 40
4.0
 10
101.8776746707111
 20
-138.1035427172102
 30
0.0
 10
101.6155029042836
 20
-138.1035427172102
 30
0.0
 10
101.5772623443974
 20
-138.3150715800046
 30
0.0
 10
101.5772623443974
 20
-138.431515807406
 30
0.0
 10
101.5772623443974
 20
-138.6068711676052
 30
0.0
 10
101.6723469797902
 20
-138.7698241840575
 30
0.0
 10
101.8566595882511
 20
-138.7698241840575
 30
0.0
 10
101.9772379302349
 20
-138.7698241840575
 30
0.0
 10
102.1525932904341
 20
-138.7105685417112
 30
0.0
 10
102.1525932904341
 20
-138.424970125984
 30
0.0
 10
102.1525932904341
 20
-138.2006944098943
 30
0.0
 10
102.0130669232815
 20
-138.1035427172102
 30
0.0
 10
101.8776746707111
 20
-138.1035427172102
 30
0.0
  0
HATCH
  5
101
330
FB
100
AcDbEntity
  8
_U+30EC_U+30A4_U+30E4_U+30FC 1
 62
   179
420
  2234388
100
AcDbHatch
 10
0.0
 20
0.0
 30
0.0
210
0.0
220
0.0
230
1.0
  2
SOLID
 70
     1
 71
     0
 91
        2
 92
        1
 93
        1
 72
     4
 94
        3
 73
     0
 74
     1
 95
       32
 96
       28
 40
0.0
 40
0.0
 40
0.0
 40
0.0
 40
1.0
 40
1.0
 40
1.0
 40
2.0
 40
2.0
 40
2.0
 40
3.0
 40
3.0
 40
3.0
 40
4.0
 40
4.0
 40
4.0
 40
5.0
 40
5.0
 40
5.0
 40
6.0
 40
6.0
 40
6.0
 40
7.0
 40
7.0
 40
7.0
 40
8.0
 40
8.0
 40
8.0
 40
9.0
 40
9.0
 40
9.0
 40
9.0
 10
101.8607937028334
 20
-138.962405021683
 10
101.344718399143
 20
-138.962405021683
 10
101.3361056604299
 20
-138.4080891581063
 10
101.3361056604299
 20
-138.1944932380208
 10
101.3361056604299
 20
-137.9640163500576
 10
101.3550536855987
 20
-137.3166829083792
 10
101.8986897531712
 20
-137.3166829083792
 10
102.0723225656278
 20
-137.3166829083792
 10
102.3176133641775
 20
-137.3862738371812
 10
102.3558539240638
 20
-137.7183810419593
 10
102.3558539240638
 20
-137.7183810419593
 10
102.1422580039783
 20
-137.7183810419593
 10
102.1422580039783
 20
-137.7183810419593
 10
102.1315782079741
 20
-137.6611924569042
 10
102.0998833295098
 20
-137.5133978605869
 10
101.89662269588
 20
-137.5133978605869
 10
101.6048231082793
 20
-137.5133978605869
 10
101.5645154911019
 20
-137.8410264412342
 10
101.5517686378065
 20
-138.0463541321551
 10
101.6447862159083
 20
-137.9681504646399
 10
101.7126545969677
 20
-137.9088948222936
 10
101.8945556385889
 20
-137.9088948222936
 10
102.0743896229189
 20
-137.9088948222936
 10
102.3768690065238
 20
-138.0167263109819
 10
102.3768690065238
 20
-138.4229030686929
 10
102.3768690065238
 20
-138.7422634201756
 10
102.1780869970249
 20
-138.962405021683
 10
101.8607937028334
 20
-138.962405021683
 97
        0
 97
        0
 92
        1
 93
        1
 72
     4
 94
        3
 73
     0
 74
     1
 95
       17
 96
       13
 40
0.0
 40
0.0
 40
0.0
 40
0.0
 40
1.0
 40
1.0
 40
1.0
 40
2.0
 40
2.0
 40
2.0
 40
3.0
 40
3.0
 40
3.0
 40
4.0
 40
4.0
 40
4.0
 40
4.0
 10
101.8776746707111
 20
-138.1035427172102
 10
101.6155029042836
 20
-138.1035427172102
 10
101.5772623443974
 20
-138.3150715800046
 10
101.5772623443974
 20
-138.431515807406
 10
101.5772623443974
 20
-138.6068711676052
 10
101.6723469797902
 20
-138.7698241840575
 10
101.8566595882511
 20
-138.7698241840575
 10
101.9772379302349
 20
-138.7698241840575
 10
102.1525932904341
 20
-138.7105685417112
 10
102.1525932904341
 20
-138.424970125984
 10
102.1525932904341
 20
-138.2006944098943
 10
102.0130669232815
 20
-138.1035427172102
 10
101.8776746707111
 20
-138.1035427172102
 97
        0
 97
        0
 75
     2
 76
     1
 98
        0
  0
ENDBLK
  5
FE
330
FB
100
AcDbEntity
  8
0
100
AcDbBlockEnd
  0
BLOCK
  5
104
330
102
100
AcDbEntity
  8
0
100
AcDbBlockBegin
  2
block 16
 70
     0
 10
0.0
 20
0.0
 30
0.0
  3
block 16
  1

  0
SPLINE
  5
106
330
102
100
AcDbEntity
  8
_U+30EC_U+30A4_U+30E4_U+30FC 1
 62
   179
420
  2234388
370
    25
100
AcDbSpline
210
0.0
220
0.0
230
1.0
 70
    11
 71
     3
 72
    17
 73
    13
 74
     0
 42
0.0000000001
 43
0.0000000001
 12
1.0
 22
0.0
 32
0.0
 13
1.0
 23
0.0
 33
0.0
 40
0.0
 40
0.0
 40
0.0
 40
0.0
 40
1.0
 40
1.0
 40
1.0
 40
2.0
 40
2.0
 40
2.0
 40
3.0
 40
3.0
 40
3.0
 40
4.0
 40
4.0
 40
4.0
 40
4.0
 10
98.8921458103845
 20
-135.2851271884008
 30
0.0
 10
98.8921458103845
 20
-135.3043888550631
 30
0.0
 10
98.8763060885664
 20
-135.3202638550585
 30
0.0
 10
98.85665636684547
 20
-135.3202638550585
 30
0.0
 10
98.83735942289333
 20
-135.3202638550585
 30
0.0
 10
98.82152219751677
 20
-135.3043888550631
 30
0.0
 10
98.82152219751677
 20
-135.2851271884008
 30
0.0
 10
98.82152219751677
 20
-135.2651246884061
 30
0.0
 10
98.83735942289333
 20
-135.2499552439656
 30
0.0
 10
98.85665636684547
 20
-135.2499552439656
 30
0.0
 10
98.8763060885664
 20
-135.2499552439656
 30
0.0
 10
98.8921458103845
 20
-135.2651246884061
 30
0.0
 10
98.8921458103845
 20
-135.2851271884008
 30
0.0
  0
ENDBLK
  5
105
330
102
100
AcDbEntity
  8
0
100
AcDbBlockEnd
  0
BLOCK
  5
109
330
107
100
AcDbEntity
  8
0
100
AcDbBlockBegin
  2
block 17
 70
     0
 10
0.0
 20
0.0
 30
0.0
  3
block 17
  1

  0
SPLINE
  5
10B
330
107
100
AcDbEntity
  8
_U+30EC_U+30A4_U+30E4_U+30FC 1
 62
   179
420
  2234388
370
    25
100
AcDbSpline
210
0.0
220
0.0
230
1.0
 70
    11
 71
     3
 72
    17
 73
    13
 74
     0
 42
0.0000000001
 43
0.0000000001
 12
1.0
 22
0.0
 32
0.0
 13
1.0
 23
0.0
 33
0.0
 40
0.0
 40
0.0
 40
0.0
 40
0.0
 40
1.0
 40
1.0
 40
1.0
 40
2.0
 40
2.0
 40
2.0
 40
3.0
 40
3.0
 40
3.0
 40
4.0
 40
4.0
 40
4.0
 40
4.0
 10
104.8921221959993
 20
-135.2851271884008
 30
0.0
 10
104.8921221959993
 20
-135.3043888550631
 30
0.0
 10
104.8762798243832
 20
-135.3202638550585
 30
0.0
 10
104.8566301026623
 20
-135.3202638550585
 30
0.0
 10
104.837368436487
 20
-135.3202638550585
 30
0.0
 10
104.821493436892
 20
-135.3043888550631
 30
0.0
 10
104.821493436892
 20
-135.2851271884008
 30
0.0
 10
104.821493436892
 20
-135.2651246884061
 30
0.0
 10
104.837368436487
 20
-135.2499552439656
 30
0.0
 10
104.8566301026623
 20
-135.2499552439656
 30
0.0
 10
104.8762798243832
 20
-135.2499552439656
 30
0.0
 10
104.8921221959993
 20
-135.2651246884061
 30
0.0
 10
104.8921221959993
 20
-135.2851271884008
 30
0.0
  0
ENDBLK
  5
10A
330
107
100
AcDbEntity
  8
0
100
AcDbBlockEnd
  0
BLOCK
  5
10E
330
10C
100
AcDbEntity
  8
0
100
AcDbBlockBegin
  2
block 18
 70
     0
 10
0.0
 20
0.0
 30
0.0
  3
block 18
  1

  0
SPLINE
  5
110
330
10C
100
AcDbEntity
  8
_U+30EC_U+30A4_U+30E4_U+30FC 1
 62
   179
420
  2234388
370
     9
100
AcDbSpline
210
0.0
220
0.0
230
1.0
 70
    11
 71
     3
 72
    17
 73
    13
 74
     0
 42
0.0000000001
 43
0.0000000001
 12
1.0
 22
0.0
 32
0.0
 13
1.0
 23
0.0
 33
0.0
 40
0.0
 40
0.0
 40
0.0
 40
0.0
 40
1.0
 40
1.0
 40
1.0
 40
2.0
 40
2.0
 40
2.0
 40
3.0
 40
3.0
 40
3.0
 40
4.0
 40
4.0
 40
4.0
 40
4.0
 10
104.8921221959993
 20
-139.2848510762902
 30
0.0
 10
104.8921221959993
 20
-139.3041480207293
 30
0.0
 10
104.8762798243832
 20
-139.3200230207254
 30
0.0
 10
104.8566301026623
 20
-139.3200230207254
 30
0.0
 10
104.837368436487
 20
-139.3200230207254
 30
0.0
 10
104.821493436892
 20
-139.3041480207293
 30
0.0
 10
104.821493436892
 20
-139.2848510762902
 30
0.0
 10
104.821493436892
 20
-139.2655894096279
 30
0.0
 10
104.837368436487
 20
-139.2497144096318
 30
0.0
 10
104.8566301026623
 20
-139.2497144096318
 30
0.0
 10
104.8762798243832
 20
-139.2497144096318
 30
0.0
 10
104.8921221959993
 20
-139.2655894096279
 30
0.0
 10
104.8921221959993
 20
-139.2848510762902
 30
0.0
  0
ENDBLK
  5
10F
330
10C
100
AcDbEntity
  8
0
100
AcDbBlockEnd
  0
BLOCK
  5
113
330
111
100
AcDbEntity
  8
0
100
AcDbBlockBegin
  2
block 19
 70
     0
 10
0.0
 20
0.0
 30
0.0
  3
block 19
  1

  0
POLYLINE
  5
115
330
111
100
AcDbEntity
  8
_U+30EC_U+30A4_U+30E4_U+30FC 1
 62
   179
420
  2234388
370
     9
100
AcDb2dPolyline
 66
     1
 10
0.0
 20
0.0
 30
0.0
  0
VERTEX
  5
116
330
115
100
AcDbEntity
  8
_U+30EC_U+30A4_U+30E4_U+30FC 1
 62
   179
420
  2234388
370
     9
100
AcDbVertex
100
AcDb2dVertex
 10
80.85673515939506
 20
-133.2848771889008
 30
0.0
  0
VERTEX
  5
117
330
115
100
AcDbEntity
  8
_U+30EC_U+30A4_U+30E4_U+30FC 1
 62
   179
420
  2234388
370
     9
100
AcDbVertex
100
AcDb2dVertex
 10
80.85673515939506
 20
-135.2851271884008
 30
0.0
  0
SEQEND
  5
118
330
115
100
AcDbEntity
  8
_U+30EC_U+30A4_U+30E4_U+30FC 1
 62
   179
420
  2234388
370
     9
  0
POLYLINE
  5
119
330
111
100
AcDbEntity
  8
_U+30EC_U+30A4_U+30E4_U+30FC 1
 62
   179
420
  2234388
370
     9
100
AcDb2dPolyline
 66
     1
 10
0.0
 20
0.0
 30
0.0
  0
VERTEX
  5
11A
330
119
100
AcDbEntity
  8
_U+30EC_U+30A4_U+30E4_U+30FC 1
 62
   179
420
  2234388
370
     9
100
AcDbVertex
100
AcDb2dVertex
 10
82.31677651103519
 20
-133.2848771889008
 30
0.0
  0
VERTEX
  5
11B
330
119
100
AcDbEntity
  8
_U+30EC_U+30A4_U+30E4_U+30FC 1
 62
   179
420
  2234388
370
     9
100
AcDbVertex
100
AcDb2dVertex
 10
79.85661018491037
 20
-133.2848771889008
 30
0.0
  0
SEQEND
  5
11C
330
119
100
AcDbEntity
  8
_U+30EC_U+30A4_U+30E4_U+30FC 1
 62
   179
420
  2234388
370
     9
  0
POLYLINE
  5
11D
330
111
100
AcDbEntity
  8
_U+30EC_U+30A4_U+30E4_U+30FC 1
 62
   179
420
  2234388
370
     9
100
AcDb2dPolyline
 66
     1
 10
0.0
 20
0.0
 30
0.0
  0
VERTEX
  5
11E
330
11D
100
AcDbEntity
  8
_U+30EC_U+30A4_U+30E4_U+30FC 1
 62
   179
420
  2234388
370
     9
100
AcDbVertex
100
AcDb2dVertex
 10
82.31677651103519
 20
-135.2851271884008
 30
0.0
  0
VERTEX
  5
11F
330
11D
100
AcDbEntity
  8
_U+30EC_U+30A4_U+30E4_U+30FC 1
 62
   179
420
  2234388
370
     9
100
AcDbVertex
100
AcDb2dVertex
 10
79.85661018491037
 20
-135.2851271884008
 30
0.0
  0
SEQEND
  5
120
330
11D
100
AcDbEntity
  8
_U+30EC_U+30A4_U+30E4_U+30FC 1
 62
   179
420
  2234388
370
     9
  0
INSERT
  5
122
330
111
100
AcDbEntity
  8
_U+30EC_U+30A4_U+30E4_U+30FC 1
100
AcDbBlockReference
  2
block 20
 10
0.0
 20
0.0
 30
0.0
  0
INSERT
  5
128
330
111
100
AcDbEntity
  8
_U+30EC_U+30A4_U+30E4_U+30FC 1
100
AcDbBlockReference
  2
block 21
 10
0.0
 20
0.0
 30
0.0
  0
INSERT
  5
12D
330
111
100
AcDbEntity
  8
_U+30EC_U+30A4_U+30E4_U+30FC 1
100
AcDbBlockReference
  2
block 22
 10
0.0
 20
0.0
 30
0.0
  0
INSERT
  5
132
330
111
100
AcDbEntity
  8
_U+30EC_U+30A4_U+30E4_U+30FC 1
100
AcDbBlockReference
  2
block 23
 10
0.0
 20
0.0
 30
0.0
  0
ENDBLK
  5
114
330
111
100
AcDbEntity
  8
0
100
AcDbBlockEnd
  0
BLOCK
  5
123
330
121
100
AcDbEntity
  8
0
100
AcDbBlockBegin
  2
block 20
 70
     0
 10
0.0
 20
0.0
 30
0.0
  3
block 20
  1

  0
SPLINE
  5
125
330
121
100
AcDbEntity
  8
_U+30EC_U+30A4_U+30E4_U+30FC 1
370
     0
100
AcDbSpline
210
0.0
220
0.0
230
1.0
 70
    11
 71
     3
 72
    44
 73
    40
 74
     0
 42
0.0000000001
 43
0.0000000001
 12
1.0
 22
0.0
 32
0.0
 13
1.0
 23
0.0
 33
0.0
 40
0.0
 40
0.0
 40
0.0
 40
0.0
 40
1.0
 40
1.0
 40
1.0
 40
2.0
 40
2.0
 40
2.0
 40
3.0
 40
3.0
 40
3.0
 40
4.0
 40
4.0
 40
4.0
 40
5.0
 40
5.0
 40
5.0
 40
6.0
 40
6.0
 40
6.0
 40
7.0
 40
7.0
 40
7.0
 40
8.0
 40
8.0
 40
8.0
 40
9.0
 40
9.0
 40
9.0
 40
10.0
 40
10.0
 40
10.0
 40
11.0
 40
11.0
 40
11.0
 40
12.0
 40
12.0
 40
12.0
 40
13.0
 40
13.0
 40
13.0
 40
13.0
 10
79.90244409894801
 20
-134.1916367937091
 30
0.0
 10
80.06109074604376
 20
-134.4097113379254
 30
0.0
 10
80.13516029897663
 20
-134.5027289160271
 30
0.0
 10
80.27899303548581
 20
-134.5513047623691
 30
0.0
 10
80.27899303548581
 20
-134.5513047623691
 30
0.0
 10
80.27899303548581
 20
-133.7727131827027
 30
0.0
 10
80.27899303548581
 20
-133.7727131827027
 30
0.0
 10
80.27899303548581
 20
-133.7727131827027
 30
0.0
 10
80.48414847163244
 20
-133.7727131827027
 30
0.0
 10
80.48414847163244
 20
-133.7727131827027
 30
0.0
 10
80.48414847163244
 20
-133.7727131827027
 30
0.0
 10
80.48414847163244
 20
-134.8010741850497
 30
0.0
 10
80.48414847163244
 20
-134.8010741850497
 30
0.0
 10
80.12671981503777
 20
-134.7693793065854
 30
0.0
 10
80.04834389274833
 20
-134.7035779828172
 30
0.0
 10
79.75017087849996
 20
-134.3187608171148
 30
0.0
 10
79.55121661422679
 20
-134.0627902225607
 30
0.0
 10
79.48352048794162
 20
-133.9969888987924
 30
0.0
 10
79.34606117808015
 20
-133.9969888987924
 30
0.0
 10
79.22754989338756
 20
-133.9969888987924
 30
0.0
 10
79.0964640101738
 20
-134.0689913944341
 30
0.0
 10
79.0964640101738
 20
-134.2657063466419
 30
0.0
 10
79.0964640101738
 20
-134.5261555653268
 30
0.0
 10
79.32694089813702
 20
-134.5344237944914
 30
0.0
 10
79.44338512553847
 20
-134.5385579090737
 30
0.0
 10
79.44338512553847
 20
-134.5385579090737
 30
0.0
 10
79.44338512553847
 20
-134.7628336251635
 30
0.0
 10
79.44338512553847
 20
-134.7628336251635
 30
0.0
 10
79.31643335690701
 20
-134.7545653959989
 30
0.0
 10
79.20429549886212
 20
-134.7438855999946
 30
0.0
 10
79.08578421416954
 20
-134.6636148751883
 30
0.0
 10
78.92507050978263
 20
-134.5533718196603
 30
0.0
 10
78.89113631925291
 20
-134.3673366634568
 30
0.0
 10
78.89113631925291
 20
-134.2508924360554
 30
0.0
 10
78.89113631925291
 20
-133.9739067590413
 30
0.0
 10
79.07527667293952
 20
-133.7665120108292
 30
0.0
 10
79.3481282353713
 20
-133.7665120108292
 30
0.0
 10
79.57671032081763
 20
-133.7665120108292
 30
0.0
 10
79.67610132556709
 20
-133.8829562382307
 30
0.0
 10
79.90244409894801
 20
-134.1916367937091
 30
0.0
  0
HATCH
  5
126
330
121
100
AcDbEntity
  8
_U+30EC_U+30A4_U+30E4_U+30FC 1
 62
   179
420
  2234388
100
AcDbHatch
 10
0.0
 20
0.0
 30
0.0
210
0.0
220
0.0
230
1.0
  2
SOLID
 70
     1
 71
     0
 91
        1
 92
        1
 93
        1
 72
     4
 94
        3
 73
     0
 74
     1
 95
       44
 96
       40
 40
0.0
 40
0.0
 40
0.0
 40
0.0
 40
1.0
 40
1.0
 40
1.0
 40
2.0
 40
2.0
 40
2.0
 40
3.0
 40
3.0
 40
3.0
 40
4.0
 40
4.0
 40
4.0
 40
5.0
 40
5.0
 40
5.0
 40
6.0
 40
6.0
 40
6.0
 40
7.0
 40
7.0
 40
7.0
 40
8.0
 40
8.0
 40
8.0
 40
9.0
 40
9.0
 40
9.0
 40
10.0
 40
10.0
 40
10.0
 40
11.0
 40
11.0
 40
11.0
 40
12.0
 40
12.0
 40
12.0
 40
13.0
 40
13.0
 40
13.0
 40
13.0
 10
79.90244409894801
 20
-134.1916367937091
 10
80.06109074604376
 20
-134.4097113379254
 10
80.13516029897663
 20
-134.5027289160271
 10
80.27899303548581
 20
-134.5513047623691
 10
80.27899303548581
 20
-134.5513047623691
 10
80.27899303548581
 20
-133.7727131827027
 10
80.27899303548581
 20
-133.7727131827027
 10
80.27899303548581
 20
-133.7727131827027
 10
80.48414847163244
 20
-133.7727131827027
 10
80.48414847163244
 20
-133.7727131827027
 10
80.48414847163244
 20
-133.7727131827027
 10
80.48414847163244
 20
-134.8010741850497
 10
80.48414847163244
 20
-134.8010741850497
 10
80.12671981503777
 20
-134.7693793065854
 10
80.04834389274833
 20
-134.7035779828172
 10
79.75017087849996
 20
-134.3187608171148
 10
79.55121661422679
 20
-134.0627902225607
 10
79.48352048794162
 20
-133.9969888987924
 10
79.34606117808015
 20
-133.9969888987924
 10
79.22754989338756
 20
-133.9969888987924
 10
79.0964640101738
 20
-134.0689913944341
 10
79.0964640101738
 20
-134.2657063466419
 10
79.0964640101738
 20
-134.5261555653268
 10
79.32694089813702
 20
-134.5344237944914
 10
79.44338512553847
 20
-134.5385579090737
 10
79.44338512553847
 20
-134.5385579090737
 10
79.44338512553847
 20
-134.7628336251635
 10
79.44338512553847
 20
-134.7628336251635
 10
79.31643335690701
 20
-134.7545653959989
 10
79.20429549886212
 20
-134.7438855999946
 10
79.08578421416954
 20
-134.6636148751883
 10
78.92507050978263
 20
-134.5533718196603
 10
78.89113631925291
 20
-134.3673366634568
 10
78.89113631925291
 20
-134.2508924360554
 10
78.89113631925291
 20
-133.9739067590413
 10
79.07527667293952
 20
-133.7665120108292
 10
79.3481282353713
 20
-133.7665120108292
 10
79.57671032081763
 20
-133.7665120108292
 10
79.67610132556709
 20
-133.8829562382307
 10
79.90244409894801
 20
-134.1916367937091
 97
        0
 97
        0
 75
     2
 76
     1
 98
        0
  0
ENDBLK
  5
124
330
121
100
AcDbEntity
  8
0
100
AcDbBlockEnd
  0
BLOCK
  5
129
330
127
100
AcDbEntity
  8
0
100
AcDbBlockBegin
  2
block 21
 70
     0
 10
0.0
 20
0.0
 30
0.0
  3
block 21
  1

  0
SPLINE
  5
12B
330
127
100
AcDbEntity
  8
_U+30EC_U+30A4_U+30E4_U+30FC 1
 62
   179
420
  2234388
370
    25
100
AcDbSpline
210
0.0
220
0.0
230
1.0
 70
    11
 71
     3
 72
    17
 73
    13
 74
     0
 42
0.0000000001
 43
0.0000000001
 12
1.0
 22
0.0
 32
0.0
 13
1.0
 23
0.0
 33
0.0
 40
0.0
 40
0.0
 40
0.0
 40
0.0
 40
1.0
 40
1.0
 40
1.0
 40
2.0
 40
2.0
 40
2.0
 40
3.0
 40
3.0
 40
3.0
 40
4.0
 40
4.0
 40
4.0
 40
4.0
 10
84.89198366755839
 20
-133.2848771889008
 30
0.0
 10
84.89198366755839
 20
-133.3041741333407
 30
0.0
 10
84.87614394574028
 20
-133.3200138555592
 30
0.0
 10
84.85684700178814
 20
-133.3200138555592
 30
0.0
 10
84.83719728006723
 20
-133.3200138555592
 30
0.0
 10
84.8213575582491
 20
-133.3041741333407
 30
0.0
 10
84.8213575582491
 20
-133.2848771889008
 30
0.0
 10
84.8213575582491
 20
-133.2655802444616
 30
0.0
 10
84.83719728006723
 20
-133.2497405222431
 30
0.0
 10
84.85684700178814
 20
-133.2497405222431
 30
0.0
 10
84.87614394574028
 20
-133.2497405222431
 30
0.0
 10
84.89198366755839
 20
-133.2655802444616
 30
0.0
 10
84.89198366755839
 20
-133.2848771889008
 30
0.0
  0
ENDBLK
  5
12A
330
127
100
AcDbEntity
  8
0
100
AcDbBlockEnd
  0
BLOCK
  5
12E
330
12C
100
AcDbEntity
  8
0
100
AcDbBlockBegin
  2
block 22
 70
     0
 10
0.0
 20
0.0
 30
0.0
  3
block 22
  1

  0
SPLINE
  5
130
330
12C
100
AcDbEntity
  8
_U+30EC_U+30A4_U+30E4_U+30FC 1
 62
   179
420
  2234388
370
    25
100
AcDbSpline
210
0.0
220
0.0
230
1.0
 70
    11
 71
     3
 72
    17
 73
    13
 74
     0
 42
0.0000000001
 43
0.0000000001
 12
1.0
 22
0.0
 32
0.0
 13
1.0
 23
0.0
 33
0.0
 40
0.0
 40
0.0
 40
0.0
 40
0.0
 40
1.0
 40
1.0
 40
1.0
 40
2.0
 40
2.0
 40
2.0
 40
3.0
 40
3.0
 40
3.0
 40
4.0
 40
4.0
 40
4.0
 40
4.0
 10
84.89198366755839
 20
-135.2851271884008
 30
0.0
 10
84.89198366755839
 20
-135.3043888550631
 30
0.0
 10
84.87614394574028
 20
-135.3202638550585
 30
0.0
 10
84.85684700178814
 20
-135.3202638550585
 30
0.0
 10
84.83719728006723
 20
-135.3202638550585
 30
0.0
 10
84.8213575582491
 20
-135.3043888550631
 30
0.0
 10
84.8213575582491
 20
-135.2851271884008
 30
0.0
 10
84.8213575582491
 20
-135.2651246884061
 30
0.0
 10
84.83719728006723
 20
-135.2499552439656
 30
0.0
 10
84.85684700178814
 20
-135.2499552439656
 30
0.0
 10
84.87614394574028
 20
-135.2499552439656
 30
0.0
 10
84.89198366755839
 20
-135.2651246884061
 30
0.0
 10
84.89198366755839
 20
-135.2851271884008
 30
0.0
  0
ENDBLK
  5
12F
330
12C
100
AcDbEntity
  8
0
100
AcDbBlockEnd
  0
BLOCK
  5
133
330
131
100
AcDbEntity
  8
0
100
AcDbBlockBegin
  2
block 23
 70
     0
 10
0.0
 20
0.0
 30
0.0
  3
block 23
  1

  0
SPLINE
  5
135
330
131
100
AcDbEntity
  8
_U+30EC_U+30A4_U+30E4_U+30FC 1
 62
   179
420
  2234388
370
     9
100
AcDbSpline
210
0.0
220
0.0
230
1.0
 70
    11
 71
     3
 72
    17
 73
    13
 74
     0
 42
0.0000000001
 43
0.0000000001
 12
1.0
 22
0.0
 32
0.0
 13
1.0
 23
0.0
 33
0.0
 40
0.0
 40
0.0
 40
0.0
 40
0.0
 40
1.0
 40
1.0
 40
1.0
 40
2.0
 40
2.0
 40
2.0
 40
3.0
 40
3.0
 40
3.0
 40
4.0
 40
4.0
 40
4.0
 40
4.0
 10
80.89222460293409
 20
-135.2851271884008
 30
0.0
 10
80.89222460293409
 20
-135.3043888550631
 30
0.0
 10
80.87638488111597
 20
-135.3202638550585
 30
0.0
 10
80.85673515939506
 20
-135.3202638550585
 30
0.0
 10
80.83743821544292
 20
-135.3202638550585
 30
0.0
 10
80.82159849362479
 20
-135.3043888550631
 30
0.0
 10
80.82159849362479
 20
-135.2851271884008
 30
0.0
 10
80.82159849362479
 20
-135.2651246884061
 30
0.0
 10
80.83743821544292
 20
-135.2499552439656
 30
0.0
 10
80.85673515939506
 20
-135.2499552439656
 30
0.0
 10
80.87638488111597
 20
-135.2499552439656
 30
0.0
 10
80.89222460293409
 20
-135.2651246884061
 30
0.0
 10
80.89222460293409
 20
-135.2851271884008
 30
0.0
  0
ENDBLK
  5
134
330
131
100
AcDbEntity
  8
0
100
AcDbBlockEnd
  0
BLOCK
  5
138
330
136
100
AcDbEntity
  8
0
100
AcDbBlockBegin
  2
block 24
 70
     0
 10
0.0
 20
0.0
 30
0.0
  3
block 24
  1

  0
POLYLINE
  5
13A
330
136
100
AcDbEntity
  8
_U+30EC_U+30A4_U+30E4_U+30FC 1
 62
   179
420
  2234388
370
     9
100
AcDb2dPolyline
 66
     1
 10
0.0
 20
0.0
 30
0.0
  0
VERTEX
  5
13B
330
13A
100
AcDbEntity
  8
_U+30EC_U+30A4_U+30E4_U+30FC 1
 62
   179
420
  2234388
370
     9
100
AcDbVertex
100
AcDb2dVertex
 10
86.85671108939681
 20
-119.7849535811647
 30
0.0
  0
VERTEX
  5
13C
330
13A
100
AcDbEntity
  8
_U+30EC_U+30A4_U+30E4_U+30FC 1
 62
   179
420
  2234388
370
     9
100
AcDbVertex
100
AcDb2dVertex
 10
102.8567682092386
 20
-119.7849535811647
 30
0.0
  0
SEQEND
  5
13D
330
13A
100
AcDbEntity
  8
_U+30EC_U+30A4_U+30E4_U+30FC 1
 62
   179
420
  2234388
370
     9
  0
POLYLINE
  5
13E
330
136
100
AcDbEntity
  8
_U+30EC_U+30A4_U+30E4_U+30FC 1
 62
   179
420
  2234388
370
     9
100
AcDb2dPolyline
 66
     1
 10
0.0
 20
0.0
 30
0.0
  0
VERTEX
  5
13F
330
13E
100
AcDbEntity
  8
_U+30EC_U+30A4_U+30E4_U+30FC 1
 62
   179
420
  2234388
370
     9
100
AcDbVertex
100
AcDb2dVertex
 10
86.85671108939681
 20
-121.2449596919109
 30
0.0
  0
VERTEX
  5
140
330
13E
100
AcDbEntity
  8
_U+30EC_U+30A4_U+30E4_U+30FC 1
 62
   179
420
  2234388
370
     9
100
AcDbVertex
100
AcDb2dVertex
 10
86.85671108939681
 20
-118.7851813591925
 30
0.0
  0
SEQEND
  5
141
330
13E
100
AcDbEntity
  8
_U+30EC_U+30A4_U+30E4_U+30FC 1
 62
   179
420
  2234388
370
     9
  0
POLYLINE
  5
142
330
136
100
AcDbEntity
  8
_U+30EC_U+30A4_U+30E4_U+30FC 1
 62
   179
420
  2234388
370
     9
100
AcDb2dPolyline
 66
     1
 10
0.0
 20
0.0
 30
0.0
  0
VERTEX
  5
143
330
142
100
AcDbEntity
  8
_U+30EC_U+30A4_U+30E4_U+30FC 1
 62
   179
420
  2234388
370
     9
100
AcDbVertex
100
AcDb2dVertex
 10
102.8567682092386
 20
-121.2449596919109
 30
0.0
  0
VERTEX
  5
144
330
142
100
AcDbEntity
  8
_U+30EC_U+30A4_U+30E4_U+30FC 1
 62
   179
420
  2234388
370
     9
100
AcDbVertex
100
AcDb2dVertex
 10
102.8567682092386
 20
-118.7851813591925
 30
0.0
  0
SEQEND
  5
145
330
142
100
AcDbEntity
  8
_U+30EC_U+30A4_U+30E4_U+30FC 1
 62
   179
420
  2234388
370
     9
  0
INSERT
  5
147
330
136
100
AcDbEntity
  8
_U+30EC_U+30A4_U+30E4_U+30FC 1
100
AcDbBlockReference
  2
block 25
 10
0.0
 20
0.0
 30
0.0
  0
INSERT
  5
150
330
136
100
AcDbEntity
  8
_U+30EC_U+30A4_U+30E4_U+30FC 1
100
AcDbBlockReference
  2
block 26
 10
0.0
 20
0.0
 30
0.0
  0
INSERT
  5
155
330
136
100
AcDbEntity
  8
_U+30EC_U+30A4_U+30E4_U+30FC 1
100
AcDbBlockReference
  2
block 27
 10
0.0
 20
0.0
 30
0.0
  0
INSERT
  5
15A
330
136
100
AcDbEntity
  8
_U+30EC_U+30A4_U+30E4_U+30FC 1
100
AcDbBlockReference
  2
block 28
 10
0.0
 20
0.0
 30
0.0
  0
ENDBLK
  5
139
330
136
100
AcDbEntity
  8
0
100
AcDbBlockEnd
  0
BLOCK
  5
148
330
146
100
AcDbEntity
  8
0
100
AcDbBlockBegin
  2
block 25
 70
     0
 10
0.0
 20
0.0
 30
0.0
  3
block 25
  1

  0
SPLINE
  5
14A
330
146
100
AcDbEntity
  8
_U+30EC_U+30A4_U+30E4_U+30FC 1
370
     0
100
AcDbSpline
210
0.0
220
0.0
230
1.0
 70
    11
 71
     3
 72
    26
 73
    22
 74
     0
 42
0.0000000001
 43
0.0000000001
 12
1.0
 22
0.0
 32
0.0
 13
1.0
 23
0.0
 33
0.0
 40
0.0
 40
0.0
 40
0.0
 40
0.0
 40
1.0
 40
1.0
 40
1.0
 40
2.0
 40
2.0
 40
2.0
 40
3.0
 40
3.0
 40
3.0
 40
4.0
 40
4.0
 40
4.0
 40
5.0
 40
5.0
 40
5.0
 40
6.0
 40
6.0
 40
6.0
 40
7.0
 40
7.0
 40
7.0
 40
7.0
 10
94.21922740700076
 20
-119.4118326524387
 30
0.0
 10
94.21922740700076
 20
-119.4118326524387
 30
0.0
 10
94.21922740700076
 20
-118.3075072946419
 30
0.0
 10
94.21922740700076
 20
-118.3075072946419
 30
0.0
 10
94.21922740700076
 20
-118.3075072946419
 30
0.0
 10
93.88918725951382
 20
-118.3075072946419
 30
0.0
 10
93.88918725951382
 20
-118.3075072946419
 30
0.0
 10
93.88918725951382
 20
-118.3075072946419
 30
0.0
 10
93.88918725951382
 20
-118.1595404435504
 30
0.0
 10
93.88918725951382
 20
-118.1595404435504
 30
0.0
 10
94.2212944642919
 20
-118.1447265329638
 30
0.0
 10
94.2681477628913
 20
-117.9817735165115
 30
0.0
 10
94.29777558406445
 20
-117.8675686011755
 30
0.0
 10
94.29777558406445
 20
-117.8675686011755
 30
0.0
 10
94.44350312309052
 20
-117.8675686011755
 30
0.0
 10
94.44350312309052
 20
-117.8675686011755
 30
0.0
 10
94.44350312309052
 20
-117.8675686011755
 30
0.0
 10
94.44350312309052
 20
-119.4118326524387
 30
0.0
 10
94.44350312309052
 20
-119.4118326524387
 30
0.0
 10
94.44350312309052
 20
-119.4118326524387
 30
0.0
 10
94.21922740700076
 20
-119.4118326524387
 30
0.0
 10
94.21922740700076
 20
-119.4118326524387
 30
0.0
  0
HATCH
  5
14B
330
146
100
AcDbEntity
  8
_U+30EC_U+30A4_U+30E4_U+30FC 1
 62
   179
420
  2234388
100
AcDbHatch
 10
0.0
 20
0.0
 30
0.0
210
0.0
220
0.0
230
1.0
  2
SOLID
 70
     1
 71
     0
 91
        1
 92
        1
 93
        1
 72
     4
 94
        3
 73
     0
 74
     1
 95
       26
 96
       22
 40
0.0
 40
0.0
 40
0.0
 40
0.0
 40
1.0
 40
1.0
 40
1.0
 40
2.0
 40
2.0
 40
2.0
 40
3.0
 40
3.0
 40
3.0
 40
4.0
 40
4.0
 40
4.0
 40
5.0
 40
5.0
 40
5.0
 40
6.0
 40
6.0
 40
6.0
 40
7.0
 40
7.0
 40
7.0
 40
7.0
 10
94.21922740700076
 20
-119.4118326524387
 10
94.21922740700076
 20
-119.4118326524387
 10
94.21922740700076
 20
-118.3075072946419
 10
94.21922740700076
 20
-118.3075072946419
 10
94.21922740700076
 20
-118.3075072946419
 10
93.88918725951382
 20
-118.3075072946419
 10
93.88918725951382
 20
-118.3075072946419
 10
93.88918725951382
 20
-118.3075072946419
 10
93.88918725951382
 20
-118.1595404435504
 10
93.88918725951382
 20
-118.1595404435504
 10
94.2212944642919
 20
-118.1447265329638
 10
94.2681477628913
 20
-117.9817735165115
 10
94.29777558406445
 20
-117.8675686011755
 10
94.29777558406445
 20
-117.8675686011755
 10
94.44350312309052
 20
-117.8675686011755
 10
94.44350312309052
 20
-117.8675686011755
 10
94.44350312309052
 20
-117.8675686011755
 10
94.44350312309052
 20
-119.4118326524387
 10
94.44350312309052
 20
-119.4118326524387
 10
94.44350312309052
 20
-119.4118326524387
 10
94.21922740700076
 20
-119.4118326524387
 10
94.21922740700076
 20
-119.4118326524387
 97
        0
 97
        0
 75
     2
 76
     1
 98
        0
  0
SPLINE
  5
14C
330
146
100
AcDbEntity
  8
_U+30EC_U+30A4_U+30E4_U+30FC 1
370
     0
100
AcDbSpline
210
0.0
220
0.0
230
1.0
 70
    11
 71
     3
 72
    32
 73
    28
 74
     0
 42
0.0000000001
 43
0.0000000001
 12
1.0
 22
0.0
 32
0.0
 13
1.0
 23
0.0
 33
0.0
 40
0.0
 40
0.0
 40
0.0
 40
0.0
 40
1.0
 40
1.0
 40
1.0
 40
2.0
 40
2.0
 40
2.0
 40
3.0
 40
3.0
 40
3.0
 40
4.0
 40
4.0
 40
4.0
 40
5.0
 40
5.0
 40
5.0
 40
6.0
 40
6.0
 40
6.0
 40
7.0
 40
7.0
 40
7.0
 40
8.0
 40
8.0
 40
8.0
 40
9.0
 40
9.0
 40
9.0
 40
9.0
 10
95.44912649523495
 20
-119.4626478108461
 30
0.0
 10
94.93305119154452
 20
-119.4626478108461
 30
0.0
 10
94.9244384528314
 20
-118.9083319472694
 30
0.0
 10
94.9244384528314
 20
-118.694736027184
 30
0.0
 10
94.9244384528314
 20
-118.4640868844465
 30
0.0
 10
94.94338647800026
 20
-117.816753442768
 30
0.0
 10
95.4870225455727
 20
-117.816753442768
 30
0.0
 10
95.66065535802929
 20
-117.816753442768
 30
0.0
 10
95.90594615657908
 20
-117.8865166263443
 30
0.0
 10
95.94418671646535
 20
-118.2187960858967
 30
0.0
 10
95.94418671646535
 20
-118.2187960858967
 30
0.0
 10
95.73059079637986
 20
-118.2187960858967
 30
0.0
 10
95.73059079637986
 20
-118.2187960858967
 30
0.0
 10
95.71991100037559
 20
-118.1616075008416
 30
0.0
 10
95.68821612191128
 20
-118.0134683949758
 30
0.0
 10
95.48495548828154
 20
-118.0134683949758
 30
0.0
 10
95.19315590068088
 20
-118.0134683949758
 30
0.0
 10
95.15284828350346
 20
-118.3414414851716
 30
0.0
 10
95.14010143020803
 20
-118.5465969213182
 30
0.0
 10
95.23346351785831
 20
-118.468393253803
 30
0.0
 10
95.3009873893692
 20
-118.4091376114567
 30
0.0
 10
95.4828884309904
 20
-118.4091376114567
 30
0.0
 10
95.66272241532043
 20
-118.4091376114567
 30
0.0
 10
95.96520179892536
 20
-118.5169691001451
 30
0.0
 10
95.96520179892536
 20
-118.923145857856
 30
0.0
 10
95.96520179892536
 20
-119.2426784641129
 30
0.0
 10
95.76641978942645
 20
-119.4626478108461
 30
0.0
 10
95.44912649523495
 20
-119.4626478108461
 30
0.0
  0
SPLINE
  5
14D
330
146
100
AcDbEntity
  8
_U+30EC_U+30A4_U+30E4_U+30FC 1
370
     0
100
AcDbSpline
210
0.0
220
0.0
230
1.0
 70
    11
 71
     3
 72
    17
 73
    13
 74
     0
 42
0.0000000001
 43
0.0000000001
 12
1.0
 22
0.0
 32
0.0
 13
1.0
 23
0.0
 33
0.0
 40
0.0
 40
0.0
 40
0.0
 40
0.0
 40
1.0
 40
1.0
 40
1.0
 40
2.0
 40
2.0
 40
2.0
 40
3.0
 40
3.0
 40
3.0
 40
4.0
 40
4.0
 40
4.0
 40
4.0
 10
95.46600746311267
 20
-118.6037855063734
 30
0.0
 10
95.20383569668516
 20
-118.6037855063734
 30
0.0
 10
95.16559513679888
 20
-118.8153143691677
 30
0.0
 10
95.16559513679888
 20
-118.9315863417949
 30
0.0
 10
95.16559513679888
 20
-119.1072862115426
 30
0.0
 10
95.26067977219178
 20
-119.2700669732207
 30
0.0
 10
95.44499238065265
 20
-119.2700669732207
 30
0.0
 10
95.5655707226364
 20
-119.2700669732207
 30
0.0
 10
95.7409260828356
 20
-119.2108113308744
 30
0.0
 10
95.7409260828356
 20
-118.9253851699214
 30
0.0
 10
95.7409260828356
 20
-118.7011094538317
 30
0.0
 10
95.60139971568299
 20
-118.6037855063734
 30
0.0
 10
95.46600746311267
 20
-118.6037855063734
 30
0.0
  0
HATCH
  5
14E
330
146
100
AcDbEntity
  8
_U+30EC_U+30A4_U+30E4_U+30FC 1
 62
   179
420
  2234388
100
AcDbHatch
 10
0.0
 20
0.0
 30
0.0
210
0.0
220
0.0
230
1.0
  2
SOLID
 70
     1
 71
     0
 91
        2
 92
        1
 93
        1
 72
     4
 94
        3
 73
     0
 74
     1
 95
       32
 96
       28
 40
0.0
 40
0.0
 40
0.0
 40
0.0
 40
1.0
 40
1.0
 40
1.0
 40
2.0
 40
2.0
 40
2.0
 40
3.0
 40
3.0
 40
3.0
 40
4.0
 40
4.0
 40
4.0
 40
5.0
 40
5.0
 40
5.0
 40
6.0
 40
6.0
 40
6.0
 40
7.0
 40
7.0
 40
7.0
 40
8.0
 40
8.0
 40
8.0
 40
9.0
 40
9.0
 40
9.0
 40
9.0
 10
95.44912649523495
 20
-119.4626478108461
 10
94.93305119154452
 20
-119.4626478108461
 10
94.9244384528314
 20
-118.9083319472694
 10
94.9244384528314
 20
-118.694736027184
 10
94.9244384528314
 20
-118.4640868844465
 10
94.94338647800026
 20
-117.816753442768
 10
95.4870225455727
 20
-117.816753442768
 10
95.66065535802929
 20
-117.816753442768
 10
95.90594615657908
 20
-117.8865166263443
 10
95.94418671646535
 20
-118.2187960858967
 10
95.94418671646535
 20
-118.2187960858967
 10
95.73059079637986
 20
-118.2187960858967
 10
95.73059079637986
 20
-118.2187960858967
 10
95.71991100037559
 20
-118.1616075008416
 10
95.68821612191128
 20
-118.0134683949758
 10
95.48495548828154
 20
-118.0134683949758
 10
95.19315590068088
 20
-118.0134683949758
 10
95.15284828350346
 20
-118.3414414851716
 10
95.14010143020803
 20
-118.5465969213182
 10
95.23346351785831
 20
-118.468393253803
 10
95.3009873893692
 20
-118.4091376114567
 10
95.4828884309904
 20
-118.4091376114567
 10
95.66272241532043
 20
-118.4091376114567
 10
95.96520179892536
 20
-118.5169691001451
 10
95.96520179892536
 20
-118.923145857856
 10
95.96520179892536
 20
-119.2426784641129
 10
95.76641978942645
 20
-119.4626478108461
 10
95.44912649523495
 20
-119.4626478108461
 97
        0
 97
        0
 92
        1
 93
        1
 72
     4
 94
        3
 73
     0
 74
     1
 95
       17
 96
       13
 40
0.0
 40
0.0
 40
0.0
 40
0.0
 40
1.0
 40
1.0
 40
1.0
 40
2.0
 40
2.0
 40
2.0
 40
3.0
 40
3.0
 40
3.0
 40
4.0
 40
4.0
 40
4.0
 40
4.0
 10
95.46600746311267
 20
-118.6037855063734
 10
95.20383569668516
 20
-118.6037855063734
 10
95.16559513679888
 20
-118.8153143691677
 10
95.16559513679888
 20
-118.9315863417949
 10
95.16559513679888
 20
-119.1072862115426
 10
95.26067977219178
 20
-119.2700669732207
 10
95.44499238065265
 20
-119.2700669732207
 10
95.5655707226364
 20
-119.2700669732207
 10
95.7409260828356
 20
-119.2108113308744
 10
95.7409260828356
 20
-118.9253851699214
 10
95.7409260828356
 20
-118.7011094538317
 10
95.60139971568299
 20
-118.6037855063734
 10
95.46600746311267
 20
-118.6037855063734
 97
        0
 97
        0
 75
     2
 76
     1
 98
        0
  0
ENDBLK
  5
149
330
146
100
AcDbEntity
  8
0
100
AcDbBlockEnd
  0
BLOCK
  5
151
330
14F
100
AcDbEntity
  8
0
100
AcDbBlockBegin
  2
block 26
 70
     0
 10
0.0
 20
0.0
 30
0.0
  3
block 26
  1

  0
SPLINE
  5
153
330
14F
100
AcDbEntity
  8
_U+30EC_U+30A4_U+30E4_U+30FC 1
 62
   179
420
  2234388
370
    25
100
AcDbSpline
210
0.0
220
0.0
230
1.0
 70
    11
 71
     3
 72
    17
 73
    13
 74
     0
 42
0.0000000001
 43
0.0000000001
 12
1.0
 22
0.0
 32
0.0
 13
1.0
 23
0.0
 33
0.0
 40
0.0
 40
0.0
 40
0.0
 40
0.0
 40
1.0
 40
1.0
 40
1.0
 40
2.0
 40
2.0
 40
2.0
 40
3.0
 40
3.0
 40
3.0
 40
4.0
 40
4.0
 40
4.0
 40
4.0
 10
86.89219833875089
 20
-123.7846774690538
 30
0.0
 10
86.89219833875089
 20
-123.8046799690488
 30
0.0
 10
86.87635861693278
 20
-123.820519691267
 30
0.0
 10
86.85671108939681
 20
-123.820519691267
 30
0.0
 10
86.83741195125972
 20
-123.820519691267
 30
0.0
 10
86.8215722294416
 20
-123.8046799690488
 30
0.0
 10
86.8215722294416
 20
-123.7846774690538
 30
0.0
 10
86.8215722294416
 20
-123.7654158023921
 30
0.0
 10
86.83741195125972
 20
-123.749540802396
 30
0.0
 10
86.85671108939681
 20
-123.749540802396
 30
0.0
 10
86.87635861693278
 20
-123.749540802396
 30
0.0
 10
86.89219833875089
 20
-123.7654158023921
 30
0.0
 10
86.89219833875089
 20
-123.7846774690538
 30
0.0
  0
ENDBLK
  5
152
330
14F
100
AcDbEntity
  8
0
100
AcDbBlockEnd
  0
BLOCK
  5
156
330
154
100
AcDbEntity
  8
0
100
AcDbBlockBegin
  2
block 27
 70
     0
 10
0.0
 20
0.0
 30
0.0
  3
block 27
  1

  0
SPLINE
  5
158
330
154
100
AcDbEntity
  8
_U+30EC_U+30A4_U+30E4_U+30FC 1
 62
   179
420
  2234388
370
    25
100
AcDbSpline
210
0.0
220
0.0
230
1.0
 70
    11
 71
     3
 72
    17
 73
    13
 74
     0
 42
0.0000000001
 43
0.0000000001
 12
1.0
 22
0.0
 32
0.0
 13
1.0
 23
0.0
 33
0.0
 40
0.0
 40
0.0
 40
0.0
 40
0.0
 40
1.0
 40
1.0
 40
1.0
 40
2.0
 40
2.0
 40
2.0
 40
3.0
 40
3.0
 40
3.0
 40
4.0
 40
4.0
 40
4.0
 40
4.0
 10
102.8919048750088
 20
-123.7846774690538
 30
0.0
 10
102.8919048750088
 20
-123.8046799690488
 30
0.0
 10
102.8764179309595
 20
-123.820519691267
 30
0.0
 10
102.8567682092386
 20
-123.820519691267
 30
0.0
 10
102.8374712652864
 20
-123.820519691267
 30
0.0
 10
102.8216315434683
 20
-123.8046799690488
 30
0.0
 10
102.8216315434683
 20
-123.7846774690538
 30
0.0
 10
102.8216315434683
 20
-123.7654158023921
 30
0.0
 10
102.8374712652864
 20
-123.749540802396
 30
0.0
 10
102.8567682092386
 20
-123.749540802396
 30
0.0
 10
102.8764179309595
 20
-123.749540802396
 30
0.0
 10
102.8919048750088
 20
-123.7654158023921
 30
0.0
 10
102.8919048750088
 20
-123.7846774690538
 30
0.0
  0
ENDBLK
  5
157
330
154
100
AcDbEntity
  8
0
100
AcDbBlockEnd
  0
BLOCK
  5
15B
330
159
100
AcDbEntity
  8
0
100
AcDbBlockBegin
  2
block 28
 70
     0
 10
0.0
 20
0.0
 30
0.0
  3
block 28
  1

  0
SPLINE
  5
15D
330
159
100
AcDbEntity
  8
_U+30EC_U+30A4_U+30E4_U+30FC 1
 62
   179
420
  2234388
370
     9
100
AcDbSpline
210
0.0
220
0.0
230
1.0
 70
    11
 71
     3
 72
    17
 73
    13
 74
     0
 42
0.0000000001
 43
0.0000000001
 12
1.0
 22
0.0
 32
0.0
 13
1.0
 23
0.0
 33
0.0
 40
0.0
 40
0.0
 40
0.0
 40
0.0
 40
1.0
 40
1.0
 40
1.0
 40
2.0
 40
2.0
 40
2.0
 40
3.0
 40
3.0
 40
3.0
 40
4.0
 40
4.0
 40
4.0
 40
4.0
 10
102.8919048750088
 20
-119.7849535811647
 30
0.0
 10
102.8919048750088
 20
-119.8042152478267
 30
0.0
 10
102.8764179309595
 20
-119.8200902478228
 30
0.0
 10
102.8567682092386
 20
-119.8200902478228
 30
0.0
 10
102.8374712652864
 20
-119.8200902478228
 30
0.0
 10
102.8216315434683
 20
-119.8042152478267
 30
0.0
 10
102.8216315434683
 20
-119.7849535811647
 30
0.0
 10
102.8216315434683
 20
-119.7656566367252
 30
0.0
 10
102.8374712652864
 20
-119.7497816367292
 30
0.0
 10
102.8567682092386
 20
-119.7497816367292
 30
0.0
 10
102.8764179309595
 20
-119.7497816367292
 30
0.0
 10
102.8919048750088
 20
-119.7656566367252
 30
0.0
 10
102.8919048750088
 20
-119.7849535811647
 30
0.0
  0
ENDBLK
  5
15C
330
159
100
AcDbEntity
  8
0
100
AcDbBlockEnd
  0
BLOCK
  5
160
330
15E
100
AcDbEntity
  8
0
100
AcDbBlockBegin
  2
block 29
 70
     0
 10
0.0
 20
0.0
 30
0.0
  3
block 29
  1

  0
POLYLINE
  5
162
330
15E
100
AcDbEntity
  8
_U+30EC_U+30A4_U+30E4_U+30FC 1
 62
   179
420
  2234388
370
     9
100
AcDb2dPolyline
 66
     1
 10
0.0
 20
0.0
 30
0.0
  0
VERTEX
  5
163
330
162
100
AcDbEntity
  8
_U+30EC_U+30A4_U+30E4_U+30FC 1
 62
   179
420
  2234388
370
     9
100
AcDbVertex
100
AcDb2dVertex
 10
80.85673515939506
 20
-123.7846774690538
 30
0.0
  0
VERTEX
  5
164
330
162
100
AcDbEntity
  8
_U+30EC_U+30A4_U+30E4_U+30FC 1
 62
   179
420
  2234388
370
     9
100
AcDbVertex
100
AcDb2dVertex
 10
80.85673515939506
 20
-133.2848771889008
 30
0.0
  0
SEQEND
  5
165
330
162
100
AcDbEntity
  8
_U+30EC_U+30A4_U+30E4_U+30FC 1
 62
   179
420
  2234388
370
     9
  0
POLYLINE
  5
166
330
15E
100
AcDbEntity
  8
_U+30EC_U+30A4_U+30E4_U+30FC 1
 62
   179
420
  2234388
370
     9
100
AcDb2dPolyline
 66
     1
 10
0.0
 20
0.0
 30
0.0
  0
VERTEX
  5
167
330
166
100
AcDbEntity
  8
_U+30EC_U+30A4_U+30E4_U+30FC 1
 62
   179
420
  2234388
370
     9
100
AcDbVertex
100
AcDb2dVertex
 10
84.3166384044589
 20
-123.7846774690538
 30
0.0
  0
VERTEX
  5
168
330
166
100
AcDbEntity
  8
_U+30EC_U+30A4_U+30E4_U+30FC 1
 62
   179
420
  2234388
370
     9
100
AcDbVertex
100
AcDb2dVertex
 10
79.85661018491037
 20
-123.7846774690538
 30
0.0
  0
SEQEND
  5
169
330
166
100
AcDbEntity
  8
_U+30EC_U+30A4_U+30E4_U+30FC 1
 62
   179
420
  2234388
370
     9
  0
POLYLINE
  5
16A
330
15E
100
AcDbEntity
  8
_U+30EC_U+30A4_U+30E4_U+30FC 1
 62
   179
420
  2234388
370
     9
100
AcDb2dPolyline
 66
     1
 10
0.0
 20
0.0
 30
0.0
  0
VERTEX
  5
16B
330
16A
100
AcDbEntity
  8
_U+30EC_U+30A4_U+30E4_U+30FC 1
 62
   179
420
  2234388
370
     9
100
AcDbVertex
100
AcDb2dVertex
 10
84.3166384044589
 20
-133.2848771889008
 30
0.0
  0
VERTEX
  5
16C
330
16A
100
AcDbEntity
  8
_U+30EC_U+30A4_U+30E4_U+30FC 1
 62
   179
420
  2234388
370
     9
100
AcDbVertex
100
AcDb2dVertex
 10
79.85661018491037
 20
-133.2848771889008
 30
0.0
  0
SEQEND
  5
16D
330
16A
100
AcDbEntity
  8
_U+30EC_U+30A4_U+30E4_U+30FC 1
 62
   179
420
  2234388
370
     9
  0
INSERT
  5
16F
330
15E
100
AcDbEntity
  8
_U+30EC_U+30A4_U+30E4_U+30FC 1
100
AcDbBlockReference
  2
block 30
 10
0.0
 20
0.0
 30
0.0
  0
INSERT
  5
180
330
15E
100
AcDbEntity
  8
_U+30EC_U+30A4_U+30E4_U+30FC 1
100
AcDbBlockReference
  2
block 31
 10
0.0
 20
0.0
 30
0.0
  0
INSERT
  5
185
330
15E
100
AcDbEntity
  8
_U+30EC_U+30A4_U+30E4_U+30FC 1
100
AcDbBlockReference
  2
block 32
 10
0.0
 20
0.0
 30
0.0
  0
INSERT
  5
18A
330
15E
100
AcDbEntity
  8
_U+30EC_U+30A4_U+30E4_U+30FC 1
100
AcDbBlockReference
  2
block 33
 10
0.0
 20
0.0
 30
0.0
  0
ENDBLK
  5
161
330
15E
100
AcDbEntity
  8
0
100
AcDbBlockEnd
  0
BLOCK
  5
170
330
16E
100
AcDbEntity
  8
0
100
AcDbBlockBegin
  2
block 30
 70
     0
 10
0.0
 20
0.0
 30
0.0
  3
block 30
  1

  0
SPLINE
  5
172
330
16E
100
AcDbEntity
  8
_U+30EC_U+30A4_U+30E4_U+30FC 1
370
     0
100
AcDbSpline
210
0.0
220
0.0
230
1.0
 70
    11
 71
     3
 72
    32
 73
    28
 74
     0
 42
0.0000000001
 43
0.0000000001
 12
1.0
 22
0.0
 32
0.0
 13
1.0
 23
0.0
 33
0.0
 40
0.0
 40
0.0
 40
0.0
 40
0.0
 40
1.0
 40
1.0
 40
1.0
 40
2.0
 40
2.0
 40
2.0
 40
3.0
 40
3.0
 40
3.0
 40
4.0
 40
4.0
 40
4.0
 40
5.0
 40
5.0
 40
5.0
 40
6.0
 40
6.0
 40
6.0
 40
7.0
 40
7.0
 40
7.0
 40
8.0
 40
8.0
 40
8.0
 40
9.0
 40
9.0
 40
9.0
 40
9.0
 10
80.53496363003987
 20
-129.4394720813554
 30
0.0
 10
80.53496363003987
 20
-129.613104893812
 30
0.0
 10
80.46520044646357
 20
-129.8583956923618
 30
0.0
 10
80.13292098691122
 20
-129.8966362522481
 30
0.0
 10
80.13292098691122
 20
-129.8966362522481
 30
0.0
 10
80.13292098691122
 20
-129.6830403321626
 30
0.0
 10
80.13292098691122
 20
-129.6830403321626
 30
0.0
 10
80.19217662925752
 20
-129.6723605361583
 30
0.0
 10
80.34031573512326
 20
-129.640665657694
 30
0.0
 10
80.34031573512326
 20
-129.4374050240643
 30
0.0
 10
80.34031573512326
 20
-129.1456054364636
 30
0.0
 10
80.01027558763633
 20
-129.1073648765773
 30
0.0
 10
79.80512015148969
 20
-129.0946180232819
 30
0.0
 10
79.88556313107028
 20
-129.185913053641
 30
0.0
 10
79.94257946135116
 20
-129.2534369251519
 30
0.0
 10
79.94257946135116
 20
-129.4353379667731
 30
0.0
 10
79.94257946135116
 20
-129.6151719511032
 30
0.0
 10
79.836815029954
 20
-129.9176513347081
 30
0.0
 10
79.43063827224304
 20
-129.9176513347081
 30
0.0
 10
79.11127792076037
 20
-129.9176513347081
 30
0.0
 10
78.89113631925291
 20
-129.7188693252092
 30
0.0
 10
78.89113631925291
 20
-129.4015760310177
 30
0.0
 10
78.89113631925291
 20
-128.8875677846184
 30
0.0
 10
79.44545218282961
 20
-128.8768879886141
 30
0.0
 10
79.65922035768936
 20
-128.8768879886141
 30
0.0
 10
79.88969724565258
 20
-128.8768879886141
 30
0.0
 10
80.53496363003987
 20
-128.895836013783
 30
0.0
 10
80.53496363003987
 20
-129.4394720813554
 30
0.0
  0
SPLINE
  5
173
330
16E
100
AcDbEntity
  8
_U+30EC_U+30A4_U+30E4_U+30FC 1
370
     0
100
AcDbSpline
210
0.0
220
0.0
230
1.0
 70
    11
 71
     3
 72
    17
 73
    13
 74
     0
 42
0.0000000001
 43
0.0000000001
 12
1.0
 22
0.0
 32
0.0
 13
1.0
 23
0.0
 33
0.0
 40
0.0
 40
0.0
 40
0.0
 40
0.0
 40
1.0
 40
1.0
 40
1.0
 40
2.0
 40
2.0
 40
2.0
 40
3.0
 40
3.0
 40
3.0
 40
4.0
 40
4.0
 40
4.0
 40
4.0
 10
79.08371715687838
 20
-129.3995089737265
 30
0.0
 10
79.08371715687838
 20
-129.5180202584191
 30
0.0
 10
79.14090574193352
 20
-129.6933756186183
 30
0.0
 10
79.42650415766074
 20
-129.6933756186183
 30
0.0
 10
79.65284693104165
 20
-129.6933756186183
 30
0.0
 10
79.74793156643454
 20
-129.5538492514657
 30
0.0
 10
79.74793156643454
 20
-129.4184569988954
 30
0.0
 10
79.74793156643454
 20
-129.1562852324679
 30
0.0
 10
79.53846976093136
 20
-129.1180446725816
 30
0.0
 10
79.42219778830417
 20
-129.1180446725816
 30
0.0
 10
79.2466701733307
 20
-129.1180446725816
 30
0.0
 10
79.08371715687838
 20
-129.2131293079745
 30
0.0
 10
79.08371715687838
 20
-129.3995089737265
 30
0.0
  0
HATCH
  5
174
330
16E
100
AcDbEntity
  8
_U+30EC_U+30A4_U+30E4_U+30FC 1
 62
   179
420
  2234388
100
AcDbHatch
 10
0.0
 20
0.0
 30
0.0
210
0.0
220
0.0
230
1.0
  2
SOLID
 70
     1
 71
     0
 91
        2
 92
        1
 93
        1
 72
     4
 94
        3
 73
     0
 74
     1
 95
       32
 96
       28
 40
0.0
 40
0.0
 40
0.0
 40
0.0
 40
1.0
 40
1.0
 40
1.0
 40
2.0
 40
2.0
 40
2.0
 40
3.0
 40
3.0
 40
3.0
 40
4.0
 40
4.0
 40
4.0
 40
5.0
 40
5.0
 40
5.0
 40
6.0
 40
6.0
 40
6.0
 40
7.0
 40
7.0
 40
7.0
 40
8.0
 40
8.0
 40
8.0
 40
9.0
 40
9.0
 40
9.0
 40
9.0
 10
80.53496363003987
 20
-129.4394720813554
 10
80.53496363003987
 20
-129.613104893812
 10
80.46520044646357
 20
-129.8583956923618
 10
80.13292098691122
 20
-129.8966362522481
 10
80.13292098691122
 20
-129.8966362522481
 10
80.13292098691122
 20
-129.6830403321626
 10
80.13292098691122
 20
-129.6830403321626
 10
80.19217662925752
 20
-129.6723605361583
 10
80.34031573512326
 20
-129.640665657694
 10
80.34031573512326
 20
-129.4374050240643
 10
80.34031573512326
 20
-129.1456054364636
 10
80.01027558763633
 20
-129.1073648765773
 10
79.80512015148969
 20
-129.0946180232819
 10
79.88556313107028
 20
-129.185913053641
 10
79.94257946135116
 20
-129.2534369251519
 10
79.94257946135116
 20
-129.4353379667731
 10
79.94257946135116
 20
-129.6151719511032
 10
79.836815029954
 20
-129.9176513347081
 10
79.43063827224304
 20
-129.9176513347081
 10
79.11127792076037
 20
-129.9176513347081
 10
78.89113631925291
 20
-129.7188693252092
 10
78.89113631925291
 20
-129.4015760310177
 10
78.89113631925291
 20
-128.8875677846184
 10
79.44545218282961
 20
-128.8768879886141
 10
79.65922035768936
 20
-128.8768879886141
 10
79.88969724565258
 20
-128.8768879886141
 10
80.53496363003987
 20
-128.895836013783
 10
80.53496363003987
 20
-129.4394720813554
 97
        0
 97
        0
 92
        1
 93
        1
 72
     4
 94
        3
 73
     0
 74
     1
 95
       17
 96
       13
 40
0.0
 40
0.0
 40
0.0
 40
0.0
 40
1.0
 40
1.0
 40
1.0
 40
2.0
 40
2.0
 40
2.0
 40
3.0
 40
3.0
 40
3.0
 40
4.0
 40
4.0
 40
4.0
 40
4.0
 10
79.08371715687838
 20
-129.3995089737265
 10
79.08371715687838
 20
-129.5180202584191
 10
79.14090574193352
 20
-129.6933756186183
 10
79.42650415766074
 20
-129.6933756186183
 10
79.65284693104165
 20
-129.6933756186183
 10
79.74793156643454
 20
-129.5538492514657
 10
79.74793156643454
 20
-129.4184569988954
 10
79.74793156643454
 20
-129.1562852324679
 10
79.53846976093136
 20
-129.1180446725816
 10
79.42219778830417
 20
-129.1180446725816
 10
79.2466701733307
 20
-129.1180446725816
 10
79.08371715687838
 20
-129.2131293079745
 10
79.08371715687838
 20
-129.3995089737265
 97
        0
 97
        0
 75
     2
 76
     1
 98
        0
  0
POLYLINE
  5
175
330
16E
100
AcDbEntity
  8
_U+30EC_U+30A4_U+30E4_U+30FC 1
370
     0
100
AcDb2dPolyline
 66
     1
 10
0.0
 20
0.0
 30
0.0
  0
VERTEX
  5
176
330
175
100
AcDbEntity
  8
_U+30EC_U+30A4_U+30E4_U+30FC 1
370
     0
100
AcDbVertex
100
AcDb2dVertex
 10
80.48414847163244
 20
-128.6605359921404
 30
0.0
  0
VERTEX
  5
177
330
175
100
AcDbEntity
  8
_U+30EC_U+30A4_U+30E4_U+30FC 1
370
     0
100
AcDbVertex
100
AcDb2dVertex
 10
80.23248424643494
 20
-128.6605359921404
 30
0.0
  0
VERTEX
  5
178
330
175
100
AcDbEntity
  8
_U+30EC_U+30A4_U+30E4_U+30FC 1
370
     0
100
AcDbVertex
100
AcDb2dVertex
 10
80.23248424643494
 20
-128.4086995121687
 30
0.0
  0
VERTEX
  5
179
330
175
100
AcDbEntity
  8
_U+30EC_U+30A4_U+30E4_U+30FC 1
370
     0
100
AcDbVertex
100
AcDb2dVertex
 10
80.48414847163244
 20
-128.4086995121687
 30
0.0
  0
VERTEX
  5
17A
330
175
100
AcDbEntity
  8
_U+30EC_U+30A4_U+30E4_U+30FC 1
370
     0
100
AcDbVertex
100
AcDb2dVertex
 10
80.48414847163244
 20
-128.6605359921404
 30
0.0
  0
SEQEND
  5
17B
330
175
100
AcDbEntity
  8
_U+30EC_U+30A4_U+30E4_U+30FC 1
370
     0
  0
HATCH
  5
17C
330
16E
100
AcDbEntity
  8
_U+30EC_U+30A4_U+30E4_U+30FC 1
 62
   179
420
  2234388
100
AcDbHatch
 10
0.0
 20
0.0
 30
0.0
210
0.0
220
0.0
230
1.0
  2
SOLID
 70
     1
 71
     0
 91
        1
 92
        1
 93
        4
 72
     1
 10
80.48414847163244
 20
-128.6605359921404
 11
80.23248424643494
 21
-128.6605359921404
 72
     1
 10
80.23248424643494
 20
-128.6605359921404
 11
80.23248424643494
 21
-128.4086995121687
 72
     1
 10
80.23248424643494
 20
-128.4086995121687
 11
80.48414847163244
 21
-128.4086995121687
 72
     1
 10
80.48414847163244
 20
-128.4086995121687
 11
80.48414847163244
 21
-128.6605359921404
 97
        0
 75
     2
 76
     1
 98
        0
  0
SPLINE
  5
17D
330
16E
100
AcDbEntity
  8
_U+30EC_U+30A4_U+30E4_U+30FC 1
370
     0
100
AcDbSpline
210
0.0
220
0.0
230
1.0
 70
    11
 71
     3
 72
    53
 73
    49
 74
     0
 42
0.0000000001
 43
0.0000000001
 12
1.0
 22
0.0
 32
0.0
 13
1.0
 23
0.0
 33
0.0
 40
0.0
 40
0.0
 40
0.0
 40
0.0
 40
1.0
 40
1.0
 40
1.0
 40
2.0
 40
2.0
 40
2.0
 40
3.0
 40
3.0
 40
3.0
 40
4.0
 40
4.0
 40
4.0
 40
5.0
 40
5.0
 40
5.0
 40
6.0
 40
6.0
 40
6.0
 40
7.0
 40
7.0
 40
7.0
 40
8.0
 40
8.0
 40
8.0
 40
9.0
 40
9.0
 40
9.0
 40
10.0
 40
10.0
 40
10.0
 40
11.0
 40
11.0
 40
11.0
 40
12.0
 40
12.0
 40
12.0
 40
13.0
 40
13.0
 40
13.0
 40
14.0
 40
14.0
 40
14.0
 40
15.0
 40
15.0
 40
15.0
 40
16.0
 40
16.0
 40
16.0
 40
16.0
 10
80.53496363003987
 20
-127.6912583773654
 30
0.0
 10
80.53496363003987
 20
-127.7696342996548
 30
0.0
 10
80.51808266216214
 20
-127.8710923616954
 30
0.0
 10
80.45452065045929
 20
-127.9727226785103
 30
0.0
 10
80.34462210447982
 20
-128.1461832361926
 30
0.0
 10
80.2133639664918
 20
-128.1671983186527
 30
0.0
 10
80.10553247780348
 20
-128.1863185985958
 30
0.0
 10
80.10553247780348
 20
-128.1863185985958
 30
0.0
 10
80.10553247780348
 20
-127.9641099397972
 30
0.0
 10
80.10553247780348
 20
-127.9641099397972
 30
0.0
 10
80.30431448730239
 20
-127.9091606668074
 30
0.0
 10
80.33394230847554
 20
-127.782208898176
 30
0.0
 10
80.33394230847554
 20
-127.6891913200742
 30
0.0
 10
80.33394230847554
 20
-127.5494926981474
 30
0.0
 10
80.2345513037261
 20
-127.3972194776993
 30
0.0
 10
80.00183510369746
 20
-127.3972194776993
 30
0.0
 10
79.7458645091434
 20
-127.3972194776993
 30
0.0
 10
79.67610132556709
 20
-127.5770534620294
 30
0.0
 10
79.67610132556709
 20
-127.6976318040131
 30
0.0
 10
79.67610132556709
 20
-127.7293266824774
 30
0.0
 10
79.67610132556709
 20
-127.8710923616954
 30
0.0
 10
79.80512015148969
 20
-127.9599758252149
 30
0.0
 10
79.80512015148969
 20
-127.9599758252149
 30
0.0
 10
79.78599987154657
 20
-128.1355034401884
 30
0.0
 10
79.78599987154657
 20
-128.1355034401884
 30
0.0
 10
79.78599987154657
 20
-128.1355034401884
 30
0.0
 10
78.9398844203692
 20
-128.0149250982046
 30
0.0
 10
78.9398844203692
 20
-128.0149250982046
 30
0.0
 10
78.9398844203692
 20
-128.0149250982046
 30
0.0
 10
78.9398844203692
 20
-127.2365057733124
 30
0.0
 10
78.9398844203692
 20
-127.2365057733124
 30
0.0
 10
78.9398844203692
 20
-127.2365057733124
 30
0.0
 10
79.13453231528581
 20
-127.2365057733124
 30
0.0
 10
79.13453231528581
 20
-127.2365057733124
 30
0.0
 10
79.13453231528581
 20
-127.2365057733124
 30
0.0
 10
79.13453231528581
 20
-127.8521443365265
 30
0.0
 10
79.13453231528581
 20
-127.8521443365265
 30
0.0
 10
79.13453231528581
 20
-127.8521443365265
 30
0.0
 10
79.5575900408745
 20
-127.9176011507463
 30
0.0
 10
79.5575900408745
 20
-127.9176011507463
 30
0.0
 10
79.52382810511905
 20
-127.8562784511088
 30
0.0
 10
79.48352048794162
 20
-127.7737684142371
 30
0.0
 10
79.48352048794162
 20
-127.6552571295445
 30
0.0
 10
79.48352048794162
 20
-127.4015258470559
 30
0.0
 10
79.66972789891938
 20
-127.1645032776707
 30
0.0
 10
79.98288707852859
 20
-127.1645032776707
 30
0.0
 10
80.30018037272009
 20
-127.1645032776707
 30
0.0
 10
80.53496363003987
 20
-127.3887789937605
 30
0.0
 10
80.53496363003987
 20
-127.6912583773654
 30
0.0
  0
HATCH
  5
17E
330
16E
100
AcDbEntity
  8
_U+30EC_U+30A4_U+30E4_U+30FC 1
 62
   179
420
  2234388
100
AcDbHatch
 10
0.0
 20
0.0
 30
0.0
210
0.0
220
0.0
230
1.0
  2
SOLID
 70
     1
 71
     0
 91
        1
 92
        1
 93
        1
 72
     4
 94
        3
 73
     0
 74
     1
 95
       53
 96
       49
 40
0.0
 40
0.0
 40
0.0
 40
0.0
 40
1.0
 40
1.0
 40
1.0
 40
2.0
 40
2.0
 40
2.0
 40
3.0
 40
3.0
 40
3.0
 40
4.0
 40
4.0
 40
4.0
 40
5.0
 40
5.0
 40
5.0
 40
6.0
 40
6.0
 40
6.0
 40
7.0
 40
7.0
 40
7.0
 40
8.0
 40
8.0
 40
8.0
 40
9.0
 40
9.0
 40
9.0
 40
10.0
 40
10.0
 40
10.0
 40
11.0
 40
11.0
 40
11.0
 40
12.0
 40
12.0
 40
12.0
 40
13.0
 40
13.0
 40
13.0
 40
14.0
 40
14.0
 40
14.0
 40
15.0
 40
15.0
 40
15.0
 40
16.0
 40
16.0
 40
16.0
 40
16.0
 10
80.53496363003987
 20
-127.6912583773654
 10
80.53496363003987
 20
-127.7696342996548
 10
80.51808266216214
 20
-127.8710923616954
 10
80.45452065045929
 20
-127.9727226785103
 10
80.34462210447982
 20
-128.1461832361926
 10
80.2133639664918
 20
-128.1671983186527
 10
80.10553247780348
 20
-128.1863185985958
 10
80.10553247780348
 20
-128.1863185985958
 10
80.10553247780348
 20
-127.9641099397972
 10
80.10553247780348
 20
-127.9641099397972
 10
80.30431448730239
 20
-127.9091606668074
 10
80.33394230847554
 20
-127.782208898176
 10
80.33394230847554
 20
-127.6891913200742
 10
80.33394230847554
 20
-127.5494926981474
 10
80.2345513037261
 20
-127.3972194776993
 10
80.00183510369746
 20
-127.3972194776993
 10
79.7458645091434
 20
-127.3972194776993
 10
79.67610132556709
 20
-127.5770534620294
 10
79.67610132556709
 20
-127.6976318040131
 10
79.67610132556709
 20
-127.7293266824774
 10
79.67610132556709
 20
-127.8710923616954
 10
79.80512015148969
 20
-127.9599758252149
 10
79.80512015148969
 20
-127.9599758252149
 10
79.78599987154657
 20
-128.1355034401884
 10
79.78599987154657
 20
-128.1355034401884
 10
79.78599987154657
 20
-128.1355034401884
 10
78.9398844203692
 20
-128.0149250982046
 10
78.9398844203692
 20
-128.0149250982046
 10
78.9398844203692
 20
-128.0149250982046
 10
78.9398844203692
 20
-127.2365057733124
 10
78.9398844203692
 20
-127.2365057733124
 10
78.9398844203692
 20
-127.2365057733124
 10
79.13453231528581
 20
-127.2365057733124
 10
79.13453231528581
 20
-127.2365057733124
 10
79.13453231528581
 20
-127.2365057733124
 10
79.13453231528581
 20
-127.8521443365265
 10
79.13453231528581
 20
-127.8521443365265
 10
79.13453231528581
 20
-127.8521443365265
 10
79.5575900408745
 20
-127.9176011507463
 10
79.5575900408745
 20
-127.9176011507463
 10
79.52382810511905
 20
-127.8562784511088
 10
79.48352048794162
 20
-127.7737684142371
 10
79.48352048794162
 20
-127.6552571295445
 10
79.48352048794162
 20
-127.4015258470559
 10
79.66972789891938
 20
-127.1645032776707
 10
79.98288707852859
 20
-127.1645032776707
 10
80.30018037272009
 20
-127.1645032776707
 10
80.53496363003987
 20
-127.3887789937605
 10
80.53496363003987
 20
-127.6912583773654
 97
        0
 97
        0
 75
     2
 76
     1
 98
        0
  0
ENDBLK
  5
171
330
16E
100
AcDbEntity
  8
0
100
AcDbBlockEnd
  0
BLOCK
  5
181
330
17F
100
AcDbEntity
  8
0
100
AcDbBlockBegin
  2
block 31
 70
     0
 10
0.0
 20
0.0
 30
0.0
  3
block 31
  1

  0
SPLINE
  5
183
330
17F
100
AcDbEntity
  8
_U+30EC_U+30A4_U+30E4_U+30FC 1
 62
   179
420
  2234388
370
    25
100
AcDbSpline
210
0.0
220
0.0
230
1.0
 70
    11
 71
     3
 72
    17
 73
    13
 74
     0
 42
0.0000000001
 43
0.0000000001
 12
1.0
 22
0.0
 32
0.0
 13
1.0
 23
0.0
 33
0.0
 40
0.0
 40
0.0
 40
0.0
 40
0.0
 40
1.0
 40
1.0
 40
1.0
 40
2.0
 40
2.0
 40
2.0
 40
3.0
 40
3.0
 40
3.0
 40
4.0
 40
4.0
 40
4.0
 40
4.0
 10
86.89219833875089
 20
-123.7846774690538
 30
0.0
 10
86.89219833875089
 20
-123.8046799690488
 30
0.0
 10
86.87635861693278
 20
-123.820519691267
 30
0.0
 10
86.85671108939681
 20
-123.820519691267
 30
0.0
 10
86.83741195125972
 20
-123.820519691267
 30
0.0
 10
86.8215722294416
 20
-123.8046799690488
 30
0.0
 10
86.8215722294416
 20
-123.7846774690538
 30
0.0
 10
86.8215722294416
 20
-123.7654158023921
 30
0.0
 10
86.83741195125972
 20
-123.749540802396
 30
0.0
 10
86.85671108939681
 20
-123.749540802396
 30
0.0
 10
86.87635861693278
 20
-123.749540802396
 30
0.0
 10
86.89219833875089
 20
-123.7654158023921
 30
0.0
 10
86.89219833875089
 20
-123.7846774690538
 30
0.0
  0
ENDBLK
  5
182
330
17F
100
AcDbEntity
  8
0
100
AcDbBlockEnd
  0
BLOCK
  5
186
330
184
100
AcDbEntity
  8
0
100
AcDbBlockBegin
  2
block 32
 70
     0
 10
0.0
 20
0.0
 30
0.0
  3
block 32
  1

  0
SPLINE
  5
188
330
184
100
AcDbEntity
  8
_U+30EC_U+30A4_U+30E4_U+30FC 1
 62
   179
420
  2234388
370
    25
100
AcDbSpline
210
0.0
220
0.0
230
1.0
 70
    11
 71
     3
 72
    17
 73
    13
 74
     0
 42
0.0000000001
 43
0.0000000001
 12
1.0
 22
0.0
 32
0.0
 13
1.0
 23
0.0
 33
0.0
 40
0.0
 40
0.0
 40
0.0
 40
0.0
 40
1.0
 40
1.0
 40
1.0
 40
2.0
 40
2.0
 40
2.0
 40
3.0
 40
3.0
 40
3.0
 40
4.0
 40
4.0
 40
4.0
 40
4.0
 10
86.89219833875089
 20
-133.2848771889008
 30
0.0
 10
86.89219833875089
 20
-133.3041741333407
 30
0.0
 10
86.87635861693278
 20
-133.3200138555592
 30
0.0
 10
86.85671108939681
 20
-133.3200138555592
 30
0.0
 10
86.83741195125972
 20
-133.3200138555592
 30
0.0
 10
86.8215722294416
 20
-133.3041741333407
 30
0.0
 10
86.8215722294416
 20
-133.2848771889008
 30
0.0
 10
86.8215722294416
 20
-133.2655802444616
 30
0.0
 10
86.83741195125972
 20
-133.2497405222431
 30
0.0
 10
86.85671108939681
 20
-133.2497405222431
 30
0.0
 10
86.87635861693278
 20
-133.2497405222431
 30
0.0
 10
86.89219833875089
 20
-133.2655802444616
 30
0.0
 10
86.89219833875089
 20
-133.2848771889008
 30
0.0
  0
ENDBLK
  5
187
330
184
100
AcDbEntity
  8
0
100
AcDbBlockEnd
  0
BLOCK
  5
18B
330
189
100
AcDbEntity
  8
0
100
AcDbBlockBegin
  2
block 33
 70
     0
 10
0.0
 20
0.0
 30
0.0
  3
block 33
  1

  0
SPLINE
  5
18D
330
189
100
AcDbEntity
  8
_U+30EC_U+30A4_U+30E4_U+30FC 1
 62
   179
420
  2234388
370
     9
100
AcDbSpline
210
0.0
220
0.0
230
1.0
 70
    11
 71
     3
 72
    17
 73
    13
 74
     0
 42
0.0000000001
 43
0.0000000001
 12
1.0
 22
0.0
 32
0.0
 13
1.0
 23
0.0
 33
0.0
 40
0.0
 40
0.0
 40
0.0
 40
0.0
 40
1.0
 40
1.0
 40
1.0
 40
2.0
 40
2.0
 40
2.0
 40
3.0
 40
3.0
 40
3.0
 40
4.0
 40
4.0
 40
4.0
 40
4.0
 10
80.89222460293409
 20
-133.2848771889008
 30
0.0
 10
80.89222460293409
 20
-133.3041741333407
 30
0.0
 10
80.87638488111597
 20
-133.3200138555592
 30
0.0
 10
80.85673515939506
 20
-133.3200138555592
 30
0.0
 10
80.83743821544292
 20
-133.3200138555592
 30
0.0
 10
80.82159849362479
 20
-133.3041741333407
 30
0.0
 10
80.82159849362479
 20
-133.2848771889008
 30
0.0
 10
80.82159849362479
 20
-133.2655802444616
 30
0.0
 10
80.83743821544292
 20
-133.2497405222431
 30
0.0
 10
80.85673515939506
 20
-133.2497405222431
 30
0.0
 10
80.87638488111597
 20
-133.2497405222431
 30
0.0
 10
80.89222460293409
 20
-133.2655802444616
 30
0.0
 10
80.89222460293409
 20
-133.2848771889008
 30
0.0
  0
ENDBLK
  5
18C
330
189
100
AcDbEntity
  8
0
100
AcDbBlockEnd
  0
ENDSEC
  0
SECTION
  2
ENTITIES
  0
INSERT
  5
42
330
1F
100
AcDbEntity
  8
_U+30EC_U+30A4_U+30E4_U+30FC 1
100
AcDbBlockReference
  2
block 2
 10
0.0
 20
0.0
 30
0.0
  0
POLYLINE
  5
4B
330
1F
100
AcDbEntity
  8
_U+30EC_U+30A4_U+30E4_U+30FC 1
 62
   179
420
  2234388
370
    25
100
AcDb2dPolyline
 66
     1
 10
0.0
 20
0.0
 30
0.0
  0
VERTEX
  5
4C
330
4B
100
AcDbEntity
  8
_U+30EC_U+30A4_U+30E4_U+30FC 1
 62
   179
420
  2234388
370
    25
100
AcDbVertex
100
AcDb2dVertex
 10
84.85684700178814
 20
-133.2848771889008
 30
0.0
  0
VERTEX
  5
4D
330
4B
100
AcDbEntity
  8
_U+30EC_U+30A4_U+30E4_U+30FC 1
 62
   179
420
  2234388
370
    25
100
AcDbVertex
100
AcDb2dVertex
 10
86.85671108939681
 20
-133.2848771889008
 30
0.0
  0
SEQEND
  5
4E
330
4B
100
AcDbEntity
  8
_U+30EC_U+30A4_U+30E4_U+30FC 1
 62
   179
420
  2234388
370
    25
  0
POLYLINE
  5
4F
330
1F
100
AcDbEntity
  8
_U+30EC_U+30A4_U+30E4_U+30FC 1
 62
   179
420
  2234388
370
    25
100
AcDb2dPolyline
 66
     1
 10
0.0
 20
0.0
 30
0.0
  0
VERTEX
  5
50
330
4F
100
AcDbEntity
  8
_U+30EC_U+30A4_U+30E4_U+30FC 1
 62
   179
420
  2234388
370
    25
100
AcDbVertex
100
AcDb2dVertex
 10
84.85684700178814
 20
-135.2851271884008
 30
0.0
  0
VERTEX
  5
51
330
4F
100
AcDbEntity
  8
_U+30EC_U+30A4_U+30E4_U+30FC 1
 62
   179
420
  2234388
370
    25
100
AcDbVertex
100
AcDb2dVertex
 10
90.85682073760495
 20
-135.2851271884008
 30
0.0
  0
SEQEND
  5
52
330
4F
100
AcDbEntity
  8
_U+30EC_U+30A4_U+30E4_U+30FC 1
 62
   179
420
  2234388
370
    25
  0
POLYLINE
  5
53
330
1F
100
AcDbEntity
  8
_U+30EC_U+30A4_U+30E4_U+30FC 1
 62
   179
420
  2234388
370
    25
100
AcDb2dPolyline
 66
     1
 10
0.0
 20
0.0
 30
0.0
  0
VERTEX
  5
54
330
53
100
AcDbEntity
  8
_U+30EC_U+30A4_U+30E4_U+30FC 1
 62
   179
420
  2234388
370
    25
100
AcDbVertex
100
AcDb2dVertex
 10
98.85665636684547
 20
-133.2848771889008
 30
0.0
  0
VERTEX
  5
55
330
53
100
AcDbEntity
  8
_U+30EC_U+30A4_U+30E4_U+30FC 1
 62
   179
420
  2234388
370
    25
100
AcDbVertex
100
AcDb2dVertex
 10
98.85665636684547
 20
-135.2851271884008
 30
0.0
  0
SEQEND
  5
56
330
53
100
AcDbEntity
  8
_U+30EC_U+30A4_U+30E4_U+30FC 1
 62
   179
420
  2234388
370
    25
  0
POLYLINE
  5
57
330
1F
100
AcDbEntity
  8
_U+30EC_U+30A4_U+30E4_U+30FC 1
 62
   179
420
  2234388
370
    25
100
AcDb2dPolyline
 66
     1
 10
0.0
 20
0.0
 30
0.0
  0
VERTEX
  5
58
330
57
100
AcDbEntity
  8
_U+30EC_U+30A4_U+30E4_U+30FC 1
 62
   179
420
  2234388
370
    25
100
AcDbVertex
100
AcDb2dVertex
 10
90.85682073760495
 20
-133.2848771889008
 30
0.0
  0
VERTEX
  5
59
330
57
100
AcDbEntity
  8
_U+30EC_U+30A4_U+30E4_U+30FC 1
 62
   179
420
  2234388
370
    25
100
AcDbVertex
100
AcDb2dVertex
 10
90.85682073760495
 20
-135.2851271884008
 30
0.0
  0
SEQEND
  5
5A
330
57
100
AcDbEntity
  8
_U+30EC_U+30A4_U+30E4_U+30FC 1
 62
   179
420
  2234388
370
    25
  0
POLYLINE
  5
5B
330
1F
100
AcDbEntity
  8
_U+30EC_U+30A4_U+30E4_U+30FC 1
 62
   179
420
  2234388
370
    25
100
AcDb2dPolyline
 66
     1
 10
0.0
 20
0.0
 30
0.0
  0
VERTEX
  5
5C
330
5B
100
AcDbEntity
  8
_U+30EC_U+30A4_U+30E4_U+30FC 1
 62
   179
420
  2234388
370
    25
100
AcDbVertex
100
AcDb2dVertex
 10
104.8566301026623
 20
-133.2848771889008
 30
0.0
  0
VERTEX
  5
5D
330
5B
100
AcDbEntity
  8
_U+30EC_U+30A4_U+30E4_U+30FC 1
 62
   179
420
  2234388
370
    25
100
AcDbVertex
100
AcDb2dVertex
 10
104.8566301026623
 20
-135.2851271884008
 30
0.0
  0
SEQEND
  5
5E
330
5B
100
AcDbEntity
  8
_U+30EC_U+30A4_U+30E4_U+30FC 1
 62
   179
420
  2234388
370
    25
  0
POLYLINE
  5
5F
330
1F
100
AcDbEntity
  8
_U+30EC_U+30A4_U+30E4_U+30FC 1
 62
   179
420
  2234388
370
    25
100
AcDb2dPolyline
 66
     1
 10
0.0
 20
0.0
 30
0.0
  0
VERTEX
  5
60
330
5F
100
AcDbEntity
  8
_U+30EC_U+30A4_U+30E4_U+30FC 1
 62
   179
420
  2234388
370
    25
100
AcDbVertex
100
AcDb2dVertex
 10
84.85684700178814
 20
-133.2848771889008
 30
0.0
  0
VERTEX
  5
61
330
5F
100
AcDbEntity
  8
_U+30EC_U+30A4_U+30E4_U+30FC 1
 62
   179
420
  2234388
370
    25
100
AcDbVertex
100
AcDb2dVertex
 10
84.85684700178814
 20
-135.2851271884008
 30
0.0
  0
SEQEND
  5
62
330
5F
100
AcDbEntity
  8
_U+30EC_U+30A4_U+30E4_U+30FC 1
 62
   179
420
  2234388
370
    25
  0
POLYLINE
  5
63
330
1F
100
AcDbEntity
  8
_U+30EC_U+30A4_U+30E4_U+30FC 1
 62
   179
420
  2234388
370
    25
100
AcDb2dPolyline
 66
     1
 10
0.0
 20
0.0
 30
0.0
  0
VERTEX
  5
64
330
63
100
AcDbEntity
  8
_U+30EC_U+30A4_U+30E4_U+30FC 1
 62
   179
420
  2234388
370
    25
100
AcDbVertex
100
AcDb2dVertex
 10
102.8567682092386
 20
-133.2848771889008
 30
0.0
  0
VERTEX
  5
65
330
63
100
AcDbEntity
  8
_U+30EC_U+30A4_U+30E4_U+30FC 1
 62
   179
420
  2234388
370
    25
100
AcDbVertex
100
AcDb2dVertex
 10
104.8566301026623
 20
-133.2848771889008
 30
0.0
  0
SEQEND
  5
66
330
63
100
AcDbEntity
  8
_U+30EC_U+30A4_U+30E4_U+30FC 1
 62
   179
420
  2234388
370
    25
  0
POLYLINE
  5
67
330
1F
100
AcDbEntity
  8
_U+30EC_U+30A4_U+30E4_U+30FC 1
 62
   179
420
  2234388
370
    25
100
AcDb2dPolyline
 66
     1
 10
0.0
 20
0.0
 30
0.0
  0
VERTEX
  5
68
330
67
100
AcDbEntity
  8
_U+30EC_U+30A4_U+30E4_U+30FC 1
 62
   179
420
  2234388
370
    25
100
AcDbVertex
100
AcDb2dVertex
 10
98.85665636684547
 20
-135.2851271884008
 30
0.0
  0
VERTEX
  5
69
330
67
100
AcDbEntity
  8
_U+30EC_U+30A4_U+30E4_U+30FC 1
 62
   179
420
  2234388
370
    25
100
AcDbVertex
100
AcDb2dVertex
 10
104.8566301026623
 20
-135.2851271884008
 30
0.0
  0
SEQEND
  5
6A
330
67
100
AcDbEntity
  8
_U+30EC_U+30A4_U+30E4_U+30FC 1
 62
   179
420
  2234388
370
    25
  0
POLYLINE
  5
6B
330
1F
100
AcDbEntity
  8
_U+30EC_U+30A4_U+30E4_U+30FC 1
 62
   179
420
  2234388
370
    25
100
AcDb2dPolyline
 66
     1
 10
0.0
 20
0.0
 30
0.0
  0
VERTEX
  5
6C
330
6B
100
AcDbEntity
  8
_U+30EC_U+30A4_U+30E4_U+30FC 1
 62
   179
420
  2234388
370
    25
100
AcDbVertex
100
AcDb2dVertex
 10
89.35680966476231
 20
-133.2848771889008
 30
0.0
  0
VERTEX
  5
6D
330
6B
100
AcDbEntity
  8
_U+30EC_U+30A4_U+30E4_U+30FC 1
 62
   179
420
  2234388
370
    25
100
AcDbVertex
100
AcDb2dVertex
 10
90.85682073760495
 20
-133.2848771889008
 30
0.0
  0
SEQEND
  5
6E
330
6B
100
AcDbEntity
  8
_U+30EC_U+30A4_U+30E4_U+30FC 1
 62
   179
420
  2234388
370
    25
  0
POLYLINE
  5
6F
330
1F
100
AcDbEntity
  8
_U+30EC_U+30A4_U+30E4_U+30FC 1
 62
   179
420
  2234388
370
    25
100
AcDb2dPolyline
 66
     1
 10
0.0
 20
0.0
 30
0.0
  0
VERTEX
  5
70
330
6F
100
AcDbEntity
  8
_U+30EC_U+30A4_U+30E4_U+30FC 1
 62
   179
420
  2234388
370
    25
100
AcDbVertex
100
AcDb2dVertex
 10
98.85665636684547
 20
-133.2848771889008
 30
0.0
  0
VERTEX
  5
71
330
6F
100
AcDbEntity
  8
_U+30EC_U+30A4_U+30E4_U+30FC 1
 62
   179
420
  2234388
370
    25
100
AcDbVertex
100
AcDb2dVertex
 10
100.3566674396881
 20
-133.2848771889008
 30
0.0
  0
SEQEND
  5
72
330
6F
100
AcDbEntity
  8
_U+30EC_U+30A4_U+30E4_U+30FC 1
 62
   179
420
  2234388
370
    25
  0
POLYLINE
  5
73
330
1F
100
AcDbEntity
  8
_U+30EC_U+30A4_U+30E4_U+30FC 1
 62
   179
420
  2234388
370
    25
100
AcDb2dPolyline
 66
     1
 10
0.0
 20
0.0
 30
0.0
  0
VERTEX
  5
74
330
73
100
AcDbEntity
  8
_U+30EC_U+30A4_U+30E4_U+30FC 1
 62
   179
420
  2234388
370
    25
100
AcDbVertex
100
AcDb2dVertex
 10
91.60682627402628
 20
-125.7849274685537
 30
0.0
  0
VERTEX
  5
75
330
73
100
AcDbEntity
  8
_U+30EC_U+30A4_U+30E4_U+30FC 1
 62
   179
420
  2234388
370
    25
100
AcDbVertex
100
AcDb2dVertex
 10
94.48175342290298
 20
-125.7849274685537
 30
0.0
  0
SEQEND
  5
76
330
73
100
AcDbEntity
  8
_U+30EC_U+30A4_U+30E4_U+30FC 1
 62
   179
420
  2234388
370
    25
  0
POLYLINE
  5
77
330
1F
100
AcDbEntity
  8
_U+30EC_U+30A4_U+30E4_U+30FC 1
 62
   179
420
  2234388
370
    25
100
AcDb2dPolyline
 66
     1
 10
0.0
 20
0.0
 30
0.0
  0
VERTEX
  5
78
330
77
100
AcDbEntity
  8
_U+30EC_U+30A4_U+30E4_U+30FC 1
 62
   179
420
  2234388
370
    25
100
AcDbVertex
100
AcDb2dVertex
 10
102.8567682092386
 20
-123.7846774690538
 30
0.0
  0
VERTEX
  5
79
330
77
100
AcDbEntity
  8
_U+30EC_U+30A4_U+30E4_U+30FC 1
 62
   179
420
  2234388
370
    25
100
AcDbVertex
100
AcDb2dVertex
 10
102.8567682092386
 20
-133.2848771889008
 30
0.0
  0
SEQEND
  5
7A
330
77
100
AcDbEntity
  8
_U+30EC_U+30A4_U+30E4_U+30FC 1
 62
   179
420
  2234388
370
    25
  0
POLYLINE
  5
7B
330
1F
100
AcDbEntity
  8
_U+30EC_U+30A4_U+30E4_U+30FC 1
 62
   179
420
  2234388
370
    25
100
AcDb2dPolyline
 66
     1
 10
0.0
 20
0.0
 30
0.0
  0
VERTEX
  5
7C
330
7B
100
AcDbEntity
  8
_U+30EC_U+30A4_U+30E4_U+30FC 1
 62
   179
420
  2234388
370
    25
100
AcDbVertex
100
AcDb2dVertex
 10
86.85671108939681
 20
-123.7846774690538
 30
0.0
  0
VERTEX
  5
7D
330
7B
100
AcDbEntity
  8
_U+30EC_U+30A4_U+30E4_U+30FC 1
 62
   179
420
  2234388
370
    25
100
AcDbVertex
100
AcDb2dVertex
 10
86.85671108939681
 20
-133.2848771889008
 30
0.0
  0
SEQEND
  5
7E
330
7B
100
AcDbEntity
  8
_U+30EC_U+30A4_U+30E4_U+30FC 1
 62
   179
420
  2234388
370
    25
  0
POLYLINE
  5
7F
330
1F
100
AcDbEntity
  8
_U+30EC_U+30A4_U+30E4_U+30FC 1
 62
   179
420
  2234388
370
    25
100
AcDb2dPolyline
 66
     1
 10
0.0
 20
0.0
 30
0.0
  0
VERTEX
  5
80
330
7F
100
AcDbEntity
  8
_U+30EC_U+30A4_U+30E4_U+30FC 1
 62
   179
420
  2234388
370
    25
100
AcDbVertex
100
AcDb2dVertex
 10
94.48175342290298
 20
-125.7849274685537
 30
0.0
  0
VERTEX
  5
81
330
7F
100
AcDbEntity
  8
_U+30EC_U+30A4_U+30E4_U+30FC 1
 62
   179
420
  2234388
370
    25
100
AcDbVertex
100
AcDb2dVertex
 10
94.85689730222116
 20
-125.135181357605
 30
0.0
  0
SEQEND
  5
82
330
7F
100
AcDbEntity
  8
_U+30EC_U+30A4_U+30E4_U+30FC 1
 62
   179
420
  2234388
370
    25
  0
POLYLINE
  5
83
330
1F
100
AcDbEntity
  8
_U+30EC_U+30A4_U+30E4_U+30FC 1
 62
   179
420
  2234388
370
    25
100
AcDb2dPolyline
 66
     1
 10
0.0
 20
0.0
 30
0.0
  0
VERTEX
  5
84
330
83
100
AcDbEntity
  8
_U+30EC_U+30A4_U+30E4_U+30FC 1
 62
   179
420
  2234388
370
    25
100
AcDbVertex
100
AcDb2dVertex
 10
94.85689730222116
 20
-125.135181357605
 30
0.0
  0
VERTEX
  5
85
330
83
100
AcDbEntity
  8
_U+30EC_U+30A4_U+30E4_U+30FC 1
 62
   179
420
  2234388
370
    25
100
AcDbVertex
100
AcDb2dVertex
 10
95.23172368154744
 20
-125.7849274685537
 30
0.0
  0
SEQEND
  5
86
330
83
100
AcDbEntity
  8
_U+30EC_U+30A4_U+30E4_U+30FC 1
 62
   179
420
  2234388
370
    25
  0
POLYLINE
  5
87
330
1F
100
AcDbEntity
  8
_U+30EC_U+30A4_U+30E4_U+30FC 1
 62
   179
420
  2234388
370
    25
100
AcDb2dPolyline
 66
     1
 10
0.0
 20
0.0
 30
0.0
  0
VERTEX
  5
88
330
87
100
AcDbEntity
  8
_U+30EC_U+30A4_U+30E4_U+30FC 1
 62
   179
420
  2234388
370
    25
100
AcDbVertex
100
AcDb2dVertex
 10
95.23172368154744
 20
-125.7849274685537
 30
0.0
  0
VERTEX
  5
89
330
87
100
AcDbEntity
  8
_U+30EC_U+30A4_U+30E4_U+30FC 1
 62
   179
420
  2234388
370
    25
100
AcDbVertex
100
AcDb2dVertex
 10
98.10668610820103
 20
-125.7849274685537
 30
0.0
  0
SEQEND
  5
8A
330
87
100
AcDbEntity
  8
_U+30EC_U+30A4_U+30E4_U+30FC 1
 62
   179
420
  2234388
370
    25
  0
POLYLINE
  5
8B
330
1F
100
AcDbEntity
  8
_U+30EC_U+30A4_U+30E4_U+30FC 1
 62
   179
420
  2234388
370
    25
100
AcDb2dPolyline
 66
     1
 10
0.0
 20
0.0
 30
0.0
  0
VERTEX
  5
8C
330
8B
100
AcDbEntity
  8
_U+30EC_U+30A4_U+30E4_U+30FC 1
 62
   179
420
  2234388
370
    25
100
AcDbVertex
100
AcDb2dVertex
 10
86.85671108939681
 20
-123.7846774690538
 30
0.0
  0
VERTEX
  5
8D
330
8B
100
AcDbEntity
  8
_U+30EC_U+30A4_U+30E4_U+30FC 1
 62
   179
420
  2234388
370
    25
100
AcDbVertex
100
AcDb2dVertex
 10
102.8567682092386
 20
-123.7846774690538
 30
0.0
  0
SEQEND
  5
8E
330
8B
100
AcDbEntity
  8
_U+30EC_U+30A4_U+30E4_U+30FC 1
 62
   179
420
  2234388
370
    25
  0
POLYLINE
  5
8F
330
1F
100
AcDbEntity
  8
_U+30EC_U+30A4_U+30E4_U+30FC 1
 62
   179
420
  2234388
370
    25
100
AcDb2dPolyline
 66
     1
 10
0.0
 20
0.0
 30
0.0
  0
VERTEX
  5
90
330
8F
100
AcDbEntity
  8
_U+30EC_U+30A4_U+30E4_U+30FC 1
 62
   179
420
  2234388
370
    25
100
AcDbVertex
100
AcDb2dVertex
 10
89.35680966476231
 20
-127.7851421902759
 30
0.0
  0
VERTEX
  5
91
330
8F
100
AcDbEntity
  8
_U+30EC_U+30A4_U+30E4_U+30FC 1
 62
   179
420
  2234388
370
    25
100
AcDbVertex
100
AcDb2dVertex
 10
89.35680966476231
 20
-133.2848771889008
 30
0.0
  0
SEQEND
  5
92
330
8F
100
AcDbEntity
  8
_U+30EC_U+30A4_U+30E4_U+30FC 1
 62
   179
420
  2234388
370
    25
  0
POLYLINE
  5
93
330
1F
100
AcDbEntity
  8
_U+30EC_U+30A4_U+30E4_U+30FC 1
 62
   179
420
  2234388
370
    25
100
AcDb2dPolyline
 66
     1
 10
0.0
 20
0.0
 30
0.0
  0
VERTEX
  5
94
330
93
100
AcDbEntity
  8
_U+30EC_U+30A4_U+30E4_U+30FC 1
 62
   179
420
  2234388
370
    25
100
AcDbVertex
100
AcDb2dVertex
 10
100.3566674396881
 20
-127.7851421902759
 30
0.0
  0
VERTEX
  5
95
330
93
100
AcDbEntity
  8
_U+30EC_U+30A4_U+30E4_U+30FC 1
 62
   179
420
  2234388
370
    25
100
AcDbVertex
100
AcDb2dVertex
 10
100.3566674396881
 20
-133.2848771889008
 30
0.0
  0
SEQEND
  5
96
330
93
100
AcDbEntity
  8
_U+30EC_U+30A4_U+30E4_U+30FC 1
 62
   179
420
  2234388
370
    25
  0
SPLINE
  5
97
330
1F
100
AcDbEntity
  8
_U+30EC_U+30A4_U+30E4_U+30FC 1
 62
   179
420
  2234388
370
     9
100
AcDbSpline
210
0.0
220
0.0
230
1.0
 70
    11
 71
     3
 72
    17
 73
    13
 74
     0
 42
0.0000000001
 43
0.0000000001
 12
1.0
 22
0.0
 32
0.0
 13
1.0
 23
0.0
 33
0.0
 40
0.0
 40
0.0
 40
0.0
 40
0.0
 40
1.0
 40
1.0
 40
1.0
 40
2.0
 40
2.0
 40
2.0
 40
3.0
 40
3.0
 40
3.0
 40
4.0
 40
4.0
 40
4.0
 40
4.0
 10
80.95664182351288
 20
-133.2848771889008
 30
0.0
 10
80.95664182351288
 20
-133.2297733000259
 30
0.0
 10
80.91183904687813
 20
-133.1849705222592
 30
0.0
 10
80.85673515939506
 20
-133.1849705222592
 30
0.0
 10
80.8015959941351
 20
-133.1849705222592
 30
0.0
 10
80.75683053536648
 20
-133.2297733000259
 30
0.0
 10
80.75683053536648
 20
-133.2848771889008
 30
0.0
 10
80.75683053536648
 20
-133.3400163555539
 30
0.0
 10
80.8015959941351
 20
-133.3847838555425
 30
0.0
 10
80.85673515939506
 20
-133.3847838555425
 30
0.0
 10
80.91183904687813
 20
-133.3847838555425
 30
0.0
 10
80.95664182351288
 20
-133.3400163555539
 30
0.0
 10
80.95664182351288
 20
-133.2848771889008
 30
0.0
  0
SPLINE
  5
98
330
1F
100
AcDbEntity
  8
_U+30EC_U+30A4_U+30E4_U+30FC 1
 62
   179
420
  2234388
370
     9
100
AcDbSpline
210
0.0
220
0.0
230
1.0
 70
    11
 71
     3
 72
    17
 73
    13
 74
     0
 42
0.0000000001
 43
0.0000000001
 12
1.0
 22
0.0
 32
0.0
 13
1.0
 23
0.0
 33
0.0
 40
0.0
 40
0.0
 40
0.0
 40
0.0
 40
1.0
 40
1.0
 40
1.0
 40
2.0
 40
2.0
 40
2.0
 40
3.0
 40
3.0
 40
3.0
 40
4.0
 40
4.0
 40
4.0
 40
4.0
 10
80.95664182351288
 20
-135.2851271884008
 30
0.0
 10
80.95664182351288
 20
-135.2299880217484
 30
0.0
 10
80.91183904687813
 20
-135.1851852439816
 30
0.0
 10
80.85673515939506
 20
-135.1851852439816
 30
0.0
 10
80.8015959941351
 20
-135.1851852439816
 30
0.0
 10
80.75683053536648
 20
-135.2299880217484
 30
0.0
 10
80.75683053536648
 20
-135.2851271884008
 30
0.0
 10
80.75683053536648
 20
-135.3402310772763
 30
0.0
 10
80.8015959941351
 20
-135.3850338550424
 30
0.0
 10
80.85673515939506
 20
-135.3850338550424
 30
0.0
 10
80.91183904687813
 20
-135.3850338550424
 30
0.0
 10
80.95664182351288
 20
-135.3402310772763
 30
0.0
 10
80.95664182351288
 20
-135.2851271884008
 30
0.0
  0
SPLINE
  5
99
330
1F
100
AcDbEntity
  8
_U+30EC_U+30A4_U+30E4_U+30FC 1
 62
   179
420
  2234388
370
     9
100
AcDbSpline
210
0.0
220
0.0
230
1.0
 70
    11
 71
     3
 72
    17
 73
    13
 74
     0
 42
0.0000000001
 43
0.0000000001
 12
1.0
 22
0.0
 32
0.0
 13
1.0
 23
0.0
 33
0.0
 40
0.0
 40
0.0
 40
0.0
 40
0.0
 40
1.0
 40
1.0
 40
1.0
 40
2.0
 40
2.0
 40
2.0
 40
3.0
 40
3.0
 40
3.0
 40
4.0
 40
4.0
 40
4.0
 40
4.0
 10
84.95675366590598
 20
-139.2848510762902
 30
0.0
 10
84.95675366590598
 20
-139.2297471874146
 30
0.0
 10
84.91195088927121
 20
-139.1849444096485
 30
0.0
 10
84.85684700178814
 20
-139.1849444096485
 30
0.0
 10
84.8017078365282
 20
-139.1849444096485
 30
0.0
 10
84.7569403376703
 20
-139.2297471874146
 30
0.0
 10
84.7569403376703
 20
-139.2848510762902
 30
0.0
 10
84.7569403376703
 20
-139.3399902429426
 30
0.0
 10
84.8017078365282
 20
-139.3847577429318
 30
0.0
 10
84.85684700178814
 20
-139.3847577429318
 30
0.0
 10
84.91195088927121
 20
-139.3847577429318
 30
0.0
 10
84.95675366590598
 20
-139.3399902429426
 30
0.0
 10
84.95675366590598
 20
-139.2848510762902
 30
0.0
  0
SPLINE
  5
9A
330
1F
100
AcDbEntity
  8
_U+30EC_U+30A4_U+30E4_U+30FC 1
 62
   179
420
  2234388
370
     9
100
AcDbSpline
210
0.0
220
0.0
230
1.0
 70
    11
 71
     3
 72
    17
 73
    13
 74
     0
 42
0.0000000001
 43
0.0000000001
 12
1.0
 22
0.0
 32
0.0
 13
1.0
 23
0.0
 33
0.0
 40
0.0
 40
0.0
 40
0.0
 40
0.0
 40
1.0
 40
1.0
 40
1.0
 40
2.0
 40
2.0
 40
2.0
 40
3.0
 40
3.0
 40
3.0
 40
4.0
 40
4.0
 40
4.0
 40
4.0
 10
90.95672740172279
 20
-139.2848510762902
 30
0.0
 10
90.95672740172279
 20
-139.2297471874146
 30
0.0
 10
90.91192462508802
 20
-139.1849444096485
 30
0.0
 10
90.85682073760495
 20
-139.1849444096485
 30
0.0
 10
90.801681572345
 20
-139.1849444096485
 30
0.0
 10
90.75691407348711
 20
-139.2297471874146
 30
0.0
 10
90.75691407348711
 20
-139.2848510762902
 30
0.0
 10
90.75691407348711
 20
-139.3399902429426
 30
0.0
 10
90.801681572345
 20
-139.3847577429318
 30
0.0
 10
90.85682073760495
 20
-139.3847577429318
 30
0.0
 10
90.91192462508802
 20
-139.3847577429318
 30
0.0
 10
90.95672740172279
 20
-139.3399902429426
 30
0.0
 10
90.95672740172279
 20
-139.2848510762902
 30
0.0
  0
SPLINE
  5
9B
330
1F
100
AcDbEntity
  8
_U+30EC_U+30A4_U+30E4_U+30FC 1
 62
   179
420
  2234388
370
     9
100
AcDbSpline
210
0.0
220
0.0
230
1.0
 70
    11
 71
     3
 72
    17
 73
    13
 74
     0
 42
0.0000000001
 43
0.0000000001
 12
1.0
 22
0.0
 32
0.0
 13
1.0
 23
0.0
 33
0.0
 40
0.0
 40
0.0
 40
0.0
 40
0.0
 40
1.0
 40
1.0
 40
1.0
 40
2.0
 40
2.0
 40
2.0
 40
3.0
 40
3.0
 40
3.0
 40
4.0
 40
4.0
 40
4.0
 40
4.0
 10
98.95691580873209
 20
-139.2848510762902
 30
0.0
 10
98.95691580873209
 20
-139.2297471874146
 30
0.0
 10
98.9121483098742
 20
-139.1849444096485
 30
0.0
 10
98.85665636684547
 20
-139.1849444096485
 30
0.0
 10
98.8015524793624
 20
-139.1849444096485
 30
0.0
 10
98.75674970272763
 20
-139.2297471874146
 30
0.0
 10
98.75674970272763
 20
-139.2848510762902
 30
0.0
 10
98.75674970272763
 20
-139.3399902429426
 30
0.0
 10
98.8015524793624
 20
-139.3847577429318
 30
0.0
 10
98.85665636684547
 20
-139.3847577429318
 30
0.0
 10
98.9121483098742
 20
-139.3847577429318
 30
0.0
 10
98.95691580873209
 20
-139.3399902429426
 30
0.0
 10
98.95691580873209
 20
-139.2848510762902
 30
0.0
  0
SPLINE
  5
9C
330
1F
100
AcDbEntity
  8
_U+30EC_U+30A4_U+30E4_U+30FC 1
 62
   179
420
  2234388
370
     9
100
AcDbSpline
210
0.0
220
0.0
230
1.0
 70
    11
 71
     3
 72
    17
 73
    13
 74
     0
 42
0.0000000001
 43
0.0000000001
 12
1.0
 22
0.0
 32
0.0
 13
1.0
 23
0.0
 33
0.0
 40
0.0
 40
0.0
 40
0.0
 40
0.0
 40
1.0
 40
1.0
 40
1.0
 40
2.0
 40
2.0
 40
2.0
 40
3.0
 40
3.0
 40
3.0
 40
4.0
 40
4.0
 40
4.0
 40
4.0
 10
104.9568895445489
 20
-139.2848510762902
 30
0.0
 10
104.9568895445489
 20
-139.2297471874146
 30
0.0
 10
104.912122045691
 20
-139.1849444096485
 30
0.0
 10
104.8566301026623
 20
-139.1849444096485
 30
0.0
 10
104.8015262151792
 20
-139.1849444096485
 30
0.0
 10
104.7567234385444
 20
-139.2297471874146
 30
0.0
 10
104.7567234385444
 20
-139.2848510762902
 30
0.0
 10
104.7567234385444
 20
-139.3399902429426
 30
0.0
 10
104.8015262151792
 20
-139.3847577429318
 30
0.0
 10
104.8566301026623
 20
-139.3847577429318
 30
0.0
 10
104.912122045691
 20
-139.3847577429318
 30
0.0
 10
104.9568895445489
 20
-139.3399902429426
 30
0.0
 10
104.9568895445489
 20
-139.2848510762902
 30
0.0
  0
SPLINE
  5
9D
330
1F
100
AcDbEntity
  8
_U+30EC_U+30A4_U+30E4_U+30FC 1
 62
   179
420
  2234388
370
    25
100
AcDbSpline
210
0.0
220
0.0
230
1.0
 70
     8
 71
     3
 72
    11
 73
     7
 74
     0
 42
0.0000000001
 43
0.0000000001
 12
1.0
 22
0.0
 32
0.0
 13
1.0
 23
0.0
 33
0.0
 40
0.0
 40
0.0
 40
0.0
 40
0.0
 40
1.0
 40
1.0
 40
1.0
 40
2.0
 40
2.0
 40
2.0
 40
2.0
 10
89.35680966476231
 20
-127.7851421902759
 30
0.0
 10
90.45271380347013
 20
-127.9229371902416
 30
0.0
 10
91.45315627794672
 20
-127.1464027459912
 30
0.0
 10
91.59130405220004
 20
-126.0508866351538
 30
0.0
 10
91.60164044082524
 20
-125.9674899685081
 30
0.0
 10
91.60682627402628
 20
-125.8841285796402
 30
0.0
 10
91.60682627402628
 20
-125.8007671907719
 30
0.0
  0
SPLINE
  5
9E
330
1F
100
AcDbEntity
  8
_U+30EC_U+30A4_U+30E4_U+30FC 1
 62
   179
420
  2234388
370
    25
100
AcDbSpline
210
0.0
220
0.0
230
1.0
 70
     8
 71
     3
 72
    11
 73
     7
 74
     0
 42
0.0000000001
 43
0.0000000001
 12
1.0
 22
0.0
 32
0.0
 13
1.0
 23
0.0
 33
0.0
 40
0.0
 40
0.0
 40
0.0
 40
0.0
 40
1.0
 40
1.0
 40
1.0
 40
2.0
 40
2.0
 40
2.0
 40
2.0
 10
98.10668610820103
 20
-125.7849274685537
 30
0.0
 10
98.09804305286598
 20
-126.8894041349442
 30
0.0
 10
98.98654914130941
 20
-127.7920213569409
 30
0.0
 10
100.0910610575754
 20
-127.8003116347167
 30
0.0
 10
100.1799257775305
 20
-127.8009819124941
 30
0.0
 10
100.2688257752625
 20
-127.7961488569399
 30
0.0
 10
100.3566674396881
 20
-127.7851421902759
 30
0.0
  0
SPLINE
  5
9F
330
1F
100
AcDbEntity
  8
_U+30EC_U+30A4_U+30E4_U+30FC 1
 62
   179
420
  2234388
370
     9
100
AcDbSpline
210
0.0
220
0.0
230
1.0
 70
    11
 71
     3
 72
    17
 73
    13
 74
     0
 42
0.0000000001
 43
0.0000000001
 12
1.0
 22
0.0
 32
0.0
 13
1.0
 23
0.0
 33
0.0
 40
0.0
 40
0.0
 40
0.0
 40
0.0
 40
1.0
 40
1.0
 40
1.0
 40
2.0
 40
2.0
 40
2.0
 40
3.0
 40
3.0
 40
3.0
 40
4.0
 40
4.0
 40
4.0
 40
4.0
 10
80.95664182351288
 20
-123.7846774690538
 30
0.0
 10
80.95664182351288
 20
-123.7295735801789
 30
0.0
 10
80.91183904687813
 20
-123.6847708024121
 30
0.0
 10
80.85673515939506
 20
-123.6847708024121
 30
0.0
 10
80.8015959941351
 20
-123.6847708024121
 30
0.0
 10
80.75683053536648
 20
-123.7295735801789
 30
0.0
 10
80.75683053536648
 20
-123.7846774690538
 30
0.0
 10
80.75683053536648
 20
-123.8398166357069
 30
0.0
 10
80.8015959941351
 20
-123.8845841356954
 30
0.0
 10
80.85673515939506
 20
-123.8845841356954
 30
0.0
 10
80.91183904687813
 20
-123.8845841356954
 30
0.0
 10
80.95664182351288
 20
-123.8398166357069
 30
0.0
 10
80.95664182351288
 20
-123.7846774690538
 30
0.0
  0
SPLINE
  5
A0
330
1F
100
AcDbEntity
  8
_U+30EC_U+30A4_U+30E4_U+30FC 1
 62
   179
420
  2234388
370
     9
100
AcDbSpline
210
0.0
220
0.0
230
1.0
 70
    11
 71
     3
 72
    17
 73
    13
 74
     0
 42
0.0000000001
 43
0.0000000001
 12
1.0
 22
0.0
 32
0.0
 13
1.0
 23
0.0
 33
0.0
 40
0.0
 40
0.0
 40
0.0
 40
0.0
 40
1.0
 40
1.0
 40
1.0
 40
2.0
 40
2.0
 40
2.0
 40
3.0
 40
3.0
 40
3.0
 40
4.0
 40
4.0
 40
4.0
 40
4.0
 10
86.95661555932969
 20
-119.7849535811647
 30
0.0
 10
86.95661555932969
 20
-119.729814414512
 30
0.0
 10
86.9121655604637
 20
-119.6850116367456
 30
0.0
 10
86.85671108939681
 20
-119.6850116367456
 30
0.0
 10
86.80160500772878
 20
-119.6850116367456
 30
0.0
 10
86.75680223109403
 20
-119.729814414512
 30
0.0
 10
86.75680223109403
 20
-119.7849535811647
 30
0.0
 10
86.75680223109403
 20
-119.84005747004
 30
0.0
 10
86.80160500772878
 20
-119.8848602478067
 30
0.0
 10
86.85671108939681
 20
-119.8848602478067
 30
0.0
 10
86.9121655604637
 20
-119.8848602478067
 30
0.0
 10
86.95661555932969
 20
-119.84005747004
 30
0.0
 10
86.95661555932969
 20
-119.7849535811647
 30
0.0
  0
SPLINE
  5
A1
330
1F
100
AcDbEntity
  8
_U+30EC_U+30A4_U+30E4_U+30FC 1
 62
   179
420
  2234388
370
     9
100
AcDbSpline
210
0.0
220
0.0
230
1.0
 70
    11
 71
     3
 72
    17
 73
    13
 74
     0
 42
0.0000000001
 43
0.0000000001
 12
1.0
 22
0.0
 32
0.0
 13
1.0
 23
0.0
 33
0.0
 40
0.0
 40
0.0
 40
0.0
 40
0.0
 40
1.0
 40
1.0
 40
1.0
 40
2.0
 40
2.0
 40
2.0
 40
3.0
 40
3.0
 40
3.0
 40
4.0
 40
4.0
 40
4.0
 40
4.0
 10
102.9566748733564
 20
-119.7849535811647
 30
0.0
 10
102.9566748733564
 20
-119.729814414512
 30
0.0
 10
102.9119073744985
 20
-119.6850116367456
 30
0.0
 10
102.8567682092386
 20
-119.6850116367456
 30
0.0
 10
102.8016643217555
 20
-119.6850116367456
 30
0.0
 10
102.7568615451207
 20
-119.729814414512
 30
0.0
 10
102.7568615451207
 20
-119.7849535811647
 30
0.0
 10
102.7568615451207
 20
-119.84005747004
 30
0.0
 10
102.8016643217555
 20
-119.8848602478067
 30
0.0
 10
102.8567682092386
 20
-119.8848602478067
 30
0.0
 10
102.9119073744985
 20
-119.8848602478067
 30
0.0
 10
102.9566748733564
 20
-119.84005747004
 30
0.0
 10
102.9566748733564
 20
-119.7849535811647
 30
0.0
  0
INSERT
  5
A3
330
1F
100
AcDbEntity
  8
_U+30EC_U+30A4_U+30E4_U+30FC 1
100
AcDbBlockReference
  2
block 4
 10
0.0
 20
0.0
 30
0.0
  0
INSERT
  5
C9
330
1F
100
AcDbEntity
  8
_U+30EC_U+30A4_U+30E4_U+30FC 1
100
AcDbBlockReference
  2
block 9
 10
0.0
 20
0.0
 30
0.0
  0
INSERT
  5
F0
330
1F
100
AcDbEntity
  8
_U+30EC_U+30A4_U+30E4_U+30FC 1
100
AcDbBlockReference
  2
block 14
 10
0.0
 20
0.0
 30
0.0
  0
INSERT
  5
112
330
1F
100
AcDbEntity
  8
_U+30EC_U+30A4_U+30E4_U+30FC 1
100
AcDbBlockReference
  2
block 19
 10
0.0
 20
0.0
 30
0.0
  0
INSERT
  5
137
330
1F
100
AcDbEntity
  8
_U+30EC_U+30A4_U+30E4_U+30FC 1
100
AcDbBlockReference
  2
block 24
 10
0.0
 20
0.0
 30
0.0
  0
INSERT
  5
15F
330
1F
100
AcDbEntity
  8
_U+30EC_U+30A4_U+30E4_U+30FC 1
100
AcDbBlockReference
  2
block 29
 10
0.0
 20
0.0
 30
0.0
  0
ENDSEC
  0
SECTION
  2
OBJECTS
  0
DICTIONARY
  5
C
330
0
100
AcDbDictionary
281
     1
  3
ACAD_GROUP
350
D
  3
ACAD_LAYOUT
350
1A
  3
ACAD_MATERIAL
350
3B
  3
ACAD_MLEADERSTYLE
350
18F
  3
ACAD_MLINESTYLE
350
17
  3
ACAD_PLOTSETTINGS
350
19
  3
ACAD_PLOTSTYLENAME
350
E
  3
ACAD_TABLESTYLE
350
18E
  3
ACAD_VISUALSTYLE
350
2A
  0
SUN
  5
3F
330
29
100
AcDbSun
 90
        1
290
     0
 63
     7
421
 16777215
 40
1.0
291
     1
 91
  2455826
 92
 54000000
292
     0
 70
     2
 71
   256
280
     1
  0
DICTIONARY
  5
D
102
{ACAD_REACTORS
330
C
102
}
330
C
100
AcDbDictionary
281
     1
  0
DICTIONARY
  5
1A
102
{ACAD_REACTORS
330
C
102
}
330
C
100
AcDbDictionary
281
     1
  3
Layout1
350
1E
  3
Layout2
350
26
  3
Model
350
22
  0
DICTIONARY
  5
3B
102
{ACAD_REACTORS
330
C
102
}
330
C
100
AcDbDictionary
281
     1
  3
ByBlock
350
3D
  3
ByLayer
350
3C
  3
Global
350
3E
  0
DICTIONARY
  5
18F
102
{ACAD_REACTORS
330
C
102
}
330
C
100
AcDbDictionary
281
     1
  0
DICTIONARY
  5
17
102
{ACAD_REACTORS
330
C
102
}
330
C
100
AcDbDictionary
281
     1
  3
Standard
350
18
  0
DICTIONARY
  5
19
102
{ACAD_REACTORS
330
C
102
}
330
C
100
AcDbDictionary
281
     1
  0
ACDBDICTIONARYWDFLT
  5
E
102
{ACAD_REACTORS
330
C
102
}
330
C
100
AcDbDictionary
281
     1
  3
Normal
350
F
100
AcDbDictionaryWithDefault
340
F
  0
DICTIONARY
  5
18E
102
{ACAD_REACTORS
330
C
102
}
330
C
100
AcDbDictionary
281
     1
  0
DICTIONARY
  5
2A
102
{ACAD_REACTORS
330
C
102
}
330
C
100
AcDbDictionary
281
     1
  3
2dWireframe
350
2F
  3
3D Hidden
350
31
  3
3dWireframe
350
30
  3
Basic
350
32
  3
Brighten
350
36
  3
ColorChange
350
3A
  3
Conceptual
350
34
  3
Dim
350
35
  3
Facepattern
350
39
  3
Flat
350
2B
  3
FlatWithEdges
350
2C
  3
Gouraud
350
2D
  3
GouraudWithEdges
350
2E
  3
Linepattern
350
38
  3
Realistic
350
33
  3
Thicken
350
37
  0
LAYOUT
  5
1E
102
{ACAD_REACTORS
330
1A
102
}
330
1A
100
AcDbPlotSettings
  1

  2
none_device
  4

  6

 40
0.0
 41
0.0
 42
0.0
 43
0.0
 44
0.0
 45
0.0
 46
0.0
 47
0.0
 48
0.0
 49
0.0
140
0.0
141
0.0
142
1.0
143
1.0
 70
   688
 72
     0
 73
     0
 74
     5
  7

 75
    16
 76
     0
 77
     2
 78
   300
147
1.0
148
0.0
149
0.0
100
AcDbLayout
  1
Layout1
 70
     1
 71
     1
 10
0.0
 20
0.0
 11
12.0
 21
9.0
 12
0.0
 22
0.0
 32
0.0
 14
1.000000000000000E+20
 24
1.000000000000000E+20
 34
1.000000000000000E+20
 15
-1.000000000000000E+20
 25
-1.000000000000000E+20
 35
-1.000000000000000E+20
146
0.0
 13
0.0
 23
0.0
 33
0.0
 16
1.0
 26
0.0
 36
0.0
 17
0.0
 27
1.0
 37
0.0
 76
     0
330
1B
  0
LAYOUT
  5
26
102
{ACAD_REACTORS
330
1A
102
}
330
1A
100
AcDbPlotSettings
  1

  2
none_device
  4

  6

 40
0.0
 41
0.0
 42
0.0
 43
0.0
 44
0.0
 45
0.0
 46
0.0
 47
0.0
 48
0.0
 49
0.0
140
0.0
141
0.0
142
1.0
143
1.0
 70
   688
 72
     0
 73
     0
 74
     5
  7

 75
    16
 76
     0
 77
     2
 78
   300
147
1.0
148
0.0
149
0.0
100
AcDbLayout
  1
Layout2
 70
     1
 71
     2
 10
0.0
 20
0.0
 11
0.0
 21
0.0
 12
0.0
 22
0.0
 32
0.0
 14
0.0
 24
0.0
 34
0.0
 15
0.0
 25
0.0
 35
0.0
146
0.0
 13
0.0
 23
0.0
 33
0.0
 16
1.0
 26
0.0
 36
0.0
 17
0.0
 27
1.0
 37
0.0
 76
     0
330
23
  0
LAYOUT
  5
22
102
{ACAD_REACTORS
330
1A
102
}
330
1A
100
AcDbPlotSettings
  1

  2
none_device
  4

  6

 40
0.0
 41
0.0
 42
0.0
 43
0.0
 44
0.0
 45
0.0
 46
0.0
 47
0.0
 48
0.0
 49
0.0
140
0.0
141
0.0
142
1.0
143
1.0
 70
  1712
 72
     0
 73
     0
 74
     0
  7

 75
     0
 76
     0
 77
     2
 78
   300
147
1.0
148
0.0
149
0.0
100
AcDbLayout
  1
Model
 70
     1
 71
     0
 10
0.0
 20
0.0
 11
12.0
 21
9.0
 12
0.0
 22
0.0
 32
0.0
 14
1.000000000000000E+20
 24
1.000000000000000E+20
 34
1.000000000000000E+20
 15
-1.000000000000000E+20
 25
-1.000000000000000E+20
 35
-1.000000000000000E+20
146
0.0
 13
0.0
 23
0.0
 33
0.0
 16
1.0
 26
0.0
 36
0.0
 17
0.0
 27
1.0
 37
0.0
 76
     0
330
1F
331
29
  0
MATERIAL
  5
3D
102
{ACAD_REACTORS
330
3B
102
}
330
3B
100
AcDbMaterial
  1
ByBlock
 72
     1
 94
      127
  0
MATERIAL
  5
3C
102
{ACAD_REACTORS
330
3B
102
}
330
3B
100
AcDbMaterial
  1
ByLayer
 72
     1
 94
      127
  0
MATERIAL
  5
3E
102
{ACAD_REACTORS
330
3B
102
}
330
3B
100
AcDbMaterial
  1
Global
 72
     1
 94
      127
  0
MLINESTYLE
  5
18
102
{ACAD_REACTORS
330
17
102
}
330
17
100
AcDbMlineStyle
  2
Standard
 70
     0
  3

 62
   256
 51
90.0
 52
90.0
 71
     2
 49
0.5
 62
   256
  6
BYLAYER
 49
-0.5
 62
   256
  6
BYLAYER
  0
ACDBPLACEHOLDER
  5
F
102
{ACAD_REACTORS
330
E
102
}
330
E
  0
VISUALSTYLE
  5
2F
102
{ACAD_REACTORS
330
2A
102
}
330
2A
100
AcDbVisualStyle
  2
2dWireframe
 70
     4
177
     2
291
     0
 71
     0
176
     1
 72
     2
176
     1
 73
     0
176
     1
 90
        0
176
     1
 40
-0.6
176
     1
 41
-30.0
176
     1
 62
     5
 63
     7
421
 16777215
176
     1
 74
     1
176
     1
 91
        4
176
     1
 64
     7
176
     1
 65
   257
176
     1
 75
     1
176
     1
175
     1
176
     1
 42
1.0
176
     1
 92
        0
176
     1
 66
   257
176
     1
 43
1.0
176
     1
 76
     1
176
     1
 77
     6
176
     1
 78
     2
176
     1
 67
     7
176
     1
 79
     5
176
     1
170
     0
176
     1
171
     0
176
     1
290
     0
176
     1
 93
        1
176
     1
 44
0.0
176
     1
173
     0
176
     1
  0
VISUALSTYLE
  5
31
102
{ACAD_REACTORS
330
2A
102
}
330
2A
100
AcDbVisualStyle
  2
3D Hidden
 70
     6
177
     2
291
     0
 71
     1
176
     1
 72
     2
176
     1
 73
     2
176
     1
 90
        0
176
     1
 40
-0.6
176
     1
 41
-30.0
176
     1
 62
     5
 63
     7
421
 16777215
176
     1
 74
     2
176
     1
 91
        2
176
     1
 64
     7
176
     1
 65
   257
176
     1
 75
     2
176
     1
175
     1
176
     1
 42
40.0
176
     1
 92
        0
176
     1
 66
   257
176
     1
 43
1.0
176
     1
 76
     1
176
     1
 77
     6
176
     1
 78
     2
176
     1
 67
     7
176
     1
 79
     3
176
     1
170
     0
176
     1
171
     0
176
     1
290
     0
176
     1
 93
        1
176
     1
 44
0.0
176
     1
173
     0
176
     1
  0
VISUALSTYLE
  5
30
102
{ACAD_REACTORS
330
2A
102
}
330
2A
100
AcDbVisualStyle
  2
3dWireframe
 70
     5
177
     2
291
     0
 71
     0
176
     1
 72
     2
176
     1
 73
     0
176
     1
 90
        0
176
     1
 40
-0.6
176
     1
 41
-30.0
176
     1
 62
     5
 63
     7
421
 16777215
176
     1
 74
     1
176
     1
 91
        4
176
     1
 64
     7
176
     1
 65
   257
176
     1
 75
     1
176
     1
175
     1
176
     1
 42
1.0
176
     1
 92
        0
176
     1
 66
   257
176
     1
 43
1.0
176
     1
 76
     1
176
     1
 77
     6
176
     1
 78
     2
176
     1
 67
     7
176
     1
 79
     5
176
     1
170
     0
176
     1
171
     0
176
     1
290
     0
176
     1
 93
        1
176
     1
 44
0.0
176
     1
173
     0
176
     1
  0
VISUALSTYLE
  5
32
102
{ACAD_REACTORS
330
2A
102
}
330
2A
100
AcDbVisualStyle
  2
Basic
 70
     7
177
     2
291
     1
 71
     1
176
     1
 72
     0
176
     1
 73
     1
176
     1
 90
        0
176
     1
 40
-0.6
176
     1
 41
-30.0
176
     1
 62
     5
 63
     7
421
 16777215
176
     1
 74
     0
176
     1
 91
        4
176
     1
 64
     7
176
     1
 65
   257
176
     1
 75
     1
176
     1
175
     1
176
     1
 42
1.0
176
     1
 92
        8
176
     1
 66
     7
176
     1
 43
1.0
176
     1
 76
     1
176
     1
 77
     6
176
     1
 78
     2
176
     1
 67
     7
176
     1
 79
     5
176
     1
170
     0
176
     1
171
     0
176
     1
290
     0
176
     1
 93
        1
176
     1
 44
0.0
176
     1
173
     0
176
     1
  0
VISUALSTYLE
  5
36
102
{ACAD_REACTORS
330
2A
102
}
330
2A
100
AcDbVisualStyle
  2
Brighten
 70
    12
177
     2
291
     1
 71
     2
176
     1
 72
     2
176
     1
 73
     0
176
     1
 90
        0
176
     1
 40
-0.6
176
     1
 41
-30.0
176
     1
 62
     5
 63
     7
421
 16777215
176
     1
 74
     1
176
     1
 91
        4
176
     1
 64
     7
176
     1
 65
   257
176
     1
 75
     1
176
     1
175
     1
176
     1
 42
1.0
176
     1
 92
        8
176
     1
 66
     7
176
     1
 43
1.0
176
     1
 76
     1
176
     1
 77
     6
176
     1
 78
     2
176
     1
 67
     7
176
     1
 79
     5
176
     1
170
     0
176
     1
171
     0
176
     1
290
     0
176
     1
 93
        1
176
     1
 44
50.0
176
     1
173
     0
176
     1
  0
VISUALSTYLE
  5
3A
102
{ACAD_REACTORS
330
2A
102
}
330
2A
100
AcDbVisualStyle
  2
ColorChange
 70
    16
177
     2
291
     1
 71
     2
176
     1
 72
     2
176
     1
 73
     3
176
     1
 90
        0
176
     1
 40
-0.6
176
     1
 41
-30.0
176
     1
 62
     5
 63
     8
421
  8421504
176
     1
 74
     1
176
     1
 91
        4
176
     1
 64
     7
176
     1
 65
   257
176
     1
 75
     1
176
     1
175
     1
176
     1
 42
1.0
176
     1
 92
        8
176
     1
 66
     8
424
  8421504
176
     1
 43
1.0
176
     1
 76
     1
176
     1
 77
     6
176
     1
 78
     2
176
     1
 67
     7
176
     1
 79
     5
176
     1
170
     0
176
     1
171
     0
176
     1
290
     0
176
     1
 93
        1
176
     1
 44
0.0
176
     1
173
     0
176
     1
  0
VISUALSTYLE
  5
34
102
{ACAD_REACTORS
330
2A
102
}
330
2A
100
AcDbVisualStyle
  2
Conceptual
 70
     9
177
     2
291
     0
 71
     3
176
     1
 72
     2
176
     1
 73
     0
176
     1
 90
        0
176
     1
 40
-0.6
176
     1
 41
-30.0
176
     1
 62
     5
 63
     7
421
 16777215
176
     1
 74
     2
176
     1
 91
        2
176
     1
 64
     7
176
     1
 65
   257
176
     1
 75
     1
176
     1
175
     1
176
     1
 42
40.0
176
     1
 92
        8
176
     1
 66
     7
176
     1
 43
1.0
176
     1
 76
     1
176
     1
 77
     6
176
     1
 78
     2
176
     1
 67
     7
176
     1
 79
     3
176
     1
170
     0
176
     1
171
     0
176
     1
290
     0
176
     1
 93
        1
176
     1
 44
0.0
176
     1
173
     0
176
     1
  0
VISUALSTYLE
  5
35
102
{ACAD_REACTORS
330
2A
102
}
330
2A
100
AcDbVisualStyle
  2
Dim
 70
    11
177
     2
291
     1
 71
     2
176
     1
 72
     2
176
     1
 73
     0
176
     1
 90
        0
176
     1
 40
-0.6
176
     1
 41
-30.0
176
     1
 62
     5
 63
     7
421
 16777215
176
     1
 74
     1
176
     1
 91
        4
176
     1
 64
     7
176
     1
 65
   257
176
     1
 75
     1
176
     1
175
     1
176
     1
 42
1.0
176
     1
 92
        8
176
     1
 66
     7
176
     1
 43
1.0
176
     1
 76
     1
176
     1
 77
     6
176
     1
 78
     2
176
     1
 67
     7
176
     1
 79
     5
176
     1
170
     0
176
     1
171
     0
176
     1
290
     0
176
     1
 93
        1
176
     1
 44
-50.0
176
     1
173
     0
176
     1
  0
VISUALSTYLE
  5
39
102
{ACAD_REACTORS
330
2A
102
}
330
2A
100
AcDbVisualStyle
  2
Facepattern
 70
    15
177
     2
291
     1
 71
     2
176
     1
 72
     2
176
     1
 73
     0
176
     1
 90
        0
176
     1
 40
-0.6
176
     1
 41
-30.0
176
     1
 62
     5
 63
     7
421
 16777215
176
     1
 74
     1
176
     1
 91
        4
176
     1
 64
     7
176
     1
 65
   257
176
     1
 75
     1
176
     1
175
     1
176
     1
 42
1.0
176
     1
 92
        8
176
     1
 66
     7
176
     1
 43
1.0
176
     1
 76
     1
176
     1
 77
     6
176
     1
 78
     2
176
     1
 67
     7
176
     1
 79
     5
176
     1
170
     0
176
     1
171
     0
176
     1
290
     0
176
     1
 93
        1
176
     1
 44
0.0
176
     1
173
     0
176
     1
  0
VISUALSTYLE
  5
2B
102
{ACAD_REACTORS
330
2A
102
}
330
2A
100
AcDbVisualStyle
  2
Flat
 70
     0
177
     2
291
     1
 71
     2
176
     1
 72
     1
176
     1
 73
     1
176
     1
 90
        2
176
     1
 40
-0.6
176
     1
 41
30.0
176
     1
 62
     5
 63
     7
421
 16777215
176
     1
 74
     0
176
     1
 91
        4
176
     1
 64
     7
176
     1
 65
   257
176
     1
 75
     1
176
     1
175
     1
176
     1
 42
1.0
176
     1
 92
        8
176
     1
 66
     7
176
     1
 43
1.0
176
     1
 76
     1
176
     1
 77
     6
176
     1
 78
     2
176
     1
 67
     7
176
     1
 79
     5
176
     1
170
     0
176
     1
171
     0
176
     1
290
     0
176
     1
 93
       13
176
     1
 44
0.0
176
     1
173
     0
176
     1
  0
VISUALSTYLE
  5
2C
102
{ACAD_REACTORS
330
2A
102
}
330
2A
100
AcDbVisualStyle
  2
FlatWithEdges
 70
     1
177
     2
291
     1
 71
     2
176
     1
 72
     1
176
     1
 73
     1
176
     1
 90
        2
176
     1
 40
-0.6
176
     1
 41
30.0
176
     1
 62
     5
 63
     7
421
 16777215
176
     1
 74
     1
176
     1
 91
        4
176
     1
 64
     7
176
     1
 65
   257
176
     1
 75
     1
176
     1
175
     1
176
     1
 42
1.0
176
     1
 92
        0
176
     1
 66
   257
176
     1
 43
1.0
176
     1
 76
     1
176
     1
 77
     6
176
     1
 78
     2
176
     1
 67
     7
176
     1
 79
     5
176
     1
170
     0
176
     1
171
     0
176
     1
290
     0
176
     1
 93
       13
176
     1
 44
0.0
176
     1
173
     0
176
     1
  0
VISUALSTYLE
  5
2D
102
{ACAD_REACTORS
330
2A
102
}
330
2A
100
AcDbVisualStyle
  2
Gouraud
 70
     2
177
     2
291
     1
 71
     2
176
     1
 72
     2
176
     1
 73
     1
176
     1
 90
        2
176
     1
 40
-0.6
176
     1
 41
30.0
176
     1
 62
     5
 63
     7
421
 16777215
176
     1
 74
     0
176
     1
 91
        4
176
     1
 64
     7
176
     1
 65
   257
176
     1
 75
     1
176
     1
175
     1
176
     1
 42
1.0
176
     1
 92
        0
176
     1
 66
     7
176
     1
 43
1.0
176
     1
 76
     1
176
     1
 77
     6
176
     1
 78
     2
176
     1
 67
     7
176
     1
 79
     5
176
     1
170
     0
176
     1
171
     0
176
     1
290
     0
176
     1
 93
       13
176
     1
 44
0.0
176
     1
173
     0
176
     1
  0
VISUALSTYLE
  5
2E
102
{ACAD_REACTORS
330
2A
102
}
330
2A
100
AcDbVisualStyle
  2
GouraudWithEdges
 70
     3
177
     2
291
     1
 71
     2
176
     1
 72
     2
176
     1
 73
     1
176
     1
 90
        2
176
     1
 40
-0.6
176
     1
 41
30.0
176
     1
 62
     5
 63
     7
421
 16777215
176
     1
 74
     1
176
     1
 91
        4
176
     1
 64
     7
176
     1
 65
   257
176
     1
 75
     1
176
     1
175
     1
176
     1
 42
1.0
176
     1
 92
        0
176
     1
 66
   257
176
     1
 43
1.0
176
     1
 76
     1
176
     1
 77
     6
176
     1
 78
     2
176
     1
 67
     7
176
     1
 79
     5
176
     1
170
     0
176
     1
171
     0
176
     1
290
     0
176
     1
 93
       13
176
     1
 44
0.0
176
     1
173
     0
176
     1
  0
VISUALSTYLE
  5
38
102
{ACAD_REACTORS
330
2A
102
}
330
2A
100
AcDbVisualStyle
  2
Linepattern
 70
    14
177
     2
291
     1
 71
     2
176
     1
 72
     2
176
     1
 73
     0
176
     1
 90
        0
176
     1
 40
-0.6
176
     1
 41
-30.0
176
     1
 62
     5
 63
     7
421
 16777215
176
     1
 74
     1
176
     1
 91
        4
176
     1
 64
     7
176
     1
 65
   257
176
     1
 75
     7
176
     1
175
     7
176
     1
 42
1.0
176
     1
 92
        8
176
     1
 66
     7
176
     1
 43
1.0
176
     1
 76
     1
176
     1
 77
     6
176
     1
 78
     2
176
     1
 67
     7
176
     1
 79
     5
176
     1
170
     0
176
     1
171
     0
176
     1
290
     0
176
     1
 93
        1
176
     1
 44
0.0
176
     1
173
     0
176
     1
  0
VISUALSTYLE
  5
33
102
{ACAD_REACTORS
330
2A
102
}
330
2A
100
AcDbVisualStyle
  2
Realistic
 70
     8
177
     2
291
     0
 71
     2
176
     1
 72
     2
176
     1
 73
     0
176
     1
 90
        0
176
     1
 40
-0.6
176
     1
 41
-30.0
176
     1
 62
     5
 63
     7
421
 16777215
176
     1
 74
     1
176
     1
 91
        0
176
     1
 64
     7
176
     1
 65
   257
176
     1
 75
     1
176
     1
175
     1
176
     1
 42
1.0
176
     1
 92
        8
176
     1
 66
     8
424
  7895160
176
     1
 43
1.0
176
     1
 76
     1
176
     1
 77
     6
176
     1
 78
     2
176
     1
 67
     7
176
     1
 79
     5
176
     1
170
     0
176
     1
171
     0
176
     1
290
     0
176
     1
 93
       13
176
     1
 44
0.0
176
     1
173
     0
176
     1
  0
VISUALSTYLE
  5
37
102
{ACAD_REACTORS
330
2A
102
}
330
2A
100
AcDbVisualStyle
  2
Thicken
 70
    13
177
     2
291
     1
 71
     2
176
     1
 72
     2
176
     1
 73
     0
176
     1
 90
        0
176
     1
 40
-0.6
176
     1
 41
-30.0
176
     1
 62
     5
 63
     7
421
 16777215
176
     1
 74
     1
176
     1
 91
        4
176
     1
 64
     7
176
     1
 65
   257
176
     1
 75
     1
176
     1
175
     1
176
     1
 42
1.0
176
     1
 92
       12
176
     1
 66
     7
176
     1
 43
1.0
176
     1
 76
     1
176
     1
 77
     6
176
     1
 78
     2
176
     1
 67
     7
176
     1
 79
     5
176
     1
170
     0
176
     1
171
     0
176
     1
290
     0
176
     1
 93
        1
176
     1
 44
0.0
176
     1
173
     0
176
     1
  0
ENDSEC
  0
EOF
