  0
SECTION
  2
HEADER
  9
$ACADVER
  1
AC1024
  9
$ACADMAINTVER
 70
     6
  9
$DWGCODEPAGE
  3
UNDEFINED
  9
$INSBASE
 10
0.0
 20
0.0
 30
0.0
  9
$EXTMIN
 10
1.000000000000000E+20
 20
1.000000000000000E+20
 30
1.000000000000000E+20
  9
$EXTMAX
 10
-1.000000000000000E+20
 20
-1.000000000000000E+20
 30
-1.000000000000000E+20
  9
$LIMMIN
 10
0.0
 20
0.0
  9
$LIMMAX
 10
12.0
 20
9.0
  9
$ORTHOMODE
 70
     0
  9
$REGENMODE
 70
     1
  9
$FILLMODE
 70
     1
  9
$QTEXTMODE
 70
     0
  9
$MIRRTEXT
 70
     1
  9
$LTSCALE
 40
1.0
  9
$ATTMODE
 70
     1
  9
$TEXTSIZE
 40
0.2
  9
$TRACEWID
 40
0.05
  9
$TEXTSTYLE
  7
Standard
  9
$CLAYER
  8
0
  9
$CELTYPE
  6
ByLayer
  9
$CECOLOR
 62
   256
  9
$CELTSCALE
 40
1.0
  9
$DISPSILH
 70
     0
  9
$DIMSCALE
 40
1.0
  9
$DIMASZ
 40
0.18
  9
$DIMEXO
 40
0.0625
  9
$DIMDLI
 40
0.38
  9
$DIMRND
 40
0.0
  9
$DIMDLE
 40
0.0
  9
$DIMEXE
 40
0.18
  9
$DIMTP
 40
0.0
  9
$DIMTM
 40
0.0
  9
$DIMTXT
 40
0.18
  9
$DIMCEN
 40
0.09
  9
$DIMTSZ
 40
0.0
  9
$DIMTOL
 70
     0
  9
$DIMLIM
 70
     0
  9
$DIMTIH
 70
     1
  9
$DIMTOH
 70
     1
  9
$DIMSE1
 70
     0
  9
$DIMSE2
 70
     0
  9
$DIMTAD
 70
     0
  9
$DIMZIN
 70
     0
  9
$DIMBLK
  1

  9
$DIMASO
 70
     1
  9
$DIMSHO
 70
     1
  9
$DIMPOST
  1

  9
$DIMAPOST
  1

  9
$DIMALT
 70
     0
  9
$DIMALTD
 70
     2
  9
$DIMALTF
 40
25.4
  9
$DIMLFAC
 40
1.0
  9
$DIMTOFL
 70
     0
  9
$DIMTVP
 40
0.0
  9
$DIMTIX
 70
     0
  9
$DIMSOXD
 70
     0
  9
$DIMSAH
 70
     0
  9
$DIMBLK1
  1

  9
$DIMBLK2
  1

  9
$DIMSTYLE
  2
Standard
  9
$DIMCLRD
 70
     0
  9
$DIMCLRE
 70
     0
  9
$DIMCLRT
 70
     0
  9
$DIMTFAC
 40
1.0
  9
$DIMGAP
 40
0.09
  9
$DIMJUST
 70
     0
  9
$DIMSD1
 70
     0
  9
$DIMSD2
 70
     0
  9
$DIMTOLJ
 70
     1
  9
$DIMTZIN
 70
     0
  9
$DIMALTZ
 70
     0
  9
$DIMALTTZ
 70
     0
  9
$DIMUPT
 70
     0
  9
$DIMDEC
 70
     4
  9
$DIMTDEC
 70
     4
  9
$DIMALTU
 70
     2
  9
$DIMALTTD
 70
     2
  9
$DIMTXSTY
  7
Standard
  9
$DIMAUNIT
 70
     0
  9
$DIMADEC
 70
     0
  9
$DIMALTRND
 40
0.0
  9
$DIMAZIN
 70
     0
  9
$DIMDSEP
 70
    46
  9
$DIMATFIT
 70
     3
  9
$DIMFRAC
 70
     0
  9
$DIMLDRBLK
  1

  9
$DIMLUNIT
 70
     2
  9
$DIMLWD
 70
    -2
  9
$DIMLWE
 70
    -2
  9
$DIMTMOVE
 70
     0
  9
$DIMFXL
 40
1.0
  9
$DIMFXLON
 70
     0
  9
$DIMJOGANG
 40
0.7853981633974483
  9
$DIMTFILL
 70
     0
  9
$DIMTFILLCLR
 70
     0
  9
$DIMARCSYM
 70
     0
  9
$DIMLTYPE
  6

  9
$DIMLTEX1
  6

  9
$DIMLTEX2
  6

  9
$DIMTXTDIRECTION
 70
     0
  9
$LUNITS
 70
     2
  9
$LUPREC
 70
     4
  9
$SKETCHINC
 40
0.1
  9
$FILLETRAD
 40
0.5
  9
$AUNITS
 70
     0
  9
$AUPREC
 70
     0
  9
$MENU
  1
.
  9
$ELEVATION
 40
0.0
  9
$PELEVATION
 40
0.0
  9
$THICKNESS
 40
0.0
  9
$LIMCHECK
 70
     0
  9
$CHAMFERA
 40
0.5
  9
$CHAMFERB
 40
0.5
  9
$CHAMFERC
 40
1.0
  9
$CHAMFERD
 40
0.0
  9
$SKPOLY
 70
     0
  9
$TDCREATE
 40
2457917.628587963
  9
$TDUCREATE
 40
2457917.253587963
  9
$TDUPDATE
 40
2457917.628587963
  9
$TDUUPDATE
 40
2457917.253587963
  9
$TDINDWG
 40
0.0000000116
  9
$TDUSRTIMER
 40
0.0000000116
  9
$USRTIMER
 70
     1
  9
$ANGBASE
 50
0.0
  9
$ANGDIR
 70
     0
  9
$PDMODE
 70
     0
  9
$PDSIZE
 40
0.0
  9
$PLINEWID
 40
0.0
  9
$SPLFRAME
 70
     0
  9
$SPLINETYPE
 70
     6
  9
$SPLINESEGS
 70
     8
  9
$HANDSEED
  5
179
  9
$SURFTAB1
 70
     6
  9
$SURFTAB2
 70
     6
  9
$SURFTYPE
 70
     6
  9
$SURFU
 70
     6
  9
$SURFV
 70
     6
  9
$UCSBASE
  2

  9
$UCSNAME
  2

  9
$UCSORG
 10
0.0
 20
0.0
 30
0.0
  9
$UCSXDIR
 10
1.0
 20
0.0
 30
0.0
  9
$UCSYDIR
 10
0.0
 20
1.0
 30
0.0
  9
$UCSORTHOREF
  2

  9
$UCSORTHOVIEW
 70
     0
  9
$UCSORGTOP
 10
0.0
 20
0.0
 30
0.0
  9
$UCSORGBOTTOM
 10
0.0
 20
0.0
 30
0.0
  9
$UCSORGLEFT
 10
0.0
 20
0.0
 30
0.0
  9
$UCSORGRIGHT
 10
0.0
 20
0.0
 30
0.0
  9
$UCSORGFRONT
 10
0.0
 20
0.0
 30
0.0
  9
$UCSORGBACK
 10
0.0
 20
0.0
 30
0.0
  9
$PUCSBASE
  2

  9
$PUCSNAME
  2

  9
$PUCSORG
 10
0.0
 20
0.0
 30
0.0
  9
$PUCSXDIR
 10
1.0
 20
0.0
 30
0.0
  9
$PUCSYDIR
 10
0.0
 20
1.0
 30
0.0
  9
$PUCSORTHOREF
  2

  9
$PUCSORTHOVIEW
 70
     0
  9
$PUCSORGTOP
 10
0.0
 20
0.0
 30
0.0
  9
$PUCSORGBOTTOM
 10
0.0
 20
0.0
 30
0.0
  9
$PUCSORGLEFT
 10
0.0
 20
0.0
 30
0.0
  9
$PUCSORGRIGHT
 10
0.0
 20
0.0
 30
0.0
  9
$PUCSORGFRONT
 10
0.0
 20
0.0
 30
0.0
  9
$PUCSORGBACK
 10
0.0
 20
0.0
 30
0.0
  9
$USERI1
 70
     0
  9
$USERI2
 70
     0
  9
$USERI3
 70
     0
  9
$USERI4
 70
     0
  9
$USERI5
 70
     0
  9
$USERR1
 40
0.0
  9
$USERR2
 40
0.0
  9
$USERR3
 40
0.0
  9
$USERR4
 40
0.0
  9
$USERR5
 40
0.0
  9
$WORLDVIEW
 70
     1
  9
$SHADEDGE
 70
     3
  9
$SHADEDIF
 70
    70
  9
$TILEMODE
 70
     1
  9
$MAXACTVP
 70
    64
  9
$PINSBASE
 10
0.0
 20
0.0
 30
0.0
  9
$PLIMCHECK
 70
     0
  9
$PEXTMIN
 10
1.000000000000000E+20
 20
1.000000000000000E+20
 30
1.000000000000000E+20
  9
$PEXTMAX
 10
-1.000000000000000E+20
 20
-1.000000000000000E+20
 30
-1.000000000000000E+20
  9
$PLIMMIN
 10
0.0
 20
0.0
  9
$PLIMMAX
 10
12.0
 20
9.0
  9
$UNITMODE
 70
     0
  9
$VISRETAIN
 70
     1
  9
$PLINEGEN
 70
     0
  9
$PSLTSCALE
 70
     1
  9
$TREEDEPTH
 70
  3020
  9
$CMLSTYLE
  2
Standard
  9
$CMLJUST
 70
     0
  9
$CMLSCALE
 40
1.0
  9
$PROXYGRAPHICS
 70
     1
  9
$MEASUREMENT
 70
     0
  9
$CELWEIGHT
370
    -1
  9
$ENDCAPS
280
     0
  9
$JOINSTYLE
280
     0
  9
$LWDISPLAY
290
     1
  9
$INSUNITS
 70
     1
  9
$HYPERLINKBASE
  1

  9
$STYLESHEET
  1

  9
$XEDIT
290
     1
  9
$CEPSNTYPE
380
     0
  9
$PSTYLEMODE
290
     1
  9
$FINGERPRINTGUID
  2
{E3693C77-32C5-0D50-EC80-0AE338AD661D}
  9
$VERSIONGUID
  2
{FAEB1C32-E019-11D5-929B-00C0DF256EC4}
  9
$EXTNAMES
290
     1
  9
$PSVPSCALE
 40
0.0
  9
$OLESTARTUP
290
     0
  9
$SORTENTS
280
   127
  9
$INDEXCTL
280
     0
  9
$HIDETEXT
280
     1
  9
$XCLIPFRAME
280
     2
  9
$HALOGAP
280
     0
  9
$OBSCOLOR
 70
   257
  9
$OBSLTYPE
280
     0
  9
$INTERSECTIONDISPLAY
280
     0
  9
$INTERSECTIONCOLOR
 70
   257
  9
$DIMASSOC
280
     2
  9
$PROJECTNAME
  1

  9
$CAMERADISPLAY
290
     0
  9
$LENSLENGTH
 40
50.0
  9
$CAMERAHEIGHT
 40
0.0
  9
$STEPSPERSEC
 40
2.0
  9
$STEPSIZE
 40
6.0
  9
$3DDWFPREC
 40
2.0
  9
$PSOLWIDTH
 40
0.25
  9
$PSOLHEIGHT
 40
4.0
  9
$LOFTANG1
 40
1.570796326794897
  9
$LOFTANG2
 40
1.570796326794897
  9
$LOFTMAG1
 40
0.0
  9
$LOFTMAG2
 40
0.0
  9
$LOFTPARAM
 70
     7
  9
$LOFTNORMALS
280
     1
  9
$LATITUDE
 40
37.795
  9
$LONGITUDE
 40
-122.394
  9
$NORTHDIRECTION
 40
0.0
  9
$TIMEZONE
 70
 -8000
  9
$LIGHTGLYPHDISPLAY
280
     1
  9
$TILEMODELIGHTSYNCH
280
     1
  9
$CMATERIAL
347
3C
  9
$SOLIDHIST
280
     1
  9
$SHOWHIST
280
     1
  9
$DWFFRAME
280
     2
  9
$DGNFRAME
280
     2
  9
$REALWORLDSCALE
290
     1
  9
$INTERFERECOLOR
 62
   256
  9
$CSHADOW
280
     0
  9
$SHADOWPLANELOCATION
 40
0.0
  0
ENDSEC
  0
SECTION
  2
CLASSES
  0
CLASS
  1
ACDBDICTIONARYWDFLT
  2
AcDbDictionaryWithDefault
  3
ObjectDBX Classes
 90
        0
 91
        4
280
     0
281
     0
  0
CLASS
  1
VISUALSTYLE
  2
AcDbVisualStyle
  3
ObjectDBX Classes
 90
     4095
 91
        4
280
     0
281
     0
  0
CLASS
  1
MATERIAL
  2
AcDbMaterial
  3
ObjectDBX Classes
 90
     1153
 91
        4
280
     0
281
     0
  0
CLASS
  1
SUN
  2
AcDbSun
  3
SCENEOE
 90
     1024
 91
        4
280
     0
281
     0
  0
ENDSEC
  0
SECTION
  2
TABLES
  0
TABLE
  2
VPORT
  5
8
330
0
100
AcDbSymbolTable
 70
     1
  0
VPORT
  5
29
330
8
100
AcDbSymbolTableRecord
100
AcDbViewportTableRecord
  2
*Active
 70
     0
 10
0.0
 20
0.0
 11
1.0
 21
1.0
 12
0.0
 22
0.0
 13
0.0
 23
0.0
 14
0.5
 24
0.5
 15
0.5
 25
0.5
 16
0.0
 26
0.0
 36
1.0
 17
91.00082462281999
 27
-128.4993055234307
 37
0.0
 40
256.9986110468615
 41
0.7081814508812795
 42
50.0
 43
0.0
 44
0.0
 50
0.0
 51
0.0
 71
     0
 72
   100
 73
     1
 74
     3
 75
     0
 76
     0
 77
     0
 78
     0
281
     0
 65
     1
110
0.0
120
0.0
130
0.0
111
1.0
121
0.0
131
0.0
112
0.0
122
1.0
132
0.0
 79
     0
146
0.0
 60
     3
 61
     5
292
     1
282
     1
141
0.0
142
0.0
 63
   250
361
3F
  0
ENDTAB
  0
TABLE
  2
LTYPE
  5
5
330
0
100
AcDbSymbolTable
 70
     1
  0
LTYPE
  5
14
330
5
100
AcDbSymbolTableRecord
100
AcDbLinetypeTableRecord
  2
ByBlock
 70
     0
  3

 72
    65
 73
     0
 40
0.0
  0
LTYPE
  5
15
330
5
100
AcDbSymbolTableRecord
100
AcDbLinetypeTableRecord
  2
ByLayer
 70
     0
  3

 72
    65
 73
     0
 40
0.0
  0
LTYPE
  5
16
330
5
100
AcDbSymbolTableRecord
100
AcDbLinetypeTableRecord
  2
Continuous
 70
     0
  3
Solid line
 72
    65
 73
     0
 40
0.0
  0
ENDTAB
  0
TABLE
  2
LAYER
  5
2
330
0
100
AcDbSymbolTable
 70
     2
  0
LAYER
  5
10
330
2
100
AcDbSymbolTableRecord
100
AcDbLayerTableRecord
  2
0
 70
     0
 62
     7
  6
Continuous
370
    -3
390
F
347
3E
  0
LAYER
  5
40
330
2
100
AcDbSymbolTableRecord
100
AcDbLayerTableRecord
  2
_U+30EC_U+30A4_U+30E4_U+30FC 1
 70
     0
 62
     7
  6
Continuous
370
    -3
390
F
347
3E
  0
ENDTAB
  0
TABLE
  2
STYLE
  5
3
330
0
100
AcDbSymbolTable
 70
     1
  0
STYLE
  5
11
330
3
100
AcDbSymbolTableRecord
100
AcDbTextStyleTableRecord
  2
Standard
 70
     0
 40
0.0
 41
1.0
 50
0.0
 71
     0
 42
0.2
  3
txt
  4

  0
ENDTAB
  0
TABLE
  2
VIEW
  5
6
330
0
100
AcDbSymbolTable
 70
     0
  0
ENDTAB
  0
TABLE
  2
UCS
  5
7
330
0
100
AcDbSymbolTable
 70
     0
  0
ENDTAB
  0
TABLE
  2
APPID
  5
9
330
0
100
AcDbSymbolTable
 70
     1
  0
APPID
  5
12
330
9
100
AcDbSymbolTableRecord
100
AcDbRegAppTableRecord
  2
ACAD
 70
     0
  0
ENDTAB
  0
TABLE
  2
DIMSTYLE
  5
A
330
0
100
AcDbSymbolTable
 70
     1
100
AcDbDimStyleTable
  0
DIMSTYLE
105
27
330
A
100
AcDbSymbolTableRecord
100
AcDbDimStyleTableRecord
  2
Standard
 70
     0
178
     0
340
11
  0
ENDTAB
  0
TABLE
  2
BLOCK_RECORD
  5
1
330
0
100
AcDbSymbolTable
 70
     8
  0
BLOCK_RECORD
  5
1F
330
1
100
AcDbSymbolTableRecord
100
AcDbBlockTableRecord
  2
*Model_Space
340
22
 70
     0
280
     1
281
     0
  0
BLOCK_RECORD
  5
1B
330
1
100
AcDbSymbolTableRecord
100
AcDbBlockTableRecord
  2
*Paper_Space
340
1E
 70
     0
280
     1
281
     0
  0
BLOCK_RECORD
  5
23
330
1
100
AcDbSymbolTableRecord
100
AcDbBlockTableRecord
  2
*Paper_Space0
340
26
 70
     0
280
     1
281
     0
  0
BLOCK_RECORD
  5
41
330
1
100
AcDbSymbolTableRecord
100
AcDbBlockTableRecord
  2
block 2
340
0
102
{BLKREFS
331
42
102
}
 70
     0
280
     1
281
     0
  0
BLOCK_RECORD
  5
EA
330
1
100
AcDbSymbolTableRecord
100
AcDbBlockTableRecord
  2
block 3
340
0
102
{BLKREFS
331
EB
102
}
 70
     0
280
     1
281
     0
  0
BLOCK_RECORD
  5
101
330
1
100
AcDbSymbolTableRecord
100
AcDbBlockTableRecord
  2
block 4
340
0
102
{BLKREFS
331
102
102
}
 70
     0
280
     1
281
     0
  0
BLOCK_RECORD
  5
115
330
1
100
AcDbSymbolTableRecord
100
AcDbBlockTableRecord
  2
block 5
340
0
102
{BLKREFS
331
116
102
}
 70
     0
280
     1
281
     0
  0
BLOCK_RECORD
  5
12D
330
1
100
AcDbSymbolTableRecord
100
AcDbBlockTableRecord
  2
block 6
340
0
102
{BLKREFS
331
12E
102
}
 70
     0
280
     1
281
     0
  0
BLOCK_RECORD
  5
151
330
1
100
AcDbSymbolTableRecord
100
AcDbBlockTableRecord
  2
block 7
340
0
102
{BLKREFS
331
152
102
}
 70
     0
280
     1
281
     0
  0
BLOCK_RECORD
  5
16D
330
1
100
AcDbSymbolTableRecord
100
AcDbBlockTableRecord
  2
block 8
340
0
102
{BLKREFS
331
16E
102
}
 70
     0
280
     1
281
     0
  0
ENDTAB
  0
ENDSEC
  0
SECTION
  2
BLOCKS
  0
BLOCK
  5
20
330
1F
100
AcDbEntity
  8
0
100
AcDbBlockBegin
  2
*Model_Space
 70
     0
 10
0.0
 20
0.0
 30
0.0
  3
*Model_Space
  1

  0
ENDBLK
  5
21
330
1F
100
AcDbEntity
  8
0
100
AcDbBlockEnd
  0
BLOCK
  5
1C
330
1B
100
AcDbEntity
 67
     1
  8
0
100
AcDbBlockBegin
  2
*Paper_Space
 70
     0
 10
0.0
 20
0.0
 30
0.0
  3
*Paper_Space
  1

  0
ENDBLK
  5
1D
330
1B
100
AcDbEntity
 67
     1
  8
0
100
AcDbBlockEnd
  0
BLOCK
  5
24
330
23
100
AcDbEntity
  8
0
100
AcDbBlockBegin
  2
*Paper_Space0
 70
     0
 10
0.0
 20
0.0
 30
0.0
  3
*Paper_Space0
  1

  0
ENDBLK
  5
25
330
23
100
AcDbEntity
  8
0
100
AcDbBlockEnd
  0
BLOCK
  5
43
330
41
100
AcDbEntity
  8
0
100
AcDbBlockBegin
  2
block 2
 70
     0
 10
0.0
 20
0.0
 30
0.0
  3
block 2
  1

  0
SPLINE
  5
45
330
41
100
AcDbEntity
  8
_U+30EC_U+30A4_U+30E4_U+30FC 1
370
     0
100
AcDbSpline
210
0.0
220
0.0
230
1.0
 70
    11
 71
     3
 72
   128
 73
   124
 74
     0
 42
0.0000000001
 43
0.0000000001
 12
1.0
 22
0.0
 32
0.0
 13
1.0
 23
0.0
 33
0.0
 40
0.0
 40
0.0
 40
0.0
 40
0.0
 40
1.0
 40
1.0
 40
1.0
 40
2.0
 40
2.0
 40
2.0
 40
3.0
 40
3.0
 40
3.0
 40
4.0
 40
4.0
 40
4.0
 40
5.0
 40
5.0
 40
5.0
 40
6.0
 40
6.0
 40
6.0
 40
7.0
 40
7.0
 40
7.0
 40
8.0
 40
8.0
 40
8.0
 40
9.0
 40
9.0
 40
9.0
 40
10.0
 40
10.0
 40
10.0
 40
11.0
 40
11.0
 40
11.0
 40
12.0
 40
12.0
 40
12.0
 40
13.0
 40
13.0
 40
13.0
 40
14.0
 40
14.0
 40
14.0
 40
15.0
 40
15.0
 40
15.0
 40
16.0
 40
16.0
 40
16.0
 40
17.0
 40
17.0
 40
17.0
 40
18.0
 40
18.0
 40
18.0
 40
19.0
 40
19.0
 40
19.0
 40
20.0
 40
20.0
 40
20.0
 40
21.0
 40
21.0
 40
21.0
 40
22.0
 40
22.0
 40
22.0
 40
23.0
 40
23.0
 40
23.0
 40
24.0
 40
24.0
 40
24.0
 40
25.0
 40
25.0
 40
25.0
 40
26.0
 40
26.0
 40
26.0
 40
27.0
 40
27.0
 40
27.0
 40
28.0
 40
28.0
 40
28.0
 40
29.0
 40
29.0
 40
29.0
 40
30.0
 40
30.0
 40
30.0
 40
31.0
 40
31.0
 40
31.0
 40
32.0
 40
32.0
 40
32.0
 40
33.0
 40
33.0
 40
33.0
 40
34.0
 40
34.0
 40
34.0
 40
35.0
 40
35.0
 40
35.0
 40
36.0
 40
36.0
 40
36.0
 40
37.0
 40
37.0
 40
37.0
 40
38.0
 40
38.0
 40
38.0
 40
39.0
 40
39.0
 40
39.0
 40
40.0
 40
40.0
 40
40.0
 40
41.0
 40
41.0
 40
41.0
 40
41.0
 10
78.3828124804043
 20
-114.4285020330248
 30
0.0
 10
78.3828124804043
 20
-114.4285020330248
 30
0.0
 10
78.57057018435042
 20
-114.4753553316242
 30
0.0
 10
78.57057018435042
 20
-114.4753553316242
 30
0.0
 10
78.58280027332306
 20
-114.4779391532382
 30
0.0
 10
78.5977864386839
 20
-114.4877576753711
 30
0.0
 10
78.5977864386839
 20
-114.5049831527974
 30
0.0
 10
78.5977864386839
 20
-114.5371947955845
 30
0.0
 10
78.57539331802977
 20
-114.5396063624241
 30
0.0
 10
78.54576549685662
 20
-114.5446017508777
 30
0.0
 10
78.48409828767065
 20
-114.8904893375968
 30
0.0
 10
78.41984725687074
 20
-115.2437838796092
 30
0.0
 10
77.82677406908498
 20
-115.5031995696485
 30
0.0
 10
77.73048365027225
 20
-115.3500650753292
 30
0.0
 10
77.57734915595289
 20
-115.2289699690226
 30
0.0
 10
77.53531899103284
 20
-115.1969305810098
 30
0.0
 10
78.15302461153814
 20
-115.0708400862497
 30
0.0
 10
78.18265243271128
 20
-114.6458875581441
 30
0.0
 10
78.19005938800457
 20
-114.4285020330248
 30
0.0
 10
78.19005938800457
 20
-114.4285020330248
 30
0.0
 10
77.57235376749928
 20
-114.4285020330248
 30
0.0
 10
77.57235376749928
 20
-114.4285020330248
 30
0.0
 10
77.57235376749928
 20
-114.4285020330248
 30
0.0
 10
77.57235376749928
 20
-114.0924329684387
 30
0.0
 10
77.57235376749928
 20
-114.0924329684387
 30
0.0
 10
77.57235376749928
 20
-114.0924329684387
 30
0.0
 10
78.51613767568347
 20
-114.0924329684387
 30
0.0
 10
78.51613767568347
 20
-114.0924329684387
 30
0.0
 10
78.51613767568347
 20
-114.0924329684387
 30
0.0
 10
78.51613767568347
 20
-113.8502427558256
 30
0.0
 10
78.51613767568347
 20
-113.8502427558256
 30
0.0
 10
78.51613767568347
 20
-113.8502427558256
 30
0.0
 10
78.05415037111146
 20
-113.8502427558256
 30
0.0
 10
78.05415037111146
 20
-113.8502427558256
 30
0.0
 10
77.99730629560484
 20
-113.941710040959
 30
0.0
 10
77.95028074223119
 20
-113.9985541164656
 30
0.0
 10
77.8960204883385
 20
-114.0628051472655
 30
0.0
 10
77.83418102437827
 20
-114.0133680270522
 30
0.0
 10
77.66864418631201
 20
-113.9367146525054
 30
0.0
 10
77.55995142375238
 20
-113.9070868313323
 30
0.0
 10
77.68604191851252
 20
-113.7637708591459
 30
0.0
 10
77.8836181445916
 20
-113.4871296916803
 30
0.0
 10
77.93064369796527
 20
-113.2251301800271
 30
0.0
 10
77.93064369796527
 20
-113.2251301800271
 30
0.0
 10
78.30374753901782
 20
-113.34122989788
 30
0.0
 10
78.30374753901782
 20
-113.34122989788
 30
0.0
 10
78.31356606115078
 20
-113.3438137194939
 30
0.0
 10
78.33079153857703
 20
-113.3536322416269
 30
0.0
 10
78.33079153857703
 20
-113.3710299738274
 30
0.0
 10
78.33079153857703
 20
-113.4030693618402
 30
0.0
 10
78.31597762799045
 20
-113.4054809286799
 30
0.0
 10
78.26654050777712
 20
-113.4154717055871
 30
0.0
 10
78.25172659719054
 20
-113.4575018705072
 30
0.0
 10
78.24431964189726
 20
-113.4821343032267
 30
0.0
 10
78.22950573131068
 20
-113.5167575128535
 30
0.0
 10
78.22950573131068
 20
-113.5167575128535
 30
0.0
 10
78.51613767568347
 20
-113.5167575128535
 30
0.0
 10
78.51613767568347
 20
-113.5167575128535
 30
0.0
 10
78.51613767568347
 20
-113.5167575128535
 30
0.0
 10
78.51613767568347
 20
-113.2054931357611
 30
0.0
 10
78.51613767568347
 20
-113.2054931357611
 30
0.0
 10
78.51613767568347
 20
-113.2054931357611
 30
0.0
 10
78.9164577710695
 20
-113.2351209569343
 30
0.0
 10
78.9164577710695
 20
-113.2351209569343
 30
0.0
 10
78.9288601148164
 20
-113.2351209569343
 30
0.0
 10
78.95349254753593
 20
-113.2399440906136
 30
0.0
 10
78.95349254753593
 20
-113.2671603449471
 30
0.0
 10
78.95349254753593
 20
-113.2919650324409
 30
0.0
 10
78.94109020378903
 20
-113.2993719877342
 30
0.0
 10
78.9040554273226
 20
-113.321592853614
 30
0.0
 10
78.9040554273226
 20
-113.321592853614
 30
0.0
 10
78.9040554273226
 20
-113.5167575128535
 30
0.0
 10
78.9040554273226
 20
-113.5167575128535
 30
0.0
 10
78.9040554273226
 20
-113.5167575128535
 30
0.0
 10
79.61805146664064
 20
-113.5167575128535
 30
0.0
 10
79.61805146664064
 20
-113.5167575128535
 30
0.0
 10
79.61805146664064
 20
-113.5167575128535
 30
0.0
 10
79.61805146664064
 20
-113.8502427558256
 30
0.0
 10
79.61805146664064
 20
-113.8502427558256
 30
0.0
 10
79.61805146664064
 20
-113.8502427558256
 30
0.0
 10
78.9040554273226
 20
-113.8502427558256
 30
0.0
 10
78.9040554273226
 20
-113.8502427558256
 30
0.0
 10
78.9040554273226
 20
-113.8502427558256
 30
0.0
 10
78.9040554273226
 20
-114.0924329684387
 30
0.0
 10
78.9040554273226
 20
-114.0924329684387
 30
0.0
 10
78.9040554273226
 20
-114.0924329684387
 30
0.0
 10
79.79116751477443
 20
-114.0924329684387
 30
0.0
 10
79.79116751477443
 20
-114.0924329684387
 30
0.0
 10
79.79116751477443
 20
-114.0924329684387
 30
0.0
 10
79.79116751477443
 20
-114.4285020330248
 30
0.0
 10
79.79116751477443
 20
-114.4285020330248
 30
0.0
 10
79.79116751477443
 20
-114.4285020330248
 30
0.0
 10
79.14624563993567
 20
-114.4285020330248
 30
0.0
 10
79.14624563993567
 20
-114.4285020330248
 30
0.0
 10
79.14624563993567
 20
-114.4285020330248
 30
0.0
 10
79.14624563993567
 20
-115.0536146088234
 30
0.0
 10
79.14624563993567
 20
-115.0536146088234
 30
0.0
 10
79.14624563993567
 20
-115.1054632958764
 30
0.0
 10
79.15365259522895
 20
-115.1326795502099
 30
0.0
 10
79.21790362602886
 20
-115.1326795502099
 30
0.0
 10
79.21790362602886
 20
-115.1326795502099
 30
0.0
 10
79.42288680740123
 20
-115.1326795502099
 30
0.0
 10
79.42288680740123
 20
-115.1326795502099
 30
0.0
 10
79.49712861510837
 20
-115.1326795502099
 30
0.0
 10
79.52916800312119
 20
-115.0708400862497
 30
0.0
 10
79.55879582429434
 20
-114.8534545611304
 30
0.0
 10
79.69229327434776
 20
-114.9449218462638
 30
0.0
 10
79.76395126044096
 20
-114.9819566227302
 30
0.0
 10
79.89486488888045
 20
-115.0115844439034
 30
0.0
 10
79.79857447006772
 20
-115.4069091508358
 30
0.0
 10
79.72691648397452
 20
-115.4563462710491
 30
0.0
 10
79.51934948098823
 20
-115.4563462710491
 30
0.0
 10
79.51934948098823
 20
-115.4563462710491
 30
0.0
 10
79.09439695288266
 20
-115.4563462710491
 30
0.0
 10
79.09439695288266
 20
-115.4563462710491
 30
0.0
 10
78.78795570946968
 20
-115.4563462710491
 30
0.0
 10
78.7681464104295
 20
-115.2511908349025
 30
0.0
 10
78.7681464104295
 20
-115.1350911170496
 30
0.0
 10
78.7681464104295
 20
-115.1350911170496
 30
0.0
 10
78.7681464104295
 20
-114.4285020330248
 30
0.0
 10
78.7681464104295
 20
-114.4285020330248
 30
0.0
 10
78.7681464104295
 20
-114.4285020330248
 30
0.0
 10
78.3828124804043
 20
-114.4285020330248
 30
0.0
 10
78.3828124804043
 20
-114.4285020330248
 30
0.0
  0
HATCH
  5
46
330
41
100
AcDbEntity
  8
_U+30EC_U+30A4_U+30E4_U+30FC 1
 62
   179
420
  2234388
100
AcDbHatch
 10
0.0
 20
0.0
 30
0.0
210
0.0
220
0.0
230
1.0
  2
SOLID
 70
     1
 71
     0
 91
        1
 92
        1
 93
        1
 72
     4
 94
        3
 73
     0
 74
     1
 95
      128
 96
      124
 40
0.0
 40
0.0
 40
0.0
 40
0.0
 40
1.0
 40
1.0
 40
1.0
 40
2.0
 40
2.0
 40
2.0
 40
3.0
 40
3.0
 40
3.0
 40
4.0
 40
4.0
 40
4.0
 40
5.0
 40
5.0
 40
5.0
 40
6.0
 40
6.0
 40
6.0
 40
7.0
 40
7.0
 40
7.0
 40
8.0
 40
8.0
 40
8.0
 40
9.0
 40
9.0
 40
9.0
 40
10.0
 40
10.0
 40
10.0
 40
11.0
 40
11.0
 40
11.0
 40
12.0
 40
12.0
 40
12.0
 40
13.0
 40
13.0
 40
13.0
 40
14.0
 40
14.0
 40
14.0
 40
15.0
 40
15.0
 40
15.0
 40
16.0
 40
16.0
 40
16.0
 40
17.0
 40
17.0
 40
17.0
 40
18.0
 40
18.0
 40
18.0
 40
19.0
 40
19.0
 40
19.0
 40
20.0
 40
20.0
 40
20.0
 40
21.0
 40
21.0
 40
21.0
 40
22.0
 40
22.0
 40
22.0
 40
23.0
 40
23.0
 40
23.0
 40
24.0
 40
24.0
 40
24.0
 40
25.0
 40
25.0
 40
25.0
 40
26.0
 40
26.0
 40
26.0
 40
27.0
 40
27.0
 40
27.0
 40
28.0
 40
28.0
 40
28.0
 40
29.0
 40
29.0
 40
29.0
 40
30.0
 40
30.0
 40
30.0
 40
31.0
 40
31.0
 40
31.0
 40
32.0
 40
32.0
 40
32.0
 40
33.0
 40
33.0
 40
33.0
 40
34.0
 40
34.0
 40
34.0
 40
35.0
 40
35.0
 40
35.0
 40
36.0
 40
36.0
 40
36.0
 40
37.0
 40
37.0
 40
37.0
 40
38.0
 40
38.0
 40
38.0
 40
39.0
 40
39.0
 40
39.0
 40
40.0
 40
40.0
 40
40.0
 40
41.0
 40
41.0
 40
41.0
 40
41.0
 10
78.3828124804043
 20
-114.4285020330248
 10
78.3828124804043
 20
-114.4285020330248
 10
78.57057018435042
 20
-114.4753553316242
 10
78.57057018435042
 20
-114.4753553316242
 10
78.58280027332306
 20
-114.4779391532382
 10
78.5977864386839
 20
-114.4877576753711
 10
78.5977864386839
 20
-114.5049831527974
 10
78.5977864386839
 20
-114.5371947955845
 10
78.57539331802977
 20
-114.5396063624241
 10
78.54576549685662
 20
-114.5446017508777
 10
78.48409828767065
 20
-114.8904893375968
 10
78.41984725687074
 20
-115.2437838796092
 10
77.82677406908498
 20
-115.5031995696485
 10
77.73048365027225
 20
-115.3500650753292
 10
77.57734915595289
 20
-115.2289699690226
 10
77.53531899103284
 20
-115.1969305810098
 10
78.15302461153814
 20
-115.0708400862497
 10
78.18265243271128
 20
-114.6458875581441
 10
78.19005938800457
 20
-114.4285020330248
 10
78.19005938800457
 20
-114.4285020330248
 10
77.57235376749928
 20
-114.4285020330248
 10
77.57235376749928
 20
-114.4285020330248
 10
77.57235376749928
 20
-114.4285020330248
 10
77.57235376749928
 20
-114.0924329684387
 10
77.57235376749928
 20
-114.0924329684387
 10
77.57235376749928
 20
-114.0924329684387
 10
78.51613767568347
 20
-114.0924329684387
 10
78.51613767568347
 20
-114.0924329684387
 10
78.51613767568347
 20
-114.0924329684387
 10
78.51613767568347
 20
-113.8502427558256
 10
78.51613767568347
 20
-113.8502427558256
 10
78.51613767568347
 20
-113.8502427558256
 10
78.05415037111146
 20
-113.8502427558256
 10
78.05415037111146
 20
-113.8502427558256
 10
77.99730629560484
 20
-113.941710040959
 10
77.95028074223119
 20
-113.9985541164656
 10
77.8960204883385
 20
-114.0628051472655
 10
77.83418102437827
 20
-114.0133680270522
 10
77.66864418631201
 20
-113.9367146525054
 10
77.55995142375238
 20
-113.9070868313323
 10
77.68604191851252
 20
-113.7637708591459
 10
77.8836181445916
 20
-113.4871296916803
 10
77.93064369796527
 20
-113.2251301800271
 10
77.93064369796527
 20
-113.2251301800271
 10
78.30374753901782
 20
-113.34122989788
 10
78.30374753901782
 20
-113.34122989788
 10
78.31356606115078
 20
-113.3438137194939
 10
78.33079153857703
 20
-113.3536322416269
 10
78.33079153857703
 20
-113.3710299738274
 10
78.33079153857703
 20
-113.4030693618402
 10
78.31597762799045
 20
-113.4054809286799
 10
78.26654050777712
 20
-113.4154717055871
 10
78.25172659719054
 20
-113.4575018705072
 10
78.24431964189726
 20
-113.4821343032267
 10
78.22950573131068
 20
-113.5167575128535
 10
78.22950573131068
 20
-113.5167575128535
 10
78.51613767568347
 20
-113.5167575128535
 10
78.51613767568347
 20
-113.5167575128535
 10
78.51613767568347
 20
-113.5167575128535
 10
78.51613767568347
 20
-113.2054931357611
 10
78.51613767568347
 20
-113.2054931357611
 10
78.51613767568347
 20
-113.2054931357611
 10
78.9164577710695
 20
-113.2351209569343
 10
78.9164577710695
 20
-113.2351209569343
 10
78.9288601148164
 20
-113.2351209569343
 10
78.95349254753593
 20
-113.2399440906136
 10
78.95349254753593
 20
-113.2671603449471
 10
78.95349254753593
 20
-113.2919650324409
 10
78.94109020378903
 20
-113.2993719877342
 10
78.9040554273226
 20
-113.321592853614
 10
78.9040554273226
 20
-113.321592853614
 10
78.9040554273226
 20
-113.5167575128535
 10
78.9040554273226
 20
-113.5167575128535
 10
78.9040554273226
 20
-113.5167575128535
 10
79.61805146664064
 20
-113.5167575128535
 10
79.61805146664064
 20
-113.5167575128535
 10
79.61805146664064
 20
-113.5167575128535
 10
79.61805146664064
 20
-113.8502427558256
 10
79.61805146664064
 20
-113.8502427558256
 10
79.61805146664064
 20
-113.8502427558256
 10
78.9040554273226
 20
-113.8502427558256
 10
78.9040554273226
 20
-113.8502427558256
 10
78.9040554273226
 20
-113.8502427558256
 10
78.9040554273226
 20
-114.0924329684387
 10
78.9040554273226
 20
-114.0924329684387
 10
78.9040554273226
 20
-114.0924329684387
 10
79.79116751477443
 20
-114.0924329684387
 10
79.79116751477443
 20
-114.0924329684387
 10
79.79116751477443
 20
-114.0924329684387
 10
79.79116751477443
 20
-114.4285020330248
 10
79.79116751477443
 20
-114.4285020330248
 10
79.79116751477443
 20
-114.4285020330248
 10
79.14624563993567
 20
-114.4285020330248
 10
79.14624563993567
 20
-114.4285020330248
 10
79.14624563993567
 20
-114.4285020330248
 10
79.14624563993567
 20
-115.0536146088234
 10
79.14624563993567
 20
-115.0536146088234
 10
79.14624563993567
 20
-115.1054632958764
 10
79.15365259522895
 20
-115.1326795502099
 10
79.21790362602886
 20
-115.1326795502099
 10
79.21790362602886
 20
-115.1326795502099
 10
79.42288680740123
 20
-115.1326795502099
 10
79.42288680740123
 20
-115.1326795502099
 10
79.49712861510837
 20
-115.1326795502099
 10
79.52916800312119
 20
-115.0708400862497
 10
79.55879582429434
 20
-114.8534545611304
 10
79.69229327434776
 20
-114.9449218462638
 10
79.76395126044096
 20
-114.9819566227302
 10
79.89486488888045
 20
-115.0115844439034
 10
79.79857447006772
 20
-115.4069091508358
 10
79.72691648397452
 20
-115.4563462710491
 10
79.51934948098823
 20
-115.4563462710491
 10
79.51934948098823
 20
-115.4563462710491
 10
79.09439695288266
 20
-115.4563462710491
 10
79.09439695288266
 20
-115.4563462710491
 10
78.78795570946968
 20
-115.4563462710491
 10
78.7681464104295
 20
-115.2511908349025
 10
78.7681464104295
 20
-115.1350911170496
 10
78.7681464104295
 20
-115.1350911170496
 10
78.7681464104295
 20
-114.4285020330248
 10
78.7681464104295
 20
-114.4285020330248
 10
78.7681464104295
 20
-114.4285020330248
 10
78.3828124804043
 20
-114.4285020330248
 10
78.3828124804043
 20
-114.4285020330248
 97
        0
 97
        0
 75
     2
 76
     1
 98
        0
  0
SPLINE
  5
47
330
41
100
AcDbEntity
  8
_U+30EC_U+30A4_U+30E4_U+30FC 1
370
     0
100
AcDbSpline
210
0.0
220
0.0
230
1.0
 70
    11
 71
     3
 72
    41
 73
    37
 74
     0
 42
0.0000000001
 43
0.0000000001
 12
1.0
 22
0.0
 32
0.0
 13
1.0
 23
0.0
 33
0.0
 40
0.0
 40
0.0
 40
0.0
 40
0.0
 40
1.0
 40
1.0
 40
1.0
 40
2.0
 40
2.0
 40
2.0
 40
3.0
 40
3.0
 40
3.0
 40
4.0
 40
4.0
 40
4.0
 40
5.0
 40
5.0
 40
5.0
 40
6.0
 40
6.0
 40
6.0
 40
7.0
 40
7.0
 40
7.0
 40
8.0
 40
8.0
 40
8.0
 40
9.0
 40
9.0
 40
9.0
 40
10.0
 40
10.0
 40
10.0
 40
11.0
 40
11.0
 40
11.0
 40
12.0
 40
12.0
 40
12.0
 40
12.0
 10
80.68413626455119
 20
-115.4883856590619
 30
0.0
 10
80.68413626455119
 20
-115.4883856590619
 30
0.0
 10
80.29863007975173
 20
-115.4883856590619
 30
0.0
 10
80.29863007975173
 20
-115.4883856590619
 30
0.0
 10
80.29863007975173
 20
-115.4883856590619
 30
0.0
 10
80.29863007975173
 20
-114.3444417031847
 30
0.0
 10
80.29863007975173
 20
-114.3444417031847
 30
0.0
 10
80.26659069173891
 20
-114.3864718681048
 30
0.0
 10
80.23696287056576
 20
-114.4185112561176
 30
0.0
 10
80.21215818307196
 20
-114.4407321219975
 30
0.0
 10
80.16030949601895
 20
-114.361667180611
 30
0.0
 10
80.05161673345933
 20
-114.2555582396653
 30
0.0
 10
79.94034014928575
 20
-114.1813164319582
 30
0.0
 10
80.36787649900526
 20
-113.7663546807598
 30
0.0
 10
80.50378551589836
 20
-113.2153116578941
 30
0.0
 10
80.516015604871
 20
-113.1682861045204
 30
0.0
 10
80.516015604871
 20
-113.1682861045204
 30
0.0
 10
80.85466849107105
 20
-113.2919650324409
 30
0.0
 10
80.85466849107105
 20
-113.2919650324409
 30
0.0
 10
80.8793009237906
 20
-113.3017835545739
 30
0.0
 10
80.90152178967045
 20
-113.3091905098672
 30
0.0
 10
80.90152178967045
 20
-113.3289998089073
 30
0.0
 10
80.90152178967045
 20
-113.3536322416269
 30
0.0
 10
80.86948240165763
 20
-113.3610391969202
 30
0.0
 10
80.83727075887055
 20
-113.3660345853738
 30
0.0
 10
80.74098034005782
 20
-113.5934108874003
 30
0.0
 10
80.73357338476453
 20
-113.6106363648265
 30
0.0
 10
80.66191539867133
 20
-113.7589477254665
 30
0.0
 10
80.70136174197744
 20
-113.7687662475995
 30
0.0
 10
80.73598495160421
 20
-113.7785847697324
 30
0.0
 10
80.73598495160421
 20
-113.8058010240659
 30
0.0
 10
80.73598495160421
 20
-113.8330172783994
 30
0.0
 10
80.71376408572434
 20
-113.8454196221463
 30
0.0
 10
80.68413626455119
 20
-113.8552381442793
 30
0.0
 10
80.68413626455119
 20
-113.8552381442793
 30
0.0
 10
80.68413626455119
 20
-115.4883856590619
 30
0.0
 10
80.68413626455119
 20
-115.4883856590619
 30
0.0
  0
SPLINE
  5
48
330
41
100
AcDbEntity
  8
_U+30EC_U+30A4_U+30E4_U+30FC 1
370
     0
100
AcDbSpline
210
0.0
220
0.0
230
1.0
 70
    11
 71
     3
 72
    56
 73
    52
 74
     0
 42
0.0000000001
 43
0.0000000001
 12
1.0
 22
0.0
 32
0.0
 13
1.0
 23
0.0
 33
0.0
 40
0.0
 40
0.0
 40
0.0
 40
0.0
 40
1.0
 40
1.0
 40
1.0
 40
2.0
 40
2.0
 40
2.0
 40
3.0
 40
3.0
 40
3.0
 40
4.0
 40
4.0
 40
4.0
 40
5.0
 40
5.0
 40
5.0
 40
6.0
 40
6.0
 40
6.0
 40
7.0
 40
7.0
 40
7.0
 40
8.0
 40
8.0
 40
8.0
 40
9.0
 40
9.0
 40
9.0
 40
10.0
 40
10.0
 40
10.0
 40
11.0
 40
11.0
 40
11.0
 40
12.0
 40
12.0
 40
12.0
 40
13.0
 40
13.0
 40
13.0
 40
14.0
 40
14.0
 40
14.0
 40
15.0
 40
15.0
 40
15.0
 40
16.0
 40
16.0
 40
16.0
 40
17.0
 40
17.0
 40
17.0
 40
17.0
 10
82.29265134661433
 20
-113.7489569485593
 30
0.0
 10
82.29265134661433
 20
-113.7489569485593
 30
0.0
 10
82.29265134661433
 20
-114.1072468790253
 30
0.0
 10
82.29265134661433
 20
-114.1072468790253
 30
0.0
 10
82.29265134661433
 20
-114.1072468790253
 30
0.0
 10
82.06027965613424
 20
-114.1072468790253
 30
0.0
 10
82.06027965613424
 20
-114.1072468790253
 30
0.0
 10
82.06027965613424
 20
-114.1072468790253
 30
0.0
 10
82.06027965613424
 20
-115.1326795502099
 30
0.0
 10
82.06027965613424
 20
-115.1326795502099
 30
0.0
 10
82.06027965613424
 20
-115.4167276729687
 30
0.0
 10
82.01342635753484
 20
-115.4809787037687
 30
0.0
 10
81.49700654429589
 20
-115.4859740922223
 30
0.0
 10
81.47978106686965
 20
-115.3574720306224
 30
0.0
 10
81.42776012504237
 20
-115.2117444915964
 30
0.0
 10
81.33388127306931
 20
-115.0856539968362
 30
0.0
 10
81.38831378173626
 20
-115.0980563405831
 30
0.0
 10
81.48219263370932
 20
-115.1178656396233
 30
0.0
 10
81.55626218664219
 20
-115.1178656396233
 30
0.0
 10
81.6723619044951
 20
-115.1178656396233
 30
0.0
 10
81.67735729294871
 20
-115.0856539968362
 30
0.0
 10
81.67735729294871
 20
-115.0015936669961
 30
0.0
 10
81.67735729294871
 20
-115.0015936669961
 30
0.0
 10
81.67735729294871
 20
-114.1072468790253
 30
0.0
 10
81.67735729294871
 20
-114.1072468790253
 30
0.0
 10
81.67735729294871
 20
-114.1072468790253
 30
0.0
 10
80.77301972807064
 20
-114.1072468790253
 30
0.0
 10
80.77301972807064
 20
-114.1072468790253
 30
0.0
 10
80.77301972807064
 20
-114.1072468790253
 30
0.0
 10
80.77301972807064
 20
-113.7489569485593
 30
0.0
 10
80.77301972807064
 20
-113.7489569485593
 30
0.0
 10
80.77301972807064
 20
-113.7489569485593
 30
0.0
 10
81.67735729294871
 20
-113.7489569485593
 30
0.0
 10
81.67735729294871
 20
-113.7489569485593
 30
0.0
 10
81.67735729294871
 20
-113.7489569485593
 30
0.0
 10
81.67735729294871
 20
-113.1955023588539
 30
0.0
 10
81.67735729294871
 20
-113.1955023588539
 30
0.0
 10
81.67735729294871
 20
-113.1955023588539
 30
0.0
 10
82.06027965613424
 20
-113.2103162694405
 30
0.0
 10
82.06027965613424
 20
-113.2103162694405
 30
0.0
 10
82.08990747730739
 20
-113.2103162694405
 30
0.0
 10
82.12711450854809
 20
-113.2129000910544
 30
0.0
 10
82.12711450854809
 20
-113.2425279122276
 30
0.0
 10
82.12711450854809
 20
-113.2647487781074
 30
0.0
 10
82.09731443260067
 20
-113.279562688694
 30
0.0
 10
82.06027965613424
 20
-113.2943765992806
 30
0.0
 10
82.06027965613424
 20
-113.2943765992806
 30
0.0
 10
82.06027965613424
 20
-113.7489569485593
 30
0.0
 10
82.06027965613424
 20
-113.7489569485593
 30
0.0
 10
82.06027965613424
 20
-113.7489569485593
 30
0.0
 10
82.29265134661433
 20
-113.7489569485593
 30
0.0
 10
82.29265134661433
 20
-113.7489569485593
 30
0.0
  0
SPLINE
  5
49
330
41
100
AcDbEntity
  8
_U+30EC_U+30A4_U+30E4_U+30FC 1
370
     0
100
AcDbSpline
210
0.0
220
0.0
230
1.0
 70
    11
 71
     3
 72
    17
 73
    13
 74
     0
 42
0.0000000001
 43
0.0000000001
 12
1.0
 22
0.0
 32
0.0
 13
1.0
 23
0.0
 33
0.0
 40
0.0
 40
0.0
 40
0.0
 40
0.0
 40
1.0
 40
1.0
 40
1.0
 40
2.0
 40
2.0
 40
2.0
 40
3.0
 40
3.0
 40
3.0
 40
4.0
 40
4.0
 40
4.0
 40
4.0
 10
81.18315834558963
 20
-114.2381605074648
 30
0.0
 10
81.36109752740279
 20
-114.4507228989047
 30
0.0
 10
81.46737872312275
 20
-114.6360690360111
 30
0.0
 10
81.52422279862937
 20
-114.7966104856238
 30
0.0
 10
81.48718802216293
 20
-114.81383596305
 30
0.0
 10
81.31906736248274
 20
-114.8929009044365
 30
0.0
 10
81.18315834558963
 20
-114.9793728011163
 30
0.0
 10
81.12390270324333
 20
-114.8164197846639
 30
0.0
 10
80.9509589098838
 20
-114.5197970633839
 30
0.0
 10
80.84467771416384
 20
-114.406281167145
 30
0.0
 10
80.84467771416384
 20
-114.406281167145
 30
0.0
 10
81.18315834558963
 20
-114.2381605074648
 30
0.0
 10
81.18315834558963
 20
-114.2381605074648
 30
0.0
  0
HATCH
  5
4A
330
41
100
AcDbEntity
  8
_U+30EC_U+30A4_U+30E4_U+30FC 1
 62
   179
420
  2234388
100
AcDbHatch
 10
0.0
 20
0.0
 30
0.0
210
0.0
220
0.0
230
1.0
  2
SOLID
 70
     1
 71
     0
 91
        3
 92
        1
 93
        1
 72
     4
 94
        3
 73
     0
 74
     1
 95
       41
 96
       37
 40
0.0
 40
0.0
 40
0.0
 40
0.0
 40
1.0
 40
1.0
 40
1.0
 40
2.0
 40
2.0
 40
2.0
 40
3.0
 40
3.0
 40
3.0
 40
4.0
 40
4.0
 40
4.0
 40
5.0
 40
5.0
 40
5.0
 40
6.0
 40
6.0
 40
6.0
 40
7.0
 40
7.0
 40
7.0
 40
8.0
 40
8.0
 40
8.0
 40
9.0
 40
9.0
 40
9.0
 40
10.0
 40
10.0
 40
10.0
 40
11.0
 40
11.0
 40
11.0
 40
12.0
 40
12.0
 40
12.0
 40
12.0
 10
80.68413626455119
 20
-115.4883856590619
 10
80.68413626455119
 20
-115.4883856590619
 10
80.29863007975173
 20
-115.4883856590619
 10
80.29863007975173
 20
-115.4883856590619
 10
80.29863007975173
 20
-115.4883856590619
 10
80.29863007975173
 20
-114.3444417031847
 10
80.29863007975173
 20
-114.3444417031847
 10
80.26659069173891
 20
-114.3864718681048
 10
80.23696287056576
 20
-114.4185112561176
 10
80.21215818307196
 20
-114.4407321219975
 10
80.16030949601895
 20
-114.361667180611
 10
80.05161673345933
 20
-114.2555582396653
 10
79.94034014928575
 20
-114.1813164319582
 10
80.36787649900526
 20
-113.7663546807598
 10
80.50378551589836
 20
-113.2153116578941
 10
80.516015604871
 20
-113.1682861045204
 10
80.516015604871
 20
-113.1682861045204
 10
80.85466849107105
 20
-113.2919650324409
 10
80.85466849107105
 20
-113.2919650324409
 10
80.8793009237906
 20
-113.3017835545739
 10
80.90152178967045
 20
-113.3091905098672
 10
80.90152178967045
 20
-113.3289998089073
 10
80.90152178967045
 20
-113.3536322416269
 10
80.86948240165763
 20
-113.3610391969202
 10
80.83727075887055
 20
-113.3660345853738
 10
80.74098034005782
 20
-113.5934108874003
 10
80.73357338476453
 20
-113.6106363648265
 10
80.66191539867133
 20
-113.7589477254665
 10
80.70136174197744
 20
-113.7687662475995
 10
80.73598495160421
 20
-113.7785847697324
 10
80.73598495160421
 20
-113.8058010240659
 10
80.73598495160421
 20
-113.8330172783994
 10
80.71376408572434
 20
-113.8454196221463
 10
80.68413626455119
 20
-113.8552381442793
 10
80.68413626455119
 20
-113.8552381442793
 10
80.68413626455119
 20
-115.4883856590619
 10
80.68413626455119
 20
-115.4883856590619
 97
        0
 97
        0
 92
        1
 93
        1
 72
     4
 94
        3
 73
     0
 74
     1
 95
       56
 96
       52
 40
0.0
 40
0.0
 40
0.0
 40
0.0
 40
1.0
 40
1.0
 40
1.0
 40
2.0
 40
2.0
 40
2.0
 40
3.0
 40
3.0
 40
3.0
 40
4.0
 40
4.0
 40
4.0
 40
5.0
 40
5.0
 40
5.0
 40
6.0
 40
6.0
 40
6.0
 40
7.0
 40
7.0
 40
7.0
 40
8.0
 40
8.0
 40
8.0
 40
9.0
 40
9.0
 40
9.0
 40
10.0
 40
10.0
 40
10.0
 40
11.0
 40
11.0
 40
11.0
 40
12.0
 40
12.0
 40
12.0
 40
13.0
 40
13.0
 40
13.0
 40
14.0
 40
14.0
 40
14.0
 40
15.0
 40
15.0
 40
15.0
 40
16.0
 40
16.0
 40
16.0
 40
17.0
 40
17.0
 40
17.0
 40
17.0
 10
82.29265134661433
 20
-113.7489569485593
 10
82.29265134661433
 20
-113.7489569485593
 10
82.29265134661433
 20
-114.1072468790253
 10
82.29265134661433
 20
-114.1072468790253
 10
82.29265134661433
 20
-114.1072468790253
 10
82.06027965613424
 20
-114.1072468790253
 10
82.06027965613424
 20
-114.1072468790253
 10
82.06027965613424
 20
-114.1072468790253
 10
82.06027965613424
 20
-115.1326795502099
 10
82.06027965613424
 20
-115.1326795502099
 10
82.06027965613424
 20
-115.4167276729687
 10
82.01342635753484
 20
-115.4809787037687
 10
81.49700654429589
 20
-115.4859740922223
 10
81.47978106686965
 20
-115.3574720306224
 10
81.42776012504237
 20
-115.2117444915964
 10
81.33388127306931
 20
-115.0856539968362
 10
81.38831378173626
 20
-115.0980563405831
 10
81.48219263370932
 20
-115.1178656396233
 10
81.55626218664219
 20
-115.1178656396233
 10
81.6723619044951
 20
-115.1178656396233
 10
81.67735729294871
 20
-115.0856539968362
 10
81.67735729294871
 20
-115.0015936669961
 10
81.67735729294871
 20
-115.0015936669961
 10
81.67735729294871
 20
-114.1072468790253
 10
81.67735729294871
 20
-114.1072468790253
 10
81.67735729294871
 20
-114.1072468790253
 10
80.77301972807064
 20
-114.1072468790253
 10
80.77301972807064
 20
-114.1072468790253
 10
80.77301972807064
 20
-114.1072468790253
 10
80.77301972807064
 20
-113.7489569485593
 10
80.77301972807064
 20
-113.7489569485593
 10
80.77301972807064
 20
-113.7489569485593
 10
81.67735729294871
 20
-113.7489569485593
 10
81.67735729294871
 20
-113.7489569485593
 10
81.67735729294871
 20
-113.7489569485593
 10
81.67735729294871
 20
-113.1955023588539
 10
81.67735729294871
 20
-113.1955023588539
 10
81.67735729294871
 20
-113.1955023588539
 10
82.06027965613424
 20
-113.2103162694405
 10
82.06027965613424
 20
-113.2103162694405
 10
82.08990747730739
 20
-113.2103162694405
 10
82.12711450854809
 20
-113.2129000910544
 10
82.12711450854809
 20
-113.2425279122276
 10
82.12711450854809
 20
-113.2647487781074
 10
82.09731443260067
 20
-113.279562688694
 10
82.06027965613424
 20
-113.2943765992806
 10
82.06027965613424
 20
-113.2943765992806
 10
82.06027965613424
 20
-113.7489569485593
 10
82.06027965613424
 20
-113.7489569485593
 10
82.06027965613424
 20
-113.7489569485593
 10
82.29265134661433
 20
-113.7489569485593
 10
82.29265134661433
 20
-113.7489569485593
 97
        0
 97
        0
 92
        1
 93
        1
 72
     4
 94
        3
 73
     0
 74
     1
 95
       17
 96
       13
 40
0.0
 40
0.0
 40
0.0
 40
0.0
 40
1.0
 40
1.0
 40
1.0
 40
2.0
 40
2.0
 40
2.0
 40
3.0
 40
3.0
 40
3.0
 40
4.0
 40
4.0
 40
4.0
 40
4.0
 10
81.18315834558963
 20
-114.2381605074648
 10
81.36109752740279
 20
-114.4507228989047
 10
81.46737872312275
 20
-114.6360690360111
 10
81.52422279862937
 20
-114.7966104856238
 10
81.48718802216293
 20
-114.81383596305
 10
81.31906736248274
 20
-114.8929009044365
 10
81.18315834558963
 20
-114.9793728011163
 10
81.12390270324333
 20
-114.8164197846639
 10
80.9509589098838
 20
-114.5197970633839
 10
80.84467771416384
 20
-114.406281167145
 10
80.84467771416384
 20
-114.406281167145
 10
81.18315834558963
 20
-114.2381605074648
 10
81.18315834558963
 20
-114.2381605074648
 97
        0
 97
        0
 75
     2
 76
     1
 98
        0
  0
SPLINE
  5
4B
330
41
100
AcDbEntity
  8
_U+30EC_U+30A4_U+30E4_U+30FC 1
370
     0
100
AcDbSpline
210
0.0
220
0.0
230
1.0
 70
    11
 71
     3
 72
    74
 73
    70
 74
     0
 42
0.0000000001
 43
0.0000000001
 12
1.0
 22
0.0
 32
0.0
 13
1.0
 23
0.0
 33
0.0
 40
0.0
 40
0.0
 40
0.0
 40
0.0
 40
1.0
 40
1.0
 40
1.0
 40
2.0
 40
2.0
 40
2.0
 40
3.0
 40
3.0
 40
3.0
 40
4.0
 40
4.0
 40
4.0
 40
5.0
 40
5.0
 40
5.0
 40
6.0
 40
6.0
 40
6.0
 40
7.0
 40
7.0
 40
7.0
 40
8.0
 40
8.0
 40
8.0
 40
9.0
 40
9.0
 40
9.0
 40
10.0
 40
10.0
 40
10.0
 40
11.0
 40
11.0
 40
11.0
 40
12.0
 40
12.0
 40
12.0
 40
13.0
 40
13.0
 40
13.0
 40
14.0
 40
14.0
 40
14.0
 40
15.0
 40
15.0
 40
15.0
 40
16.0
 40
16.0
 40
16.0
 40
17.0
 40
17.0
 40
17.0
 40
18.0
 40
18.0
 40
18.0
 40
19.0
 40
19.0
 40
19.0
 40
20.0
 40
20.0
 40
20.0
 40
21.0
 40
21.0
 40
21.0
 40
22.0
 40
22.0
 40
22.0
 40
23.0
 40
23.0
 40
23.0
 40
23.0
 10
83.40317787628463
 20
-114.0948445352784
 30
0.0
 10
83.57612166964417
 20
-114.1913072088654
 30
0.0
 10
83.68498668697806
 20
-114.257969806505
 30
0.0
 10
83.79109562792375
 20
-114.3320393594378
 30
0.0
 10
83.90237221209733
 20
-114.1566839992386
 30
0.0
 10
83.94922551069672
 20
-114.0281819376388
 30
0.0
 10
83.97403019819052
 20
-113.9565239515456
 30
0.0
 10
83.97403019819052
 20
-113.9565239515456
 30
0.0
 10
83.38836396569805
 20
-113.9565239515456
 30
0.0
 10
83.38836396569805
 20
-113.9565239515456
 30
0.0
 10
83.23764103821837
 20
-114.1590955660783
 30
0.0
 10
83.06969263331244
 20
-114.3542602253177
 30
0.0
 10
82.86953258561942
 20
-114.509978541251
 30
0.0
 10
82.70899113600679
 20
-114.361667180611
 30
0.0
 10
82.6941772254202
 20
-114.3468532700244
 30
0.0
 10
82.55826820852711
 20
-114.2505628512117
 30
0.0
 10
82.91156275053947
 20
-114.0133680270522
 30
0.0
 10
83.1759738290324
 20
-113.6600734850398
 30
0.0
 10
83.36373153297852
 20
-113.2129000910544
 30
0.0
 10
83.36373153297852
 20
-113.2129000910544
 30
0.0
 10
83.7490654630037
 20
-113.3388183310403
 30
0.0
 10
83.7490654630037
 20
-113.3388183310403
 30
0.0
 10
83.77628171733718
 20
-113.3486368531733
 30
0.0
 10
83.79367944953769
 20
-113.3536322416269
 30
0.0
 10
83.79367944953769
 20
-113.3734415406671
 30
0.0
 10
83.79367944953769
 20
-113.3956624065469
 30
0.0
 10
83.7688747620439
 20
-113.4006577950005
 30
0.0
 10
83.73425155241713
 20
-113.4030693618402
 30
0.0
 10
83.68980982065742
 20
-113.4845458700664
 30
0.0
 10
83.66018199948427
 20
-113.5389783787333
 30
0.0
 10
83.61574026772455
 20
-113.6130479316662
 30
0.0
 10
83.61574026772455
 20
-113.6130479316662
 30
0.0
 10
84.15438094684335
 20
-113.6130479316662
 30
0.0
 10
84.15438094684335
 20
-113.6130479316662
 30
0.0
 10
84.24584823197674
 20
-113.6130479316662
 30
0.0
 10
84.28529457528285
 20
-113.6008178426935
 30
0.0
 10
84.32491317336321
 20
-113.5884154989466
 30
0.0
 10
84.32491317336321
 20
-113.5884154989466
 30
0.0
 10
84.50026853356243
 20
-113.7391384264263
 30
0.0
 10
84.50026853356243
 20
-113.7391384264263
 30
0.0
 10
84.46564532393568
 20
-113.8058010240659
 30
0.0
 10
84.463233757096
 20
-113.8082125909056
 30
0.0
 10
84.44841984650942
 20
-113.8428358005324
 30
0.0
 10
84.29028996373646
 20
-114.2183512084246
 30
0.0
 10
84.23103432139017
 20
-114.3592556137713
 30
0.0
 10
84.09994843817641
 20
-114.561827228304
 30
0.0
 10
84.23844127668345
 20
-114.6829223346105
 30
0.0
 10
84.28288300844318
 20
-114.7447617985708
 30
0.0
 10
84.314922396456
 20
-114.7916150971702
 30
0.0
 10
84.2482597988164
 20
-114.8732638601706
 30
0.0
 10
84.11734617037692
 20
-115.0536146088234
 30
0.0
 10
84.07531600545687
 20
-115.1178656396233
 30
0.0
 10
84.02088349678992
 20
-115.0436238319162
 30
0.0
 10
83.96162785444362
 20
-114.9695542789833
 30
0.0
 10
83.86275361401695
 20
-114.8732638601706
 30
0.0
 10
83.53167993788445
 20
-115.2339653574762
 30
0.0
 10
83.16115991844582
 20
-115.3895114186353
 30
0.0
 10
82.95600448229919
 20
-115.4685763600218
 30
0.0
 10
82.884346496206
 20
-115.3476535084895
 30
0.0
 10
82.78805607739326
 20
-115.2339653574762
 30
0.0
 10
82.68677027012693
 20
-115.1375026838892
 30
0.0
 10
83.01284855780582
 20
-115.0510307872095
 30
0.0
 10
83.39335935415167
 20
-114.8164197846639
 30
0.0
 10
83.56871471435088
 20
-114.6236666922642
 30
0.0
 10
83.40576169789857
 20
-114.5025715859577
 30
0.0
 10
83.26244572571217
 20
-114.4160996892779
 30
0.0
 10
83.16856687373911
 20
-114.361667180611
 30
0.0
 10
83.16856687373911
 20
-114.361667180611
 30
0.0
 10
83.40317787628463
 20
-114.0948445352784
 30
0.0
 10
83.40317787628463
 20
-114.0948445352784
 30
0.0
  0
HATCH
  5
4C
330
41
100
AcDbEntity
  8
_U+30EC_U+30A4_U+30E4_U+30FC 1
 62
   179
420
  2234388
100
AcDbHatch
 10
0.0
 20
0.0
 30
0.0
210
0.0
220
0.0
230
1.0
  2
SOLID
 70
     1
 71
     0
 91
        1
 92
        1
 93
        1
 72
     4
 94
        3
 73
     0
 74
     1
 95
       74
 96
       70
 40
0.0
 40
0.0
 40
0.0
 40
0.0
 40
1.0
 40
1.0
 40
1.0
 40
2.0
 40
2.0
 40
2.0
 40
3.0
 40
3.0
 40
3.0
 40
4.0
 40
4.0
 40
4.0
 40
5.0
 40
5.0
 40
5.0
 40
6.0
 40
6.0
 40
6.0
 40
7.0
 40
7.0
 40
7.0
 40
8.0
 40
8.0
 40
8.0
 40
9.0
 40
9.0
 40
9.0
 40
10.0
 40
10.0
 40
10.0
 40
11.0
 40
11.0
 40
11.0
 40
12.0
 40
12.0
 40
12.0
 40
13.0
 40
13.0
 40
13.0
 40
14.0
 40
14.0
 40
14.0
 40
15.0
 40
15.0
 40
15.0
 40
16.0
 40
16.0
 40
16.0
 40
17.0
 40
17.0
 40
17.0
 40
18.0
 40
18.0
 40
18.0
 40
19.0
 40
19.0
 40
19.0
 40
20.0
 40
20.0
 40
20.0
 40
21.0
 40
21.0
 40
21.0
 40
22.0
 40
22.0
 40
22.0
 40
23.0
 40
23.0
 40
23.0
 40
23.0
 10
83.40317787628463
 20
-114.0948445352784
 10
83.57612166964417
 20
-114.1913072088654
 10
83.68498668697806
 20
-114.257969806505
 10
83.79109562792375
 20
-114.3320393594378
 10
83.90237221209733
 20
-114.1566839992386
 10
83.94922551069672
 20
-114.0281819376388
 10
83.97403019819052
 20
-113.9565239515456
 10
83.97403019819052
 20
-113.9565239515456
 10
83.38836396569805
 20
-113.9565239515456
 10
83.38836396569805
 20
-113.9565239515456
 10
83.23764103821837
 20
-114.1590955660783
 10
83.06969263331244
 20
-114.3542602253177
 10
82.86953258561942
 20
-114.509978541251
 10
82.70899113600679
 20
-114.361667180611
 10
82.6941772254202
 20
-114.3468532700244
 10
82.55826820852711
 20
-114.2505628512117
 10
82.91156275053947
 20
-114.0133680270522
 10
83.1759738290324
 20
-113.6600734850398
 10
83.36373153297852
 20
-113.2129000910544
 10
83.36373153297852
 20
-113.2129000910544
 10
83.7490654630037
 20
-113.3388183310403
 10
83.7490654630037
 20
-113.3388183310403
 10
83.77628171733718
 20
-113.3486368531733
 10
83.79367944953769
 20
-113.3536322416269
 10
83.79367944953769
 20
-113.3734415406671
 10
83.79367944953769
 20
-113.3956624065469
 10
83.7688747620439
 20
-113.4006577950005
 10
83.73425155241713
 20
-113.4030693618402
 10
83.68980982065742
 20
-113.4845458700664
 10
83.66018199948427
 20
-113.5389783787333
 10
83.61574026772455
 20
-113.6130479316662
 10
83.61574026772455
 20
-113.6130479316662
 10
84.15438094684335
 20
-113.6130479316662
 10
84.15438094684335
 20
-113.6130479316662
 10
84.24584823197674
 20
-113.6130479316662
 10
84.28529457528285
 20
-113.6008178426935
 10
84.32491317336321
 20
-113.5884154989466
 10
84.32491317336321
 20
-113.5884154989466
 10
84.50026853356243
 20
-113.7391384264263
 10
84.50026853356243
 20
-113.7391384264263
 10
84.46564532393568
 20
-113.8058010240659
 10
84.463233757096
 20
-113.8082125909056
 10
84.44841984650942
 20
-113.8428358005324
 10
84.29028996373646
 20
-114.2183512084246
 10
84.23103432139017
 20
-114.3592556137713
 10
84.09994843817641
 20
-114.561827228304
 10
84.23844127668345
 20
-114.6829223346105
 10
84.28288300844318
 20
-114.7447617985708
 10
84.314922396456
 20
-114.7916150971702
 10
84.2482597988164
 20
-114.8732638601706
 10
84.11734617037692
 20
-115.0536146088234
 10
84.07531600545687
 20
-115.1178656396233
 10
84.02088349678992
 20
-115.0436238319162
 10
83.96162785444362
 20
-114.9695542789833
 10
83.86275361401695
 20
-114.8732638601706
 10
83.53167993788445
 20
-115.2339653574762
 10
83.16115991844582
 20
-115.3895114186353
 10
82.95600448229919
 20
-115.4685763600218
 10
82.884346496206
 20
-115.3476535084895
 10
82.78805607739326
 20
-115.2339653574762
 10
82.68677027012693
 20
-115.1375026838892
 10
83.01284855780582
 20
-115.0510307872095
 10
83.39335935415167
 20
-114.8164197846639
 10
83.56871471435088
 20
-114.6236666922642
 10
83.40576169789857
 20
-114.5025715859577
 10
83.26244572571217
 20
-114.4160996892779
 10
83.16856687373911
 20
-114.361667180611
 10
83.16856687373911
 20
-114.361667180611
 10
83.40317787628463
 20
-114.0948445352784
 10
83.40317787628463
 20
-114.0948445352784
 97
        0
 97
        0
 75
     2
 76
     1
 98
        0
  0
SPLINE
  5
4D
330
41
100
AcDbEntity
  8
_U+30EC_U+30A4_U+30E4_U+30FC 1
370
     0
100
AcDbSpline
210
0.0
220
0.0
230
1.0
 70
    11
 71
     3
 72
    38
 73
    34
 74
     0
 42
0.0000000001
 43
0.0000000001
 12
1.0
 22
0.0
 32
0.0
 13
1.0
 23
0.0
 33
0.0
 40
0.0
 40
0.0
 40
0.0
 40
0.0
 40
1.0
 40
1.0
 40
1.0
 40
2.0
 40
2.0
 40
2.0
 40
3.0
 40
3.0
 40
3.0
 40
4.0
 40
4.0
 40
4.0
 40
5.0
 40
5.0
 40
5.0
 40
6.0
 40
6.0
 40
6.0
 40
7.0
 40
7.0
 40
7.0
 40
8.0
 40
8.0
 40
8.0
 40
9.0
 40
9.0
 40
9.0
 40
10.0
 40
10.0
 40
10.0
 40
11.0
 40
11.0
 40
11.0
 40
11.0
 10
86.08277314471195
 20
-115.4341254051693
 30
0.0
 10
86.08277314471195
 20
-115.4341254051693
 30
0.0
 10
85.65782061660639
 20
-115.4341254051693
 30
0.0
 10
85.65782061660639
 20
-115.4341254051693
 30
0.0
 10
85.65782061660639
 20
-115.4341254051693
 30
0.0
 10
85.65782061660639
 20
-114.309818493558
 30
0.0
 10
85.65782061660639
 20
-114.309818493558
 30
0.0
 10
85.43785126987318
 20
-114.4433159436114
 30
0.0
 10
85.21305878946063
 20
-114.5668226167576
 30
0.0
 10
84.9734523984615
 20
-114.6607014687307
 30
0.0
 10
84.9017944123683
 20
-114.5247924518376
 30
0.0
 10
84.79051782819474
 20
-114.4012857786913
 30
0.0
 10
84.67682967718149
 20
-114.3074069267183
 30
0.0
 10
85.618202018526
 20
-114.0405842813857
 30
0.0
 10
86.2088636394721
 20
-113.3684461522135
 30
0.0
 10
86.3594143121775
 20
-113.1756930598137
 30
0.0
 10
86.3594143121775
 20
-113.1756930598137
 30
0.0
 10
86.68807642147034
 20
-113.4352810046273
 30
0.0
 10
86.68807642147034
 20
-113.4352810046273
 30
0.0
 10
86.70289033205692
 20
-113.4450995267603
 30
0.0
 10
86.71770424264349
 20
-113.4599134373468
 30
0.0
 10
86.71770424264349
 20
-113.4821343032267
 30
0.0
 10
86.71770424264349
 20
-113.5043551691066
 30
0.0
 10
86.69806719837757
 20
-113.5141736912395
 30
0.0
 10
86.67825789933738
 20
-113.5141736912395
 30
0.0
 10
86.66585555559048
 20
-113.5141736912395
 30
0.0
 10
86.65603703345752
 20
-113.5141736912395
 30
0.0
 10
86.62882077912406
 20
-113.5067667359462
 30
0.0
 10
86.45346541892484
 20
-113.7169175605465
 30
0.0
 10
86.09758705529852
 20
-114.0009656833053
 30
0.0
 10
86.08277314471195
 20
-114.0133680270522
 30
0.0
 10
86.08277314471195
 20
-114.0133680270522
 30
0.0
 10
86.08277314471195
 20
-115.4341254051693
 30
0.0
 10
86.08277314471195
 20
-115.4341254051693
 30
0.0
  0
HATCH
  5
4E
330
41
100
AcDbEntity
  8
_U+30EC_U+30A4_U+30E4_U+30FC 1
 62
   179
420
  2234388
100
AcDbHatch
 10
0.0
 20
0.0
 30
0.0
210
0.0
220
0.0
230
1.0
  2
SOLID
 70
     1
 71
     0
 91
        1
 92
        1
 93
        1
 72
     4
 94
        3
 73
     0
 74
     1
 95
       38
 96
       34
 40
0.0
 40
0.0
 40
0.0
 40
0.0
 40
1.0
 40
1.0
 40
1.0
 40
2.0
 40
2.0
 40
2.0
 40
3.0
 40
3.0
 40
3.0
 40
4.0
 40
4.0
 40
4.0
 40
5.0
 40
5.0
 40
5.0
 40
6.0
 40
6.0
 40
6.0
 40
7.0
 40
7.0
 40
7.0
 40
8.0
 40
8.0
 40
8.0
 40
9.0
 40
9.0
 40
9.0
 40
10.0
 40
10.0
 40
10.0
 40
11.0
 40
11.0
 40
11.0
 40
11.0
 10
86.08277314471195
 20
-115.4341254051693
 10
86.08277314471195
 20
-115.4341254051693
 10
85.65782061660639
 20
-115.4341254051693
 10
85.65782061660639
 20
-115.4341254051693
 10
85.65782061660639
 20
-115.4341254051693
 10
85.65782061660639
 20
-114.309818493558
 10
85.65782061660639
 20
-114.309818493558
 10
85.43785126987318
 20
-114.4433159436114
 10
85.21305878946063
 20
-114.5668226167576
 10
84.9734523984615
 20
-114.6607014687307
 10
84.9017944123683
 20
-114.5247924518376
 10
84.79051782819474
 20
-114.4012857786913
 10
84.67682967718149
 20
-114.3074069267183
 10
85.618202018526
 20
-114.0405842813857
 10
86.2088636394721
 20
-113.3684461522135
 10
86.3594143121775
 20
-113.1756930598137
 10
86.3594143121775
 20
-113.1756930598137
 10
86.68807642147034
 20
-113.4352810046273
 10
86.68807642147034
 20
-113.4352810046273
 10
86.70289033205692
 20
-113.4450995267603
 10
86.71770424264349
 20
-113.4599134373468
 10
86.71770424264349
 20
-113.4821343032267
 10
86.71770424264349
 20
-113.5043551691066
 10
86.69806719837757
 20
-113.5141736912395
 10
86.67825789933738
 20
-113.5141736912395
 10
86.66585555559048
 20
-113.5141736912395
 10
86.65603703345752
 20
-113.5141736912395
 10
86.62882077912406
 20
-113.5067667359462
 10
86.45346541892484
 20
-113.7169175605465
 10
86.09758705529852
 20
-114.0009656833053
 10
86.08277314471195
 20
-114.0133680270522
 10
86.08277314471195
 20
-114.0133680270522
 10
86.08277314471195
 20
-115.4341254051693
 10
86.08277314471195
 20
-115.4341254051693
 97
        0
 97
        0
 75
     2
 76
     1
 98
        0
  0
SPLINE
  5
4F
330
41
100
AcDbEntity
  8
_U+30EC_U+30A4_U+30E4_U+30FC 1
370
     0
100
AcDbSpline
210
0.0
220
0.0
230
1.0
 70
    11
 71
     3
 72
    38
 73
    34
 74
     0
 42
0.0000000001
 43
0.0000000001
 12
1.0
 22
0.0
 32
0.0
 13
1.0
 23
0.0
 33
0.0
 40
0.0
 40
0.0
 40
0.0
 40
0.0
 40
1.0
 40
1.0
 40
1.0
 40
2.0
 40
2.0
 40
2.0
 40
3.0
 40
3.0
 40
3.0
 40
4.0
 40
4.0
 40
4.0
 40
5.0
 40
5.0
 40
5.0
 40
6.0
 40
6.0
 40
6.0
 40
7.0
 40
7.0
 40
7.0
 40
8.0
 40
8.0
 40
8.0
 40
9.0
 40
9.0
 40
9.0
 40
10.0
 40
10.0
 40
10.0
 40
11.0
 40
11.0
 40
11.0
 40
11.0
 10
88.83884953291182
 20
-113.5291598566004
 30
0.0
 10
88.91550290745863
 20
-113.5291598566004
 30
0.0
 10
88.93272838488488
 20
-113.5141736912395
 30
0.0
 10
88.95753307237868
 20
-113.4945366469736
 30
0.0
 10
88.95753307237868
 20
-113.4945366469736
 30
0.0
 10
89.20954180712471
 20
-113.6723035740125
 30
0.0
 10
89.20954180712471
 20
-113.6723035740125
 30
0.0
 10
89.14029538787118
 20
-113.7761732028928
 30
0.0
 10
89.12065834360526
 20
-113.8256103231061
 30
0.0
 10
89.05141192435174
 20
-114.0009656833053
 30
0.0
 10
88.858658831952
 20
-114.4975761975041
 30
0.0
 10
88.710347471312
 20
-114.7792127534233
 30
0.0
 10
88.43370630384644
 20
-115.0214029660363
 30
0.0
 10
88.37927379517949
 20
-115.06842851941
 30
0.0
 10
88.09522567242064
 20
-115.3130302988627
 30
0.0
 10
87.7615681746742
 20
-115.4563462710491
 30
0.0
 10
87.68009166644804
 20
-115.3104464772488
 30
0.0
 10
87.58862438131466
 20
-115.2191514468897
 30
0.0
 10
87.47993161875502
 20
-115.1300957285959
 30
0.0
 10
87.85561928142151
 20
-114.9917751448632
 30
0.0
 10
88.13966740418037
 20
-114.7669826644506
 30
0.0
 10
88.2607625104869
 20
-114.6360690360111
 30
0.0
 10
88.39667152738001
 20
-114.4877576753711
 30
0.0
 10
88.5868407981658
 20
-114.1839002535721
 30
0.0
 10
88.658498784259
 20
-113.8848659654524
 30
0.0
 10
88.658498784259
 20
-113.8848659654524
 30
0.0
 10
87.22551131716932
 20
-113.8848659654524
 30
0.0
 10
87.22551131716932
 20
-113.8848659654524
 30
0.0
 10
87.22551131716932
 20
-113.8848659654524
 30
0.0
 10
87.22551131716932
 20
-113.5291598566004
 30
0.0
 10
87.22551131716932
 20
-113.5291598566004
 30
0.0
 10
87.22551131716932
 20
-113.5291598566004
 30
0.0
 10
88.83884953291182
 20
-113.5291598566004
 30
0.0
 10
88.83884953291182
 20
-113.5291598566004
 30
0.0
  0
SPLINE
  5
50
330
41
100
AcDbEntity
  8
_U+30EC_U+30A4_U+30E4_U+30FC 1
370
     0
100
AcDbSpline
210
0.0
220
0.0
230
1.0
 70
    11
 71
     3
 72
    17
 73
    13
 74
     0
 42
0.0000000001
 43
0.0000000001
 12
1.0
 22
0.0
 32
0.0
 13
1.0
 23
0.0
 33
0.0
 40
0.0
 40
0.0
 40
0.0
 40
0.0
 40
1.0
 40
1.0
 40
1.0
 40
2.0
 40
2.0
 40
2.0
 40
3.0
 40
3.0
 40
3.0
 40
4.0
 40
4.0
 40
4.0
 40
4.0
 10
89.46654593032434
 20
-113.3610391969202
 30
0.0
 10
89.46654593032434
 20
-113.48954125852
 30
0.0
 10
89.36267630144405
 20
-113.5934108874003
 30
0.0
 10
89.23417423984424
 20
-113.5934108874003
 30
0.0
 10
89.10584443301869
 20
-113.5934108874003
 30
0.0
 10
89.0019748041384
 20
-113.48954125852
 30
0.0
 10
89.0019748041384
 20
-113.3610391969202
 30
0.0
 10
89.0019748041384
 20
-113.2301255684807
 30
0.0
 10
89.10584443301869
 20
-113.1288397612143
 30
0.0
 10
89.23417423984424
 20
-113.1288397612143
 30
0.0
 10
89.36026473460439
 20
-113.1288397612143
 30
0.0
 10
89.46654593032434
 20
-113.2301255684807
 30
0.0
 10
89.46654593032434
 20
-113.3610391969202
 30
0.0
  0
SPLINE
  5
51
330
41
100
AcDbEntity
  8
_U+30EC_U+30A4_U+30E4_U+30FC 1
370
     0
100
AcDbSpline
210
0.0
220
0.0
230
1.0
 70
    11
 71
     3
 72
    17
 73
    13
 74
     0
 42
0.0000000001
 43
0.0000000001
 12
1.0
 22
0.0
 32
0.0
 13
1.0
 23
0.0
 33
0.0
 40
0.0
 40
0.0
 40
0.0
 40
0.0
 40
1.0
 40
1.0
 40
1.0
 40
2.0
 40
2.0
 40
2.0
 40
3.0
 40
3.0
 40
3.0
 40
4.0
 40
4.0
 40
4.0
 40
4.0
 10
89.12548147728461
 20
-113.3610391969202
 30
0.0
 10
89.12548147728461
 20
-113.4202948392665
 30
0.0
 10
89.17250703065827
 20
-113.4697319594798
 30
0.0
 10
89.23417423984424
 20
-113.4697319594798
 30
0.0
 10
89.2936021369648
 20
-113.4697319594798
 30
0.0
 10
89.34286700240386
 20
-113.4202948392665
 30
0.0
 10
89.34286700240386
 20
-113.3610391969202
 30
0.0
 10
89.34286700240386
 20
-113.2993719877342
 30
0.0
 10
89.2936021369648
 20
-113.2523464343605
 30
0.0
 10
89.23417423984424
 20
-113.2523464343605
 30
0.0
 10
89.17491859749794
 20
-113.2523464343605
 30
0.0
 10
89.12548147728461
 20
-113.2993719877342
 30
0.0
 10
89.12548147728461
 20
-113.3610391969202
 30
0.0
  0
HATCH
  5
52
330
41
100
AcDbEntity
  8
_U+30EC_U+30A4_U+30E4_U+30FC 1
 62
   179
420
  2234388
100
AcDbHatch
 10
0.0
 20
0.0
 30
0.0
210
0.0
220
0.0
230
1.0
  2
SOLID
 70
     1
 71
     0
 91
        3
 92
        1
 93
        1
 72
     4
 94
        3
 73
     0
 74
     1
 95
       38
 96
       34
 40
0.0
 40
0.0
 40
0.0
 40
0.0
 40
1.0
 40
1.0
 40
1.0
 40
2.0
 40
2.0
 40
2.0
 40
3.0
 40
3.0
 40
3.0
 40
4.0
 40
4.0
 40
4.0
 40
5.0
 40
5.0
 40
5.0
 40
6.0
 40
6.0
 40
6.0
 40
7.0
 40
7.0
 40
7.0
 40
8.0
 40
8.0
 40
8.0
 40
9.0
 40
9.0
 40
9.0
 40
10.0
 40
10.0
 40
10.0
 40
11.0
 40
11.0
 40
11.0
 40
11.0
 10
88.83884953291182
 20
-113.5291598566004
 10
88.91550290745863
 20
-113.5291598566004
 10
88.93272838488488
 20
-113.5141736912395
 10
88.95753307237868
 20
-113.4945366469736
 10
88.95753307237868
 20
-113.4945366469736
 10
89.20954180712471
 20
-113.6723035740125
 10
89.20954180712471
 20
-113.6723035740125
 10
89.14029538787118
 20
-113.7761732028928
 10
89.12065834360526
 20
-113.8256103231061
 10
89.05141192435174
 20
-114.0009656833053
 10
88.858658831952
 20
-114.4975761975041
 10
88.710347471312
 20
-114.7792127534233
 10
88.43370630384644
 20
-115.0214029660363
 10
88.37927379517949
 20
-115.06842851941
 10
88.09522567242064
 20
-115.3130302988627
 10
87.7615681746742
 20
-115.4563462710491
 10
87.68009166644804
 20
-115.3104464772488
 10
87.58862438131466
 20
-115.2191514468897
 10
87.47993161875502
 20
-115.1300957285959
 10
87.85561928142151
 20
-114.9917751448632
 10
88.13966740418037
 20
-114.7669826644506
 10
88.2607625104869
 20
-114.6360690360111
 10
88.39667152738001
 20
-114.4877576753711
 10
88.5868407981658
 20
-114.1839002535721
 10
88.658498784259
 20
-113.8848659654524
 10
88.658498784259
 20
-113.8848659654524
 10
87.22551131716932
 20
-113.8848659654524
 10
87.22551131716932
 20
-113.8848659654524
 10
87.22551131716932
 20
-113.8848659654524
 10
87.22551131716932
 20
-113.5291598566004
 10
87.22551131716932
 20
-113.5291598566004
 10
87.22551131716932
 20
-113.5291598566004
 10
88.83884953291182
 20
-113.5291598566004
 10
88.83884953291182
 20
-113.5291598566004
 97
        0
 97
        0
 92
        1
 93
        1
 72
     4
 94
        3
 73
     0
 74
     1
 95
       17
 96
       13
 40
0.0
 40
0.0
 40
0.0
 40
0.0
 40
1.0
 40
1.0
 40
1.0
 40
2.0
 40
2.0
 40
2.0
 40
3.0
 40
3.0
 40
3.0
 40
4.0
 40
4.0
 40
4.0
 40
4.0
 10
89.46654593032434
 20
-113.3610391969202
 10
89.46654593032434
 20
-113.48954125852
 10
89.36267630144405
 20
-113.5934108874003
 10
89.23417423984424
 20
-113.5934108874003
 10
89.10584443301869
 20
-113.5934108874003
 10
89.0019748041384
 20
-113.48954125852
 10
89.0019748041384
 20
-113.3610391969202
 10
89.0019748041384
 20
-113.2301255684807
 10
89.10584443301869
 20
-113.1288397612143
 10
89.23417423984424
 20
-113.1288397612143
 10
89.36026473460439
 20
-113.1288397612143
 10
89.46654593032434
 20
-113.2301255684807
 10
89.46654593032434
 20
-113.3610391969202
 97
        0
 97
        0
 92
        1
 93
        1
 72
     4
 94
        3
 73
     0
 74
     1
 95
       17
 96
       13
 40
0.0
 40
0.0
 40
0.0
 40
0.0
 40
1.0
 40
1.0
 40
1.0
 40
2.0
 40
2.0
 40
2.0
 40
3.0
 40
3.0
 40
3.0
 40
4.0
 40
4.0
 40
4.0
 40
4.0
 10
89.12548147728461
 20
-113.3610391969202
 10
89.12548147728461
 20
-113.4202948392665
 10
89.17250703065827
 20
-113.4697319594798
 10
89.23417423984424
 20
-113.4697319594798
 10
89.2936021369648
 20
-113.4697319594798
 10
89.34286700240386
 20
-113.4202948392665
 10
89.34286700240386
 20
-113.3610391969202
 10
89.34286700240386
 20
-113.2993719877342
 10
89.2936021369648
 20
-113.2523464343605
 10
89.23417423984424
 20
-113.2523464343605
 10
89.17491859749794
 20
-113.2523464343605
 10
89.12548147728461
 20
-113.2993719877342
 10
89.12548147728461
 20
-113.3610391969202
 97
        0
 97
        0
 75
     2
 76
     1
 98
        0
  0
ENDBLK
  5
44
330
41
100
AcDbEntity
  8
0
100
AcDbBlockEnd
  0
BLOCK
  5
EC
330
EA
100
AcDbEntity
  8
0
100
AcDbBlockBegin
  2
block 3
 70
     0
 10
0.0
 20
0.0
 30
0.0
  3
block 3
  1

  0
SPLINE
  5
EE
330
EA
100
AcDbEntity
  8
_U+30EC_U+30A4_U+30E4_U+30FC 1
370
     0
100
AcDbSpline
210
0.0
220
0.0
230
1.0
 70
    11
 71
     3
 72
    29
 73
    25
 74
     0
 42
0.0000000001
 43
0.0000000001
 12
1.0
 22
0.0
 32
0.0
 13
1.0
 23
0.0
 33
0.0
 40
0.0
 40
0.0
 40
0.0
 40
0.0
 40
1.0
 40
1.0
 40
1.0
 40
2.0
 40
2.0
 40
2.0
 40
3.0
 40
3.0
 40
3.0
 40
4.0
 40
4.0
 40
4.0
 40
5.0
 40
5.0
 40
5.0
 40
6.0
 40
6.0
 40
6.0
 40
7.0
 40
7.0
 40
7.0
 40
8.0
 40
8.0
 40
8.0
 40
8.0
 10
96.99631887766064
 20
-141.719859448077
 30
0.0
 10
96.72966848710232
 20
-141.719859448077
 30
0.0
 10
96.4757649498394
 20
-141.5824001382155
 30
0.0
 10
96.4757649498394
 20
-141.2334119655597
 30
0.0
 10
96.4757649498394
 20
-140.9774413710057
 30
0.0
 10
96.61735837428317
 20
-140.8820122260642
 30
0.0
 10
96.72312280568033
 20
-140.8206895264268
 30
0.0
 10
96.59841034911429
 20
-140.7614338840805
 30
0.0
 10
96.52227373889026
 20
-140.6474012235187
 30
0.0
 10
96.52227373889026
 20
-140.4865152643575
 30
0.0
 10
96.52227373889026
 20
-140.2115966446346
 30
0.0
 10
96.72105574838919
 20
-140.0762043920643
 30
0.0
 10
96.99631887766064
 20
-140.0762043920643
 30
0.0
 10
97.27950572654818
 20
-140.0762043920643
 30
0.0
 10
97.4700195068825
 20
-140.2198648737992
 30
0.0
 10
97.4700195068825
 20
-140.4865152643575
 30
0.0
 10
97.4700195068825
 20
-140.6474012235187
 30
0.0
 10
97.39181583936733
 20
-140.7614338840805
 30
0.0
 10
97.26710338280128
 20
-140.8206895264268
 30
0.0
 10
97.3556423367722
 20
-140.8716769396085
 30
0.0
 10
97.51446123864223
 20
-140.9667615750014
 30
0.0
 10
97.51446123864223
 20
-141.2289333414289
 30
0.0
 10
97.51446123864223
 20
-141.6034152206755
 30
0.0
 10
97.23506399478846
 20
-141.719859448077
 30
0.0
 10
96.99631887766064
 20
-141.719859448077
 30
0.0
  0
SPLINE
  5
EF
330
EA
100
AcDbEntity
  8
_U+30EC_U+30A4_U+30E4_U+30FC 1
370
     0
100
AcDbSpline
210
0.0
220
0.0
230
1.0
 70
    11
 71
     3
 72
    17
 73
    13
 74
     0
 42
0.0000000001
 43
0.0000000001
 12
1.0
 22
0.0
 32
0.0
 13
1.0
 23
0.0
 33
0.0
 40
0.0
 40
0.0
 40
0.0
 40
0.0
 40
1.0
 40
1.0
 40
1.0
 40
2.0
 40
2.0
 40
2.0
 40
3.0
 40
3.0
 40
3.0
 40
4.0
 40
4.0
 40
4.0
 40
4.0
 10
96.99631887766064
 20
-140.9285210151151
 30
0.0
 10
96.8523138863772
 20
-140.9285210151151
 30
0.0
 10
96.70004066592917
 20
-141.0153374213434
 30
0.0
 10
96.70004066592917
 20
-141.2185980549731
 30
0.0
 10
96.70004066592917
 20
-141.4235812363455
 30
0.0
 10
96.82682017978635
 20
-141.5252115531604
 30
0.0
 10
96.99631887766064
 20
-141.5252115531604
 30
0.0
 10
97.18235403386414
 20
-141.5252115531604
 30
0.0
 10
97.2922525798436
 20
-141.4025661538855
 30
0.0
 10
97.2922525798436
 20
-141.2247992268466
 30
0.0
 10
97.2922525798436
 20
-141.002590568048
 30
0.0
 10
97.12929956339129
 20
-140.9285210151151
 30
0.0
 10
96.99631887766064
 20
-140.9285210151151
 30
0.0
  0
SPLINE
  5
F0
330
EA
100
AcDbEntity
  8
_U+30EC_U+30A4_U+30E4_U+30FC 1
370
     0
100
AcDbSpline
210
0.0
220
0.0
230
1.0
 70
    11
 71
     3
 72
    17
 73
    13
 74
     0
 42
0.0000000001
 43
0.0000000001
 12
1.0
 22
0.0
 32
0.0
 13
1.0
 23
0.0
 33
0.0
 40
0.0
 40
0.0
 40
0.0
 40
0.0
 40
1.0
 40
1.0
 40
1.0
 40
2.0
 40
2.0
 40
2.0
 40
3.0
 40
3.0
 40
3.0
 40
4.0
 40
4.0
 40
4.0
 40
4.0
 10
96.99631887766064
 20
-140.2684407201412
 30
0.0
 10
96.83129880391718
 20
-140.2684407201412
 30
0.0
 10
96.74654945498003
 20
-140.3638698650826
 30
0.0
 10
96.74654945498003
 20
-140.499262117653
 30
0.0
 10
96.74654945498003
 20
-140.6219075169279
 30
0.0
 10
96.81855195062175
 20
-140.7404188016205
 30
0.0
 10
96.99631887766064
 20
-140.7404188016205
 30
0.0
 10
97.17374129515102
 20
-140.7404188016205
 30
0.0
 10
97.24574379079273
 20
-140.6219075169279
 30
0.0
 10
97.24574379079273
 20
-140.499262117653
 30
0.0
 10
97.24574379079273
 20
-140.3638698650826
 30
0.0
 10
97.15892738456444
 20
-140.2684407201412
 30
0.0
 10
96.99631887766064
 20
-140.2684407201412
 30
0.0
  0
HATCH
  5
F1
330
EA
100
AcDbEntity
  8
_U+30EC_U+30A4_U+30E4_U+30FC 1
 62
   179
420
  2234388
100
AcDbHatch
 10
0.0
 20
0.0
 30
0.0
210
0.0
220
0.0
230
1.0
  2
SOLID
 70
     1
 71
     0
 91
        3
 92
        1
 93
        1
 72
     4
 94
        3
 73
     0
 74
     1
 95
       29
 96
       25
 40
0.0
 40
0.0
 40
0.0
 40
0.0
 40
1.0
 40
1.0
 40
1.0
 40
2.0
 40
2.0
 40
2.0
 40
3.0
 40
3.0
 40
3.0
 40
4.0
 40
4.0
 40
4.0
 40
5.0
 40
5.0
 40
5.0
 40
6.0
 40
6.0
 40
6.0
 40
7.0
 40
7.0
 40
7.0
 40
8.0
 40
8.0
 40
8.0
 40
8.0
 10
96.99631887766064
 20
-141.719859448077
 10
96.72966848710232
 20
-141.719859448077
 10
96.4757649498394
 20
-141.5824001382155
 10
96.4757649498394
 20
-141.2334119655597
 10
96.4757649498394
 20
-140.9774413710057
 10
96.61735837428317
 20
-140.8820122260642
 10
96.72312280568033
 20
-140.8206895264268
 10
96.59841034911429
 20
-140.7614338840805
 10
96.52227373889026
 20
-140.6474012235187
 10
96.52227373889026
 20
-140.4865152643575
 10
96.52227373889026
 20
-140.2115966446346
 10
96.72105574838919
 20
-140.0762043920643
 10
96.99631887766064
 20
-140.0762043920643
 10
97.27950572654818
 20
-140.0762043920643
 10
97.4700195068825
 20
-140.2198648737992
 10
97.4700195068825
 20
-140.4865152643575
 10
97.4700195068825
 20
-140.6474012235187
 10
97.39181583936733
 20
-140.7614338840805
 10
97.26710338280128
 20
-140.8206895264268
 10
97.3556423367722
 20
-140.8716769396085
 10
97.51446123864223
 20
-140.9667615750014
 10
97.51446123864223
 20
-141.2289333414289
 10
97.51446123864223
 20
-141.6034152206755
 10
97.23506399478846
 20
-141.719859448077
 10
96.99631887766064
 20
-141.719859448077
 97
        0
 97
        0
 92
        1
 93
        1
 72
     4
 94
        3
 73
     0
 74
     1
 95
       17
 96
       13
 40
0.0
 40
0.0
 40
0.0
 40
0.0
 40
1.0
 40
1.0
 40
1.0
 40
2.0
 40
2.0
 40
2.0
 40
3.0
 40
3.0
 40
3.0
 40
4.0
 40
4.0
 40
4.0
 40
4.0
 10
96.99631887766064
 20
-140.9285210151151
 10
96.8523138863772
 20
-140.9285210151151
 10
96.70004066592917
 20
-141.0153374213434
 10
96.70004066592917
 20
-141.2185980549731
 10
96.70004066592917
 20
-141.4235812363455
 10
96.82682017978635
 20
-141.5252115531604
 10
96.99631887766064
 20
-141.5252115531604
 10
97.18235403386414
 20
-141.5252115531604
 10
97.2922525798436
 20
-141.4025661538855
 10
97.2922525798436
 20
-141.2247992268466
 10
97.2922525798436
 20
-141.002590568048
 10
97.12929956339129
 20
-140.9285210151151
 10
96.99631887766064
 20
-140.9285210151151
 97
        0
 97
        0
 92
        1
 93
        1
 72
     4
 94
        3
 73
     0
 74
     1
 95
       17
 96
       13
 40
0.0
 40
0.0
 40
0.0
 40
0.0
 40
1.0
 40
1.0
 40
1.0
 40
2.0
 40
2.0
 40
2.0
 40
3.0
 40
3.0
 40
3.0
 40
4.0
 40
4.0
 40
4.0
 40
4.0
 10
96.99631887766064
 20
-140.2684407201412
 10
96.83129880391718
 20
-140.2684407201412
 10
96.74654945498003
 20
-140.3638698650826
 10
96.74654945498003
 20
-140.499262117653
 10
96.74654945498003
 20
-140.6219075169279
 10
96.81855195062175
 20
-140.7404188016205
 10
96.99631887766064
 20
-140.7404188016205
 10
97.17374129515102
 20
-140.7404188016205
 10
97.24574379079273
 20
-140.6219075169279
 10
97.24574379079273
 20
-140.499262117653
 10
97.24574379079273
 20
-140.3638698650826
 10
97.15892738456444
 20
-140.2684407201412
 10
96.99631887766064
 20
-140.2684407201412
 97
        0
 97
        0
 75
     2
 76
     1
 98
        0
  0
ENDBLK
  5
ED
330
EA
100
AcDbEntity
  8
0
100
AcDbBlockEnd
  0
BLOCK
  5
103
330
101
100
AcDbEntity
  8
0
100
AcDbBlockBegin
  2
block 4
 70
     0
 10
0.0
 20
0.0
 30
0.0
  3
block 4
  1

  0
SPLINE
  5
105
330
101
100
AcDbEntity
  8
_U+30EC_U+30A4_U+30E4_U+30FC 1
370
     0
100
AcDbSpline
210
0.0
220
0.0
230
1.0
 70
    11
 71
     3
 72
    26
 73
    22
 74
     0
 42
0.0000000001
 43
0.0000000001
 12
1.0
 22
0.0
 32
0.0
 13
1.0
 23
0.0
 33
0.0
 40
0.0
 40
0.0
 40
0.0
 40
0.0
 40
1.0
 40
1.0
 40
1.0
 40
2.0
 40
2.0
 40
2.0
 40
3.0
 40
3.0
 40
3.0
 40
4.0
 40
4.0
 40
4.0
 40
5.0
 40
5.0
 40
5.0
 40
6.0
 40
6.0
 40
6.0
 40
7.0
 40
7.0
 40
7.0
 40
7.0
 10
96.35897621288943
 20
-120.1688923853224
 30
0.0
 10
96.35897621288943
 20
-120.1688923853224
 30
0.0
 10
96.35897621288943
 20
-119.0645670275255
 30
0.0
 10
96.35897621288943
 20
-119.0645670275255
 30
0.0
 10
96.35897621288943
 20
-119.0645670275255
 30
0.0
 10
96.02893606540249
 20
-119.0645670275255
 30
0.0
 10
96.02893606540249
 20
-119.0645670275255
 30
0.0
 10
96.02893606540249
 20
-119.0645670275255
 30
0.0
 10
96.02893606540249
 20
-118.916600176434
 30
0.0
 10
96.02893606540249
 20
-118.916600176434
 30
0.0
 10
96.36104327018057
 20
-118.9017862658475
 30
0.0
 10
96.40789656877998
 20
-118.7388332493952
 30
0.0
 10
96.4371798804046
 20
-118.6246283340591
 30
0.0
 10
96.4371798804046
 20
-118.6246283340591
 30
0.0
 10
96.5832519289792
 20
-118.6246283340591
 30
0.0
 10
96.5832519289792
 20
-118.6246283340591
 30
0.0
 10
96.5832519289792
 20
-118.6246283340591
 30
0.0
 10
96.5832519289792
 20
-120.1688923853224
 30
0.0
 10
96.5832519289792
 20
-120.1688923853224
 30
0.0
 10
96.5832519289792
 20
-120.1688923853224
 30
0.0
 10
96.35897621288943
 20
-120.1688923853224
 30
0.0
 10
96.35897621288943
 20
-120.1688923853224
 30
0.0
  0
HATCH
  5
106
330
101
100
AcDbEntity
  8
_U+30EC_U+30A4_U+30E4_U+30FC 1
 62
   179
420
  2234388
100
AcDbHatch
 10
0.0
 20
0.0
 30
0.0
210
0.0
220
0.0
230
1.0
  2
SOLID
 70
     1
 71
     0
 91
        1
 92
        1
 93
        1
 72
     4
 94
        3
 73
     0
 74
     1
 95
       26
 96
       22
 40
0.0
 40
0.0
 40
0.0
 40
0.0
 40
1.0
 40
1.0
 40
1.0
 40
2.0
 40
2.0
 40
2.0
 40
3.0
 40
3.0
 40
3.0
 40
4.0
 40
4.0
 40
4.0
 40
5.0
 40
5.0
 40
5.0
 40
6.0
 40
6.0
 40
6.0
 40
7.0
 40
7.0
 40
7.0
 40
7.0
 10
96.35897621288943
 20
-120.1688923853224
 10
96.35897621288943
 20
-120.1688923853224
 10
96.35897621288943
 20
-119.0645670275255
 10
96.35897621288943
 20
-119.0645670275255
 10
96.35897621288943
 20
-119.0645670275255
 10
96.02893606540249
 20
-119.0645670275255
 10
96.02893606540249
 20
-119.0645670275255
 10
96.02893606540249
 20
-119.0645670275255
 10
96.02893606540249
 20
-118.916600176434
 10
96.02893606540249
 20
-118.916600176434
 10
96.36104327018057
 20
-118.9017862658475
 10
96.40789656877998
 20
-118.7388332493952
 10
96.4371798804046
 20
-118.6246283340591
 10
96.4371798804046
 20
-118.6246283340591
 10
96.5832519289792
 20
-118.6246283340591
 10
96.5832519289792
 20
-118.6246283340591
 10
96.5832519289792
 20
-118.6246283340591
 10
96.5832519289792
 20
-120.1688923853224
 10
96.5832519289792
 20
-120.1688923853224
 10
96.5832519289792
 20
-120.1688923853224
 10
96.35897621288943
 20
-120.1688923853224
 10
96.35897621288943
 20
-120.1688923853224
 97
        0
 97
        0
 75
     2
 76
     1
 98
        0
  0
SPLINE
  5
107
330
101
100
AcDbEntity
  8
_U+30EC_U+30A4_U+30E4_U+30FC 1
370
     0
100
AcDbSpline
210
0.0
220
0.0
230
1.0
 70
    11
 71
     3
 72
    32
 73
    28
 74
     0
 42
0.0000000001
 43
0.0000000001
 12
1.0
 22
0.0
 32
0.0
 13
1.0
 23
0.0
 33
0.0
 40
0.0
 40
0.0
 40
0.0
 40
0.0
 40
1.0
 40
1.0
 40
1.0
 40
2.0
 40
2.0
 40
2.0
 40
3.0
 40
3.0
 40
3.0
 40
4.0
 40
4.0
 40
4.0
 40
5.0
 40
5.0
 40
5.0
 40
6.0
 40
6.0
 40
6.0
 40
7.0
 40
7.0
 40
7.0
 40
8.0
 40
8.0
 40
8.0
 40
9.0
 40
9.0
 40
9.0
 40
9.0
 10
97.58887530112362
 20
-120.2197075437298
 30
0.0
 10
97.0727999974332
 20
-120.2197075437298
 30
0.0
 10
97.06418725872007
 20
-119.6653916801531
 30
0.0
 10
97.06418725872007
 20
-119.4517957600676
 30
0.0
 10
97.06418725872007
 20
-119.2211466173301
 30
0.0
 10
97.08313528388894
 20
-118.5738131756517
 30
0.0
 10
97.62677135146137
 20
-118.5738131756517
 30
0.0
 10
97.80040416391796
 20
-118.5738131756517
 30
0.0
 10
98.04569496246775
 20
-118.643576359228
 30
0.0
 10
98.08393552235403
 20
-118.9758558187803
 30
0.0
 10
98.08393552235403
 20
-118.9758558187803
 30
0.0
 10
97.87033960226853
 20
-118.9758558187803
 30
0.0
 10
97.87033960226853
 20
-118.9758558187803
 30
0.0
 10
97.85965980626426
 20
-118.9186672337252
 30
0.0
 10
97.82796492779995
 20
-118.7705281278594
 30
0.0
 10
97.62470429417021
 20
-118.7705281278594
 30
0.0
 10
97.33290470656955
 20
-118.7705281278594
 30
0.0
 10
97.29259708939213
 20
-119.0985012180552
 30
0.0
 10
97.2798502360967
 20
-119.3036566542019
 30
0.0
 10
97.37321232374698
 20
-119.2254529866867
 30
0.0
 10
97.44073619525787
 20
-119.1661973443404
 30
0.0
 10
97.62263723687907
 20
-119.1661973443404
 30
0.0
 10
97.8024712212091
 20
-119.1661973443404
 30
0.0
 10
98.10495060481405
 20
-119.2740288330287
 30
0.0
 10
98.10495060481405
 20
-119.6802055907397
 30
0.0
 10
98.10495060481405
 20
-119.9997381969966
 30
0.0
 10
97.90616859531512
 20
-120.2197075437298
 30
0.0
 10
97.58887530112362
 20
-120.2197075437298
 30
0.0
  0
SPLINE
  5
108
330
101
100
AcDbEntity
  8
_U+30EC_U+30A4_U+30E4_U+30FC 1
370
     0
100
AcDbSpline
210
0.0
220
0.0
230
1.0
 70
    11
 71
     3
 72
    17
 73
    13
 74
     0
 42
0.0000000001
 43
0.0000000001
 12
1.0
 22
0.0
 32
0.0
 13
1.0
 23
0.0
 33
0.0
 40
0.0
 40
0.0
 40
0.0
 40
0.0
 40
1.0
 40
1.0
 40
1.0
 40
2.0
 40
2.0
 40
2.0
 40
3.0
 40
3.0
 40
3.0
 40
4.0
 40
4.0
 40
4.0
 40
4.0
 10
97.60575626900135
 20
-119.360845239257
 30
0.0
 10
97.34358450257383
 20
-119.360845239257
 30
0.0
 10
97.30534394268756
 20
-119.5723741020514
 30
0.0
 10
97.30534394268756
 20
-119.6886460746785
 30
0.0
 10
97.30534394268756
 20
-119.8643459444263
 30
0.0
 10
97.40042857808045
 20
-120.0271267061043
 30
0.0
 10
97.58474118654132
 20
-120.0271267061043
 30
0.0
 10
97.70531952852507
 20
-120.0271267061043
 30
0.0
 10
97.88067488872429
 20
-119.967871063758
 30
0.0
 10
97.88067488872429
 20
-119.6822726480308
 30
0.0
 10
97.88067488872429
 20
-119.4581691867153
 30
0.0
 10
97.74114852157166
 20
-119.360845239257
 30
0.0
 10
97.60575626900135
 20
-119.360845239257
 30
0.0
  0
HATCH
  5
109
330
101
100
AcDbEntity
  8
_U+30EC_U+30A4_U+30E4_U+30FC 1
 62
   179
420
  2234388
100
AcDbHatch
 10
0.0
 20
0.0
 30
0.0
210
0.0
220
0.0
230
1.0
  2
SOLID
 70
     1
 71
     0
 91
        2
 92
        1
 93
        1
 72
     4
 94
        3
 73
     0
 74
     1
 95
       32
 96
       28
 40
0.0
 40
0.0
 40
0.0
 40
0.0
 40
1.0
 40
1.0
 40
1.0
 40
2.0
 40
2.0
 40
2.0
 40
3.0
 40
3.0
 40
3.0
 40
4.0
 40
4.0
 40
4.0
 40
5.0
 40
5.0
 40
5.0
 40
6.0
 40
6.0
 40
6.0
 40
7.0
 40
7.0
 40
7.0
 40
8.0
 40
8.0
 40
8.0
 40
9.0
 40
9.0
 40
9.0
 40
9.0
 10
97.58887530112362
 20
-120.2197075437298
 10
97.0727999974332
 20
-120.2197075437298
 10
97.06418725872007
 20
-119.6653916801531
 10
97.06418725872007
 20
-119.4517957600676
 10
97.06418725872007
 20
-119.2211466173301
 10
97.08313528388894
 20
-118.5738131756517
 10
97.62677135146137
 20
-118.5738131756517
 10
97.80040416391796
 20
-118.5738131756517
 10
98.04569496246775
 20
-118.643576359228
 10
98.08393552235403
 20
-118.9758558187803
 10
98.08393552235403
 20
-118.9758558187803
 10
97.87033960226853
 20
-118.9758558187803
 10
97.87033960226853
 20
-118.9758558187803
 10
97.85965980626426
 20
-118.9186672337252
 10
97.82796492779995
 20
-118.7705281278594
 10
97.62470429417021
 20
-118.7705281278594
 10
97.33290470656955
 20
-118.7705281278594
 10
97.29259708939213
 20
-119.0985012180552
 10
97.2798502360967
 20
-119.3036566542019
 10
97.37321232374698
 20
-119.2254529866867
 10
97.44073619525787
 20
-119.1661973443404
 10
97.62263723687907
 20
-119.1661973443404
 10
97.8024712212091
 20
-119.1661973443404
 10
98.10495060481405
 20
-119.2740288330287
 10
98.10495060481405
 20
-119.6802055907397
 10
98.10495060481405
 20
-119.9997381969966
 10
97.90616859531512
 20
-120.2197075437298
 10
97.58887530112362
 20
-120.2197075437298
 97
        0
 97
        0
 92
        1
 93
        1
 72
     4
 94
        3
 73
     0
 74
     1
 95
       17
 96
       13
 40
0.0
 40
0.0
 40
0.0
 40
0.0
 40
1.0
 40
1.0
 40
1.0
 40
2.0
 40
2.0
 40
2.0
 40
3.0
 40
3.0
 40
3.0
 40
4.0
 40
4.0
 40
4.0
 40
4.0
 10
97.60575626900135
 20
-119.360845239257
 10
97.34358450257383
 20
-119.360845239257
 10
97.30534394268756
 20
-119.5723741020514
 10
97.30534394268756
 20
-119.6886460746785
 10
97.30534394268756
 20
-119.8643459444263
 10
97.40042857808045
 20
-120.0271267061043
 10
97.58474118654132
 20
-120.0271267061043
 10
97.70531952852507
 20
-120.0271267061043
 10
97.88067488872429
 20
-119.967871063758
 10
97.88067488872429
 20
-119.6822726480308
 10
97.88067488872429
 20
-119.4581691867153
 10
97.74114852157166
 20
-119.360845239257
 10
97.60575626900135
 20
-119.360845239257
 97
        0
 97
        0
 75
     2
 76
     1
 98
        0
  0
ENDBLK
  5
104
330
101
100
AcDbEntity
  8
0
100
AcDbBlockEnd
  0
BLOCK
  5
117
330
115
100
AcDbEntity
  8
0
100
AcDbBlockBegin
  2
block 5
 70
     0
 10
0.0
 20
0.0
 30
0.0
  3
block 5
  1

  0
SPLINE
  5
119
330
115
100
AcDbEntity
  8
_U+30EC_U+30A4_U+30E4_U+30FC 1
370
     0
100
AcDbSpline
210
0.0
220
0.0
230
1.0
 70
    11
 71
     3
 72
    26
 73
    22
 74
     0
 42
0.0000000001
 43
0.0000000001
 12
1.0
 22
0.0
 32
0.0
 13
1.0
 23
0.0
 33
0.0
 40
0.0
 40
0.0
 40
0.0
 40
0.0
 40
1.0
 40
1.0
 40
1.0
 40
2.0
 40
2.0
 40
2.0
 40
3.0
 40
3.0
 40
3.0
 40
4.0
 40
4.0
 40
4.0
 40
5.0
 40
5.0
 40
5.0
 40
6.0
 40
6.0
 40
6.0
 40
7.0
 40
7.0
 40
7.0
 40
7.0
 10
87.35918102199702
 20
-141.6692165444438
 30
0.0
 10
87.35918102199702
 20
-141.6692165444438
 30
0.0
 10
87.35918102199702
 20
-140.5647189318727
 30
0.0
 10
87.35918102199702
 20
-140.5647189318727
 30
0.0
 10
87.35918102199702
 20
-140.5647189318727
 30
0.0
 10
87.02914087451008
 20
-140.5647189318727
 30
0.0
 10
87.02914087451008
 20
-140.5647189318727
 30
0.0
 10
87.02914087451008
 20
-140.5647189318727
 30
0.0
 10
87.02914087451008
 20
-140.416579826007
 30
0.0
 10
87.02914087451008
 20
-140.416579826007
 30
0.0
 10
87.36124807928816
 20
-140.4017659154204
 30
0.0
 10
87.40775686833904
 20
-140.2391574085166
 30
0.0
 10
87.43738468951219
 20
-140.1247802384063
 30
0.0
 10
87.43738468951219
 20
-140.1247802384063
 30
0.0
 10
87.58328448331251
 20
-140.1247802384063
 30
0.0
 10
87.58328448331251
 20
-140.1247802384063
 30
0.0
 10
87.58328448331251
 20
-140.1247802384063
 30
0.0
 10
87.58328448331251
 20
-141.6692165444438
 30
0.0
 10
87.58328448331251
 20
-141.6692165444438
 30
0.0
 10
87.58328448331251
 20
-141.6692165444438
 30
0.0
 10
87.35918102199702
 20
-141.6692165444438
 30
0.0
 10
87.35918102199702
 20
-141.6692165444438
 30
0.0
  0
HATCH
  5
11A
330
115
100
AcDbEntity
  8
_U+30EC_U+30A4_U+30E4_U+30FC 1
 62
   179
420
  2234388
100
AcDbHatch
 10
0.0
 20
0.0
 30
0.0
210
0.0
220
0.0
230
1.0
  2
SOLID
 70
     1
 71
     0
 91
        1
 92
        1
 93
        1
 72
     4
 94
        3
 73
     0
 74
     1
 95
       26
 96
       22
 40
0.0
 40
0.0
 40
0.0
 40
0.0
 40
1.0
 40
1.0
 40
1.0
 40
2.0
 40
2.0
 40
2.0
 40
3.0
 40
3.0
 40
3.0
 40
4.0
 40
4.0
 40
4.0
 40
5.0
 40
5.0
 40
5.0
 40
6.0
 40
6.0
 40
6.0
 40
7.0
 40
7.0
 40
7.0
 40
7.0
 10
87.35918102199702
 20
-141.6692165444438
 10
87.35918102199702
 20
-141.6692165444438
 10
87.35918102199702
 20
-140.5647189318727
 10
87.35918102199702
 20
-140.5647189318727
 10
87.35918102199702
 20
-140.5647189318727
 10
87.02914087451008
 20
-140.5647189318727
 10
87.02914087451008
 20
-140.5647189318727
 10
87.02914087451008
 20
-140.5647189318727
 10
87.02914087451008
 20
-140.416579826007
 10
87.02914087451008
 20
-140.416579826007
 10
87.36124807928816
 20
-140.4017659154204
 10
87.40775686833904
 20
-140.2391574085166
 10
87.43738468951219
 20
-140.1247802384063
 10
87.43738468951219
 20
-140.1247802384063
 10
87.58328448331251
 20
-140.1247802384063
 10
87.58328448331251
 20
-140.1247802384063
 10
87.58328448331251
 20
-140.1247802384063
 10
87.58328448331251
 20
-141.6692165444438
 10
87.58328448331251
 20
-141.6692165444438
 10
87.58328448331251
 20
-141.6692165444438
 10
87.35918102199702
 20
-141.6692165444438
 10
87.35918102199702
 20
-141.6692165444438
 97
        0
 97
        0
 75
     2
 76
     1
 98
        0
  0
SPLINE
  5
11B
330
115
100
AcDbEntity
  8
_U+30EC_U+30A4_U+30E4_U+30FC 1
370
     0
100
AcDbSpline
210
0.0
220
0.0
230
1.0
 70
    11
 71
     3
 72
    29
 73
    25
 74
     0
 42
0.0000000001
 43
0.0000000001
 12
1.0
 22
0.0
 32
0.0
 13
1.0
 23
0.0
 33
0.0
 40
0.0
 40
0.0
 40
0.0
 40
0.0
 40
1.0
 40
1.0
 40
1.0
 40
2.0
 40
2.0
 40
2.0
 40
3.0
 40
3.0
 40
3.0
 40
4.0
 40
4.0
 40
4.0
 40
5.0
 40
5.0
 40
5.0
 40
6.0
 40
6.0
 40
6.0
 40
7.0
 40
7.0
 40
7.0
 40
8.0
 40
8.0
 40
8.0
 40
8.0
 10
88.98233775987248
 20
-141.4914496174049
 30
0.0
 10
88.87450627118416
 20
-141.7009114229081
 30
0.0
 10
88.70104571350183
 20
-141.719859448077
 30
0.0
 10
88.58460148610038
 20
-141.719859448077
 30
0.0
 10
88.42388778171347
 20
-141.719859448077
 30
0.0
 10
88.28212210249545
 20
-141.6733506590261
 30
0.0
 10
88.18686521232829
 20
-141.4914496174049
 30
0.0
 10
88.08334009299654
 20
-141.2968017224883
 30
0.0
 10
88.0642198130534
 20
-141.0597791531031
 30
0.0
 10
88.0642198130534
 20
-140.8968261366508
 30
0.0
 10
88.0642198130534
 20
-140.7531656549159
 30
0.0
 10
88.08110078093112
 20
-140.5013291749441
 30
0.0
 10
88.18686521232829
 20
-140.3025471654452
 30
0.0
 10
88.29486895579088
 20
-140.0992865318155
 30
0.0
 10
88.45558266017777
 20
-140.0762043920643
 30
0.0
 10
88.58460148610038
 20
-140.0762043920643
 30
0.0
 10
88.74324813319613
 20
-140.0762043920643
 30
0.0
 10
88.88708086970531
 20
-140.120646123824
 30
0.0
 10
88.98233775987248
 20
-140.3025471654452
 30
0.0
 10
89.08172876462193
 20
-140.4951280030707
 30
0.0
 10
89.10498315914737
 20
-140.7235378337427
 30
0.0
 10
89.10498315914737
 20
-140.8968261366508
 30
0.0
 10
89.10498315914737
 20
-141.0683918918162
 30
0.0
 10
89.08396807668734
 20
-141.2988687797795
 30
0.0
 10
88.98233775987248
 20
-141.4914496174049
 30
0.0
  0
SPLINE
  5
11C
330
115
100
AcDbEntity
  8
_U+30EC_U+30A4_U+30E4_U+30FC 1
370
     0
100
AcDbSpline
210
0.0
220
0.0
230
1.0
 70
    11
 71
     3
 72
    17
 73
    13
 74
     0
 42
0.0000000001
 43
0.0000000001
 12
1.0
 22
0.0
 32
0.0
 13
1.0
 23
0.0
 33
0.0
 40
0.0
 40
0.0
 40
0.0
 40
0.0
 40
1.0
 40
1.0
 40
1.0
 40
2.0
 40
2.0
 40
2.0
 40
3.0
 40
3.0
 40
3.0
 40
4.0
 40
4.0
 40
4.0
 40
4.0
 10
88.58460148610038
 20
-140.2684407201412
 30
0.0
 10
88.33500431819402
 20
-140.2684407201412
 30
0.0
 10
88.28849552914316
 20
-140.5519720785773
 30
0.0
 10
88.28849552914316
 20
-140.8968261366508
 30
0.0
 10
88.28849552914316
 20
-141.216530997682
 30
0.0
 10
88.32449677696403
 20
-141.5252115531604
 30
0.0
 10
88.58460148610038
 20
-141.5252115531604
 30
0.0
 10
88.83213159671558
 20
-141.5252115531604
 30
0.0
 10
88.88087969783187
 20
-141.2437472520155
 30
0.0
 10
88.88087969783187
 20
-140.8968261366508
 30
0.0
 10
88.88087969783187
 20
-140.5774657851681
 30
0.0
 10
88.84281139271985
 20
-140.2684407201412
 30
0.0
 10
88.58460148610038
 20
-140.2684407201412
 30
0.0
  0
HATCH
  5
11D
330
115
100
AcDbEntity
  8
_U+30EC_U+30A4_U+30E4_U+30FC 1
 62
   179
420
  2234388
100
AcDbHatch
 10
0.0
 20
0.0
 30
0.0
210
0.0
220
0.0
230
1.0
  2
SOLID
 70
     1
 71
     0
 91
        2
 92
        1
 93
        1
 72
     4
 94
        3
 73
     0
 74
     1
 95
       29
 96
       25
 40
0.0
 40
0.0
 40
0.0
 40
0.0
 40
1.0
 40
1.0
 40
1.0
 40
2.0
 40
2.0
 40
2.0
 40
3.0
 40
3.0
 40
3.0
 40
4.0
 40
4.0
 40
4.0
 40
5.0
 40
5.0
 40
5.0
 40
6.0
 40
6.0
 40
6.0
 40
7.0
 40
7.0
 40
7.0
 40
8.0
 40
8.0
 40
8.0
 40
8.0
 10
88.98233775987248
 20
-141.4914496174049
 10
88.87450627118416
 20
-141.7009114229081
 10
88.70104571350183
 20
-141.719859448077
 10
88.58460148610038
 20
-141.719859448077
 10
88.42388778171347
 20
-141.719859448077
 10
88.28212210249545
 20
-141.6733506590261
 10
88.18686521232829
 20
-141.4914496174049
 10
88.08334009299654
 20
-141.2968017224883
 10
88.0642198130534
 20
-141.0597791531031
 10
88.0642198130534
 20
-140.8968261366508
 10
88.0642198130534
 20
-140.7531656549159
 10
88.08110078093112
 20
-140.5013291749441
 10
88.18686521232829
 20
-140.3025471654452
 10
88.29486895579088
 20
-140.0992865318155
 10
88.45558266017777
 20
-140.0762043920643
 10
88.58460148610038
 20
-140.0762043920643
 10
88.74324813319613
 20
-140.0762043920643
 10
88.88708086970531
 20
-140.120646123824
 10
88.98233775987248
 20
-140.3025471654452
 10
89.08172876462193
 20
-140.4951280030707
 10
89.10498315914737
 20
-140.7235378337427
 10
89.10498315914737
 20
-140.8968261366508
 10
89.10498315914737
 20
-141.0683918918162
 10
89.08396807668734
 20
-141.2988687797795
 10
88.98233775987248
 20
-141.4914496174049
 97
        0
 97
        0
 92
        1
 93
        1
 72
     4
 94
        3
 73
     0
 74
     1
 95
       17
 96
       13
 40
0.0
 40
0.0
 40
0.0
 40
0.0
 40
1.0
 40
1.0
 40
1.0
 40
2.0
 40
2.0
 40
2.0
 40
3.0
 40
3.0
 40
3.0
 40
4.0
 40
4.0
 40
4.0
 40
4.0
 10
88.58460148610038
 20
-140.2684407201412
 10
88.33500431819402
 20
-140.2684407201412
 10
88.28849552914316
 20
-140.5519720785773
 10
88.28849552914316
 20
-140.8968261366508
 10
88.28849552914316
 20
-141.216530997682
 10
88.32449677696403
 20
-141.5252115531604
 10
88.58460148610038
 20
-141.5252115531604
 10
88.83213159671558
 20
-141.5252115531604
 10
88.88087969783187
 20
-141.2437472520155
 10
88.88087969783187
 20
-140.8968261366508
 10
88.88087969783187
 20
-140.5774657851681
 10
88.84281139271985
 20
-140.2684407201412
 10
88.58460148610038
 20
-140.2684407201412
 97
        0
 97
        0
 75
     2
 76
     1
 98
        0
  0
ENDBLK
  5
118
330
115
100
AcDbEntity
  8
0
100
AcDbBlockEnd
  0
BLOCK
  5
12F
330
12D
100
AcDbEntity
  8
0
100
AcDbBlockBegin
  2
block 6
 70
     0
 10
0.0
 20
0.0
 30
0.0
  3
block 6
  1

  0
POLYLINE
  5
131
330
12D
100
AcDbEntity
  8
_U+30EC_U+30A4_U+30E4_U+30FC 1
370
     0
100
AcDb2dPolyline
 66
     1
 10
0.0
 20
0.0
 30
0.0
  0
VERTEX
  5
132
330
131
100
AcDbEntity
  8
_U+30EC_U+30A4_U+30E4_U+30FC 1
370
     0
100
AcDbVertex
100
AcDb2dVertex
 10
78.27687579423286
 20
-135.7102348836072
 30
0.0
  0
VERTEX
  5
133
330
131
100
AcDbEntity
  8
_U+30EC_U+30A4_U+30E4_U+30FC 1
370
     0
100
AcDbVertex
100
AcDb2dVertex
 10
78.62379690959753
 20
-135.7102348836072
 30
0.0
  0
VERTEX
  5
134
330
131
100
AcDbEntity
  8
_U+30EC_U+30A4_U+30E4_U+30FC 1
370
     0
100
AcDbVertex
100
AcDb2dVertex
 10
78.62379690959753
 20
-135.927964918275
 30
0.0
  0
VERTEX
  5
135
330
131
100
AcDbEntity
  8
_U+30EC_U+30A4_U+30E4_U+30FC 1
370
     0
100
AcDbVertex
100
AcDb2dVertex
 10
78.27687579423286
 20
-135.927964918275
 30
0.0
  0
VERTEX
  5
136
330
131
100
AcDbEntity
  8
_U+30EC_U+30A4_U+30E4_U+30FC 1
370
     0
100
AcDbVertex
100
AcDb2dVertex
 10
78.27687579423286
 20
-136.5839110986665
 30
0.0
  0
VERTEX
  5
137
330
131
100
AcDbEntity
  8
_U+30EC_U+30A4_U+30E4_U+30FC 1
370
     0
100
AcDbVertex
100
AcDb2dVertex
 10
78.0526000781431
 20
-136.5839110986665
 30
0.0
  0
VERTEX
  5
138
330
131
100
AcDbEntity
  8
_U+30EC_U+30A4_U+30E4_U+30FC 1
370
     0
100
AcDbVertex
100
AcDb2dVertex
 10
77.07953285833429
 20
-135.9048827785238
 30
0.0
  0
VERTEX
  5
139
330
131
100
AcDbEntity
  8
_U+30EC_U+30A4_U+30E4_U+30FC 1
370
     0
100
AcDbVertex
100
AcDb2dVertex
 10
77.07953285833429
 20
-135.7102348836072
 30
0.0
  0
VERTEX
  5
13A
330
131
100
AcDbEntity
  8
_U+30EC_U+30A4_U+30E4_U+30FC 1
370
     0
100
AcDbVertex
100
AcDb2dVertex
 10
78.07809378473395
 20
-135.7102348836072
 30
0.0
  0
VERTEX
  5
13B
330
131
100
AcDbEntity
  8
_U+30EC_U+30A4_U+30E4_U+30FC 1
370
     0
100
AcDbVertex
100
AcDb2dVertex
 10
78.07809378473395
 20
-135.5028401353951
 30
0.0
  0
VERTEX
  5
13C
330
131
100
AcDbEntity
  8
_U+30EC_U+30A4_U+30E4_U+30FC 1
370
     0
100
AcDbVertex
100
AcDb2dVertex
 10
78.27687579423286
 20
-135.5028401353951
 30
0.0
  0
VERTEX
  5
13D
330
131
100
AcDbEntity
  8
_U+30EC_U+30A4_U+30E4_U+30FC 1
370
     0
100
AcDbVertex
100
AcDb2dVertex
 10
78.27687579423286
 20
-135.7102348836072
 30
0.0
  0
SEQEND
  5
13E
330
131
100
AcDbEntity
  8
_U+30EC_U+30A4_U+30E4_U+30FC 1
370
     0
  0
POLYLINE
  5
13F
330
12D
100
AcDbEntity
  8
_U+30EC_U+30A4_U+30E4_U+30FC 1
370
     0
100
AcDb2dPolyline
 66
     1
 10
0.0
 20
0.0
 30
0.0
  0
VERTEX
  5
140
330
13F
100
AcDbEntity
  8
_U+30EC_U+30A4_U+30E4_U+30FC 1
370
     0
100
AcDbVertex
100
AcDb2dVertex
 10
77.42214760434238
 20
-135.927964918275
 30
0.0
  0
VERTEX
  5
141
330
13F
100
AcDbEntity
  8
_U+30EC_U+30A4_U+30E4_U+30FC 1
370
     0
100
AcDbVertex
100
AcDb2dVertex
 10
78.07809378473395
 20
-136.3851290891676
 30
0.0
  0
VERTEX
  5
142
330
13F
100
AcDbEntity
  8
_U+30EC_U+30A4_U+30E4_U+30FC 1
370
     0
100
AcDbVertex
100
AcDb2dVertex
 10
78.07809378473395
 20
-135.927964918275
 30
0.0
  0
VERTEX
  5
143
330
13F
100
AcDbEntity
  8
_U+30EC_U+30A4_U+30E4_U+30FC 1
370
     0
100
AcDbVertex
100
AcDb2dVertex
 10
77.42214760434238
 20
-135.927964918275
 30
0.0
  0
SEQEND
  5
144
330
13F
100
AcDbEntity
  8
_U+30EC_U+30A4_U+30E4_U+30FC 1
370
     0
  0
HATCH
  5
145
330
12D
100
AcDbEntity
  8
_U+30EC_U+30A4_U+30E4_U+30FC 1
 62
   179
420
  2234388
100
AcDbHatch
 10
0.0
 20
0.0
 30
0.0
210
0.0
220
0.0
230
1.0
  2
SOLID
 70
     1
 71
     0
 91
        2
 92
        1
 93
       11
 72
     1
 10
78.27687579423286
 20
-135.7102348836072
 11
78.62379690959753
 21
-135.7102348836072
 72
     1
 10
78.62379690959753
 20
-135.7102348836072
 11
78.62379690959753
 21
-135.927964918275
 72
     1
 10
78.62379690959753
 20
-135.927964918275
 11
78.27687579423286
 21
-135.927964918275
 72
     1
 10
78.27687579423286
 20
-135.927964918275
 11
78.27687579423286
 21
-136.5839110986665
 72
     1
 10
78.27687579423286
 20
-136.5839110986665
 11
78.0526000781431
 21
-136.5839110986665
 72
     1
 10
78.0526000781431
 20
-136.5839110986665
 11
77.07953285833429
 21
-135.9048827785238
 72
     1
 10
77.07953285833429
 20
-135.9048827785238
 11
77.07953285833429
 21
-135.7102348836072
 72
     1
 10
77.07953285833429
 20
-135.7102348836072
 11
78.07809378473395
 21
-135.7102348836072
 72
     1
 10
78.07809378473395
 20
-135.7102348836072
 11
78.07809378473395
 21
-135.5028401353951
 72
     1
 10
78.07809378473395
 20
-135.5028401353951
 11
78.27687579423286
 21
-135.5028401353951
 72
     1
 10
78.27687579423286
 20
-135.5028401353951
 11
78.27687579423286
 21
-135.7102348836072
 97
        0
 92
        1
 93
        3
 72
     1
 10
77.42214760434238
 20
-135.927964918275
 11
78.07809378473395
 21
-136.3851290891676
 72
     1
 10
78.07809378473395
 20
-136.3851290891676
 11
78.07809378473395
 21
-135.927964918275
 72
     1
 10
78.07809378473395
 20
-135.927964918275
 11
77.42214760434238
 21
-135.927964918275
 97
        0
 75
     2
 76
     1
 98
        0
  0
ENDBLK
  5
130
330
12D
100
AcDbEntity
  8
0
100
AcDbBlockEnd
  0
BLOCK
  5
153
330
151
100
AcDbEntity
  8
0
100
AcDbBlockBegin
  2
block 7
 70
     0
 10
0.0
 20
0.0
 30
0.0
  3
block 7
  1

  0
SPLINE
  5
155
330
151
100
AcDbEntity
  8
_U+30EC_U+30A4_U+30E4_U+30FC 1
370
     0
100
AcDbSpline
210
0.0
220
0.0
230
1.0
 70
    11
 71
     3
 72
    32
 73
    28
 74
     0
 42
0.0000000001
 43
0.0000000001
 12
1.0
 22
0.0
 32
0.0
 13
1.0
 23
0.0
 33
0.0
 40
0.0
 40
0.0
 40
0.0
 40
0.0
 40
1.0
 40
1.0
 40
1.0
 40
2.0
 40
2.0
 40
2.0
 40
3.0
 40
3.0
 40
3.0
 40
4.0
 40
4.0
 40
4.0
 40
5.0
 40
5.0
 40
5.0
 40
6.0
 40
6.0
 40
6.0
 40
7.0
 40
7.0
 40
7.0
 40
8.0
 40
8.0
 40
8.0
 40
9.0
 40
9.0
 40
9.0
 40
9.0
 10
78.67461206800496
 20
-130.1967040690133
 30
0.0
 10
78.67461206800496
 20
-130.3703368814699
 30
0.0
 10
78.60484888442865
 20
-130.6156276800197
 30
0.0
 10
78.27256942487631
 20
-130.653868239906
 30
0.0
 10
78.27256942487631
 20
-130.653868239906
 30
0.0
 10
78.27256942487631
 20
-130.4402723198205
 30
0.0
 10
78.27256942487631
 20
-130.4402723198205
 30
0.0
 10
78.33182506722261
 20
-130.4295925238162
 30
0.0
 10
78.47996417308835
 20
-130.3978976453519
 30
0.0
 10
78.47996417308835
 20
-130.1946370117222
 30
0.0
 10
78.47996417308835
 20
-129.9028374241215
 30
0.0
 10
78.14992402560141
 20
-129.8645968642352
 30
0.0
 10
77.94476858945478
 20
-129.8518500109398
 30
0.0
 10
78.02521156903536
 20
-129.9431450412989
 30
0.0
 10
78.08222789931625
 20
-130.0106689128098
 30
0.0
 10
78.08222789931625
 20
-130.192569954431
 30
0.0
 10
78.08222789931625
 20
-130.3724039387611
 30
0.0
 10
77.97646346791909
 20
-130.674883322366
 30
0.0
 10
77.57028671020812
 20
-130.674883322366
 30
0.0
 10
77.25092635872547
 20
-130.674883322366
 30
0.0
 10
77.030784757218
 20
-130.4761013128671
 30
0.0
 10
77.030784757218
 20
-130.1588080186756
 30
0.0
 10
77.030784757218
 20
-129.6447997722763
 30
0.0
 10
77.5851006207947
 20
-129.634119976272
 30
0.0
 10
77.79886879565446
 20
-129.634119976272
 30
0.0
 10
78.02934568361766
 20
-129.634119976272
 30
0.0
 10
78.67461206800496
 20
-129.6530680014409
 30
0.0
 10
78.67461206800496
 20
-130.1967040690133
 30
0.0
  0
SPLINE
  5
156
330
151
100
AcDbEntity
  8
_U+30EC_U+30A4_U+30E4_U+30FC 1
370
     0
100
AcDbSpline
210
0.0
220
0.0
230
1.0
 70
    11
 71
     3
 72
    17
 73
    13
 74
     0
 42
0.0000000001
 43
0.0000000001
 12
1.0
 22
0.0
 32
0.0
 13
1.0
 23
0.0
 33
0.0
 40
0.0
 40
0.0
 40
0.0
 40
0.0
 40
1.0
 40
1.0
 40
1.0
 40
2.0
 40
2.0
 40
2.0
 40
3.0
 40
3.0
 40
3.0
 40
4.0
 40
4.0
 40
4.0
 40
4.0
 10
77.22336559484347
 20
-130.1567409613844
 30
0.0
 10
77.22336559484347
 20
-130.275252246077
 30
0.0
 10
77.28055417989862
 20
-130.4506076062762
 30
0.0
 10
77.56615259562582
 20
-130.4506076062762
 30
0.0
 10
77.79249536900674
 20
-130.4506076062762
 30
0.0
 10
77.88758000439964
 20
-130.3110812391236
 30
0.0
 10
77.88758000439964
 20
-130.1756889865533
 30
0.0
 10
77.88758000439964
 20
-129.9135172201258
 30
0.0
 10
77.67811819889644
 20
-129.8752766602395
 30
0.0
 10
77.56184622626927
 20
-129.8752766602395
 30
0.0
 10
77.38631861129579
 20
-129.8752766602395
 30
0.0
 10
77.22336559484347
 20
-129.9703612956324
 30
0.0
 10
77.22336559484347
 20
-130.1567409613844
 30
0.0
  0
HATCH
  5
157
330
151
100
AcDbEntity
  8
_U+30EC_U+30A4_U+30E4_U+30FC 1
 62
   179
420
  2234388
100
AcDbHatch
 10
0.0
 20
0.0
 30
0.0
210
0.0
220
0.0
230
1.0
  2
SOLID
 70
     1
 71
     0
 91
        2
 92
        1
 93
        1
 72
     4
 94
        3
 73
     0
 74
     1
 95
       32
 96
       28
 40
0.0
 40
0.0
 40
0.0
 40
0.0
 40
1.0
 40
1.0
 40
1.0
 40
2.0
 40
2.0
 40
2.0
 40
3.0
 40
3.0
 40
3.0
 40
4.0
 40
4.0
 40
4.0
 40
5.0
 40
5.0
 40
5.0
 40
6.0
 40
6.0
 40
6.0
 40
7.0
 40
7.0
 40
7.0
 40
8.0
 40
8.0
 40
8.0
 40
9.0
 40
9.0
 40
9.0
 40
9.0
 10
78.67461206800496
 20
-130.1967040690133
 10
78.67461206800496
 20
-130.3703368814699
 10
78.60484888442865
 20
-130.6156276800197
 10
78.27256942487631
 20
-130.653868239906
 10
78.27256942487631
 20
-130.653868239906
 10
78.27256942487631
 20
-130.4402723198205
 10
78.27256942487631
 20
-130.4402723198205
 10
78.33182506722261
 20
-130.4295925238162
 10
78.47996417308835
 20
-130.3978976453519
 10
78.47996417308835
 20
-130.1946370117222
 10
78.47996417308835
 20
-129.9028374241215
 10
78.14992402560141
 20
-129.8645968642352
 10
77.94476858945478
 20
-129.8518500109398
 10
78.02521156903536
 20
-129.9431450412989
 10
78.08222789931625
 20
-130.0106689128098
 10
78.08222789931625
 20
-130.192569954431
 10
78.08222789931625
 20
-130.3724039387611
 10
77.97646346791909
 20
-130.674883322366
 10
77.57028671020812
 20
-130.674883322366
 10
77.25092635872547
 20
-130.674883322366
 10
77.030784757218
 20
-130.4761013128671
 10
77.030784757218
 20
-130.1588080186756
 10
77.030784757218
 20
-129.6447997722763
 10
77.5851006207947
 20
-129.634119976272
 10
77.79886879565446
 20
-129.634119976272
 10
78.02934568361766
 20
-129.634119976272
 10
78.67461206800496
 20
-129.6530680014409
 10
78.67461206800496
 20
-130.1967040690133
 97
        0
 97
        0
 92
        1
 93
        1
 72
     4
 94
        3
 73
     0
 74
     1
 95
       17
 96
       13
 40
0.0
 40
0.0
 40
0.0
 40
0.0
 40
1.0
 40
1.0
 40
1.0
 40
2.0
 40
2.0
 40
2.0
 40
3.0
 40
3.0
 40
3.0
 40
4.0
 40
4.0
 40
4.0
 40
4.0
 10
77.22336559484347
 20
-130.1567409613844
 10
77.22336559484347
 20
-130.275252246077
 10
77.28055417989862
 20
-130.4506076062762
 10
77.56615259562582
 20
-130.4506076062762
 10
77.79249536900674
 20
-130.4506076062762
 10
77.88758000439964
 20
-130.3110812391236
 10
77.88758000439964
 20
-130.1756889865533
 10
77.88758000439964
 20
-129.9135172201258
 10
77.67811819889644
 20
-129.8752766602395
 10
77.56184622626927
 20
-129.8752766602395
 10
77.38631861129579
 20
-129.8752766602395
 10
77.22336559484347
 20
-129.9703612956324
 10
77.22336559484347
 20
-130.1567409613844
 97
        0
 97
        0
 75
     2
 76
     1
 98
        0
  0
POLYLINE
  5
158
330
151
100
AcDbEntity
  8
_U+30EC_U+30A4_U+30E4_U+30FC 1
370
     0
100
AcDb2dPolyline
 66
     1
 10
0.0
 20
0.0
 30
0.0
  0
VERTEX
  5
159
330
158
100
AcDbEntity
  8
_U+30EC_U+30A4_U+30E4_U+30FC 1
370
     0
100
AcDbVertex
100
AcDb2dVertex
 10
78.62379690959753
 20
-129.4177679797984
 30
0.0
  0
VERTEX
  5
15A
330
158
100
AcDbEntity
  8
_U+30EC_U+30A4_U+30E4_U+30FC 1
370
     0
100
AcDbVertex
100
AcDb2dVertex
 10
78.37213268440003
 20
-129.4177679797984
 30
0.0
  0
VERTEX
  5
15B
330
158
100
AcDbEntity
  8
_U+30EC_U+30A4_U+30E4_U+30FC 1
370
     0
100
AcDbVertex
100
AcDb2dVertex
 10
78.37213268440003
 20
-129.1659314998266
 30
0.0
  0
VERTEX
  5
15C
330
158
100
AcDbEntity
  8
_U+30EC_U+30A4_U+30E4_U+30FC 1
370
     0
100
AcDbVertex
100
AcDb2dVertex
 10
78.62379690959753
 20
-129.1659314998266
 30
0.0
  0
VERTEX
  5
15D
330
158
100
AcDbEntity
  8
_U+30EC_U+30A4_U+30E4_U+30FC 1
370
     0
100
AcDbVertex
100
AcDb2dVertex
 10
78.62379690959753
 20
-129.4177679797984
 30
0.0
  0
SEQEND
  5
15E
330
158
100
AcDbEntity
  8
_U+30EC_U+30A4_U+30E4_U+30FC 1
370
     0
  0
HATCH
  5
15F
330
151
100
AcDbEntity
  8
_U+30EC_U+30A4_U+30E4_U+30FC 1
 62
   179
420
  2234388
100
AcDbHatch
 10
0.0
 20
0.0
 30
0.0
210
0.0
220
0.0
230
1.0
  2
SOLID
 70
     1
 71
     0
 91
        1
 92
        1
 93
        4
 72
     1
 10
78.62379690959753
 20
-129.4177679797984
 11
78.37213268440003
 21
-129.4177679797984
 72
     1
 10
78.37213268440003
 20
-129.4177679797984
 11
78.37213268440003
 21
-129.1659314998266
 72
     1
 10
78.37213268440003
 20
-129.1659314998266
 11
78.62379690959753
 21
-129.1659314998266
 72
     1
 10
78.62379690959753
 20
-129.1659314998266
 11
78.62379690959753
 21
-129.4177679797984
 97
        0
 75
     2
 76
     1
 98
        0
  0
SPLINE
  5
160
330
151
100
AcDbEntity
  8
_U+30EC_U+30A4_U+30E4_U+30FC 1
370
     0
100
AcDbSpline
210
0.0
220
0.0
230
1.0
 70
    11
 71
     3
 72
    53
 73
    49
 74
     0
 42
0.0000000001
 43
0.0000000001
 12
1.0
 22
0.0
 32
0.0
 13
1.0
 23
0.0
 33
0.0
 40
0.0
 40
0.0
 40
0.0
 40
0.0
 40
1.0
 40
1.0
 40
1.0
 40
2.0
 40
2.0
 40
2.0
 40
3.0
 40
3.0
 40
3.0
 40
4.0
 40
4.0
 40
4.0
 40
5.0
 40
5.0
 40
5.0
 40
6.0
 40
6.0
 40
6.0
 40
7.0
 40
7.0
 40
7.0
 40
8.0
 40
8.0
 40
8.0
 40
9.0
 40
9.0
 40
9.0
 40
10.0
 40
10.0
 40
10.0
 40
11.0
 40
11.0
 40
11.0
 40
12.0
 40
12.0
 40
12.0
 40
13.0
 40
13.0
 40
13.0
 40
14.0
 40
14.0
 40
14.0
 40
15.0
 40
15.0
 40
15.0
 40
16.0
 40
16.0
 40
16.0
 40
16.0
 10
78.67461206800496
 20
-128.4484903650233
 30
0.0
 10
78.67461206800496
 20
-128.5268662873127
 30
0.0
 10
78.65773110012724
 20
-128.6283243493533
 30
0.0
 10
78.59416908842438
 20
-128.7299546661682
 30
0.0
 10
78.4842705424449
 20
-128.9034152238505
 30
0.0
 10
78.35301240445689
 20
-128.9244303063106
 30
0.0
 10
78.24518091576857
 20
-128.9433783314794
 30
0.0
 10
78.24518091576857
 20
-128.9433783314794
 30
0.0
 10
78.24518091576857
 20
-128.7213419274551
 30
0.0
 10
78.24518091576857
 20
-128.7213419274551
 30
0.0
 10
78.44396292526748
 20
-128.6663926544653
 30
0.0
 10
78.47359074644064
 20
-128.5394408858339
 30
0.0
 10
78.47359074644064
 20
-128.4464233077321
 30
0.0
 10
78.47359074644064
 20
-128.3067246858053
 30
0.0
 10
78.37419974169117
 20
-128.1544514653572
 30
0.0
 10
78.14148354166255
 20
-128.1544514653572
 30
0.0
 10
77.88551294710848
 20
-128.1544514653572
 30
0.0
 10
77.81574976353218
 20
-128.3342854496873
 30
0.0
 10
77.81574976353218
 20
-128.454863791671
 30
0.0
 10
77.81574976353218
 20
-128.4865586701353
 30
0.0
 10
77.81574976353218
 20
-128.6283243493533
 30
0.0
 10
77.94476858945478
 20
-128.7172078128728
 30
0.0
 10
77.94476858945478
 20
-128.7172078128728
 30
0.0
 10
77.92564830951164
 20
-128.8927354278463
 30
0.0
 10
77.92564830951164
 20
-128.8927354278463
 30
0.0
 10
77.92564830951164
 20
-128.8927354278463
 30
0.0
 10
77.07953285833429
 20
-128.7721570858625
 30
0.0
 10
77.07953285833429
 20
-128.7721570858625
 30
0.0
 10
77.07953285833429
 20
-128.7721570858625
 30
0.0
 10
77.07953285833429
 20
-127.9937377609703
 30
0.0
 10
77.07953285833429
 20
-127.9937377609703
 30
0.0
 10
77.07953285833429
 20
-127.9937377609703
 30
0.0
 10
77.2741807532509
 20
-127.9937377609703
 30
0.0
 10
77.2741807532509
 20
-127.9937377609703
 30
0.0
 10
77.2741807532509
 20
-127.9937377609703
 30
0.0
 10
77.2741807532509
 20
-128.6093763241845
 30
0.0
 10
77.2741807532509
 20
-128.6093763241845
 30
0.0
 10
77.2741807532509
 20
-128.6093763241845
 30
0.0
 10
77.69723847883958
 20
-128.6748331384042
 30
0.0
 10
77.69723847883958
 20
-128.6748331384042
 30
0.0
 10
77.66347654308413
 20
-128.6135104387668
 30
0.0
 10
77.62316892590671
 20
-128.531000401895
 30
0.0
 10
77.62316892590671
 20
-128.4124891172024
 30
0.0
 10
77.62316892590671
 20
-128.1587578347138
 30
0.0
 10
77.80937633688447
 20
-127.9217352653286
 30
0.0
 10
78.12253551649367
 20
-127.9217352653286
 30
0.0
 10
78.43982881068519
 20
-127.9217352653286
 30
0.0
 10
78.67461206800496
 20
-128.1460109814184
 30
0.0
 10
78.67461206800496
 20
-128.4484903650233
 30
0.0
  0
HATCH
  5
161
330
151
100
AcDbEntity
  8
_U+30EC_U+30A4_U+30E4_U+30FC 1
 62
   179
420
  2234388
100
AcDbHatch
 10
0.0
 20
0.0
 30
0.0
210
0.0
220
0.0
230
1.0
  2
SOLID
 70
     1
 71
     0
 91
        1
 92
        1
 93
        1
 72
     4
 94
        3
 73
     0
 74
     1
 95
       53
 96
       49
 40
0.0
 40
0.0
 40
0.0
 40
0.0
 40
1.0
 40
1.0
 40
1.0
 40
2.0
 40
2.0
 40
2.0
 40
3.0
 40
3.0
 40
3.0
 40
4.0
 40
4.0
 40
4.0
 40
5.0
 40
5.0
 40
5.0
 40
6.0
 40
6.0
 40
6.0
 40
7.0
 40
7.0
 40
7.0
 40
8.0
 40
8.0
 40
8.0
 40
9.0
 40
9.0
 40
9.0
 40
10.0
 40
10.0
 40
10.0
 40
11.0
 40
11.0
 40
11.0
 40
12.0
 40
12.0
 40
12.0
 40
13.0
 40
13.0
 40
13.0
 40
14.0
 40
14.0
 40
14.0
 40
15.0
 40
15.0
 40
15.0
 40
16.0
 40
16.0
 40
16.0
 40
16.0
 10
78.67461206800496
 20
-128.4484903650233
 10
78.67461206800496
 20
-128.5268662873127
 10
78.65773110012724
 20
-128.6283243493533
 10
78.59416908842438
 20
-128.7299546661682
 10
78.4842705424449
 20
-128.9034152238505
 10
78.35301240445689
 20
-128.9244303063106
 10
78.24518091576857
 20
-128.9433783314794
 10
78.24518091576857
 20
-128.9433783314794
 10
78.24518091576857
 20
-128.7213419274551
 10
78.24518091576857
 20
-128.7213419274551
 10
78.44396292526748
 20
-128.6663926544653
 10
78.47359074644064
 20
-128.5394408858339
 10
78.47359074644064
 20
-128.4464233077321
 10
78.47359074644064
 20
-128.3067246858053
 10
78.37419974169117
 20
-128.1544514653572
 10
78.14148354166255
 20
-128.1544514653572
 10
77.88551294710848
 20
-128.1544514653572
 10
77.81574976353218
 20
-128.3342854496873
 10
77.81574976353218
 20
-128.454863791671
 10
77.81574976353218
 20
-128.4865586701353
 10
77.81574976353218
 20
-128.6283243493533
 10
77.94476858945478
 20
-128.7172078128728
 10
77.94476858945478
 20
-128.7172078128728
 10
77.92564830951164
 20
-128.8927354278463
 10
77.92564830951164
 20
-128.8927354278463
 10
77.92564830951164
 20
-128.8927354278463
 10
77.07953285833429
 20
-128.7721570858625
 10
77.07953285833429
 20
-128.7721570858625
 10
77.07953285833429
 20
-128.7721570858625
 10
77.07953285833429
 20
-127.9937377609703
 10
77.07953285833429
 20
-127.9937377609703
 10
77.07953285833429
 20
-127.9937377609703
 10
77.2741807532509
 20
-127.9937377609703
 10
77.2741807532509
 20
-127.9937377609703
 10
77.2741807532509
 20
-127.9937377609703
 10
77.2741807532509
 20
-128.6093763241845
 10
77.2741807532509
 20
-128.6093763241845
 10
77.2741807532509
 20
-128.6093763241845
 10
77.69723847883958
 20
-128.6748331384042
 10
77.69723847883958
 20
-128.6748331384042
 10
77.66347654308413
 20
-128.6135104387668
 10
77.62316892590671
 20
-128.531000401895
 10
77.62316892590671
 20
-128.4124891172024
 10
77.62316892590671
 20
-128.1587578347138
 10
77.80937633688447
 20
-127.9217352653286
 10
78.12253551649367
 20
-127.9217352653286
 10
78.43982881068519
 20
-127.9217352653286
 10
78.67461206800496
 20
-128.1460109814184
 10
78.67461206800496
 20
-128.4484903650233
 97
        0
 97
        0
 75
     2
 76
     1
 98
        0
  0
ENDBLK
  5
154
330
151
100
AcDbEntity
  8
0
100
AcDbBlockEnd
  0
BLOCK
  5
16F
330
16D
100
AcDbEntity
  8
0
100
AcDbBlockBegin
  2
block 8
 70
     0
 10
0.0
 20
0.0
 30
0.0
  3
block 8
  1

  0
SPLINE
  5
171
330
16D
100
AcDbEntity
  8
_U+30EC_U+30A4_U+30E4_U+30FC 1
370
     0
100
AcDbSpline
210
0.0
220
0.0
230
1.0
 70
    11
 71
     3
 72
    32
 73
    28
 74
     0
 42
0.0000000001
 43
0.0000000001
 12
1.0
 22
0.0
 32
0.0
 13
1.0
 23
0.0
 33
0.0
 40
0.0
 40
0.0
 40
0.0
 40
0.0
 40
1.0
 40
1.0
 40
1.0
 40
2.0
 40
2.0
 40
2.0
 40
3.0
 40
3.0
 40
3.0
 40
4.0
 40
4.0
 40
4.0
 40
5.0
 40
5.0
 40
5.0
 40
6.0
 40
6.0
 40
6.0
 40
7.0
 40
7.0
 40
7.0
 40
8.0
 40
8.0
 40
8.0
 40
9.0
 40
9.0
 40
9.0
 40
9.0
 10
104.0005425087221
 20
-141.719859448077
 30
0.0
 10
103.4844672050317
 20
-141.719859448077
 30
0.0
 10
103.4758544663185
 20
-141.1655435845003
 30
0.0
 10
103.4758544663185
 20
-140.9519476644148
 30
0.0
 10
103.4758544663185
 20
-140.7214707764516
 30
0.0
 10
103.4948024914874
 20
-140.0741373347731
 30
0.0
 10
104.0384385590598
 20
-140.0741373347731
 30
0.0
 10
104.2120713715164
 20
-140.0741373347731
 30
0.0
 10
104.4573621700662
 20
-140.1437282635752
 30
0.0
 10
104.4956027299525
 20
-140.4758354683533
 30
0.0
 10
104.4956027299525
 20
-140.4758354683533
 30
0.0
 10
104.282006809867
 20
-140.4758354683533
 30
0.0
 10
104.282006809867
 20
-140.4758354683533
 30
0.0
 10
104.2713270138627
 20
-140.4186468832981
 30
0.0
 10
104.2396321353984
 20
-140.2708522869809
 30
0.0
 10
104.0363715017687
 20
-140.2708522869809
 30
0.0
 10
103.744571914168
 20
-140.2708522869809
 30
0.0
 10
103.7042642969906
 20
-140.5984808676282
 30
0.0
 10
103.6915174436952
 20
-140.8038085585491
 30
0.0
 10
103.7845350217969
 20
-140.7256048910339
 30
0.0
 10
103.8524034028564
 20
-140.6663492486876
 30
0.0
 10
104.0343044444775
 20
-140.6663492486876
 30
0.0
 10
104.2141384288076
 20
-140.6663492486876
 30
0.0
 10
104.5166178124125
 20
-140.7741807373759
 30
0.0
 10
104.5166178124125
 20
-141.1803574950869
 30
0.0
 10
104.5166178124125
 20
-141.4997178465695
 30
0.0
 10
104.3178358029136
 20
-141.719859448077
 30
0.0
 10
104.0005425087221
 20
-141.719859448077
 30
0.0
  0
SPLINE
  5
172
330
16D
100
AcDbEntity
  8
_U+30EC_U+30A4_U+30E4_U+30FC 1
370
     0
100
AcDbSpline
210
0.0
220
0.0
230
1.0
 70
    11
 71
     3
 72
    17
 73
    13
 74
     0
 42
0.0000000001
 43
0.0000000001
 12
1.0
 22
0.0
 32
0.0
 13
1.0
 23
0.0
 33
0.0
 40
0.0
 40
0.0
 40
0.0
 40
0.0
 40
1.0
 40
1.0
 40
1.0
 40
2.0
 40
2.0
 40
2.0
 40
3.0
 40
3.0
 40
3.0
 40
4.0
 40
4.0
 40
4.0
 40
4.0
 10
104.0174234765998
 20
-140.8609971436042
 30
0.0
 10
103.7552517101723
 20
-140.8609971436042
 30
0.0
 10
103.717011150286
 20
-141.0725260063985
 30
0.0
 10
103.717011150286
 20
-141.1889702338
 30
0.0
 10
103.717011150286
 20
-141.3643255939992
 30
0.0
 10
103.8120957856789
 20
-141.5272786104515
 30
0.0
 10
103.9964083941398
 20
-141.5272786104515
 30
0.0
 10
104.1169867361235
 20
-141.5272786104515
 30
0.0
 10
104.2923420963228
 20
-141.4680229681052
 30
0.0
 10
104.2923420963228
 20
-141.182424552378
 30
0.0
 10
104.2923420963228
 20
-140.9581488362882
 30
0.0
 10
104.1528157291701
 20
-140.8609971436042
 30
0.0
 10
104.0174234765998
 20
-140.8609971436042
 30
0.0
  0
HATCH
  5
173
330
16D
100
AcDbEntity
  8
_U+30EC_U+30A4_U+30E4_U+30FC 1
 62
   179
420
  2234388
100
AcDbHatch
 10
0.0
 20
0.0
 30
0.0
210
0.0
220
0.0
230
1.0
  2
SOLID
 70
     1
 71
     0
 91
        2
 92
        1
 93
        1
 72
     4
 94
        3
 73
     0
 74
     1
 95
       32
 96
       28
 40
0.0
 40
0.0
 40
0.0
 40
0.0
 40
1.0
 40
1.0
 40
1.0
 40
2.0
 40
2.0
 40
2.0
 40
3.0
 40
3.0
 40
3.0
 40
4.0
 40
4.0
 40
4.0
 40
5.0
 40
5.0
 40
5.0
 40
6.0
 40
6.0
 40
6.0
 40
7.0
 40
7.0
 40
7.0
 40
8.0
 40
8.0
 40
8.0
 40
9.0
 40
9.0
 40
9.0
 40
9.0
 10
104.0005425087221
 20
-141.719859448077
 10
103.4844672050317
 20
-141.719859448077
 10
103.4758544663185
 20
-141.1655435845003
 10
103.4758544663185
 20
-140.9519476644148
 10
103.4758544663185
 20
-140.7214707764516
 10
103.4948024914874
 20
-140.0741373347731
 10
104.0384385590598
 20
-140.0741373347731
 10
104.2120713715164
 20
-140.0741373347731
 10
104.4573621700662
 20
-140.1437282635752
 10
104.4956027299525
 20
-140.4758354683533
 10
104.4956027299525
 20
-140.4758354683533
 10
104.282006809867
 20
-140.4758354683533
 10
104.282006809867
 20
-140.4758354683533
 10
104.2713270138627
 20
-140.4186468832981
 10
104.2396321353984
 20
-140.2708522869809
 10
104.0363715017687
 20
-140.2708522869809
 10
103.744571914168
 20
-140.2708522869809
 10
103.7042642969906
 20
-140.5984808676282
 10
103.6915174436952
 20
-140.8038085585491
 10
103.7845350217969
 20
-140.7256048910339
 10
103.8524034028564
 20
-140.6663492486876
 10
104.0343044444775
 20
-140.6663492486876
 10
104.2141384288076
 20
-140.6663492486876
 10
104.5166178124125
 20
-140.7741807373759
 10
104.5166178124125
 20
-141.1803574950869
 10
104.5166178124125
 20
-141.4997178465695
 10
104.3178358029136
 20
-141.719859448077
 10
104.0005425087221
 20
-141.719859448077
 97
        0
 97
        0
 92
        1
 93
        1
 72
     4
 94
        3
 73
     0
 74
     1
 95
       17
 96
       13
 40
0.0
 40
0.0
 40
0.0
 40
0.0
 40
1.0
 40
1.0
 40
1.0
 40
2.0
 40
2.0
 40
2.0
 40
3.0
 40
3.0
 40
3.0
 40
4.0
 40
4.0
 40
4.0
 40
4.0
 10
104.0174234765998
 20
-140.8609971436042
 10
103.7552517101723
 20
-140.8609971436042
 10
103.717011150286
 20
-141.0725260063985
 10
103.717011150286
 20
-141.1889702338
 10
103.717011150286
 20
-141.3643255939992
 10
103.8120957856789
 20
-141.5272786104515
 10
103.9964083941398
 20
-141.5272786104515
 10
104.1169867361235
 20
-141.5272786104515
 10
104.2923420963228
 20
-141.4680229681052
 10
104.2923420963228
 20
-141.182424552378
 10
104.2923420963228
 20
-140.9581488362882
 10
104.1528157291701
 20
-140.8609971436042
 10
104.0174234765998
 20
-140.8609971436042
 97
        0
 97
        0
 75
     2
 76
     1
 98
        0
  0
ENDBLK
  5
170
330
16D
100
AcDbEntity
  8
0
100
AcDbBlockEnd
  0
ENDSEC
  0
SECTION
  2
ENTITIES
  0
INSERT
  5
42
330
1F
100
AcDbEntity
  8
_U+30EC_U+30A4_U+30E4_U+30FC 1
100
AcDbBlockReference
  2
block 2
 10
0.0
 20
0.0
 30
0.0
  0
SPLINE
  5
53
330
1F
100
AcDbEntity
  8
_U+30EC_U+30A4_U+30E4_U+30FC 1
370
     0
100
AcDbSpline
210
0.0
220
0.0
230
1.0
 70
    11
 71
     3
 72
   134
 73
   130
 74
     0
 42
0.0000000001
 43
0.0000000001
 12
1.0
 22
0.0
 32
0.0
 13
1.0
 23
0.0
 33
0.0
 40
0.0
 40
0.0
 40
0.0
 40
0.0
 40
1.0
 40
1.0
 40
1.0
 40
2.0
 40
2.0
 40
2.0
 40
3.0
 40
3.0
 40
3.0
 40
4.0
 40
4.0
 40
4.0
 40
5.0
 40
5.0
 40
5.0
 40
6.0
 40
6.0
 40
6.0
 40
7.0
 40
7.0
 40
7.0
 40
8.0
 40
8.0
 40
8.0
 40
9.0
 40
9.0
 40
9.0
 40
10.0
 40
10.0
 40
10.0
 40
11.0
 40
11.0
 40
11.0
 40
12.0
 40
12.0
 40
12.0
 40
13.0
 40
13.0
 40
13.0
 40
14.0
 40
14.0
 40
14.0
 40
15.0
 40
15.0
 40
15.0
 40
16.0
 40
16.0
 40
16.0
 40
17.0
 40
17.0
 40
17.0
 40
18.0
 40
18.0
 40
18.0
 40
19.0
 40
19.0
 40
19.0
 40
20.0
 40
20.0
 40
20.0
 40
21.0
 40
21.0
 40
21.0
 40
22.0
 40
22.0
 40
22.0
 40
23.0
 40
23.0
 40
23.0
 40
24.0
 40
24.0
 40
24.0
 40
25.0
 40
25.0
 40
25.0
 40
26.0
 40
26.0
 40
26.0
 40
27.0
 40
27.0
 40
27.0
 40
28.0
 40
28.0
 40
28.0
 40
29.0
 40
29.0
 40
29.0
 40
30.0
 40
30.0
 40
30.0
 40
31.0
 40
31.0
 40
31.0
 40
32.0
 40
32.0
 40
32.0
 40
33.0
 40
33.0
 40
33.0
 40
34.0
 40
34.0
 40
34.0
 40
35.0
 40
35.0
 40
35.0
 40
36.0
 40
36.0
 40
36.0
 40
37.0
 40
37.0
 40
37.0
 40
38.0
 40
38.0
 40
38.0
 40
39.0
 40
39.0
 40
39.0
 40
40.0
 40
40.0
 40
40.0
 40
41.0
 40
41.0
 40
41.0
 40
42.0
 40
42.0
 40
42.0
 40
43.0
 40
43.0
 40
43.0
 40
43.0
 10
104.9965064879826
 20
-128.7914408011357
 30
0.0
 10
104.9965064879826
 20
-128.7914408011357
 30
0.0
 10
103.8978859604552
 20
-128.3642621901311
 30
0.0
 10
103.8978859604552
 20
-128.3642621901311
 30
0.0
 10
103.7576567973661
 20
-128.6033396900714
 30
0.0
 10
103.5581962468992
 20
-128.802482745577
 30
0.0
 10
103.319438863059
 20
-128.9430294122085
 30
0.0
 10
102.5453359949616
 20
-129.3977952454281
 30
0.0
 10
101.5496912981404
 20
-129.1387152454931
 30
0.0
 10
101.0952782541779
 20
-128.3642621901311
 30
0.0
 10
100.6409004879923
 20
-127.590479412547
 30
0.0
 10
100.8999452036057
 20
-126.5948699683513
 30
0.0
 10
101.6737305301374
 20
-126.1408096906872
 30
0.0
 10
102.4478282196715
 20
-125.6860438574675
 30
0.0
 10
103.4434729164927
 20
-125.9451238574025
 30
0.0
 10
103.8978859604552
 20
-126.7188713572091
 30
0.0
 10
103.8978859604552
 20
-126.7188713572091
 30
0.0
 10
104.9965064879826
 20
-126.2916927462047
 30
0.0
 10
104.9965064879826
 20
-126.2916927462047
 30
0.0
 10
104.9965064879826
 20
-126.2916927462047
 30
0.0
 10
104.9965064879826
 20
-124.5415974688645
 30
0.0
 10
104.9965064879826
 20
-124.5415974688645
 30
0.0
 10
104.9965064879826
 20
-124.5415974688645
 30
0.0
 10
88.99644717395591
 20
-124.5415974688645
 30
0.0
 10
88.99644717395591
 20
-124.5415974688645
 30
0.0
 10
88.99644717395591
 20
-124.5415974688645
 30
0.0
 10
88.99644717395591
 20
-126.2916927462047
 30
0.0
 10
88.99644717395591
 20
-126.2916927462047
 30
0.0
 10
88.99644717395591
 20
-126.2916927462047
 30
0.0
 10
90.0951029792602
 20
-126.7188713572091
 30
0.0
 10
90.0951029792602
 20
-126.7188713572091
 30
0.0
 10
90.23564964234123
 20
-126.4797938572691
 30
0.0
 10
90.43479269281623
 20
-126.2806508017632
 30
0.0
 10
90.67387018671685
 20
-126.1408096906872
 30
0.0
 10
91.44765294475378
 20
-125.6860438574675
 30
0.0
 10
92.4436151415669
 20
-125.9451238574025
 30
0.0
 10
92.89803053233125
 20
-126.7188713572091
 30
0.0
 10
93.35208845172315
 20
-127.4926541347935
 30
0.0
 10
93.0933612361016
 20
-128.4889691345444
 30
0.0
 10
92.31926097807276
 20
-128.9430294122085
 30
0.0
 10
91.54548053266912
 20
-129.3977952454281
 30
0.0
 10
90.54951602322272
 20
-129.1387152454931
 30
0.0
 10
90.0951029792602
 20
-128.3642621901311
 30
0.0
 10
90.0951029792602
 20
-128.3642621901311
 30
0.0
 10
88.99644717395591
 20
-128.7914408011357
 30
0.0
 10
88.99644717395591
 20
-128.7914408011357
 30
0.0
 10
88.99644717395591
 20
-128.7914408011357
 30
0.0
 10
88.99644717395591
 20
-136.042011910434
 30
0.0
 10
88.99644717395591
 20
-136.042011910434
 30
0.0
 10
88.99644717395591
 20
-136.042011910434
 30
0.0
 10
86.9965852805322
 20
-136.042011910434
 30
0.0
 10
86.9965852805322
 20
-136.042011910434
 30
0.0
 10
86.9965852805322
 20
-136.042011910434
 30
0.0
 10
86.9965852805322
 20
-137.0417488546284
 30
0.0
 10
86.9965852805322
 20
-137.0417488546284
 30
0.0
 10
86.9965852805322
 20
-137.0417488546284
 30
0.0
 10
84.49648451098176
 20
-137.0417488546284
 30
0.0
 10
84.49648451098176
 20
-137.0417488546284
 30
0.0
 10
84.49648451098176
 20
-137.0417488546284
 30
0.0
 10
84.49648451098176
 20
-135.5417730216703
 30
0.0
 10
84.49648451098176
 20
-135.5417730216703
 30
0.0
 10
84.49648451098176
 20
-135.5417730216703
 30
0.0
 10
84.99668810933161
 20
-135.5417730216703
 30
0.0
 10
84.99668810933161
 20
-135.5417730216703
 30
0.0
 10
84.99668810933161
 20
-135.5417730216703
 30
0.0
 10
84.99668810933161
 20
-134.041761910934
 30
0.0
 10
84.99668810933161
 20
-134.041761910934
 30
0.0
 10
84.99668810933161
 20
-134.041761910934
 30
0.0
 10
82.99647343813912
 20
-134.041761910934
 30
0.0
 10
82.99647343813912
 20
-134.041761910934
 30
0.0
 10
82.99647343813912
 20
-134.041761910934
 30
0.0
 10
82.99647343813912
 20
-138.0415210766009
 30
0.0
 10
82.99647343813912
 20
-138.0415210766009
 30
0.0
 10
82.99647343813912
 20
-138.0415210766009
 30
0.0
 10
92.99655901634901
 20
-138.0415210766009
 30
0.0
 10
92.99655901634901
 20
-138.0415210766009
 30
0.0
 10
92.99655901634901
 20
-138.0415210766009
 30
0.0
 10
92.99655901634901
 20
-136.042011910434
 30
0.0
 10
92.99655901634901
 20
-136.042011910434
 30
0.0
 10
92.99655901634901
 20
-136.042011910434
 30
0.0
 10
90.9966971229253
 20
-136.042011910434
 30
0.0
 10
90.9966971229253
 20
-136.042011910434
 30
0.0
 10
90.9966971229253
 20
-136.042011910434
 30
0.0
 10
90.9966971229253
 20
-130.187417745231
 30
0.0
 10
90.9966971229253
 20
-130.187417745231
 30
0.0
 10
92.45776386577414
 20
-130.4637133007174
 30
0.0
 10
93.8660856608322
 20
-129.5032052454019
 30
0.0
 10
94.14241648711575
 20
-128.041788023545
 30
0.0
 10
94.23749009580133
 20
-127.5381271903379
 30
0.0
 10
94.18683120820486
 20
-127.0179210793566
 30
0.0
 10
93.9966839908337
 20
-126.5418121905869
 30
0.0
 10
93.9966839908337
 20
-126.5418121905869
 30
0.0
 10
96.62149170164705
 20
-126.5418121905869
 30
0.0
 10
96.62149170164705
 20
-126.5418121905869
 30
0.0
 10
96.62149170164705
 20
-126.5418121905869
 30
0.0
 10
96.99667085874209
 20
-125.8920660796382
 30
0.0
 10
96.99667085874209
 20
-125.8920660796382
 30
0.0
 10
96.99667085874209
 20
-125.8920660796382
 30
0.0
 10
97.37149723806837
 20
-126.5418121905869
 30
0.0
 10
97.37149723806837
 20
-126.5418121905869
 30
0.0
 10
97.37149723806837
 20
-126.5418121905869
 30
0.0
 10
99.9966577266505
 20
-126.5418121905869
 30
0.0
 10
99.9966577266505
 20
-126.5418121905869
 30
0.0
 10
99.44438412962907
 20
-127.9225844124639
 30
0.0
 10
100.1158638638598
 20
-129.4894116342943
 30
0.0
 10
101.4966360857371
 20
-130.0420027452671
 30
0.0
 10
101.9724248984667
 20
-130.2321852452196
 30
0.0
 10
102.492983774075
 20
-130.2824913563185
 30
0.0
 10
102.9966471964733
 20
-130.187417745231
 30
0.0
 10
102.9966471964733
 20
-130.187417745231
 30
0.0
 10
102.9966471964733
 20
-136.042011910434
 30
0.0
 10
102.9966471964733
 20
-136.042011910434
 30
0.0
 10
102.9966471964733
 20
-136.042011910434
 30
0.0
 10
100.9964299233664
 20
-136.042011910434
 30
0.0
 10
100.9964299233664
 20
-136.042011910434
 30
0.0
 10
100.9964299233664
 20
-136.042011910434
 30
0.0
 10
100.9964299233664
 20
-138.0415210766009
 30
0.0
 10
100.9964299233664
 20
-138.0415210766009
 30
0.0
 10
100.9964299233664
 20
-138.0415210766009
 30
0.0
 10
106.9964036591832
 20
-138.0415210766009
 30
0.0
 10
106.9964036591832
 20
-138.0415210766009
 30
0.0
 10
106.9964036591832
 20
-138.0415210766009
 30
0.0
 10
106.9964036591832
 20
-137.0417488546284
 30
0.0
 10
106.9964036591832
 20
-137.0417488546284
 30
0.0
 10
106.9964036591832
 20
-137.0417488546284
 30
0.0
 10
104.9965064879826
 20
-137.0417488546284
 30
0.0
 10
104.9965064879826
 20
-137.0417488546284
 30
0.0
 10
104.9965064879826
 20
-137.0417488546284
 30
0.0
 10
104.9965064879826
 20
-128.7914408011357
 30
0.0
 10
104.9965064879826
 20
-128.7914408011357
 30
0.0
  0
HATCH
  5
54
330
1F
100
AcDbEntity
  8
_U+30EC_U+30A4_U+30E4_U+30FC 1
 62
   253
420
 11711154
100
AcDbHatch
 10
0.0
 20
0.0
 30
0.0
210
0.0
220
0.0
230
1.0
  2
SOLID
 70
     1
 71
     0
 91
        1
 92
        1
 93
        1
 72
     4
 94
        3
 73
     0
 74
     1
 95
      134
 96
      130
 40
0.0
 40
0.0
 40
0.0
 40
0.0
 40
1.0
 40
1.0
 40
1.0
 40
2.0
 40
2.0
 40
2.0
 40
3.0
 40
3.0
 40
3.0
 40
4.0
 40
4.0
 40
4.0
 40
5.0
 40
5.0
 40
5.0
 40
6.0
 40
6.0
 40
6.0
 40
7.0
 40
7.0
 40
7.0
 40
8.0
 40
8.0
 40
8.0
 40
9.0
 40
9.0
 40
9.0
 40
10.0
 40
10.0
 40
10.0
 40
11.0
 40
11.0
 40
11.0
 40
12.0
 40
12.0
 40
12.0
 40
13.0
 40
13.0
 40
13.0
 40
14.0
 40
14.0
 40
14.0
 40
15.0
 40
15.0
 40
15.0
 40
16.0
 40
16.0
 40
16.0
 40
17.0
 40
17.0
 40
17.0
 40
18.0
 40
18.0
 40
18.0
 40
19.0
 40
19.0
 40
19.0
 40
20.0
 40
20.0
 40
20.0
 40
21.0
 40
21.0
 40
21.0
 40
22.0
 40
22.0
 40
22.0
 40
23.0
 40
23.0
 40
23.0
 40
24.0
 40
24.0
 40
24.0
 40
25.0
 40
25.0
 40
25.0
 40
26.0
 40
26.0
 40
26.0
 40
27.0
 40
27.0
 40
27.0
 40
28.0
 40
28.0
 40
28.0
 40
29.0
 40
29.0
 40
29.0
 40
30.0
 40
30.0
 40
30.0
 40
31.0
 40
31.0
 40
31.0
 40
32.0
 40
32.0
 40
32.0
 40
33.0
 40
33.0
 40
33.0
 40
34.0
 40
34.0
 40
34.0
 40
35.0
 40
35.0
 40
35.0
 40
36.0
 40
36.0
 40
36.0
 40
37.0
 40
37.0
 40
37.0
 40
38.0
 40
38.0
 40
38.0
 40
39.0
 40
39.0
 40
39.0
 40
40.0
 40
40.0
 40
40.0
 40
41.0
 40
41.0
 40
41.0
 40
42.0
 40
42.0
 40
42.0
 40
43.0
 40
43.0
 40
43.0
 40
43.0
 10
104.9965064879826
 20
-128.7914408011357
 10
104.9965064879826
 20
-128.7914408011357
 10
103.8978859604552
 20
-128.3642621901311
 10
103.8978859604552
 20
-128.3642621901311
 10
103.7576567973661
 20
-128.6033396900714
 10
103.5581962468992
 20
-128.802482745577
 10
103.319438863059
 20
-128.9430294122085
 10
102.5453359949616
 20
-129.3977952454281
 10
101.5496912981404
 20
-129.1387152454931
 10
101.0952782541779
 20
-128.3642621901311
 10
100.6409004879923
 20
-127.590479412547
 10
100.8999452036057
 20
-126.5948699683513
 10
101.6737305301374
 20
-126.1408096906872
 10
102.4478282196715
 20
-125.6860438574675
 10
103.4434729164927
 20
-125.9451238574025
 10
103.8978859604552
 20
-126.7188713572091
 10
103.8978859604552
 20
-126.7188713572091
 10
104.9965064879826
 20
-126.2916927462047
 10
104.9965064879826
 20
-126.2916927462047
 10
104.9965064879826
 20
-126.2916927462047
 10
104.9965064879826
 20
-124.5415974688645
 10
104.9965064879826
 20
-124.5415974688645
 10
104.9965064879826
 20
-124.5415974688645
 10
88.99644717395591
 20
-124.5415974688645
 10
88.99644717395591
 20
-124.5415974688645
 10
88.99644717395591
 20
-124.5415974688645
 10
88.99644717395591
 20
-126.2916927462047
 10
88.99644717395591
 20
-126.2916927462047
 10
88.99644717395591
 20
-126.2916927462047
 10
90.0951029792602
 20
-126.7188713572091
 10
90.0951029792602
 20
-126.7188713572091
 10
90.23564964234123
 20
-126.4797938572691
 10
90.43479269281623
 20
-126.2806508017632
 10
90.67387018671685
 20
-126.1408096906872
 10
91.44765294475378
 20
-125.6860438574675
 10
92.4436151415669
 20
-125.9451238574025
 10
92.89803053233125
 20
-126.7188713572091
 10
93.35208845172315
 20
-127.4926541347935
 10
93.0933612361016
 20
-128.4889691345444
 10
92.31926097807276
 20
-128.9430294122085
 10
91.54548053266912
 20
-129.3977952454281
 10
90.54951602322272
 20
-129.1387152454931
 10
90.0951029792602
 20
-128.3642621901311
 10
90.0951029792602
 20
-128.3642621901311
 10
88.99644717395591
 20
-128.7914408011357
 10
88.99644717395591
 20
-128.7914408011357
 10
88.99644717395591
 20
-128.7914408011357
 10
88.99644717395591
 20
-136.042011910434
 10
88.99644717395591
 20
-136.042011910434
 10
88.99644717395591
 20
-136.042011910434
 10
86.9965852805322
 20
-136.042011910434
 10
86.9965852805322
 20
-136.042011910434
 10
86.9965852805322
 20
-136.042011910434
 10
86.9965852805322
 20
-137.0417488546284
 10
86.9965852805322
 20
-137.0417488546284
 10
86.9965852805322
 20
-137.0417488546284
 10
84.49648451098176
 20
-137.0417488546284
 10
84.49648451098176
 20
-137.0417488546284
 10
84.49648451098176
 20
-137.0417488546284
 10
84.49648451098176
 20
-135.5417730216703
 10
84.49648451098176
 20
-135.5417730216703
 10
84.49648451098176
 20
-135.5417730216703
 10
84.99668810933161
 20
-135.5417730216703
 10
84.99668810933161
 20
-135.5417730216703
 10
84.99668810933161
 20
-135.5417730216703
 10
84.99668810933161
 20
-134.041761910934
 10
84.99668810933161
 20
-134.041761910934
 10
84.99668810933161
 20
-134.041761910934
 10
82.99647343813912
 20
-134.041761910934
 10
82.99647343813912
 20
-134.041761910934
 10
82.99647343813912
 20
-134.041761910934
 10
82.99647343813912
 20
-138.0415210766009
 10
82.99647343813912
 20
-138.0415210766009
 10
82.99647343813912
 20
-138.0415210766009
 10
92.99655901634901
 20
-138.0415210766009
 10
92.99655901634901
 20
-138.0415210766009
 10
92.99655901634901
 20
-138.0415210766009
 10
92.99655901634901
 20
-136.042011910434
 10
92.99655901634901
 20
-136.042011910434
 10
92.99655901634901
 20
-136.042011910434
 10
90.9966971229253
 20
-136.042011910434
 10
90.9966971229253
 20
-136.042011910434
 10
90.9966971229253
 20
-136.042011910434
 10
90.9966971229253
 20
-130.187417745231
 10
90.9966971229253
 20
-130.187417745231
 10
92.45776386577414
 20
-130.4637133007174
 10
93.8660856608322
 20
-129.5032052454019
 10
94.14241648711575
 20
-128.041788023545
 10
94.23749009580133
 20
-127.5381271903379
 10
94.18683120820486
 20
-127.0179210793566
 10
93.9966839908337
 20
-126.5418121905869
 10
93.9966839908337
 20
-126.5418121905869
 10
96.62149170164705
 20
-126.5418121905869
 10
96.62149170164705
 20
-126.5418121905869
 10
96.62149170164705
 20
-126.5418121905869
 10
96.99667085874209
 20
-125.8920660796382
 10
96.99667085874209
 20
-125.8920660796382
 10
96.99667085874209
 20
-125.8920660796382
 10
97.37149723806837
 20
-126.5418121905869
 10
97.37149723806837
 20
-126.5418121905869
 10
97.37149723806837
 20
-126.5418121905869
 10
99.9966577266505
 20
-126.5418121905869
 10
99.9966577266505
 20
-126.5418121905869
 10
99.44438412962907
 20
-127.9225844124639
 10
100.1158638638598
 20
-129.4894116342943
 10
101.4966360857371
 20
-130.0420027452671
 10
101.9724248984667
 20
-130.2321852452196
 10
102.492983774075
 20
-130.2824913563185
 10
102.9966471964733
 20
-130.187417745231
 10
102.9966471964733
 20
-130.187417745231
 10
102.9966471964733
 20
-136.042011910434
 10
102.9966471964733
 20
-136.042011910434
 10
102.9966471964733
 20
-136.042011910434
 10
100.9964299233664
 20
-136.042011910434
 10
100.9964299233664
 20
-136.042011910434
 10
100.9964299233664
 20
-136.042011910434
 10
100.9964299233664
 20
-138.0415210766009
 10
100.9964299233664
 20
-138.0415210766009
 10
100.9964299233664
 20
-138.0415210766009
 10
106.9964036591832
 20
-138.0415210766009
 10
106.9964036591832
 20
-138.0415210766009
 10
106.9964036591832
 20
-138.0415210766009
 10
106.9964036591832
 20
-137.0417488546284
 10
106.9964036591832
 20
-137.0417488546284
 10
106.9964036591832
 20
-137.0417488546284
 10
104.9965064879826
 20
-137.0417488546284
 10
104.9965064879826
 20
-137.0417488546284
 10
104.9965064879826
 20
-137.0417488546284
 10
104.9965064879826
 20
-128.7914408011357
 10
104.9965064879826
 20
-128.7914408011357
 97
        0
 97
        0
 75
     2
 76
     1
 98
        0
  0
POLYLINE
  5
55
330
1F
100
AcDbEntity
  8
_U+30EC_U+30A4_U+30E4_U+30FC 1
 62
   179
420
  2234388
370
    25
100
AcDb2dPolyline
 66
     1
 10
0.0
 20
0.0
 30
0.0
  0
VERTEX
  5
56
330
55
100
AcDbEntity
  8
_U+30EC_U+30A4_U+30E4_U+30FC 1
 62
   179
420
  2234388
370
    25
100
AcDbVertex
100
AcDb2dVertex
 10
86.9965852805322
 20
-136.042011910434
 30
0.0
  0
VERTEX
  5
57
330
55
100
AcDbEntity
  8
_U+30EC_U+30A4_U+30E4_U+30FC 1
 62
   179
420
  2234388
370
    25
100
AcDbVertex
100
AcDb2dVertex
 10
88.99644717395591
 20
-136.042011910434
 30
0.0
  0
SEQEND
  5
58
330
55
100
AcDbEntity
  8
_U+30EC_U+30A4_U+30E4_U+30FC 1
 62
   179
420
  2234388
370
    25
  0
POLYLINE
  5
59
330
1F
100
AcDbEntity
  8
_U+30EC_U+30A4_U+30E4_U+30FC 1
 62
   179
420
  2234388
370
    25
100
AcDb2dPolyline
 66
     1
 10
0.0
 20
0.0
 30
0.0
  0
VERTEX
  5
5A
330
59
100
AcDbEntity
  8
_U+30EC_U+30A4_U+30E4_U+30FC 1
 62
   179
420
  2234388
370
    25
100
AcDbVertex
100
AcDb2dVertex
 10
104.9965064879826
 20
-124.5415974688645
 30
0.0
  0
VERTEX
  5
5B
330
59
100
AcDbEntity
  8
_U+30EC_U+30A4_U+30E4_U+30FC 1
 62
   179
420
  2234388
370
    25
100
AcDbVertex
100
AcDb2dVertex
 10
104.9965064879826
 20
-126.2916927462047
 30
0.0
  0
SEQEND
  5
5C
330
59
100
AcDbEntity
  8
_U+30EC_U+30A4_U+30E4_U+30FC 1
 62
   179
420
  2234388
370
    25
  0
POLYLINE
  5
5D
330
1F
100
AcDbEntity
  8
_U+30EC_U+30A4_U+30E4_U+30FC 1
 62
   179
420
  2234388
370
    25
100
AcDb2dPolyline
 66
     1
 10
0.0
 20
0.0
 30
0.0
  0
VERTEX
  5
5E
330
5D
100
AcDbEntity
  8
_U+30EC_U+30A4_U+30E4_U+30FC 1
 62
   179
420
  2234388
370
    25
100
AcDbVertex
100
AcDb2dVertex
 10
88.99644717395591
 20
-124.5415974688645
 30
0.0
  0
VERTEX
  5
5F
330
5D
100
AcDbEntity
  8
_U+30EC_U+30A4_U+30E4_U+30FC 1
 62
   179
420
  2234388
370
    25
100
AcDbVertex
100
AcDb2dVertex
 10
104.9965064879826
 20
-124.5415974688645
 30
0.0
  0
SEQEND
  5
60
330
5D
100
AcDbEntity
  8
_U+30EC_U+30A4_U+30E4_U+30FC 1
 62
   179
420
  2234388
370
    25
  0
POLYLINE
  5
61
330
1F
100
AcDbEntity
  8
_U+30EC_U+30A4_U+30E4_U+30FC 1
 62
   179
420
  2234388
370
    25
100
AcDb2dPolyline
 66
     1
 10
0.0
 20
0.0
 30
0.0
  0
VERTEX
  5
62
330
61
100
AcDbEntity
  8
_U+30EC_U+30A4_U+30E4_U+30FC 1
 62
   179
420
  2234388
370
    25
100
AcDbVertex
100
AcDb2dVertex
 10
82.99647343813912
 20
-138.0415210766009
 30
0.0
  0
VERTEX
  5
63
330
61
100
AcDbEntity
  8
_U+30EC_U+30A4_U+30E4_U+30FC 1
 62
   179
420
  2234388
370
    25
100
AcDbVertex
100
AcDb2dVertex
 10
92.99655901634901
 20
-138.0415210766009
 30
0.0
  0
SEQEND
  5
64
330
61
100
AcDbEntity
  8
_U+30EC_U+30A4_U+30E4_U+30FC 1
 62
   179
420
  2234388
370
    25
  0
POLYLINE
  5
65
330
1F
100
AcDbEntity
  8
_U+30EC_U+30A4_U+30E4_U+30FC 1
 62
   179
420
  2234388
370
    25
100
AcDb2dPolyline
 66
     1
 10
0.0
 20
0.0
 30
0.0
  0
VERTEX
  5
66
330
65
100
AcDbEntity
  8
_U+30EC_U+30A4_U+30E4_U+30FC 1
 62
   179
420
  2234388
370
    25
100
AcDbVertex
100
AcDb2dVertex
 10
100.9964299233664
 20
-136.042011910434
 30
0.0
  0
VERTEX
  5
67
330
65
100
AcDbEntity
  8
_U+30EC_U+30A4_U+30E4_U+30FC 1
 62
   179
420
  2234388
370
    25
100
AcDbVertex
100
AcDb2dVertex
 10
100.9964299233664
 20
-138.0415210766009
 30
0.0
  0
SEQEND
  5
68
330
65
100
AcDbEntity
  8
_U+30EC_U+30A4_U+30E4_U+30FC 1
 62
   179
420
  2234388
370
    25
  0
POLYLINE
  5
69
330
1F
100
AcDbEntity
  8
_U+30EC_U+30A4_U+30E4_U+30FC 1
 62
   179
420
  2234388
370
    25
100
AcDb2dPolyline
 66
     1
 10
0.0
 20
0.0
 30
0.0
  0
VERTEX
  5
6A
330
69
100
AcDbEntity
  8
_U+30EC_U+30A4_U+30E4_U+30FC 1
 62
   179
420
  2234388
370
    25
100
AcDbVertex
100
AcDb2dVertex
 10
92.99655901634901
 20
-136.042011910434
 30
0.0
  0
VERTEX
  5
6B
330
69
100
AcDbEntity
  8
_U+30EC_U+30A4_U+30E4_U+30FC 1
 62
   179
420
  2234388
370
    25
100
AcDbVertex
100
AcDb2dVertex
 10
92.99655901634901
 20
-138.0415210766009
 30
0.0
  0
SEQEND
  5
6C
330
69
100
AcDbEntity
  8
_U+30EC_U+30A4_U+30E4_U+30FC 1
 62
   179
420
  2234388
370
    25
  0
POLYLINE
  5
6D
330
1F
100
AcDbEntity
  8
_U+30EC_U+30A4_U+30E4_U+30FC 1
 62
   179
420
  2234388
370
    25
100
AcDb2dPolyline
 66
     1
 10
0.0
 20
0.0
 30
0.0
  0
VERTEX
  5
6E
330
6D
100
AcDbEntity
  8
_U+30EC_U+30A4_U+30E4_U+30FC 1
 62
   179
420
  2234388
370
    25
100
AcDbVertex
100
AcDb2dVertex
 10
106.9964036591832
 20
-137.0417488546284
 30
0.0
  0
VERTEX
  5
6F
330
6D
100
AcDbEntity
  8
_U+30EC_U+30A4_U+30E4_U+30FC 1
 62
   179
420
  2234388
370
    25
100
AcDbVertex
100
AcDb2dVertex
 10
106.9964036591832
 20
-138.0415210766009
 30
0.0
  0
SEQEND
  5
70
330
6D
100
AcDbEntity
  8
_U+30EC_U+30A4_U+30E4_U+30FC 1
 62
   179
420
  2234388
370
    25
  0
POLYLINE
  5
71
330
1F
100
AcDbEntity
  8
_U+30EC_U+30A4_U+30E4_U+30FC 1
 62
   179
420
  2234388
370
    25
100
AcDb2dPolyline
 66
     1
 10
0.0
 20
0.0
 30
0.0
  0
VERTEX
  5
72
330
71
100
AcDbEntity
  8
_U+30EC_U+30A4_U+30E4_U+30FC 1
 62
   179
420
  2234388
370
    25
100
AcDbVertex
100
AcDb2dVertex
 10
100.9964299233664
 20
-138.0415210766009
 30
0.0
  0
VERTEX
  5
73
330
71
100
AcDbEntity
  8
_U+30EC_U+30A4_U+30E4_U+30FC 1
 62
   179
420
  2234388
370
    25
100
AcDbVertex
100
AcDb2dVertex
 10
106.9964036591832
 20
-138.0415210766009
 30
0.0
  0
SEQEND
  5
74
330
71
100
AcDbEntity
  8
_U+30EC_U+30A4_U+30E4_U+30FC 1
 62
   179
420
  2234388
370
    25
  0
POLYLINE
  5
75
330
1F
100
AcDbEntity
  8
_U+30EC_U+30A4_U+30E4_U+30FC 1
 62
   179
420
  2234388
370
    25
100
AcDb2dPolyline
 66
     1
 10
0.0
 20
0.0
 30
0.0
  0
VERTEX
  5
76
330
75
100
AcDbEntity
  8
_U+30EC_U+30A4_U+30E4_U+30FC 1
 62
   179
420
  2234388
370
    25
100
AcDbVertex
100
AcDb2dVertex
 10
90.9966971229253
 20
-136.042011910434
 30
0.0
  0
VERTEX
  5
77
330
75
100
AcDbEntity
  8
_U+30EC_U+30A4_U+30E4_U+30FC 1
 62
   179
420
  2234388
370
    25
100
AcDbVertex
100
AcDb2dVertex
 10
92.99655901634901
 20
-136.042011910434
 30
0.0
  0
SEQEND
  5
78
330
75
100
AcDbEntity
  8
_U+30EC_U+30A4_U+30E4_U+30FC 1
 62
   179
420
  2234388
370
    25
  0
POLYLINE
  5
79
330
1F
100
AcDbEntity
  8
_U+30EC_U+30A4_U+30E4_U+30FC 1
 62
   179
420
  2234388
370
    25
100
AcDb2dPolyline
 66
     1
 10
0.0
 20
0.0
 30
0.0
  0
VERTEX
  5
7A
330
79
100
AcDbEntity
  8
_U+30EC_U+30A4_U+30E4_U+30FC 1
 62
   179
420
  2234388
370
    25
100
AcDbVertex
100
AcDb2dVertex
 10
100.9964299233664
 20
-136.042011910434
 30
0.0
  0
VERTEX
  5
7B
330
79
100
AcDbEntity
  8
_U+30EC_U+30A4_U+30E4_U+30FC 1
 62
   179
420
  2234388
370
    25
100
AcDbVertex
100
AcDb2dVertex
 10
102.9966471964733
 20
-136.042011910434
 30
0.0
  0
SEQEND
  5
7C
330
79
100
AcDbEntity
  8
_U+30EC_U+30A4_U+30E4_U+30FC 1
 62
   179
420
  2234388
370
    25
  0
POLYLINE
  5
7D
330
1F
100
AcDbEntity
  8
_U+30EC_U+30A4_U+30E4_U+30FC 1
 62
   179
420
  2234388
370
    25
100
AcDb2dPolyline
 66
     1
 10
0.0
 20
0.0
 30
0.0
  0
VERTEX
  5
7E
330
7D
100
AcDbEntity
  8
_U+30EC_U+30A4_U+30E4_U+30FC 1
 62
   179
420
  2234388
370
    25
100
AcDbVertex
100
AcDb2dVertex
 10
102.9966471964733
 20
-130.187417745231
 30
0.0
  0
VERTEX
  5
7F
330
7D
100
AcDbEntity
  8
_U+30EC_U+30A4_U+30E4_U+30FC 1
 62
   179
420
  2234388
370
    25
100
AcDbVertex
100
AcDb2dVertex
 10
102.9966471964733
 20
-136.042011910434
 30
0.0
  0
SEQEND
  5
80
330
7D
100
AcDbEntity
  8
_U+30EC_U+30A4_U+30E4_U+30FC 1
 62
   179
420
  2234388
370
    25
  0
POLYLINE
  5
81
330
1F
100
AcDbEntity
  8
_U+30EC_U+30A4_U+30E4_U+30FC 1
 62
   179
420
  2234388
370
    25
100
AcDb2dPolyline
 66
     1
 10
0.0
 20
0.0
 30
0.0
  0
VERTEX
  5
82
330
81
100
AcDbEntity
  8
_U+30EC_U+30A4_U+30E4_U+30FC 1
 62
   179
420
  2234388
370
    25
100
AcDbVertex
100
AcDb2dVertex
 10
93.9966839908337
 20
-126.5418121905869
 30
0.0
  0
VERTEX
  5
83
330
81
100
AcDbEntity
  8
_U+30EC_U+30A4_U+30E4_U+30FC 1
 62
   179
420
  2234388
370
    25
100
AcDbVertex
100
AcDb2dVertex
 10
96.62149170164705
 20
-126.5418121905869
 30
0.0
  0
SEQEND
  5
84
330
81
100
AcDbEntity
  8
_U+30EC_U+30A4_U+30E4_U+30FC 1
 62
   179
420
  2234388
370
    25
  0
POLYLINE
  5
85
330
1F
100
AcDbEntity
  8
_U+30EC_U+30A4_U+30E4_U+30FC 1
 62
   179
420
  2234388
370
    25
100
AcDb2dPolyline
 66
     1
 10
0.0
 20
0.0
 30
0.0
  0
VERTEX
  5
86
330
85
100
AcDbEntity
  8
_U+30EC_U+30A4_U+30E4_U+30FC 1
 62
   179
420
  2234388
370
    25
100
AcDbVertex
100
AcDb2dVertex
 10
103.8978859604552
 20
-126.7188713572091
 30
0.0
  0
VERTEX
  5
87
330
85
100
AcDbEntity
  8
_U+30EC_U+30A4_U+30E4_U+30FC 1
 62
   179
420
  2234388
370
    25
100
AcDbVertex
100
AcDb2dVertex
 10
104.9965064879826
 20
-126.2916927462047
 30
0.0
  0
SEQEND
  5
88
330
85
100
AcDbEntity
  8
_U+30EC_U+30A4_U+30E4_U+30FC 1
 62
   179
420
  2234388
370
    25
  0
POLYLINE
  5
89
330
1F
100
AcDbEntity
  8
_U+30EC_U+30A4_U+30E4_U+30FC 1
 62
   179
420
  2234388
370
    25
100
AcDb2dPolyline
 66
     1
 10
0.0
 20
0.0
 30
0.0
  0
VERTEX
  5
8A
330
89
100
AcDbEntity
  8
_U+30EC_U+30A4_U+30E4_U+30FC 1
 62
   179
420
  2234388
370
    25
100
AcDbVertex
100
AcDb2dVertex
 10
103.8978859604552
 20
-128.3642621901311
 30
0.0
  0
VERTEX
  5
8B
330
89
100
AcDbEntity
  8
_U+30EC_U+30A4_U+30E4_U+30FC 1
 62
   179
420
  2234388
370
    25
100
AcDbVertex
100
AcDb2dVertex
 10
104.9965064879826
 20
-128.7914408011357
 30
0.0
  0
SEQEND
  5
8C
330
89
100
AcDbEntity
  8
_U+30EC_U+30A4_U+30E4_U+30FC 1
 62
   179
420
  2234388
370
    25
  0
POLYLINE
  5
8D
330
1F
100
AcDbEntity
  8
_U+30EC_U+30A4_U+30E4_U+30FC 1
 62
   179
420
  2234388
370
    25
100
AcDb2dPolyline
 66
     1
 10
0.0
 20
0.0
 30
0.0
  0
VERTEX
  5
8E
330
8D
100
AcDbEntity
  8
_U+30EC_U+30A4_U+30E4_U+30FC 1
 62
   179
420
  2234388
370
    25
100
AcDbVertex
100
AcDb2dVertex
 10
104.9965064879826
 20
-128.7914408011357
 30
0.0
  0
VERTEX
  5
8F
330
8D
100
AcDbEntity
  8
_U+30EC_U+30A4_U+30E4_U+30FC 1
 62
   179
420
  2234388
370
    25
100
AcDbVertex
100
AcDb2dVertex
 10
104.9965064879826
 20
-137.0417488546284
 30
0.0
  0
SEQEND
  5
90
330
8D
100
AcDbEntity
  8
_U+30EC_U+30A4_U+30E4_U+30FC 1
 62
   179
420
  2234388
370
    25
  0
POLYLINE
  5
91
330
1F
100
AcDbEntity
  8
_U+30EC_U+30A4_U+30E4_U+30FC 1
 62
   179
420
  2234388
370
    25
100
AcDb2dPolyline
 66
     1
 10
0.0
 20
0.0
 30
0.0
  0
VERTEX
  5
92
330
91
100
AcDbEntity
  8
_U+30EC_U+30A4_U+30E4_U+30FC 1
 62
   179
420
  2234388
370
    25
100
AcDbVertex
100
AcDb2dVertex
 10
88.99644717395591
 20
-128.7914408011357
 30
0.0
  0
VERTEX
  5
93
330
91
100
AcDbEntity
  8
_U+30EC_U+30A4_U+30E4_U+30FC 1
 62
   179
420
  2234388
370
    25
100
AcDbVertex
100
AcDb2dVertex
 10
88.99644717395591
 20
-136.042011910434
 30
0.0
  0
SEQEND
  5
94
330
91
100
AcDbEntity
  8
_U+30EC_U+30A4_U+30E4_U+30FC 1
 62
   179
420
  2234388
370
    25
  0
POLYLINE
  5
95
330
1F
100
AcDbEntity
  8
_U+30EC_U+30A4_U+30E4_U+30FC 1
 62
   179
420
  2234388
370
    25
100
AcDb2dPolyline
 66
     1
 10
0.0
 20
0.0
 30
0.0
  0
VERTEX
  5
96
330
95
100
AcDbEntity
  8
_U+30EC_U+30A4_U+30E4_U+30FC 1
 62
   179
420
  2234388
370
    25
100
AcDbVertex
100
AcDb2dVertex
 10
90.0951029792602
 20
-128.3642621901311
 30
0.0
  0
VERTEX
  5
97
330
95
100
AcDbEntity
  8
_U+30EC_U+30A4_U+30E4_U+30FC 1
 62
   179
420
  2234388
370
    25
100
AcDbVertex
100
AcDb2dVertex
 10
88.99644717395591
 20
-128.7914408011357
 30
0.0
  0
SEQEND
  5
98
330
95
100
AcDbEntity
  8
_U+30EC_U+30A4_U+30E4_U+30FC 1
 62
   179
420
  2234388
370
    25
  0
POLYLINE
  5
99
330
1F
100
AcDbEntity
  8
_U+30EC_U+30A4_U+30E4_U+30FC 1
 62
   179
420
  2234388
370
    25
100
AcDb2dPolyline
 66
     1
 10
0.0
 20
0.0
 30
0.0
  0
VERTEX
  5
9A
330
99
100
AcDbEntity
  8
_U+30EC_U+30A4_U+30E4_U+30FC 1
 62
   179
420
  2234388
370
    25
100
AcDbVertex
100
AcDb2dVertex
 10
90.0951029792602
 20
-126.7188713572091
 30
0.0
  0
VERTEX
  5
9B
330
99
100
AcDbEntity
  8
_U+30EC_U+30A4_U+30E4_U+30FC 1
 62
   179
420
  2234388
370
    25
100
AcDbVertex
100
AcDb2dVertex
 10
88.99644717395591
 20
-126.2916927462047
 30
0.0
  0
SEQEND
  5
9C
330
99
100
AcDbEntity
  8
_U+30EC_U+30A4_U+30E4_U+30FC 1
 62
   179
420
  2234388
370
    25
  0
POLYLINE
  5
9D
330
1F
100
AcDbEntity
  8
_U+30EC_U+30A4_U+30E4_U+30FC 1
 62
   179
420
  2234388
370
    25
100
AcDb2dPolyline
 66
     1
 10
0.0
 20
0.0
 30
0.0
  0
VERTEX
  5
9E
330
9D
100
AcDbEntity
  8
_U+30EC_U+30A4_U+30E4_U+30FC 1
 62
   179
420
  2234388
370
    25
100
AcDbVertex
100
AcDb2dVertex
 10
90.9966971229253
 20
-130.187417745231
 30
0.0
  0
VERTEX
  5
9F
330
9D
100
AcDbEntity
  8
_U+30EC_U+30A4_U+30E4_U+30FC 1
 62
   179
420
  2234388
370
    25
100
AcDbVertex
100
AcDb2dVertex
 10
90.9966971229253
 20
-136.042011910434
 30
0.0
  0
SEQEND
  5
A0
330
9D
100
AcDbEntity
  8
_U+30EC_U+30A4_U+30E4_U+30FC 1
 62
   179
420
  2234388
370
    25
  0
POLYLINE
  5
A1
330
1F
100
AcDbEntity
  8
_U+30EC_U+30A4_U+30E4_U+30FC 1
 62
   179
420
  2234388
370
    25
100
AcDb2dPolyline
 66
     1
 10
0.0
 20
0.0
 30
0.0
  0
VERTEX
  5
A2
330
A1
100
AcDbEntity
  8
_U+30EC_U+30A4_U+30E4_U+30FC 1
 62
   179
420
  2234388
370
    25
100
AcDbVertex
100
AcDb2dVertex
 10
88.99644717395591
 20
-124.5415974688645
 30
0.0
  0
VERTEX
  5
A3
330
A1
100
AcDbEntity
  8
_U+30EC_U+30A4_U+30E4_U+30FC 1
 62
   179
420
  2234388
370
    25
100
AcDbVertex
100
AcDb2dVertex
 10
88.99644717395591
 20
-126.2916927462047
 30
0.0
  0
SEQEND
  5
A4
330
A1
100
AcDbEntity
  8
_U+30EC_U+30A4_U+30E4_U+30FC 1
 62
   179
420
  2234388
370
    25
  0
POLYLINE
  5
A5
330
1F
100
AcDbEntity
  8
_U+30EC_U+30A4_U+30E4_U+30FC 1
 62
   179
420
  2234388
370
    25
100
AcDb2dPolyline
 66
     1
 10
0.0
 20
0.0
 30
0.0
  0
VERTEX
  5
A6
330
A5
100
AcDbEntity
  8
_U+30EC_U+30A4_U+30E4_U+30FC 1
 62
   179
420
  2234388
370
    25
100
AcDbVertex
100
AcDb2dVertex
 10
96.62149170164705
 20
-126.5418121905869
 30
0.0
  0
VERTEX
  5
A7
330
A5
100
AcDbEntity
  8
_U+30EC_U+30A4_U+30E4_U+30FC 1
 62
   179
420
  2234388
370
    25
100
AcDbVertex
100
AcDb2dVertex
 10
96.99667085874209
 20
-125.8920660796382
 30
0.0
  0
SEQEND
  5
A8
330
A5
100
AcDbEntity
  8
_U+30EC_U+30A4_U+30E4_U+30FC 1
 62
   179
420
  2234388
370
    25
  0
POLYLINE
  5
A9
330
1F
100
AcDbEntity
  8
_U+30EC_U+30A4_U+30E4_U+30FC 1
 62
   179
420
  2234388
370
    25
100
AcDb2dPolyline
 66
     1
 10
0.0
 20
0.0
 30
0.0
  0
VERTEX
  5
AA
330
A9
100
AcDbEntity
  8
_U+30EC_U+30A4_U+30E4_U+30FC 1
 62
   179
420
  2234388
370
    25
100
AcDbVertex
100
AcDb2dVertex
 10
96.99667085874209
 20
-125.8920660796382
 30
0.0
  0
VERTEX
  5
AB
330
A9
100
AcDbEntity
  8
_U+30EC_U+30A4_U+30E4_U+30FC 1
 62
   179
420
  2234388
370
    25
100
AcDbVertex
100
AcDb2dVertex
 10
97.37149723806837
 20
-126.5418121905869
 30
0.0
  0
SEQEND
  5
AC
330
A9
100
AcDbEntity
  8
_U+30EC_U+30A4_U+30E4_U+30FC 1
 62
   179
420
  2234388
370
    25
  0
POLYLINE
  5
AD
330
1F
100
AcDbEntity
  8
_U+30EC_U+30A4_U+30E4_U+30FC 1
 62
   179
420
  2234388
370
    25
100
AcDb2dPolyline
 66
     1
 10
0.0
 20
0.0
 30
0.0
  0
VERTEX
  5
AE
330
AD
100
AcDbEntity
  8
_U+30EC_U+30A4_U+30E4_U+30FC 1
 62
   179
420
  2234388
370
    25
100
AcDbVertex
100
AcDb2dVertex
 10
97.37149723806837
 20
-126.5418121905869
 30
0.0
  0
VERTEX
  5
AF
330
AD
100
AcDbEntity
  8
_U+30EC_U+30A4_U+30E4_U+30FC 1
 62
   179
420
  2234388
370
    25
100
AcDbVertex
100
AcDb2dVertex
 10
99.9966577266505
 20
-126.5418121905869
 30
0.0
  0
SEQEND
  5
B0
330
AD
100
AcDbEntity
  8
_U+30EC_U+30A4_U+30E4_U+30FC 1
 62
   179
420
  2234388
370
    25
  0
POLYLINE
  5
B1
330
1F
100
AcDbEntity
  8
_U+30EC_U+30A4_U+30E4_U+30FC 1
 62
   179
420
  2234388
370
    25
100
AcDb2dPolyline
 66
     1
 10
0.0
 20
0.0
 30
0.0
  0
VERTEX
  5
B2
330
B1
100
AcDbEntity
  8
_U+30EC_U+30A4_U+30E4_U+30FC 1
 62
   179
420
  2234388
370
    25
100
AcDbVertex
100
AcDb2dVertex
 10
104.9965064879826
 20
-137.0417488546284
 30
0.0
  0
VERTEX
  5
B3
330
B1
100
AcDbEntity
  8
_U+30EC_U+30A4_U+30E4_U+30FC 1
 62
   179
420
  2234388
370
    25
100
AcDbVertex
100
AcDb2dVertex
 10
106.9964036591832
 20
-137.0417488546284
 30
0.0
  0
SEQEND
  5
B4
330
B1
100
AcDbEntity
  8
_U+30EC_U+30A4_U+30E4_U+30FC 1
 62
   179
420
  2234388
370
    25
  0
POLYLINE
  5
B5
330
1F
100
AcDbEntity
  8
_U+30EC_U+30A4_U+30E4_U+30FC 1
 62
   179
420
  2234388
370
    25
100
AcDb2dPolyline
 66
     1
 10
0.0
 20
0.0
 30
0.0
  0
VERTEX
  5
B6
330
B5
100
AcDbEntity
  8
_U+30EC_U+30A4_U+30E4_U+30FC 1
 62
   179
420
  2234388
370
    25
100
AcDbVertex
100
AcDb2dVertex
 10
86.9965852805322
 20
-136.042011910434
 30
0.0
  0
VERTEX
  5
B7
330
B5
100
AcDbEntity
  8
_U+30EC_U+30A4_U+30E4_U+30FC 1
 62
   179
420
  2234388
370
    25
100
AcDbVertex
100
AcDb2dVertex
 10
86.9965852805322
 20
-137.0417488546284
 30
0.0
  0
SEQEND
  5
B8
330
B5
100
AcDbEntity
  8
_U+30EC_U+30A4_U+30E4_U+30FC 1
 62
   179
420
  2234388
370
    25
  0
POLYLINE
  5
B9
330
1F
100
AcDbEntity
  8
_U+30EC_U+30A4_U+30E4_U+30FC 1
 62
   179
420
  2234388
370
    25
100
AcDb2dPolyline
 66
     1
 10
0.0
 20
0.0
 30
0.0
  0
VERTEX
  5
BA
330
B9
100
AcDbEntity
  8
_U+30EC_U+30A4_U+30E4_U+30FC 1
 62
   179
420
  2234388
370
    25
100
AcDbVertex
100
AcDb2dVertex
 10
84.99668810933161
 20
-135.5417730216703
 30
0.0
  0
VERTEX
  5
BB
330
B9
100
AcDbEntity
  8
_U+30EC_U+30A4_U+30E4_U+30FC 1
 62
   179
420
  2234388
370
    25
100
AcDbVertex
100
AcDb2dVertex
 10
84.49648451098176
 20
-135.5417730216703
 30
0.0
  0
SEQEND
  5
BC
330
B9
100
AcDbEntity
  8
_U+30EC_U+30A4_U+30E4_U+30FC 1
 62
   179
420
  2234388
370
    25
  0
POLYLINE
  5
BD
330
1F
100
AcDbEntity
  8
_U+30EC_U+30A4_U+30E4_U+30FC 1
 62
   179
420
  2234388
370
    25
100
AcDb2dPolyline
 66
     1
 10
0.0
 20
0.0
 30
0.0
  0
VERTEX
  5
BE
330
BD
100
AcDbEntity
  8
_U+30EC_U+30A4_U+30E4_U+30FC 1
 62
   179
420
  2234388
370
    25
100
AcDbVertex
100
AcDb2dVertex
 10
84.99668810933161
 20
-134.041761910934
 30
0.0
  0
VERTEX
  5
BF
330
BD
100
AcDbEntity
  8
_U+30EC_U+30A4_U+30E4_U+30FC 1
 62
   179
420
  2234388
370
    25
100
AcDbVertex
100
AcDb2dVertex
 10
84.99668810933161
 20
-135.5417730216703
 30
0.0
  0
SEQEND
  5
C0
330
BD
100
AcDbEntity
  8
_U+30EC_U+30A4_U+30E4_U+30FC 1
 62
   179
420
  2234388
370
    25
  0
POLYLINE
  5
C1
330
1F
100
AcDbEntity
  8
_U+30EC_U+30A4_U+30E4_U+30FC 1
 62
   179
420
  2234388
370
    25
100
AcDb2dPolyline
 66
     1
 10
0.0
 20
0.0
 30
0.0
  0
VERTEX
  5
C2
330
C1
100
AcDbEntity
  8
_U+30EC_U+30A4_U+30E4_U+30FC 1
 62
   179
420
  2234388
370
    25
100
AcDbVertex
100
AcDb2dVertex
 10
84.99668810933161
 20
-134.041761910934
 30
0.0
  0
VERTEX
  5
C3
330
C1
100
AcDbEntity
  8
_U+30EC_U+30A4_U+30E4_U+30FC 1
 62
   179
420
  2234388
370
    25
100
AcDbVertex
100
AcDb2dVertex
 10
82.99647343813912
 20
-134.041761910934
 30
0.0
  0
SEQEND
  5
C4
330
C1
100
AcDbEntity
  8
_U+30EC_U+30A4_U+30E4_U+30FC 1
 62
   179
420
  2234388
370
    25
  0
POLYLINE
  5
C5
330
1F
100
AcDbEntity
  8
_U+30EC_U+30A4_U+30E4_U+30FC 1
 62
   179
420
  2234388
370
    25
100
AcDb2dPolyline
 66
     1
 10
0.0
 20
0.0
 30
0.0
  0
VERTEX
  5
C6
330
C5
100
AcDbEntity
  8
_U+30EC_U+30A4_U+30E4_U+30FC 1
 62
   179
420
  2234388
370
    25
100
AcDbVertex
100
AcDb2dVertex
 10
84.49648451098176
 20
-135.5417730216703
 30
0.0
  0
VERTEX
  5
C7
330
C5
100
AcDbEntity
  8
_U+30EC_U+30A4_U+30E4_U+30FC 1
 62
   179
420
  2234388
370
    25
100
AcDbVertex
100
AcDb2dVertex
 10
84.49648451098176
 20
-137.0417488546284
 30
0.0
  0
SEQEND
  5
C8
330
C5
100
AcDbEntity
  8
_U+30EC_U+30A4_U+30E4_U+30FC 1
 62
   179
420
  2234388
370
    25
  0
POLYLINE
  5
C9
330
1F
100
AcDbEntity
  8
_U+30EC_U+30A4_U+30E4_U+30FC 1
 62
   179
420
  2234388
370
    25
100
AcDb2dPolyline
 66
     1
 10
0.0
 20
0.0
 30
0.0
  0
VERTEX
  5
CA
330
C9
100
AcDbEntity
  8
_U+30EC_U+30A4_U+30E4_U+30FC 1
 62
   179
420
  2234388
370
    25
100
AcDbVertex
100
AcDb2dVertex
 10
86.9965852805322
 20
-137.0417488546284
 30
0.0
  0
VERTEX
  5
CB
330
C9
100
AcDbEntity
  8
_U+30EC_U+30A4_U+30E4_U+30FC 1
 62
   179
420
  2234388
370
    25
100
AcDbVertex
100
AcDb2dVertex
 10
84.49648451098176
 20
-137.0417488546284
 30
0.0
  0
SEQEND
  5
CC
330
C9
100
AcDbEntity
  8
_U+30EC_U+30A4_U+30E4_U+30FC 1
 62
   179
420
  2234388
370
    25
  0
POLYLINE
  5
CD
330
1F
100
AcDbEntity
  8
_U+30EC_U+30A4_U+30E4_U+30FC 1
 62
   179
420
  2234388
370
    25
100
AcDb2dPolyline
 66
     1
 10
0.0
 20
0.0
 30
0.0
  0
VERTEX
  5
CE
330
CD
100
AcDbEntity
  8
_U+30EC_U+30A4_U+30E4_U+30FC 1
 62
   179
420
  2234388
370
    25
100
AcDbVertex
100
AcDb2dVertex
 10
82.99647343813912
 20
-134.041761910934
 30
0.0
  0
VERTEX
  5
CF
330
CD
100
AcDbEntity
  8
_U+30EC_U+30A4_U+30E4_U+30FC 1
 62
   179
420
  2234388
370
    25
100
AcDbVertex
100
AcDb2dVertex
 10
82.99647343813912
 20
-138.0415210766009
 30
0.0
  0
SEQEND
  5
D0
330
CD
100
AcDbEntity
  8
_U+30EC_U+30A4_U+30E4_U+30FC 1
 62
   179
420
  2234388
370
    25
  0
SPLINE
  5
D1
330
1F
100
AcDbEntity
  8
_U+30EC_U+30A4_U+30E4_U+30FC 1
 62
   179
420
  2234388
370
    25
100
AcDbSpline
210
0.0
220
0.0
230
1.0
 70
     8
 71
     3
 72
    17
 73
    13
 74
     0
 42
0.0000000001
 43
0.0000000001
 12
1.0
 22
0.0
 32
0.0
 13
1.0
 23
0.0
 33
0.0
 40
0.0
 40
0.0
 40
0.0
 40
0.0
 40
1.0
 40
1.0
 40
1.0
 40
2.0
 40
2.0
 40
2.0
 40
3.0
 40
3.0
 40
3.0
 40
4.0
 40
4.0
 40
4.0
 40
4.0
 10
103.8978859604552
 20
-126.7188713572091
 30
0.0
 10
103.4434729164927
 20
-125.9451238574025
 30
0.0
 10
102.4478282196715
 20
-125.6860438574675
 30
0.0
 10
101.6737305301374
 20
-126.1408096906872
 30
0.0
 10
100.8999452036057
 20
-126.5948699683513
 30
0.0
 10
100.6409004879923
 20
-127.590479412547
 30
0.0
 10
101.0952782541779
 20
-128.3642621901311
 30
0.0
 10
101.5496912981404
 20
-129.1387152454931
 30
0.0
 10
102.5453359949616
 20
-129.3977952454281
 30
0.0
 10
103.319438863059
 20
-128.9430294122085
 30
0.0
 10
103.5581962468992
 20
-128.802482745577
 30
0.0
 10
103.7576567973661
 20
-128.6033396900714
 30
0.0
 10
103.8978859604552
 20
-128.3642621901311
 30
0.0
  0
SPLINE
  5
D2
330
1F
100
AcDbEntity
  8
_U+30EC_U+30A4_U+30E4_U+30FC 1
 62
   179
420
  2234388
370
    25
100
AcDbSpline
210
0.0
220
0.0
230
1.0
 70
     8
 71
     3
 72
    11
 73
     7
 74
     0
 42
0.0000000001
 43
0.0000000001
 12
1.0
 22
0.0
 32
0.0
 13
1.0
 23
0.0
 33
0.0
 40
0.0
 40
0.0
 40
0.0
 40
0.0
 40
1.0
 40
1.0
 40
1.0
 40
2.0
 40
2.0
 40
2.0
 40
2.0
 10
99.9966577266505
 20
-126.5418121905869
 30
0.0
 10
99.44438412962907
 20
-127.9225844124639
 30
0.0
 10
100.1158638638598
 20
-129.4894116342943
 30
0.0
 10
101.4966360857371
 20
-130.0420027452671
 30
0.0
 10
101.9724248984667
 20
-130.2321852452196
 30
0.0
 10
102.492983774075
 20
-130.2824913563185
 30
0.0
 10
102.9966471964733
 20
-130.187417745231
 30
0.0
  0
SPLINE
  5
D3
330
1F
100
AcDbEntity
  8
_U+30EC_U+30A4_U+30E4_U+30FC 1
 62
   179
420
  2234388
370
    25
100
AcDbSpline
210
0.0
220
0.0
230
1.0
 70
     8
 71
     3
 72
    11
 73
     7
 74
     0
 42
0.0000000001
 43
0.0000000001
 12
1.0
 22
0.0
 32
0.0
 13
1.0
 23
0.0
 33
0.0
 40
0.0
 40
0.0
 40
0.0
 40
0.0
 40
1.0
 40
1.0
 40
1.0
 40
2.0
 40
2.0
 40
2.0
 40
2.0
 10
90.9966971229253
 20
-130.187417745231
 30
0.0
 10
92.45776386577414
 20
-130.4637133007174
 30
0.0
 10
93.8660856608322
 20
-129.5032052454019
 30
0.0
 10
94.14241648711575
 20
-128.041788023545
 30
0.0
 10
94.23749009580133
 20
-127.5381271903379
 30
0.0
 10
94.18683120820486
 20
-127.0179210793566
 30
0.0
 10
93.9966839908337
 20
-126.5418121905869
 30
0.0
  0
SPLINE
  5
D4
330
1F
100
AcDbEntity
  8
_U+30EC_U+30A4_U+30E4_U+30FC 1
 62
   179
420
  2234388
370
    25
100
AcDbSpline
210
0.0
220
0.0
230
1.0
 70
     8
 71
     3
 72
    17
 73
    13
 74
     0
 42
0.0000000001
 43
0.0000000001
 12
1.0
 22
0.0
 32
0.0
 13
1.0
 23
0.0
 33
0.0
 40
0.0
 40
0.0
 40
0.0
 40
0.0
 40
1.0
 40
1.0
 40
1.0
 40
2.0
 40
2.0
 40
2.0
 40
3.0
 40
3.0
 40
3.0
 40
4.0
 40
4.0
 40
4.0
 40
4.0
 10
90.0951029792602
 20
-128.3642621901311
 30
0.0
 10
90.54951602322272
 20
-129.1387152454931
 30
0.0
 10
91.54548053266912
 20
-129.3977952454281
 30
0.0
 10
92.31926097807276
 20
-128.9430294122085
 30
0.0
 10
93.0933612361016
 20
-128.4889691345444
 30
0.0
 10
93.35208845172315
 20
-127.4926541347935
 30
0.0
 10
92.89803053233125
 20
-126.7188713572091
 30
0.0
 10
92.4436151415669
 20
-125.9451238574025
 30
0.0
 10
91.44765294475378
 20
-125.6860438574675
 30
0.0
 10
90.67387018671685
 20
-126.1408096906872
 30
0.0
 10
90.43479269281623
 20
-126.2806508017632
 30
0.0
 10
90.23564964234123
 20
-126.4797938572691
 30
0.0
 10
90.0951029792602
 20
-126.7188713572091
 30
0.0
  0
SPLINE
  5
D5
330
1F
100
AcDbEntity
  8
_U+30EC_U+30A4_U+30E4_U+30FC 1
 62
   179
420
  2234388
370
     9
100
AcDbSpline
210
0.0
220
0.0
230
1.0
 70
    11
 71
     3
 72
    17
 73
    13
 74
     0
 42
0.0000000001
 43
0.0000000001
 12
1.0
 22
0.0
 32
0.0
 13
1.0
 23
0.0
 33
0.0
 40
0.0
 40
0.0
 40
0.0
 40
0.0
 40
1.0
 40
1.0
 40
1.0
 40
2.0
 40
2.0
 40
2.0
 40
3.0
 40
3.0
 40
3.0
 40
4.0
 40
4.0
 40
4.0
 40
4.0
 10
89.09635383807375
 20
-120.5418383031979
 30
0.0
 10
89.09635383807375
 20
-120.4866991365448
 30
0.0
 10
89.05193911698464
 20
-120.4419316365563
 30
0.0
 10
88.99644717395591
 20
-120.4419316365563
 30
0.0
 10
88.94134328647284
 20
-120.4419316365563
 30
0.0
 10
88.89654050983809
 20
-120.4866991365448
 30
0.0
 10
88.89654050983809
 20
-120.5418383031979
 30
0.0
 10
88.89654050983809
 20
-120.5969421920728
 30
0.0
 10
88.94134328647284
 20
-120.6417449698396
 30
0.0
 10
88.99644717395591
 20
-120.6417449698396
 30
0.0
 10
89.05193911698464
 20
-120.6417449698396
 30
0.0
 10
89.09635383807375
 20
-120.5969421920728
 30
0.0
 10
89.09635383807375
 20
-120.5418383031979
 30
0.0
  0
SPLINE
  5
D6
330
1F
100
AcDbEntity
  8
_U+30EC_U+30A4_U+30E4_U+30FC 1
 62
   179
420
  2234388
370
     9
100
AcDbSpline
210
0.0
220
0.0
230
1.0
 70
    11
 71
     3
 72
    17
 73
    13
 74
     0
 42
0.0000000001
 43
0.0000000001
 12
1.0
 22
0.0
 32
0.0
 13
1.0
 23
0.0
 33
0.0
 40
0.0
 40
0.0
 40
0.0
 40
0.0
 40
1.0
 40
1.0
 40
1.0
 40
2.0
 40
2.0
 40
2.0
 40
3.0
 40
3.0
 40
3.0
 40
4.0
 40
4.0
 40
4.0
 40
4.0
 10
105.0964131521005
 20
-120.5418383031979
 30
0.0
 10
105.0964131521005
 20
-120.4866991365448
 30
0.0
 10
105.0516456532426
 20
-120.4419316365563
 30
0.0
 10
104.9965064879826
 20
-120.4419316365563
 30
0.0
 10
104.9414026004996
 20
-120.4419316365563
 30
0.0
 10
104.8965998238648
 20
-120.4866991365448
 30
0.0
 10
104.8965998238648
 20
-120.5418383031979
 30
0.0
 10
104.8965998238648
 20
-120.5969421920728
 30
0.0
 10
104.9414026004996
 20
-120.6417449698396
 30
0.0
 10
104.9965064879826
 20
-120.6417449698396
 30
0.0
 10
105.0516456532426
 20
-120.6417449698396
 30
0.0
 10
105.0964131521005
 20
-120.5969421920728
 30
0.0
 10
105.0964131521005
 20
-120.5418383031979
 30
0.0
  0
SPLINE
  5
D7
330
1F
100
AcDbEntity
  8
_U+30EC_U+30A4_U+30E4_U+30FC 1
 62
   179
420
  2234388
370
     9
100
AcDbSpline
210
0.0
220
0.0
230
1.0
 70
    11
 71
     3
 72
    17
 73
    13
 74
     0
 42
0.0000000001
 43
0.0000000001
 12
1.0
 22
0.0
 32
0.0
 13
1.0
 23
0.0
 33
0.0
 40
0.0
 40
0.0
 40
0.0
 40
0.0
 40
1.0
 40
1.0
 40
1.0
 40
2.0
 40
2.0
 40
2.0
 40
3.0
 40
3.0
 40
3.0
 40
4.0
 40
4.0
 40
4.0
 40
4.0
 10
93.09646568046685
 20
-142.0419857978227
 30
0.0
 10
93.09646568046685
 20
-141.9868466311702
 30
0.0
 10
93.05169818160896
 20
-141.942079131181
 30
0.0
 10
92.99655901634901
 20
-141.942079131181
 30
0.0
 10
92.94145512886594
 20
-141.942079131181
 30
0.0
 10
92.89665235223117
 20
-141.9868466311702
 30
0.0
 10
92.89665235223117
 20
-142.0419857978227
 30
0.0
 10
92.89665235223117
 20
-142.0970896866982
 30
0.0
 10
92.94145512886594
 20
-142.1418924644643
 30
0.0
 10
92.99655901634901
 20
-142.1418924644643
 30
0.0
 10
93.05169818160896
 20
-142.1418924644643
 30
0.0
 10
93.09646568046685
 20
-142.0970896866982
 30
0.0
 10
93.09646568046685
 20
-142.0419857978227
 30
0.0
  0
SPLINE
  5
D8
330
1F
100
AcDbEntity
  8
_U+30EC_U+30A4_U+30E4_U+30FC 1
 62
   179
420
  2234388
370
     9
100
AcDbSpline
210
0.0
220
0.0
230
1.0
 70
    11
 71
     3
 72
    17
 73
    13
 74
     0
 42
0.0000000001
 43
0.0000000001
 12
1.0
 22
0.0
 32
0.0
 13
1.0
 23
0.0
 33
0.0
 40
0.0
 40
0.0
 40
0.0
 40
0.0
 40
1.0
 40
1.0
 40
1.0
 40
2.0
 40
2.0
 40
2.0
 40
3.0
 40
3.0
 40
3.0
 40
4.0
 40
4.0
 40
4.0
 40
4.0
 10
101.0966540874762
 20
-142.0419857978227
 30
0.0
 10
101.0966540874762
 20
-141.9868466311702
 30
0.0
 10
101.0518865886183
 20
-141.942079131181
 30
0.0
 10
100.9964299233664
 20
-141.942079131181
 30
0.0
 10
100.9412907581065
 20
-141.942079131181
 30
0.0
 10
100.8965232592486
 20
-141.9868466311702
 30
0.0
 10
100.8965232592486
 20
-142.0419857978227
 30
0.0
 10
100.8965232592486
 20
-142.0970896866982
 30
0.0
 10
100.9412907581065
 20
-142.1418924644643
 30
0.0
 10
100.9964299233664
 20
-142.1418924644643
 30
0.0
 10
101.0518865886183
 20
-142.1418924644643
 30
0.0
 10
101.0966540874762
 20
-142.0970896866982
 30
0.0
 10
101.0966540874762
 20
-142.0419857978227
 30
0.0
  0
SPLINE
  5
D9
330
1F
100
AcDbEntity
  8
_U+30EC_U+30A4_U+30E4_U+30FC 1
 62
   179
420
  2234388
370
     9
100
AcDbSpline
210
0.0
220
0.0
230
1.0
 70
    11
 71
     3
 72
    17
 73
    13
 74
     0
 42
0.0000000001
 43
0.0000000001
 12
1.0
 22
0.0
 32
0.0
 13
1.0
 23
0.0
 33
0.0
 40
0.0
 40
0.0
 40
0.0
 40
0.0
 40
1.0
 40
1.0
 40
1.0
 40
2.0
 40
2.0
 40
2.0
 40
3.0
 40
3.0
 40
3.0
 40
4.0
 40
4.0
 40
4.0
 40
4.0
 10
83.09638010225694
 20
-142.0419857978227
 30
0.0
 10
83.09638010225694
 20
-141.9868466311702
 30
0.0
 10
83.05161260339906
 20
-141.942079131181
 30
0.0
 10
82.99647343813912
 20
-141.942079131181
 30
0.0
 10
82.94136955065605
 20
-141.942079131181
 30
0.0
 10
82.89656677402128
 20
-141.9868466311702
 30
0.0
 10
82.89656677402128
 20
-142.0419857978227
 30
0.0
 10
82.89656677402128
 20
-142.0970896866982
 30
0.0
 10
82.94136955065605
 20
-142.1418924644643
 30
0.0
 10
82.99647343813912
 20
-142.1418924644643
 30
0.0
 10
83.05161260339906
 20
-142.1418924644643
 30
0.0
 10
83.09638010225694
 20
-142.0970896866982
 30
0.0
 10
83.09638010225694
 20
-142.0419857978227
 30
0.0
  0
SPLINE
  5
DA
330
1F
100
AcDbEntity
  8
_U+30EC_U+30A4_U+30E4_U+30FC 1
 62
   179
420
  2234388
370
     9
100
AcDbSpline
210
0.0
220
0.0
230
1.0
 70
    11
 71
     3
 72
    17
 73
    13
 74
     0
 42
0.0000000001
 43
0.0000000001
 12
1.0
 22
0.0
 32
0.0
 13
1.0
 23
0.0
 33
0.0
 40
0.0
 40
0.0
 40
0.0
 40
0.0
 40
1.0
 40
1.0
 40
1.0
 40
2.0
 40
2.0
 40
2.0
 40
3.0
 40
3.0
 40
3.0
 40
4.0
 40
4.0
 40
4.0
 40
4.0
 10
79.09662103763264
 20
-138.0415210766009
 30
0.0
 10
79.09662103763264
 20
-137.9864171877254
 30
0.0
 10
79.05185553579254
 20
-137.9416144099593
 30
0.0
 10
78.9963968735229
 20
-137.9416144099593
 30
0.0
 10
78.94125770826295
 20
-137.9416144099593
 30
0.0
 10
78.89649020940507
 20
-137.9864171877254
 30
0.0
 10
78.89649020940507
 20
-138.0415210766009
 30
0.0
 10
78.89649020940507
 20
-138.0973305210314
 30
0.0
 10
78.94125770826295
 20
-138.1421332987981
 30
0.0
 10
78.9963968735229
 20
-138.1421332987981
 30
0.0
 10
79.05185553579254
 20
-138.1421332987981
 30
0.0
 10
79.09662103763264
 20
-138.0973305210314
 30
0.0
 10
79.09662103763264
 20
-138.0415210766009
 30
0.0
  0
SPLINE
  5
DB
330
1F
100
AcDbEntity
  8
_U+30EC_U+30A4_U+30E4_U+30FC 1
 62
   179
420
  2234388
370
     9
100
AcDbSpline
210
0.0
220
0.0
230
1.0
 70
    11
 71
     3
 72
    17
 73
    13
 74
     0
 42
0.0000000001
 43
0.0000000001
 12
1.0
 22
0.0
 32
0.0
 13
1.0
 23
0.0
 33
0.0
 40
0.0
 40
0.0
 40
0.0
 40
0.0
 40
1.0
 40
1.0
 40
1.0
 40
2.0
 40
2.0
 40
2.0
 40
3.0
 40
3.0
 40
3.0
 40
4.0
 40
4.0
 40
4.0
 40
4.0
 10
79.09662103763264
 20
-134.041761910934
 30
0.0
 10
79.09662103763264
 20
-133.9866580220591
 30
0.0
 10
79.05185553579254
 20
-133.9418552442924
 30
0.0
 10
78.9963968735229
 20
-133.9418552442924
 30
0.0
 10
78.94125770826295
 20
-133.9418552442924
 30
0.0
 10
78.89649020940507
 20
-133.9866580220591
 30
0.0
 10
78.89649020940507
 20
-134.041761910934
 30
0.0
 10
78.89649020940507
 20
-134.0969010775871
 30
0.0
 10
78.94125770826295
 20
-134.1416685775757
 30
0.0
 10
78.9963968735229
 20
-134.1416685775757
 30
0.0
 10
79.05185553579254
 20
-134.1416685775757
 30
0.0
 10
79.09662103763264
 20
-134.0969010775871
 30
0.0
 10
79.09662103763264
 20
-134.041761910934
 30
0.0
  0
SPLINE
  5
DC
330
1F
100
AcDbEntity
  8
_U+30EC_U+30A4_U+30E4_U+30FC 1
 62
   179
420
  2234388
370
     9
100
AcDbSpline
210
0.0
220
0.0
230
1.0
 70
    11
 71
     3
 72
    17
 73
    13
 74
     0
 42
0.0000000001
 43
0.0000000001
 12
1.0
 22
0.0
 32
0.0
 13
1.0
 23
0.0
 33
0.0
 40
0.0
 40
0.0
 40
0.0
 40
0.0
 40
1.0
 40
1.0
 40
1.0
 40
2.0
 40
2.0
 40
2.0
 40
3.0
 40
3.0
 40
3.0
 40
4.0
 40
4.0
 40
4.0
 40
4.0
 10
79.09662103763264
 20
-124.5415974688645
 30
0.0
 10
79.09662103763264
 20
-124.4864583022117
 30
0.0
 10
79.05185553579254
 20
-124.441655524445
 30
0.0
 10
78.9963968735229
 20
-124.441655524445
 30
0.0
 10
78.94125770826295
 20
-124.441655524445
 30
0.0
 10
78.89649020940507
 20
-124.4864583022117
 30
0.0
 10
78.89649020940507
 20
-124.5415974688645
 30
0.0
 10
78.89649020940507
 20
-124.5967013577397
 30
0.0
 10
78.94125770826295
 20
-124.6415041355064
 30
0.0
 10
78.9963968735229
 20
-124.6415041355064
 30
0.0
 10
79.05185553579254
 20
-124.6415041355064
 30
0.0
 10
79.09662103763264
 20
-124.5967013577397
 30
0.0
 10
79.09662103763264
 20
-124.5415974688645
 30
0.0
  0
SPLINE
  5
DD
330
1F
100
AcDbEntity
  8
_U+30EC_U+30A4_U+30E4_U+30FC 1
 62
   179
420
  2234388
370
     9
100
AcDbSpline
210
0.0
220
0.0
230
1.0
 70
    11
 71
     3
 72
    17
 73
    13
 74
     0
 42
0.0000000001
 43
0.0000000001
 12
1.0
 22
0.0
 32
0.0
 13
1.0
 23
0.0
 33
0.0
 40
0.0
 40
0.0
 40
0.0
 40
0.0
 40
1.0
 40
1.0
 40
1.0
 40
2.0
 40
2.0
 40
2.0
 40
3.0
 40
3.0
 40
3.0
 40
4.0
 40
4.0
 40
4.0
 40
4.0
 10
107.0966631010698
 20
-142.0419857978227
 30
0.0
 10
107.0966631010698
 20
-141.9868466311702
 30
0.0
 10
107.0518603244351
 20
-141.942079131181
 30
0.0
 10
106.9964036591832
 20
-141.942079131181
 30
0.0
 10
106.9412644939233
 20
-141.942079131181
 30
0.0
 10
106.8964969950654
 20
-141.9868466311702
 30
0.0
 10
106.8964969950654
 20
-142.0419857978227
 30
0.0
 10
106.8964969950654
 20
-142.0970896866982
 30
0.0
 10
106.9412644939233
 20
-142.1418924644643
 30
0.0
 10
106.9964036591832
 20
-142.1418924644643
 30
0.0
 10
107.0518603244351
 20
-142.1418924644643
 30
0.0
 10
107.0966631010698
 20
-142.0970896866982
 30
0.0
 10
107.0966631010698
 20
-142.0419857978227
 30
0.0
  0
POLYLINE
  5
DE
330
1F
100
AcDbEntity
  8
_U+30EC_U+30A4_U+30E4_U+30FC 1
 62
   179
420
  2234388
370
     9
100
AcDb2dPolyline
 66
     1
 10
0.0
 20
0.0
 30
0.0
  0
VERTEX
  5
DF
330
DE
100
AcDbEntity
  8
_U+30EC_U+30A4_U+30E4_U+30FC 1
 62
   179
420
  2234388
370
     9
100
AcDbVertex
100
AcDb2dVertex
 10
92.99655901634901
 20
-142.0419857978227
 30
0.0
  0
VERTEX
  5
E0
330
DE
100
AcDbEntity
  8
_U+30EC_U+30A4_U+30E4_U+30FC 1
 62
   179
420
  2234388
370
     9
100
AcDbVertex
100
AcDb2dVertex
 10
100.9964299233664
 20
-142.0419857978227
 30
0.0
  0
SEQEND
  5
E1
330
DE
100
AcDbEntity
  8
_U+30EC_U+30A4_U+30E4_U+30FC 1
 62
   179
420
  2234388
370
     9
  0
POLYLINE
  5
E2
330
1F
100
AcDbEntity
  8
_U+30EC_U+30A4_U+30E4_U+30FC 1
 62
   179
420
  2234388
370
     9
100
AcDb2dPolyline
 66
     1
 10
0.0
 20
0.0
 30
0.0
  0
VERTEX
  5
E3
330
E2
100
AcDbEntity
  8
_U+30EC_U+30A4_U+30E4_U+30FC 1
 62
   179
420
  2234388
370
     9
100
AcDbVertex
100
AcDb2dVertex
 10
92.99655901634901
 20
-140.581944409299
 30
0.0
  0
VERTEX
  5
E4
330
E2
100
AcDbEntity
  8
_U+30EC_U+30A4_U+30E4_U+30FC 1
 62
   179
420
  2234388
370
     9
100
AcDbVertex
100
AcDb2dVertex
 10
92.99655901634901
 20
-143.0417580197952
 30
0.0
  0
SEQEND
  5
E5
330
E2
100
AcDbEntity
  8
_U+30EC_U+30A4_U+30E4_U+30FC 1
 62
   179
420
  2234388
370
     9
  0
POLYLINE
  5
E6
330
1F
100
AcDbEntity
  8
_U+30EC_U+30A4_U+30E4_U+30FC 1
 62
   179
420
  2234388
370
     9
100
AcDb2dPolyline
 66
     1
 10
0.0
 20
0.0
 30
0.0
  0
VERTEX
  5
E7
330
E6
100
AcDbEntity
  8
_U+30EC_U+30A4_U+30E4_U+30FC 1
 62
   179
420
  2234388
370
     9
100
AcDbVertex
100
AcDb2dVertex
 10
100.9964299233664
 20
-140.581944409299
 30
0.0
  0
VERTEX
  5
E8
330
E6
100
AcDbEntity
  8
_U+30EC_U+30A4_U+30E4_U+30FC 1
 62
   179
420
  2234388
370
     9
100
AcDbVertex
100
AcDb2dVertex
 10
100.9964299233664
 20
-143.0417580197952
 30
0.0
  0
SEQEND
  5
E9
330
E6
100
AcDbEntity
  8
_U+30EC_U+30A4_U+30E4_U+30FC 1
 62
   179
420
  2234388
370
     9
  0
INSERT
  5
EB
330
1F
100
AcDbEntity
  8
_U+30EC_U+30A4_U+30E4_U+30FC 1
100
AcDbBlockReference
  2
block 3
 10
0.0
 20
0.0
 30
0.0
  0
SPLINE
  5
F2
330
1F
100
AcDbEntity
  8
_U+30EC_U+30A4_U+30E4_U+30FC 1
 62
   179
420
  2234388
370
    25
100
AcDbSpline
210
0.0
220
0.0
230
1.0
 70
    11
 71
     3
 72
    17
 73
    13
 74
     0
 42
0.0000000001
 43
0.0000000001
 12
1.0
 22
0.0
 32
0.0
 13
1.0
 23
0.0
 33
0.0
 40
0.0
 40
0.0
 40
0.0
 40
0.0
 40
1.0
 40
1.0
 40
1.0
 40
2.0
 40
2.0
 40
2.0
 40
3.0
 40
3.0
 40
3.0
 40
4.0
 40
4.0
 40
4.0
 40
4.0
 10
93.03169568211926
 20
-138.0415210766009
 30
0.0
 10
93.03169568211926
 20
-138.0615235765956
 30
0.0
 10
93.01585831007918
 20
-138.0773632988142
 30
0.0
 10
92.99655901634901
 20
-138.0773632988142
 30
0.0
 10
92.9769092946281
 20
-138.0773632988142
 30
0.0
 10
92.96142235057876
 20
-138.0615235765956
 30
0.0
 10
92.96142235057876
 20
-138.0415210766009
 30
0.0
 10
92.96142235057876
 20
-138.0222241321611
 30
0.0
 10
92.9769092946281
 20
-138.0063844099425
 30
0.0
 10
92.99655901634901
 20
-138.0063844099425
 30
0.0
 10
93.01585831007918
 20
-138.0063844099425
 30
0.0
 10
93.03169568211926
 20
-138.0222241321611
 30
0.0
 10
93.03169568211926
 20
-138.0415210766009
 30
0.0
  0
SPLINE
  5
F3
330
1F
100
AcDbEntity
  8
_U+30EC_U+30A4_U+30E4_U+30FC 1
 62
   179
420
  2234388
370
    25
100
AcDbSpline
210
0.0
220
0.0
230
1.0
 70
    11
 71
     3
 72
    17
 73
    13
 74
     0
 42
0.0000000001
 43
0.0000000001
 12
1.0
 22
0.0
 32
0.0
 13
1.0
 23
0.0
 33
0.0
 40
0.0
 40
0.0
 40
0.0
 40
0.0
 40
1.0
 40
1.0
 40
1.0
 40
2.0
 40
2.0
 40
2.0
 40
3.0
 40
3.0
 40
3.0
 40
4.0
 40
4.0
 40
4.0
 40
4.0
 10
101.0318840891286
 20
-138.0415210766009
 30
0.0
 10
101.0318840891286
 20
-138.0615235765956
 30
0.0
 10
101.0160443673105
 20
-138.0773632988142
 30
0.0
 10
100.9964299233664
 20
-138.0773632988142
 30
0.0
 10
100.9771329794143
 20
-138.0773632988142
 30
0.0
 10
100.9612932575962
 20
-138.0615235765956
 30
0.0
 10
100.9612932575962
 20
-138.0415210766009
 30
0.0
 10
100.9612932575962
 20
-138.0222241321611
 30
0.0
 10
100.9771329794143
 20
-138.0063844099425
 30
0.0
 10
100.9964299233664
 20
-138.0063844099425
 30
0.0
 10
101.0160443673105
 20
-138.0063844099425
 30
0.0
 10
101.0318840891286
 20
-138.0222241321611
 30
0.0
 10
101.0318840891286
 20
-138.0415210766009
 30
0.0
  0
SPLINE
  5
F4
330
1F
100
AcDbEntity
  8
_U+30EC_U+30A4_U+30E4_U+30FC 1
 62
   179
420
  2234388
370
     9
100
AcDbSpline
210
0.0
220
0.0
230
1.0
 70
    11
 71
     3
 72
    17
 73
    13
 74
     0
 42
0.0000000001
 43
0.0000000001
 12
1.0
 22
0.0
 32
0.0
 13
1.0
 23
0.0
 33
0.0
 40
0.0
 40
0.0
 40
0.0
 40
0.0
 40
1.0
 40
1.0
 40
1.0
 40
2.0
 40
2.0
 40
2.0
 40
3.0
 40
3.0
 40
3.0
 40
4.0
 40
4.0
 40
4.0
 40
4.0
 10
101.0318840891286
 20
-142.0419857978227
 30
0.0
 10
101.0318840891286
 20
-142.0612827422625
 30
0.0
 10
101.0160443673105
 20
-142.0771224644811
 30
0.0
 10
100.9964299233664
 20
-142.0771224644811
 30
0.0
 10
100.9771329794143
 20
-142.0771224644811
 30
0.0
 10
100.9612932575962
 20
-142.0612827422625
 30
0.0
 10
100.9612932575962
 20
-142.0419857978227
 30
0.0
 10
100.9612932575962
 20
-142.021983297828
 30
0.0
 10
100.9771329794143
 20
-142.006849131165
 30
0.0
 10
100.9964299233664
 20
-142.006849131165
 30
0.0
 10
101.0160443673105
 20
-142.006849131165
 30
0.0
 10
101.0318840891286
 20
-142.021983297828
 30
0.0
 10
101.0318840891286
 20
-142.0419857978227
 30
0.0
  0
POLYLINE
  5
F5
330
1F
100
AcDbEntity
  8
_U+30EC_U+30A4_U+30E4_U+30FC 1
 62
   179
420
  2234388
370
     9
100
AcDb2dPolyline
 66
     1
 10
0.0
 20
0.0
 30
0.0
  0
VERTEX
  5
F6
330
F5
100
AcDbEntity
  8
_U+30EC_U+30A4_U+30E4_U+30FC 1
 62
   179
420
  2234388
370
     9
100
AcDbVertex
100
AcDb2dVertex
 10
88.99644717395591
 20
-120.5418383031979
 30
0.0
  0
VERTEX
  5
F7
330
F5
100
AcDbEntity
  8
_U+30EC_U+30A4_U+30E4_U+30FC 1
 62
   179
420
  2234388
370
     9
100
AcDbVertex
100
AcDb2dVertex
 10
104.9965064879826
 20
-120.5418383031979
 30
0.0
  0
SEQEND
  5
F8
330
F5
100
AcDbEntity
  8
_U+30EC_U+30A4_U+30E4_U+30FC 1
 62
   179
420
  2234388
370
     9
  0
POLYLINE
  5
F9
330
1F
100
AcDbEntity
  8
_U+30EC_U+30A4_U+30E4_U+30FC 1
 62
   179
420
  2234388
370
     9
100
AcDb2dPolyline
 66
     1
 10
0.0
 20
0.0
 30
0.0
  0
VERTEX
  5
FA
330
F9
100
AcDbEntity
  8
_U+30EC_U+30A4_U+30E4_U+30FC 1
 62
   179
420
  2234388
370
     9
100
AcDbVertex
100
AcDb2dVertex
 10
88.99644717395591
 20
-122.0018444139441
 30
0.0
  0
VERTEX
  5
FB
330
F9
100
AcDbEntity
  8
_U+30EC_U+30A4_U+30E4_U+30FC 1
 62
   179
420
  2234388
370
     9
100
AcDbVertex
100
AcDb2dVertex
 10
88.99644717395591
 20
-119.5420660812257
 30
0.0
  0
SEQEND
  5
FC
330
F9
100
AcDbEntity
  8
_U+30EC_U+30A4_U+30E4_U+30FC 1
 62
   179
420
  2234388
370
     9
  0
POLYLINE
  5
FD
330
1F
100
AcDbEntity
  8
_U+30EC_U+30A4_U+30E4_U+30FC 1
 62
   179
420
  2234388
370
     9
100
AcDb2dPolyline
 66
     1
 10
0.0
 20
0.0
 30
0.0
  0
VERTEX
  5
FE
330
FD
100
AcDbEntity
  8
_U+30EC_U+30A4_U+30E4_U+30FC 1
 62
   179
420
  2234388
370
     9
100
AcDbVertex
100
AcDb2dVertex
 10
104.9965064879826
 20
-122.0018444139441
 30
0.0
  0
VERTEX
  5
FF
330
FD
100
AcDbEntity
  8
_U+30EC_U+30A4_U+30E4_U+30FC 1
 62
   179
420
  2234388
370
     9
100
AcDbVertex
100
AcDb2dVertex
 10
104.9965064879826
 20
-119.5420660812257
 30
0.0
  0
SEQEND
  5
100
330
FD
100
AcDbEntity
  8
_U+30EC_U+30A4_U+30E4_U+30FC 1
 62
   179
420
  2234388
370
     9
  0
INSERT
  5
102
330
1F
100
AcDbEntity
  8
_U+30EC_U+30A4_U+30E4_U+30FC 1
100
AcDbBlockReference
  2
block 4
 10
0.0
 20
0.0
 30
0.0
  0
SPLINE
  5
10A
330
1F
100
AcDbEntity
  8
_U+30EC_U+30A4_U+30E4_U+30FC 1
 62
   179
420
  2234388
370
    25
100
AcDbSpline
210
0.0
220
0.0
230
1.0
 70
    11
 71
     3
 72
    17
 73
    13
 74
     0
 42
0.0000000001
 43
0.0000000001
 12
1.0
 22
0.0
 32
0.0
 13
1.0
 23
0.0
 33
0.0
 40
0.0
 40
0.0
 40
0.0
 40
0.0
 40
1.0
 40
1.0
 40
1.0
 40
2.0
 40
2.0
 40
2.0
 40
3.0
 40
3.0
 40
3.0
 40
4.0
 40
4.0
 40
4.0
 40
4.0
 10
89.03193886663084
 20
-124.5415974688645
 30
0.0
 10
89.03193886663084
 20
-124.561564691082
 30
0.0
 10
89.01609689567684
 20
-124.5767341355225
 30
0.0
 10
88.99644717395591
 20
-124.5767341355225
 30
0.0
 10
88.97718550778066
 20
-124.5767341355225
 30
0.0
 10
88.96131050818566
 20
-124.561564691082
 30
0.0
 10
88.96131050818566
 20
-124.5415974688645
 30
0.0
 10
88.96131050818566
 20
-124.522300524425
 30
0.0
 10
88.97718550778066
 20
-124.5064255244289
 30
0.0
 10
88.99644717395591
 20
-124.5064255244289
 30
0.0
 10
89.01609689567684
 20
-124.5064255244289
 30
0.0
 10
89.03193886663084
 20
-124.522300524425
 30
0.0
 10
89.03193886663084
 20
-124.5415974688645
 30
0.0
  0
SPLINE
  5
10B
330
1F
100
AcDbEntity
  8
_U+30EC_U+30A4_U+30E4_U+30FC 1
 62
   179
420
  2234388
370
    25
100
AcDbSpline
210
0.0
220
0.0
230
1.0
 70
    11
 71
     3
 72
    17
 73
    13
 74
     0
 42
0.0000000001
 43
0.0000000001
 12
1.0
 22
0.0
 32
0.0
 13
1.0
 23
0.0
 33
0.0
 40
0.0
 40
0.0
 40
0.0
 40
0.0
 40
1.0
 40
1.0
 40
1.0
 40
2.0
 40
2.0
 40
2.0
 40
3.0
 40
3.0
 40
3.0
 40
4.0
 40
4.0
 40
4.0
 40
4.0
 10
105.0316431537529
 20
-124.5415974688645
 30
0.0
 10
105.0316431537529
 20
-124.561564691082
 30
0.0
 10
105.0161562097035
 20
-124.5767341355225
 30
0.0
 10
104.9965064879826
 20
-124.5767341355225
 30
0.0
 10
104.9772095440305
 20
-124.5767341355225
 30
0.0
 10
104.9613698222124
 20
-124.561564691082
 30
0.0
 10
104.9613698222124
 20
-124.5415974688645
 30
0.0
 10
104.9613698222124
 20
-124.522300524425
 30
0.0
 10
104.9772095440305
 20
-124.5064255244289
 30
0.0
 10
104.9965064879826
 20
-124.5064255244289
 30
0.0
 10
105.0161562097035
 20
-124.5064255244289
 30
0.0
 10
105.0316431537529
 20
-124.522300524425
 30
0.0
 10
105.0316431537529
 20
-124.5415974688645
 30
0.0
  0
SPLINE
  5
10C
330
1F
100
AcDbEntity
  8
_U+30EC_U+30A4_U+30E4_U+30FC 1
 62
   179
420
  2234388
370
     9
100
AcDbSpline
210
0.0
220
0.0
230
1.0
 70
    11
 71
     3
 72
    17
 73
    13
 74
     0
 42
0.0000000001
 43
0.0000000001
 12
1.0
 22
0.0
 32
0.0
 13
1.0
 23
0.0
 33
0.0
 40
0.0
 40
0.0
 40
0.0
 40
0.0
 40
1.0
 40
1.0
 40
1.0
 40
2.0
 40
2.0
 40
2.0
 40
3.0
 40
3.0
 40
3.0
 40
4.0
 40
4.0
 40
4.0
 40
4.0
 10
105.0316431537529
 20
-120.5418383031979
 30
0.0
 10
105.0316431537529
 20
-120.5610999698596
 30
0.0
 10
105.0161562097035
 20
-120.5769749698556
 30
0.0
 10
104.9965064879826
 20
-120.5769749698556
 30
0.0
 10
104.9772095440305
 20
-120.5769749698556
 30
0.0
 10
104.9613698222124
 20
-120.5610999698596
 30
0.0
 10
104.9613698222124
 20
-120.5418383031979
 30
0.0
 10
104.9613698222124
 20
-120.5225413587584
 30
0.0
 10
104.9772095440305
 20
-120.5067016365399
 30
0.0
 10
104.9965064879826
 20
-120.5067016365399
 30
0.0
 10
105.0161562097035
 20
-120.5067016365399
 30
0.0
 10
105.0316431537529
 20
-120.5225413587584
 30
0.0
 10
105.0316431537529
 20
-120.5418383031979
 30
0.0
  0
POLYLINE
  5
10D
330
1F
100
AcDbEntity
  8
_U+30EC_U+30A4_U+30E4_U+30FC 1
 62
   179
420
  2234388
370
     9
100
AcDb2dPolyline
 66
     1
 10
0.0
 20
0.0
 30
0.0
  0
VERTEX
  5
10E
330
10D
100
AcDbEntity
  8
_U+30EC_U+30A4_U+30E4_U+30FC 1
 62
   179
420
  2234388
370
     9
100
AcDbVertex
100
AcDb2dVertex
 10
82.99647343813912
 20
-142.0419857978227
 30
0.0
  0
VERTEX
  5
10F
330
10D
100
AcDbEntity
  8
_U+30EC_U+30A4_U+30E4_U+30FC 1
 62
   179
420
  2234388
370
     9
100
AcDbVertex
100
AcDb2dVertex
 10
92.99655901634901
 20
-142.0419857978227
 30
0.0
  0
SEQEND
  5
110
330
10D
100
AcDbEntity
  8
_U+30EC_U+30A4_U+30E4_U+30FC 1
 62
   179
420
  2234388
370
     9
  0
POLYLINE
  5
111
330
1F
100
AcDbEntity
  8
_U+30EC_U+30A4_U+30E4_U+30FC 1
 62
   179
420
  2234388
370
     9
100
AcDb2dPolyline
 66
     1
 10
0.0
 20
0.0
 30
0.0
  0
VERTEX
  5
112
330
111
100
AcDbEntity
  8
_U+30EC_U+30A4_U+30E4_U+30FC 1
 62
   179
420
  2234388
370
     9
100
AcDbVertex
100
AcDb2dVertex
 10
82.99647343813912
 20
-140.581944409299
 30
0.0
  0
VERTEX
  5
113
330
111
100
AcDbEntity
  8
_U+30EC_U+30A4_U+30E4_U+30FC 1
 62
   179
420
  2234388
370
     9
100
AcDbVertex
100
AcDb2dVertex
 10
82.99647343813912
 20
-143.0417580197952
 30
0.0
  0
SEQEND
  5
114
330
111
100
AcDbEntity
  8
_U+30EC_U+30A4_U+30E4_U+30FC 1
 62
   179
420
  2234388
370
     9
  0
INSERT
  5
116
330
1F
100
AcDbEntity
  8
_U+30EC_U+30A4_U+30E4_U+30FC 1
100
AcDbBlockReference
  2
block 5
 10
0.0
 20
0.0
 30
0.0
  0
SPLINE
  5
11E
330
1F
100
AcDbEntity
  8
_U+30EC_U+30A4_U+30E4_U+30FC 1
 62
   179
420
  2234388
370
    25
100
AcDbSpline
210
0.0
220
0.0
230
1.0
 70
    11
 71
     3
 72
    17
 73
    13
 74
     0
 42
0.0000000001
 43
0.0000000001
 12
1.0
 22
0.0
 32
0.0
 13
1.0
 23
0.0
 33
0.0
 40
0.0
 40
0.0
 40
0.0
 40
0.0
 40
1.0
 40
1.0
 40
1.0
 40
2.0
 40
2.0
 40
2.0
 40
3.0
 40
3.0
 40
3.0
 40
4.0
 40
4.0
 40
4.0
 40
4.0
 10
83.03196288167815
 20
-138.0415210766009
 30
0.0
 10
83.03196288167815
 20
-138.0615235765956
 30
0.0
 10
83.01612315986003
 20
-138.0773632988142
 30
0.0
 10
82.99647343813912
 20
-138.0773632988142
 30
0.0
 10
82.97717649418698
 20
-138.0773632988142
 30
0.0
 10
82.96133886814862
 20
-138.0615235765956
 30
0.0
 10
82.96133886814862
 20
-138.0415210766009
 30
0.0
 10
82.96133886814862
 20
-138.0222241321611
 30
0.0
 10
82.97717649418698
 20
-138.0063844099425
 30
0.0
 10
82.99647343813912
 20
-138.0063844099425
 30
0.0
 10
83.01612315986003
 20
-138.0063844099425
 30
0.0
 10
83.03196288167815
 20
-138.0222241321611
 30
0.0
 10
83.03196288167815
 20
-138.0415210766009
 30
0.0
  0
SPLINE
  5
11F
330
1F
100
AcDbEntity
  8
_U+30EC_U+30A4_U+30E4_U+30FC 1
 62
   179
420
  2234388
370
    25
100
AcDbSpline
210
0.0
220
0.0
230
1.0
 70
    11
 71
     3
 72
    17
 73
    13
 74
     0
 42
0.0000000001
 43
0.0000000001
 12
1.0
 22
0.0
 32
0.0
 13
1.0
 23
0.0
 33
0.0
 40
0.0
 40
0.0
 40
0.0
 40
0.0
 40
1.0
 40
1.0
 40
1.0
 40
2.0
 40
2.0
 40
2.0
 40
3.0
 40
3.0
 40
3.0
 40
4.0
 40
4.0
 40
4.0
 40
4.0
 10
93.03169568211926
 20
-138.0415210766009
 30
0.0
 10
93.03169568211926
 20
-138.0615235765956
 30
0.0
 10
93.01585831007918
 20
-138.0773632988142
 30
0.0
 10
92.99655901634901
 20
-138.0773632988142
 30
0.0
 10
92.9769092946281
 20
-138.0773632988142
 30
0.0
 10
92.96142235057876
 20
-138.0615235765956
 30
0.0
 10
92.96142235057876
 20
-138.0415210766009
 30
0.0
 10
92.96142235057876
 20
-138.0222241321611
 30
0.0
 10
92.9769092946281
 20
-138.0063844099425
 30
0.0
 10
92.99655901634901
 20
-138.0063844099425
 30
0.0
 10
93.01585831007918
 20
-138.0063844099425
 30
0.0
 10
93.03169568211926
 20
-138.0222241321611
 30
0.0
 10
93.03169568211926
 20
-138.0415210766009
 30
0.0
  0
SPLINE
  5
120
330
1F
100
AcDbEntity
  8
_U+30EC_U+30A4_U+30E4_U+30FC 1
 62
   179
420
  2234388
370
     9
100
AcDbSpline
210
0.0
220
0.0
230
1.0
 70
    11
 71
     3
 72
    17
 73
    13
 74
     0
 42
0.0000000001
 43
0.0000000001
 12
1.0
 22
0.0
 32
0.0
 13
1.0
 23
0.0
 33
0.0
 40
0.0
 40
0.0
 40
0.0
 40
0.0
 40
1.0
 40
1.0
 40
1.0
 40
2.0
 40
2.0
 40
2.0
 40
3.0
 40
3.0
 40
3.0
 40
4.0
 40
4.0
 40
4.0
 40
4.0
 10
93.03169568211926
 20
-142.0419857978227
 30
0.0
 10
93.03169568211926
 20
-142.0612827422625
 30
0.0
 10
93.01585831007918
 20
-142.0771224644811
 30
0.0
 10
92.99655901634901
 20
-142.0771224644811
 30
0.0
 10
92.9769092946281
 20
-142.0771224644811
 30
0.0
 10
92.96142235057876
 20
-142.0612827422625
 30
0.0
 10
92.96142235057876
 20
-142.0419857978227
 30
0.0
 10
92.96142235057876
 20
-142.021983297828
 30
0.0
 10
92.9769092946281
 20
-142.006849131165
 30
0.0
 10
92.99655901634901
 20
-142.006849131165
 30
0.0
 10
93.01585831007918
 20
-142.006849131165
 30
0.0
 10
93.03169568211926
 20
-142.021983297828
 30
0.0
 10
93.03169568211926
 20
-142.0419857978227
 30
0.0
  0
POLYLINE
  5
121
330
1F
100
AcDbEntity
  8
_U+30EC_U+30A4_U+30E4_U+30FC 1
 62
   179
420
  2234388
370
     9
100
AcDb2dPolyline
 66
     1
 10
0.0
 20
0.0
 30
0.0
  0
VERTEX
  5
122
330
121
100
AcDbEntity
  8
_U+30EC_U+30A4_U+30E4_U+30FC 1
 62
   179
420
  2234388
370
     9
100
AcDbVertex
100
AcDb2dVertex
 10
78.9963968735229
 20
-134.041761910934
 30
0.0
  0
VERTEX
  5
123
330
121
100
AcDbEntity
  8
_U+30EC_U+30A4_U+30E4_U+30FC 1
 62
   179
420
  2234388
370
     9
100
AcDbVertex
100
AcDb2dVertex
 10
78.9963968735229
 20
-138.0415210766009
 30
0.0
  0
SEQEND
  5
124
330
121
100
AcDbEntity
  8
_U+30EC_U+30A4_U+30E4_U+30FC 1
 62
   179
420
  2234388
370
     9
  0
POLYLINE
  5
125
330
1F
100
AcDbEntity
  8
_U+30EC_U+30A4_U+30E4_U+30FC 1
 62
   179
420
  2234388
370
     9
100
AcDb2dPolyline
 66
     1
 10
0.0
 20
0.0
 30
0.0
  0
VERTEX
  5
126
330
125
100
AcDbEntity
  8
_U+30EC_U+30A4_U+30E4_U+30FC 1
 62
   179
420
  2234388
370
     9
100
AcDbVertex
100
AcDb2dVertex
 10
80.45640294738615
 20
-134.041761910934
 30
0.0
  0
VERTEX
  5
127
330
125
100
AcDbEntity
  8
_U+30EC_U+30A4_U+30E4_U+30FC 1
 62
   179
420
  2234388
370
     9
100
AcDbVertex
100
AcDb2dVertex
 10
77.99662467680699
 20
-134.041761910934
 30
0.0
  0
SEQEND
  5
128
330
125
100
AcDbEntity
  8
_U+30EC_U+30A4_U+30E4_U+30FC 1
 62
   179
420
  2234388
370
     9
  0
POLYLINE
  5
129
330
1F
100
AcDbEntity
  8
_U+30EC_U+30A4_U+30E4_U+30FC 1
 62
   179
420
  2234388
370
     9
100
AcDb2dPolyline
 66
     1
 10
0.0
 20
0.0
 30
0.0
  0
VERTEX
  5
12A
330
129
100
AcDbEntity
  8
_U+30EC_U+30A4_U+30E4_U+30FC 1
 62
   179
420
  2234388
370
     9
100
AcDbVertex
100
AcDb2dVertex
 10
80.45640294738615
 20
-138.0415210766009
 30
0.0
  0
VERTEX
  5
12B
330
129
100
AcDbEntity
  8
_U+30EC_U+30A4_U+30E4_U+30FC 1
 62
   179
420
  2234388
370
     9
100
AcDbVertex
100
AcDb2dVertex
 10
77.99662467680699
 20
-138.0415210766009
 30
0.0
  0
SEQEND
  5
12C
330
129
100
AcDbEntity
  8
_U+30EC_U+30A4_U+30E4_U+30FC 1
 62
   179
420
  2234388
370
     9
  0
INSERT
  5
12E
330
1F
100
AcDbEntity
  8
_U+30EC_U+30A4_U+30E4_U+30FC 1
100
AcDbBlockReference
  2
block 6
 10
0.0
 20
0.0
 30
0.0
  0
SPLINE
  5
146
330
1F
100
AcDbEntity
  8
_U+30EC_U+30A4_U+30E4_U+30FC 1
 62
   179
420
  2234388
370
    25
100
AcDbSpline
210
0.0
220
0.0
230
1.0
 70
    11
 71
     3
 72
    17
 73
    13
 74
     0
 42
0.0000000001
 43
0.0000000001
 12
1.0
 22
0.0
 32
0.0
 13
1.0
 23
0.0
 33
0.0
 40
0.0
 40
0.0
 40
0.0
 40
0.0
 40
1.0
 40
1.0
 40
1.0
 40
2.0
 40
2.0
 40
2.0
 40
3.0
 40
3.0
 40
3.0
 40
4.0
 40
4.0
 40
4.0
 40
4.0
 10
83.03196288167815
 20
-134.041761910934
 30
0.0
 10
83.03196288167815
 20
-134.0610588553739
 30
0.0
 10
83.01612315986003
 20
-134.0768985775917
 30
0.0
 10
82.99647343813912
 20
-134.0768985775917
 30
0.0
 10
82.97717649418698
 20
-134.0768985775917
 30
0.0
 10
82.96133886814862
 20
-134.0610588553739
 30
0.0
 10
82.96133886814862
 20
-134.041761910934
 30
0.0
 10
82.96133886814862
 20
-134.0225002442724
 30
0.0
 10
82.97717649418698
 20
-134.0066252442763
 30
0.0
 10
82.99647343813912
 20
-134.0066252442763
 30
0.0
 10
83.01612315986003
 20
-134.0066252442763
 30
0.0
 10
83.03196288167815
 20
-134.0225002442724
 30
0.0
 10
83.03196288167815
 20
-134.041761910934
 30
0.0
  0
SPLINE
  5
147
330
1F
100
AcDbEntity
  8
_U+30EC_U+30A4_U+30E4_U+30FC 1
 62
   179
420
  2234388
370
    25
100
AcDbSpline
210
0.0
220
0.0
230
1.0
 70
    11
 71
     3
 72
    17
 73
    13
 74
     0
 42
0.0000000001
 43
0.0000000001
 12
1.0
 22
0.0
 32
0.0
 13
1.0
 23
0.0
 33
0.0
 40
0.0
 40
0.0
 40
0.0
 40
0.0
 40
1.0
 40
1.0
 40
1.0
 40
2.0
 40
2.0
 40
2.0
 40
3.0
 40
3.0
 40
3.0
 40
4.0
 40
4.0
 40
4.0
 40
4.0
 10
83.03196288167815
 20
-138.0415210766009
 30
0.0
 10
83.03196288167815
 20
-138.0615235765956
 30
0.0
 10
83.01612315986003
 20
-138.0773632988142
 30
0.0
 10
82.99647343813912
 20
-138.0773632988142
 30
0.0
 10
82.97717649418698
 20
-138.0773632988142
 30
0.0
 10
82.96133886814862
 20
-138.0615235765956
 30
0.0
 10
82.96133886814862
 20
-138.0415210766009
 30
0.0
 10
82.96133886814862
 20
-138.0222241321611
 30
0.0
 10
82.97717649418698
 20
-138.0063844099425
 30
0.0
 10
82.99647343813912
 20
-138.0063844099425
 30
0.0
 10
83.01612315986003
 20
-138.0063844099425
 30
0.0
 10
83.03196288167815
 20
-138.0222241321611
 30
0.0
 10
83.03196288167815
 20
-138.0415210766009
 30
0.0
  0
SPLINE
  5
148
330
1F
100
AcDbEntity
  8
_U+30EC_U+30A4_U+30E4_U+30FC 1
 62
   179
420
  2234388
370
     9
100
AcDbSpline
210
0.0
220
0.0
230
1.0
 70
    11
 71
     3
 72
    17
 73
    13
 74
     0
 42
0.0000000001
 43
0.0000000001
 12
1.0
 22
0.0
 32
0.0
 13
1.0
 23
0.0
 33
0.0
 40
0.0
 40
0.0
 40
0.0
 40
0.0
 40
1.0
 40
1.0
 40
1.0
 40
2.0
 40
2.0
 40
2.0
 40
3.0
 40
3.0
 40
3.0
 40
4.0
 40
4.0
 40
4.0
 40
4.0
 10
79.03185103928506
 20
-138.0415210766009
 30
0.0
 10
79.03185103928506
 20
-138.0615235765956
 30
0.0
 10
79.01601131746695
 20
-138.0773632988142
 30
0.0
 10
78.9963968735229
 20
-138.0773632988142
 30
0.0
 10
78.97709992957077
 20
-138.0773632988142
 30
0.0
 10
78.96122492997577
 20
-138.0615235765956
 30
0.0
 10
78.96122492997577
 20
-138.0415210766009
 30
0.0
 10
78.96122492997577
 20
-138.0222241321611
 30
0.0
 10
78.97709992957077
 20
-138.0063844099425
 30
0.0
 10
78.9963968735229
 20
-138.0063844099425
 30
0.0
 10
79.01601131746695
 20
-138.0063844099425
 30
0.0
 10
79.03185103928506
 20
-138.0222241321611
 30
0.0
 10
79.03185103928506
 20
-138.0415210766009
 30
0.0
  0
POLYLINE
  5
149
330
1F
100
AcDbEntity
  8
_U+30EC_U+30A4_U+30E4_U+30FC 1
 62
   179
420
  2234388
370
     9
100
AcDb2dPolyline
 66
     1
 10
0.0
 20
0.0
 30
0.0
  0
VERTEX
  5
14A
330
149
100
AcDbEntity
  8
_U+30EC_U+30A4_U+30E4_U+30FC 1
 62
   179
420
  2234388
370
     9
100
AcDbVertex
100
AcDb2dVertex
 10
78.9963968735229
 20
-134.041761910934
 30
0.0
  0
VERTEX
  5
14B
330
149
100
AcDbEntity
  8
_U+30EC_U+30A4_U+30E4_U+30FC 1
 62
   179
420
  2234388
370
     9
100
AcDbVertex
100
AcDb2dVertex
 10
78.9963968735229
 20
-124.5415974688645
 30
0.0
  0
SEQEND
  5
14C
330
149
100
AcDbEntity
  8
_U+30EC_U+30A4_U+30E4_U+30FC 1
 62
   179
420
  2234388
370
     9
  0
POLYLINE
  5
14D
330
1F
100
AcDbEntity
  8
_U+30EC_U+30A4_U+30E4_U+30FC 1
 62
   179
420
  2234388
370
     9
100
AcDb2dPolyline
 66
     1
 10
0.0
 20
0.0
 30
0.0
  0
VERTEX
  5
14E
330
14D
100
AcDbEntity
  8
_U+30EC_U+30A4_U+30E4_U+30FC 1
 62
   179
420
  2234388
370
     9
100
AcDbVertex
100
AcDb2dVertex
 10
86.45637668320296
 20
-124.5415974688645
 30
0.0
  0
VERTEX
  5
14F
330
14D
100
AcDbEntity
  8
_U+30EC_U+30A4_U+30E4_U+30FC 1
 62
   179
420
  2234388
370
     9
100
AcDbVertex
100
AcDb2dVertex
 10
77.99662467680699
 20
-124.5415974688645
 30
0.0
  0
SEQEND
  5
150
330
14D
100
AcDbEntity
  8
_U+30EC_U+30A4_U+30E4_U+30FC 1
 62
   179
420
  2234388
370
     9
  0
INSERT
  5
152
330
1F
100
AcDbEntity
  8
_U+30EC_U+30A4_U+30E4_U+30FC 1
100
AcDbBlockReference
  2
block 7
 10
0.0
 20
0.0
 30
0.0
  0
SPLINE
  5
162
330
1F
100
AcDbEntity
  8
_U+30EC_U+30A4_U+30E4_U+30FC 1
 62
   179
420
  2234388
370
    25
100
AcDbSpline
210
0.0
220
0.0
230
1.0
 70
    11
 71
     3
 72
    17
 73
    13
 74
     0
 42
0.0000000001
 43
0.0000000001
 12
1.0
 22
0.0
 32
0.0
 13
1.0
 23
0.0
 33
0.0
 40
0.0
 40
0.0
 40
0.0
 40
0.0
 40
1.0
 40
1.0
 40
1.0
 40
2.0
 40
2.0
 40
2.0
 40
3.0
 40
3.0
 40
3.0
 40
4.0
 40
4.0
 40
4.0
 40
4.0
 10
83.03196288167815
 20
-134.041761910934
 30
0.0
 10
83.03196288167815
 20
-134.0610588553739
 30
0.0
 10
83.01612315986003
 20
-134.0768985775917
 30
0.0
 10
82.99647343813912
 20
-134.0768985775917
 30
0.0
 10
82.97717649418698
 20
-134.0768985775917
 30
0.0
 10
82.96133886814862
 20
-134.0610588553739
 30
0.0
 10
82.96133886814862
 20
-134.041761910934
 30
0.0
 10
82.96133886814862
 20
-134.0225002442724
 30
0.0
 10
82.97717649418698
 20
-134.0066252442763
 30
0.0
 10
82.99647343813912
 20
-134.0066252442763
 30
0.0
 10
83.01612315986003
 20
-134.0066252442763
 30
0.0
 10
83.03196288167815
 20
-134.0225002442724
 30
0.0
 10
83.03196288167815
 20
-134.041761910934
 30
0.0
  0
SPLINE
  5
163
330
1F
100
AcDbEntity
  8
_U+30EC_U+30A4_U+30E4_U+30FC 1
 62
   179
420
  2234388
370
    25
100
AcDbSpline
210
0.0
220
0.0
230
1.0
 70
    11
 71
     3
 72
    17
 73
    13
 74
     0
 42
0.0000000001
 43
0.0000000001
 12
1.0
 22
0.0
 32
0.0
 13
1.0
 23
0.0
 33
0.0
 40
0.0
 40
0.0
 40
0.0
 40
0.0
 40
1.0
 40
1.0
 40
1.0
 40
2.0
 40
2.0
 40
2.0
 40
3.0
 40
3.0
 40
3.0
 40
4.0
 40
4.0
 40
4.0
 40
4.0
 10
89.03193886663084
 20
-124.5415974688645
 30
0.0
 10
89.03193886663084
 20
-124.561564691082
 30
0.0
 10
89.01609689567684
 20
-124.5767341355225
 30
0.0
 10
88.99644717395591
 20
-124.5767341355225
 30
0.0
 10
88.97718550778066
 20
-124.5767341355225
 30
0.0
 10
88.96131050818566
 20
-124.561564691082
 30
0.0
 10
88.96131050818566
 20
-124.5415974688645
 30
0.0
 10
88.96131050818566
 20
-124.522300524425
 30
0.0
 10
88.97718550778066
 20
-124.5064255244289
 30
0.0
 10
88.99644717395591
 20
-124.5064255244289
 30
0.0
 10
89.01609689567684
 20
-124.5064255244289
 30
0.0
 10
89.03193886663084
 20
-124.522300524425
 30
0.0
 10
89.03193886663084
 20
-124.5415974688645
 30
0.0
  0
SPLINE
  5
164
330
1F
100
AcDbEntity
  8
_U+30EC_U+30A4_U+30E4_U+30FC 1
 62
   179
420
  2234388
370
     9
100
AcDbSpline
210
0.0
220
0.0
230
1.0
 70
    11
 71
     3
 72
    17
 73
    13
 74
     0
 42
0.0000000001
 43
0.0000000001
 12
1.0
 22
0.0
 32
0.0
 13
1.0
 23
0.0
 33
0.0
 40
0.0
 40
0.0
 40
0.0
 40
0.0
 40
1.0
 40
1.0
 40
1.0
 40
2.0
 40
2.0
 40
2.0
 40
3.0
 40
3.0
 40
3.0
 40
4.0
 40
4.0
 40
4.0
 40
4.0
 10
79.03185103928506
 20
-124.5415974688645
 30
0.0
 10
79.03185103928506
 20
-124.561564691082
 30
0.0
 10
79.01601131746695
 20
-124.5767341355225
 30
0.0
 10
78.9963968735229
 20
-124.5767341355225
 30
0.0
 10
78.97709992957077
 20
-124.5767341355225
 30
0.0
 10
78.96122492997577
 20
-124.561564691082
 30
0.0
 10
78.96122492997577
 20
-124.5415974688645
 30
0.0
 10
78.96122492997577
 20
-124.522300524425
 30
0.0
 10
78.97709992957077
 20
-124.5064255244289
 30
0.0
 10
78.9963968735229
 20
-124.5064255244289
 30
0.0
 10
79.01601131746695
 20
-124.5064255244289
 30
0.0
 10
79.03185103928506
 20
-124.522300524425
 30
0.0
 10
79.03185103928506
 20
-124.5415974688645
 30
0.0
  0
POLYLINE
  5
165
330
1F
100
AcDbEntity
  8
_U+30EC_U+30A4_U+30E4_U+30FC 1
 62
   179
420
  2234388
370
     9
100
AcDb2dPolyline
 66
     1
 10
0.0
 20
0.0
 30
0.0
  0
VERTEX
  5
166
330
165
100
AcDbEntity
  8
_U+30EC_U+30A4_U+30E4_U+30FC 1
 62
   179
420
  2234388
370
     9
100
AcDbVertex
100
AcDb2dVertex
 10
100.9964299233664
 20
-142.0419857978227
 30
0.0
  0
VERTEX
  5
167
330
165
100
AcDbEntity
  8
_U+30EC_U+30A4_U+30E4_U+30FC 1
 62
   179
420
  2234388
370
     9
100
AcDbVertex
100
AcDb2dVertex
 10
106.9964036591832
 20
-142.0419857978227
 30
0.0
  0
SEQEND
  5
168
330
165
100
AcDbEntity
  8
_U+30EC_U+30A4_U+30E4_U+30FC 1
 62
   179
420
  2234388
370
     9
  0
POLYLINE
  5
169
330
1F
100
AcDbEntity
  8
_U+30EC_U+30A4_U+30E4_U+30FC 1
 62
   179
420
  2234388
370
     9
100
AcDb2dPolyline
 66
     1
 10
0.0
 20
0.0
 30
0.0
  0
VERTEX
  5
16A
330
169
100
AcDbEntity
  8
_U+30EC_U+30A4_U+30E4_U+30FC 1
 62
   179
420
  2234388
370
     9
100
AcDbVertex
100
AcDb2dVertex
 10
106.9964036591832
 20
-140.581944409299
 30
0.0
  0
VERTEX
  5
16B
330
169
100
AcDbEntity
  8
_U+30EC_U+30A4_U+30E4_U+30FC 1
 62
   179
420
  2234388
370
     9
100
AcDbVertex
100
AcDb2dVertex
 10
106.9964036591832
 20
-143.0417580197952
 30
0.0
  0
SEQEND
  5
16C
330
169
100
AcDbEntity
  8
_U+30EC_U+30A4_U+30E4_U+30FC 1
 62
   179
420
  2234388
370
     9
  0
INSERT
  5
16E
330
1F
100
AcDbEntity
  8
_U+30EC_U+30A4_U+30E4_U+30FC 1
100
AcDbBlockReference
  2
block 8
 10
0.0
 20
0.0
 30
0.0
  0
SPLINE
  5
174
330
1F
100
AcDbEntity
  8
_U+30EC_U+30A4_U+30E4_U+30FC 1
 62
   179
420
  2234388
370
    25
100
AcDbSpline
210
0.0
220
0.0
230
1.0
 70
    11
 71
     3
 72
    17
 73
    13
 74
     0
 42
0.0000000001
 43
0.0000000001
 12
1.0
 22
0.0
 32
0.0
 13
1.0
 23
0.0
 33
0.0
 40
0.0
 40
0.0
 40
0.0
 40
0.0
 40
1.0
 40
1.0
 40
1.0
 40
2.0
 40
2.0
 40
2.0
 40
3.0
 40
3.0
 40
3.0
 40
4.0
 40
4.0
 40
4.0
 40
4.0
 10
101.0318840891286
 20
-138.0415210766009
 30
0.0
 10
101.0318840891286
 20
-138.0615235765956
 30
0.0
 10
101.0160443673105
 20
-138.0773632988142
 30
0.0
 10
100.9964299233664
 20
-138.0773632988142
 30
0.0
 10
100.9771329794143
 20
-138.0773632988142
 30
0.0
 10
100.9612932575962
 20
-138.0615235765956
 30
0.0
 10
100.9612932575962
 20
-138.0415210766009
 30
0.0
 10
100.9612932575962
 20
-138.0222241321611
 30
0.0
 10
100.9771329794143
 20
-138.0063844099425
 30
0.0
 10
100.9964299233664
 20
-138.0063844099425
 30
0.0
 10
101.0160443673105
 20
-138.0063844099425
 30
0.0
 10
101.0318840891286
 20
-138.0222241321611
 30
0.0
 10
101.0318840891286
 20
-138.0415210766009
 30
0.0
  0
SPLINE
  5
175
330
1F
100
AcDbEntity
  8
_U+30EC_U+30A4_U+30E4_U+30FC 1
 62
   179
420
  2234388
370
    25
100
AcDbSpline
210
0.0
220
0.0
230
1.0
 70
    11
 71
     3
 72
    17
 73
    13
 74
     0
 42
0.0000000001
 43
0.0000000001
 12
1.0
 22
0.0
 32
0.0
 13
1.0
 23
0.0
 33
0.0
 40
0.0
 40
0.0
 40
0.0
 40
0.0
 40
1.0
 40
1.0
 40
1.0
 40
2.0
 40
2.0
 40
2.0
 40
3.0
 40
3.0
 40
3.0
 40
4.0
 40
4.0
 40
4.0
 40
4.0
 10
107.0318931027223
 20
-138.0415210766009
 30
0.0
 10
107.0318931027223
 20
-138.0615235765956
 30
0.0
 10
107.0160181031273
 20
-138.0773632988142
 30
0.0
 10
106.9964036591832
 20
-138.0773632988142
 30
0.0
 10
106.9771067152311
 20
-138.0773632988142
 30
0.0
 10
106.961266993413
 20
-138.0615235765956
 30
0.0
 10
106.961266993413
 20
-138.0415210766009
 30
0.0
 10
106.961266993413
 20
-138.0222241321611
 30
0.0
 10
106.9771067152311
 20
-138.0063844099425
 30
0.0
 10
106.9964036591832
 20
-138.0063844099425
 30
0.0
 10
107.0160181031273
 20
-138.0063844099425
 30
0.0
 10
107.0318931027223
 20
-138.0222241321611
 30
0.0
 10
107.0318931027223
 20
-138.0415210766009
 30
0.0
  0
SPLINE
  5
176
330
1F
100
AcDbEntity
  8
_U+30EC_U+30A4_U+30E4_U+30FC 1
 62
   179
420
  2234388
370
     9
100
AcDbSpline
210
0.0
220
0.0
230
1.0
 70
    11
 71
     3
 72
    17
 73
    13
 74
     0
 42
0.0000000001
 43
0.0000000001
 12
1.0
 22
0.0
 32
0.0
 13
1.0
 23
0.0
 33
0.0
 40
0.0
 40
0.0
 40
0.0
 40
0.0
 40
1.0
 40
1.0
 40
1.0
 40
2.0
 40
2.0
 40
2.0
 40
3.0
 40
3.0
 40
3.0
 40
4.0
 40
4.0
 40
4.0
 40
4.0
 10
107.0318931027223
 20
-142.0419857978227
 30
0.0
 10
107.0318931027223
 20
-142.0612827422625
 30
0.0
 10
107.0160181031273
 20
-142.0771224644811
 30
0.0
 10
106.9964036591832
 20
-142.0771224644811
 30
0.0
 10
106.9771067152311
 20
-142.0771224644811
 30
0.0
 10
106.961266993413
 20
-142.0612827422625
 30
0.0
 10
106.961266993413
 20
-142.0419857978227
 30
0.0
 10
106.961266993413
 20
-142.021983297828
 30
0.0
 10
106.9771067152311
 20
-142.006849131165
 30
0.0
 10
106.9964036591832
 20
-142.006849131165
 30
0.0
 10
107.0160181031273
 20
-142.006849131165
 30
0.0
 10
107.0318931027223
 20
-142.021983297828
 30
0.0
 10
107.0318931027223
 20
-142.0419857978227
 30
0.0
  0
ENDSEC
  0
SECTION
  2
OBJECTS
  0
DICTIONARY
  5
C
330
0
100
AcDbDictionary
281
     1
  3
ACAD_GROUP
350
D
  3
ACAD_LAYOUT
350
1A
  3
ACAD_MATERIAL
350
3B
  3
ACAD_MLEADERSTYLE
350
178
  3
ACAD_MLINESTYLE
350
17
  3
ACAD_PLOTSETTINGS
350
19
  3
ACAD_PLOTSTYLENAME
350
E
  3
ACAD_TABLESTYLE
350
177
  3
ACAD_VISUALSTYLE
350
2A
  0
SUN
  5
3F
330
29
100
AcDbSun
 90
        1
290
     0
 63
     7
421
 16777215
 40
1.0
291
     1
 91
  2455826
 92
 54000000
292
     0
 70
     2
 71
   256
280
     1
  0
DICTIONARY
  5
D
102
{ACAD_REACTORS
330
C
102
}
330
C
100
AcDbDictionary
281
     1
  0
DICTIONARY
  5
1A
102
{ACAD_REACTORS
330
C
102
}
330
C
100
AcDbDictionary
281
     1
  3
Layout1
350
1E
  3
Layout2
350
26
  3
Model
350
22
  0
DICTIONARY
  5
3B
102
{ACAD_REACTORS
330
C
102
}
330
C
100
AcDbDictionary
281
     1
  3
ByBlock
350
3D
  3
ByLayer
350
3C
  3
Global
350
3E
  0
DICTIONARY
  5
178
102
{ACAD_REACTORS
330
C
102
}
330
C
100
AcDbDictionary
281
     1
  0
DICTIONARY
  5
17
102
{ACAD_REACTORS
330
C
102
}
330
C
100
AcDbDictionary
281
     1
  3
Standard
350
18
  0
DICTIONARY
  5
19
102
{ACAD_REACTORS
330
C
102
}
330
C
100
AcDbDictionary
281
     1
  0
ACDBDICTIONARYWDFLT
  5
E
102
{ACAD_REACTORS
330
C
102
}
330
C
100
AcDbDictionary
281
     1
  3
Normal
350
F
100
AcDbDictionaryWithDefault
340
F
  0
DICTIONARY
  5
177
102
{ACAD_REACTORS
330
C
102
}
330
C
100
AcDbDictionary
281
     1
  0
DICTIONARY
  5
2A
102
{ACAD_REACTORS
330
C
102
}
330
C
100
AcDbDictionary
281
     1
  3
2dWireframe
350
2F
  3
3D Hidden
350
31
  3
3dWireframe
350
30
  3
Basic
350
32
  3
Brighten
350
36
  3
ColorChange
350
3A
  3
Conceptual
350
34
  3
Dim
350
35
  3
Facepattern
350
39
  3
Flat
350
2B
  3
FlatWithEdges
350
2C
  3
Gouraud
350
2D
  3
GouraudWithEdges
350
2E
  3
Linepattern
350
38
  3
Realistic
350
33
  3
Thicken
350
37
  0
LAYOUT
  5
1E
102
{ACAD_REACTORS
330
1A
102
}
330
1A
100
AcDbPlotSettings
  1

  2
none_device
  4

  6

 40
0.0
 41
0.0
 42
0.0
 43
0.0
 44
0.0
 45
0.0
 46
0.0
 47
0.0
 48
0.0
 49
0.0
140
0.0
141
0.0
142
1.0
143
1.0
 70
   688
 72
     0
 73
     0
 74
     5
  7

 75
    16
 76
     0
 77
     2
 78
   300
147
1.0
148
0.0
149
0.0
100
AcDbLayout
  1
Layout1
 70
     1
 71
     1
 10
0.0
 20
0.0
 11
12.0
 21
9.0
 12
0.0
 22
0.0
 32
0.0
 14
1.000000000000000E+20
 24
1.000000000000000E+20
 34
1.000000000000000E+20
 15
-1.000000000000000E+20
 25
-1.000000000000000E+20
 35
-1.000000000000000E+20
146
0.0
 13
0.0
 23
0.0
 33
0.0
 16
1.0
 26
0.0
 36
0.0
 17
0.0
 27
1.0
 37
0.0
 76
     0
330
1B
  0
LAYOUT
  5
26
102
{ACAD_REACTORS
330
1A
102
}
330
1A
100
AcDbPlotSettings
  1

  2
none_device
  4

  6

 40
0.0
 41
0.0
 42
0.0
 43
0.0
 44
0.0
 45
0.0
 46
0.0
 47
0.0
 48
0.0
 49
0.0
140
0.0
141
0.0
142
1.0
143
1.0
 70
   688
 72
     0
 73
     0
 74
     5
  7

 75
    16
 76
     0
 77
     2
 78
   300
147
1.0
148
0.0
149
0.0
100
AcDbLayout
  1
Layout2
 70
     1
 71
     2
 10
0.0
 20
0.0
 11
0.0
 21
0.0
 12
0.0
 22
0.0
 32
0.0
 14
0.0
 24
0.0
 34
0.0
 15
0.0
 25
0.0
 35
0.0
146
0.0
 13
0.0
 23
0.0
 33
0.0
 16
1.0
 26
0.0
 36
0.0
 17
0.0
 27
1.0
 37
0.0
 76
     0
330
23
  0
LAYOUT
  5
22
102
{ACAD_REACTORS
330
1A
102
}
330
1A
100
AcDbPlotSettings
  1

  2
none_device
  4

  6

 40
0.0
 41
0.0
 42
0.0
 43
0.0
 44
0.0
 45
0.0
 46
0.0
 47
0.0
 48
0.0
 49
0.0
140
0.0
141
0.0
142
1.0
143
1.0
 70
  1712
 72
     0
 73
     0
 74
     0
  7

 75
     0
 76
     0
 77
     2
 78
   300
147
1.0
148
0.0
149
0.0
100
AcDbLayout
  1
Model
 70
     1
 71
     0
 10
0.0
 20
0.0
 11
12.0
 21
9.0
 12
0.0
 22
0.0
 32
0.0
 14
1.000000000000000E+20
 24
1.000000000000000E+20
 34
1.000000000000000E+20
 15
-1.000000000000000E+20
 25
-1.000000000000000E+20
 35
-1.000000000000000E+20
146
0.0
 13
0.0
 23
0.0
 33
0.0
 16
1.0
 26
0.0
 36
0.0
 17
0.0
 27
1.0
 37
0.0
 76
     0
330
1F
331
29
  0
MATERIAL
  5
3D
102
{ACAD_REACTORS
330
3B
102
}
330
3B
100
AcDbMaterial
  1
ByBlock
 72
     1
 94
      127
  0
MATERIAL
  5
3C
102
{ACAD_REACTORS
330
3B
102
}
330
3B
100
AcDbMaterial
  1
ByLayer
 72
     1
 94
      127
  0
MATERIAL
  5
3E
102
{ACAD_REACTORS
330
3B
102
}
330
3B
100
AcDbMaterial
  1
Global
 72
     1
 94
      127
  0
MLINESTYLE
  5
18
102
{ACAD_REACTORS
330
17
102
}
330
17
100
AcDbMlineStyle
  2
Standard
 70
     0
  3

 62
   256
 51
90.0
 52
90.0
 71
     2
 49
0.5
 62
   256
  6
BYLAYER
 49
-0.5
 62
   256
  6
BYLAYER
  0
ACDBPLACEHOLDER
  5
F
102
{ACAD_REACTORS
330
E
102
}
330
E
  0
VISUALSTYLE
  5
2F
102
{ACAD_REACTORS
330
2A
102
}
330
2A
100
AcDbVisualStyle
  2
2dWireframe
 70
     4
177
     2
291
     0
 71
     0
176
     1
 72
     2
176
     1
 73
     0
176
     1
 90
        0
176
     1
 40
-0.6
176
     1
 41
-30.0
176
     1
 62
     5
 63
     7
421
 16777215
176
     1
 74
     1
176
     1
 91
        4
176
     1
 64
     7
176
     1
 65
   257
176
     1
 75
     1
176
     1
175
     1
176
     1
 42
1.0
176
     1
 92
        0
176
     1
 66
   257
176
     1
 43
1.0
176
     1
 76
     1
176
     1
 77
     6
176
     1
 78
     2
176
     1
 67
     7
176
     1
 79
     5
176
     1
170
     0
176
     1
171
     0
176
     1
290
     0
176
     1
 93
        1
176
     1
 44
0.0
176
     1
173
     0
176
     1
  0
VISUALSTYLE
  5
31
102
{ACAD_REACTORS
330
2A
102
}
330
2A
100
AcDbVisualStyle
  2
3D Hidden
 70
     6
177
     2
291
     0
 71
     1
176
     1
 72
     2
176
     1
 73
     2
176
     1
 90
        0
176
     1
 40
-0.6
176
     1
 41
-30.0
176
     1
 62
     5
 63
     7
421
 16777215
176
     1
 74
     2
176
     1
 91
        2
176
     1
 64
     7
176
     1
 65
   257
176
     1
 75
     2
176
     1
175
     1
176
     1
 42
40.0
176
     1
 92
        0
176
     1
 66
   257
176
     1
 43
1.0
176
     1
 76
     1
176
     1
 77
     6
176
     1
 78
     2
176
     1
 67
     7
176
     1
 79
     3
176
     1
170
     0
176
     1
171
     0
176
     1
290
     0
176
     1
 93
        1
176
     1
 44
0.0
176
     1
173
     0
176
     1
  0
VISUALSTYLE
  5
30
102
{ACAD_REACTORS
330
2A
102
}
330
2A
100
AcDbVisualStyle
  2
3dWireframe
 70
     5
177
     2
291
     0
 71
     0
176
     1
 72
     2
176
     1
 73
     0
176
     1
 90
        0
176
     1
 40
-0.6
176
     1
 41
-30.0
176
     1
 62
     5
 63
     7
421
 16777215
176
     1
 74
     1
176
     1
 91
        4
176
     1
 64
     7
176
     1
 65
   257
176
     1
 75
     1
176
     1
175
     1
176
     1
 42
1.0
176
     1
 92
        0
176
     1
 66
   257
176
     1
 43
1.0
176
     1
 76
     1
176
     1
 77
     6
176
     1
 78
     2
176
     1
 67
     7
176
     1
 79
     5
176
     1
170
     0
176
     1
171
     0
176
     1
290
     0
176
     1
 93
        1
176
     1
 44
0.0
176
     1
173
     0
176
     1
  0
VISUALSTYLE
  5
32
102
{ACAD_REACTORS
330
2A
102
}
330
2A
100
AcDbVisualStyle
  2
Basic
 70
     7
177
     2
291
     1
 71
     1
176
     1
 72
     0
176
     1
 73
     1
176
     1
 90
        0
176
     1
 40
-0.6
176
     1
 41
-30.0
176
     1
 62
     5
 63
     7
421
 16777215
176
     1
 74
     0
176
     1
 91
        4
176
     1
 64
     7
176
     1
 65
   257
176
     1
 75
     1
176
     1
175
     1
176
     1
 42
1.0
176
     1
 92
        8
176
     1
 66
     7
176
     1
 43
1.0
176
     1
 76
     1
176
     1
 77
     6
176
     1
 78
     2
176
     1
 67
     7
176
     1
 79
     5
176
     1
170
     0
176
     1
171
     0
176
     1
290
     0
176
     1
 93
        1
176
     1
 44
0.0
176
     1
173
     0
176
     1
  0
VISUALSTYLE
  5
36
102
{ACAD_REACTORS
330
2A
102
}
330
2A
100
AcDbVisualStyle
  2
Brighten
 70
    12
177
     2
291
     1
 71
     2
176
     1
 72
     2
176
     1
 73
     0
176
     1
 90
        0
176
     1
 40
-0.6
176
     1
 41
-30.0
176
     1
 62
     5
 63
     7
421
 16777215
176
     1
 74
     1
176
     1
 91
        4
176
     1
 64
     7
176
     1
 65
   257
176
     1
 75
     1
176
     1
175
     1
176
     1
 42
1.0
176
     1
 92
        8
176
     1
 66
     7
176
     1
 43
1.0
176
     1
 76
     1
176
     1
 77
     6
176
     1
 78
     2
176
     1
 67
     7
176
     1
 79
     5
176
     1
170
     0
176
     1
171
     0
176
     1
290
     0
176
     1
 93
        1
176
     1
 44
50.0
176
     1
173
     0
176
     1
  0
VISUALSTYLE
  5
3A
102
{ACAD_REACTORS
330
2A
102
}
330
2A
100
AcDbVisualStyle
  2
ColorChange
 70
    16
177
     2
291
     1
 71
     2
176
     1
 72
     2
176
     1
 73
     3
176
     1
 90
        0
176
     1
 40
-0.6
176
     1
 41
-30.0
176
     1
 62
     5
 63
     8
421
  8421504
176
     1
 74
     1
176
     1
 91
        4
176
     1
 64
     7
176
     1
 65
   257
176
     1
 75
     1
176
     1
175
     1
176
     1
 42
1.0
176
     1
 92
        8
176
     1
 66
     8
424
  8421504
176
     1
 43
1.0
176
     1
 76
     1
176
     1
 77
     6
176
     1
 78
     2
176
     1
 67
     7
176
     1
 79
     5
176
     1
170
     0
176
     1
171
     0
176
     1
290
     0
176
     1
 93
        1
176
     1
 44
0.0
176
     1
173
     0
176
     1
  0
VISUALSTYLE
  5
34
102
{ACAD_REACTORS
330
2A
102
}
330
2A
100
AcDbVisualStyle
  2
Conceptual
 70
     9
177
     2
291
     0
 71
     3
176
     1
 72
     2
176
     1
 73
     0
176
     1
 90
        0
176
     1
 40
-0.6
176
     1
 41
-30.0
176
     1
 62
     5
 63
     7
421
 16777215
176
     1
 74
     2
176
     1
 91
        2
176
     1
 64
     7
176
     1
 65
   257
176
     1
 75
     1
176
     1
175
     1
176
     1
 42
40.0
176
     1
 92
        8
176
     1
 66
     7
176
     1
 43
1.0
176
     1
 76
     1
176
     1
 77
     6
176
     1
 78
     2
176
     1
 67
     7
176
     1
 79
     3
176
     1
170
     0
176
     1
171
     0
176
     1
290
     0
176
     1
 93
        1
176
     1
 44
0.0
176
     1
173
     0
176
     1
  0
VISUALSTYLE
  5
35
102
{ACAD_REACTORS
330
2A
102
}
330
2A
100
AcDbVisualStyle
  2
Dim
 70
    11
177
     2
291
     1
 71
     2
176
     1
 72
     2
176
     1
 73
     0
176
     1
 90
        0
176
     1
 40
-0.6
176
     1
 41
-30.0
176
     1
 62
     5
 63
     7
421
 16777215
176
     1
 74
     1
176
     1
 91
        4
176
     1
 64
     7
176
     1
 65
   257
176
     1
 75
     1
176
     1
175
     1
176
     1
 42
1.0
176
     1
 92
        8
176
     1
 66
     7
176
     1
 43
1.0
176
     1
 76
     1
176
     1
 77
     6
176
     1
 78
     2
176
     1
 67
     7
176
     1
 79
     5
176
     1
170
     0
176
     1
171
     0
176
     1
290
     0
176
     1
 93
        1
176
     1
 44
-50.0
176
     1
173
     0
176
     1
  0
VISUALSTYLE
  5
39
102
{ACAD_REACTORS
330
2A
102
}
330
2A
100
AcDbVisualStyle
  2
Facepattern
 70
    15
177
     2
291
     1
 71
     2
176
     1
 72
     2
176
     1
 73
     0
176
     1
 90
        0
176
     1
 40
-0.6
176
     1
 41
-30.0
176
     1
 62
     5
 63
     7
421
 16777215
176
     1
 74
     1
176
     1
 91
        4
176
     1
 64
     7
176
     1
 65
   257
176
     1
 75
     1
176
     1
175
     1
176
     1
 42
1.0
176
     1
 92
        8
176
     1
 66
     7
176
     1
 43
1.0
176
     1
 76
     1
176
     1
 77
     6
176
     1
 78
     2
176
     1
 67
     7
176
     1
 79
     5
176
     1
170
     0
176
     1
171
     0
176
     1
290
     0
176
     1
 93
        1
176
     1
 44
0.0
176
     1
173
     0
176
     1
  0
VISUALSTYLE
  5
2B
102
{ACAD_REACTORS
330
2A
102
}
330
2A
100
AcDbVisualStyle
  2
Flat
 70
     0
177
     2
291
     1
 71
     2
176
     1
 72
     1
176
     1
 73
     1
176
     1
 90
        2
176
     1
 40
-0.6
176
     1
 41
30.0
176
     1
 62
     5
 63
     7
421
 16777215
176
     1
 74
     0
176
     1
 91
        4
176
     1
 64
     7
176
     1
 65
   257
176
     1
 75
     1
176
     1
175
     1
176
     1
 42
1.0
176
     1
 92
        8
176
     1
 66
     7
176
     1
 43
1.0
176
     1
 76
     1
176
     1
 77
     6
176
     1
 78
     2
176
     1
 67
     7
176
     1
 79
     5
176
     1
170
     0
176
     1
171
     0
176
     1
290
     0
176
     1
 93
       13
176
     1
 44
0.0
176
     1
173
     0
176
     1
  0
VISUALSTYLE
  5
2C
102
{ACAD_REACTORS
330
2A
102
}
330
2A
100
AcDbVisualStyle
  2
FlatWithEdges
 70
     1
177
     2
291
     1
 71
     2
176
     1
 72
     1
176
     1
 73
     1
176
     1
 90
        2
176
     1
 40
-0.6
176
     1
 41
30.0
176
     1
 62
     5
 63
     7
421
 16777215
176
     1
 74
     1
176
     1
 91
        4
176
     1
 64
     7
176
     1
 65
   257
176
     1
 75
     1
176
     1
175
     1
176
     1
 42
1.0
176
     1
 92
        0
176
     1
 66
   257
176
     1
 43
1.0
176
     1
 76
     1
176
     1
 77
     6
176
     1
 78
     2
176
     1
 67
     7
176
     1
 79
     5
176
     1
170
     0
176
     1
171
     0
176
     1
290
     0
176
     1
 93
       13
176
     1
 44
0.0
176
     1
173
     0
176
     1
  0
VISUALSTYLE
  5
2D
102
{ACAD_REACTORS
330
2A
102
}
330
2A
100
AcDbVisualStyle
  2
Gouraud
 70
     2
177
     2
291
     1
 71
     2
176
     1
 72
     2
176
     1
 73
     1
176
     1
 90
        2
176
     1
 40
-0.6
176
     1
 41
30.0
176
     1
 62
     5
 63
     7
421
 16777215
176
     1
 74
     0
176
     1
 91
        4
176
     1
 64
     7
176
     1
 65
   257
176
     1
 75
     1
176
     1
175
     1
176
     1
 42
1.0
176
     1
 92
        0
176
     1
 66
     7
176
     1
 43
1.0
176
     1
 76
     1
176
     1
 77
     6
176
     1
 78
     2
176
     1
 67
     7
176
     1
 79
     5
176
     1
170
     0
176
     1
171
     0
176
     1
290
     0
176
     1
 93
       13
176
     1
 44
0.0
176
     1
173
     0
176
     1
  0
VISUALSTYLE
  5
2E
102
{ACAD_REACTORS
330
2A
102
}
330
2A
100
AcDbVisualStyle
  2
GouraudWithEdges
 70
     3
177
     2
291
     1
 71
     2
176
     1
 72
     2
176
     1
 73
     1
176
     1
 90
        2
176
     1
 40
-0.6
176
     1
 41
30.0
176
     1
 62
     5
 63
     7
421
 16777215
176
     1
 74
     1
176
     1
 91
        4
176
     1
 64
     7
176
     1
 65
   257
176
     1
 75
     1
176
     1
175
     1
176
     1
 42
1.0
176
     1
 92
        0
176
     1
 66
   257
176
     1
 43
1.0
176
     1
 76
     1
176
     1
 77
     6
176
     1
 78
     2
176
     1
 67
     7
176
     1
 79
     5
176
     1
170
     0
176
     1
171
     0
176
     1
290
     0
176
     1
 93
       13
176
     1
 44
0.0
176
     1
173
     0
176
     1
  0
VISUALSTYLE
  5
38
102
{ACAD_REACTORS
330
2A
102
}
330
2A
100
AcDbVisualStyle
  2
Linepattern
 70
    14
177
     2
291
     1
 71
     2
176
     1
 72
     2
176
     1
 73
     0
176
     1
 90
        0
176
     1
 40
-0.6
176
     1
 41
-30.0
176
     1
 62
     5
 63
     7
421
 16777215
176
     1
 74
     1
176
     1
 91
        4
176
     1
 64
     7
176
     1
 65
   257
176
     1
 75
     7
176
     1
175
     7
176
     1
 42
1.0
176
     1
 92
        8
176
     1
 66
     7
176
     1
 43
1.0
176
     1
 76
     1
176
     1
 77
     6
176
     1
 78
     2
176
     1
 67
     7
176
     1
 79
     5
176
     1
170
     0
176
     1
171
     0
176
     1
290
     0
176
     1
 93
        1
176
     1
 44
0.0
176
     1
173
     0
176
     1
  0
VISUALSTYLE
  5
33
102
{ACAD_REACTORS
330
2A
102
}
330
2A
100
AcDbVisualStyle
  2
Realistic
 70
     8
177
     2
291
     0
 71
     2
176
     1
 72
     2
176
     1
 73
     0
176
     1
 90
        0
176
     1
 40
-0.6
176
     1
 41
-30.0
176
     1
 62
     5
 63
     7
421
 16777215
176
     1
 74
     1
176
     1
 91
        0
176
     1
 64
     7
176
     1
 65
   257
176
     1
 75
     1
176
     1
175
     1
176
     1
 42
1.0
176
     1
 92
        8
176
     1
 66
     8
424
  7895160
176
     1
 43
1.0
176
     1
 76
     1
176
     1
 77
     6
176
     1
 78
     2
176
     1
 67
     7
176
     1
 79
     5
176
     1
170
     0
176
     1
171
     0
176
     1
290
     0
176
     1
 93
       13
176
     1
 44
0.0
176
     1
173
     0
176
     1
  0
VISUALSTYLE
  5
37
102
{ACAD_REACTORS
330
2A
102
}
330
2A
100
AcDbVisualStyle
  2
Thicken
 70
    13
177
     2
291
     1
 71
     2
176
     1
 72
     2
176
     1
 73
     0
176
     1
 90
        0
176
     1
 40
-0.6
176
     1
 41
-30.0
176
     1
 62
     5
 63
     7
421
 16777215
176
     1
 74
     1
176
     1
 91
        4
176
     1
 64
     7
176
     1
 65
   257
176
     1
 75
     1
176
     1
175
     1
176
     1
 42
1.0
176
     1
 92
       12
176
     1
 66
     7
176
     1
 43
1.0
176
     1
 76
     1
176
     1
 77
     6
176
     1
 78
     2
176
     1
 67
     7
176
     1
 79
     5
176
     1
170
     0
176
     1
171
     0
176
     1
290
     0
176
     1
 93
        1
176
     1
 44
0.0
176
     1
173
     0
176
     1
  0
ENDSEC
  0
EOF
