  0
SECTION
  2
HEADER
  9
$ACADVER
  1
AC1024
  9
$ACADMAINTVER
 70
     6
  9
$DWGCODEPAGE
  3
UNDEFINED
  9
$INSBASE
 10
0.0
 20
0.0
 30
0.0
  9
$EXTMIN
 10
1.000000000000000E+20
 20
1.000000000000000E+20
 30
1.000000000000000E+20
  9
$EXTMAX
 10
-1.000000000000000E+20
 20
-1.000000000000000E+20
 30
-1.000000000000000E+20
  9
$LIMMIN
 10
0.0
 20
0.0
  9
$LIMMAX
 10
12.0
 20
9.0
  9
$ORTHOMODE
 70
     0
  9
$REGENMODE
 70
     1
  9
$FILLMODE
 70
     1
  9
$QTEXTMODE
 70
     0
  9
$MIRRTEXT
 70
     1
  9
$LTSCALE
 40
1.0
  9
$ATTMODE
 70
     1
  9
$TEXTSIZE
 40
0.2
  9
$TRACEWID
 40
0.05
  9
$TEXTSTYLE
  7
Standard
  9
$CLAYER
  8
0
  9
$CELTYPE
  6
ByLayer
  9
$CECOLOR
 62
   256
  9
$CELTSCALE
 40
1.0
  9
$DISPSILH
 70
     0
  9
$DIMSCALE
 40
1.0
  9
$DIMASZ
 40
0.18
  9
$DIMEXO
 40
0.0625
  9
$DIMDLI
 40
0.38
  9
$DIMRND
 40
0.0
  9
$DIMDLE
 40
0.0
  9
$DIMEXE
 40
0.18
  9
$DIMTP
 40
0.0
  9
$DIMTM
 40
0.0
  9
$DIMTXT
 40
0.18
  9
$DIMCEN
 40
0.09
  9
$DIMTSZ
 40
0.0
  9
$DIMTOL
 70
     0
  9
$DIMLIM
 70
     0
  9
$DIMTIH
 70
     1
  9
$DIMTOH
 70
     1
  9
$DIMSE1
 70
     0
  9
$DIMSE2
 70
     0
  9
$DIMTAD
 70
     0
  9
$DIMZIN
 70
     0
  9
$DIMBLK
  1

  9
$DIMASO
 70
     1
  9
$DIMSHO
 70
     1
  9
$DIMPOST
  1

  9
$DIMAPOST
  1

  9
$DIMALT
 70
     0
  9
$DIMALTD
 70
     2
  9
$DIMALTF
 40
25.4
  9
$DIMLFAC
 40
1.0
  9
$DIMTOFL
 70
     0
  9
$DIMTVP
 40
0.0
  9
$DIMTIX
 70
     0
  9
$DIMSOXD
 70
     0
  9
$DIMSAH
 70
     0
  9
$DIMBLK1
  1

  9
$DIMBLK2
  1

  9
$DIMSTYLE
  2
Standard
  9
$DIMCLRD
 70
     0
  9
$DIMCLRE
 70
     0
  9
$DIMCLRT
 70
     0
  9
$DIMTFAC
 40
1.0
  9
$DIMGAP
 40
0.09
  9
$DIMJUST
 70
     0
  9
$DIMSD1
 70
     0
  9
$DIMSD2
 70
     0
  9
$DIMTOLJ
 70
     1
  9
$DIMTZIN
 70
     0
  9
$DIMALTZ
 70
     0
  9
$DIMALTTZ
 70
     0
  9
$DIMUPT
 70
     0
  9
$DIMDEC
 70
     4
  9
$DIMTDEC
 70
     4
  9
$DIMALTU
 70
     2
  9
$DIMALTTD
 70
     2
  9
$DIMTXSTY
  7
Standard
  9
$DIMAUNIT
 70
     0
  9
$DIMADEC
 70
     0
  9
$DIMALTRND
 40
0.0
  9
$DIMAZIN
 70
     0
  9
$DIMDSEP
 70
    46
  9
$DIMATFIT
 70
     3
  9
$DIMFRAC
 70
     0
  9
$DIMLDRBLK
  1

  9
$DIMLUNIT
 70
     2
  9
$DIMLWD
 70
    -2
  9
$DIMLWE
 70
    -2
  9
$DIMTMOVE
 70
     0
  9
$DIMFXL
 40
1.0
  9
$DIMFXLON
 70
     0
  9
$DIMJOGANG
 40
0.7853981633974483
  9
$DIMTFILL
 70
     0
  9
$DIMTFILLCLR
 70
     0
  9
$DIMARCSYM
 70
     0
  9
$DIMLTYPE
  6

  9
$DIMLTEX1
  6

  9
$DIMLTEX2
  6

  9
$DIMTXTDIRECTION
 70
     0
  9
$LUNITS
 70
     2
  9
$LUPREC
 70
     4
  9
$SKETCHINC
 40
0.1
  9
$FILLETRAD
 40
0.5
  9
$AUNITS
 70
     0
  9
$AUPREC
 70
     0
  9
$MENU
  1
.
  9
$ELEVATION
 40
0.0
  9
$PELEVATION
 40
0.0
  9
$THICKNESS
 40
0.0
  9
$LIMCHECK
 70
     0
  9
$CHAMFERA
 40
0.5
  9
$CHAMFERB
 40
0.5
  9
$CHAMFERC
 40
1.0
  9
$CHAMFERD
 40
0.0
  9
$SKPOLY
 70
     0
  9
$TDCREATE
 40
2457917.628564815
  9
$TDUCREATE
 40
2457917.253564815
  9
$TDUPDATE
 40
2457917.628564815
  9
$TDUUPDATE
 40
2457917.253564815
  9
$TDINDWG
 40
0.0000000116
  9
$TDUSRTIMER
 40
0.0000000116
  9
$USRTIMER
 70
     1
  9
$ANGBASE
 50
0.0
  9
$ANGDIR
 70
     0
  9
$PDMODE
 70
     0
  9
$PDSIZE
 40
0.0
  9
$PLINEWID
 40
0.0
  9
$SPLFRAME
 70
     0
  9
$SPLINETYPE
 70
     6
  9
$SPLINESEGS
 70
     8
  9
$HANDSEED
  5
18A
  9
$SURFTAB1
 70
     6
  9
$SURFTAB2
 70
     6
  9
$SURFTYPE
 70
     6
  9
$SURFU
 70
     6
  9
$SURFV
 70
     6
  9
$UCSBASE
  2

  9
$UCSNAME
  2

  9
$UCSORG
 10
0.0
 20
0.0
 30
0.0
  9
$UCSXDIR
 10
1.0
 20
0.0
 30
0.0
  9
$UCSYDIR
 10
0.0
 20
1.0
 30
0.0
  9
$UCSORTHOREF
  2

  9
$UCSORTHOVIEW
 70
     0
  9
$UCSORGTOP
 10
0.0
 20
0.0
 30
0.0
  9
$UCSORGBOTTOM
 10
0.0
 20
0.0
 30
0.0
  9
$UCSORGLEFT
 10
0.0
 20
0.0
 30
0.0
  9
$UCSORGRIGHT
 10
0.0
 20
0.0
 30
0.0
  9
$UCSORGFRONT
 10
0.0
 20
0.0
 30
0.0
  9
$UCSORGBACK
 10
0.0
 20
0.0
 30
0.0
  9
$PUCSBASE
  2

  9
$PUCSNAME
  2

  9
$PUCSORG
 10
0.0
 20
0.0
 30
0.0
  9
$PUCSXDIR
 10
1.0
 20
0.0
 30
0.0
  9
$PUCSYDIR
 10
0.0
 20
1.0
 30
0.0
  9
$PUCSORTHOREF
  2

  9
$PUCSORTHOVIEW
 70
     0
  9
$PUCSORGTOP
 10
0.0
 20
0.0
 30
0.0
  9
$PUCSORGBOTTOM
 10
0.0
 20
0.0
 30
0.0
  9
$PUCSORGLEFT
 10
0.0
 20
0.0
 30
0.0
  9
$PUCSORGRIGHT
 10
0.0
 20
0.0
 30
0.0
  9
$PUCSORGFRONT
 10
0.0
 20
0.0
 30
0.0
  9
$PUCSORGBACK
 10
0.0
 20
0.0
 30
0.0
  9
$USERI1
 70
     0
  9
$USERI2
 70
     0
  9
$USERI3
 70
     0
  9
$USERI4
 70
     0
  9
$USERI5
 70
     0
  9
$USERR1
 40
0.0
  9
$USERR2
 40
0.0
  9
$USERR3
 40
0.0
  9
$USERR4
 40
0.0
  9
$USERR5
 40
0.0
  9
$WORLDVIEW
 70
     1
  9
$SHADEDGE
 70
     3
  9
$SHADEDIF
 70
    70
  9
$TILEMODE
 70
     1
  9
$MAXACTVP
 70
    64
  9
$PINSBASE
 10
0.0
 20
0.0
 30
0.0
  9
$PLIMCHECK
 70
     0
  9
$PEXTMIN
 10
1.000000000000000E+20
 20
1.000000000000000E+20
 30
1.000000000000000E+20
  9
$PEXTMAX
 10
-1.000000000000000E+20
 20
-1.000000000000000E+20
 30
-1.000000000000000E+20
  9
$PLIMMIN
 10
0.0
 20
0.0
  9
$PLIMMAX
 10
12.0
 20
9.0
  9
$UNITMODE
 70
     0
  9
$VISRETAIN
 70
     1
  9
$PLINEGEN
 70
     0
  9
$PSLTSCALE
 70
     1
  9
$TREEDEPTH
 70
  3020
  9
$CMLSTYLE
  2
Standard
  9
$CMLJUST
 70
     0
  9
$CMLSCALE
 40
1.0
  9
$PROXYGRAPHICS
 70
     1
  9
$MEASUREMENT
 70
     0
  9
$CELWEIGHT
370
    -1
  9
$ENDCAPS
280
     0
  9
$JOINSTYLE
280
     0
  9
$LWDISPLAY
290
     1
  9
$INSUNITS
 70
     1
  9
$HYPERLINKBASE
  1

  9
$STYLESHEET
  1

  9
$XEDIT
290
     1
  9
$CEPSNTYPE
380
     0
  9
$PSTYLEMODE
290
     1
  9
$FINGERPRINTGUID
  2
{F97B969F-8B39-1E51-F4BA-F2B68167BE86}
  9
$VERSIONGUID
  2
{FAEB1C32-E019-11D5-929B-00C0DF256EC4}
  9
$EXTNAMES
290
     1
  9
$PSVPSCALE
 40
0.0
  9
$OLESTARTUP
290
     0
  9
$SORTENTS
280
   127
  9
$INDEXCTL
280
     0
  9
$HIDETEXT
280
     1
  9
$XCLIPFRAME
280
     2
  9
$HALOGAP
280
     0
  9
$OBSCOLOR
 70
   257
  9
$OBSLTYPE
280
     0
  9
$INTERSECTIONDISPLAY
280
     0
  9
$INTERSECTIONCOLOR
 70
   257
  9
$DIMASSOC
280
     2
  9
$PROJECTNAME
  1

  9
$CAMERADISPLAY
290
     0
  9
$LENSLENGTH
 40
50.0
  9
$CAMERAHEIGHT
 40
0.0
  9
$STEPSPERSEC
 40
2.0
  9
$STEPSIZE
 40
6.0
  9
$3DDWFPREC
 40
2.0
  9
$PSOLWIDTH
 40
0.25
  9
$PSOLHEIGHT
 40
4.0
  9
$LOFTANG1
 40
1.570796326794897
  9
$LOFTANG2
 40
1.570796326794897
  9
$LOFTMAG1
 40
0.0
  9
$LOFTMAG2
 40
0.0
  9
$LOFTPARAM
 70
     7
  9
$LOFTNORMALS
280
     1
  9
$LATITUDE
 40
37.795
  9
$LONGITUDE
 40
-122.394
  9
$NORTHDIRECTION
 40
0.0
  9
$TIMEZONE
 70
 -8000
  9
$LIGHTGLYPHDISPLAY
280
     1
  9
$TILEMODELIGHTSYNCH
280
     1
  9
$CMATERIAL
347
3C
  9
$SOLIDHIST
280
     1
  9
$SHOWHIST
280
     1
  9
$DWFFRAME
280
     2
  9
$DGNFRAME
280
     2
  9
$REALWORLDSCALE
290
     1
  9
$INTERFERECOLOR
 62
   256
  9
$CSHADOW
280
     0
  9
$SHADOWPLANELOCATION
 40
0.0
  0
ENDSEC
  0
SECTION
  2
CLASSES
  0
CLASS
  1
ACDBDICTIONARYWDFLT
  2
AcDbDictionaryWithDefault
  3
ObjectDBX Classes
 90
        0
 91
        4
280
     0
281
     0
  0
CLASS
  1
VISUALSTYLE
  2
AcDbVisualStyle
  3
ObjectDBX Classes
 90
     4095
 91
        4
280
     0
281
     0
  0
CLASS
  1
MATERIAL
  2
AcDbMaterial
  3
ObjectDBX Classes
 90
     1153
 91
        4
280
     0
281
     0
  0
CLASS
  1
SUN
  2
AcDbSun
  3
SCENEOE
 90
     1024
 91
        4
280
     0
281
     0
  0
ENDSEC
  0
SECTION
  2
TABLES
  0
TABLE
  2
VPORT
  5
8
330
0
100
AcDbSymbolTable
 70
     1
  0
VPORT
  5
29
330
8
100
AcDbSymbolTableRecord
100
AcDbViewportTableRecord
  2
*Active
 70
     0
 10
0.0
 20
0.0
 11
1.0
 21
1.0
 12
0.0
 22
0.0
 13
0.0
 23
0.0
 14
0.5
 24
0.5
 15
0.5
 25
0.5
 16
0.0
 26
0.0
 36
1.0
 17
91.00082462281999
 27
-128.4993055234307
 37
0.0
 40
256.9986110468615
 41
0.7081814508812795
 42
50.0
 43
0.0
 44
0.0
 50
0.0
 51
0.0
 71
     0
 72
   100
 73
     1
 74
     3
 75
     0
 76
     0
 77
     0
 78
     0
281
     0
 65
     1
110
0.0
120
0.0
130
0.0
111
1.0
121
0.0
131
0.0
112
0.0
122
1.0
132
0.0
 79
     0
146
0.0
 60
     3
 61
     5
292
     1
282
     1
141
0.0
142
0.0
 63
   250
361
3F
  0
ENDTAB
  0
TABLE
  2
LTYPE
  5
5
330
0
100
AcDbSymbolTable
 70
     1
  0
LTYPE
  5
14
330
5
100
AcDbSymbolTableRecord
100
AcDbLinetypeTableRecord
  2
ByBlock
 70
     0
  3

 72
    65
 73
     0
 40
0.0
  0
LTYPE
  5
15
330
5
100
AcDbSymbolTableRecord
100
AcDbLinetypeTableRecord
  2
ByLayer
 70
     0
  3

 72
    65
 73
     0
 40
0.0
  0
LTYPE
  5
16
330
5
100
AcDbSymbolTableRecord
100
AcDbLinetypeTableRecord
  2
Continuous
 70
     0
  3
Solid line
 72
    65
 73
     0
 40
0.0
  0
ENDTAB
  0
TABLE
  2
LAYER
  5
2
330
0
100
AcDbSymbolTable
 70
     2
  0
LAYER
  5
10
330
2
100
AcDbSymbolTableRecord
100
AcDbLayerTableRecord
  2
0
 70
     0
 62
     7
  6
Continuous
370
    -3
390
F
347
3E
  0
LAYER
  5
40
330
2
100
AcDbSymbolTableRecord
100
AcDbLayerTableRecord
  2
_U+30EC_U+30A4_U+30E4_U+30FC 1
 70
     0
 62
     7
  6
Continuous
370
    -3
390
F
347
3E
  0
ENDTAB
  0
TABLE
  2
STYLE
  5
3
330
0
100
AcDbSymbolTable
 70
     1
  0
STYLE
  5
11
330
3
100
AcDbSymbolTableRecord
100
AcDbTextStyleTableRecord
  2
Standard
 70
     0
 40
0.0
 41
1.0
 50
0.0
 71
     0
 42
0.2
  3
txt
  4

  0
ENDTAB
  0
TABLE
  2
VIEW
  5
6
330
0
100
AcDbSymbolTable
 70
     0
  0
ENDTAB
  0
TABLE
  2
UCS
  5
7
330
0
100
AcDbSymbolTable
 70
     0
  0
ENDTAB
  0
TABLE
  2
APPID
  5
9
330
0
100
AcDbSymbolTable
 70
     1
  0
APPID
  5
12
330
9
100
AcDbSymbolTableRecord
100
AcDbRegAppTableRecord
  2
ACAD
 70
     0
  0
ENDTAB
  0
TABLE
  2
DIMSTYLE
  5
A
330
0
100
AcDbSymbolTable
 70
     1
100
AcDbDimStyleTable
  0
DIMSTYLE
105
27
330
A
100
AcDbSymbolTableRecord
100
AcDbDimStyleTableRecord
  2
Standard
 70
     0
178
     0
340
11
  0
ENDTAB
  0
TABLE
  2
BLOCK_RECORD
  5
1
330
0
100
AcDbSymbolTable
 70
     8
  0
BLOCK_RECORD
  5
1F
330
1
100
AcDbSymbolTableRecord
100
AcDbBlockTableRecord
  2
*Model_Space
340
22
 70
     0
280
     1
281
     0
  0
BLOCK_RECORD
  5
1B
330
1
100
AcDbSymbolTableRecord
100
AcDbBlockTableRecord
  2
*Paper_Space
340
1E
 70
     0
280
     1
281
     0
  0
BLOCK_RECORD
  5
23
330
1
100
AcDbSymbolTableRecord
100
AcDbBlockTableRecord
  2
*Paper_Space0
340
26
 70
     0
280
     1
281
     0
  0
BLOCK_RECORD
  5
41
330
1
100
AcDbSymbolTableRecord
100
AcDbBlockTableRecord
  2
block 2
340
0
102
{BLKREFS
331
42
102
}
 70
     0
280
     1
281
     0
  0
BLOCK_RECORD
  5
102
330
1
100
AcDbSymbolTableRecord
100
AcDbBlockTableRecord
  2
block 3
340
0
102
{BLKREFS
331
103
102
}
 70
     0
280
     1
281
     0
  0
BLOCK_RECORD
  5
115
330
1
100
AcDbSymbolTableRecord
100
AcDbBlockTableRecord
  2
block 4
340
0
102
{BLKREFS
331
116
102
}
 70
     0
280
     1
281
     0
  0
BLOCK_RECORD
  5
129
330
1
100
AcDbSymbolTableRecord
100
AcDbBlockTableRecord
  2
block 5
340
0
102
{BLKREFS
331
12A
102
}
 70
     0
280
     1
281
     0
  0
BLOCK_RECORD
  5
141
330
1
100
AcDbSymbolTableRecord
100
AcDbBlockTableRecord
  2
block 6
340
0
102
{BLKREFS
331
142
102
}
 70
     0
280
     1
281
     0
  0
BLOCK_RECORD
  5
165
330
1
100
AcDbSymbolTableRecord
100
AcDbBlockTableRecord
  2
block 7
340
0
102
{BLKREFS
331
166
102
}
 70
     0
280
     1
281
     0
  0
BLOCK_RECORD
  5
17C
330
1
100
AcDbSymbolTableRecord
100
AcDbBlockTableRecord
  2
block 8
340
0
102
{BLKREFS
331
17D
102
}
 70
     0
280
     1
281
     0
  0
ENDTAB
  0
ENDSEC
  0
SECTION
  2
BLOCKS
  0
BLOCK
  5
20
330
1F
100
AcDbEntity
  8
0
100
AcDbBlockBegin
  2
*Model_Space
 70
     0
 10
0.0
 20
0.0
 30
0.0
  3
*Model_Space
  1

  0
ENDBLK
  5
21
330
1F
100
AcDbEntity
  8
0
100
AcDbBlockEnd
  0
BLOCK
  5
1C
330
1B
100
AcDbEntity
 67
     1
  8
0
100
AcDbBlockBegin
  2
*Paper_Space
 70
     0
 10
0.0
 20
0.0
 30
0.0
  3
*Paper_Space
  1

  0
ENDBLK
  5
1D
330
1B
100
AcDbEntity
 67
     1
  8
0
100
AcDbBlockEnd
  0
BLOCK
  5
24
330
23
100
AcDbEntity
  8
0
100
AcDbBlockBegin
  2
*Paper_Space0
 70
     0
 10
0.0
 20
0.0
 30
0.0
  3
*Paper_Space0
  1

  0
ENDBLK
  5
25
330
23
100
AcDbEntity
  8
0
100
AcDbBlockEnd
  0
BLOCK
  5
43
330
41
100
AcDbEntity
  8
0
100
AcDbBlockBegin
  2
block 2
 70
     0
 10
0.0
 20
0.0
 30
0.0
  3
block 2
  1

  0
SPLINE
  5
45
330
41
100
AcDbEntity
  8
_U+30EC_U+30A4_U+30E4_U+30FC 1
370
     0
100
AcDbSpline
210
0.0
220
0.0
230
1.0
 70
    11
 71
     3
 72
   128
 73
   124
 74
     0
 42
0.0000000001
 43
0.0000000001
 12
1.0
 22
0.0
 32
0.0
 13
1.0
 23
0.0
 33
0.0
 40
0.0
 40
0.0
 40
0.0
 40
0.0
 40
1.0
 40
1.0
 40
1.0
 40
2.0
 40
2.0
 40
2.0
 40
3.0
 40
3.0
 40
3.0
 40
4.0
 40
4.0
 40
4.0
 40
5.0
 40
5.0
 40
5.0
 40
6.0
 40
6.0
 40
6.0
 40
7.0
 40
7.0
 40
7.0
 40
8.0
 40
8.0
 40
8.0
 40
9.0
 40
9.0
 40
9.0
 40
10.0
 40
10.0
 40
10.0
 40
11.0
 40
11.0
 40
11.0
 40
12.0
 40
12.0
 40
12.0
 40
13.0
 40
13.0
 40
13.0
 40
14.0
 40
14.0
 40
14.0
 40
15.0
 40
15.0
 40
15.0
 40
16.0
 40
16.0
 40
16.0
 40
17.0
 40
17.0
 40
17.0
 40
18.0
 40
18.0
 40
18.0
 40
19.0
 40
19.0
 40
19.0
 40
20.0
 40
20.0
 40
20.0
 40
21.0
 40
21.0
 40
21.0
 40
22.0
 40
22.0
 40
22.0
 40
23.0
 40
23.0
 40
23.0
 40
24.0
 40
24.0
 40
24.0
 40
25.0
 40
25.0
 40
25.0
 40
26.0
 40
26.0
 40
26.0
 40
27.0
 40
27.0
 40
27.0
 40
28.0
 40
28.0
 40
28.0
 40
29.0
 40
29.0
 40
29.0
 40
30.0
 40
30.0
 40
30.0
 40
31.0
 40
31.0
 40
31.0
 40
32.0
 40
32.0
 40
32.0
 40
33.0
 40
33.0
 40
33.0
 40
34.0
 40
34.0
 40
34.0
 40
35.0
 40
35.0
 40
35.0
 40
36.0
 40
36.0
 40
36.0
 40
37.0
 40
37.0
 40
37.0
 40
38.0
 40
38.0
 40
38.0
 40
39.0
 40
39.0
 40
39.0
 40
40.0
 40
40.0
 40
40.0
 40
41.0
 40
41.0
 40
41.0
 40
41.0
 10
75.20505640480985
 20
-114.6634575451189
 30
0.0
 10
75.20505640480985
 20
-114.6634575451189
 30
0.0
 10
75.39281410875597
 20
-114.7103108437183
 30
0.0
 10
75.39281410875597
 20
-114.7103108437183
 30
0.0
 10
75.4050441977286
 20
-114.7128946653322
 30
0.0
 10
75.42003036308944
 20
-114.7227131874652
 30
0.0
 10
75.42003036308944
 20
-114.7399386648914
 30
0.0
 10
75.42003036308944
 20
-114.7721503076785
 30
0.0
 10
75.39763724243532
 20
-114.7745618745182
 30
0.0
 10
75.36800942126217
 20
-114.7795572629718
 30
0.0
 10
75.3063422120762
 20
-115.1254448496909
 30
0.0
 10
75.24209118127628
 20
-115.4787393917032
 30
0.0
 10
74.64901799349053
 20
-115.7381550817425
 30
0.0
 10
74.55272757467779
 20
-115.5850205874232
 30
0.0
 10
74.39959308035844
 20
-115.4639254811167
 30
0.0
 10
74.3575629154384
 20
-115.4318860931038
 30
0.0
 10
74.97526853594368
 20
-115.3057955983437
 30
0.0
 10
75.00489635711683
 20
-114.8808430702381
 30
0.0
 10
75.01230331241013
 20
-114.6634575451189
 30
0.0
 10
75.01230331241013
 20
-114.6634575451189
 30
0.0
 10
74.39459769190482
 20
-114.6634575451189
 30
0.0
 10
74.39459769190482
 20
-114.6634575451189
 30
0.0
 10
74.39459769190482
 20
-114.6634575451189
 30
0.0
 10
74.39459769190482
 20
-114.3273884805327
 30
0.0
 10
74.39459769190482
 20
-114.3273884805327
 30
0.0
 10
74.39459769190482
 20
-114.3273884805327
 30
0.0
 10
75.33838160008902
 20
-114.3273884805327
 30
0.0
 10
75.33838160008902
 20
-114.3273884805327
 30
0.0
 10
75.33838160008902
 20
-114.3273884805327
 30
0.0
 10
75.33838160008902
 20
-114.0851982679197
 30
0.0
 10
75.33838160008902
 20
-114.0851982679197
 30
0.0
 10
75.33838160008902
 20
-114.0851982679197
 30
0.0
 10
74.87639429551702
 20
-114.0851982679197
 30
0.0
 10
74.87639429551702
 20
-114.0851982679197
 30
0.0
 10
74.8195502200104
 20
-114.1766655530531
 30
0.0
 10
74.77252466663673
 20
-114.2335096285597
 30
0.0
 10
74.71826441274405
 20
-114.2977606593596
 30
0.0
 10
74.65642494878381
 20
-114.2483235391463
 30
0.0
 10
74.49088811071756
 20
-114.1716701645994
 30
0.0
 10
74.38219534815792
 20
-114.1420423434263
 30
0.0
 10
74.50828584291807
 20
-113.9987263712399
 30
0.0
 10
74.70586206899715
 20
-113.7220852037743
 30
0.0
 10
74.7528876223708
 20
-113.4600856921211
 30
0.0
 10
74.7528876223708
 20
-113.4600856921211
 30
0.0
 10
75.12599146342336
 20
-113.576185409974
 30
0.0
 10
75.12599146342336
 20
-113.576185409974
 30
0.0
 10
75.13580998555634
 20
-113.578769231588
 30
0.0
 10
75.15303546298257
 20
-113.5885877537209
 30
0.0
 10
75.15303546298257
 20
-113.6059854859214
 30
0.0
 10
75.15303546298257
 20
-113.6380248739342
 30
0.0
 10
75.138221552396
 20
-113.6404364407739
 30
0.0
 10
75.08878443218266
 20
-113.6504272176812
 30
0.0
 10
75.0739705215961
 20
-113.6924573826012
 30
0.0
 10
75.0665635663028
 20
-113.7170898153207
 30
0.0
 10
75.05174965571624
 20
-113.7517130249475
 30
0.0
 10
75.05174965571624
 20
-113.7517130249475
 30
0.0
 10
75.33838160008902
 20
-113.7517130249475
 30
0.0
 10
75.33838160008902
 20
-113.7517130249475
 30
0.0
 10
75.33838160008902
 20
-113.7517130249475
 30
0.0
 10
75.33838160008902
 20
-113.4404486478552
 30
0.0
 10
75.33838160008902
 20
-113.4404486478552
 30
0.0
 10
75.33838160008902
 20
-113.4404486478552
 30
0.0
 10
75.73870169547504
 20
-113.4700764690283
 30
0.0
 10
75.73870169547504
 20
-113.4700764690283
 30
0.0
 10
75.75110403922194
 20
-113.4700764690283
 30
0.0
 10
75.77573647194149
 20
-113.4748996027077
 30
0.0
 10
75.77573647194149
 20
-113.5021158570411
 30
0.0
 10
75.77573647194149
 20
-113.5269205445349
 30
0.0
 10
75.76333412819459
 20
-113.5343274998282
 30
0.0
 10
75.72629935172814
 20
-113.5565483657081
 30
0.0
 10
75.72629935172814
 20
-113.5565483657081
 30
0.0
 10
75.72629935172814
 20
-113.7517130249475
 30
0.0
 10
75.72629935172814
 20
-113.7517130249475
 30
0.0
 10
75.72629935172814
 20
-113.7517130249475
 30
0.0
 10
76.44029539104618
 20
-113.7517130249475
 30
0.0
 10
76.44029539104618
 20
-113.7517130249475
 30
0.0
 10
76.44029539104618
 20
-113.7517130249475
 30
0.0
 10
76.44029539104618
 20
-114.0851982679197
 30
0.0
 10
76.44029539104618
 20
-114.0851982679197
 30
0.0
 10
76.44029539104618
 20
-114.0851982679197
 30
0.0
 10
75.72629935172814
 20
-114.0851982679197
 30
0.0
 10
75.72629935172814
 20
-114.0851982679197
 30
0.0
 10
75.72629935172814
 20
-114.0851982679197
 30
0.0
 10
75.72629935172814
 20
-114.3273884805327
 30
0.0
 10
75.72629935172814
 20
-114.3273884805327
 30
0.0
 10
75.72629935172814
 20
-114.3273884805327
 30
0.0
 10
76.61341143917998
 20
-114.3273884805327
 30
0.0
 10
76.61341143917998
 20
-114.3273884805327
 30
0.0
 10
76.61341143917998
 20
-114.3273884805327
 30
0.0
 10
76.61341143917998
 20
-114.6634575451189
 30
0.0
 10
76.61341143917998
 20
-114.6634575451189
 30
0.0
 10
76.61341143917998
 20
-114.6634575451189
 30
0.0
 10
75.96848956434121
 20
-114.6634575451189
 30
0.0
 10
75.96848956434121
 20
-114.6634575451189
 30
0.0
 10
75.96848956434121
 20
-114.6634575451189
 30
0.0
 10
75.96848956434121
 20
-115.2885701209174
 30
0.0
 10
75.96848956434121
 20
-115.2885701209174
 30
0.0
 10
75.96848956434121
 20
-115.3404188079705
 30
0.0
 10
75.9758965196345
 20
-115.3676350623039
 30
0.0
 10
76.04014755043441
 20
-115.3676350623039
 30
0.0
 10
76.04014755043441
 20
-115.3676350623039
 30
0.0
 10
76.24513073180678
 20
-115.3676350623039
 30
0.0
 10
76.24513073180678
 20
-115.3676350623039
 30
0.0
 10
76.3193725395139
 20
-115.3676350623039
 30
0.0
 10
76.35141192752674
 20
-115.3057955983437
 30
0.0
 10
76.38103974869988
 20
-115.0884100732244
 30
0.0
 10
76.51453719875332
 20
-115.1798773583578
 30
0.0
 10
76.58619518484652
 20
-115.2169121348243
 30
0.0
 10
76.717108813286
 20
-115.2465399559974
 30
0.0
 10
76.62081839447328
 20
-115.6418646629298
 30
0.0
 10
76.54916040838008
 20
-115.6913017831431
 30
0.0
 10
76.34159340539377
 20
-115.6913017831431
 30
0.0
 10
76.34159340539377
 20
-115.6913017831431
 30
0.0
 10
75.9166408772882
 20
-115.6913017831431
 30
0.0
 10
75.9166408772882
 20
-115.6913017831431
 30
0.0
 10
75.61019963387523
 20
-115.6913017831431
 30
0.0
 10
75.59039033483505
 20
-115.4861463469965
 30
0.0
 10
75.59039033483505
 20
-115.3700466291436
 30
0.0
 10
75.59039033483505
 20
-115.3700466291436
 30
0.0
 10
75.59039033483505
 20
-114.6634575451189
 30
0.0
 10
75.59039033483505
 20
-114.6634575451189
 30
0.0
 10
75.59039033483505
 20
-114.6634575451189
 30
0.0
 10
75.20505640480985
 20
-114.6634575451189
 30
0.0
 10
75.20505640480985
 20
-114.6634575451189
 30
0.0
  0
HATCH
  5
46
330
41
100
AcDbEntity
  8
_U+30EC_U+30A4_U+30E4_U+30FC 1
 62
   179
420
  2234388
100
AcDbHatch
 10
0.0
 20
0.0
 30
0.0
210
0.0
220
0.0
230
1.0
  2
SOLID
 70
     1
 71
     0
 91
        1
 92
        1
 93
        1
 72
     4
 94
        3
 73
     0
 74
     1
 95
      128
 96
      124
 40
0.0
 40
0.0
 40
0.0
 40
0.0
 40
1.0
 40
1.0
 40
1.0
 40
2.0
 40
2.0
 40
2.0
 40
3.0
 40
3.0
 40
3.0
 40
4.0
 40
4.0
 40
4.0
 40
5.0
 40
5.0
 40
5.0
 40
6.0
 40
6.0
 40
6.0
 40
7.0
 40
7.0
 40
7.0
 40
8.0
 40
8.0
 40
8.0
 40
9.0
 40
9.0
 40
9.0
 40
10.0
 40
10.0
 40
10.0
 40
11.0
 40
11.0
 40
11.0
 40
12.0
 40
12.0
 40
12.0
 40
13.0
 40
13.0
 40
13.0
 40
14.0
 40
14.0
 40
14.0
 40
15.0
 40
15.0
 40
15.0
 40
16.0
 40
16.0
 40
16.0
 40
17.0
 40
17.0
 40
17.0
 40
18.0
 40
18.0
 40
18.0
 40
19.0
 40
19.0
 40
19.0
 40
20.0
 40
20.0
 40
20.0
 40
21.0
 40
21.0
 40
21.0
 40
22.0
 40
22.0
 40
22.0
 40
23.0
 40
23.0
 40
23.0
 40
24.0
 40
24.0
 40
24.0
 40
25.0
 40
25.0
 40
25.0
 40
26.0
 40
26.0
 40
26.0
 40
27.0
 40
27.0
 40
27.0
 40
28.0
 40
28.0
 40
28.0
 40
29.0
 40
29.0
 40
29.0
 40
30.0
 40
30.0
 40
30.0
 40
31.0
 40
31.0
 40
31.0
 40
32.0
 40
32.0
 40
32.0
 40
33.0
 40
33.0
 40
33.0
 40
34.0
 40
34.0
 40
34.0
 40
35.0
 40
35.0
 40
35.0
 40
36.0
 40
36.0
 40
36.0
 40
37.0
 40
37.0
 40
37.0
 40
38.0
 40
38.0
 40
38.0
 40
39.0
 40
39.0
 40
39.0
 40
40.0
 40
40.0
 40
40.0
 40
41.0
 40
41.0
 40
41.0
 40
41.0
 10
75.20505640480985
 20
-114.6634575451189
 10
75.20505640480985
 20
-114.6634575451189
 10
75.39281410875597
 20
-114.7103108437183
 10
75.39281410875597
 20
-114.7103108437183
 10
75.4050441977286
 20
-114.7128946653322
 10
75.42003036308944
 20
-114.7227131874652
 10
75.42003036308944
 20
-114.7399386648914
 10
75.42003036308944
 20
-114.7721503076785
 10
75.39763724243532
 20
-114.7745618745182
 10
75.36800942126217
 20
-114.7795572629718
 10
75.3063422120762
 20
-115.1254448496909
 10
75.24209118127628
 20
-115.4787393917032
 10
74.64901799349053
 20
-115.7381550817425
 10
74.55272757467779
 20
-115.5850205874232
 10
74.39959308035844
 20
-115.4639254811167
 10
74.3575629154384
 20
-115.4318860931038
 10
74.97526853594368
 20
-115.3057955983437
 10
75.00489635711683
 20
-114.8808430702381
 10
75.01230331241013
 20
-114.6634575451189
 10
75.01230331241013
 20
-114.6634575451189
 10
74.39459769190482
 20
-114.6634575451189
 10
74.39459769190482
 20
-114.6634575451189
 10
74.39459769190482
 20
-114.6634575451189
 10
74.39459769190482
 20
-114.3273884805327
 10
74.39459769190482
 20
-114.3273884805327
 10
74.39459769190482
 20
-114.3273884805327
 10
75.33838160008902
 20
-114.3273884805327
 10
75.33838160008902
 20
-114.3273884805327
 10
75.33838160008902
 20
-114.3273884805327
 10
75.33838160008902
 20
-114.0851982679197
 10
75.33838160008902
 20
-114.0851982679197
 10
75.33838160008902
 20
-114.0851982679197
 10
74.87639429551702
 20
-114.0851982679197
 10
74.87639429551702
 20
-114.0851982679197
 10
74.8195502200104
 20
-114.1766655530531
 10
74.77252466663673
 20
-114.2335096285597
 10
74.71826441274405
 20
-114.2977606593596
 10
74.65642494878381
 20
-114.2483235391463
 10
74.49088811071756
 20
-114.1716701645994
 10
74.38219534815792
 20
-114.1420423434263
 10
74.50828584291807
 20
-113.9987263712399
 10
74.70586206899715
 20
-113.7220852037743
 10
74.7528876223708
 20
-113.4600856921211
 10
74.7528876223708
 20
-113.4600856921211
 10
75.12599146342336
 20
-113.576185409974
 10
75.12599146342336
 20
-113.576185409974
 10
75.13580998555634
 20
-113.578769231588
 10
75.15303546298257
 20
-113.5885877537209
 10
75.15303546298257
 20
-113.6059854859214
 10
75.15303546298257
 20
-113.6380248739342
 10
75.138221552396
 20
-113.6404364407739
 10
75.08878443218266
 20
-113.6504272176812
 10
75.0739705215961
 20
-113.6924573826012
 10
75.0665635663028
 20
-113.7170898153207
 10
75.05174965571624
 20
-113.7517130249475
 10
75.05174965571624
 20
-113.7517130249475
 10
75.33838160008902
 20
-113.7517130249475
 10
75.33838160008902
 20
-113.7517130249475
 10
75.33838160008902
 20
-113.7517130249475
 10
75.33838160008902
 20
-113.4404486478552
 10
75.33838160008902
 20
-113.4404486478552
 10
75.33838160008902
 20
-113.4404486478552
 10
75.73870169547504
 20
-113.4700764690283
 10
75.73870169547504
 20
-113.4700764690283
 10
75.75110403922194
 20
-113.4700764690283
 10
75.77573647194149
 20
-113.4748996027077
 10
75.77573647194149
 20
-113.5021158570411
 10
75.77573647194149
 20
-113.5269205445349
 10
75.76333412819459
 20
-113.5343274998282
 10
75.72629935172814
 20
-113.5565483657081
 10
75.72629935172814
 20
-113.5565483657081
 10
75.72629935172814
 20
-113.7517130249475
 10
75.72629935172814
 20
-113.7517130249475
 10
75.72629935172814
 20
-113.7517130249475
 10
76.44029539104618
 20
-113.7517130249475
 10
76.44029539104618
 20
-113.7517130249475
 10
76.44029539104618
 20
-113.7517130249475
 10
76.44029539104618
 20
-114.0851982679197
 10
76.44029539104618
 20
-114.0851982679197
 10
76.44029539104618
 20
-114.0851982679197
 10
75.72629935172814
 20
-114.0851982679197
 10
75.72629935172814
 20
-114.0851982679197
 10
75.72629935172814
 20
-114.0851982679197
 10
75.72629935172814
 20
-114.3273884805327
 10
75.72629935172814
 20
-114.3273884805327
 10
75.72629935172814
 20
-114.3273884805327
 10
76.61341143917998
 20
-114.3273884805327
 10
76.61341143917998
 20
-114.3273884805327
 10
76.61341143917998
 20
-114.3273884805327
 10
76.61341143917998
 20
-114.6634575451189
 10
76.61341143917998
 20
-114.6634575451189
 10
76.61341143917998
 20
-114.6634575451189
 10
75.96848956434121
 20
-114.6634575451189
 10
75.96848956434121
 20
-114.6634575451189
 10
75.96848956434121
 20
-114.6634575451189
 10
75.96848956434121
 20
-115.2885701209174
 10
75.96848956434121
 20
-115.2885701209174
 10
75.96848956434121
 20
-115.3404188079705
 10
75.9758965196345
 20
-115.3676350623039
 10
76.04014755043441
 20
-115.3676350623039
 10
76.04014755043441
 20
-115.3676350623039
 10
76.24513073180678
 20
-115.3676350623039
 10
76.24513073180678
 20
-115.3676350623039
 10
76.3193725395139
 20
-115.3676350623039
 10
76.35141192752674
 20
-115.3057955983437
 10
76.38103974869988
 20
-115.0884100732244
 10
76.51453719875332
 20
-115.1798773583578
 10
76.58619518484652
 20
-115.2169121348243
 10
76.717108813286
 20
-115.2465399559974
 10
76.62081839447328
 20
-115.6418646629298
 10
76.54916040838008
 20
-115.6913017831431
 10
76.34159340539377
 20
-115.6913017831431
 10
76.34159340539377
 20
-115.6913017831431
 10
75.9166408772882
 20
-115.6913017831431
 10
75.9166408772882
 20
-115.6913017831431
 10
75.61019963387523
 20
-115.6913017831431
 10
75.59039033483505
 20
-115.4861463469965
 10
75.59039033483505
 20
-115.3700466291436
 10
75.59039033483505
 20
-115.3700466291436
 10
75.59039033483505
 20
-114.6634575451189
 10
75.59039033483505
 20
-114.6634575451189
 10
75.59039033483505
 20
-114.6634575451189
 10
75.20505640480985
 20
-114.6634575451189
 10
75.20505640480985
 20
-114.6634575451189
 97
        0
 97
        0
 75
     2
 76
     1
 98
        0
  0
SPLINE
  5
47
330
41
100
AcDbEntity
  8
_U+30EC_U+30A4_U+30E4_U+30FC 1
370
     0
100
AcDbSpline
210
0.0
220
0.0
230
1.0
 70
    11
 71
     3
 72
    41
 73
    37
 74
     0
 42
0.0000000001
 43
0.0000000001
 12
1.0
 22
0.0
 32
0.0
 13
1.0
 23
0.0
 33
0.0
 40
0.0
 40
0.0
 40
0.0
 40
0.0
 40
1.0
 40
1.0
 40
1.0
 40
2.0
 40
2.0
 40
2.0
 40
3.0
 40
3.0
 40
3.0
 40
4.0
 40
4.0
 40
4.0
 40
5.0
 40
5.0
 40
5.0
 40
6.0
 40
6.0
 40
6.0
 40
7.0
 40
7.0
 40
7.0
 40
8.0
 40
8.0
 40
8.0
 40
9.0
 40
9.0
 40
9.0
 40
10.0
 40
10.0
 40
10.0
 40
11.0
 40
11.0
 40
11.0
 40
12.0
 40
12.0
 40
12.0
 40
12.0
 10
77.50638018895674
 20
-115.723341171156
 30
0.0
 10
77.50638018895674
 20
-115.723341171156
 30
0.0
 10
77.12087400415729
 20
-115.723341171156
 30
0.0
 10
77.12087400415729
 20
-115.723341171156
 30
0.0
 10
77.12087400415729
 20
-115.723341171156
 30
0.0
 10
77.12087400415729
 20
-114.5793972152788
 30
0.0
 10
77.12087400415729
 20
-114.5793972152788
 30
0.0
 10
77.08883461614447
 20
-114.6214273801988
 30
0.0
 10
77.05920679497132
 20
-114.6534667682116
 30
0.0
 10
77.03440210747752
 20
-114.6756876340915
 30
0.0
 10
76.98255342042451
 20
-114.596622692705
 30
0.0
 10
76.87386065786487
 20
-114.4905137517593
 30
0.0
 10
76.7625840736913
 20
-114.4162719440522
 30
0.0
 10
77.1901204234108
 20
-114.0013101928539
 30
0.0
 10
77.32602944030391
 20
-113.4502671699881
 30
0.0
 10
77.33825952927656
 20
-113.4032416166145
 30
0.0
 10
77.33825952927656
 20
-113.4032416166145
 30
0.0
 10
77.67691241547661
 20
-113.5269205445349
 30
0.0
 10
77.67691241547661
 20
-113.5269205445349
 30
0.0
 10
77.70154484819615
 20
-113.5367390666679
 30
0.0
 10
77.72376571407601
 20
-113.5441460219612
 30
0.0
 10
77.72376571407601
 20
-113.5639553210014
 30
0.0
 10
77.72376571407601
 20
-113.5885877537209
 30
0.0
 10
77.69172632606319
 20
-113.5959947090142
 30
0.0
 10
77.6595146832761
 20
-113.6009900974678
 30
0.0
 10
77.56322426446336
 20
-113.8283663994943
 30
0.0
 10
77.55581730917008
 20
-113.8455918769206
 30
0.0
 10
77.48415932307688
 20
-113.9939032375606
 30
0.0
 10
77.52360566638299
 20
-114.0037217596935
 30
0.0
 10
77.55822887600975
 20
-114.0135402818265
 30
0.0
 10
77.55822887600975
 20
-114.04075653616
 30
0.0
 10
77.55822887600975
 20
-114.0679727904934
 30
0.0
 10
77.53600801012989
 20
-114.0803751342403
 30
0.0
 10
77.50638018895674
 20
-114.0901936563733
 30
0.0
 10
77.50638018895674
 20
-114.0901936563733
 30
0.0
 10
77.50638018895674
 20
-115.723341171156
 30
0.0
 10
77.50638018895674
 20
-115.723341171156
 30
0.0
  0
SPLINE
  5
48
330
41
100
AcDbEntity
  8
_U+30EC_U+30A4_U+30E4_U+30FC 1
370
     0
100
AcDbSpline
210
0.0
220
0.0
230
1.0
 70
    11
 71
     3
 72
    56
 73
    52
 74
     0
 42
0.0000000001
 43
0.0000000001
 12
1.0
 22
0.0
 32
0.0
 13
1.0
 23
0.0
 33
0.0
 40
0.0
 40
0.0
 40
0.0
 40
0.0
 40
1.0
 40
1.0
 40
1.0
 40
2.0
 40
2.0
 40
2.0
 40
3.0
 40
3.0
 40
3.0
 40
4.0
 40
4.0
 40
4.0
 40
5.0
 40
5.0
 40
5.0
 40
6.0
 40
6.0
 40
6.0
 40
7.0
 40
7.0
 40
7.0
 40
8.0
 40
8.0
 40
8.0
 40
9.0
 40
9.0
 40
9.0
 40
10.0
 40
10.0
 40
10.0
 40
11.0
 40
11.0
 40
11.0
 40
12.0
 40
12.0
 40
12.0
 40
13.0
 40
13.0
 40
13.0
 40
14.0
 40
14.0
 40
14.0
 40
15.0
 40
15.0
 40
15.0
 40
16.0
 40
16.0
 40
16.0
 40
17.0
 40
17.0
 40
17.0
 40
17.0
 10
79.11489527101989
 20
-113.9839124606533
 30
0.0
 10
79.11489527101989
 20
-113.9839124606533
 30
0.0
 10
79.11489527101989
 20
-114.3422023911193
 30
0.0
 10
79.11489527101989
 20
-114.3422023911193
 30
0.0
 10
79.11489527101989
 20
-114.3422023911193
 30
0.0
 10
78.88252358053978
 20
-114.3422023911193
 30
0.0
 10
78.88252358053978
 20
-114.3422023911193
 30
0.0
 10
78.88252358053978
 20
-114.3422023911193
 30
0.0
 10
78.88252358053978
 20
-115.3676350623039
 30
0.0
 10
78.88252358053978
 20
-115.3676350623039
 30
0.0
 10
78.88252358053978
 20
-115.6516831850628
 30
0.0
 10
78.8356702819404
 20
-115.7159342158627
 30
0.0
 10
78.31925046870144
 20
-115.7209296043163
 30
0.0
 10
78.30202499127519
 20
-115.5924275427165
 30
0.0
 10
78.25000404944792
 20
-115.4467000036904
 30
0.0
 10
78.15612519747486
 20
-115.3206095089303
 30
0.0
 10
78.21055770614181
 20
-115.3330118526772
 30
0.0
 10
78.30443655811487
 20
-115.3528211517174
 30
0.0
 10
78.37850611104774
 20
-115.3528211517174
 30
0.0
 10
78.49460582890066
 20
-115.3528211517174
 30
0.0
 10
78.49960121735427
 20
-115.3206095089303
 30
0.0
 10
78.49960121735427
 20
-115.2365491790902
 30
0.0
 10
78.49960121735427
 20
-115.2365491790902
 30
0.0
 10
78.49960121735427
 20
-114.3422023911193
 30
0.0
 10
78.49960121735427
 20
-114.3422023911193
 30
0.0
 10
78.49960121735427
 20
-114.3422023911193
 30
0.0
 10
77.59526365247619
 20
-114.3422023911193
 30
0.0
 10
77.59526365247619
 20
-114.3422023911193
 30
0.0
 10
77.59526365247619
 20
-114.3422023911193
 30
0.0
 10
77.59526365247619
 20
-113.9839124606533
 30
0.0
 10
77.59526365247619
 20
-113.9839124606533
 30
0.0
 10
77.59526365247619
 20
-113.9839124606533
 30
0.0
 10
78.49960121735427
 20
-113.9839124606533
 30
0.0
 10
78.49960121735427
 20
-113.9839124606533
 30
0.0
 10
78.49960121735427
 20
-113.9839124606533
 30
0.0
 10
78.49960121735427
 20
-113.4304578709479
 30
0.0
 10
78.49960121735427
 20
-113.4304578709479
 30
0.0
 10
78.49960121735427
 20
-113.4304578709479
 30
0.0
 10
78.88252358053978
 20
-113.4452717815345
 30
0.0
 10
78.88252358053978
 20
-113.4452717815345
 30
0.0
 10
78.91215140171293
 20
-113.4452717815345
 30
0.0
 10
78.94935843295363
 20
-113.4478556031485
 30
0.0
 10
78.94935843295363
 20
-113.4774834243216
 30
0.0
 10
78.94935843295363
 20
-113.4997042902015
 30
0.0
 10
78.91955835700622
 20
-113.514518200788
 30
0.0
 10
78.88252358053978
 20
-113.5293321113746
 30
0.0
 10
78.88252358053978
 20
-113.5293321113746
 30
0.0
 10
78.88252358053978
 20
-113.9839124606533
 30
0.0
 10
78.88252358053978
 20
-113.9839124606533
 30
0.0
 10
78.88252358053978
 20
-113.9839124606533
 30
0.0
 10
79.11489527101989
 20
-113.9839124606533
 30
0.0
 10
79.11489527101989
 20
-113.9839124606533
 30
0.0
  0
SPLINE
  5
49
330
41
100
AcDbEntity
  8
_U+30EC_U+30A4_U+30E4_U+30FC 1
370
     0
100
AcDbSpline
210
0.0
220
0.0
230
1.0
 70
    11
 71
     3
 72
    17
 73
    13
 74
     0
 42
0.0000000001
 43
0.0000000001
 12
1.0
 22
0.0
 32
0.0
 13
1.0
 23
0.0
 33
0.0
 40
0.0
 40
0.0
 40
0.0
 40
0.0
 40
1.0
 40
1.0
 40
1.0
 40
2.0
 40
2.0
 40
2.0
 40
3.0
 40
3.0
 40
3.0
 40
4.0
 40
4.0
 40
4.0
 40
4.0
 10
78.00540226999519
 20
-114.4731160195588
 30
0.0
 10
78.18334145180833
 20
-114.6856784109987
 30
0.0
 10
78.28962264752829
 20
-114.8710245481052
 30
0.0
 10
78.34646672303491
 20
-115.0315659977178
 30
0.0
 10
78.30943194656848
 20
-115.0487914751441
 30
0.0
 10
78.14131128688828
 20
-115.1278564165305
 30
0.0
 10
78.00540226999519
 20
-115.2143283132103
 30
0.0
 10
77.94614662764889
 20
-115.051375296758
 30
0.0
 10
77.77320283428934
 20
-114.754752575478
 30
0.0
 10
77.66692163856938
 20
-114.641236679239
 30
0.0
 10
77.66692163856938
 20
-114.641236679239
 30
0.0
 10
78.00540226999519
 20
-114.4731160195588
 30
0.0
 10
78.00540226999519
 20
-114.4731160195588
 30
0.0
  0
HATCH
  5
4A
330
41
100
AcDbEntity
  8
_U+30EC_U+30A4_U+30E4_U+30FC 1
 62
   179
420
  2234388
100
AcDbHatch
 10
0.0
 20
0.0
 30
0.0
210
0.0
220
0.0
230
1.0
  2
SOLID
 70
     1
 71
     0
 91
        3
 92
        1
 93
        1
 72
     4
 94
        3
 73
     0
 74
     1
 95
       41
 96
       37
 40
0.0
 40
0.0
 40
0.0
 40
0.0
 40
1.0
 40
1.0
 40
1.0
 40
2.0
 40
2.0
 40
2.0
 40
3.0
 40
3.0
 40
3.0
 40
4.0
 40
4.0
 40
4.0
 40
5.0
 40
5.0
 40
5.0
 40
6.0
 40
6.0
 40
6.0
 40
7.0
 40
7.0
 40
7.0
 40
8.0
 40
8.0
 40
8.0
 40
9.0
 40
9.0
 40
9.0
 40
10.0
 40
10.0
 40
10.0
 40
11.0
 40
11.0
 40
11.0
 40
12.0
 40
12.0
 40
12.0
 40
12.0
 10
77.50638018895674
 20
-115.723341171156
 10
77.50638018895674
 20
-115.723341171156
 10
77.12087400415729
 20
-115.723341171156
 10
77.12087400415729
 20
-115.723341171156
 10
77.12087400415729
 20
-115.723341171156
 10
77.12087400415729
 20
-114.5793972152788
 10
77.12087400415729
 20
-114.5793972152788
 10
77.08883461614447
 20
-114.6214273801988
 10
77.05920679497132
 20
-114.6534667682116
 10
77.03440210747752
 20
-114.6756876340915
 10
76.98255342042451
 20
-114.596622692705
 10
76.87386065786487
 20
-114.4905137517593
 10
76.7625840736913
 20
-114.4162719440522
 10
77.1901204234108
 20
-114.0013101928539
 10
77.32602944030391
 20
-113.4502671699881
 10
77.33825952927656
 20
-113.4032416166145
 10
77.33825952927656
 20
-113.4032416166145
 10
77.67691241547661
 20
-113.5269205445349
 10
77.67691241547661
 20
-113.5269205445349
 10
77.70154484819615
 20
-113.5367390666679
 10
77.72376571407601
 20
-113.5441460219612
 10
77.72376571407601
 20
-113.5639553210014
 10
77.72376571407601
 20
-113.5885877537209
 10
77.69172632606319
 20
-113.5959947090142
 10
77.6595146832761
 20
-113.6009900974678
 10
77.56322426446336
 20
-113.8283663994943
 10
77.55581730917008
 20
-113.8455918769206
 10
77.48415932307688
 20
-113.9939032375606
 10
77.52360566638299
 20
-114.0037217596935
 10
77.55822887600975
 20
-114.0135402818265
 10
77.55822887600975
 20
-114.04075653616
 10
77.55822887600975
 20
-114.0679727904934
 10
77.53600801012989
 20
-114.0803751342403
 10
77.50638018895674
 20
-114.0901936563733
 10
77.50638018895674
 20
-114.0901936563733
 10
77.50638018895674
 20
-115.723341171156
 10
77.50638018895674
 20
-115.723341171156
 97
        0
 97
        0
 92
        1
 93
        1
 72
     4
 94
        3
 73
     0
 74
     1
 95
       56
 96
       52
 40
0.0
 40
0.0
 40
0.0
 40
0.0
 40
1.0
 40
1.0
 40
1.0
 40
2.0
 40
2.0
 40
2.0
 40
3.0
 40
3.0
 40
3.0
 40
4.0
 40
4.0
 40
4.0
 40
5.0
 40
5.0
 40
5.0
 40
6.0
 40
6.0
 40
6.0
 40
7.0
 40
7.0
 40
7.0
 40
8.0
 40
8.0
 40
8.0
 40
9.0
 40
9.0
 40
9.0
 40
10.0
 40
10.0
 40
10.0
 40
11.0
 40
11.0
 40
11.0
 40
12.0
 40
12.0
 40
12.0
 40
13.0
 40
13.0
 40
13.0
 40
14.0
 40
14.0
 40
14.0
 40
15.0
 40
15.0
 40
15.0
 40
16.0
 40
16.0
 40
16.0
 40
17.0
 40
17.0
 40
17.0
 40
17.0
 10
79.11489527101989
 20
-113.9839124606533
 10
79.11489527101989
 20
-113.9839124606533
 10
79.11489527101989
 20
-114.3422023911193
 10
79.11489527101989
 20
-114.3422023911193
 10
79.11489527101989
 20
-114.3422023911193
 10
78.88252358053978
 20
-114.3422023911193
 10
78.88252358053978
 20
-114.3422023911193
 10
78.88252358053978
 20
-114.3422023911193
 10
78.88252358053978
 20
-115.3676350623039
 10
78.88252358053978
 20
-115.3676350623039
 10
78.88252358053978
 20
-115.6516831850628
 10
78.8356702819404
 20
-115.7159342158627
 10
78.31925046870144
 20
-115.7209296043163
 10
78.30202499127519
 20
-115.5924275427165
 10
78.25000404944792
 20
-115.4467000036904
 10
78.15612519747486
 20
-115.3206095089303
 10
78.21055770614181
 20
-115.3330118526772
 10
78.30443655811487
 20
-115.3528211517174
 10
78.37850611104774
 20
-115.3528211517174
 10
78.49460582890066
 20
-115.3528211517174
 10
78.49960121735427
 20
-115.3206095089303
 10
78.49960121735427
 20
-115.2365491790902
 10
78.49960121735427
 20
-115.2365491790902
 10
78.49960121735427
 20
-114.3422023911193
 10
78.49960121735427
 20
-114.3422023911193
 10
78.49960121735427
 20
-114.3422023911193
 10
77.59526365247619
 20
-114.3422023911193
 10
77.59526365247619
 20
-114.3422023911193
 10
77.59526365247619
 20
-114.3422023911193
 10
77.59526365247619
 20
-113.9839124606533
 10
77.59526365247619
 20
-113.9839124606533
 10
77.59526365247619
 20
-113.9839124606533
 10
78.49960121735427
 20
-113.9839124606533
 10
78.49960121735427
 20
-113.9839124606533
 10
78.49960121735427
 20
-113.9839124606533
 10
78.49960121735427
 20
-113.4304578709479
 10
78.49960121735427
 20
-113.4304578709479
 10
78.49960121735427
 20
-113.4304578709479
 10
78.88252358053978
 20
-113.4452717815345
 10
78.88252358053978
 20
-113.4452717815345
 10
78.91215140171293
 20
-113.4452717815345
 10
78.94935843295363
 20
-113.4478556031485
 10
78.94935843295363
 20
-113.4774834243216
 10
78.94935843295363
 20
-113.4997042902015
 10
78.91955835700622
 20
-113.514518200788
 10
78.88252358053978
 20
-113.5293321113746
 10
78.88252358053978
 20
-113.5293321113746
 10
78.88252358053978
 20
-113.9839124606533
 10
78.88252358053978
 20
-113.9839124606533
 10
78.88252358053978
 20
-113.9839124606533
 10
79.11489527101989
 20
-113.9839124606533
 10
79.11489527101989
 20
-113.9839124606533
 97
        0
 97
        0
 92
        1
 93
        1
 72
     4
 94
        3
 73
     0
 74
     1
 95
       17
 96
       13
 40
0.0
 40
0.0
 40
0.0
 40
0.0
 40
1.0
 40
1.0
 40
1.0
 40
2.0
 40
2.0
 40
2.0
 40
3.0
 40
3.0
 40
3.0
 40
4.0
 40
4.0
 40
4.0
 40
4.0
 10
78.00540226999519
 20
-114.4731160195588
 10
78.18334145180833
 20
-114.6856784109987
 10
78.28962264752829
 20
-114.8710245481052
 10
78.34646672303491
 20
-115.0315659977178
 10
78.30943194656848
 20
-115.0487914751441
 10
78.14131128688828
 20
-115.1278564165305
 10
78.00540226999519
 20
-115.2143283132103
 10
77.94614662764889
 20
-115.051375296758
 10
77.77320283428934
 20
-114.754752575478
 10
77.66692163856938
 20
-114.641236679239
 10
77.66692163856938
 20
-114.641236679239
 10
78.00540226999519
 20
-114.4731160195588
 10
78.00540226999519
 20
-114.4731160195588
 97
        0
 97
        0
 75
     2
 76
     1
 98
        0
  0
SPLINE
  5
4B
330
41
100
AcDbEntity
  8
_U+30EC_U+30A4_U+30E4_U+30FC 1
370
     0
100
AcDbSpline
210
0.0
220
0.0
230
1.0
 70
    11
 71
     3
 72
    74
 73
    70
 74
     0
 42
0.0000000001
 43
0.0000000001
 12
1.0
 22
0.0
 32
0.0
 13
1.0
 23
0.0
 33
0.0
 40
0.0
 40
0.0
 40
0.0
 40
0.0
 40
1.0
 40
1.0
 40
1.0
 40
2.0
 40
2.0
 40
2.0
 40
3.0
 40
3.0
 40
3.0
 40
4.0
 40
4.0
 40
4.0
 40
5.0
 40
5.0
 40
5.0
 40
6.0
 40
6.0
 40
6.0
 40
7.0
 40
7.0
 40
7.0
 40
8.0
 40
8.0
 40
8.0
 40
9.0
 40
9.0
 40
9.0
 40
10.0
 40
10.0
 40
10.0
 40
11.0
 40
11.0
 40
11.0
 40
12.0
 40
12.0
 40
12.0
 40
13.0
 40
13.0
 40
13.0
 40
14.0
 40
14.0
 40
14.0
 40
15.0
 40
15.0
 40
15.0
 40
16.0
 40
16.0
 40
16.0
 40
17.0
 40
17.0
 40
17.0
 40
18.0
 40
18.0
 40
18.0
 40
19.0
 40
19.0
 40
19.0
 40
20.0
 40
20.0
 40
20.0
 40
21.0
 40
21.0
 40
21.0
 40
22.0
 40
22.0
 40
22.0
 40
23.0
 40
23.0
 40
23.0
 40
23.0
 10
80.22542180069017
 20
-114.3298000473724
 30
0.0
 10
80.39836559404972
 20
-114.4262627209594
 30
0.0
 10
80.50723061138362
 20
-114.492925318599
 30
0.0
 10
80.61333955232931
 20
-114.5669948715319
 30
0.0
 10
80.72461613650287
 20
-114.3916395113327
 30
0.0
 10
80.77146943510228
 20
-114.2631374497328
 30
0.0
 10
80.79627412259607
 20
-114.1914794636396
 30
0.0
 10
80.79627412259607
 20
-114.1914794636396
 30
0.0
 10
80.2106078901036
 20
-114.1914794636396
 30
0.0
 10
80.2106078901036
 20
-114.1914794636396
 30
0.0
 10
80.05988496262393
 20
-114.3940510781723
 30
0.0
 10
79.891936557718
 20
-114.5892157374117
 30
0.0
 10
79.69177651002498
 20
-114.744934053345
 30
0.0
 10
79.53123506041233
 20
-114.596622692705
 30
0.0
 10
79.51642114982576
 20
-114.5818087821184
 30
0.0
 10
79.38051213293265
 20
-114.4855183633057
 30
0.0
 10
79.73380667494503
 20
-114.2483235391463
 30
0.0
 10
79.99821775343796
 20
-113.8950289971339
 30
0.0
 10
80.18597545738406
 20
-113.4478556031485
 30
0.0
 10
80.18597545738406
 20
-113.4478556031485
 30
0.0
 10
80.57130938740926
 20
-113.5737738431343
 30
0.0
 10
80.57130938740926
 20
-113.5737738431343
 30
0.0
 10
80.59852564174274
 20
-113.5835923652673
 30
0.0
 10
80.61592337394325
 20
-113.5885877537209
 30
0.0
 10
80.61592337394325
 20
-113.6083970527611
 30
0.0
 10
80.61592337394325
 20
-113.630617918641
 30
0.0
 10
80.59111868644945
 20
-113.6356133070946
 30
0.0
 10
80.55649547682269
 20
-113.6380248739342
 30
0.0
 10
80.51205374506296
 20
-113.7195013821604
 30
0.0
 10
80.48242592388982
 20
-113.7739338908274
 30
0.0
 10
80.43798419213009
 20
-113.8480034437602
 30
0.0
 10
80.43798419213009
 20
-113.8480034437602
 30
0.0
 10
80.9766248712489
 20
-113.8480034437602
 30
0.0
 10
80.9766248712489
 20
-113.8480034437602
 30
0.0
 10
81.06809215638229
 20
-113.8480034437602
 30
0.0
 10
81.1075384996884
 20
-113.8357733547876
 30
0.0
 10
81.14715709776877
 20
-113.8233710110407
 30
0.0
 10
81.14715709776877
 20
-113.8233710110407
 30
0.0
 10
81.32251245796799
 20
-113.9740939385204
 30
0.0
 10
81.32251245796799
 20
-113.9740939385204
 30
0.0
 10
81.28788924834123
 20
-114.04075653616
 30
0.0
 10
81.28547768150155
 20
-114.0431681029996
 30
0.0
 10
81.27066377091498
 20
-114.0777913126264
 30
0.0
 10
81.11253388814201
 20
-114.4533067205186
 30
0.0
 10
81.05327824579571
 20
-114.5942111258653
 30
0.0
 10
80.92219236258195
 20
-114.796782740398
 30
0.0
 10
81.060685201089
 20
-114.9178778467046
 30
0.0
 10
81.10512693284872
 20
-114.9797173106648
 30
0.0
 10
81.13716632086154
 20
-115.0265706092642
 30
0.0
 10
81.07050372322196
 20
-115.1082193722646
 30
0.0
 10
80.93959009478247
 20
-115.2885701209174
 30
0.0
 10
80.89755992986242
 20
-115.3528211517174
 30
0.0
 10
80.84312742119548
 20
-115.2785793440102
 30
0.0
 10
80.78387177884917
 20
-115.2045097910774
 30
0.0
 10
80.68499753842251
 20
-115.1082193722646
 30
0.0
 10
80.35392386228999
 20
-115.4689208695703
 30
0.0
 10
79.98340384285137
 20
-115.6244669307293
 30
0.0
 10
79.77824840670475
 20
-115.7035318721158
 30
0.0
 10
79.70659042061155
 20
-115.5826090205835
 30
0.0
 10
79.61030000179882
 20
-115.4689208695703
 30
0.0
 10
79.50901419453247
 20
-115.3724581959833
 30
0.0
 10
79.83509248221137
 20
-115.2859862993035
 30
0.0
 10
80.21560327855721
 20
-115.051375296758
 30
0.0
 10
80.39095863875643
 20
-114.8586222043583
 30
0.0
 10
80.22800562230411
 20
-114.7375270980517
 30
0.0
 10
80.08468965011772
 20
-114.651055201372
 30
0.0
 10
79.99081079814466
 20
-114.596622692705
 30
0.0
 10
79.99081079814466
 20
-114.596622692705
 30
0.0
 10
80.22542180069017
 20
-114.3298000473724
 30
0.0
 10
80.22542180069017
 20
-114.3298000473724
 30
0.0
  0
HATCH
  5
4C
330
41
100
AcDbEntity
  8
_U+30EC_U+30A4_U+30E4_U+30FC 1
 62
   179
420
  2234388
100
AcDbHatch
 10
0.0
 20
0.0
 30
0.0
210
0.0
220
0.0
230
1.0
  2
SOLID
 70
     1
 71
     0
 91
        1
 92
        1
 93
        1
 72
     4
 94
        3
 73
     0
 74
     1
 95
       74
 96
       70
 40
0.0
 40
0.0
 40
0.0
 40
0.0
 40
1.0
 40
1.0
 40
1.0
 40
2.0
 40
2.0
 40
2.0
 40
3.0
 40
3.0
 40
3.0
 40
4.0
 40
4.0
 40
4.0
 40
5.0
 40
5.0
 40
5.0
 40
6.0
 40
6.0
 40
6.0
 40
7.0
 40
7.0
 40
7.0
 40
8.0
 40
8.0
 40
8.0
 40
9.0
 40
9.0
 40
9.0
 40
10.0
 40
10.0
 40
10.0
 40
11.0
 40
11.0
 40
11.0
 40
12.0
 40
12.0
 40
12.0
 40
13.0
 40
13.0
 40
13.0
 40
14.0
 40
14.0
 40
14.0
 40
15.0
 40
15.0
 40
15.0
 40
16.0
 40
16.0
 40
16.0
 40
17.0
 40
17.0
 40
17.0
 40
18.0
 40
18.0
 40
18.0
 40
19.0
 40
19.0
 40
19.0
 40
20.0
 40
20.0
 40
20.0
 40
21.0
 40
21.0
 40
21.0
 40
22.0
 40
22.0
 40
22.0
 40
23.0
 40
23.0
 40
23.0
 40
23.0
 10
80.22542180069017
 20
-114.3298000473724
 10
80.39836559404972
 20
-114.4262627209594
 10
80.50723061138362
 20
-114.492925318599
 10
80.61333955232931
 20
-114.5669948715319
 10
80.72461613650287
 20
-114.3916395113327
 10
80.77146943510228
 20
-114.2631374497328
 10
80.79627412259607
 20
-114.1914794636396
 10
80.79627412259607
 20
-114.1914794636396
 10
80.2106078901036
 20
-114.1914794636396
 10
80.2106078901036
 20
-114.1914794636396
 10
80.05988496262393
 20
-114.3940510781723
 10
79.891936557718
 20
-114.5892157374117
 10
79.69177651002498
 20
-114.744934053345
 10
79.53123506041233
 20
-114.596622692705
 10
79.51642114982576
 20
-114.5818087821184
 10
79.38051213293265
 20
-114.4855183633057
 10
79.73380667494503
 20
-114.2483235391463
 10
79.99821775343796
 20
-113.8950289971339
 10
80.18597545738406
 20
-113.4478556031485
 10
80.18597545738406
 20
-113.4478556031485
 10
80.57130938740926
 20
-113.5737738431343
 10
80.57130938740926
 20
-113.5737738431343
 10
80.59852564174274
 20
-113.5835923652673
 10
80.61592337394325
 20
-113.5885877537209
 10
80.61592337394325
 20
-113.6083970527611
 10
80.61592337394325
 20
-113.630617918641
 10
80.59111868644945
 20
-113.6356133070946
 10
80.55649547682269
 20
-113.6380248739342
 10
80.51205374506296
 20
-113.7195013821604
 10
80.48242592388982
 20
-113.7739338908274
 10
80.43798419213009
 20
-113.8480034437602
 10
80.43798419213009
 20
-113.8480034437602
 10
80.9766248712489
 20
-113.8480034437602
 10
80.9766248712489
 20
-113.8480034437602
 10
81.06809215638229
 20
-113.8480034437602
 10
81.1075384996884
 20
-113.8357733547876
 10
81.14715709776877
 20
-113.8233710110407
 10
81.14715709776877
 20
-113.8233710110407
 10
81.32251245796799
 20
-113.9740939385204
 10
81.32251245796799
 20
-113.9740939385204
 10
81.28788924834123
 20
-114.04075653616
 10
81.28547768150155
 20
-114.0431681029996
 10
81.27066377091498
 20
-114.0777913126264
 10
81.11253388814201
 20
-114.4533067205186
 10
81.05327824579571
 20
-114.5942111258653
 10
80.92219236258195
 20
-114.796782740398
 10
81.060685201089
 20
-114.9178778467046
 10
81.10512693284872
 20
-114.9797173106648
 10
81.13716632086154
 20
-115.0265706092642
 10
81.07050372322196
 20
-115.1082193722646
 10
80.93959009478247
 20
-115.2885701209174
 10
80.89755992986242
 20
-115.3528211517174
 10
80.84312742119548
 20
-115.2785793440102
 10
80.78387177884917
 20
-115.2045097910774
 10
80.68499753842251
 20
-115.1082193722646
 10
80.35392386228999
 20
-115.4689208695703
 10
79.98340384285137
 20
-115.6244669307293
 10
79.77824840670475
 20
-115.7035318721158
 10
79.70659042061155
 20
-115.5826090205835
 10
79.61030000179882
 20
-115.4689208695703
 10
79.50901419453247
 20
-115.3724581959833
 10
79.83509248221137
 20
-115.2859862993035
 10
80.21560327855721
 20
-115.051375296758
 10
80.39095863875643
 20
-114.8586222043583
 10
80.22800562230411
 20
-114.7375270980517
 10
80.08468965011772
 20
-114.651055201372
 10
79.99081079814466
 20
-114.596622692705
 10
79.99081079814466
 20
-114.596622692705
 10
80.22542180069017
 20
-114.3298000473724
 10
80.22542180069017
 20
-114.3298000473724
 97
        0
 97
        0
 75
     2
 76
     1
 98
        0
  0
SPLINE
  5
4D
330
41
100
AcDbEntity
  8
_U+30EC_U+30A4_U+30E4_U+30FC 1
370
     0
100
AcDbSpline
210
0.0
220
0.0
230
1.0
 70
    11
 71
     3
 72
    38
 73
    34
 74
     0
 42
0.0000000001
 43
0.0000000001
 12
1.0
 22
0.0
 32
0.0
 13
1.0
 23
0.0
 33
0.0
 40
0.0
 40
0.0
 40
0.0
 40
0.0
 40
1.0
 40
1.0
 40
1.0
 40
2.0
 40
2.0
 40
2.0
 40
3.0
 40
3.0
 40
3.0
 40
4.0
 40
4.0
 40
4.0
 40
5.0
 40
5.0
 40
5.0
 40
6.0
 40
6.0
 40
6.0
 40
7.0
 40
7.0
 40
7.0
 40
8.0
 40
8.0
 40
8.0
 40
9.0
 40
9.0
 40
9.0
 40
10.0
 40
10.0
 40
10.0
 40
11.0
 40
11.0
 40
11.0
 40
11.0
 10
82.9050170691175
 20
-115.6690809172633
 30
0.0
 10
82.9050170691175
 20
-115.6690809172633
 30
0.0
 10
82.48006454101193
 20
-115.6690809172633
 30
0.0
 10
82.48006454101193
 20
-115.6690809172633
 30
0.0
 10
82.48006454101193
 20
-115.6690809172633
 30
0.0
 10
82.48006454101193
 20
-114.544774005652
 30
0.0
 10
82.48006454101193
 20
-114.544774005652
 30
0.0
 10
82.26009519427873
 20
-114.6782714557054
 30
0.0
 10
82.03530271386617
 20
-114.8017781288516
 30
0.0
 10
81.79569632286706
 20
-114.8956569808247
 30
0.0
 10
81.72403833677386
 20
-114.7597479639316
 30
0.0
 10
81.61276175260029
 20
-114.6362412907854
 30
0.0
 10
81.49907360158704
 20
-114.5423624388123
 30
0.0
 10
82.44044594293156
 20
-114.2755397934797
 30
0.0
 10
83.03110756387764
 20
-113.6034016643075
 30
0.0
 10
83.18165823658306
 20
-113.4106485719078
 30
0.0
 10
83.18165823658306
 20
-113.4106485719078
 30
0.0
 10
83.5103203458759
 20
-113.6702365167213
 30
0.0
 10
83.5103203458759
 20
-113.6702365167213
 30
0.0
 10
83.52513425646247
 20
-113.6800550388543
 30
0.0
 10
83.53994816704905
 20
-113.6948689494409
 30
0.0
 10
83.53994816704905
 20
-113.7170898153207
 30
0.0
 10
83.53994816704905
 20
-113.7393106812006
 30
0.0
 10
83.52031112278313
 20
-113.7491292033336
 30
0.0
 10
83.50050182374294
 20
-113.7491292033336
 30
0.0
 10
83.48809947999604
 20
-113.7491292033336
 30
0.0
 10
83.47828095786308
 20
-113.7491292033336
 30
0.0
 10
83.4510647035296
 20
-113.7417222480403
 30
0.0
 10
83.27570934333038
 20
-113.9518730726405
 30
0.0
 10
82.91983097970407
 20
-114.2359211953994
 30
0.0
 10
82.9050170691175
 20
-114.2483235391463
 30
0.0
 10
82.9050170691175
 20
-114.2483235391463
 30
0.0
 10
82.9050170691175
 20
-115.6690809172633
 30
0.0
 10
82.9050170691175
 20
-115.6690809172633
 30
0.0
  0
HATCH
  5
4E
330
41
100
AcDbEntity
  8
_U+30EC_U+30A4_U+30E4_U+30FC 1
 62
   179
420
  2234388
100
AcDbHatch
 10
0.0
 20
0.0
 30
0.0
210
0.0
220
0.0
230
1.0
  2
SOLID
 70
     1
 71
     0
 91
        1
 92
        1
 93
        1
 72
     4
 94
        3
 73
     0
 74
     1
 95
       38
 96
       34
 40
0.0
 40
0.0
 40
0.0
 40
0.0
 40
1.0
 40
1.0
 40
1.0
 40
2.0
 40
2.0
 40
2.0
 40
3.0
 40
3.0
 40
3.0
 40
4.0
 40
4.0
 40
4.0
 40
5.0
 40
5.0
 40
5.0
 40
6.0
 40
6.0
 40
6.0
 40
7.0
 40
7.0
 40
7.0
 40
8.0
 40
8.0
 40
8.0
 40
9.0
 40
9.0
 40
9.0
 40
10.0
 40
10.0
 40
10.0
 40
11.0
 40
11.0
 40
11.0
 40
11.0
 10
82.9050170691175
 20
-115.6690809172633
 10
82.9050170691175
 20
-115.6690809172633
 10
82.48006454101193
 20
-115.6690809172633
 10
82.48006454101193
 20
-115.6690809172633
 10
82.48006454101193
 20
-115.6690809172633
 10
82.48006454101193
 20
-114.544774005652
 10
82.48006454101193
 20
-114.544774005652
 10
82.26009519427873
 20
-114.6782714557054
 10
82.03530271386617
 20
-114.8017781288516
 10
81.79569632286706
 20
-114.8956569808247
 10
81.72403833677386
 20
-114.7597479639316
 10
81.61276175260029
 20
-114.6362412907854
 10
81.49907360158704
 20
-114.5423624388123
 10
82.44044594293156
 20
-114.2755397934797
 10
83.03110756387764
 20
-113.6034016643075
 10
83.18165823658306
 20
-113.4106485719078
 10
83.18165823658306
 20
-113.4106485719078
 10
83.5103203458759
 20
-113.6702365167213
 10
83.5103203458759
 20
-113.6702365167213
 10
83.52513425646247
 20
-113.6800550388543
 10
83.53994816704905
 20
-113.6948689494409
 10
83.53994816704905
 20
-113.7170898153207
 10
83.53994816704905
 20
-113.7393106812006
 10
83.52031112278313
 20
-113.7491292033336
 10
83.50050182374294
 20
-113.7491292033336
 10
83.48809947999604
 20
-113.7491292033336
 10
83.47828095786308
 20
-113.7491292033336
 10
83.4510647035296
 20
-113.7417222480403
 10
83.27570934333038
 20
-113.9518730726405
 10
82.91983097970407
 20
-114.2359211953994
 10
82.9050170691175
 20
-114.2483235391463
 10
82.9050170691175
 20
-114.2483235391463
 10
82.9050170691175
 20
-115.6690809172633
 10
82.9050170691175
 20
-115.6690809172633
 97
        0
 97
        0
 75
     2
 76
     1
 98
        0
  0
SPLINE
  5
4F
330
41
100
AcDbEntity
  8
_U+30EC_U+30A4_U+30E4_U+30FC 1
370
     0
100
AcDbSpline
210
0.0
220
0.0
230
1.0
 70
    11
 71
     3
 72
    38
 73
    34
 74
     0
 42
0.0000000001
 43
0.0000000001
 12
1.0
 22
0.0
 32
0.0
 13
1.0
 23
0.0
 33
0.0
 40
0.0
 40
0.0
 40
0.0
 40
0.0
 40
1.0
 40
1.0
 40
1.0
 40
2.0
 40
2.0
 40
2.0
 40
3.0
 40
3.0
 40
3.0
 40
4.0
 40
4.0
 40
4.0
 40
5.0
 40
5.0
 40
5.0
 40
6.0
 40
6.0
 40
6.0
 40
7.0
 40
7.0
 40
7.0
 40
8.0
 40
8.0
 40
8.0
 40
9.0
 40
9.0
 40
9.0
 40
10.0
 40
10.0
 40
10.0
 40
11.0
 40
11.0
 40
11.0
 40
11.0
 10
85.66109345731736
 20
-113.7641153686944
 30
0.0
 10
85.73774683186417
 20
-113.7641153686944
 30
0.0
 10
85.75497230929042
 20
-113.7491292033336
 30
0.0
 10
85.77977699678422
 20
-113.7294921590676
 30
0.0
 10
85.77977699678422
 20
-113.7294921590676
 30
0.0
 10
86.03178573153025
 20
-113.9072590861065
 30
0.0
 10
86.03178573153025
 20
-113.9072590861065
 30
0.0
 10
85.96253931227673
 20
-114.0111287149868
 30
0.0
 10
85.94290226801081
 20
-114.0605658352001
 30
0.0
 10
85.87365584875728
 20
-114.2359211953994
 30
0.0
 10
85.68090275635755
 20
-114.7325317095981
 30
0.0
 10
85.53259139571755
 20
-115.0141682655173
 30
0.0
 10
85.25595022825199
 20
-115.2563584781304
 30
0.0
 10
85.20151771958504
 20
-115.303384031504
 30
0.0
 10
84.9174695968262
 20
-115.5479858109568
 30
0.0
 10
84.58381209907975
 20
-115.6913017831431
 30
0.0
 10
84.50233559085359
 20
-115.5454019893428
 30
0.0
 10
84.4108683057202
 20
-115.4541069589837
 30
0.0
 10
84.30217554316057
 20
-115.36505124069
 30
0.0
 10
84.67786320582707
 20
-115.2267306569572
 30
0.0
 10
84.96191132858591
 20
-115.0019381765447
 30
0.0
 10
85.08300643489245
 20
-114.8710245481052
 30
0.0
 10
85.21891545178555
 20
-114.7227131874652
 30
0.0
 10
85.40908472257135
 20
-114.4188557656661
 30
0.0
 10
85.48074270866454
 20
-114.1198214775464
 30
0.0
 10
85.48074270866454
 20
-114.1198214775464
 30
0.0
 10
84.04775524157488
 20
-114.1198214775464
 30
0.0
 10
84.04775524157488
 20
-114.1198214775464
 30
0.0
 10
84.04775524157488
 20
-114.1198214775464
 30
0.0
 10
84.04775524157488
 20
-113.7641153686944
 30
0.0
 10
84.04775524157488
 20
-113.7641153686944
 30
0.0
 10
84.04775524157488
 20
-113.7641153686944
 30
0.0
 10
85.66109345731736
 20
-113.7641153686944
 30
0.0
 10
85.66109345731736
 20
-113.7641153686944
 30
0.0
  0
SPLINE
  5
50
330
41
100
AcDbEntity
  8
_U+30EC_U+30A4_U+30E4_U+30FC 1
370
     0
100
AcDbSpline
210
0.0
220
0.0
230
1.0
 70
    11
 71
     3
 72
    17
 73
    13
 74
     0
 42
0.0000000001
 43
0.0000000001
 12
1.0
 22
0.0
 32
0.0
 13
1.0
 23
0.0
 33
0.0
 40
0.0
 40
0.0
 40
0.0
 40
0.0
 40
1.0
 40
1.0
 40
1.0
 40
2.0
 40
2.0
 40
2.0
 40
3.0
 40
3.0
 40
3.0
 40
4.0
 40
4.0
 40
4.0
 40
4.0
 10
86.28878985472988
 20
-113.5959947090142
 30
0.0
 10
86.28878985472988
 20
-113.724496770614
 30
0.0
 10
86.18492022584961
 20
-113.8283663994943
 30
0.0
 10
86.05641816424979
 20
-113.8283663994943
 30
0.0
 10
85.92808835742423
 20
-113.8283663994943
 30
0.0
 10
85.82421872854395
 20
-113.724496770614
 30
0.0
 10
85.82421872854395
 20
-113.5959947090142
 30
0.0
 10
85.82421872854395
 20
-113.4650810805747
 30
0.0
 10
85.92808835742423
 20
-113.3637952733084
 30
0.0
 10
86.05641816424979
 20
-113.3637952733084
 30
0.0
 10
86.18250865900993
 20
-113.3637952733084
 30
0.0
 10
86.28878985472988
 20
-113.4650810805747
 30
0.0
 10
86.28878985472988
 20
-113.5959947090142
 30
0.0
  0
SPLINE
  5
51
330
41
100
AcDbEntity
  8
_U+30EC_U+30A4_U+30E4_U+30FC 1
370
     0
100
AcDbSpline
210
0.0
220
0.0
230
1.0
 70
    11
 71
     3
 72
    17
 73
    13
 74
     0
 42
0.0000000001
 43
0.0000000001
 12
1.0
 22
0.0
 32
0.0
 13
1.0
 23
0.0
 33
0.0
 40
0.0
 40
0.0
 40
0.0
 40
0.0
 40
1.0
 40
1.0
 40
1.0
 40
2.0
 40
2.0
 40
2.0
 40
3.0
 40
3.0
 40
3.0
 40
4.0
 40
4.0
 40
4.0
 40
4.0
 10
85.94772540169015
 20
-113.5959947090142
 30
0.0
 10
85.94772540169015
 20
-113.6552503513605
 30
0.0
 10
85.99475095506382
 20
-113.7046874715738
 30
0.0
 10
86.05641816424979
 20
-113.7046874715738
 30
0.0
 10
86.11584606137035
 20
-113.7046874715738
 30
0.0
 10
86.16511092680942
 20
-113.6552503513605
 30
0.0
 10
86.16511092680942
 20
-113.5959947090142
 30
0.0
 10
86.16511092680942
 20
-113.5343274998282
 30
0.0
 10
86.11584606137035
 20
-113.4873019464546
 30
0.0
 10
86.05641816424979
 20
-113.4873019464546
 30
0.0
 10
85.99716252190349
 20
-113.4873019464546
 30
0.0
 10
85.94772540169015
 20
-113.5343274998282
 30
0.0
 10
85.94772540169015
 20
-113.5959947090142
 30
0.0
  0
HATCH
  5
52
330
41
100
AcDbEntity
  8
_U+30EC_U+30A4_U+30E4_U+30FC 1
 62
   179
420
  2234388
100
AcDbHatch
 10
0.0
 20
0.0
 30
0.0
210
0.0
220
0.0
230
1.0
  2
SOLID
 70
     1
 71
     0
 91
        3
 92
        1
 93
        1
 72
     4
 94
        3
 73
     0
 74
     1
 95
       38
 96
       34
 40
0.0
 40
0.0
 40
0.0
 40
0.0
 40
1.0
 40
1.0
 40
1.0
 40
2.0
 40
2.0
 40
2.0
 40
3.0
 40
3.0
 40
3.0
 40
4.0
 40
4.0
 40
4.0
 40
5.0
 40
5.0
 40
5.0
 40
6.0
 40
6.0
 40
6.0
 40
7.0
 40
7.0
 40
7.0
 40
8.0
 40
8.0
 40
8.0
 40
9.0
 40
9.0
 40
9.0
 40
10.0
 40
10.0
 40
10.0
 40
11.0
 40
11.0
 40
11.0
 40
11.0
 10
85.66109345731736
 20
-113.7641153686944
 10
85.73774683186417
 20
-113.7641153686944
 10
85.75497230929042
 20
-113.7491292033336
 10
85.77977699678422
 20
-113.7294921590676
 10
85.77977699678422
 20
-113.7294921590676
 10
86.03178573153025
 20
-113.9072590861065
 10
86.03178573153025
 20
-113.9072590861065
 10
85.96253931227673
 20
-114.0111287149868
 10
85.94290226801081
 20
-114.0605658352001
 10
85.87365584875728
 20
-114.2359211953994
 10
85.68090275635755
 20
-114.7325317095981
 10
85.53259139571755
 20
-115.0141682655173
 10
85.25595022825199
 20
-115.2563584781304
 10
85.20151771958504
 20
-115.303384031504
 10
84.9174695968262
 20
-115.5479858109568
 10
84.58381209907975
 20
-115.6913017831431
 10
84.50233559085359
 20
-115.5454019893428
 10
84.4108683057202
 20
-115.4541069589837
 10
84.30217554316057
 20
-115.36505124069
 10
84.67786320582707
 20
-115.2267306569572
 10
84.96191132858591
 20
-115.0019381765447
 10
85.08300643489245
 20
-114.8710245481052
 10
85.21891545178555
 20
-114.7227131874652
 10
85.40908472257135
 20
-114.4188557656661
 10
85.48074270866454
 20
-114.1198214775464
 10
85.48074270866454
 20
-114.1198214775464
 10
84.04775524157488
 20
-114.1198214775464
 10
84.04775524157488
 20
-114.1198214775464
 10
84.04775524157488
 20
-114.1198214775464
 10
84.04775524157488
 20
-113.7641153686944
 10
84.04775524157488
 20
-113.7641153686944
 10
84.04775524157488
 20
-113.7641153686944
 10
85.66109345731736
 20
-113.7641153686944
 10
85.66109345731736
 20
-113.7641153686944
 97
        0
 97
        0
 92
        1
 93
        1
 72
     4
 94
        3
 73
     0
 74
     1
 95
       17
 96
       13
 40
0.0
 40
0.0
 40
0.0
 40
0.0
 40
1.0
 40
1.0
 40
1.0
 40
2.0
 40
2.0
 40
2.0
 40
3.0
 40
3.0
 40
3.0
 40
4.0
 40
4.0
 40
4.0
 40
4.0
 10
86.28878985472988
 20
-113.5959947090142
 10
86.28878985472988
 20
-113.724496770614
 10
86.18492022584961
 20
-113.8283663994943
 10
86.05641816424979
 20
-113.8283663994943
 10
85.92808835742423
 20
-113.8283663994943
 10
85.82421872854395
 20
-113.724496770614
 10
85.82421872854395
 20
-113.5959947090142
 10
85.82421872854395
 20
-113.4650810805747
 10
85.92808835742423
 20
-113.3637952733084
 10
86.05641816424979
 20
-113.3637952733084
 10
86.18250865900993
 20
-113.3637952733084
 10
86.28878985472988
 20
-113.4650810805747
 10
86.28878985472988
 20
-113.5959947090142
 97
        0
 97
        0
 92
        1
 93
        1
 72
     4
 94
        3
 73
     0
 74
     1
 95
       17
 96
       13
 40
0.0
 40
0.0
 40
0.0
 40
0.0
 40
1.0
 40
1.0
 40
1.0
 40
2.0
 40
2.0
 40
2.0
 40
3.0
 40
3.0
 40
3.0
 40
4.0
 40
4.0
 40
4.0
 40
4.0
 10
85.94772540169015
 20
-113.5959947090142
 10
85.94772540169015
 20
-113.6552503513605
 10
85.99475095506382
 20
-113.7046874715738
 10
86.05641816424979
 20
-113.7046874715738
 10
86.11584606137035
 20
-113.7046874715738
 10
86.16511092680942
 20
-113.6552503513605
 10
86.16511092680942
 20
-113.5959947090142
 10
86.16511092680942
 20
-113.5343274998282
 10
86.11584606137035
 20
-113.4873019464546
 10
86.05641816424979
 20
-113.4873019464546
 10
85.99716252190349
 20
-113.4873019464546
 10
85.94772540169015
 20
-113.5343274998282
 10
85.94772540169015
 20
-113.5959947090142
 97
        0
 97
        0
 75
     2
 76
     1
 98
        0
  0
ENDBLK
  5
44
330
41
100
AcDbEntity
  8
0
100
AcDbBlockEnd
  0
BLOCK
  5
104
330
102
100
AcDbEntity
  8
0
100
AcDbBlockBegin
  2
block 3
 70
     0
 10
0.0
 20
0.0
 30
0.0
  3
block 3
  1

  0
SPLINE
  5
106
330
102
100
AcDbEntity
  8
_U+30EC_U+30A4_U+30E4_U+30FC 1
370
     0
100
AcDbSpline
210
0.0
220
0.0
230
1.0
 70
    11
 71
     3
 72
    29
 73
    25
 74
     0
 42
0.0000000001
 43
0.0000000001
 12
1.0
 22
0.0
 32
0.0
 13
1.0
 23
0.0
 33
0.0
 40
0.0
 40
0.0
 40
0.0
 40
0.0
 40
1.0
 40
1.0
 40
1.0
 40
2.0
 40
2.0
 40
2.0
 40
3.0
 40
3.0
 40
3.0
 40
4.0
 40
4.0
 40
4.0
 40
5.0
 40
5.0
 40
5.0
 40
6.0
 40
6.0
 40
6.0
 40
7.0
 40
7.0
 40
7.0
 40
8.0
 40
8.0
 40
8.0
 40
8.0
 10
95.12287595278178
 20
-141.8190781980522
 30
0.0
 10
94.85622556222344
 20
-141.8190781980522
 30
0.0
 10
94.60232202496053
 20
-141.6816188881907
 30
0.0
 10
94.60232202496053
 20
-141.3326307155349
 30
0.0
 10
94.60232202496053
 20
-141.0766601209808
 30
0.0
 10
94.74425995895282
 20
-140.9812309760394
 30
0.0
 10
94.85002439035
 20
-140.919908276402
 30
0.0
 10
94.72531193378396
 20
-140.8606526340557
 30
0.0
 10
94.64917532355993
 20
-140.7466199734939
 30
0.0
 10
94.64917532355993
 20
-140.5857340143327
 30
0.0
 10
94.64917532355993
 20
-140.3108153946098
 30
0.0
 10
94.84795733305884
 20
-140.1754231420395
 30
0.0
 10
95.12287595278178
 20
-140.1754231420395
 30
0.0
 10
95.40640731121785
 20
-140.1754231420395
 30
0.0
 10
95.59692109155216
 20
-140.3190836237744
 30
0.0
 10
95.59692109155216
 20
-140.5857340143327
 30
0.0
 10
95.59692109155216
 20
-140.7466199734939
 30
0.0
 10
95.51837291448847
 20
-140.8606526340557
 30
0.0
 10
95.39366045792242
 20
-140.919908276402
 30
0.0
 10
95.48254392144187
 20
-140.9708956895837
 30
0.0
 10
95.64136282331188
 20
-141.0659803249766
 30
0.0
 10
95.64136282331188
 20
-141.3281520914041
 30
0.0
 10
95.64136282331188
 20
-141.7026339706507
 30
0.0
 10
95.36196557945813
 20
-141.8190781980522
 30
0.0
 10
95.12287595278178
 20
-141.8190781980522
 30
0.0
  0
SPLINE
  5
107
330
102
100
AcDbEntity
  8
_U+30EC_U+30A4_U+30E4_U+30FC 1
370
     0
100
AcDbSpline
210
0.0
220
0.0
230
1.0
 70
    11
 71
     3
 72
    17
 73
    13
 74
     0
 42
0.0000000001
 43
0.0000000001
 12
1.0
 22
0.0
 32
0.0
 13
1.0
 23
0.0
 33
0.0
 40
0.0
 40
0.0
 40
0.0
 40
0.0
 40
1.0
 40
1.0
 40
1.0
 40
2.0
 40
2.0
 40
2.0
 40
3.0
 40
3.0
 40
3.0
 40
4.0
 40
4.0
 40
4.0
 40
4.0
 10
95.12287595278178
 20
-141.0277397650903
 30
0.0
 10
94.97921547104687
 20
-141.0277397650903
 30
0.0
 10
94.82659774105029
 20
-141.1145561713186
 30
0.0
 10
94.82659774105029
 20
-141.3178168049483
 30
0.0
 10
94.82659774105029
 20
-141.5227999863207
 30
0.0
 10
94.95372176445602
 20
-141.6244303031356
 30
0.0
 10
95.12287595278178
 20
-141.6244303031356
 30
0.0
 10
95.30891110898527
 20
-141.6244303031356
 30
0.0
 10
95.41915416451327
 20
-141.5017849038607
 30
0.0
 10
95.41915416451327
 20
-141.3240179768218
 30
0.0
 10
95.41915416451327
 20
-141.1018093180232
 30
0.0
 10
95.25620114806095
 20
-141.0277397650903
 30
0.0
 10
95.12287595278178
 20
-141.0277397650903
 30
0.0
  0
SPLINE
  5
108
330
102
100
AcDbEntity
  8
_U+30EC_U+30A4_U+30E4_U+30FC 1
370
     0
100
AcDbSpline
210
0.0
220
0.0
230
1.0
 70
    11
 71
     3
 72
    17
 73
    13
 74
     0
 42
0.0000000001
 43
0.0000000001
 12
1.0
 22
0.0
 32
0.0
 13
1.0
 23
0.0
 33
0.0
 40
0.0
 40
0.0
 40
0.0
 40
0.0
 40
1.0
 40
1.0
 40
1.0
 40
2.0
 40
2.0
 40
2.0
 40
3.0
 40
3.0
 40
3.0
 40
4.0
 40
4.0
 40
4.0
 40
4.0
 10
95.12287595278178
 20
-140.3676594701164
 30
0.0
 10
94.95785587903832
 20
-140.3676594701164
 30
0.0
 10
94.87310653010117
 20
-140.4630886150578
 30
0.0
 10
94.87310653010117
 20
-140.5984808676282
 30
0.0
 10
94.87310653010117
 20
-140.7211262669031
 30
0.0
 10
94.9451090257429
 20
-140.8396375515956
 30
0.0
 10
95.12287595278178
 20
-140.8396375515956
 30
0.0
 10
95.30064287982067
 20
-140.8396375515956
 30
0.0
 10
95.3726453754624
 20
-140.7211262669031
 30
0.0
 10
95.3726453754624
 20
-140.5984808676282
 30
0.0
 10
95.3726453754624
 20
-140.4630886150578
 30
0.0
 10
95.2858289692341
 20
-140.3676594701164
 30
0.0
 10
95.12287595278178
 20
-140.3676594701164
 30
0.0
  0
HATCH
  5
109
330
102
100
AcDbEntity
  8
_U+30EC_U+30A4_U+30E4_U+30FC 1
 62
   179
420
  2234388
100
AcDbHatch
 10
0.0
 20
0.0
 30
0.0
210
0.0
220
0.0
230
1.0
  2
SOLID
 70
     1
 71
     0
 91
        3
 92
        1
 93
        1
 72
     4
 94
        3
 73
     0
 74
     1
 95
       29
 96
       25
 40
0.0
 40
0.0
 40
0.0
 40
0.0
 40
1.0
 40
1.0
 40
1.0
 40
2.0
 40
2.0
 40
2.0
 40
3.0
 40
3.0
 40
3.0
 40
4.0
 40
4.0
 40
4.0
 40
5.0
 40
5.0
 40
5.0
 40
6.0
 40
6.0
 40
6.0
 40
7.0
 40
7.0
 40
7.0
 40
8.0
 40
8.0
 40
8.0
 40
8.0
 10
95.12287595278178
 20
-141.8190781980522
 10
94.85622556222344
 20
-141.8190781980522
 10
94.60232202496053
 20
-141.6816188881907
 10
94.60232202496053
 20
-141.3326307155349
 10
94.60232202496053
 20
-141.0766601209808
 10
94.74425995895282
 20
-140.9812309760394
 10
94.85002439035
 20
-140.919908276402
 10
94.72531193378396
 20
-140.8606526340557
 10
94.64917532355993
 20
-140.7466199734939
 10
94.64917532355993
 20
-140.5857340143327
 10
94.64917532355993
 20
-140.3108153946098
 10
94.84795733305884
 20
-140.1754231420395
 10
95.12287595278178
 20
-140.1754231420395
 10
95.40640731121785
 20
-140.1754231420395
 10
95.59692109155216
 20
-140.3190836237744
 10
95.59692109155216
 20
-140.5857340143327
 10
95.59692109155216
 20
-140.7466199734939
 10
95.51837291448847
 20
-140.8606526340557
 10
95.39366045792242
 20
-140.919908276402
 10
95.48254392144187
 20
-140.9708956895837
 10
95.64136282331188
 20
-141.0659803249766
 10
95.64136282331188
 20
-141.3281520914041
 10
95.64136282331188
 20
-141.7026339706507
 10
95.36196557945813
 20
-141.8190781980522
 10
95.12287595278178
 20
-141.8190781980522
 97
        0
 97
        0
 92
        1
 93
        1
 72
     4
 94
        3
 73
     0
 74
     1
 95
       17
 96
       13
 40
0.0
 40
0.0
 40
0.0
 40
0.0
 40
1.0
 40
1.0
 40
1.0
 40
2.0
 40
2.0
 40
2.0
 40
3.0
 40
3.0
 40
3.0
 40
4.0
 40
4.0
 40
4.0
 40
4.0
 10
95.12287595278178
 20
-141.0277397650903
 10
94.97921547104687
 20
-141.0277397650903
 10
94.82659774105029
 20
-141.1145561713186
 10
94.82659774105029
 20
-141.3178168049483
 10
94.82659774105029
 20
-141.5227999863207
 10
94.95372176445602
 20
-141.6244303031356
 10
95.12287595278178
 20
-141.6244303031356
 10
95.30891110898527
 20
-141.6244303031356
 10
95.41915416451327
 20
-141.5017849038607
 10
95.41915416451327
 20
-141.3240179768218
 10
95.41915416451327
 20
-141.1018093180232
 10
95.25620114806095
 20
-141.0277397650903
 10
95.12287595278178
 20
-141.0277397650903
 97
        0
 97
        0
 92
        1
 93
        1
 72
     4
 94
        3
 73
     0
 74
     1
 95
       17
 96
       13
 40
0.0
 40
0.0
 40
0.0
 40
0.0
 40
1.0
 40
1.0
 40
1.0
 40
2.0
 40
2.0
 40
2.0
 40
3.0
 40
3.0
 40
3.0
 40
4.0
 40
4.0
 40
4.0
 40
4.0
 10
95.12287595278178
 20
-140.3676594701164
 10
94.95785587903832
 20
-140.3676594701164
 10
94.87310653010117
 20
-140.4630886150578
 10
94.87310653010117
 20
-140.5984808676282
 10
94.87310653010117
 20
-140.7211262669031
 10
94.9451090257429
 20
-140.8396375515956
 10
95.12287595278178
 20
-140.8396375515956
 10
95.30064287982067
 20
-140.8396375515956
 10
95.3726453754624
 20
-140.7211262669031
 10
95.3726453754624
 20
-140.5984808676282
 10
95.3726453754624
 20
-140.4630886150578
 10
95.2858289692341
 20
-140.3676594701164
 10
95.12287595278178
 20
-140.3676594701164
 97
        0
 97
        0
 75
     2
 76
     1
 98
        0
  0
ENDBLK
  5
105
330
102
100
AcDbEntity
  8
0
100
AcDbBlockEnd
  0
BLOCK
  5
117
330
115
100
AcDbEntity
  8
0
100
AcDbBlockBegin
  2
block 4
 70
     0
 10
0.0
 20
0.0
 30
0.0
  3
block 4
  1

  0
SPLINE
  5
119
330
115
100
AcDbEntity
  8
_U+30EC_U+30A4_U+30E4_U+30FC 1
370
     0
100
AcDbSpline
210
0.0
220
0.0
230
1.0
 70
    11
 71
     3
 72
    26
 73
    22
 74
     0
 42
0.0000000001
 43
0.0000000001
 12
1.0
 22
0.0
 32
0.0
 13
1.0
 23
0.0
 33
0.0
 40
0.0
 40
0.0
 40
0.0
 40
0.0
 40
1.0
 40
1.0
 40
1.0
 40
2.0
 40
2.0
 40
2.0
 40
3.0
 40
3.0
 40
3.0
 40
4.0
 40
4.0
 40
4.0
 40
5.0
 40
5.0
 40
5.0
 40
6.0
 40
6.0
 40
6.0
 40
7.0
 40
7.0
 40
7.0
 40
7.0
 10
85.48591035189241
 20
-141.768435294419
 30
0.0
 10
85.48591035189241
 20
-141.768435294419
 30
0.0
 10
85.48591035189241
 20
-140.6639376818479
 30
0.0
 10
85.48591035189241
 20
-140.6639376818479
 30
0.0
 10
85.48591035189241
 20
-140.6639376818479
 30
0.0
 10
85.15587020440547
 20
-140.6639376818479
 30
0.0
 10
85.15587020440547
 20
-140.6639376818479
 30
0.0
 10
85.15587020440547
 20
-140.6639376818479
 30
0.0
 10
85.15587020440547
 20
-140.5157985759822
 30
0.0
 10
85.15587020440547
 20
-140.5157985759822
 30
0.0
 10
85.48797740918357
 20
-140.5009846653956
 30
0.0
 10
85.5346584530087
 20
-140.3383761584918
 30
0.0
 10
85.56411401940758
 20
-140.2239989883815
 30
0.0
 10
85.56411401940758
 20
-140.2239989883815
 30
0.0
 10
85.71018606798218
 20
-140.2239989883815
 30
0.0
 10
85.71018606798218
 20
-140.2239989883815
 30
0.0
 10
85.71018606798218
 20
-140.2239989883815
 30
0.0
 10
85.71018606798218
 20
-141.768435294419
 30
0.0
 10
85.71018606798218
 20
-141.768435294419
 30
0.0
 10
85.71018606798218
 20
-141.768435294419
 30
0.0
 10
85.48591035189241
 20
-141.768435294419
 30
0.0
 10
85.48591035189241
 20
-141.768435294419
 30
0.0
  0
HATCH
  5
11A
330
115
100
AcDbEntity
  8
_U+30EC_U+30A4_U+30E4_U+30FC 1
 62
   179
420
  2234388
100
AcDbHatch
 10
0.0
 20
0.0
 30
0.0
210
0.0
220
0.0
230
1.0
  2
SOLID
 70
     1
 71
     0
 91
        1
 92
        1
 93
        1
 72
     4
 94
        3
 73
     0
 74
     1
 95
       26
 96
       22
 40
0.0
 40
0.0
 40
0.0
 40
0.0
 40
1.0
 40
1.0
 40
1.0
 40
2.0
 40
2.0
 40
2.0
 40
3.0
 40
3.0
 40
3.0
 40
4.0
 40
4.0
 40
4.0
 40
5.0
 40
5.0
 40
5.0
 40
6.0
 40
6.0
 40
6.0
 40
7.0
 40
7.0
 40
7.0
 40
7.0
 10
85.48591035189241
 20
-141.768435294419
 10
85.48591035189241
 20
-141.768435294419
 10
85.48591035189241
 20
-140.6639376818479
 10
85.48591035189241
 20
-140.6639376818479
 10
85.48591035189241
 20
-140.6639376818479
 10
85.15587020440547
 20
-140.6639376818479
 10
85.15587020440547
 20
-140.6639376818479
 10
85.15587020440547
 20
-140.6639376818479
 10
85.15587020440547
 20
-140.5157985759822
 10
85.15587020440547
 20
-140.5157985759822
 10
85.48797740918357
 20
-140.5009846653956
 10
85.5346584530087
 20
-140.3383761584918
 10
85.56411401940758
 20
-140.2239989883815
 10
85.56411401940758
 20
-140.2239989883815
 10
85.71018606798218
 20
-140.2239989883815
 10
85.71018606798218
 20
-140.2239989883815
 10
85.71018606798218
 20
-140.2239989883815
 10
85.71018606798218
 20
-141.768435294419
 10
85.71018606798218
 20
-141.768435294419
 10
85.71018606798218
 20
-141.768435294419
 10
85.48591035189241
 20
-141.768435294419
 10
85.48591035189241
 20
-141.768435294419
 97
        0
 97
        0
 75
     2
 76
     1
 98
        0
  0
SPLINE
  5
11B
330
115
100
AcDbEntity
  8
_U+30EC_U+30A4_U+30E4_U+30FC 1
370
     0
100
AcDbSpline
210
0.0
220
0.0
230
1.0
 70
    11
 71
     3
 72
    29
 73
    25
 74
     0
 42
0.0000000001
 43
0.0000000001
 12
1.0
 22
0.0
 32
0.0
 13
1.0
 23
0.0
 33
0.0
 40
0.0
 40
0.0
 40
0.0
 40
0.0
 40
1.0
 40
1.0
 40
1.0
 40
2.0
 40
2.0
 40
2.0
 40
3.0
 40
3.0
 40
3.0
 40
4.0
 40
4.0
 40
4.0
 40
5.0
 40
5.0
 40
5.0
 40
6.0
 40
6.0
 40
6.0
 40
7.0
 40
7.0
 40
7.0
 40
8.0
 40
8.0
 40
8.0
 40
8.0
 10
87.10923934454213
 20
-141.5906683673801
 30
0.0
 10
87.00123560107956
 20
-141.8001301728833
 30
0.0
 10
86.82777504339722
 20
-141.8190781980522
 30
0.0
 10
86.71150307077005
 20
-141.8190781980522
 30
0.0
 10
86.55061711160887
 20
-141.8190781980522
 30
0.0
 10
86.40885143239085
 20
-141.7725694090013
 30
0.0
 10
86.31376679699795
 20
-141.5906683673801
 30
0.0
 10
86.21006942289193
 20
-141.3960204724635
 30
0.0
 10
86.1909491429488
 20
-141.1589979030783
 30
0.0
 10
86.1909491429488
 20
-140.996044886626
 30
0.0
 10
86.1909491429488
 20
-140.8523844048911
 30
0.0
 10
86.20800236560078
 20
-140.6005479249193
 30
0.0
 10
86.31376679699795
 20
-140.4017659154204
 30
0.0
 10
86.42159828568627
 20
-140.1985052817907
 30
0.0
 10
86.58248424484744
 20
-140.1754231420395
 30
0.0
 10
86.71150307077005
 20
-140.1754231420395
 30
0.0
 10
86.8701497178658
 20
-140.1754231420395
 30
0.0
 10
87.01398245437498
 20
-140.2198648737992
 30
0.0
 10
87.10923934454213
 20
-140.4017659154204
 30
0.0
 10
87.2086303492916
 20
-140.5943467530459
 30
0.0
 10
87.23188474381703
 20
-140.8227565837179
 30
0.0
 10
87.23188474381703
 20
-140.996044886626
 30
0.0
 10
87.23188474381703
 20
-141.1676106417914
 30
0.0
 10
87.21069740658275
 20
-141.3980875297547
 30
0.0
 10
87.10923934454213
 20
-141.5906683673801
 30
0.0
  0
SPLINE
  5
11C
330
115
100
AcDbEntity
  8
_U+30EC_U+30A4_U+30E4_U+30FC 1
370
     0
100
AcDbSpline
210
0.0
220
0.0
230
1.0
 70
    11
 71
     3
 72
    17
 73
    13
 74
     0
 42
0.0000000001
 43
0.0000000001
 12
1.0
 22
0.0
 32
0.0
 13
1.0
 23
0.0
 33
0.0
 40
0.0
 40
0.0
 40
0.0
 40
0.0
 40
1.0
 40
1.0
 40
1.0
 40
2.0
 40
2.0
 40
2.0
 40
3.0
 40
3.0
 40
3.0
 40
4.0
 40
4.0
 40
4.0
 40
4.0
 10
86.71150307077005
 20
-140.3676594701164
 30
0.0
 10
86.46173364808944
 20
-140.3676594701164
 30
0.0
 10
86.41522485903856
 20
-140.6511908285525
 30
0.0
 10
86.41522485903856
 20
-140.996044886626
 30
0.0
 10
86.41522485903856
 20
-141.3157497476572
 30
0.0
 10
86.45122610685942
 20
-141.6244303031356
 30
0.0
 10
86.71150307077005
 20
-141.6244303031356
 30
0.0
 10
86.95903318138525
 20
-141.6244303031356
 30
0.0
 10
87.00760902772727
 20
-141.3429660019906
 30
0.0
 10
87.00760902772727
 20
-140.996044886626
 30
0.0
 10
87.00760902772727
 20
-140.6766845351433
 30
0.0
 10
86.96954072261526
 20
-140.3676594701164
 30
0.0
 10
86.71150307077005
 20
-140.3676594701164
 30
0.0
  0
HATCH
  5
11D
330
115
100
AcDbEntity
  8
_U+30EC_U+30A4_U+30E4_U+30FC 1
 62
   179
420
  2234388
100
AcDbHatch
 10
0.0
 20
0.0
 30
0.0
210
0.0
220
0.0
230
1.0
  2
SOLID
 70
     1
 71
     0
 91
        2
 92
        1
 93
        1
 72
     4
 94
        3
 73
     0
 74
     1
 95
       29
 96
       25
 40
0.0
 40
0.0
 40
0.0
 40
0.0
 40
1.0
 40
1.0
 40
1.0
 40
2.0
 40
2.0
 40
2.0
 40
3.0
 40
3.0
 40
3.0
 40
4.0
 40
4.0
 40
4.0
 40
5.0
 40
5.0
 40
5.0
 40
6.0
 40
6.0
 40
6.0
 40
7.0
 40
7.0
 40
7.0
 40
8.0
 40
8.0
 40
8.0
 40
8.0
 10
87.10923934454213
 20
-141.5906683673801
 10
87.00123560107956
 20
-141.8001301728833
 10
86.82777504339722
 20
-141.8190781980522
 10
86.71150307077005
 20
-141.8190781980522
 10
86.55061711160887
 20
-141.8190781980522
 10
86.40885143239085
 20
-141.7725694090013
 10
86.31376679699795
 20
-141.5906683673801
 10
86.21006942289193
 20
-141.3960204724635
 10
86.1909491429488
 20
-141.1589979030783
 10
86.1909491429488
 20
-140.996044886626
 10
86.1909491429488
 20
-140.8523844048911
 10
86.20800236560078
 20
-140.6005479249193
 10
86.31376679699795
 20
-140.4017659154204
 10
86.42159828568627
 20
-140.1985052817907
 10
86.58248424484744
 20
-140.1754231420395
 10
86.71150307077005
 20
-140.1754231420395
 10
86.8701497178658
 20
-140.1754231420395
 10
87.01398245437498
 20
-140.2198648737992
 10
87.10923934454213
 20
-140.4017659154204
 10
87.2086303492916
 20
-140.5943467530459
 10
87.23188474381703
 20
-140.8227565837179
 10
87.23188474381703
 20
-140.996044886626
 10
87.23188474381703
 20
-141.1676106417914
 10
87.21069740658275
 20
-141.3980875297547
 10
87.10923934454213
 20
-141.5906683673801
 97
        0
 97
        0
 92
        1
 93
        1
 72
     4
 94
        3
 73
     0
 74
     1
 95
       17
 96
       13
 40
0.0
 40
0.0
 40
0.0
 40
0.0
 40
1.0
 40
1.0
 40
1.0
 40
2.0
 40
2.0
 40
2.0
 40
3.0
 40
3.0
 40
3.0
 40
4.0
 40
4.0
 40
4.0
 40
4.0
 10
86.71150307077005
 20
-140.3676594701164
 10
86.46173364808944
 20
-140.3676594701164
 10
86.41522485903856
 20
-140.6511908285525
 10
86.41522485903856
 20
-140.996044886626
 10
86.41522485903856
 20
-141.3157497476572
 10
86.45122610685942
 20
-141.6244303031356
 10
86.71150307077005
 20
-141.6244303031356
 10
86.95903318138525
 20
-141.6244303031356
 10
87.00760902772727
 20
-141.3429660019906
 10
87.00760902772727
 20
-140.996044886626
 10
87.00760902772727
 20
-140.6766845351433
 10
86.96954072261526
 20
-140.3676594701164
 10
86.71150307077005
 20
-140.3676594701164
 97
        0
 97
        0
 75
     2
 76
     1
 98
        0
  0
ENDBLK
  5
118
330
115
100
AcDbEntity
  8
0
100
AcDbBlockEnd
  0
BLOCK
  5
12B
330
129
100
AcDbEntity
  8
0
100
AcDbBlockBegin
  2
block 5
 70
     0
 10
0.0
 20
0.0
 30
0.0
  3
block 5
  1

  0
SPLINE
  5
12D
330
129
100
AcDbEntity
  8
_U+30EC_U+30A4_U+30E4_U+30FC 1
370
     0
100
AcDbSpline
210
0.0
220
0.0
230
1.0
 70
    11
 71
     3
 72
    26
 73
    22
 74
     0
 42
0.0000000001
 43
0.0000000001
 12
1.0
 22
0.0
 32
0.0
 13
1.0
 23
0.0
 33
0.0
 40
0.0
 40
0.0
 40
0.0
 40
0.0
 40
1.0
 40
1.0
 40
1.0
 40
2.0
 40
2.0
 40
2.0
 40
3.0
 40
3.0
 40
3.0
 40
4.0
 40
4.0
 40
4.0
 40
5.0
 40
5.0
 40
5.0
 40
6.0
 40
6.0
 40
6.0
 40
7.0
 40
7.0
 40
7.0
 40
7.0
 10
103.4861897527743
 20
-141.768435294419
 30
0.0
 10
103.4861897527743
 20
-141.768435294419
 30
0.0
 10
103.4861897527743
 20
-140.6639376818479
 30
0.0
 10
103.4861897527743
 20
-140.6639376818479
 30
0.0
 10
103.4861897527743
 20
-140.6639376818479
 30
0.0
 10
103.1561496052874
 20
-140.6639376818479
 30
0.0
 10
103.1561496052874
 20
-140.6639376818479
 30
0.0
 10
103.1561496052874
 20
-140.6639376818479
 30
0.0
 10
103.1561496052874
 20
-140.5157985759822
 30
0.0
 10
103.1561496052874
 20
-140.5157985759822
 30
0.0
 10
103.4882568100654
 20
-140.5009846653956
 30
0.0
 10
103.5347655991163
 20
-140.3383761584918
 30
0.0
 10
103.5643934202895
 20
-140.2239989883815
 30
0.0
 10
103.5643934202895
 20
-140.2239989883815
 30
0.0
 10
103.7104654688641
 20
-140.2239989883815
 30
0.0
 10
103.7104654688641
 20
-140.2239989883815
 30
0.0
 10
103.7104654688641
 20
-140.2239989883815
 30
0.0
 10
103.7104654688641
 20
-141.768435294419
 30
0.0
 10
103.7104654688641
 20
-141.768435294419
 30
0.0
 10
103.7104654688641
 20
-141.768435294419
 30
0.0
 10
103.4861897527743
 20
-141.768435294419
 30
0.0
 10
103.4861897527743
 20
-141.768435294419
 30
0.0
  0
HATCH
  5
12E
330
129
100
AcDbEntity
  8
_U+30EC_U+30A4_U+30E4_U+30FC 1
 62
   179
420
  2234388
100
AcDbHatch
 10
0.0
 20
0.0
 30
0.0
210
0.0
220
0.0
230
1.0
  2
SOLID
 70
     1
 71
     0
 91
        1
 92
        1
 93
        1
 72
     4
 94
        3
 73
     0
 74
     1
 95
       26
 96
       22
 40
0.0
 40
0.0
 40
0.0
 40
0.0
 40
1.0
 40
1.0
 40
1.0
 40
2.0
 40
2.0
 40
2.0
 40
3.0
 40
3.0
 40
3.0
 40
4.0
 40
4.0
 40
4.0
 40
5.0
 40
5.0
 40
5.0
 40
6.0
 40
6.0
 40
6.0
 40
7.0
 40
7.0
 40
7.0
 40
7.0
 10
103.4861897527743
 20
-141.768435294419
 10
103.4861897527743
 20
-141.768435294419
 10
103.4861897527743
 20
-140.6639376818479
 10
103.4861897527743
 20
-140.6639376818479
 10
103.4861897527743
 20
-140.6639376818479
 10
103.1561496052874
 20
-140.6639376818479
 10
103.1561496052874
 20
-140.6639376818479
 10
103.1561496052874
 20
-140.6639376818479
 10
103.1561496052874
 20
-140.5157985759822
 10
103.1561496052874
 20
-140.5157985759822
 10
103.4882568100654
 20
-140.5009846653956
 10
103.5347655991163
 20
-140.3383761584918
 10
103.5643934202895
 20
-140.2239989883815
 10
103.5643934202895
 20
-140.2239989883815
 10
103.7104654688641
 20
-140.2239989883815
 10
103.7104654688641
 20
-140.2239989883815
 10
103.7104654688641
 20
-140.2239989883815
 10
103.7104654688641
 20
-141.768435294419
 10
103.7104654688641
 20
-141.768435294419
 10
103.7104654688641
 20
-141.768435294419
 10
103.4861897527743
 20
-141.768435294419
 10
103.4861897527743
 20
-141.768435294419
 97
        0
 97
        0
 75
     2
 76
     1
 98
        0
  0
SPLINE
  5
12F
330
129
100
AcDbEntity
  8
_U+30EC_U+30A4_U+30E4_U+30FC 1
370
     0
100
AcDbSpline
210
0.0
220
0.0
230
1.0
 70
    11
 71
     3
 72
    29
 73
    25
 74
     0
 42
0.0000000001
 43
0.0000000001
 12
1.0
 22
0.0
 32
0.0
 13
1.0
 23
0.0
 33
0.0
 40
0.0
 40
0.0
 40
0.0
 40
0.0
 40
1.0
 40
1.0
 40
1.0
 40
2.0
 40
2.0
 40
2.0
 40
3.0
 40
3.0
 40
3.0
 40
4.0
 40
4.0
 40
4.0
 40
5.0
 40
5.0
 40
5.0
 40
6.0
 40
6.0
 40
6.0
 40
7.0
 40
7.0
 40
7.0
 40
8.0
 40
8.0
 40
8.0
 40
8.0
 10
105.109518745424
 20
-141.5906683673801
 30
0.0
 10
105.0013427471872
 20
-141.8001301728833
 30
0.0
 10
104.8280544442791
 20
-141.8190781980522
 30
0.0
 10
104.7116102168777
 20
-141.8190781980522
 30
0.0
 10
104.5507242577165
 20
-141.8190781980522
 30
0.0
 10
104.4091308332727
 20
-141.7725694090013
 30
0.0
 10
104.3140461978798
 20
-141.5906683673801
 30
0.0
 10
104.2103488237738
 20
-141.3960204724635
 30
0.0
 10
104.1914007986049
 20
-141.1589979030783
 30
0.0
 10
104.1914007986049
 20
-140.996044886626
 30
0.0
 10
104.1914007986049
 20
-140.8523844048911
 30
0.0
 10
104.2082817664827
 20
-140.6005479249193
 30
0.0
 10
104.3140461978798
 20
-140.4017659154204
 30
0.0
 10
104.4218776865682
 20
-140.1985052817907
 30
0.0
 10
104.5827636457293
 20
-140.1754231420395
 30
0.0
 10
104.7116102168777
 20
-140.1754231420395
 30
0.0
 10
104.8704291187477
 20
-140.1754231420395
 30
0.0
 10
105.0140896004826
 20
-140.2198648737992
 30
0.0
 10
105.109518745424
 20
-140.4017659154204
 30
0.0
 10
105.2087374953992
 20
-140.5943467530459
 30
0.0
 10
105.2321641446989
 20
-140.8227565837179
 30
0.0
 10
105.2321641446989
 20
-140.996044886626
 30
0.0
 10
105.2321641446989
 20
-141.1676106417914
 30
0.0
 10
105.2108045526904
 20
-141.3980875297547
 30
0.0
 10
105.109518745424
 20
-141.5906683673801
 30
0.0
  0
SPLINE
  5
130
330
129
100
AcDbEntity
  8
_U+30EC_U+30A4_U+30E4_U+30FC 1
370
     0
100
AcDbSpline
210
0.0
220
0.0
230
1.0
 70
    11
 71
     3
 72
    17
 73
    13
 74
     0
 42
0.0000000001
 43
0.0000000001
 12
1.0
 22
0.0
 32
0.0
 13
1.0
 23
0.0
 33
0.0
 40
0.0
 40
0.0
 40
0.0
 40
0.0
 40
1.0
 40
1.0
 40
1.0
 40
2.0
 40
2.0
 40
2.0
 40
3.0
 40
3.0
 40
3.0
 40
4.0
 40
4.0
 40
4.0
 40
4.0
 10
104.7116102168777
 20
-140.3676594701164
 30
0.0
 10
104.4621853037456
 20
-140.3676594701164
 30
0.0
 10
104.4153320051462
 20
-140.6511908285525
 30
0.0
 10
104.4153320051462
 20
-140.996044886626
 30
0.0
 10
104.4153320051462
 20
-141.3157497476572
 30
0.0
 10
104.4515055077413
 20
-141.6244303031356
 30
0.0
 10
104.7116102168777
 20
-141.6244303031356
 30
0.0
 10
104.9593125822671
 20
-141.6244303031356
 30
0.0
 10
105.0078884286091
 20
-141.3429660019906
 30
0.0
 10
105.0078884286091
 20
-140.996044886626
 30
0.0
 10
105.0078884286091
 20
-140.6766845351433
 30
0.0
 10
104.9696478687229
 20
-140.3676594701164
 30
0.0
 10
104.7116102168777
 20
-140.3676594701164
 30
0.0
  0
HATCH
  5
131
330
129
100
AcDbEntity
  8
_U+30EC_U+30A4_U+30E4_U+30FC 1
 62
   179
420
  2234388
100
AcDbHatch
 10
0.0
 20
0.0
 30
0.0
210
0.0
220
0.0
230
1.0
  2
SOLID
 70
     1
 71
     0
 91
        2
 92
        1
 93
        1
 72
     4
 94
        3
 73
     0
 74
     1
 95
       29
 96
       25
 40
0.0
 40
0.0
 40
0.0
 40
0.0
 40
1.0
 40
1.0
 40
1.0
 40
2.0
 40
2.0
 40
2.0
 40
3.0
 40
3.0
 40
3.0
 40
4.0
 40
4.0
 40
4.0
 40
5.0
 40
5.0
 40
5.0
 40
6.0
 40
6.0
 40
6.0
 40
7.0
 40
7.0
 40
7.0
 40
8.0
 40
8.0
 40
8.0
 40
8.0
 10
105.109518745424
 20
-141.5906683673801
 10
105.0013427471872
 20
-141.8001301728833
 10
104.8280544442791
 20
-141.8190781980522
 10
104.7116102168777
 20
-141.8190781980522
 10
104.5507242577165
 20
-141.8190781980522
 10
104.4091308332727
 20
-141.7725694090013
 10
104.3140461978798
 20
-141.5906683673801
 10
104.2103488237738
 20
-141.3960204724635
 10
104.1914007986049
 20
-141.1589979030783
 10
104.1914007986049
 20
-140.996044886626
 10
104.1914007986049
 20
-140.8523844048911
 10
104.2082817664827
 20
-140.6005479249193
 10
104.3140461978798
 20
-140.4017659154204
 10
104.4218776865682
 20
-140.1985052817907
 10
104.5827636457293
 20
-140.1754231420395
 10
104.7116102168777
 20
-140.1754231420395
 10
104.8704291187477
 20
-140.1754231420395
 10
105.0140896004826
 20
-140.2198648737992
 10
105.109518745424
 20
-140.4017659154204
 10
105.2087374953992
 20
-140.5943467530459
 10
105.2321641446989
 20
-140.8227565837179
 10
105.2321641446989
 20
-140.996044886626
 10
105.2321641446989
 20
-141.1676106417914
 10
105.2108045526904
 20
-141.3980875297547
 10
105.109518745424
 20
-141.5906683673801
 97
        0
 97
        0
 92
        1
 93
        1
 72
     4
 94
        3
 73
     0
 74
     1
 95
       17
 96
       13
 40
0.0
 40
0.0
 40
0.0
 40
0.0
 40
1.0
 40
1.0
 40
1.0
 40
2.0
 40
2.0
 40
2.0
 40
3.0
 40
3.0
 40
3.0
 40
4.0
 40
4.0
 40
4.0
 40
4.0
 10
104.7116102168777
 20
-140.3676594701164
 10
104.4621853037456
 20
-140.3676594701164
 10
104.4153320051462
 20
-140.6511908285525
 10
104.4153320051462
 20
-140.996044886626
 10
104.4153320051462
 20
-141.3157497476572
 10
104.4515055077413
 20
-141.6244303031356
 10
104.7116102168777
 20
-141.6244303031356
 10
104.9593125822671
 20
-141.6244303031356
 10
105.0078884286091
 20
-141.3429660019906
 10
105.0078884286091
 20
-140.996044886626
 10
105.0078884286091
 20
-140.6766845351433
 10
104.9696478687229
 20
-140.3676594701164
 10
104.7116102168777
 20
-140.3676594701164
 97
        0
 97
        0
 75
     2
 76
     1
 98
        0
  0
ENDBLK
  5
12C
330
129
100
AcDbEntity
  8
0
100
AcDbBlockEnd
  0
BLOCK
  5
143
330
141
100
AcDbEntity
  8
0
100
AcDbBlockBegin
  2
block 6
 70
     0
 10
0.0
 20
0.0
 30
0.0
  3
block 6
  1

  0
POLYLINE
  5
145
330
141
100
AcDbEntity
  8
_U+30EC_U+30A4_U+30E4_U+30FC 1
370
     0
100
AcDb2dPolyline
 66
     1
 10
0.0
 20
0.0
 30
0.0
  0
VERTEX
  5
146
330
145
100
AcDbEntity
  8
_U+30EC_U+30A4_U+30E4_U+30FC 1
370
     0
100
AcDbVertex
100
AcDb2dVertex
 10
76.40360512412826
 20
-135.8094536335824
 30
0.0
  0
VERTEX
  5
147
330
145
100
AcDbEntity
  8
_U+30EC_U+30A4_U+30E4_U+30FC 1
370
     0
100
AcDbVertex
100
AcDb2dVertex
 10
76.75052623949293
 20
-135.8094536335824
 30
0.0
  0
VERTEX
  5
148
330
145
100
AcDbEntity
  8
_U+30EC_U+30A4_U+30E4_U+30FC 1
370
     0
100
AcDbVertex
100
AcDb2dVertex
 10
76.75052623949293
 20
-136.0271836682502
 30
0.0
  0
VERTEX
  5
149
330
145
100
AcDbEntity
  8
_U+30EC_U+30A4_U+30E4_U+30FC 1
370
     0
100
AcDbVertex
100
AcDb2dVertex
 10
76.40360512412826
 20
-136.0271836682502
 30
0.0
  0
VERTEX
  5
14A
330
145
100
AcDbEntity
  8
_U+30EC_U+30A4_U+30E4_U+30FC 1
370
     0
100
AcDbVertex
100
AcDb2dVertex
 10
76.40360512412826
 20
-136.6831298486417
 30
0.0
  0
VERTEX
  5
14B
330
145
100
AcDbEntity
  8
_U+30EC_U+30A4_U+30E4_U+30FC 1
370
     0
100
AcDbVertex
100
AcDb2dVertex
 10
76.1793294080385
 20
-136.6831298486417
 30
0.0
  0
VERTEX
  5
14C
330
145
100
AcDbEntity
  8
_U+30EC_U+30A4_U+30E4_U+30FC 1
370
     0
100
AcDbVertex
100
AcDb2dVertex
 10
75.20626218822969
 20
-136.004101528499
 30
0.0
  0
VERTEX
  5
14D
330
145
100
AcDbEntity
  8
_U+30EC_U+30A4_U+30E4_U+30FC 1
370
     0
100
AcDbVertex
100
AcDb2dVertex
 10
75.20626218822969
 20
-135.8094536335824
 30
0.0
  0
VERTEX
  5
14E
330
145
100
AcDbEntity
  8
_U+30EC_U+30A4_U+30E4_U+30FC 1
370
     0
100
AcDbVertex
100
AcDb2dVertex
 10
76.20482311462935
 20
-135.8094536335824
 30
0.0
  0
VERTEX
  5
14F
330
145
100
AcDbEntity
  8
_U+30EC_U+30A4_U+30E4_U+30FC 1
370
     0
100
AcDbVertex
100
AcDb2dVertex
 10
76.20482311462935
 20
-135.6020588853703
 30
0.0
  0
VERTEX
  5
150
330
145
100
AcDbEntity
  8
_U+30EC_U+30A4_U+30E4_U+30FC 1
370
     0
100
AcDbVertex
100
AcDb2dVertex
 10
76.40360512412826
 20
-135.6020588853703
 30
0.0
  0
VERTEX
  5
151
330
145
100
AcDbEntity
  8
_U+30EC_U+30A4_U+30E4_U+30FC 1
370
     0
100
AcDbVertex
100
AcDb2dVertex
 10
76.40360512412826
 20
-135.8094536335824
 30
0.0
  0
SEQEND
  5
152
330
145
100
AcDbEntity
  8
_U+30EC_U+30A4_U+30E4_U+30FC 1
370
     0
  0
POLYLINE
  5
153
330
141
100
AcDbEntity
  8
_U+30EC_U+30A4_U+30E4_U+30FC 1
370
     0
100
AcDb2dPolyline
 66
     1
 10
0.0
 20
0.0
 30
0.0
  0
VERTEX
  5
154
330
153
100
AcDbEntity
  8
_U+30EC_U+30A4_U+30E4_U+30FC 1
370
     0
100
AcDbVertex
100
AcDb2dVertex
 10
75.54887693423778
 20
-136.0271836682502
 30
0.0
  0
VERTEX
  5
155
330
153
100
AcDbEntity
  8
_U+30EC_U+30A4_U+30E4_U+30FC 1
370
     0
100
AcDbVertex
100
AcDb2dVertex
 10
76.20482311462935
 20
-136.4843478391428
 30
0.0
  0
VERTEX
  5
156
330
153
100
AcDbEntity
  8
_U+30EC_U+30A4_U+30E4_U+30FC 1
370
     0
100
AcDbVertex
100
AcDb2dVertex
 10
76.20482311462935
 20
-136.0271836682502
 30
0.0
  0
VERTEX
  5
157
330
153
100
AcDbEntity
  8
_U+30EC_U+30A4_U+30E4_U+30FC 1
370
     0
100
AcDbVertex
100
AcDb2dVertex
 10
75.54887693423778
 20
-136.0271836682502
 30
0.0
  0
SEQEND
  5
158
330
153
100
AcDbEntity
  8
_U+30EC_U+30A4_U+30E4_U+30FC 1
370
     0
  0
HATCH
  5
159
330
141
100
AcDbEntity
  8
_U+30EC_U+30A4_U+30E4_U+30FC 1
 62
   179
420
  2234388
100
AcDbHatch
 10
0.0
 20
0.0
 30
0.0
210
0.0
220
0.0
230
1.0
  2
SOLID
 70
     1
 71
     0
 91
        2
 92
        1
 93
       11
 72
     1
 10
76.40360512412826
 20
-135.8094536335824
 11
76.75052623949293
 21
-135.8094536335824
 72
     1
 10
76.75052623949293
 20
-135.8094536335824
 11
76.75052623949293
 21
-136.0271836682502
 72
     1
 10
76.75052623949293
 20
-136.0271836682502
 11
76.40360512412826
 21
-136.0271836682502
 72
     1
 10
76.40360512412826
 20
-136.0271836682502
 11
76.40360512412826
 21
-136.6831298486417
 72
     1
 10
76.40360512412826
 20
-136.6831298486417
 11
76.1793294080385
 21
-136.6831298486417
 72
     1
 10
76.1793294080385
 20
-136.6831298486417
 11
75.20626218822969
 21
-136.004101528499
 72
     1
 10
75.20626218822969
 20
-136.004101528499
 11
75.20626218822969
 21
-135.8094536335824
 72
     1
 10
75.20626218822969
 20
-135.8094536335824
 11
76.20482311462935
 21
-135.8094536335824
 72
     1
 10
76.20482311462935
 20
-135.8094536335824
 11
76.20482311462935
 21
-135.6020588853703
 72
     1
 10
76.20482311462935
 20
-135.6020588853703
 11
76.40360512412826
 21
-135.6020588853703
 72
     1
 10
76.40360512412826
 20
-135.6020588853703
 11
76.40360512412826
 21
-135.8094536335824
 97
        0
 92
        1
 93
        3
 72
     1
 10
75.54887693423778
 20
-136.0271836682502
 11
76.20482311462935
 21
-136.4843478391428
 72
     1
 10
76.20482311462935
 20
-136.4843478391428
 11
76.20482311462935
 21
-136.0271836682502
 72
     1
 10
76.20482311462935
 20
-136.0271836682502
 11
75.54887693423778
 21
-136.0271836682502
 97
        0
 75
     2
 76
     1
 98
        0
  0
ENDBLK
  5
144
330
141
100
AcDbEntity
  8
0
100
AcDbBlockEnd
  0
BLOCK
  5
167
330
165
100
AcDbEntity
  8
0
100
AcDbBlockBegin
  2
block 7
 70
     0
 10
0.0
 20
0.0
 30
0.0
  3
block 7
  1

  0
SPLINE
  5
169
330
165
100
AcDbEntity
  8
_U+30EC_U+30A4_U+30E4_U+30FC 1
370
     0
100
AcDbSpline
210
0.0
220
0.0
230
1.0
 70
    11
 71
     3
 72
    26
 73
    22
 74
     0
 42
0.0000000001
 43
0.0000000001
 12
1.0
 22
0.0
 32
0.0
 13
1.0
 23
0.0
 33
0.0
 40
0.0
 40
0.0
 40
0.0
 40
0.0
 40
1.0
 40
1.0
 40
1.0
 40
2.0
 40
2.0
 40
2.0
 40
3.0
 40
3.0
 40
3.0
 40
4.0
 40
4.0
 40
4.0
 40
5.0
 40
5.0
 40
5.0
 40
6.0
 40
6.0
 40
6.0
 40
7.0
 40
7.0
 40
7.0
 40
7.0
 10
76.75052623949293
 20
-128.2784749028262
 30
0.0
 10
76.75052623949293
 20
-128.2784749028262
 30
0.0
 10
75.64620088169609
 20
-128.2784749028262
 30
0.0
 10
75.64620088169609
 20
-128.2784749028262
 30
0.0
 10
75.64620088169609
 20
-128.2784749028262
 30
0.0
 10
75.64620088169609
 20
-128.6083427955389
 30
0.0
 10
75.64620088169609
 20
-128.6083427955389
 30
0.0
 10
75.64620088169609
 20
-128.6083427955389
 30
0.0
 10
75.4982340306046
 20
-128.6083427955389
 30
0.0
 10
75.4982340306046
 20
-128.6083427955389
 30
0.0
 10
75.48342012001804
 20
-128.2762355907608
 30
0.0
 10
75.32046710356572
 20
-128.2297268017099
 30
0.0
 10
75.20626218822969
 20
-128.2000989805368
 30
0.0
 10
75.20626218822969
 20
-128.2000989805368
 30
0.0
 10
75.20626218822969
 20
-128.0541991867365
 30
0.0
 10
75.20626218822969
 20
-128.0541991867365
 30
0.0
 10
75.20626218822969
 20
-128.0541991867365
 30
0.0
 10
76.75052623949293
 20
-128.0541991867365
 30
0.0
 10
76.75052623949293
 20
-128.0541991867365
 30
0.0
 10
76.75052623949293
 20
-128.0541991867365
 30
0.0
 10
76.75052623949293
 20
-128.2784749028262
 30
0.0
 10
76.75052623949293
 20
-128.2784749028262
 30
0.0
  0
HATCH
  5
16A
330
165
100
AcDbEntity
  8
_U+30EC_U+30A4_U+30E4_U+30FC 1
 62
   179
420
  2234388
100
AcDbHatch
 10
0.0
 20
0.0
 30
0.0
210
0.0
220
0.0
230
1.0
  2
SOLID
 70
     1
 71
     0
 91
        1
 92
        1
 93
        1
 72
     4
 94
        3
 73
     0
 74
     1
 95
       26
 96
       22
 40
0.0
 40
0.0
 40
0.0
 40
0.0
 40
1.0
 40
1.0
 40
1.0
 40
2.0
 40
2.0
 40
2.0
 40
3.0
 40
3.0
 40
3.0
 40
4.0
 40
4.0
 40
4.0
 40
5.0
 40
5.0
 40
5.0
 40
6.0
 40
6.0
 40
6.0
 40
7.0
 40
7.0
 40
7.0
 40
7.0
 10
76.75052623949293
 20
-128.2784749028262
 10
76.75052623949293
 20
-128.2784749028262
 10
75.64620088169609
 20
-128.2784749028262
 10
75.64620088169609
 20
-128.2784749028262
 10
75.64620088169609
 20
-128.2784749028262
 10
75.64620088169609
 20
-128.6083427955389
 10
75.64620088169609
 20
-128.6083427955389
 10
75.64620088169609
 20
-128.6083427955389
 10
75.4982340306046
 20
-128.6083427955389
 10
75.4982340306046
 20
-128.6083427955389
 10
75.48342012001804
 20
-128.2762355907608
 10
75.32046710356572
 20
-128.2297268017099
 10
75.20626218822969
 20
-128.2000989805368
 10
75.20626218822969
 20
-128.2000989805368
 10
75.20626218822969
 20
-128.0541991867365
 10
75.20626218822969
 20
-128.0541991867365
 10
75.20626218822969
 20
-128.0541991867365
 10
76.75052623949293
 20
-128.0541991867365
 10
76.75052623949293
 20
-128.0541991867365
 10
76.75052623949293
 20
-128.0541991867365
 10
76.75052623949293
 20
-128.2784749028262
 10
76.75052623949293
 20
-128.2784749028262
 97
        0
 97
        0
 75
     2
 76
     1
 98
        0
  0
SPLINE
  5
16B
330
165
100
AcDbEntity
  8
_U+30EC_U+30A4_U+30E4_U+30FC 1
370
     0
100
AcDbSpline
210
0.0
220
0.0
230
1.0
 70
    11
 71
     3
 72
    62
 73
    58
 74
     0
 42
0.0000000001
 43
0.0000000001
 12
1.0
 22
0.0
 32
0.0
 13
1.0
 23
0.0
 33
0.0
 40
0.0
 40
0.0
 40
0.0
 40
0.0
 40
1.0
 40
1.0
 40
1.0
 40
2.0
 40
2.0
 40
2.0
 40
3.0
 40
3.0
 40
3.0
 40
4.0
 40
4.0
 40
4.0
 40
5.0
 40
5.0
 40
5.0
 40
6.0
 40
6.0
 40
6.0
 40
7.0
 40
7.0
 40
7.0
 40
8.0
 40
8.0
 40
8.0
 40
9.0
 40
9.0
 40
9.0
 40
10.0
 40
10.0
 40
10.0
 40
11.0
 40
11.0
 40
11.0
 40
12.0
 40
12.0
 40
12.0
 40
13.0
 40
13.0
 40
13.0
 40
14.0
 40
14.0
 40
14.0
 40
15.0
 40
15.0
 40
15.0
 40
16.0
 40
16.0
 40
16.0
 40
17.0
 40
17.0
 40
17.0
 40
18.0
 40
18.0
 40
18.0
 40
19.0
 40
19.0
 40
19.0
 40
19.0
 10
76.80134139790036
 20
-127.0613226678875
 30
0.0
 10
76.80134139790036
 20
-127.1565795580546
 30
0.0
 10
76.78015406066608
 20
-127.3744818474967
 30
0.0
 10
76.59394664968832
 20
-127.4991943040627
 30
0.0
 10
76.48180879164345
 20
-127.5732638569956
 30
0.0
 10
76.38241778689398
 20
-127.5775702263521
 30
0.0
 10
76.2978406927311
 20
-127.5817043409344
 30
0.0
 10
76.2978406927311
 20
-127.5817043409344
 30
0.0
 10
76.2978406927311
 20
-127.3617349942012
 30
0.0
 10
76.2978406927311
 20
-127.3617349942012
 30
0.0
 10
76.37191024566397
 20
-127.3596679369101
 30
0.0
 10
76.60669350298375
 20
-127.3489881409058
 30
0.0
 10
76.60669350298375
 20
-127.065629037244
 30
0.0
 10
76.60669350298375
 20
-126.9279974726083
 30
0.0
 10
76.53693031940743
 20
-126.7757242521602
 30
0.0
 10
76.30834823396111
 20
-126.7757242521602
 30
0.0
 10
76.19207626133392
 20
-126.7757242521602
 30
0.0
 10
76.14332816021765
 20
-126.8137925572723
 30
0.0
 10
76.11163328175334
 20
-126.8454874357365
 30
0.0
 10
76.03756372882047
 20
-126.9195569886694
 30
0.0
 10
76.02498913029932
 20
-127.0360012160709
 30
0.0
 10
76.02498913029932
 20
-127.0909504890606
 30
0.0
 10
76.02498913029932
 20
-127.1100707690037
 30
0.0
 10
76.02705618759046
 20
-127.1458997620503
 30
0.0
 10
76.03136255694703
 20
-127.1734605259323
 30
0.0
 10
76.03136255694703
 20
-127.1734605259323
 30
0.0
 10
75.8367146620304
 20
-127.1734605259323
 30
0.0
 10
75.8367146620304
 20
-127.1734605259323
 30
0.0
 10
75.84308808867812
 20
-127.1353922208203
 30
0.0
 10
75.84515514596927
 20
-127.0930175463517
 30
0.0
 10
75.84515514596927
 20
-127.086644119704
 30
0.0
 10
75.84515514596927
 20
-127.0211873054843
 30
0.0
 10
75.82396780873498
 20
-126.8222330412111
 30
0.0
 10
75.58711749412406
 20
-126.8222330412111
 30
0.0
 10
75.40935056708517
 20
-126.8222330412111
 30
0.0
 10
75.35440129409542
 20
-126.9534911791991
 30
0.0
 10
75.35440129409542
 20
-127.0633897251786
 30
0.0
 10
75.35440129409542
 20
-127.3279730584458
 30
0.0
 10
75.58711749412406
 20
-127.3364135423846
 30
0.0
 10
75.65894773499151
 20
-127.3405476569669
 30
0.0
 10
75.65894773499151
 20
-127.3405476569669
 30
0.0
 10
75.65894773499151
 20
-127.5436360358224
 30
0.0
 10
75.65894773499151
 20
-127.5436360358224
 30
0.0
 10
75.53406302365121
 20
-127.5351955518836
 30
0.0
 10
75.1575140871134
 20
-127.5076347880016
 30
0.0
 10
75.1575140871134
 20
-127.0508151266574
 30
0.0
 10
75.1575140871134
 20
-126.8265394105677
 30
0.0
 10
75.28446585574486
 20
-126.5853827266002
 30
0.0
 10
75.58074406747635
 20
-126.5853827266002
 30
0.0
 10
75.76677922367983
 20
-126.5853827266002
 30
0.0
 10
75.84928926055157
 20
-126.6804673619931
 30
0.0
 10
75.91078421496329
 20
-126.7800306215168
 30
0.0
 10
75.93817272407101
 20
-126.7187079218794
 30
0.0
 10
76.0186157036516
 20
-126.5366346254839
 30
0.0
 10
76.29577363543994
 20
-126.5366346254839
 30
0.0
 10
76.63425426686574
 20
-126.5366346254839
 30
0.0
 10
76.80134139790036
 20
-126.7841647360991
 30
0.0
 10
76.80134139790036
 20
-127.0613226678875
 30
0.0
  0
HATCH
  5
16C
330
165
100
AcDbEntity
  8
_U+30EC_U+30A4_U+30E4_U+30FC 1
 62
   179
420
  2234388
100
AcDbHatch
 10
0.0
 20
0.0
 30
0.0
210
0.0
220
0.0
230
1.0
  2
SOLID
 70
     1
 71
     0
 91
        1
 92
        1
 93
        1
 72
     4
 94
        3
 73
     0
 74
     1
 95
       62
 96
       58
 40
0.0
 40
0.0
 40
0.0
 40
0.0
 40
1.0
 40
1.0
 40
1.0
 40
2.0
 40
2.0
 40
2.0
 40
3.0
 40
3.0
 40
3.0
 40
4.0
 40
4.0
 40
4.0
 40
5.0
 40
5.0
 40
5.0
 40
6.0
 40
6.0
 40
6.0
 40
7.0
 40
7.0
 40
7.0
 40
8.0
 40
8.0
 40
8.0
 40
9.0
 40
9.0
 40
9.0
 40
10.0
 40
10.0
 40
10.0
 40
11.0
 40
11.0
 40
11.0
 40
12.0
 40
12.0
 40
12.0
 40
13.0
 40
13.0
 40
13.0
 40
14.0
 40
14.0
 40
14.0
 40
15.0
 40
15.0
 40
15.0
 40
16.0
 40
16.0
 40
16.0
 40
17.0
 40
17.0
 40
17.0
 40
18.0
 40
18.0
 40
18.0
 40
19.0
 40
19.0
 40
19.0
 40
19.0
 10
76.80134139790036
 20
-127.0613226678875
 10
76.80134139790036
 20
-127.1565795580546
 10
76.78015406066608
 20
-127.3744818474967
 10
76.59394664968832
 20
-127.4991943040627
 10
76.48180879164345
 20
-127.5732638569956
 10
76.38241778689398
 20
-127.5775702263521
 10
76.2978406927311
 20
-127.5817043409344
 10
76.2978406927311
 20
-127.5817043409344
 10
76.2978406927311
 20
-127.3617349942012
 10
76.2978406927311
 20
-127.3617349942012
 10
76.37191024566397
 20
-127.3596679369101
 10
76.60669350298375
 20
-127.3489881409058
 10
76.60669350298375
 20
-127.065629037244
 10
76.60669350298375
 20
-126.9279974726083
 10
76.53693031940743
 20
-126.7757242521602
 10
76.30834823396111
 20
-126.7757242521602
 10
76.19207626133392
 20
-126.7757242521602
 10
76.14332816021765
 20
-126.8137925572723
 10
76.11163328175334
 20
-126.8454874357365
 10
76.03756372882047
 20
-126.9195569886694
 10
76.02498913029932
 20
-127.0360012160709
 10
76.02498913029932
 20
-127.0909504890606
 10
76.02498913029932
 20
-127.1100707690037
 10
76.02705618759046
 20
-127.1458997620503
 10
76.03136255694703
 20
-127.1734605259323
 10
76.03136255694703
 20
-127.1734605259323
 10
75.8367146620304
 20
-127.1734605259323
 10
75.8367146620304
 20
-127.1734605259323
 10
75.84308808867812
 20
-127.1353922208203
 10
75.84515514596927
 20
-127.0930175463517
 10
75.84515514596927
 20
-127.086644119704
 10
75.84515514596927
 20
-127.0211873054843
 10
75.82396780873498
 20
-126.8222330412111
 10
75.58711749412406
 20
-126.8222330412111
 10
75.40935056708517
 20
-126.8222330412111
 10
75.35440129409542
 20
-126.9534911791991
 10
75.35440129409542
 20
-127.0633897251786
 10
75.35440129409542
 20
-127.3279730584458
 10
75.58711749412406
 20
-127.3364135423846
 10
75.65894773499151
 20
-127.3405476569669
 10
75.65894773499151
 20
-127.3405476569669
 10
75.65894773499151
 20
-127.5436360358224
 10
75.65894773499151
 20
-127.5436360358224
 10
75.53406302365121
 20
-127.5351955518836
 10
75.1575140871134
 20
-127.5076347880016
 10
75.1575140871134
 20
-127.0508151266574
 10
75.1575140871134
 20
-126.8265394105677
 10
75.28446585574486
 20
-126.5853827266002
 10
75.58074406747635
 20
-126.5853827266002
 10
75.76677922367983
 20
-126.5853827266002
 10
75.84928926055157
 20
-126.6804673619931
 10
75.91078421496329
 20
-126.7800306215168
 10
75.93817272407101
 20
-126.7187079218794
 10
76.0186157036516
 20
-126.5366346254839
 10
76.29577363543994
 20
-126.5366346254839
 10
76.63425426686574
 20
-126.5366346254839
 10
76.80134139790036
 20
-126.7841647360991
 10
76.80134139790036
 20
-127.0613226678875
 97
        0
 97
        0
 75
     2
 76
     1
 98
        0
  0
ENDBLK
  5
168
330
165
100
AcDbEntity
  8
0
100
AcDbBlockEnd
  0
BLOCK
  5
17E
330
17C
100
AcDbEntity
  8
0
100
AcDbBlockBegin
  2
block 8
 70
     0
 10
0.0
 20
0.0
 30
0.0
  3
block 8
  1

  0
SPLINE
  5
180
330
17C
100
AcDbEntity
  8
_U+30EC_U+30A4_U+30E4_U+30FC 1
370
     0
100
AcDbSpline
210
0.0
220
0.0
230
1.0
 70
    11
 71
     3
 72
    26
 73
    22
 74
     0
 42
0.0000000001
 43
0.0000000001
 12
1.0
 22
0.0
 32
0.0
 13
1.0
 23
0.0
 33
0.0
 40
0.0
 40
0.0
 40
0.0
 40
0.0
 40
1.0
 40
1.0
 40
1.0
 40
2.0
 40
2.0
 40
2.0
 40
3.0
 40
3.0
 40
3.0
 40
4.0
 40
4.0
 40
4.0
 40
5.0
 40
5.0
 40
5.0
 40
6.0
 40
6.0
 40
6.0
 40
7.0
 40
7.0
 40
7.0
 40
7.0
 10
94.48587779755908
 20
-116.768755396155
 30
0.0
 10
94.48587779755908
 20
-116.768755396155
 30
0.0
 10
94.48587779755908
 20
-115.6644300383582
 30
0.0
 10
94.48587779755908
 20
-115.6644300383582
 30
0.0
 10
94.48587779755908
 20
-115.6644300383582
 30
0.0
 10
94.15583765007216
 20
-115.6644300383582
 30
0.0
 10
94.15583765007216
 20
-115.6644300383582
 30
0.0
 10
94.15583765007216
 20
-115.6644300383582
 30
0.0
 10
94.15583765007216
 20
-115.5164631872667
 30
0.0
 10
94.15583765007216
 20
-115.5164631872667
 30
0.0
 10
94.48794485485024
 20
-115.5016492766802
 30
0.0
 10
94.53445364390112
 20
-115.3386962602278
 30
0.0
 10
94.56408146507427
 20
-115.2244913448918
 30
0.0
 10
94.56408146507427
 20
-115.2244913448918
 30
0.0
 10
94.71015351364885
 20
-115.2244913448918
 30
0.0
 10
94.71015351364885
 20
-115.2244913448918
 30
0.0
 10
94.71015351364885
 20
-115.2244913448918
 30
0.0
 10
94.71015351364885
 20
-116.768755396155
 30
0.0
 10
94.71015351364885
 20
-116.768755396155
 30
0.0
 10
94.71015351364885
 20
-116.768755396155
 30
0.0
 10
94.48587779755908
 20
-116.768755396155
 30
0.0
 10
94.48587779755908
 20
-116.768755396155
 30
0.0
  0
HATCH
  5
181
330
17C
100
AcDbEntity
  8
_U+30EC_U+30A4_U+30E4_U+30FC 1
 62
   179
420
  2234388
100
AcDbHatch
 10
0.0
 20
0.0
 30
0.0
210
0.0
220
0.0
230
1.0
  2
SOLID
 70
     1
 71
     0
 91
        1
 92
        1
 93
        1
 72
     4
 94
        3
 73
     0
 74
     1
 95
       26
 96
       22
 40
0.0
 40
0.0
 40
0.0
 40
0.0
 40
1.0
 40
1.0
 40
1.0
 40
2.0
 40
2.0
 40
2.0
 40
3.0
 40
3.0
 40
3.0
 40
4.0
 40
4.0
 40
4.0
 40
5.0
 40
5.0
 40
5.0
 40
6.0
 40
6.0
 40
6.0
 40
7.0
 40
7.0
 40
7.0
 40
7.0
 10
94.48587779755908
 20
-116.768755396155
 10
94.48587779755908
 20
-116.768755396155
 10
94.48587779755908
 20
-115.6644300383582
 10
94.48587779755908
 20
-115.6644300383582
 10
94.48587779755908
 20
-115.6644300383582
 10
94.15583765007216
 20
-115.6644300383582
 10
94.15583765007216
 20
-115.6644300383582
 10
94.15583765007216
 20
-115.6644300383582
 10
94.15583765007216
 20
-115.5164631872667
 10
94.15583765007216
 20
-115.5164631872667
 10
94.48794485485024
 20
-115.5016492766802
 10
94.53445364390112
 20
-115.3386962602278
 10
94.56408146507427
 20
-115.2244913448918
 10
94.56408146507427
 20
-115.2244913448918
 10
94.71015351364885
 20
-115.2244913448918
 10
94.71015351364885
 20
-115.2244913448918
 10
94.71015351364885
 20
-115.2244913448918
 10
94.71015351364885
 20
-116.768755396155
 10
94.71015351364885
 20
-116.768755396155
 10
94.71015351364885
 20
-116.768755396155
 10
94.48587779755908
 20
-116.768755396155
 10
94.48587779755908
 20
-116.768755396155
 97
        0
 97
        0
 75
     2
 76
     1
 98
        0
  0
SPLINE
  5
182
330
17C
100
AcDbEntity
  8
_U+30EC_U+30A4_U+30E4_U+30FC 1
370
     0
100
AcDbSpline
210
0.0
220
0.0
230
1.0
 70
    11
 71
     3
 72
    32
 73
    28
 74
     0
 42
0.0000000001
 43
0.0000000001
 12
1.0
 22
0.0
 32
0.0
 13
1.0
 23
0.0
 33
0.0
 40
0.0
 40
0.0
 40
0.0
 40
0.0
 40
1.0
 40
1.0
 40
1.0
 40
2.0
 40
2.0
 40
2.0
 40
3.0
 40
3.0
 40
3.0
 40
4.0
 40
4.0
 40
4.0
 40
5.0
 40
5.0
 40
5.0
 40
6.0
 40
6.0
 40
6.0
 40
7.0
 40
7.0
 40
7.0
 40
8.0
 40
8.0
 40
8.0
 40
9.0
 40
9.0
 40
9.0
 40
9.0
 10
95.71543237624476
 20
-116.8195705545625
 30
0.0
 10
95.19935707255433
 20
-116.8195705545625
 30
0.0
 10
95.19074433384121
 20
-116.2652546909858
 30
0.0
 10
95.19074433384121
 20
-116.0516587709003
 30
0.0
 10
95.19074433384121
 20
-115.8210096281628
 30
0.0
 10
95.2100368685586
 20
-115.1736761864844
 30
0.0
 10
95.75367293613103
 20
-115.1736761864844
 30
0.0
 10
95.9269612390391
 20
-115.1736761864844
 30
0.0
 10
96.17259654713742
 20
-115.2434393700607
 30
0.0
 10
96.21049259747515
 20
-115.575718829613
 30
0.0
 10
96.21049259747515
 20
-115.575718829613
 30
0.0
 10
95.99689667738967
 20
-115.575718829613
 30
0.0
 10
95.99689667738967
 20
-115.575718829613
 30
0.0
 10
95.98621688138539
 20
-115.5185302445579
 30
0.0
 10
95.9545220029211
 20
-115.3703911386921
 30
0.0
 10
95.75160587883988
 20
-115.3703911386921
 30
0.0
 10
95.45946178169069
 20
-115.3703911386921
 30
0.0
 10
95.4194986740618
 20
-115.6983642288879
 30
0.0
 10
95.40675182076637
 20
-115.9035196650345
 30
0.0
 10
95.49976939886811
 20
-115.8253159975194
 30
0.0
 10
95.56763777992754
 20
-115.7660603551731
 30
0.0
 10
95.74953882154873
 20
-115.7660603551731
 30
0.0
 10
95.92937280587877
 20
-115.7660603551731
 30
0.0
 10
96.2318521894837
 20
-115.8738918438614
 30
0.0
 10
96.2318521894837
 20
-116.2800686015724
 30
0.0
 10
96.2318521894837
 20
-116.5996012078293
 30
0.0
 10
96.03272567043626
 20
-116.8195705545625
 30
0.0
 10
95.71543237624476
 20
-116.8195705545625
 30
0.0
  0
SPLINE
  5
183
330
17C
100
AcDbEntity
  8
_U+30EC_U+30A4_U+30E4_U+30FC 1
370
     0
100
AcDbSpline
210
0.0
220
0.0
230
1.0
 70
    11
 71
     3
 72
    17
 73
    13
 74
     0
 42
0.0000000001
 43
0.0000000001
 12
1.0
 22
0.0
 32
0.0
 13
1.0
 23
0.0
 33
0.0
 40
0.0
 40
0.0
 40
0.0
 40
0.0
 40
1.0
 40
1.0
 40
1.0
 40
2.0
 40
2.0
 40
2.0
 40
3.0
 40
3.0
 40
3.0
 40
4.0
 40
4.0
 40
4.0
 40
4.0
 10
95.73231334412249
 20
-115.9607082500897
 30
0.0
 10
95.47014157769497
 20
-115.9607082500897
 30
0.0
 10
95.43224552735722
 20
-116.172237112884
 30
0.0
 10
95.43224552735722
 20
-116.2885090855112
 30
0.0
 10
95.43224552735722
 20
-116.464208955259
 30
0.0
 10
95.52733016275012
 20
-116.626989716937
 30
0.0
 10
95.71129826166246
 20
-116.626989716937
 30
0.0
 10
95.83187660364621
 20
-116.626989716937
 30
0.0
 10
96.00757647339394
 20
-116.5677340745907
 30
0.0
 10
96.00757647339394
 20
-116.2823079136378
 30
0.0
 10
96.00757647339394
 20
-116.058032197548
 30
0.0
 10
95.8677055966928
 20
-115.9607082500897
 30
0.0
 10
95.73231334412249
 20
-115.9607082500897
 30
0.0
  0
HATCH
  5
184
330
17C
100
AcDbEntity
  8
_U+30EC_U+30A4_U+30E4_U+30FC 1
 62
   179
420
  2234388
100
AcDbHatch
 10
0.0
 20
0.0
 30
0.0
210
0.0
220
0.0
230
1.0
  2
SOLID
 70
     1
 71
     0
 91
        2
 92
        1
 93
        1
 72
     4
 94
        3
 73
     0
 74
     1
 95
       32
 96
       28
 40
0.0
 40
0.0
 40
0.0
 40
0.0
 40
1.0
 40
1.0
 40
1.0
 40
2.0
 40
2.0
 40
2.0
 40
3.0
 40
3.0
 40
3.0
 40
4.0
 40
4.0
 40
4.0
 40
5.0
 40
5.0
 40
5.0
 40
6.0
 40
6.0
 40
6.0
 40
7.0
 40
7.0
 40
7.0
 40
8.0
 40
8.0
 40
8.0
 40
9.0
 40
9.0
 40
9.0
 40
9.0
 10
95.71543237624476
 20
-116.8195705545625
 10
95.19935707255433
 20
-116.8195705545625
 10
95.19074433384121
 20
-116.2652546909858
 10
95.19074433384121
 20
-116.0516587709003
 10
95.19074433384121
 20
-115.8210096281628
 10
95.2100368685586
 20
-115.1736761864844
 10
95.75367293613103
 20
-115.1736761864844
 10
95.9269612390391
 20
-115.1736761864844
 10
96.17259654713742
 20
-115.2434393700607
 10
96.21049259747515
 20
-115.575718829613
 10
96.21049259747515
 20
-115.575718829613
 10
95.99689667738967
 20
-115.575718829613
 10
95.99689667738967
 20
-115.575718829613
 10
95.98621688138539
 20
-115.5185302445579
 10
95.9545220029211
 20
-115.3703911386921
 10
95.75160587883988
 20
-115.3703911386921
 10
95.45946178169069
 20
-115.3703911386921
 10
95.4194986740618
 20
-115.6983642288879
 10
95.40675182076637
 20
-115.9035196650345
 10
95.49976939886811
 20
-115.8253159975194
 10
95.56763777992754
 20
-115.7660603551731
 10
95.74953882154873
 20
-115.7660603551731
 10
95.92937280587877
 20
-115.7660603551731
 10
96.2318521894837
 20
-115.8738918438614
 10
96.2318521894837
 20
-116.2800686015724
 10
96.2318521894837
 20
-116.5996012078293
 10
96.03272567043626
 20
-116.8195705545625
 10
95.71543237624476
 20
-116.8195705545625
 97
        0
 97
        0
 92
        1
 93
        1
 72
     4
 94
        3
 73
     0
 74
     1
 95
       17
 96
       13
 40
0.0
 40
0.0
 40
0.0
 40
0.0
 40
1.0
 40
1.0
 40
1.0
 40
2.0
 40
2.0
 40
2.0
 40
3.0
 40
3.0
 40
3.0
 40
4.0
 40
4.0
 40
4.0
 40
4.0
 10
95.73231334412249
 20
-115.9607082500897
 10
95.47014157769497
 20
-115.9607082500897
 10
95.43224552735722
 20
-116.172237112884
 10
95.43224552735722
 20
-116.2885090855112
 10
95.43224552735722
 20
-116.464208955259
 10
95.52733016275012
 20
-116.626989716937
 10
95.71129826166246
 20
-116.626989716937
 10
95.83187660364621
 20
-116.626989716937
 10
96.00757647339394
 20
-116.5677340745907
 10
96.00757647339394
 20
-116.2823079136378
 10
96.00757647339394
 20
-116.058032197548
 10
95.8677055966928
 20
-115.9607082500897
 10
95.73231334412249
 20
-115.9607082500897
 97
        0
 97
        0
 75
     2
 76
     1
 98
        0
  0
ENDBLK
  5
17F
330
17C
100
AcDbEntity
  8
0
100
AcDbBlockEnd
  0
ENDSEC
  0
SECTION
  2
ENTITIES
  0
INSERT
  5
42
330
1F
100
AcDbEntity
  8
_U+30EC_U+30A4_U+30E4_U+30FC 1
100
AcDbBlockReference
  2
block 2
 10
0.0
 20
0.0
 30
0.0
  0
SPLINE
  5
53
330
1F
100
AcDbEntity
  8
_U+30EC_U+30A4_U+30E4_U+30FC 1
370
     0
100
AcDbSpline
210
0.0
220
0.0
230
1.0
 70
    11
 71
     3
 72
   152
 73
   148
 74
     0
 42
0.0000000001
 43
0.0000000001
 12
1.0
 22
0.0
 32
0.0
 13
1.0
 23
0.0
 33
0.0
 40
0.0
 40
0.0
 40
0.0
 40
0.0
 40
1.0
 40
1.0
 40
1.0
 40
2.0
 40
2.0
 40
2.0
 40
3.0
 40
3.0
 40
3.0
 40
4.0
 40
4.0
 40
4.0
 40
5.0
 40
5.0
 40
5.0
 40
6.0
 40
6.0
 40
6.0
 40
7.0
 40
7.0
 40
7.0
 40
8.0
 40
8.0
 40
8.0
 40
9.0
 40
9.0
 40
9.0
 40
10.0
 40
10.0
 40
10.0
 40
11.0
 40
11.0
 40
11.0
 40
12.0
 40
12.0
 40
12.0
 40
13.0
 40
13.0
 40
13.0
 40
14.0
 40
14.0
 40
14.0
 40
15.0
 40
15.0
 40
15.0
 40
16.0
 40
16.0
 40
16.0
 40
17.0
 40
17.0
 40
17.0
 40
18.0
 40
18.0
 40
18.0
 40
19.0
 40
19.0
 40
19.0
 40
20.0
 40
20.0
 40
20.0
 40
21.0
 40
21.0
 40
21.0
 40
22.0
 40
22.0
 40
22.0
 40
23.0
 40
23.0
 40
23.0
 40
24.0
 40
24.0
 40
24.0
 40
25.0
 40
25.0
 40
25.0
 40
26.0
 40
26.0
 40
26.0
 40
27.0
 40
27.0
 40
27.0
 40
28.0
 40
28.0
 40
28.0
 40
29.0
 40
29.0
 40
29.0
 40
30.0
 40
30.0
 40
30.0
 40
31.0
 40
31.0
 40
31.0
 40
32.0
 40
32.0
 40
32.0
 40
33.0
 40
33.0
 40
33.0
 40
34.0
 40
34.0
 40
34.0
 40
35.0
 40
35.0
 40
35.0
 40
36.0
 40
36.0
 40
36.0
 40
37.0
 40
37.0
 40
37.0
 40
38.0
 40
38.0
 40
38.0
 40
39.0
 40
39.0
 40
39.0
 40
40.0
 40
40.0
 40
40.0
 40
41.0
 40
41.0
 40
41.0
 40
42.0
 40
42.0
 40
42.0
 40
43.0
 40
43.0
 40
43.0
 40
44.0
 40
44.0
 40
44.0
 40
45.0
 40
45.0
 40
45.0
 40
46.0
 40
46.0
 40
46.0
 40
47.0
 40
47.0
 40
47.0
 40
48.0
 40
48.0
 40
48.0
 40
49.0
 40
49.0
 40
49.0
 40
49.0
 10
87.12319722174651
 20
-137.1409852434927
 30
0.0
 10
87.12319722174651
 20
-137.1409852434927
 30
0.0
 10
82.62319928099546
 20
-137.1409852434927
 30
0.0
 10
82.62319928099546
 20
-137.1409852434927
 30
0.0
 10
82.62319928099546
 20
-137.1409852434927
 30
0.0
 10
82.62319928099546
 20
-135.6409741327564
 30
0.0
 10
82.62319928099546
 20
-135.6409741327564
 30
0.0
 10
82.62319928099546
 20
-135.6409741327564
 30
0.0
 10
83.1234381571222
 20
-135.6409741327564
 30
0.0
 10
83.1234381571222
 20
-135.6409741327564
 30
0.0
 10
83.1234381571222
 20
-135.6409741327564
 30
0.0
 10
83.1234381571222
 20
-134.1409982997983
 30
0.0
 10
83.1234381571222
 20
-134.1409982997983
 30
0.0
 10
83.1234381571222
 20
-134.1409982997983
 30
0.0
 10
81.1232234859297
 20
-134.1409982997983
 30
0.0
 10
81.1232234859297
 20
-134.1409982997983
 30
0.0
 10
81.1232234859297
 20
-134.1409982997983
 30
0.0
 10
81.1232234859297
 20
-138.1407574654645
 30
0.0
 10
81.1232234859297
 20
-138.1407574654645
 30
0.0
 10
81.1232234859297
 20
-138.1407574654645
 30
0.0
 10
91.12327378636272
 20
-138.1407574654645
 30
0.0
 10
91.12327378636272
 20
-138.1407574654645
 30
0.0
 10
91.12327378636272
 20
-138.1407574654645
 30
0.0
 10
91.12327378636272
 20
-136.1412130215201
 30
0.0
 10
91.12327378636272
 20
-136.1412130215201
 30
0.0
 10
91.12327378636272
 20
-136.1412130215201
 30
0.0
 10
89.12323550405462
 20
-136.1412130215201
 30
0.0
 10
89.12323550405462
 20
-136.1412130215201
 30
0.0
 10
89.12323550405462
 20
-136.1412130215201
 30
0.0
 10
89.12323550405462
 20
-129.2868466343452
 30
0.0
 10
89.12323550405462
 20
-129.2868466343452
 30
0.0
 10
90.58447630010859
 20
-129.5631421898317
 30
0.0
 10
91.99301209750718
 20
-128.6021402456273
 30
0.0
 10
92.26930764601384
 20
-127.1414285793256
 30
0.0
 10
92.36438125469942
 20
-126.6377324683406
 30
0.0
 10
92.31340486711106
 20
-126.116856079582
 30
0.0
 10
92.12322237196302
 20
-125.6414174685897
 30
0.0
 10
92.12322237196302
 20
-125.6414174685897
 30
0.0
 10
94.74838286054515
 20
-125.6414174685897
 30
0.0
 10
94.74838286054515
 20
-125.6414174685897
 30
0.0
 10
94.74838286054515
 20
-125.6414174685897
 30
0.0
 10
95.1235620176402
 20
-124.991671357641
 30
0.0
 10
95.1235620176402
 20
-124.991671357641
 30
0.0
 10
95.1235620176402
 20
-124.991671357641
 30
0.0
 10
95.49838839696648
 20
-125.6414174685897
 30
0.0
 10
95.49838839696648
 20
-125.6414174685897
 30
0.0
 10
95.49838839696648
 20
-125.6414174685897
 30
0.0
 10
98.1235488855486
 20
-125.6414174685897
 30
0.0
 10
98.1235488855486
 20
-125.6414174685897
 30
0.0
 10
97.57131056630404
 20
-127.0222249682445
 30
0.0
 10
98.24275249361858
 20
-128.5890521900749
 30
0.0
 10
99.62355995839124
 20
-129.1407966343815
 30
0.0
 10
100.0993160573648
 20
-129.3316494121113
 30
0.0
 10
100.6198749329731
 20
-129.3819555232102
 30
0.0
 10
101.123535753457
 20
-129.2868466343452
 30
0.0
 10
101.123535753457
 20
-129.2868466343452
 30
0.0
 10
101.123535753457
 20
-136.1412130215201
 30
0.0
 10
101.123535753457
 20
-136.1412130215201
 30
0.0
 10
101.123535753457
 20
-136.1412130215201
 30
0.0
 10
99.12332108226451
 20
-136.1412130215201
 30
0.0
 10
99.12332108226451
 20
-136.1412130215201
 30
0.0
 10
99.12332108226451
 20
-136.1412130215201
 30
0.0
 10
99.12332108226451
 20
-138.1407574654645
 30
0.0
 10
99.12332108226451
 20
-138.1407574654645
 30
0.0
 10
99.12332108226451
 20
-138.1407574654645
 30
0.0
 10
109.1234066604744
 20
-138.1407574654645
 30
0.0
 10
109.1234066604744
 20
-138.1407574654645
 30
0.0
 10
109.1234066604744
 20
-138.1407574654645
 30
0.0
 10
109.1234066604744
 20
-134.1409982997983
 30
0.0
 10
109.1234066604744
 20
-134.1409982997983
 30
0.0
 10
109.1234066604744
 20
-134.1409982997983
 30
0.0
 10
107.1235094892738
 20
-134.1409982997983
 30
0.0
 10
107.1235094892738
 20
-134.1409982997983
 30
0.0
 10
107.1235094892738
 20
-134.1409982997983
 30
0.0
 10
107.1235094892738
 20
-135.6409741327564
 30
0.0
 10
107.1235094892738
 20
-135.6409741327564
 30
0.0
 10
107.1235094892738
 20
-135.6409741327564
 30
0.0
 10
107.6233955876318
 20
-135.6409741327564
 30
0.0
 10
107.6233955876318
 20
-135.6409741327564
 30
0.0
 10
107.6233955876318
 20
-135.6409741327564
 30
0.0
 10
107.6233955876318
 20
-137.1409852434927
 30
0.0
 10
107.6233955876318
 20
-137.1409852434927
 30
0.0
 10
107.6233955876318
 20
-137.1409852434927
 30
0.0
 10
103.1234329246576
 20
-137.1409852434927
 30
0.0
 10
103.1234329246576
 20
-137.1409852434927
 30
0.0
 10
103.1234329246576
 20
-137.1409852434927
 30
0.0
 10
103.1234329246576
 20
-127.891081356916
 30
0.0
 10
103.1234329246576
 20
-127.891081356916
 30
0.0
 10
103.1234329246576
 20
-127.891081356916
 30
0.0
 10
102.0247771193533
 20
-127.4638674681342
 30
0.0
 10
102.0247771193533
 20
-127.4638674681342
 30
0.0
 10
101.8845479562642
 20
-127.702980245852
 30
0.0
 10
101.6850874057973
 20
-127.90208802358
 30
0.0
 10
101.4463626896654
 20
-128.0426699679894
 30
0.0
 10
100.6722271538597
 20
-128.4967302456535
 30
0.0
 10
99.67661773481541
 20
-128.2376502457185
 30
0.0
 10
99.22220469085289
 20
-127.4638674681342
 30
0.0
 10
98.76779164689037
 20
-126.6901199683276
 30
0.0
 10
99.0268716402807
 20
-125.694475246354
 30
0.0
 10
99.80061912054076
 20
-125.2397446909123
 30
0.0
 10
100.5747546563465
 20
-124.7856491354703
 30
0.0
 10
101.5703666412738
 20
-125.0447291354056
 30
0.0
 10
102.0247771193533
 20
-125.8185119129897
 30
0.0
 10
102.0247771193533
 20
-125.8185119129897
 30
0.0
 10
103.1234329246576
 20
-125.3912980242078
 30
0.0
 10
103.1234329246576
 20
-125.3912980242078
 30
0.0
 10
103.1234329246576
 20
-125.3912980242078
 30
0.0
 10
103.1234329246576
 20
-121.1414546919369
 30
0.0
 10
103.1234329246576
 20
-121.1414546919369
 30
0.0
 10
103.1234329246576
 20
-121.1414546919369
 30
0.0
 10
98.62343498390656
 20
-121.1414546919369
 30
0.0
 10
98.62343498390656
 20
-121.1414546919369
 30
0.0
 10
98.62343498390656
 20
-121.1414546919369
 30
0.0
 10
101.123535753457
 20
-123.6412027468676
 30
0.0
 10
101.123535753457
 20
-123.6412027468676
 30
0.0
 10
101.123535753457
 20
-123.6412027468676
 30
0.0
 10
89.12323550405462
 20
-123.6412027468676
 30
0.0
 10
89.12323550405462
 20
-123.6412027468676
 30
0.0
 10
89.12323550405462
 20
-123.6412027468676
 30
0.0
 10
91.62301877361317
 20
-121.1414546919369
 30
0.0
 10
91.62301877361317
 20
-121.1414546919369
 30
0.0
 10
91.62301877361317
 20
-121.1414546919369
 30
0.0
 10
87.12319722174651
 20
-121.1414546919369
 30
0.0
 10
87.12319722174651
 20
-121.1414546919369
 30
0.0
 10
87.12319722174651
 20
-121.1414546919369
 30
0.0
 10
87.12319722174651
 20
-125.3912980242078
 30
0.0
 10
87.12319722174651
 20
-125.3912980242078
 30
0.0
 10
87.12319722174651
 20
-125.3912980242078
 30
0.0
 10
88.22164136038953
 20
-125.8185119129897
 30
0.0
 10
88.22164136038953
 20
-125.8185119129897
 30
0.0
 10
88.36222330124743
 20
-125.5793991352719
 30
0.0
 10
88.561333311193
 20
-125.3802913575438
 30
0.0
 10
88.80044384562305
 20
-125.2397446909123
 30
0.0
 10
89.5741913258831
 20
-124.7856491354703
 30
0.0
 10
90.57036518935749
 20
-125.0447291354056
 30
0.0
 10
91.02474295554312
 20
-125.8185119129897
 30
0.0
 10
91.47897961062124
 20
-126.5922594127962
 30
0.0
 10
91.2201112838922
 20
-127.5879041347698
 30
0.0
 10
90.44597574808648
 20
-128.0426699679894
 30
0.0
 10
89.67205187894203
 20
-128.4967302456535
 30
0.0
 10
88.67605440435204
 20
-128.2376502457185
 30
0.0
 10
88.22164136038953
 20
-127.4638674681342
 30
0.0
 10
88.22164136038953
 20
-127.4638674681342
 30
0.0
 10
87.12319722174651
 20
-127.891081356916
 30
0.0
 10
87.12319722174651
 20
-127.891081356916
 30
0.0
 10
87.12319722174651
 20
-127.891081356916
 30
0.0
 10
87.12319722174651
 20
-137.1409852434927
 30
0.0
 10
87.12319722174651
 20
-137.1409852434927
 30
0.0
  0
HATCH
  5
54
330
1F
100
AcDbEntity
  8
_U+30EC_U+30A4_U+30E4_U+30FC 1
 62
   253
420
 11711154
100
AcDbHatch
 10
0.0
 20
0.0
 30
0.0
210
0.0
220
0.0
230
1.0
  2
SOLID
 70
     1
 71
     0
 91
        1
 92
        1
 93
        1
 72
     4
 94
        3
 73
     0
 74
     1
 95
      152
 96
      148
 40
0.0
 40
0.0
 40
0.0
 40
0.0
 40
1.0
 40
1.0
 40
1.0
 40
2.0
 40
2.0
 40
2.0
 40
3.0
 40
3.0
 40
3.0
 40
4.0
 40
4.0
 40
4.0
 40
5.0
 40
5.0
 40
5.0
 40
6.0
 40
6.0
 40
6.0
 40
7.0
 40
7.0
 40
7.0
 40
8.0
 40
8.0
 40
8.0
 40
9.0
 40
9.0
 40
9.0
 40
10.0
 40
10.0
 40
10.0
 40
11.0
 40
11.0
 40
11.0
 40
12.0
 40
12.0
 40
12.0
 40
13.0
 40
13.0
 40
13.0
 40
14.0
 40
14.0
 40
14.0
 40
15.0
 40
15.0
 40
15.0
 40
16.0
 40
16.0
 40
16.0
 40
17.0
 40
17.0
 40
17.0
 40
18.0
 40
18.0
 40
18.0
 40
19.0
 40
19.0
 40
19.0
 40
20.0
 40
20.0
 40
20.0
 40
21.0
 40
21.0
 40
21.0
 40
22.0
 40
22.0
 40
22.0
 40
23.0
 40
23.0
 40
23.0
 40
24.0
 40
24.0
 40
24.0
 40
25.0
 40
25.0
 40
25.0
 40
26.0
 40
26.0
 40
26.0
 40
27.0
 40
27.0
 40
27.0
 40
28.0
 40
28.0
 40
28.0
 40
29.0
 40
29.0
 40
29.0
 40
30.0
 40
30.0
 40
30.0
 40
31.0
 40
31.0
 40
31.0
 40
32.0
 40
32.0
 40
32.0
 40
33.0
 40
33.0
 40
33.0
 40
34.0
 40
34.0
 40
34.0
 40
35.0
 40
35.0
 40
35.0
 40
36.0
 40
36.0
 40
36.0
 40
37.0
 40
37.0
 40
37.0
 40
38.0
 40
38.0
 40
38.0
 40
39.0
 40
39.0
 40
39.0
 40
40.0
 40
40.0
 40
40.0
 40
41.0
 40
41.0
 40
41.0
 40
42.0
 40
42.0
 40
42.0
 40
43.0
 40
43.0
 40
43.0
 40
44.0
 40
44.0
 40
44.0
 40
45.0
 40
45.0
 40
45.0
 40
46.0
 40
46.0
 40
46.0
 40
47.0
 40
47.0
 40
47.0
 40
48.0
 40
48.0
 40
48.0
 40
49.0
 40
49.0
 40
49.0
 40
49.0
 10
87.12319722174651
 20
-137.1409852434927
 10
87.12319722174651
 20
-137.1409852434927
 10
82.62319928099546
 20
-137.1409852434927
 10
82.62319928099546
 20
-137.1409852434927
 10
82.62319928099546
 20
-137.1409852434927
 10
82.62319928099546
 20
-135.6409741327564
 10
82.62319928099546
 20
-135.6409741327564
 10
82.62319928099546
 20
-135.6409741327564
 10
83.1234381571222
 20
-135.6409741327564
 10
83.1234381571222
 20
-135.6409741327564
 10
83.1234381571222
 20
-135.6409741327564
 10
83.1234381571222
 20
-134.1409982997983
 10
83.1234381571222
 20
-134.1409982997983
 10
83.1234381571222
 20
-134.1409982997983
 10
81.1232234859297
 20
-134.1409982997983
 10
81.1232234859297
 20
-134.1409982997983
 10
81.1232234859297
 20
-134.1409982997983
 10
81.1232234859297
 20
-138.1407574654645
 10
81.1232234859297
 20
-138.1407574654645
 10
81.1232234859297
 20
-138.1407574654645
 10
91.12327378636272
 20
-138.1407574654645
 10
91.12327378636272
 20
-138.1407574654645
 10
91.12327378636272
 20
-138.1407574654645
 10
91.12327378636272
 20
-136.1412130215201
 10
91.12327378636272
 20
-136.1412130215201
 10
91.12327378636272
 20
-136.1412130215201
 10
89.12323550405462
 20
-136.1412130215201
 10
89.12323550405462
 20
-136.1412130215201
 10
89.12323550405462
 20
-136.1412130215201
 10
89.12323550405462
 20
-129.2868466343452
 10
89.12323550405462
 20
-129.2868466343452
 10
90.58447630010859
 20
-129.5631421898317
 10
91.99301209750718
 20
-128.6021402456273
 10
92.26930764601384
 20
-127.1414285793256
 10
92.36438125469942
 20
-126.6377324683406
 10
92.31340486711106
 20
-126.116856079582
 10
92.12322237196302
 20
-125.6414174685897
 10
92.12322237196302
 20
-125.6414174685897
 10
94.74838286054515
 20
-125.6414174685897
 10
94.74838286054515
 20
-125.6414174685897
 10
94.74838286054515
 20
-125.6414174685897
 10
95.1235620176402
 20
-124.991671357641
 10
95.1235620176402
 20
-124.991671357641
 10
95.1235620176402
 20
-124.991671357641
 10
95.49838839696648
 20
-125.6414174685897
 10
95.49838839696648
 20
-125.6414174685897
 10
95.49838839696648
 20
-125.6414174685897
 10
98.1235488855486
 20
-125.6414174685897
 10
98.1235488855486
 20
-125.6414174685897
 10
97.57131056630404
 20
-127.0222249682445
 10
98.24275249361858
 20
-128.5890521900749
 10
99.62355995839124
 20
-129.1407966343815
 10
100.0993160573648
 20
-129.3316494121113
 10
100.6198749329731
 20
-129.3819555232102
 10
101.123535753457
 20
-129.2868466343452
 10
101.123535753457
 20
-129.2868466343452
 10
101.123535753457
 20
-136.1412130215201
 10
101.123535753457
 20
-136.1412130215201
 10
101.123535753457
 20
-136.1412130215201
 10
99.12332108226451
 20
-136.1412130215201
 10
99.12332108226451
 20
-136.1412130215201
 10
99.12332108226451
 20
-136.1412130215201
 10
99.12332108226451
 20
-138.1407574654645
 10
99.12332108226451
 20
-138.1407574654645
 10
99.12332108226451
 20
-138.1407574654645
 10
109.1234066604744
 20
-138.1407574654645
 10
109.1234066604744
 20
-138.1407574654645
 10
109.1234066604744
 20
-138.1407574654645
 10
109.1234066604744
 20
-134.1409982997983
 10
109.1234066604744
 20
-134.1409982997983
 10
109.1234066604744
 20
-134.1409982997983
 10
107.1235094892738
 20
-134.1409982997983
 10
107.1235094892738
 20
-134.1409982997983
 10
107.1235094892738
 20
-134.1409982997983
 10
107.1235094892738
 20
-135.6409741327564
 10
107.1235094892738
 20
-135.6409741327564
 10
107.1235094892738
 20
-135.6409741327564
 10
107.6233955876318
 20
-135.6409741327564
 10
107.6233955876318
 20
-135.6409741327564
 10
107.6233955876318
 20
-135.6409741327564
 10
107.6233955876318
 20
-137.1409852434927
 10
107.6233955876318
 20
-137.1409852434927
 10
107.6233955876318
 20
-137.1409852434927
 10
103.1234329246576
 20
-137.1409852434927
 10
103.1234329246576
 20
-137.1409852434927
 10
103.1234329246576
 20
-137.1409852434927
 10
103.1234329246576
 20
-127.891081356916
 10
103.1234329246576
 20
-127.891081356916
 10
103.1234329246576
 20
-127.891081356916
 10
102.0247771193533
 20
-127.4638674681342
 10
102.0247771193533
 20
-127.4638674681342
 10
101.8845479562642
 20
-127.702980245852
 10
101.6850874057973
 20
-127.90208802358
 10
101.4463626896654
 20
-128.0426699679894
 10
100.6722271538597
 20
-128.4967302456535
 10
99.67661773481541
 20
-128.2376502457185
 10
99.22220469085289
 20
-127.4638674681342
 10
98.76779164689037
 20
-126.6901199683276
 10
99.0268716402807
 20
-125.694475246354
 10
99.80061912054076
 20
-125.2397446909123
 10
100.5747546563465
 20
-124.7856491354703
 10
101.5703666412738
 20
-125.0447291354056
 10
102.0247771193533
 20
-125.8185119129897
 10
102.0247771193533
 20
-125.8185119129897
 10
103.1234329246576
 20
-125.3912980242078
 10
103.1234329246576
 20
-125.3912980242078
 10
103.1234329246576
 20
-125.3912980242078
 10
103.1234329246576
 20
-121.1414546919369
 10
103.1234329246576
 20
-121.1414546919369
 10
103.1234329246576
 20
-121.1414546919369
 10
98.62343498390656
 20
-121.1414546919369
 10
98.62343498390656
 20
-121.1414546919369
 10
98.62343498390656
 20
-121.1414546919369
 10
101.123535753457
 20
-123.6412027468676
 10
101.123535753457
 20
-123.6412027468676
 10
101.123535753457
 20
-123.6412027468676
 10
89.12323550405462
 20
-123.6412027468676
 10
89.12323550405462
 20
-123.6412027468676
 10
89.12323550405462
 20
-123.6412027468676
 10
91.62301877361317
 20
-121.1414546919369
 10
91.62301877361317
 20
-121.1414546919369
 10
91.62301877361317
 20
-121.1414546919369
 10
87.12319722174651
 20
-121.1414546919369
 10
87.12319722174651
 20
-121.1414546919369
 10
87.12319722174651
 20
-121.1414546919369
 10
87.12319722174651
 20
-125.3912980242078
 10
87.12319722174651
 20
-125.3912980242078
 10
87.12319722174651
 20
-125.3912980242078
 10
88.22164136038953
 20
-125.8185119129897
 10
88.22164136038953
 20
-125.8185119129897
 10
88.36222330124743
 20
-125.5793991352719
 10
88.561333311193
 20
-125.3802913575438
 10
88.80044384562305
 20
-125.2397446909123
 10
89.5741913258831
 20
-124.7856491354703
 10
90.57036518935749
 20
-125.0447291354056
 10
91.02474295554312
 20
-125.8185119129897
 10
91.47897961062124
 20
-126.5922594127962
 10
91.2201112838922
 20
-127.5879041347698
 10
90.44597574808648
 20
-128.0426699679894
 10
89.67205187894203
 20
-128.4967302456535
 10
88.67605440435204
 20
-128.2376502457185
 10
88.22164136038953
 20
-127.4638674681342
 10
88.22164136038953
 20
-127.4638674681342
 10
87.12319722174651
 20
-127.891081356916
 10
87.12319722174651
 20
-127.891081356916
 10
87.12319722174651
 20
-127.891081356916
 10
87.12319722174651
 20
-137.1409852434927
 10
87.12319722174651
 20
-137.1409852434927
 97
        0
 97
        0
 75
     2
 76
     1
 98
        0
  0
POLYLINE
  5
55
330
1F
100
AcDbEntity
  8
_U+30EC_U+30A4_U+30E4_U+30FC 1
 62
   179
420
  2234388
370
    25
100
AcDb2dPolyline
 66
     1
 10
0.0
 20
0.0
 30
0.0
  0
VERTEX
  5
56
330
55
100
AcDbEntity
  8
_U+30EC_U+30A4_U+30E4_U+30FC 1
 62
   179
420
  2234388
370
    25
100
AcDbVertex
100
AcDb2dVertex
 10
103.1234329246576
 20
-121.1414546919369
 30
0.0
  0
VERTEX
  5
57
330
55
100
AcDbEntity
  8
_U+30EC_U+30A4_U+30E4_U+30FC 1
 62
   179
420
  2234388
370
    25
100
AcDbVertex
100
AcDb2dVertex
 10
103.1234329246576
 20
-125.3912980242078
 30
0.0
  0
SEQEND
  5
58
330
55
100
AcDbEntity
  8
_U+30EC_U+30A4_U+30E4_U+30FC 1
 62
   179
420
  2234388
370
    25
  0
POLYLINE
  5
59
330
1F
100
AcDbEntity
  8
_U+30EC_U+30A4_U+30E4_U+30FC 1
 62
   179
420
  2234388
370
    25
100
AcDb2dPolyline
 66
     1
 10
0.0
 20
0.0
 30
0.0
  0
VERTEX
  5
5A
330
59
100
AcDbEntity
  8
_U+30EC_U+30A4_U+30E4_U+30FC 1
 62
   179
420
  2234388
370
    25
100
AcDbVertex
100
AcDb2dVertex
 10
89.12323550405462
 20
-123.6412027468676
 30
0.0
  0
VERTEX
  5
5B
330
59
100
AcDbEntity
  8
_U+30EC_U+30A4_U+30E4_U+30FC 1
 62
   179
420
  2234388
370
    25
100
AcDbVertex
100
AcDb2dVertex
 10
101.123535753457
 20
-123.6412027468676
 30
0.0
  0
SEQEND
  5
5C
330
59
100
AcDbEntity
  8
_U+30EC_U+30A4_U+30E4_U+30FC 1
 62
   179
420
  2234388
370
    25
  0
POLYLINE
  5
5D
330
1F
100
AcDbEntity
  8
_U+30EC_U+30A4_U+30E4_U+30FC 1
 62
   179
420
  2234388
370
    25
100
AcDb2dPolyline
 66
     1
 10
0.0
 20
0.0
 30
0.0
  0
VERTEX
  5
5E
330
5D
100
AcDbEntity
  8
_U+30EC_U+30A4_U+30E4_U+30FC 1
 62
   179
420
  2234388
370
    25
100
AcDbVertex
100
AcDb2dVertex
 10
81.1232234859297
 20
-138.1407574654645
 30
0.0
  0
VERTEX
  5
5F
330
5D
100
AcDbEntity
  8
_U+30EC_U+30A4_U+30E4_U+30FC 1
 62
   179
420
  2234388
370
    25
100
AcDbVertex
100
AcDb2dVertex
 10
91.12327378636272
 20
-138.1407574654645
 30
0.0
  0
SEQEND
  5
60
330
5D
100
AcDbEntity
  8
_U+30EC_U+30A4_U+30E4_U+30FC 1
 62
   179
420
  2234388
370
    25
  0
POLYLINE
  5
61
330
1F
100
AcDbEntity
  8
_U+30EC_U+30A4_U+30E4_U+30FC 1
 62
   179
420
  2234388
370
    25
100
AcDb2dPolyline
 66
     1
 10
0.0
 20
0.0
 30
0.0
  0
VERTEX
  5
62
330
61
100
AcDbEntity
  8
_U+30EC_U+30A4_U+30E4_U+30FC 1
 62
   179
420
  2234388
370
    25
100
AcDbVertex
100
AcDb2dVertex
 10
99.12332108226451
 20
-136.1412130215201
 30
0.0
  0
VERTEX
  5
63
330
61
100
AcDbEntity
  8
_U+30EC_U+30A4_U+30E4_U+30FC 1
 62
   179
420
  2234388
370
    25
100
AcDbVertex
100
AcDb2dVertex
 10
99.12332108226451
 20
-138.1407574654645
 30
0.0
  0
SEQEND
  5
64
330
61
100
AcDbEntity
  8
_U+30EC_U+30A4_U+30E4_U+30FC 1
 62
   179
420
  2234388
370
    25
  0
POLYLINE
  5
65
330
1F
100
AcDbEntity
  8
_U+30EC_U+30A4_U+30E4_U+30FC 1
 62
   179
420
  2234388
370
    25
100
AcDb2dPolyline
 66
     1
 10
0.0
 20
0.0
 30
0.0
  0
VERTEX
  5
66
330
65
100
AcDbEntity
  8
_U+30EC_U+30A4_U+30E4_U+30FC 1
 62
   179
420
  2234388
370
    25
100
AcDbVertex
100
AcDb2dVertex
 10
91.12327378636272
 20
-136.1412130215201
 30
0.0
  0
VERTEX
  5
67
330
65
100
AcDbEntity
  8
_U+30EC_U+30A4_U+30E4_U+30FC 1
 62
   179
420
  2234388
370
    25
100
AcDbVertex
100
AcDb2dVertex
 10
91.12327378636272
 20
-138.1407574654645
 30
0.0
  0
SEQEND
  5
68
330
65
100
AcDbEntity
  8
_U+30EC_U+30A4_U+30E4_U+30FC 1
 62
   179
420
  2234388
370
    25
  0
POLYLINE
  5
69
330
1F
100
AcDbEntity
  8
_U+30EC_U+30A4_U+30E4_U+30FC 1
 62
   179
420
  2234388
370
    25
100
AcDb2dPolyline
 66
     1
 10
0.0
 20
0.0
 30
0.0
  0
VERTEX
  5
6A
330
69
100
AcDbEntity
  8
_U+30EC_U+30A4_U+30E4_U+30FC 1
 62
   179
420
  2234388
370
    25
100
AcDbVertex
100
AcDb2dVertex
 10
99.12332108226451
 20
-138.1407574654645
 30
0.0
  0
VERTEX
  5
6B
330
69
100
AcDbEntity
  8
_U+30EC_U+30A4_U+30E4_U+30FC 1
 62
   179
420
  2234388
370
    25
100
AcDbVertex
100
AcDb2dVertex
 10
109.1234066604744
 20
-138.1407574654645
 30
0.0
  0
SEQEND
  5
6C
330
69
100
AcDbEntity
  8
_U+30EC_U+30A4_U+30E4_U+30FC 1
 62
   179
420
  2234388
370
    25
  0
POLYLINE
  5
6D
330
1F
100
AcDbEntity
  8
_U+30EC_U+30A4_U+30E4_U+30FC 1
 62
   179
420
  2234388
370
    25
100
AcDb2dPolyline
 66
     1
 10
0.0
 20
0.0
 30
0.0
  0
VERTEX
  5
6E
330
6D
100
AcDbEntity
  8
_U+30EC_U+30A4_U+30E4_U+30FC 1
 62
   179
420
  2234388
370
    25
100
AcDbVertex
100
AcDb2dVertex
 10
89.12323550405462
 20
-136.1412130215201
 30
0.0
  0
VERTEX
  5
6F
330
6D
100
AcDbEntity
  8
_U+30EC_U+30A4_U+30E4_U+30FC 1
 62
   179
420
  2234388
370
    25
100
AcDbVertex
100
AcDb2dVertex
 10
91.12327378636272
 20
-136.1412130215201
 30
0.0
  0
SEQEND
  5
70
330
6D
100
AcDbEntity
  8
_U+30EC_U+30A4_U+30E4_U+30FC 1
 62
   179
420
  2234388
370
    25
  0
POLYLINE
  5
71
330
1F
100
AcDbEntity
  8
_U+30EC_U+30A4_U+30E4_U+30FC 1
 62
   179
420
  2234388
370
    25
100
AcDb2dPolyline
 66
     1
 10
0.0
 20
0.0
 30
0.0
  0
VERTEX
  5
72
330
71
100
AcDbEntity
  8
_U+30EC_U+30A4_U+30E4_U+30FC 1
 62
   179
420
  2234388
370
    25
100
AcDbVertex
100
AcDb2dVertex
 10
99.12332108226451
 20
-136.1412130215201
 30
0.0
  0
VERTEX
  5
73
330
71
100
AcDbEntity
  8
_U+30EC_U+30A4_U+30E4_U+30FC 1
 62
   179
420
  2234388
370
    25
100
AcDbVertex
100
AcDb2dVertex
 10
101.123535753457
 20
-136.1412130215201
 30
0.0
  0
SEQEND
  5
74
330
71
100
AcDbEntity
  8
_U+30EC_U+30A4_U+30E4_U+30FC 1
 62
   179
420
  2234388
370
    25
  0
POLYLINE
  5
75
330
1F
100
AcDbEntity
  8
_U+30EC_U+30A4_U+30E4_U+30FC 1
 62
   179
420
  2234388
370
    25
100
AcDb2dPolyline
 66
     1
 10
0.0
 20
0.0
 30
0.0
  0
VERTEX
  5
76
330
75
100
AcDbEntity
  8
_U+30EC_U+30A4_U+30E4_U+30FC 1
 62
   179
420
  2234388
370
    25
100
AcDbVertex
100
AcDb2dVertex
 10
101.123535753457
 20
-129.2868466343452
 30
0.0
  0
VERTEX
  5
77
330
75
100
AcDbEntity
  8
_U+30EC_U+30A4_U+30E4_U+30FC 1
 62
   179
420
  2234388
370
    25
100
AcDbVertex
100
AcDb2dVertex
 10
101.123535753457
 20
-136.1412130215201
 30
0.0
  0
SEQEND
  5
78
330
75
100
AcDbEntity
  8
_U+30EC_U+30A4_U+30E4_U+30FC 1
 62
   179
420
  2234388
370
    25
  0
POLYLINE
  5
79
330
1F
100
AcDbEntity
  8
_U+30EC_U+30A4_U+30E4_U+30FC 1
 62
   179
420
  2234388
370
    25
100
AcDb2dPolyline
 66
     1
 10
0.0
 20
0.0
 30
0.0
  0
VERTEX
  5
7A
330
79
100
AcDbEntity
  8
_U+30EC_U+30A4_U+30E4_U+30FC 1
 62
   179
420
  2234388
370
    25
100
AcDbVertex
100
AcDb2dVertex
 10
92.12322237196302
 20
-125.6414174685897
 30
0.0
  0
VERTEX
  5
7B
330
79
100
AcDbEntity
  8
_U+30EC_U+30A4_U+30E4_U+30FC 1
 62
   179
420
  2234388
370
    25
100
AcDbVertex
100
AcDb2dVertex
 10
94.74838286054515
 20
-125.6414174685897
 30
0.0
  0
SEQEND
  5
7C
330
79
100
AcDbEntity
  8
_U+30EC_U+30A4_U+30E4_U+30FC 1
 62
   179
420
  2234388
370
    25
  0
POLYLINE
  5
7D
330
1F
100
AcDbEntity
  8
_U+30EC_U+30A4_U+30E4_U+30FC 1
 62
   179
420
  2234388
370
    25
100
AcDb2dPolyline
 66
     1
 10
0.0
 20
0.0
 30
0.0
  0
VERTEX
  5
7E
330
7D
100
AcDbEntity
  8
_U+30EC_U+30A4_U+30E4_U+30FC 1
 62
   179
420
  2234388
370
    25
100
AcDbVertex
100
AcDb2dVertex
 10
102.0247771193533
 20
-125.8185119129897
 30
0.0
  0
VERTEX
  5
7F
330
7D
100
AcDbEntity
  8
_U+30EC_U+30A4_U+30E4_U+30FC 1
 62
   179
420
  2234388
370
    25
100
AcDbVertex
100
AcDb2dVertex
 10
103.1234329246576
 20
-125.3912980242078
 30
0.0
  0
SEQEND
  5
80
330
7D
100
AcDbEntity
  8
_U+30EC_U+30A4_U+30E4_U+30FC 1
 62
   179
420
  2234388
370
    25
  0
POLYLINE
  5
81
330
1F
100
AcDbEntity
  8
_U+30EC_U+30A4_U+30E4_U+30FC 1
 62
   179
420
  2234388
370
    25
100
AcDb2dPolyline
 66
     1
 10
0.0
 20
0.0
 30
0.0
  0
VERTEX
  5
82
330
81
100
AcDbEntity
  8
_U+30EC_U+30A4_U+30E4_U+30FC 1
 62
   179
420
  2234388
370
    25
100
AcDbVertex
100
AcDb2dVertex
 10
102.0247771193533
 20
-127.4638674681342
 30
0.0
  0
VERTEX
  5
83
330
81
100
AcDbEntity
  8
_U+30EC_U+30A4_U+30E4_U+30FC 1
 62
   179
420
  2234388
370
    25
100
AcDbVertex
100
AcDb2dVertex
 10
103.1234329246576
 20
-127.891081356916
 30
0.0
  0
SEQEND
  5
84
330
81
100
AcDbEntity
  8
_U+30EC_U+30A4_U+30E4_U+30FC 1
 62
   179
420
  2234388
370
    25
  0
POLYLINE
  5
85
330
1F
100
AcDbEntity
  8
_U+30EC_U+30A4_U+30E4_U+30FC 1
 62
   179
420
  2234388
370
    25
100
AcDb2dPolyline
 66
     1
 10
0.0
 20
0.0
 30
0.0
  0
VERTEX
  5
86
330
85
100
AcDbEntity
  8
_U+30EC_U+30A4_U+30E4_U+30FC 1
 62
   179
420
  2234388
370
    25
100
AcDbVertex
100
AcDb2dVertex
 10
103.1234329246576
 20
-127.891081356916
 30
0.0
  0
VERTEX
  5
87
330
85
100
AcDbEntity
  8
_U+30EC_U+30A4_U+30E4_U+30FC 1
 62
   179
420
  2234388
370
    25
100
AcDbVertex
100
AcDb2dVertex
 10
103.1234329246576
 20
-137.1409852434927
 30
0.0
  0
SEQEND
  5
88
330
85
100
AcDbEntity
  8
_U+30EC_U+30A4_U+30E4_U+30FC 1
 62
   179
420
  2234388
370
    25
  0
POLYLINE
  5
89
330
1F
100
AcDbEntity
  8
_U+30EC_U+30A4_U+30E4_U+30FC 1
 62
   179
420
  2234388
370
    25
100
AcDb2dPolyline
 66
     1
 10
0.0
 20
0.0
 30
0.0
  0
VERTEX
  5
8A
330
89
100
AcDbEntity
  8
_U+30EC_U+30A4_U+30E4_U+30FC 1
 62
   179
420
  2234388
370
    25
100
AcDbVertex
100
AcDb2dVertex
 10
87.12302083286212
 20
-127.891081356916
 30
0.0
  0
VERTEX
  5
8B
330
89
100
AcDbEntity
  8
_U+30EC_U+30A4_U+30E4_U+30FC 1
 62
   179
420
  2234388
370
    25
100
AcDbVertex
100
AcDb2dVertex
 10
87.12302083286212
 20
-137.1409852434927
 30
0.0
  0
SEQEND
  5
8C
330
89
100
AcDbEntity
  8
_U+30EC_U+30A4_U+30E4_U+30FC 1
 62
   179
420
  2234388
370
    25
  0
POLYLINE
  5
8D
330
1F
100
AcDbEntity
  8
_U+30EC_U+30A4_U+30E4_U+30FC 1
 62
   179
420
  2234388
370
    25
100
AcDb2dPolyline
 66
     1
 10
0.0
 20
0.0
 30
0.0
  0
VERTEX
  5
8E
330
8D
100
AcDbEntity
  8
_U+30EC_U+30A4_U+30E4_U+30FC 1
 62
   179
420
  2234388
370
    25
100
AcDbVertex
100
AcDb2dVertex
 10
88.22164136038953
 20
-127.4638674681342
 30
0.0
  0
VERTEX
  5
8F
330
8D
100
AcDbEntity
  8
_U+30EC_U+30A4_U+30E4_U+30FC 1
 62
   179
420
  2234388
370
    25
100
AcDbVertex
100
AcDb2dVertex
 10
87.12302083286212
 20
-127.891081356916
 30
0.0
  0
SEQEND
  5
90
330
8D
100
AcDbEntity
  8
_U+30EC_U+30A4_U+30E4_U+30FC 1
 62
   179
420
  2234388
370
    25
  0
POLYLINE
  5
91
330
1F
100
AcDbEntity
  8
_U+30EC_U+30A4_U+30E4_U+30FC 1
 62
   179
420
  2234388
370
    25
100
AcDb2dPolyline
 66
     1
 10
0.0
 20
0.0
 30
0.0
  0
VERTEX
  5
92
330
91
100
AcDbEntity
  8
_U+30EC_U+30A4_U+30E4_U+30FC 1
 62
   179
420
  2234388
370
    25
100
AcDbVertex
100
AcDb2dVertex
 10
88.22164136038953
 20
-125.8185119129897
 30
0.0
  0
VERTEX
  5
93
330
91
100
AcDbEntity
  8
_U+30EC_U+30A4_U+30E4_U+30FC 1
 62
   179
420
  2234388
370
    25
100
AcDbVertex
100
AcDb2dVertex
 10
87.12302083286212
 20
-125.3912980242078
 30
0.0
  0
SEQEND
  5
94
330
91
100
AcDbEntity
  8
_U+30EC_U+30A4_U+30E4_U+30FC 1
 62
   179
420
  2234388
370
    25
  0
POLYLINE
  5
95
330
1F
100
AcDbEntity
  8
_U+30EC_U+30A4_U+30E4_U+30FC 1
 62
   179
420
  2234388
370
    25
100
AcDb2dPolyline
 66
     1
 10
0.0
 20
0.0
 30
0.0
  0
VERTEX
  5
96
330
95
100
AcDbEntity
  8
_U+30EC_U+30A4_U+30E4_U+30FC 1
 62
   179
420
  2234388
370
    25
100
AcDbVertex
100
AcDb2dVertex
 10
89.12323550405462
 20
-129.2868466343452
 30
0.0
  0
VERTEX
  5
97
330
95
100
AcDbEntity
  8
_U+30EC_U+30A4_U+30E4_U+30FC 1
 62
   179
420
  2234388
370
    25
100
AcDbVertex
100
AcDb2dVertex
 10
89.12323550405462
 20
-136.1412130215201
 30
0.0
  0
SEQEND
  5
98
330
95
100
AcDbEntity
  8
_U+30EC_U+30A4_U+30E4_U+30FC 1
 62
   179
420
  2234388
370
    25
  0
POLYLINE
  5
99
330
1F
100
AcDbEntity
  8
_U+30EC_U+30A4_U+30E4_U+30FC 1
 62
   179
420
  2234388
370
    25
100
AcDb2dPolyline
 66
     1
 10
0.0
 20
0.0
 30
0.0
  0
VERTEX
  5
9A
330
99
100
AcDbEntity
  8
_U+30EC_U+30A4_U+30E4_U+30FC 1
 62
   179
420
  2234388
370
    25
100
AcDbVertex
100
AcDb2dVertex
 10
87.12302083286212
 20
-121.1414546919369
 30
0.0
  0
VERTEX
  5
9B
330
99
100
AcDbEntity
  8
_U+30EC_U+30A4_U+30E4_U+30FC 1
 62
   179
420
  2234388
370
    25
100
AcDbVertex
100
AcDb2dVertex
 10
87.12302083286212
 20
-125.3912980242078
 30
0.0
  0
SEQEND
  5
9C
330
99
100
AcDbEntity
  8
_U+30EC_U+30A4_U+30E4_U+30FC 1
 62
   179
420
  2234388
370
    25
  0
POLYLINE
  5
9D
330
1F
100
AcDbEntity
  8
_U+30EC_U+30A4_U+30E4_U+30FC 1
 62
   179
420
  2234388
370
    25
100
AcDb2dPolyline
 66
     1
 10
0.0
 20
0.0
 30
0.0
  0
VERTEX
  5
9E
330
9D
100
AcDbEntity
  8
_U+30EC_U+30A4_U+30E4_U+30FC 1
 62
   179
420
  2234388
370
    25
100
AcDbVertex
100
AcDb2dVertex
 10
94.74838286054515
 20
-125.6414174685897
 30
0.0
  0
VERTEX
  5
9F
330
9D
100
AcDbEntity
  8
_U+30EC_U+30A4_U+30E4_U+30FC 1
 62
   179
420
  2234388
370
    25
100
AcDbVertex
100
AcDb2dVertex
 10
95.1235620176402
 20
-124.991671357641
 30
0.0
  0
SEQEND
  5
A0
330
9D
100
AcDbEntity
  8
_U+30EC_U+30A4_U+30E4_U+30FC 1
 62
   179
420
  2234388
370
    25
  0
POLYLINE
  5
A1
330
1F
100
AcDbEntity
  8
_U+30EC_U+30A4_U+30E4_U+30FC 1
 62
   179
420
  2234388
370
    25
100
AcDb2dPolyline
 66
     1
 10
0.0
 20
0.0
 30
0.0
  0
VERTEX
  5
A2
330
A1
100
AcDbEntity
  8
_U+30EC_U+30A4_U+30E4_U+30FC 1
 62
   179
420
  2234388
370
    25
100
AcDbVertex
100
AcDb2dVertex
 10
95.1235620176402
 20
-124.991671357641
 30
0.0
  0
VERTEX
  5
A3
330
A1
100
AcDbEntity
  8
_U+30EC_U+30A4_U+30E4_U+30FC 1
 62
   179
420
  2234388
370
    25
100
AcDbVertex
100
AcDb2dVertex
 10
95.49838839696648
 20
-125.6414174685897
 30
0.0
  0
SEQEND
  5
A4
330
A1
100
AcDbEntity
  8
_U+30EC_U+30A4_U+30E4_U+30FC 1
 62
   179
420
  2234388
370
    25
  0
POLYLINE
  5
A5
330
1F
100
AcDbEntity
  8
_U+30EC_U+30A4_U+30E4_U+30FC 1
 62
   179
420
  2234388
370
    25
100
AcDb2dPolyline
 66
     1
 10
0.0
 20
0.0
 30
0.0
  0
VERTEX
  5
A6
330
A5
100
AcDbEntity
  8
_U+30EC_U+30A4_U+30E4_U+30FC 1
 62
   179
420
  2234388
370
    25
100
AcDbVertex
100
AcDb2dVertex
 10
95.49838839696648
 20
-125.6414174685897
 30
0.0
  0
VERTEX
  5
A7
330
A5
100
AcDbEntity
  8
_U+30EC_U+30A4_U+30E4_U+30FC 1
 62
   179
420
  2234388
370
    25
100
AcDbVertex
100
AcDb2dVertex
 10
98.1235488855486
 20
-125.6414174685897
 30
0.0
  0
SEQEND
  5
A8
330
A5
100
AcDbEntity
  8
_U+30EC_U+30A4_U+30E4_U+30FC 1
 62
   179
420
  2234388
370
    25
  0
POLYLINE
  5
A9
330
1F
100
AcDbEntity
  8
_U+30EC_U+30A4_U+30E4_U+30FC 1
 62
   179
420
  2234388
370
    25
100
AcDb2dPolyline
 66
     1
 10
0.0
 20
0.0
 30
0.0
  0
VERTEX
  5
AA
330
A9
100
AcDbEntity
  8
_U+30EC_U+30A4_U+30E4_U+30FC 1
 62
   179
420
  2234388
370
    25
100
AcDbVertex
100
AcDb2dVertex
 10
109.1234066604744
 20
-134.1409982997983
 30
0.0
  0
VERTEX
  5
AB
330
A9
100
AcDbEntity
  8
_U+30EC_U+30A4_U+30E4_U+30FC 1
 62
   179
420
  2234388
370
    25
100
AcDbVertex
100
AcDb2dVertex
 10
109.1234066604744
 20
-138.1407574654645
 30
0.0
  0
SEQEND
  5
AC
330
A9
100
AcDbEntity
  8
_U+30EC_U+30A4_U+30E4_U+30FC 1
 62
   179
420
  2234388
370
    25
  0
POLYLINE
  5
AD
330
1F
100
AcDbEntity
  8
_U+30EC_U+30A4_U+30E4_U+30FC 1
 62
   179
420
  2234388
370
    25
100
AcDb2dPolyline
 66
     1
 10
0.0
 20
0.0
 30
0.0
  0
VERTEX
  5
AE
330
AD
100
AcDbEntity
  8
_U+30EC_U+30A4_U+30E4_U+30FC 1
 62
   179
420
  2234388
370
    25
100
AcDbVertex
100
AcDb2dVertex
 10
107.1235094892738
 20
-134.1409982997983
 30
0.0
  0
VERTEX
  5
AF
330
AD
100
AcDbEntity
  8
_U+30EC_U+30A4_U+30E4_U+30FC 1
 62
   179
420
  2234388
370
    25
100
AcDbVertex
100
AcDb2dVertex
 10
109.1234066604744
 20
-134.1409982997983
 30
0.0
  0
SEQEND
  5
B0
330
AD
100
AcDbEntity
  8
_U+30EC_U+30A4_U+30E4_U+30FC 1
 62
   179
420
  2234388
370
    25
  0
POLYLINE
  5
B1
330
1F
100
AcDbEntity
  8
_U+30EC_U+30A4_U+30E4_U+30FC 1
 62
   179
420
  2234388
370
    25
100
AcDb2dPolyline
 66
     1
 10
0.0
 20
0.0
 30
0.0
  0
VERTEX
  5
B2
330
B1
100
AcDbEntity
  8
_U+30EC_U+30A4_U+30E4_U+30FC 1
 62
   179
420
  2234388
370
    25
100
AcDbVertex
100
AcDb2dVertex
 10
107.1235094892738
 20
-134.1409982997983
 30
0.0
  0
VERTEX
  5
B3
330
B1
100
AcDbEntity
  8
_U+30EC_U+30A4_U+30E4_U+30FC 1
 62
   179
420
  2234388
370
    25
100
AcDbVertex
100
AcDb2dVertex
 10
107.1235094892738
 20
-135.6409741327564
 30
0.0
  0
SEQEND
  5
B4
330
B1
100
AcDbEntity
  8
_U+30EC_U+30A4_U+30E4_U+30FC 1
 62
   179
420
  2234388
370
    25
  0
POLYLINE
  5
B5
330
1F
100
AcDbEntity
  8
_U+30EC_U+30A4_U+30E4_U+30FC 1
 62
   179
420
  2234388
370
    25
100
AcDb2dPolyline
 66
     1
 10
0.0
 20
0.0
 30
0.0
  0
VERTEX
  5
B6
330
B5
100
AcDbEntity
  8
_U+30EC_U+30A4_U+30E4_U+30FC 1
 62
   179
420
  2234388
370
    25
100
AcDbVertex
100
AcDb2dVertex
 10
107.1235094892738
 20
-135.6409741327564
 30
0.0
  0
VERTEX
  5
B7
330
B5
100
AcDbEntity
  8
_U+30EC_U+30A4_U+30E4_U+30FC 1
 62
   179
420
  2234388
370
    25
100
AcDbVertex
100
AcDb2dVertex
 10
107.6233955876318
 20
-135.6409741327564
 30
0.0
  0
SEQEND
  5
B8
330
B5
100
AcDbEntity
  8
_U+30EC_U+30A4_U+30E4_U+30FC 1
 62
   179
420
  2234388
370
    25
  0
POLYLINE
  5
B9
330
1F
100
AcDbEntity
  8
_U+30EC_U+30A4_U+30E4_U+30FC 1
 62
   179
420
  2234388
370
    25
100
AcDb2dPolyline
 66
     1
 10
0.0
 20
0.0
 30
0.0
  0
VERTEX
  5
BA
330
B9
100
AcDbEntity
  8
_U+30EC_U+30A4_U+30E4_U+30FC 1
 62
   179
420
  2234388
370
    25
100
AcDbVertex
100
AcDb2dVertex
 10
107.6233955876318
 20
-135.6409741327564
 30
0.0
  0
VERTEX
  5
BB
330
B9
100
AcDbEntity
  8
_U+30EC_U+30A4_U+30E4_U+30FC 1
 62
   179
420
  2234388
370
    25
100
AcDbVertex
100
AcDb2dVertex
 10
107.6233955876318
 20
-137.1409852434927
 30
0.0
  0
SEQEND
  5
BC
330
B9
100
AcDbEntity
  8
_U+30EC_U+30A4_U+30E4_U+30FC 1
 62
   179
420
  2234388
370
    25
  0
POLYLINE
  5
BD
330
1F
100
AcDbEntity
  8
_U+30EC_U+30A4_U+30E4_U+30FC 1
 62
   179
420
  2234388
370
    25
100
AcDb2dPolyline
 66
     1
 10
0.0
 20
0.0
 30
0.0
  0
VERTEX
  5
BE
330
BD
100
AcDbEntity
  8
_U+30EC_U+30A4_U+30E4_U+30FC 1
 62
   179
420
  2234388
370
    25
100
AcDbVertex
100
AcDb2dVertex
 10
103.1234329246576
 20
-137.1409852434927
 30
0.0
  0
VERTEX
  5
BF
330
BD
100
AcDbEntity
  8
_U+30EC_U+30A4_U+30E4_U+30FC 1
 62
   179
420
  2234388
370
    25
100
AcDbVertex
100
AcDb2dVertex
 10
107.6233955876318
 20
-137.1409852434927
 30
0.0
  0
SEQEND
  5
C0
330
BD
100
AcDbEntity
  8
_U+30EC_U+30A4_U+30E4_U+30FC 1
 62
   179
420
  2234388
370
    25
  0
POLYLINE
  5
C1
330
1F
100
AcDbEntity
  8
_U+30EC_U+30A4_U+30E4_U+30FC 1
 62
   179
420
  2234388
370
    25
100
AcDb2dPolyline
 66
     1
 10
0.0
 20
0.0
 30
0.0
  0
VERTEX
  5
C2
330
C1
100
AcDbEntity
  8
_U+30EC_U+30A4_U+30E4_U+30FC 1
 62
   179
420
  2234388
370
    25
100
AcDbVertex
100
AcDb2dVertex
 10
83.1234381571222
 20
-135.6409741327564
 30
0.0
  0
VERTEX
  5
C3
330
C1
100
AcDbEntity
  8
_U+30EC_U+30A4_U+30E4_U+30FC 1
 62
   179
420
  2234388
370
    25
100
AcDbVertex
100
AcDb2dVertex
 10
82.62319928099546
 20
-135.6409741327564
 30
0.0
  0
SEQEND
  5
C4
330
C1
100
AcDbEntity
  8
_U+30EC_U+30A4_U+30E4_U+30FC 1
 62
   179
420
  2234388
370
    25
  0
POLYLINE
  5
C5
330
1F
100
AcDbEntity
  8
_U+30EC_U+30A4_U+30E4_U+30FC 1
 62
   179
420
  2234388
370
    25
100
AcDb2dPolyline
 66
     1
 10
0.0
 20
0.0
 30
0.0
  0
VERTEX
  5
C6
330
C5
100
AcDbEntity
  8
_U+30EC_U+30A4_U+30E4_U+30FC 1
 62
   179
420
  2234388
370
    25
100
AcDbVertex
100
AcDb2dVertex
 10
83.1234381571222
 20
-134.1409982997983
 30
0.0
  0
VERTEX
  5
C7
330
C5
100
AcDbEntity
  8
_U+30EC_U+30A4_U+30E4_U+30FC 1
 62
   179
420
  2234388
370
    25
100
AcDbVertex
100
AcDb2dVertex
 10
83.1234381571222
 20
-135.6409741327564
 30
0.0
  0
SEQEND
  5
C8
330
C5
100
AcDbEntity
  8
_U+30EC_U+30A4_U+30E4_U+30FC 1
 62
   179
420
  2234388
370
    25
  0
POLYLINE
  5
C9
330
1F
100
AcDbEntity
  8
_U+30EC_U+30A4_U+30E4_U+30FC 1
 62
   179
420
  2234388
370
    25
100
AcDb2dPolyline
 66
     1
 10
0.0
 20
0.0
 30
0.0
  0
VERTEX
  5
CA
330
C9
100
AcDbEntity
  8
_U+30EC_U+30A4_U+30E4_U+30FC 1
 62
   179
420
  2234388
370
    25
100
AcDbVertex
100
AcDb2dVertex
 10
83.1234381571222
 20
-134.1409982997983
 30
0.0
  0
VERTEX
  5
CB
330
C9
100
AcDbEntity
  8
_U+30EC_U+30A4_U+30E4_U+30FC 1
 62
   179
420
  2234388
370
    25
100
AcDbVertex
100
AcDb2dVertex
 10
81.1232234859297
 20
-134.1409982997983
 30
0.0
  0
SEQEND
  5
CC
330
C9
100
AcDbEntity
  8
_U+30EC_U+30A4_U+30E4_U+30FC 1
 62
   179
420
  2234388
370
    25
  0
POLYLINE
  5
CD
330
1F
100
AcDbEntity
  8
_U+30EC_U+30A4_U+30E4_U+30FC 1
 62
   179
420
  2234388
370
    25
100
AcDb2dPolyline
 66
     1
 10
0.0
 20
0.0
 30
0.0
  0
VERTEX
  5
CE
330
CD
100
AcDbEntity
  8
_U+30EC_U+30A4_U+30E4_U+30FC 1
 62
   179
420
  2234388
370
    25
100
AcDbVertex
100
AcDb2dVertex
 10
82.62319928099546
 20
-135.6409741327564
 30
0.0
  0
VERTEX
  5
CF
330
CD
100
AcDbEntity
  8
_U+30EC_U+30A4_U+30E4_U+30FC 1
 62
   179
420
  2234388
370
    25
100
AcDbVertex
100
AcDb2dVertex
 10
82.62319928099546
 20
-137.1409852434927
 30
0.0
  0
SEQEND
  5
D0
330
CD
100
AcDbEntity
  8
_U+30EC_U+30A4_U+30E4_U+30FC 1
 62
   179
420
  2234388
370
    25
  0
POLYLINE
  5
D1
330
1F
100
AcDbEntity
  8
_U+30EC_U+30A4_U+30E4_U+30FC 1
 62
   179
420
  2234388
370
    25
100
AcDb2dPolyline
 66
     1
 10
0.0
 20
0.0
 30
0.0
  0
VERTEX
  5
D2
330
D1
100
AcDbEntity
  8
_U+30EC_U+30A4_U+30E4_U+30FC 1
 62
   179
420
  2234388
370
    25
100
AcDbVertex
100
AcDb2dVertex
 10
87.12302083286212
 20
-137.1409852434927
 30
0.0
  0
VERTEX
  5
D3
330
D1
100
AcDbEntity
  8
_U+30EC_U+30A4_U+30E4_U+30FC 1
 62
   179
420
  2234388
370
    25
100
AcDbVertex
100
AcDb2dVertex
 10
82.62319928099546
 20
-137.1409852434927
 30
0.0
  0
SEQEND
  5
D4
330
D1
100
AcDbEntity
  8
_U+30EC_U+30A4_U+30E4_U+30FC 1
 62
   179
420
  2234388
370
    25
  0
POLYLINE
  5
D5
330
1F
100
AcDbEntity
  8
_U+30EC_U+30A4_U+30E4_U+30FC 1
 62
   179
420
  2234388
370
    25
100
AcDb2dPolyline
 66
     1
 10
0.0
 20
0.0
 30
0.0
  0
VERTEX
  5
D6
330
D5
100
AcDbEntity
  8
_U+30EC_U+30A4_U+30E4_U+30FC 1
 62
   179
420
  2234388
370
    25
100
AcDbVertex
100
AcDb2dVertex
 10
81.1232234859297
 20
-134.1409982997983
 30
0.0
  0
VERTEX
  5
D7
330
D5
100
AcDbEntity
  8
_U+30EC_U+30A4_U+30E4_U+30FC 1
 62
   179
420
  2234388
370
    25
100
AcDbVertex
100
AcDb2dVertex
 10
81.1232234859297
 20
-138.1407574654645
 30
0.0
  0
SEQEND
  5
D8
330
D5
100
AcDbEntity
  8
_U+30EC_U+30A4_U+30E4_U+30FC 1
 62
   179
420
  2234388
370
    25
  0
POLYLINE
  5
D9
330
1F
100
AcDbEntity
  8
_U+30EC_U+30A4_U+30E4_U+30FC 1
 62
   179
420
  2234388
370
    25
100
AcDb2dPolyline
 66
     1
 10
0.0
 20
0.0
 30
0.0
  0
VERTEX
  5
DA
330
D9
100
AcDbEntity
  8
_U+30EC_U+30A4_U+30E4_U+30FC 1
 62
   179
420
  2234388
370
    25
100
AcDbVertex
100
AcDb2dVertex
 10
87.12302083286212
 20
-121.1414546919369
 30
0.0
  0
VERTEX
  5
DB
330
D9
100
AcDbEntity
  8
_U+30EC_U+30A4_U+30E4_U+30FC 1
 62
   179
420
  2234388
370
    25
100
AcDbVertex
100
AcDb2dVertex
 10
91.62301877361317
 20
-121.1414546919369
 30
0.0
  0
SEQEND
  5
DC
330
D9
100
AcDbEntity
  8
_U+30EC_U+30A4_U+30E4_U+30FC 1
 62
   179
420
  2234388
370
    25
  0
POLYLINE
  5
DD
330
1F
100
AcDbEntity
  8
_U+30EC_U+30A4_U+30E4_U+30FC 1
 62
   179
420
  2234388
370
    25
100
AcDb2dPolyline
 66
     1
 10
0.0
 20
0.0
 30
0.0
  0
VERTEX
  5
DE
330
DD
100
AcDbEntity
  8
_U+30EC_U+30A4_U+30E4_U+30FC 1
 62
   179
420
  2234388
370
    25
100
AcDbVertex
100
AcDb2dVertex
 10
91.62301877361317
 20
-121.1414546919369
 30
0.0
  0
VERTEX
  5
DF
330
DD
100
AcDbEntity
  8
_U+30EC_U+30A4_U+30E4_U+30FC 1
 62
   179
420
  2234388
370
    25
100
AcDbVertex
100
AcDb2dVertex
 10
89.12323550405462
 20
-123.6412027468676
 30
0.0
  0
SEQEND
  5
E0
330
DD
100
AcDbEntity
  8
_U+30EC_U+30A4_U+30E4_U+30FC 1
 62
   179
420
  2234388
370
    25
  0
POLYLINE
  5
E1
330
1F
100
AcDbEntity
  8
_U+30EC_U+30A4_U+30E4_U+30FC 1
 62
   179
420
  2234388
370
    25
100
AcDb2dPolyline
 66
     1
 10
0.0
 20
0.0
 30
0.0
  0
VERTEX
  5
E2
330
E1
100
AcDbEntity
  8
_U+30EC_U+30A4_U+30E4_U+30FC 1
 62
   179
420
  2234388
370
    25
100
AcDbVertex
100
AcDb2dVertex
 10
98.62343498390656
 20
-121.1414546919369
 30
0.0
  0
VERTEX
  5
E3
330
E1
100
AcDbEntity
  8
_U+30EC_U+30A4_U+30E4_U+30FC 1
 62
   179
420
  2234388
370
    25
100
AcDbVertex
100
AcDb2dVertex
 10
101.123535753457
 20
-123.6412027468676
 30
0.0
  0
SEQEND
  5
E4
330
E1
100
AcDbEntity
  8
_U+30EC_U+30A4_U+30E4_U+30FC 1
 62
   179
420
  2234388
370
    25
  0
POLYLINE
  5
E5
330
1F
100
AcDbEntity
  8
_U+30EC_U+30A4_U+30E4_U+30FC 1
 62
   179
420
  2234388
370
    25
100
AcDb2dPolyline
 66
     1
 10
0.0
 20
0.0
 30
0.0
  0
VERTEX
  5
E6
330
E5
100
AcDbEntity
  8
_U+30EC_U+30A4_U+30E4_U+30FC 1
 62
   179
420
  2234388
370
    25
100
AcDbVertex
100
AcDb2dVertex
 10
103.1234329246576
 20
-121.1414546919369
 30
0.0
  0
VERTEX
  5
E7
330
E5
100
AcDbEntity
  8
_U+30EC_U+30A4_U+30E4_U+30FC 1
 62
   179
420
  2234388
370
    25
100
AcDbVertex
100
AcDb2dVertex
 10
98.62343498390656
 20
-121.1414546919369
 30
0.0
  0
SEQEND
  5
E8
330
E5
100
AcDbEntity
  8
_U+30EC_U+30A4_U+30E4_U+30FC 1
 62
   179
420
  2234388
370
    25
  0
SPLINE
  5
E9
330
1F
100
AcDbEntity
  8
_U+30EC_U+30A4_U+30E4_U+30FC 1
 62
   179
420
  2234388
370
    25
100
AcDbSpline
210
0.0
220
0.0
230
1.0
 70
     8
 71
     3
 72
    17
 73
    13
 74
     0
 42
0.0000000001
 43
0.0000000001
 12
1.0
 22
0.0
 32
0.0
 13
1.0
 23
0.0
 33
0.0
 40
0.0
 40
0.0
 40
0.0
 40
0.0
 40
1.0
 40
1.0
 40
1.0
 40
2.0
 40
2.0
 40
2.0
 40
3.0
 40
3.0
 40
3.0
 40
4.0
 40
4.0
 40
4.0
 40
4.0
 10
102.0247771193533
 20
-125.8185119129897
 30
0.0
 10
101.5703666412738
 20
-125.0447291354056
 30
0.0
 10
100.5747546563465
 20
-124.7856491354703
 30
0.0
 10
99.80061912054076
 20
-125.2397446909123
 30
0.0
 10
99.0268716402807
 20
-125.694475246354
 30
0.0
 10
98.76779164689037
 20
-126.6901199683276
 30
0.0
 10
99.22220469085289
 20
-127.4638674681342
 30
0.0
 10
99.67661773481541
 20
-128.2376502457185
 30
0.0
 10
100.6722271538597
 20
-128.4967302456535
 30
0.0
 10
101.4463626896654
 20
-128.0426699679894
 30
0.0
 10
101.6850874057973
 20
-127.90208802358
 30
0.0
 10
101.8845479562642
 20
-127.702980245852
 30
0.0
 10
102.0247771193533
 20
-127.4638674681342
 30
0.0
  0
SPLINE
  5
EA
330
1F
100
AcDbEntity
  8
_U+30EC_U+30A4_U+30E4_U+30FC 1
 62
   179
420
  2234388
370
    25
100
AcDbSpline
210
0.0
220
0.0
230
1.0
 70
     8
 71
     3
 72
    11
 73
     7
 74
     0
 42
0.0000000001
 43
0.0000000001
 12
1.0
 22
0.0
 32
0.0
 13
1.0
 23
0.0
 33
0.0
 40
0.0
 40
0.0
 40
0.0
 40
0.0
 40
1.0
 40
1.0
 40
1.0
 40
2.0
 40
2.0
 40
2.0
 40
2.0
 10
98.1235488855486
 20
-125.6414174685897
 30
0.0
 10
97.57131056630404
 20
-127.0222249682445
 30
0.0
 10
98.24275249361858
 20
-128.5890521900749
 30
0.0
 10
99.62355995839124
 20
-129.1407966343815
 30
0.0
 10
100.0993160573648
 20
-129.3316494121113
 30
0.0
 10
100.6198749329731
 20
-129.3819555232102
 30
0.0
 10
101.123535753457
 20
-129.2868466343452
 30
0.0
  0
SPLINE
  5
EB
330
1F
100
AcDbEntity
  8
_U+30EC_U+30A4_U+30E4_U+30FC 1
 62
   179
420
  2234388
370
    25
100
AcDbSpline
210
0.0
220
0.0
230
1.0
 70
     8
 71
     3
 72
    11
 73
     7
 74
     0
 42
0.0000000001
 43
0.0000000001
 12
1.0
 22
0.0
 32
0.0
 13
1.0
 23
0.0
 33
0.0
 40
0.0
 40
0.0
 40
0.0
 40
0.0
 40
1.0
 40
1.0
 40
1.0
 40
2.0
 40
2.0
 40
2.0
 40
2.0
 10
89.12323550405462
 20
-129.2868466343452
 30
0.0
 10
90.58447630010859
 20
-129.5631421898317
 30
0.0
 10
91.99301209750718
 20
-128.6021402456273
 30
0.0
 10
92.26930764601384
 20
-127.1414285793256
 30
0.0
 10
92.36438125469942
 20
-126.6377324683406
 30
0.0
 10
92.31340486711106
 20
-126.116856079582
 30
0.0
 10
92.12322237196302
 20
-125.6414174685897
 30
0.0
  0
SPLINE
  5
EC
330
1F
100
AcDbEntity
  8
_U+30EC_U+30A4_U+30E4_U+30FC 1
 62
   179
420
  2234388
370
    25
100
AcDbSpline
210
0.0
220
0.0
230
1.0
 70
     8
 71
     3
 72
    17
 73
    13
 74
     0
 42
0.0000000001
 43
0.0000000001
 12
1.0
 22
0.0
 32
0.0
 13
1.0
 23
0.0
 33
0.0
 40
0.0
 40
0.0
 40
0.0
 40
0.0
 40
1.0
 40
1.0
 40
1.0
 40
2.0
 40
2.0
 40
2.0
 40
3.0
 40
3.0
 40
3.0
 40
4.0
 40
4.0
 40
4.0
 40
4.0
 10
88.22164136038953
 20
-127.4638674681342
 30
0.0
 10
88.67605440435204
 20
-128.2376502457185
 30
0.0
 10
89.67205187894203
 20
-128.4967302456535
 30
0.0
 10
90.44597574808648
 20
-128.0426699679894
 30
0.0
 10
91.2201112838922
 20
-127.5879041347698
 30
0.0
 10
91.47897961062124
 20
-126.5922594127962
 30
0.0
 10
91.02474295554312
 20
-125.8185119129897
 30
0.0
 10
90.57036518935749
 20
-125.0447291354056
 30
0.0
 10
89.5741913258831
 20
-124.7856491354703
 30
0.0
 10
88.80044384562305
 20
-125.2397446909123
 30
0.0
 10
88.561333311193
 20
-125.3802913575438
 30
0.0
 10
88.36222330124743
 20
-125.5793991352719
 30
0.0
 10
88.22164136038953
 20
-125.8185119129897
 30
0.0
  0
SPLINE
  5
ED
330
1F
100
AcDbEntity
  8
_U+30EC_U+30A4_U+30E4_U+30FC 1
 62
   179
420
  2234388
370
     9
100
AcDbSpline
210
0.0
220
0.0
230
1.0
 70
    11
 71
     3
 72
    17
 73
    13
 74
     0
 42
0.0000000001
 43
0.0000000001
 12
1.0
 22
0.0
 32
0.0
 13
1.0
 23
0.0
 33
0.0
 40
0.0
 40
0.0
 40
0.0
 40
0.0
 40
1.0
 40
1.0
 40
1.0
 40
2.0
 40
2.0
 40
2.0
 40
3.0
 40
3.0
 40
3.0
 40
4.0
 40
4.0
 40
4.0
 40
4.0
 10
91.22318045048056
 20
-142.1411869089094
 30
0.0
 10
91.22318045048056
 20
-142.0860830200339
 30
0.0
 10
91.17841295162268
 20
-142.0412802422672
 30
0.0
 10
91.12327378636272
 20
-142.0412802422672
 30
0.0
 10
91.06817219945509
 20
-142.0412802422672
 30
0.0
 10
91.02336942168868
 20
-142.0860830200339
 30
0.0
 10
91.02336942168868
 20
-142.1411869089094
 30
0.0
 10
91.02336942168868
 20
-142.1963260755619
 30
0.0
 10
91.06817219945509
 20
-142.2410935755511
 30
0.0
 10
91.12327378636272
 20
-142.2410935755511
 30
0.0
 10
91.17841295162268
 20
-142.2410935755511
 30
0.0
 10
91.22318045048056
 20
-142.1963260755619
 30
0.0
 10
91.22318045048056
 20
-142.1411869089094
 30
0.0
  0
SPLINE
  5
EE
330
1F
100
AcDbEntity
  8
_U+30EC_U+30A4_U+30E4_U+30FC 1
 62
   179
420
  2234388
370
     9
100
AcDbSpline
210
0.0
220
0.0
230
1.0
 70
    11
 71
     3
 72
    17
 73
    13
 74
     0
 42
0.0000000001
 43
0.0000000001
 12
1.0
 22
0.0
 32
0.0
 13
1.0
 23
0.0
 33
0.0
 40
0.0
 40
0.0
 40
0.0
 40
0.0
 40
1.0
 40
1.0
 40
1.0
 40
2.0
 40
2.0
 40
2.0
 40
3.0
 40
3.0
 40
3.0
 40
4.0
 40
4.0
 40
4.0
 40
4.0
 10
99.22358052415112
 20
-142.1411869089094
 30
0.0
 10
99.22358052415112
 20
-142.0860830200339
 30
0.0
 10
99.17877774751636
 20
-142.0412802422672
 30
0.0
 10
99.12332108226451
 20
-142.0412802422672
 30
0.0
 10
99.06818191700457
 20
-142.0412802422672
 30
0.0
 10
99.02341441814667
 20
-142.0860830200339
 30
0.0
 10
99.02341441814667
 20
-142.1411869089094
 30
0.0
 10
99.02341441814667
 20
-142.1963260755619
 30
0.0
 10
99.06818191700457
 20
-142.2410935755511
 30
0.0
 10
99.12332108226451
 20
-142.2410935755511
 30
0.0
 10
99.17877774751636
 20
-142.2410935755511
 30
0.0
 10
99.22358052415112
 20
-142.1963260755619
 30
0.0
 10
99.22358052415112
 20
-142.1411869089094
 30
0.0
  0
SPLINE
  5
EF
330
1F
100
AcDbEntity
  8
_U+30EC_U+30A4_U+30E4_U+30FC 1
 62
   179
420
  2234388
370
     9
100
AcDbSpline
210
0.0
220
0.0
230
1.0
 70
    11
 71
     3
 72
    17
 73
    13
 74
     0
 42
0.0000000001
 43
0.0000000001
 12
1.0
 22
0.0
 32
0.0
 13
1.0
 23
0.0
 33
0.0
 40
0.0
 40
0.0
 40
0.0
 40
0.0
 40
1.0
 40
1.0
 40
1.0
 40
2.0
 40
2.0
 40
2.0
 40
3.0
 40
3.0
 40
3.0
 40
4.0
 40
4.0
 40
4.0
 40
4.0
 10
109.2233133245922
 20
-142.1411869089094
 30
0.0
 10
109.2233133245922
 20
-142.0860830200339
 30
0.0
 10
109.1785105479575
 20
-142.0412802422672
 30
0.0
 10
109.1234066604744
 20
-142.0412802422672
 30
0.0
 10
109.0682674952145
 20
-142.0412802422672
 30
0.0
 10
109.0235027505218
 20
-142.0860830200339
 30
0.0
 10
109.0235027505218
 20
-142.1411869089094
 30
0.0
 10
109.0235027505218
 20
-142.1963260755619
 30
0.0
 10
109.0682674952145
 20
-142.2410935755511
 30
0.0
 10
109.1234066604744
 20
-142.2410935755511
 30
0.0
 10
109.1785105479575
 20
-142.2410935755511
 30
0.0
 10
109.2233133245922
 20
-142.1963260755619
 30
0.0
 10
109.2233133245922
 20
-142.1411869089094
 30
0.0
  0
SPLINE
  5
F0
330
1F
100
AcDbEntity
  8
_U+30EC_U+30A4_U+30E4_U+30FC 1
 62
   179
420
  2234388
370
     9
100
AcDbSpline
210
0.0
220
0.0
230
1.0
 70
    11
 71
     3
 72
    17
 73
    13
 74
     0
 42
0.0000000001
 43
0.0000000001
 12
1.0
 22
0.0
 32
0.0
 13
1.0
 23
0.0
 33
0.0
 40
0.0
 40
0.0
 40
0.0
 40
0.0
 40
1.0
 40
1.0
 40
1.0
 40
2.0
 40
2.0
 40
2.0
 40
3.0
 40
3.0
 40
3.0
 40
4.0
 40
4.0
 40
4.0
 40
4.0
 10
81.22313015004754
 20
-142.1411869089094
 30
0.0
 10
81.22313015004754
 20
-142.0860830200339
 30
0.0
 10
81.17832737341277
 20
-142.0412802422672
 30
0.0
 10
81.1232234859297
 20
-142.0412802422672
 30
0.0
 10
81.06808432066975
 20
-142.0412802422672
 30
0.0
 10
81.02331682181186
 20
-142.0860830200339
 30
0.0
 10
81.02331682181186
 20
-142.1411869089094
 30
0.0
 10
81.02331682181186
 20
-142.1963260755619
 30
0.0
 10
81.06808432066975
 20
-142.2410935755511
 30
0.0
 10
81.1232234859297
 20
-142.2410935755511
 30
0.0
 10
81.17832737341277
 20
-142.2410935755511
 30
0.0
 10
81.22313015004754
 20
-142.1963260755619
 30
0.0
 10
81.22313015004754
 20
-142.1411869089094
 30
0.0
  0
SPLINE
  5
F1
330
1F
100
AcDbEntity
  8
_U+30EC_U+30A4_U+30E4_U+30FC 1
 62
   179
420
  2234388
370
     9
100
AcDbSpline
210
0.0
220
0.0
230
1.0
 70
    11
 71
     3
 72
    17
 73
    13
 74
     0
 42
0.0000000001
 43
0.0000000001
 12
1.0
 22
0.0
 32
0.0
 13
1.0
 23
0.0
 33
0.0
 40
0.0
 40
0.0
 40
0.0
 40
0.0
 40
1.0
 40
1.0
 40
1.0
 40
2.0
 40
2.0
 40
2.0
 40
3.0
 40
3.0
 40
3.0
 40
4.0
 40
4.0
 40
4.0
 40
4.0
 10
77.22337108542322
 20
-138.1407574654645
 30
0.0
 10
77.22337108542322
 20
-138.0856182988121
 30
0.0
 10
77.17856830878846
 20
-138.0408507988229
 30
0.0
 10
77.12311164353662
 20
-138.0408507988229
 30
0.0
 10
77.06797247827666
 20
-138.0408507988229
 30
0.0
 10
77.02320497941878
 20
-138.0856182988121
 30
0.0
 10
77.02320497941878
 20
-138.1407574654645
 30
0.0
 10
77.02320497941878
 20
-138.1965669098956
 30
0.0
 10
77.06797247827666
 20
-138.2413344098842
 30
0.0
 10
77.12311164353662
 20
-138.2413344098842
 30
0.0
 10
77.17856830878846
 20
-138.2413344098842
 30
0.0
 10
77.22337108542322
 20
-138.1965669098956
 30
0.0
 10
77.22337108542322
 20
-138.1407574654645
 30
0.0
  0
SPLINE
  5
F2
330
1F
100
AcDbEntity
  8
_U+30EC_U+30A4_U+30E4_U+30FC 1
 62
   179
420
  2234388
370
     9
100
AcDbSpline
210
0.0
220
0.0
230
1.0
 70
    11
 71
     3
 72
    17
 73
    13
 74
     0
 42
0.0000000001
 43
0.0000000001
 12
1.0
 22
0.0
 32
0.0
 13
1.0
 23
0.0
 33
0.0
 40
0.0
 40
0.0
 40
0.0
 40
0.0
 40
1.0
 40
1.0
 40
1.0
 40
2.0
 40
2.0
 40
2.0
 40
3.0
 40
3.0
 40
3.0
 40
4.0
 40
4.0
 40
4.0
 40
4.0
 10
77.22337108542322
 20
-134.1409982997983
 30
0.0
 10
77.22337108542322
 20
-134.0858591331452
 30
0.0
 10
77.17856830878846
 20
-134.0410916331567
 30
0.0
 10
77.12311164353662
 20
-134.0410916331567
 30
0.0
 10
77.06797247827666
 20
-134.0410916331567
 30
0.0
 10
77.02320497941878
 20
-134.0858591331452
 30
0.0
 10
77.02320497941878
 20
-134.1409982997983
 30
0.0
 10
77.02320497941878
 20
-134.1961021886732
 30
0.0
 10
77.06797247827666
 20
-134.2409049664399
 30
0.0
 10
77.12311164353662
 20
-134.2409049664399
 30
0.0
 10
77.17856830878846
 20
-134.2409049664399
 30
0.0
 10
77.22337108542322
 20
-134.1961021886732
 30
0.0
 10
77.22337108542322
 20
-134.1409982997983
 30
0.0
  0
SPLINE
  5
F3
330
1F
100
AcDbEntity
  8
_U+30EC_U+30A4_U+30E4_U+30FC 1
 62
   179
420
  2234388
370
     9
100
AcDbSpline
210
0.0
220
0.0
230
1.0
 70
    11
 71
     3
 72
    17
 73
    13
 74
     0
 42
0.0000000001
 43
0.0000000001
 12
1.0
 22
0.0
 32
0.0
 13
1.0
 23
0.0
 33
0.0
 40
0.0
 40
0.0
 40
0.0
 40
0.0
 40
1.0
 40
1.0
 40
1.0
 40
2.0
 40
2.0
 40
2.0
 40
3.0
 40
3.0
 40
3.0
 40
4.0
 40
4.0
 40
4.0
 40
4.0
 10
77.22337108542322
 20
-121.1414546919369
 30
0.0
 10
77.22337108542322
 20
-121.0856452475065
 30
0.0
 10
77.17856830878846
 20
-121.0408424697398
 30
0.0
 10
77.12311164353662
 20
-121.0408424697398
 30
0.0
 10
77.06797247827666
 20
-121.0408424697398
 30
0.0
 10
77.02320497941878
 20
-121.0856452475065
 30
0.0
 10
77.02320497941878
 20
-121.1414546919369
 30
0.0
 10
77.02320497941878
 20
-121.1965585808119
 30
0.0
 10
77.06797247827666
 20
-121.2413613585786
 30
0.0
 10
77.12311164353662
 20
-121.2413613585786
 30
0.0
 10
77.17856830878846
 20
-121.2413613585786
 30
0.0
 10
77.22337108542322
 20
-121.1965585808119
 30
0.0
 10
77.22337108542322
 20
-121.1414546919369
 30
0.0
  0
SPLINE
  5
F4
330
1F
100
AcDbEntity
  8
_U+30EC_U+30A4_U+30E4_U+30FC 1
 62
   179
420
  2234388
370
     9
100
AcDbSpline
210
0.0
220
0.0
230
1.0
 70
    11
 71
     3
 72
    17
 73
    13
 74
     0
 42
0.0000000001
 43
0.0000000001
 12
1.0
 22
0.0
 32
0.0
 13
1.0
 23
0.0
 33
0.0
 40
0.0
 40
0.0
 40
0.0
 40
0.0
 40
1.0
 40
1.0
 40
1.0
 40
2.0
 40
2.0
 40
2.0
 40
3.0
 40
3.0
 40
3.0
 40
4.0
 40
4.0
 40
4.0
 40
4.0
 10
87.22292749697995
 20
-117.1409899707149
 30
0.0
 10
87.22292749697995
 20
-117.0858860818396
 30
0.0
 10
87.17847749811396
 20
-117.0410833040732
 30
0.0
 10
87.12302083286212
 20
-117.0410833040732
 30
0.0
 10
87.06788166760217
 20
-117.0410833040732
 30
0.0
 10
87.02311416874429
 20
-117.0858860818396
 30
0.0
 10
87.02311416874429
 20
-117.1409899707149
 30
0.0
 10
87.02311416874429
 20
-117.1961291373676
 30
0.0
 10
87.06788166760217
 20
-117.2408966373565
 30
0.0
 10
87.12302083286212
 20
-117.2408966373565
 30
0.0
 10
87.17847749811396
 20
-117.2408966373565
 30
0.0
 10
87.22292749697995
 20
-117.1961291373676
 30
0.0
 10
87.22292749697995
 20
-117.1409899707149
 30
0.0
  0
SPLINE
  5
F5
330
1F
100
AcDbEntity
  8
_U+30EC_U+30A4_U+30E4_U+30FC 1
 62
   179
420
  2234388
370
     9
100
AcDbSpline
210
0.0
220
0.0
230
1.0
 70
    11
 71
     3
 72
    17
 73
    13
 74
     0
 42
0.0000000001
 43
0.0000000001
 12
1.0
 22
0.0
 32
0.0
 13
1.0
 23
0.0
 33
0.0
 40
0.0
 40
0.0
 40
0.0
 40
0.0
 40
1.0
 40
1.0
 40
1.0
 40
2.0
 40
2.0
 40
2.0
 40
3.0
 40
3.0
 40
3.0
 40
4.0
 40
4.0
 40
4.0
 40
4.0
 10
103.2233395887754
 20
-117.1409899707149
 30
0.0
 10
103.2233395887754
 20
-117.0858860818396
 30
0.0
 10
103.1785368121407
 20
-117.0410833040732
 30
0.0
 10
103.1234329246576
 20
-117.0410833040732
 30
0.0
 10
103.0682937593976
 20
-117.0410833040732
 30
0.0
 10
103.0235262605398
 20
-117.0858860818396
 30
0.0
 10
103.0235262605398
 20
-117.1409899707149
 30
0.0
 10
103.0235262605398
 20
-117.1961291373676
 30
0.0
 10
103.0682937593976
 20
-117.2408966373565
 30
0.0
 10
103.1234329246576
 20
-117.2408966373565
 30
0.0
 10
103.1785368121407
 20
-117.2408966373565
 30
0.0
 10
103.2233395887754
 20
-117.1961291373676
 30
0.0
 10
103.2233395887754
 20
-117.1409899707149
 30
0.0
  0
POLYLINE
  5
F6
330
1F
100
AcDbEntity
  8
_U+30EC_U+30A4_U+30E4_U+30FC 1
 62
   179
420
  2234388
370
     9
100
AcDb2dPolyline
 66
     1
 10
0.0
 20
0.0
 30
0.0
  0
VERTEX
  5
F7
330
F6
100
AcDbEntity
  8
_U+30EC_U+30A4_U+30E4_U+30FC 1
 62
   179
420
  2234388
370
     9
100
AcDbVertex
100
AcDb2dVertex
 10
91.12327378636272
 20
-142.1411869089094
 30
0.0
  0
VERTEX
  5
F8
330
F6
100
AcDbEntity
  8
_U+30EC_U+30A4_U+30E4_U+30FC 1
 62
   179
420
  2234388
370
     9
100
AcDbVertex
100
AcDb2dVertex
 10
99.12332108226451
 20
-142.1411869089094
 30
0.0
  0
SEQEND
  5
F9
330
F6
100
AcDbEntity
  8
_U+30EC_U+30A4_U+30E4_U+30FC 1
 62
   179
420
  2234388
370
     9
  0
POLYLINE
  5
FA
330
1F
100
AcDbEntity
  8
_U+30EC_U+30A4_U+30E4_U+30FC 1
 62
   179
420
  2234388
370
     9
100
AcDb2dPolyline
 66
     1
 10
0.0
 20
0.0
 30
0.0
  0
VERTEX
  5
FB
330
FA
100
AcDbEntity
  8
_U+30EC_U+30A4_U+30E4_U+30FC 1
 62
   179
420
  2234388
370
     9
100
AcDbVertex
100
AcDb2dVertex
 10
91.12327378636272
 20
-140.6811807981632
 30
0.0
  0
VERTEX
  5
FC
330
FA
100
AcDbEntity
  8
_U+30EC_U+30A4_U+30E4_U+30FC 1
 62
   179
420
  2234388
370
     9
100
AcDbVertex
100
AcDb2dVertex
 10
91.12327378636272
 20
-143.1409591308813
 30
0.0
  0
SEQEND
  5
FD
330
FA
100
AcDbEntity
  8
_U+30EC_U+30A4_U+30E4_U+30FC 1
 62
   179
420
  2234388
370
     9
  0
POLYLINE
  5
FE
330
1F
100
AcDbEntity
  8
_U+30EC_U+30A4_U+30E4_U+30FC 1
 62
   179
420
  2234388
370
     9
100
AcDb2dPolyline
 66
     1
 10
0.0
 20
0.0
 30
0.0
  0
VERTEX
  5
FF
330
FE
100
AcDbEntity
  8
_U+30EC_U+30A4_U+30E4_U+30FC 1
 62
   179
420
  2234388
370
     9
100
AcDbVertex
100
AcDb2dVertex
 10
99.12332108226451
 20
-140.6811807981632
 30
0.0
  0
VERTEX
  5
100
330
FE
100
AcDbEntity
  8
_U+30EC_U+30A4_U+30E4_U+30FC 1
 62
   179
420
  2234388
370
     9
100
AcDbVertex
100
AcDb2dVertex
 10
99.12332108226451
 20
-143.1409591308813
 30
0.0
  0
SEQEND
  5
101
330
FE
100
AcDbEntity
  8
_U+30EC_U+30A4_U+30E4_U+30FC 1
 62
   179
420
  2234388
370
     9
  0
INSERT
  5
103
330
1F
100
AcDbEntity
  8
_U+30EC_U+30A4_U+30E4_U+30FC 1
100
AcDbBlockReference
  2
block 3
 10
0.0
 20
0.0
 30
0.0
  0
SPLINE
  5
10A
330
1F
100
AcDbEntity
  8
_U+30EC_U+30A4_U+30E4_U+30FC 1
 62
   179
420
  2234388
370
    25
100
AcDbSpline
210
0.0
220
0.0
230
1.0
 70
    11
 71
     3
 72
    17
 73
    13
 74
     0
 42
0.0000000001
 43
0.0000000001
 12
1.0
 22
0.0
 32
0.0
 13
1.0
 23
0.0
 33
0.0
 40
0.0
 40
0.0
 40
0.0
 40
0.0
 40
1.0
 40
1.0
 40
1.0
 40
2.0
 40
2.0
 40
2.0
 40
3.0
 40
3.0
 40
3.0
 40
4.0
 40
4.0
 40
4.0
 40
4.0
 10
91.15844572990986
 20
-138.1407574654645
 30
0.0
 10
91.15844572990986
 20
-138.1607246876817
 30
0.0
 10
91.14257073031486
 20
-138.1765644099003
 30
0.0
 10
91.12327378636272
 20
-138.1765644099003
 30
0.0
 10
91.10365934241868
 20
-138.1765644099003
 30
0.0
 10
91.08813712059246
 20
-138.1607246876817
 30
0.0
 10
91.08813712059246
 20
-138.1407574654645
 30
0.0
 10
91.08813712059246
 20
-138.1214605210253
 30
0.0
 10
91.10365934241868
 20
-138.1056207988068
 30
0.0
 10
91.12327378636272
 20
-138.1056207988068
 30
0.0
 10
91.14257073031486
 20
-138.1056207988068
 30
0.0
 10
91.15844572990986
 20
-138.1214605210253
 30
0.0
 10
91.15844572990986
 20
-138.1407574654645
 30
0.0
  0
SPLINE
  5
10B
330
1F
100
AcDbEntity
  8
_U+30EC_U+30A4_U+30E4_U+30FC 1
 62
   179
420
  2234388
370
    25
100
AcDbSpline
210
0.0
220
0.0
230
1.0
 70
    11
 71
     3
 72
    17
 73
    13
 74
     0
 42
0.0000000001
 43
0.0000000001
 12
1.0
 22
0.0
 32
0.0
 13
1.0
 23
0.0
 33
0.0
 40
0.0
 40
0.0
 40
0.0
 40
0.0
 40
1.0
 40
1.0
 40
1.0
 40
2.0
 40
2.0
 40
2.0
 40
3.0
 40
3.0
 40
3.0
 40
4.0
 40
4.0
 40
4.0
 40
4.0
 10
99.15881052580355
 20
-138.1407574654645
 30
0.0
 10
99.15881052580355
 20
-138.1607246876817
 30
0.0
 10
99.14297080398542
 20
-138.1765644099003
 30
0.0
 10
99.12332108226451
 20
-138.1765644099003
 30
0.0
 10
99.10402413831237
 20
-138.1765644099003
 30
0.0
 10
99.08818441649426
 20
-138.1607246876817
 30
0.0
 10
99.08818441649426
 20
-138.1407574654645
 30
0.0
 10
99.08818441649426
 20
-138.1214605210253
 30
0.0
 10
99.10402413831237
 20
-138.1056207988068
 30
0.0
 10
99.12332108226451
 20
-138.1056207988068
 30
0.0
 10
99.14297080398542
 20
-138.1056207988068
 30
0.0
 10
99.15881052580355
 20
-138.1214605210253
 30
0.0
 10
99.15881052580355
 20
-138.1407574654645
 30
0.0
  0
SPLINE
  5
10C
330
1F
100
AcDbEntity
  8
_U+30EC_U+30A4_U+30E4_U+30FC 1
 62
   179
420
  2234388
370
     9
100
AcDbSpline
210
0.0
220
0.0
230
1.0
 70
    11
 71
     3
 72
    17
 73
    13
 74
     0
 42
0.0000000001
 43
0.0000000001
 12
1.0
 22
0.0
 32
0.0
 13
1.0
 23
0.0
 33
0.0
 40
0.0
 40
0.0
 40
0.0
 40
0.0
 40
1.0
 40
1.0
 40
1.0
 40
2.0
 40
2.0
 40
2.0
 40
3.0
 40
3.0
 40
3.0
 40
4.0
 40
4.0
 40
4.0
 40
4.0
 10
99.15881052580355
 20
-142.1411869089094
 30
0.0
 10
99.15881052580355
 20
-142.1604838533486
 30
0.0
 10
99.14297080398542
 20
-142.1763235755672
 30
0.0
 10
99.12332108226451
 20
-142.1763235755672
 30
0.0
 10
99.10402413831237
 20
-142.1763235755672
 30
0.0
 10
99.08818441649426
 20
-142.1604838533486
 30
0.0
 10
99.08818441649426
 20
-142.1411869089094
 30
0.0
 10
99.08818441649426
 20
-142.1212196866922
 30
0.0
 10
99.10402413831237
 20
-142.1060502422511
 30
0.0
 10
99.12332108226451
 20
-142.1060502422511
 30
0.0
 10
99.14297080398542
 20
-142.1060502422511
 30
0.0
 10
99.15881052580355
 20
-142.1212196866922
 30
0.0
 10
99.15881052580355
 20
-142.1411869089094
 30
0.0
  0
POLYLINE
  5
10D
330
1F
100
AcDbEntity
  8
_U+30EC_U+30A4_U+30E4_U+30FC 1
 62
   179
420
  2234388
370
     9
100
AcDb2dPolyline
 66
     1
 10
0.0
 20
0.0
 30
0.0
  0
VERTEX
  5
10E
330
10D
100
AcDbEntity
  8
_U+30EC_U+30A4_U+30E4_U+30FC 1
 62
   179
420
  2234388
370
     9
100
AcDbVertex
100
AcDb2dVertex
 10
81.1232234859297
 20
-142.1411869089094
 30
0.0
  0
VERTEX
  5
10F
330
10D
100
AcDbEntity
  8
_U+30EC_U+30A4_U+30E4_U+30FC 1
 62
   179
420
  2234388
370
     9
100
AcDbVertex
100
AcDb2dVertex
 10
91.12327378636272
 20
-142.1411869089094
 30
0.0
  0
SEQEND
  5
110
330
10D
100
AcDbEntity
  8
_U+30EC_U+30A4_U+30E4_U+30FC 1
 62
   179
420
  2234388
370
     9
  0
POLYLINE
  5
111
330
1F
100
AcDbEntity
  8
_U+30EC_U+30A4_U+30E4_U+30FC 1
 62
   179
420
  2234388
370
     9
100
AcDb2dPolyline
 66
     1
 10
0.0
 20
0.0
 30
0.0
  0
VERTEX
  5
112
330
111
100
AcDbEntity
  8
_U+30EC_U+30A4_U+30E4_U+30FC 1
 62
   179
420
  2234388
370
     9
100
AcDbVertex
100
AcDb2dVertex
 10
81.1232234859297
 20
-140.6811807981632
 30
0.0
  0
VERTEX
  5
113
330
111
100
AcDbEntity
  8
_U+30EC_U+30A4_U+30E4_U+30FC 1
 62
   179
420
  2234388
370
     9
100
AcDbVertex
100
AcDb2dVertex
 10
81.1232234859297
 20
-143.1409591308813
 30
0.0
  0
SEQEND
  5
114
330
111
100
AcDbEntity
  8
_U+30EC_U+30A4_U+30E4_U+30FC 1
 62
   179
420
  2234388
370
     9
  0
INSERT
  5
116
330
1F
100
AcDbEntity
  8
_U+30EC_U+30A4_U+30E4_U+30FC 1
100
AcDbBlockReference
  2
block 4
 10
0.0
 20
0.0
 30
0.0
  0
SPLINE
  5
11E
330
1F
100
AcDbEntity
  8
_U+30EC_U+30A4_U+30E4_U+30FC 1
 62
   179
420
  2234388
370
    25
100
AcDbSpline
210
0.0
220
0.0
230
1.0
 70
    11
 71
     3
 72
    17
 73
    13
 74
     0
 42
0.0000000001
 43
0.0000000001
 12
1.0
 22
0.0
 32
0.0
 13
1.0
 23
0.0
 33
0.0
 40
0.0
 40
0.0
 40
0.0
 40
0.0
 40
1.0
 40
1.0
 40
1.0
 40
2.0
 40
2.0
 40
2.0
 40
3.0
 40
3.0
 40
3.0
 40
4.0
 40
4.0
 40
4.0
 40
4.0
 10
81.15871292946873
 20
-138.1407574654645
 30
0.0
 10
81.15871292946873
 20
-138.1607246876817
 30
0.0
 10
81.14283792987374
 20
-138.1765644099003
 30
0.0
 10
81.1232234859297
 20
-138.1765644099003
 30
0.0
 10
81.10392654197756
 20
-138.1765644099003
 30
0.0
 10
81.0880888686168
 20
-138.1607246876817
 30
0.0
 10
81.0880888686168
 20
-138.1407574654645
 30
0.0
 10
81.0880888686168
 20
-138.1214605210253
 30
0.0
 10
81.10392654197756
 20
-138.1056207988068
 30
0.0
 10
81.1232234859297
 20
-138.1056207988068
 30
0.0
 10
81.14283792987374
 20
-138.1056207988068
 30
0.0
 10
81.15871292946873
 20
-138.1214605210253
 30
0.0
 10
81.15871292946873
 20
-138.1407574654645
 30
0.0
  0
SPLINE
  5
11F
330
1F
100
AcDbEntity
  8
_U+30EC_U+30A4_U+30E4_U+30FC 1
 62
   179
420
  2234388
370
    25
100
AcDbSpline
210
0.0
220
0.0
230
1.0
 70
    11
 71
     3
 72
    17
 73
    13
 74
     0
 42
0.0000000001
 43
0.0000000001
 12
1.0
 22
0.0
 32
0.0
 13
1.0
 23
0.0
 33
0.0
 40
0.0
 40
0.0
 40
0.0
 40
0.0
 40
1.0
 40
1.0
 40
1.0
 40
2.0
 40
2.0
 40
2.0
 40
3.0
 40
3.0
 40
3.0
 40
4.0
 40
4.0
 40
4.0
 40
4.0
 10
91.15844572990986
 20
-138.1407574654645
 30
0.0
 10
91.15844572990986
 20
-138.1607246876817
 30
0.0
 10
91.14257073031486
 20
-138.1765644099003
 30
0.0
 10
91.12327378636272
 20
-138.1765644099003
 30
0.0
 10
91.10365934241868
 20
-138.1765644099003
 30
0.0
 10
91.08813712059246
 20
-138.1607246876817
 30
0.0
 10
91.08813712059246
 20
-138.1407574654645
 30
0.0
 10
91.08813712059246
 20
-138.1214605210253
 30
0.0
 10
91.10365934241868
 20
-138.1056207988068
 30
0.0
 10
91.12327378636272
 20
-138.1056207988068
 30
0.0
 10
91.14257073031486
 20
-138.1056207988068
 30
0.0
 10
91.15844572990986
 20
-138.1214605210253
 30
0.0
 10
91.15844572990986
 20
-138.1407574654645
 30
0.0
  0
SPLINE
  5
120
330
1F
100
AcDbEntity
  8
_U+30EC_U+30A4_U+30E4_U+30FC 1
 62
   179
420
  2234388
370
     9
100
AcDbSpline
210
0.0
220
0.0
230
1.0
 70
    11
 71
     3
 72
    17
 73
    13
 74
     0
 42
0.0000000001
 43
0.0000000001
 12
1.0
 22
0.0
 32
0.0
 13
1.0
 23
0.0
 33
0.0
 40
0.0
 40
0.0
 40
0.0
 40
0.0
 40
1.0
 40
1.0
 40
1.0
 40
2.0
 40
2.0
 40
2.0
 40
3.0
 40
3.0
 40
3.0
 40
4.0
 40
4.0
 40
4.0
 40
4.0
 10
91.15844572990986
 20
-142.1411869089094
 30
0.0
 10
91.15844572990986
 20
-142.1604838533486
 30
0.0
 10
91.14257073031486
 20
-142.1763235755672
 30
0.0
 10
91.12327378636272
 20
-142.1763235755672
 30
0.0
 10
91.10365934241868
 20
-142.1763235755672
 30
0.0
 10
91.08813712059246
 20
-142.1604838533486
 30
0.0
 10
91.08813712059246
 20
-142.1411869089094
 30
0.0
 10
91.08813712059246
 20
-142.1212196866922
 30
0.0
 10
91.10365934241868
 20
-142.1060502422511
 30
0.0
 10
91.12327378636272
 20
-142.1060502422511
 30
0.0
 10
91.14257073031486
 20
-142.1060502422511
 30
0.0
 10
91.15844572990986
 20
-142.1212196866922
 30
0.0
 10
91.15844572990986
 20
-142.1411869089094
 30
0.0
  0
POLYLINE
  5
121
330
1F
100
AcDbEntity
  8
_U+30EC_U+30A4_U+30E4_U+30FC 1
 62
   179
420
  2234388
370
     9
100
AcDb2dPolyline
 66
     1
 10
0.0
 20
0.0
 30
0.0
  0
VERTEX
  5
122
330
121
100
AcDbEntity
  8
_U+30EC_U+30A4_U+30E4_U+30FC 1
 62
   179
420
  2234388
370
     9
100
AcDbVertex
100
AcDb2dVertex
 10
99.12332108226451
 20
-142.1411869089094
 30
0.0
  0
VERTEX
  5
123
330
121
100
AcDbEntity
  8
_U+30EC_U+30A4_U+30E4_U+30FC 1
 62
   179
420
  2234388
370
     9
100
AcDbVertex
100
AcDb2dVertex
 10
109.1234066604744
 20
-142.1411869089094
 30
0.0
  0
SEQEND
  5
124
330
121
100
AcDbEntity
  8
_U+30EC_U+30A4_U+30E4_U+30FC 1
 62
   179
420
  2234388
370
     9
  0
POLYLINE
  5
125
330
1F
100
AcDbEntity
  8
_U+30EC_U+30A4_U+30E4_U+30FC 1
 62
   179
420
  2234388
370
     9
100
AcDb2dPolyline
 66
     1
 10
0.0
 20
0.0
 30
0.0
  0
VERTEX
  5
126
330
125
100
AcDbEntity
  8
_U+30EC_U+30A4_U+30E4_U+30FC 1
 62
   179
420
  2234388
370
     9
100
AcDbVertex
100
AcDb2dVertex
 10
109.1234066604744
 20
-140.6811807981632
 30
0.0
  0
VERTEX
  5
127
330
125
100
AcDbEntity
  8
_U+30EC_U+30A4_U+30E4_U+30FC 1
 62
   179
420
  2234388
370
     9
100
AcDbVertex
100
AcDb2dVertex
 10
109.1234066604744
 20
-143.1409591308813
 30
0.0
  0
SEQEND
  5
128
330
125
100
AcDbEntity
  8
_U+30EC_U+30A4_U+30E4_U+30FC 1
 62
   179
420
  2234388
370
     9
  0
INSERT
  5
12A
330
1F
100
AcDbEntity
  8
_U+30EC_U+30A4_U+30E4_U+30FC 1
100
AcDbBlockReference
  2
block 5
 10
0.0
 20
0.0
 30
0.0
  0
SPLINE
  5
132
330
1F
100
AcDbEntity
  8
_U+30EC_U+30A4_U+30E4_U+30FC 1
 62
   179
420
  2234388
370
    25
100
AcDbSpline
210
0.0
220
0.0
230
1.0
 70
    11
 71
     3
 72
    17
 73
    13
 74
     0
 42
0.0000000001
 43
0.0000000001
 12
1.0
 22
0.0
 32
0.0
 13
1.0
 23
0.0
 33
0.0
 40
0.0
 40
0.0
 40
0.0
 40
0.0
 40
1.0
 40
1.0
 40
1.0
 40
2.0
 40
2.0
 40
2.0
 40
3.0
 40
3.0
 40
3.0
 40
4.0
 40
4.0
 40
4.0
 40
4.0
 10
99.15881052580355
 20
-138.1407574654645
 30
0.0
 10
99.15881052580355
 20
-138.1607246876817
 30
0.0
 10
99.14297080398542
 20
-138.1765644099003
 30
0.0
 10
99.12332108226451
 20
-138.1765644099003
 30
0.0
 10
99.10402413831237
 20
-138.1765644099003
 30
0.0
 10
99.08818441649426
 20
-138.1607246876817
 30
0.0
 10
99.08818441649426
 20
-138.1407574654645
 30
0.0
 10
99.08818441649426
 20
-138.1214605210253
 30
0.0
 10
99.10402413831237
 20
-138.1056207988068
 30
0.0
 10
99.12332108226451
 20
-138.1056207988068
 30
0.0
 10
99.14297080398542
 20
-138.1056207988068
 30
0.0
 10
99.15881052580355
 20
-138.1214605210253
 30
0.0
 10
99.15881052580355
 20
-138.1407574654645
 30
0.0
  0
SPLINE
  5
133
330
1F
100
AcDbEntity
  8
_U+30EC_U+30A4_U+30E4_U+30FC 1
 62
   179
420
  2234388
370
    25
100
AcDbSpline
210
0.0
220
0.0
230
1.0
 70
    11
 71
     3
 72
    17
 73
    13
 74
     0
 42
0.0000000001
 43
0.0000000001
 12
1.0
 22
0.0
 32
0.0
 13
1.0
 23
0.0
 33
0.0
 40
0.0
 40
0.0
 40
0.0
 40
0.0
 40
1.0
 40
1.0
 40
1.0
 40
2.0
 40
2.0
 40
2.0
 40
3.0
 40
3.0
 40
3.0
 40
4.0
 40
4.0
 40
4.0
 40
4.0
 10
109.1588961040134
 20
-138.1407574654645
 30
0.0
 10
109.1588961040134
 20
-138.1607246876817
 30
0.0
 10
109.1430211044184
 20
-138.1765644099003
 30
0.0
 10
109.1234066604744
 20
-138.1765644099003
 30
0.0
 10
109.1041097165223
 20
-138.1765644099003
 30
0.0
 10
109.0882699947041
 20
-138.1607246876817
 30
0.0
 10
109.0882699947041
 20
-138.1407574654645
 30
0.0
 10
109.0882699947041
 20
-138.1214605210253
 30
0.0
 10
109.1041097165223
 20
-138.1056207988068
 30
0.0
 10
109.1234066604744
 20
-138.1056207988068
 30
0.0
 10
109.1430211044184
 20
-138.1056207988068
 30
0.0
 10
109.1588961040134
 20
-138.1214605210253
 30
0.0
 10
109.1588961040134
 20
-138.1407574654645
 30
0.0
  0
SPLINE
  5
134
330
1F
100
AcDbEntity
  8
_U+30EC_U+30A4_U+30E4_U+30FC 1
 62
   179
420
  2234388
370
     9
100
AcDbSpline
210
0.0
220
0.0
230
1.0
 70
    11
 71
     3
 72
    17
 73
    13
 74
     0
 42
0.0000000001
 43
0.0000000001
 12
1.0
 22
0.0
 32
0.0
 13
1.0
 23
0.0
 33
0.0
 40
0.0
 40
0.0
 40
0.0
 40
0.0
 40
1.0
 40
1.0
 40
1.0
 40
2.0
 40
2.0
 40
2.0
 40
3.0
 40
3.0
 40
3.0
 40
4.0
 40
4.0
 40
4.0
 40
4.0
 10
109.1588961040134
 20
-142.1411869089094
 30
0.0
 10
109.1588961040134
 20
-142.1604838533486
 30
0.0
 10
109.1430211044184
 20
-142.1763235755672
 30
0.0
 10
109.1234066604744
 20
-142.1763235755672
 30
0.0
 10
109.1041097165223
 20
-142.1763235755672
 30
0.0
 10
109.0882699947041
 20
-142.1604838533486
 30
0.0
 10
109.0882699947041
 20
-142.1411869089094
 30
0.0
 10
109.0882699947041
 20
-142.1212196866922
 30
0.0
 10
109.1041097165223
 20
-142.1060502422511
 30
0.0
 10
109.1234066604744
 20
-142.1060502422511
 30
0.0
 10
109.1430211044184
 20
-142.1060502422511
 30
0.0
 10
109.1588961040134
 20
-142.1212196866922
 30
0.0
 10
109.1588961040134
 20
-142.1411869089094
 30
0.0
  0
POLYLINE
  5
135
330
1F
100
AcDbEntity
  8
_U+30EC_U+30A4_U+30E4_U+30FC 1
 62
   179
420
  2234388
370
     9
100
AcDb2dPolyline
 66
     1
 10
0.0
 20
0.0
 30
0.0
  0
VERTEX
  5
136
330
135
100
AcDbEntity
  8
_U+30EC_U+30A4_U+30E4_U+30FC 1
 62
   179
420
  2234388
370
     9
100
AcDbVertex
100
AcDb2dVertex
 10
77.12311164353662
 20
-134.1409982997983
 30
0.0
  0
VERTEX
  5
137
330
135
100
AcDbEntity
  8
_U+30EC_U+30A4_U+30E4_U+30FC 1
 62
   179
420
  2234388
370
     9
100
AcDbVertex
100
AcDb2dVertex
 10
77.12311164353662
 20
-138.1407574654645
 30
0.0
  0
SEQEND
  5
138
330
135
100
AcDbEntity
  8
_U+30EC_U+30A4_U+30E4_U+30FC 1
 62
   179
420
  2234388
370
     9
  0
POLYLINE
  5
139
330
1F
100
AcDbEntity
  8
_U+30EC_U+30A4_U+30E4_U+30FC 1
 62
   179
420
  2234388
370
     9
100
AcDb2dPolyline
 66
     1
 10
0.0
 20
0.0
 30
0.0
  0
VERTEX
  5
13A
330
139
100
AcDbEntity
  8
_U+30EC_U+30A4_U+30E4_U+30FC 1
 62
   179
420
  2234388
370
     9
100
AcDbVertex
100
AcDb2dVertex
 10
78.58315299517675
 20
-134.1409982997983
 30
0.0
  0
VERTEX
  5
13B
330
139
100
AcDbEntity
  8
_U+30EC_U+30A4_U+30E4_U+30FC 1
 62
   179
420
  2234388
370
     9
100
AcDbVertex
100
AcDb2dVertex
 10
76.12333944682071
 20
-134.1409982997983
 30
0.0
  0
SEQEND
  5
13C
330
139
100
AcDbEntity
  8
_U+30EC_U+30A4_U+30E4_U+30FC 1
 62
   179
420
  2234388
370
     9
  0
POLYLINE
  5
13D
330
1F
100
AcDbEntity
  8
_U+30EC_U+30A4_U+30E4_U+30FC 1
 62
   179
420
  2234388
370
     9
100
AcDb2dPolyline
 66
     1
 10
0.0
 20
0.0
 30
0.0
  0
VERTEX
  5
13E
330
13D
100
AcDbEntity
  8
_U+30EC_U+30A4_U+30E4_U+30FC 1
 62
   179
420
  2234388
370
     9
100
AcDbVertex
100
AcDb2dVertex
 10
78.58315299517675
 20
-138.1407574654645
 30
0.0
  0
VERTEX
  5
13F
330
13D
100
AcDbEntity
  8
_U+30EC_U+30A4_U+30E4_U+30FC 1
 62
   179
420
  2234388
370
     9
100
AcDbVertex
100
AcDb2dVertex
 10
76.12333944682071
 20
-138.1407574654645
 30
0.0
  0
SEQEND
  5
140
330
13D
100
AcDbEntity
  8
_U+30EC_U+30A4_U+30E4_U+30FC 1
 62
   179
420
  2234388
370
     9
  0
INSERT
  5
142
330
1F
100
AcDbEntity
  8
_U+30EC_U+30A4_U+30E4_U+30FC 1
100
AcDbBlockReference
  2
block 6
 10
0.0
 20
0.0
 30
0.0
  0
SPLINE
  5
15A
330
1F
100
AcDbEntity
  8
_U+30EC_U+30A4_U+30E4_U+30FC 1
 62
   179
420
  2234388
370
    25
100
AcDbSpline
210
0.0
220
0.0
230
1.0
 70
    11
 71
     3
 72
    17
 73
    13
 74
     0
 42
0.0000000001
 43
0.0000000001
 12
1.0
 22
0.0
 32
0.0
 13
1.0
 23
0.0
 33
0.0
 40
0.0
 40
0.0
 40
0.0
 40
0.0
 40
1.0
 40
1.0
 40
1.0
 40
2.0
 40
2.0
 40
2.0
 40
3.0
 40
3.0
 40
3.0
 40
4.0
 40
4.0
 40
4.0
 40
4.0
 10
81.15871292946873
 20
-134.1409982997983
 30
0.0
 10
81.15871292946873
 20
-134.1602952442375
 30
0.0
 10
81.14283792987374
 20
-134.176134966456
 30
0.0
 10
81.1232234859297
 20
-134.176134966456
 30
0.0
 10
81.10392654197756
 20
-134.176134966456
 30
0.0
 10
81.0880888686168
 20
-134.1602952442375
 30
0.0
 10
81.0880888686168
 20
-134.1409982997983
 30
0.0
 10
81.0880888686168
 20
-134.1217013553585
 30
0.0
 10
81.10392654197756
 20
-134.1058616331399
 30
0.0
 10
81.1232234859297
 20
-134.1058616331399
 30
0.0
 10
81.14283792987374
 20
-134.1058616331399
 30
0.0
 10
81.15871292946873
 20
-134.1217013553585
 30
0.0
 10
81.15871292946873
 20
-134.1409982997983
 30
0.0
  0
SPLINE
  5
15B
330
1F
100
AcDbEntity
  8
_U+30EC_U+30A4_U+30E4_U+30FC 1
 62
   179
420
  2234388
370
    25
100
AcDbSpline
210
0.0
220
0.0
230
1.0
 70
    11
 71
     3
 72
    17
 73
    13
 74
     0
 42
0.0000000001
 43
0.0000000001
 12
1.0
 22
0.0
 32
0.0
 13
1.0
 23
0.0
 33
0.0
 40
0.0
 40
0.0
 40
0.0
 40
0.0
 40
1.0
 40
1.0
 40
1.0
 40
2.0
 40
2.0
 40
2.0
 40
3.0
 40
3.0
 40
3.0
 40
4.0
 40
4.0
 40
4.0
 40
4.0
 10
81.15871292946873
 20
-138.1407574654645
 30
0.0
 10
81.15871292946873
 20
-138.1607246876817
 30
0.0
 10
81.14283792987374
 20
-138.1765644099003
 30
0.0
 10
81.1232234859297
 20
-138.1765644099003
 30
0.0
 10
81.10392654197756
 20
-138.1765644099003
 30
0.0
 10
81.0880888686168
 20
-138.1607246876817
 30
0.0
 10
81.0880888686168
 20
-138.1407574654645
 30
0.0
 10
81.0880888686168
 20
-138.1214605210253
 30
0.0
 10
81.10392654197756
 20
-138.1056207988068
 30
0.0
 10
81.1232234859297
 20
-138.1056207988068
 30
0.0
 10
81.14283792987374
 20
-138.1056207988068
 30
0.0
 10
81.15871292946873
 20
-138.1214605210253
 30
0.0
 10
81.15871292946873
 20
-138.1407574654645
 30
0.0
  0
SPLINE
  5
15C
330
1F
100
AcDbEntity
  8
_U+30EC_U+30A4_U+30E4_U+30FC 1
 62
   179
420
  2234388
370
     9
100
AcDbSpline
210
0.0
220
0.0
230
1.0
 70
    11
 71
     3
 72
    17
 73
    13
 74
     0
 42
0.0000000001
 43
0.0000000001
 12
1.0
 22
0.0
 32
0.0
 13
1.0
 23
0.0
 33
0.0
 40
0.0
 40
0.0
 40
0.0
 40
0.0
 40
1.0
 40
1.0
 40
1.0
 40
2.0
 40
2.0
 40
2.0
 40
3.0
 40
3.0
 40
3.0
 40
4.0
 40
4.0
 40
4.0
 40
4.0
 10
77.15860108707565
 20
-138.1407574654645
 30
0.0
 10
77.15860108707565
 20
-138.1607246876817
 30
0.0
 10
77.14276136525753
 20
-138.1765644099003
 30
0.0
 10
77.12311164353662
 20
-138.1765644099003
 30
0.0
 10
77.10381664739069
 20
-138.1765644099003
 30
0.0
 10
77.08797497776635
 20
-138.1607246876817
 30
0.0
 10
77.08797497776635
 20
-138.1407574654645
 30
0.0
 10
77.08797497776635
 20
-138.1214605210253
 30
0.0
 10
77.10381664739069
 20
-138.1056207988068
 30
0.0
 10
77.12311164353662
 20
-138.1056207988068
 30
0.0
 10
77.14276136525753
 20
-138.1056207988068
 30
0.0
 10
77.15860108707565
 20
-138.1214605210253
 30
0.0
 10
77.15860108707565
 20
-138.1407574654645
 30
0.0
  0
POLYLINE
  5
15D
330
1F
100
AcDbEntity
  8
_U+30EC_U+30A4_U+30E4_U+30FC 1
 62
   179
420
  2234388
370
     9
100
AcDb2dPolyline
 66
     1
 10
0.0
 20
0.0
 30
0.0
  0
VERTEX
  5
15E
330
15D
100
AcDbEntity
  8
_U+30EC_U+30A4_U+30E4_U+30FC 1
 62
   179
420
  2234388
370
     9
100
AcDbVertex
100
AcDb2dVertex
 10
77.12311164353662
 20
-121.1414546919369
 30
0.0
  0
VERTEX
  5
15F
330
15D
100
AcDbEntity
  8
_U+30EC_U+30A4_U+30E4_U+30FC 1
 62
   179
420
  2234388
370
     9
100
AcDbVertex
100
AcDb2dVertex
 10
77.12311164353662
 20
-134.1409982997983
 30
0.0
  0
SEQEND
  5
160
330
15D
100
AcDbEntity
  8
_U+30EC_U+30A4_U+30E4_U+30FC 1
 62
   179
420
  2234388
370
     9
  0
POLYLINE
  5
161
330
1F
100
AcDbEntity
  8
_U+30EC_U+30A4_U+30E4_U+30FC 1
 62
   179
420
  2234388
370
     9
100
AcDb2dPolyline
 66
     1
 10
0.0
 20
0.0
 30
0.0
  0
VERTEX
  5
162
330
161
100
AcDbEntity
  8
_U+30EC_U+30A4_U+30E4_U+30FC 1
 62
   179
420
  2234388
370
     9
100
AcDbVertex
100
AcDb2dVertex
 10
84.58312673099356
 20
-121.1414546919369
 30
0.0
  0
VERTEX
  5
163
330
161
100
AcDbEntity
  8
_U+30EC_U+30A4_U+30E4_U+30FC 1
 62
   179
420
  2234388
370
     9
100
AcDbVertex
100
AcDb2dVertex
 10
76.12333944682071
 20
-121.1414546919369
 30
0.0
  0
SEQEND
  5
164
330
161
100
AcDbEntity
  8
_U+30EC_U+30A4_U+30E4_U+30FC 1
 62
   179
420
  2234388
370
     9
  0
INSERT
  5
166
330
1F
100
AcDbEntity
  8
_U+30EC_U+30A4_U+30E4_U+30FC 1
100
AcDbBlockReference
  2
block 7
 10
0.0
 20
0.0
 30
0.0
  0
SPLINE
  5
16D
330
1F
100
AcDbEntity
  8
_U+30EC_U+30A4_U+30E4_U+30FC 1
 62
   179
420
  2234388
370
    25
100
AcDbSpline
210
0.0
220
0.0
230
1.0
 70
    11
 71
     3
 72
    17
 73
    13
 74
     0
 42
0.0000000001
 43
0.0000000001
 12
1.0
 22
0.0
 32
0.0
 13
1.0
 23
0.0
 33
0.0
 40
0.0
 40
0.0
 40
0.0
 40
0.0
 40
1.0
 40
1.0
 40
1.0
 40
2.0
 40
2.0
 40
2.0
 40
3.0
 40
3.0
 40
3.0
 40
4.0
 40
4.0
 40
4.0
 40
4.0
 10
87.15851027640116
 20
-121.1414546919369
 30
0.0
 10
87.15851027640116
 20
-121.1607516363765
 30
0.0
 10
87.14267055458303
 20
-121.1765913585947
 30
0.0
 10
87.12302083286212
 20
-121.1765913585947
 30
0.0
 10
87.10372388890998
 20
-121.1765913585947
 30
0.0
 10
87.08788416709186
 20
-121.1607516363765
 30
0.0
 10
87.08788416709186
 20
-121.1414546919369
 30
0.0
 10
87.08788416709186
 20
-121.1214521919419
 30
0.0
 10
87.10372388890998
 20
-121.1056124697237
 30
0.0
 10
87.12302083286212
 20
-121.1056124697237
 30
0.0
 10
87.14267055458303
 20
-121.1056124697237
 30
0.0
 10
87.15851027640116
 20
-121.1214521919419
 30
0.0
 10
87.15851027640116
 20
-121.1414546919369
 30
0.0
  0
SPLINE
  5
16E
330
1F
100
AcDbEntity
  8
_U+30EC_U+30A4_U+30E4_U+30FC 1
 62
   179
420
  2234388
370
    25
100
AcDbSpline
210
0.0
220
0.0
230
1.0
 70
    11
 71
     3
 72
    17
 73
    13
 74
     0
 42
0.0000000001
 43
0.0000000001
 12
1.0
 22
0.0
 32
0.0
 13
1.0
 23
0.0
 33
0.0
 40
0.0
 40
0.0
 40
0.0
 40
0.0
 40
1.0
 40
1.0
 40
1.0
 40
2.0
 40
2.0
 40
2.0
 40
3.0
 40
3.0
 40
3.0
 40
4.0
 40
4.0
 40
4.0
 40
4.0
 10
81.15871292946873
 20
-134.1409982997983
 30
0.0
 10
81.15871292946873
 20
-134.1602952442375
 30
0.0
 10
81.14283792987374
 20
-134.176134966456
 30
0.0
 10
81.1232234859297
 20
-134.176134966456
 30
0.0
 10
81.10392654197756
 20
-134.176134966456
 30
0.0
 10
81.0880888686168
 20
-134.1602952442375
 30
0.0
 10
81.0880888686168
 20
-134.1409982997983
 30
0.0
 10
81.0880888686168
 20
-134.1217013553585
 30
0.0
 10
81.10392654197756
 20
-134.1058616331399
 30
0.0
 10
81.1232234859297
 20
-134.1058616331399
 30
0.0
 10
81.14283792987374
 20
-134.1058616331399
 30
0.0
 10
81.15871292946873
 20
-134.1217013553585
 30
0.0
 10
81.15871292946873
 20
-134.1409982997983
 30
0.0
  0
SPLINE
  5
16F
330
1F
100
AcDbEntity
  8
_U+30EC_U+30A4_U+30E4_U+30FC 1
 62
   179
420
  2234388
370
     9
100
AcDbSpline
210
0.0
220
0.0
230
1.0
 70
    11
 71
     3
 72
    17
 73
    13
 74
     0
 42
0.0000000001
 43
0.0000000001
 12
1.0
 22
0.0
 32
0.0
 13
1.0
 23
0.0
 33
0.0
 40
0.0
 40
0.0
 40
0.0
 40
0.0
 40
1.0
 40
1.0
 40
1.0
 40
2.0
 40
2.0
 40
2.0
 40
3.0
 40
3.0
 40
3.0
 40
4.0
 40
4.0
 40
4.0
 40
4.0
 10
77.15860108707565
 20
-134.1409982997983
 30
0.0
 10
77.15860108707565
 20
-134.1602952442375
 30
0.0
 10
77.14276136525753
 20
-134.176134966456
 30
0.0
 10
77.12311164353662
 20
-134.176134966456
 30
0.0
 10
77.10381664739069
 20
-134.176134966456
 30
0.0
 10
77.08797497776635
 20
-134.1602952442375
 30
0.0
 10
77.08797497776635
 20
-134.1409982997983
 30
0.0
 10
77.08797497776635
 20
-134.1217013553585
 30
0.0
 10
77.10381664739069
 20
-134.1058616331399
 30
0.0
 10
77.12311164353662
 20
-134.1058616331399
 30
0.0
 10
77.14276136525753
 20
-134.1058616331399
 30
0.0
 10
77.15860108707565
 20
-134.1217013553585
 30
0.0
 10
77.15860108707565
 20
-134.1409982997983
 30
0.0
  0
POLYLINE
  5
170
330
1F
100
AcDbEntity
  8
_U+30EC_U+30A4_U+30E4_U+30FC 1
 62
   179
420
  2234388
370
     9
100
AcDb2dPolyline
 66
     1
 10
0.0
 20
0.0
 30
0.0
  0
VERTEX
  5
171
330
170
100
AcDbEntity
  8
_U+30EC_U+30A4_U+30E4_U+30FC 1
 62
   179
420
  2234388
370
     9
100
AcDbVertex
100
AcDb2dVertex
 10
87.12302083286212
 20
-117.1409899707149
 30
0.0
  0
VERTEX
  5
172
330
170
100
AcDbEntity
  8
_U+30EC_U+30A4_U+30E4_U+30FC 1
 62
   179
420
  2234388
370
     9
100
AcDbVertex
100
AcDb2dVertex
 10
103.1234329246576
 20
-117.1409899707149
 30
0.0
  0
SEQEND
  5
173
330
170
100
AcDbEntity
  8
_U+30EC_U+30A4_U+30E4_U+30FC 1
 62
   179
420
  2234388
370
     9
  0
POLYLINE
  5
174
330
1F
100
AcDbEntity
  8
_U+30EC_U+30A4_U+30E4_U+30FC 1
 62
   179
420
  2234388
370
     9
100
AcDb2dPolyline
 66
     1
 10
0.0
 20
0.0
 30
0.0
  0
VERTEX
  5
175
330
174
100
AcDbEntity
  8
_U+30EC_U+30A4_U+30E4_U+30FC 1
 62
   179
420
  2234388
370
     9
100
AcDbVertex
100
AcDb2dVertex
 10
87.12302083286212
 20
-118.6010313592386
 30
0.0
  0
VERTEX
  5
176
330
174
100
AcDbEntity
  8
_U+30EC_U+30A4_U+30E4_U+30FC 1
 62
   179
420
  2234388
370
     9
100
AcDbVertex
100
AcDb2dVertex
 10
87.12302083286212
 20
-116.1412177487423
 30
0.0
  0
SEQEND
  5
177
330
174
100
AcDbEntity
  8
_U+30EC_U+30A4_U+30E4_U+30FC 1
 62
   179
420
  2234388
370
     9
  0
POLYLINE
  5
178
330
1F
100
AcDbEntity
  8
_U+30EC_U+30A4_U+30E4_U+30FC 1
 62
   179
420
  2234388
370
     9
100
AcDb2dPolyline
 66
     1
 10
0.0
 20
0.0
 30
0.0
  0
VERTEX
  5
179
330
178
100
AcDbEntity
  8
_U+30EC_U+30A4_U+30E4_U+30FC 1
 62
   179
420
  2234388
370
     9
100
AcDbVertex
100
AcDb2dVertex
 10
103.1234329246576
 20
-118.6010313592386
 30
0.0
  0
VERTEX
  5
17A
330
178
100
AcDbEntity
  8
_U+30EC_U+30A4_U+30E4_U+30FC 1
 62
   179
420
  2234388
370
     9
100
AcDbVertex
100
AcDb2dVertex
 10
103.1234329246576
 20
-116.1412177487423
 30
0.0
  0
SEQEND
  5
17B
330
178
100
AcDbEntity
  8
_U+30EC_U+30A4_U+30E4_U+30FC 1
 62
   179
420
  2234388
370
     9
  0
INSERT
  5
17D
330
1F
100
AcDbEntity
  8
_U+30EC_U+30A4_U+30E4_U+30FC 1
100
AcDbBlockReference
  2
block 8
 10
0.0
 20
0.0
 30
0.0
  0
SPLINE
  5
185
330
1F
100
AcDbEntity
  8
_U+30EC_U+30A4_U+30E4_U+30FC 1
 62
   179
420
  2234388
370
    25
100
AcDbSpline
210
0.0
220
0.0
230
1.0
 70
    11
 71
     3
 72
    17
 73
    13
 74
     0
 42
0.0000000001
 43
0.0000000001
 12
1.0
 22
0.0
 32
0.0
 13
1.0
 23
0.0
 33
0.0
 40
0.0
 40
0.0
 40
0.0
 40
0.0
 40
1.0
 40
1.0
 40
1.0
 40
2.0
 40
2.0
 40
2.0
 40
3.0
 40
3.0
 40
3.0
 40
4.0
 40
4.0
 40
4.0
 40
4.0
 10
87.15851027640116
 20
-121.1414546919369
 30
0.0
 10
87.15851027640116
 20
-121.1607516363765
 30
0.0
 10
87.14267055458303
 20
-121.1765913585947
 30
0.0
 10
87.12302083286212
 20
-121.1765913585947
 30
0.0
 10
87.10372388890998
 20
-121.1765913585947
 30
0.0
 10
87.08788416709186
 20
-121.1607516363765
 30
0.0
 10
87.08788416709186
 20
-121.1414546919369
 30
0.0
 10
87.08788416709186
 20
-121.1214521919419
 30
0.0
 10
87.10372388890998
 20
-121.1056124697237
 30
0.0
 10
87.12302083286212
 20
-121.1056124697237
 30
0.0
 10
87.14267055458303
 20
-121.1056124697237
 30
0.0
 10
87.15851027640116
 20
-121.1214521919419
 30
0.0
 10
87.15851027640116
 20
-121.1414546919369
 30
0.0
  0
SPLINE
  5
186
330
1F
100
AcDbEntity
  8
_U+30EC_U+30A4_U+30E4_U+30FC 1
 62
   179
420
  2234388
370
    25
100
AcDbSpline
210
0.0
220
0.0
230
1.0
 70
    11
 71
     3
 72
    17
 73
    13
 74
     0
 42
0.0000000001
 43
0.0000000001
 12
1.0
 22
0.0
 32
0.0
 13
1.0
 23
0.0
 33
0.0
 40
0.0
 40
0.0
 40
0.0
 40
0.0
 40
1.0
 40
1.0
 40
1.0
 40
2.0
 40
2.0
 40
2.0
 40
3.0
 40
3.0
 40
3.0
 40
4.0
 40
4.0
 40
4.0
 40
4.0
 10
103.1585721964325
 20
-121.1414546919369
 30
0.0
 10
103.1585721964325
 20
-121.1607516363765
 30
0.0
 10
103.1430499742142
 20
-121.1765913585947
 30
0.0
 10
103.1234329246576
 20
-121.1765913585947
 30
0.0
 10
103.1041359807055
 20
-121.1765913585947
 30
0.0
 10
103.0882962588873
 20
-121.1607516363765
 30
0.0
 10
103.0882962588873
 20
-121.1414546919369
 30
0.0
 10
103.0882962588873
 20
-121.1214521919419
 30
0.0
 10
103.1041359807055
 20
-121.1056124697237
 30
0.0
 10
103.1234329246576
 20
-121.1056124697237
 30
0.0
 10
103.1430499742142
 20
-121.1056124697237
 30
0.0
 10
103.1585721964325
 20
-121.1214521919419
 30
0.0
 10
103.1585721964325
 20
-121.1414546919369
 30
0.0
  0
SPLINE
  5
187
330
1F
100
AcDbEntity
  8
_U+30EC_U+30A4_U+30E4_U+30FC 1
 62
   179
420
  2234388
370
     9
100
AcDbSpline
210
0.0
220
0.0
230
1.0
 70
    11
 71
     3
 72
    17
 73
    13
 74
     0
 42
0.0000000001
 43
0.0000000001
 12
1.0
 22
0.0
 32
0.0
 13
1.0
 23
0.0
 33
0.0
 40
0.0
 40
0.0
 40
0.0
 40
0.0
 40
1.0
 40
1.0
 40
1.0
 40
2.0
 40
2.0
 40
2.0
 40
3.0
 40
3.0
 40
3.0
 40
4.0
 40
4.0
 40
4.0
 40
4.0
 10
103.1585721964325
 20
-117.1409899707149
 30
0.0
 10
103.1585721964325
 20
-117.1609924707099
 30
0.0
 10
103.1430499742142
 20
-117.1761266373726
 30
0.0
 10
103.1234329246576
 20
-117.1761266373726
 30
0.0
 10
103.1041359807055
 20
-117.1761266373726
 30
0.0
 10
103.0882962588873
 20
-117.1609924707099
 30
0.0
 10
103.0882962588873
 20
-117.1409899707149
 30
0.0
 10
103.0882962588873
 20
-117.121693026275
 30
0.0
 10
103.1041359807055
 20
-117.1058533040568
 30
0.0
 10
103.1234329246576
 20
-117.1058533040568
 30
0.0
 10
103.1430499742142
 20
-117.1058533040568
 30
0.0
 10
103.1585721964325
 20
-117.121693026275
 30
0.0
 10
103.1585721964325
 20
-117.1409899707149
 30
0.0
  0
ENDSEC
  0
SECTION
  2
OBJECTS
  0
DICTIONARY
  5
C
330
0
100
AcDbDictionary
281
     1
  3
ACAD_GROUP
350
D
  3
ACAD_LAYOUT
350
1A
  3
ACAD_MATERIAL
350
3B
  3
ACAD_MLEADERSTYLE
350
189
  3
ACAD_MLINESTYLE
350
17
  3
ACAD_PLOTSETTINGS
350
19
  3
ACAD_PLOTSTYLENAME
350
E
  3
ACAD_TABLESTYLE
350
188
  3
ACAD_VISUALSTYLE
350
2A
  0
SUN
  5
3F
330
29
100
AcDbSun
 90
        1
290
     0
 63
     7
421
 16777215
 40
1.0
291
     1
 91
  2455826
 92
 54000000
292
     0
 70
     2
 71
   256
280
     1
  0
DICTIONARY
  5
D
102
{ACAD_REACTORS
330
C
102
}
330
C
100
AcDbDictionary
281
     1
  0
DICTIONARY
  5
1A
102
{ACAD_REACTORS
330
C
102
}
330
C
100
AcDbDictionary
281
     1
  3
Layout1
350
1E
  3
Layout2
350
26
  3
Model
350
22
  0
DICTIONARY
  5
3B
102
{ACAD_REACTORS
330
C
102
}
330
C
100
AcDbDictionary
281
     1
  3
ByBlock
350
3D
  3
ByLayer
350
3C
  3
Global
350
3E
  0
DICTIONARY
  5
189
102
{ACAD_REACTORS
330
C
102
}
330
C
100
AcDbDictionary
281
     1
  0
DICTIONARY
  5
17
102
{ACAD_REACTORS
330
C
102
}
330
C
100
AcDbDictionary
281
     1
  3
Standard
350
18
  0
DICTIONARY
  5
19
102
{ACAD_REACTORS
330
C
102
}
330
C
100
AcDbDictionary
281
     1
  0
ACDBDICTIONARYWDFLT
  5
E
102
{ACAD_REACTORS
330
C
102
}
330
C
100
AcDbDictionary
281
     1
  3
Normal
350
F
100
AcDbDictionaryWithDefault
340
F
  0
DICTIONARY
  5
188
102
{ACAD_REACTORS
330
C
102
}
330
C
100
AcDbDictionary
281
     1
  0
DICTIONARY
  5
2A
102
{ACAD_REACTORS
330
C
102
}
330
C
100
AcDbDictionary
281
     1
  3
2dWireframe
350
2F
  3
3D Hidden
350
31
  3
3dWireframe
350
30
  3
Basic
350
32
  3
Brighten
350
36
  3
ColorChange
350
3A
  3
Conceptual
350
34
  3
Dim
350
35
  3
Facepattern
350
39
  3
Flat
350
2B
  3
FlatWithEdges
350
2C
  3
Gouraud
350
2D
  3
GouraudWithEdges
350
2E
  3
Linepattern
350
38
  3
Realistic
350
33
  3
Thicken
350
37
  0
LAYOUT
  5
1E
102
{ACAD_REACTORS
330
1A
102
}
330
1A
100
AcDbPlotSettings
  1

  2
none_device
  4

  6

 40
0.0
 41
0.0
 42
0.0
 43
0.0
 44
0.0
 45
0.0
 46
0.0
 47
0.0
 48
0.0
 49
0.0
140
0.0
141
0.0
142
1.0
143
1.0
 70
   688
 72
     0
 73
     0
 74
     5
  7

 75
    16
 76
     0
 77
     2
 78
   300
147
1.0
148
0.0
149
0.0
100
AcDbLayout
  1
Layout1
 70
     1
 71
     1
 10
0.0
 20
0.0
 11
12.0
 21
9.0
 12
0.0
 22
0.0
 32
0.0
 14
1.000000000000000E+20
 24
1.000000000000000E+20
 34
1.000000000000000E+20
 15
-1.000000000000000E+20
 25
-1.000000000000000E+20
 35
-1.000000000000000E+20
146
0.0
 13
0.0
 23
0.0
 33
0.0
 16
1.0
 26
0.0
 36
0.0
 17
0.0
 27
1.0
 37
0.0
 76
     0
330
1B
  0
LAYOUT
  5
26
102
{ACAD_REACTORS
330
1A
102
}
330
1A
100
AcDbPlotSettings
  1

  2
none_device
  4

  6

 40
0.0
 41
0.0
 42
0.0
 43
0.0
 44
0.0
 45
0.0
 46
0.0
 47
0.0
 48
0.0
 49
0.0
140
0.0
141
0.0
142
1.0
143
1.0
 70
   688
 72
     0
 73
     0
 74
     5
  7

 75
    16
 76
     0
 77
     2
 78
   300
147
1.0
148
0.0
149
0.0
100
AcDbLayout
  1
Layout2
 70
     1
 71
     2
 10
0.0
 20
0.0
 11
0.0
 21
0.0
 12
0.0
 22
0.0
 32
0.0
 14
0.0
 24
0.0
 34
0.0
 15
0.0
 25
0.0
 35
0.0
146
0.0
 13
0.0
 23
0.0
 33
0.0
 16
1.0
 26
0.0
 36
0.0
 17
0.0
 27
1.0
 37
0.0
 76
     0
330
23
  0
LAYOUT
  5
22
102
{ACAD_REACTORS
330
1A
102
}
330
1A
100
AcDbPlotSettings
  1

  2
none_device
  4

  6

 40
0.0
 41
0.0
 42
0.0
 43
0.0
 44
0.0
 45
0.0
 46
0.0
 47
0.0
 48
0.0
 49
0.0
140
0.0
141
0.0
142
1.0
143
1.0
 70
  1712
 72
     0
 73
     0
 74
     0
  7

 75
     0
 76
     0
 77
     2
 78
   300
147
1.0
148
0.0
149
0.0
100
AcDbLayout
  1
Model
 70
     1
 71
     0
 10
0.0
 20
0.0
 11
12.0
 21
9.0
 12
0.0
 22
0.0
 32
0.0
 14
1.000000000000000E+20
 24
1.000000000000000E+20
 34
1.000000000000000E+20
 15
-1.000000000000000E+20
 25
-1.000000000000000E+20
 35
-1.000000000000000E+20
146
0.0
 13
0.0
 23
0.0
 33
0.0
 16
1.0
 26
0.0
 36
0.0
 17
0.0
 27
1.0
 37
0.0
 76
     0
330
1F
331
29
  0
MATERIAL
  5
3D
102
{ACAD_REACTORS
330
3B
102
}
330
3B
100
AcDbMaterial
  1
ByBlock
 72
     1
 94
      127
  0
MATERIAL
  5
3C
102
{ACAD_REACTORS
330
3B
102
}
330
3B
100
AcDbMaterial
  1
ByLayer
 72
     1
 94
      127
  0
MATERIAL
  5
3E
102
{ACAD_REACTORS
330
3B
102
}
330
3B
100
AcDbMaterial
  1
Global
 72
     1
 94
      127
  0
MLINESTYLE
  5
18
102
{ACAD_REACTORS
330
17
102
}
330
17
100
AcDbMlineStyle
  2
Standard
 70
     0
  3

 62
   256
 51
90.0
 52
90.0
 71
     2
 49
0.5
 62
   256
  6
BYLAYER
 49
-0.5
 62
   256
  6
BYLAYER
  0
ACDBPLACEHOLDER
  5
F
102
{ACAD_REACTORS
330
E
102
}
330
E
  0
VISUALSTYLE
  5
2F
102
{ACAD_REACTORS
330
2A
102
}
330
2A
100
AcDbVisualStyle
  2
2dWireframe
 70
     4
177
     2
291
     0
 71
     0
176
     1
 72
     2
176
     1
 73
     0
176
     1
 90
        0
176
     1
 40
-0.6
176
     1
 41
-30.0
176
     1
 62
     5
 63
     7
421
 16777215
176
     1
 74
     1
176
     1
 91
        4
176
     1
 64
     7
176
     1
 65
   257
176
     1
 75
     1
176
     1
175
     1
176
     1
 42
1.0
176
     1
 92
        0
176
     1
 66
   257
176
     1
 43
1.0
176
     1
 76
     1
176
     1
 77
     6
176
     1
 78
     2
176
     1
 67
     7
176
     1
 79
     5
176
     1
170
     0
176
     1
171
     0
176
     1
290
     0
176
     1
 93
        1
176
     1
 44
0.0
176
     1
173
     0
176
     1
  0
VISUALSTYLE
  5
31
102
{ACAD_REACTORS
330
2A
102
}
330
2A
100
AcDbVisualStyle
  2
3D Hidden
 70
     6
177
     2
291
     0
 71
     1
176
     1
 72
     2
176
     1
 73
     2
176
     1
 90
        0
176
     1
 40
-0.6
176
     1
 41
-30.0
176
     1
 62
     5
 63
     7
421
 16777215
176
     1
 74
     2
176
     1
 91
        2
176
     1
 64
     7
176
     1
 65
   257
176
     1
 75
     2
176
     1
175
     1
176
     1
 42
40.0
176
     1
 92
        0
176
     1
 66
   257
176
     1
 43
1.0
176
     1
 76
     1
176
     1
 77
     6
176
     1
 78
     2
176
     1
 67
     7
176
     1
 79
     3
176
     1
170
     0
176
     1
171
     0
176
     1
290
     0
176
     1
 93
        1
176
     1
 44
0.0
176
     1
173
     0
176
     1
  0
VISUALSTYLE
  5
30
102
{ACAD_REACTORS
330
2A
102
}
330
2A
100
AcDbVisualStyle
  2
3dWireframe
 70
     5
177
     2
291
     0
 71
     0
176
     1
 72
     2
176
     1
 73
     0
176
     1
 90
        0
176
     1
 40
-0.6
176
     1
 41
-30.0
176
     1
 62
     5
 63
     7
421
 16777215
176
     1
 74
     1
176
     1
 91
        4
176
     1
 64
     7
176
     1
 65
   257
176
     1
 75
     1
176
     1
175
     1
176
     1
 42
1.0
176
     1
 92
        0
176
     1
 66
   257
176
     1
 43
1.0
176
     1
 76
     1
176
     1
 77
     6
176
     1
 78
     2
176
     1
 67
     7
176
     1
 79
     5
176
     1
170
     0
176
     1
171
     0
176
     1
290
     0
176
     1
 93
        1
176
     1
 44
0.0
176
     1
173
     0
176
     1
  0
VISUALSTYLE
  5
32
102
{ACAD_REACTORS
330
2A
102
}
330
2A
100
AcDbVisualStyle
  2
Basic
 70
     7
177
     2
291
     1
 71
     1
176
     1
 72
     0
176
     1
 73
     1
176
     1
 90
        0
176
     1
 40
-0.6
176
     1
 41
-30.0
176
     1
 62
     5
 63
     7
421
 16777215
176
     1
 74
     0
176
     1
 91
        4
176
     1
 64
     7
176
     1
 65
   257
176
     1
 75
     1
176
     1
175
     1
176
     1
 42
1.0
176
     1
 92
        8
176
     1
 66
     7
176
     1
 43
1.0
176
     1
 76
     1
176
     1
 77
     6
176
     1
 78
     2
176
     1
 67
     7
176
     1
 79
     5
176
     1
170
     0
176
     1
171
     0
176
     1
290
     0
176
     1
 93
        1
176
     1
 44
0.0
176
     1
173
     0
176
     1
  0
VISUALSTYLE
  5
36
102
{ACAD_REACTORS
330
2A
102
}
330
2A
100
AcDbVisualStyle
  2
Brighten
 70
    12
177
     2
291
     1
 71
     2
176
     1
 72
     2
176
     1
 73
     0
176
     1
 90
        0
176
     1
 40
-0.6
176
     1
 41
-30.0
176
     1
 62
     5
 63
     7
421
 16777215
176
     1
 74
     1
176
     1
 91
        4
176
     1
 64
     7
176
     1
 65
   257
176
     1
 75
     1
176
     1
175
     1
176
     1
 42
1.0
176
     1
 92
        8
176
     1
 66
     7
176
     1
 43
1.0
176
     1
 76
     1
176
     1
 77
     6
176
     1
 78
     2
176
     1
 67
     7
176
     1
 79
     5
176
     1
170
     0
176
     1
171
     0
176
     1
290
     0
176
     1
 93
        1
176
     1
 44
50.0
176
     1
173
     0
176
     1
  0
VISUALSTYLE
  5
3A
102
{ACAD_REACTORS
330
2A
102
}
330
2A
100
AcDbVisualStyle
  2
ColorChange
 70
    16
177
     2
291
     1
 71
     2
176
     1
 72
     2
176
     1
 73
     3
176
     1
 90
        0
176
     1
 40
-0.6
176
     1
 41
-30.0
176
     1
 62
     5
 63
     8
421
  8421504
176
     1
 74
     1
176
     1
 91
        4
176
     1
 64
     7
176
     1
 65
   257
176
     1
 75
     1
176
     1
175
     1
176
     1
 42
1.0
176
     1
 92
        8
176
     1
 66
     8
424
  8421504
176
     1
 43
1.0
176
     1
 76
     1
176
     1
 77
     6
176
     1
 78
     2
176
     1
 67
     7
176
     1
 79
     5
176
     1
170
     0
176
     1
171
     0
176
     1
290
     0
176
     1
 93
        1
176
     1
 44
0.0
176
     1
173
     0
176
     1
  0
VISUALSTYLE
  5
34
102
{ACAD_REACTORS
330
2A
102
}
330
2A
100
AcDbVisualStyle
  2
Conceptual
 70
     9
177
     2
291
     0
 71
     3
176
     1
 72
     2
176
     1
 73
     0
176
     1
 90
        0
176
     1
 40
-0.6
176
     1
 41
-30.0
176
     1
 62
     5
 63
     7
421
 16777215
176
     1
 74
     2
176
     1
 91
        2
176
     1
 64
     7
176
     1
 65
   257
176
     1
 75
     1
176
     1
175
     1
176
     1
 42
40.0
176
     1
 92
        8
176
     1
 66
     7
176
     1
 43
1.0
176
     1
 76
     1
176
     1
 77
     6
176
     1
 78
     2
176
     1
 67
     7
176
     1
 79
     3
176
     1
170
     0
176
     1
171
     0
176
     1
290
     0
176
     1
 93
        1
176
     1
 44
0.0
176
     1
173
     0
176
     1
  0
VISUALSTYLE
  5
35
102
{ACAD_REACTORS
330
2A
102
}
330
2A
100
AcDbVisualStyle
  2
Dim
 70
    11
177
     2
291
     1
 71
     2
176
     1
 72
     2
176
     1
 73
     0
176
     1
 90
        0
176
     1
 40
-0.6
176
     1
 41
-30.0
176
     1
 62
     5
 63
     7
421
 16777215
176
     1
 74
     1
176
     1
 91
        4
176
     1
 64
     7
176
     1
 65
   257
176
     1
 75
     1
176
     1
175
     1
176
     1
 42
1.0
176
     1
 92
        8
176
     1
 66
     7
176
     1
 43
1.0
176
     1
 76
     1
176
     1
 77
     6
176
     1
 78
     2
176
     1
 67
     7
176
     1
 79
     5
176
     1
170
     0
176
     1
171
     0
176
     1
290
     0
176
     1
 93
        1
176
     1
 44
-50.0
176
     1
173
     0
176
     1
  0
VISUALSTYLE
  5
39
102
{ACAD_REACTORS
330
2A
102
}
330
2A
100
AcDbVisualStyle
  2
Facepattern
 70
    15
177
     2
291
     1
 71
     2
176
     1
 72
     2
176
     1
 73
     0
176
     1
 90
        0
176
     1
 40
-0.6
176
     1
 41
-30.0
176
     1
 62
     5
 63
     7
421
 16777215
176
     1
 74
     1
176
     1
 91
        4
176
     1
 64
     7
176
     1
 65
   257
176
     1
 75
     1
176
     1
175
     1
176
     1
 42
1.0
176
     1
 92
        8
176
     1
 66
     7
176
     1
 43
1.0
176
     1
 76
     1
176
     1
 77
     6
176
     1
 78
     2
176
     1
 67
     7
176
     1
 79
     5
176
     1
170
     0
176
     1
171
     0
176
     1
290
     0
176
     1
 93
        1
176
     1
 44
0.0
176
     1
173
     0
176
     1
  0
VISUALSTYLE
  5
2B
102
{ACAD_REACTORS
330
2A
102
}
330
2A
100
AcDbVisualStyle
  2
Flat
 70
     0
177
     2
291
     1
 71
     2
176
     1
 72
     1
176
     1
 73
     1
176
     1
 90
        2
176
     1
 40
-0.6
176
     1
 41
30.0
176
     1
 62
     5
 63
     7
421
 16777215
176
     1
 74
     0
176
     1
 91
        4
176
     1
 64
     7
176
     1
 65
   257
176
     1
 75
     1
176
     1
175
     1
176
     1
 42
1.0
176
     1
 92
        8
176
     1
 66
     7
176
     1
 43
1.0
176
     1
 76
     1
176
     1
 77
     6
176
     1
 78
     2
176
     1
 67
     7
176
     1
 79
     5
176
     1
170
     0
176
     1
171
     0
176
     1
290
     0
176
     1
 93
       13
176
     1
 44
0.0
176
     1
173
     0
176
     1
  0
VISUALSTYLE
  5
2C
102
{ACAD_REACTORS
330
2A
102
}
330
2A
100
AcDbVisualStyle
  2
FlatWithEdges
 70
     1
177
     2
291
     1
 71
     2
176
     1
 72
     1
176
     1
 73
     1
176
     1
 90
        2
176
     1
 40
-0.6
176
     1
 41
30.0
176
     1
 62
     5
 63
     7
421
 16777215
176
     1
 74
     1
176
     1
 91
        4
176
     1
 64
     7
176
     1
 65
   257
176
     1
 75
     1
176
     1
175
     1
176
     1
 42
1.0
176
     1
 92
        0
176
     1
 66
   257
176
     1
 43
1.0
176
     1
 76
     1
176
     1
 77
     6
176
     1
 78
     2
176
     1
 67
     7
176
     1
 79
     5
176
     1
170
     0
176
     1
171
     0
176
     1
290
     0
176
     1
 93
       13
176
     1
 44
0.0
176
     1
173
     0
176
     1
  0
VISUALSTYLE
  5
2D
102
{ACAD_REACTORS
330
2A
102
}
330
2A
100
AcDbVisualStyle
  2
Gouraud
 70
     2
177
     2
291
     1
 71
     2
176
     1
 72
     2
176
     1
 73
     1
176
     1
 90
        2
176
     1
 40
-0.6
176
     1
 41
30.0
176
     1
 62
     5
 63
     7
421
 16777215
176
     1
 74
     0
176
     1
 91
        4
176
     1
 64
     7
176
     1
 65
   257
176
     1
 75
     1
176
     1
175
     1
176
     1
 42
1.0
176
     1
 92
        0
176
     1
 66
     7
176
     1
 43
1.0
176
     1
 76
     1
176
     1
 77
     6
176
     1
 78
     2
176
     1
 67
     7
176
     1
 79
     5
176
     1
170
     0
176
     1
171
     0
176
     1
290
     0
176
     1
 93
       13
176
     1
 44
0.0
176
     1
173
     0
176
     1
  0
VISUALSTYLE
  5
2E
102
{ACAD_REACTORS
330
2A
102
}
330
2A
100
AcDbVisualStyle
  2
GouraudWithEdges
 70
     3
177
     2
291
     1
 71
     2
176
     1
 72
     2
176
     1
 73
     1
176
     1
 90
        2
176
     1
 40
-0.6
176
     1
 41
30.0
176
     1
 62
     5
 63
     7
421
 16777215
176
     1
 74
     1
176
     1
 91
        4
176
     1
 64
     7
176
     1
 65
   257
176
     1
 75
     1
176
     1
175
     1
176
     1
 42
1.0
176
     1
 92
        0
176
     1
 66
   257
176
     1
 43
1.0
176
     1
 76
     1
176
     1
 77
     6
176
     1
 78
     2
176
     1
 67
     7
176
     1
 79
     5
176
     1
170
     0
176
     1
171
     0
176
     1
290
     0
176
     1
 93
       13
176
     1
 44
0.0
176
     1
173
     0
176
     1
  0
VISUALSTYLE
  5
38
102
{ACAD_REACTORS
330
2A
102
}
330
2A
100
AcDbVisualStyle
  2
Linepattern
 70
    14
177
     2
291
     1
 71
     2
176
     1
 72
     2
176
     1
 73
     0
176
     1
 90
        0
176
     1
 40
-0.6
176
     1
 41
-30.0
176
     1
 62
     5
 63
     7
421
 16777215
176
     1
 74
     1
176
     1
 91
        4
176
     1
 64
     7
176
     1
 65
   257
176
     1
 75
     7
176
     1
175
     7
176
     1
 42
1.0
176
     1
 92
        8
176
     1
 66
     7
176
     1
 43
1.0
176
     1
 76
     1
176
     1
 77
     6
176
     1
 78
     2
176
     1
 67
     7
176
     1
 79
     5
176
     1
170
     0
176
     1
171
     0
176
     1
290
     0
176
     1
 93
        1
176
     1
 44
0.0
176
     1
173
     0
176
     1
  0
VISUALSTYLE
  5
33
102
{ACAD_REACTORS
330
2A
102
}
330
2A
100
AcDbVisualStyle
  2
Realistic
 70
     8
177
     2
291
     0
 71
     2
176
     1
 72
     2
176
     1
 73
     0
176
     1
 90
        0
176
     1
 40
-0.6
176
     1
 41
-30.0
176
     1
 62
     5
 63
     7
421
 16777215
176
     1
 74
     1
176
     1
 91
        0
176
     1
 64
     7
176
     1
 65
   257
176
     1
 75
     1
176
     1
175
     1
176
     1
 42
1.0
176
     1
 92
        8
176
     1
 66
     8
424
  7895160
176
     1
 43
1.0
176
     1
 76
     1
176
     1
 77
     6
176
     1
 78
     2
176
     1
 67
     7
176
     1
 79
     5
176
     1
170
     0
176
     1
171
     0
176
     1
290
     0
176
     1
 93
       13
176
     1
 44
0.0
176
     1
173
     0
176
     1
  0
VISUALSTYLE
  5
37
102
{ACAD_REACTORS
330
2A
102
}
330
2A
100
AcDbVisualStyle
  2
Thicken
 70
    13
177
     2
291
     1
 71
     2
176
     1
 72
     2
176
     1
 73
     0
176
     1
 90
        0
176
     1
 40
-0.6
176
     1
 41
-30.0
176
     1
 62
     5
 63
     7
421
 16777215
176
     1
 74
     1
176
     1
 91
        4
176
     1
 64
     7
176
     1
 65
   257
176
     1
 75
     1
176
     1
175
     1
176
     1
 42
1.0
176
     1
 92
       12
176
     1
 66
     7
176
     1
 43
1.0
176
     1
 76
     1
176
     1
 77
     6
176
     1
 78
     2
176
     1
 67
     7
176
     1
 79
     5
176
     1
170
     0
176
     1
171
     0
176
     1
290
     0
176
     1
 93
        1
176
     1
 44
0.0
176
     1
173
     0
176
     1
  0
ENDSEC
  0
EOF
