  0
SECTION
  2
HEADER
  9
$ACADVER
  1
AC1014
  9
$ACADMAINTVER
 70
     9
  9
$DWGCODEPAGE
  3
UNDEFINED
  9
$INSBASE
 10
0.0
 20
0.0
 30
0.0
  9
$EXTMIN
 10
1.000000000000000E+20
 20
1.000000000000000E+20
 30
1.000000000000000E+20
  9
$EXTMAX
 10
-1.000000000000000E+20
 20
-1.000000000000000E+20
 30
-1.000000000000000E+20
  9
$LIMMIN
 10
0.0
 20
0.0
  9
$LIMMAX
 10
12.0
 20
9.0
  9
$ORTHOMODE
 70
     0
  9
$REGENMODE
 70
     1
  9
$FILLMODE
 70
     1
  9
$QTEXTMODE
 70
     0
  9
$MIRRTEXT
 70
     1
  9
$DRAGMODE
 70
     2
  9
$LTSCALE
 40
1.0
  9
$OSMODE
 70
    37
  9
$ATTMODE
 70
     1
  9
$TEXTSIZE
 40
0.2
  9
$TRACEWID
 40
0.05
  9
$TEXTSTYLE
  7
STANDARD
  9
$CLAYER
  8
0
  9
$CELTYPE
  6
BYLAYER
  9
$CECOLOR
 62
   256
  9
$CELTSCALE
 40
1.0
  9
$DELOBJ
 70
     1
  9
$DISPSILH
 70
     0
  9
$DIMSCALE
 40
1.0
  9
$DIMASZ
 40
0.18
  9
$DIMEXO
 40
0.0625
  9
$DIMDLI
 40
0.38
  9
$DIMRND
 40
0.0
  9
$DIMDLE
 40
0.0
  9
$DIMEXE
 40
0.18
  9
$DIMTP
 40
0.0
  9
$DIMTM
 40
0.0
  9
$DIMTXT
 40
0.18
  9
$DIMCEN
 40
0.09
  9
$DIMTSZ
 40
0.0
  9
$DIMTOL
 70
     0
  9
$DIMLIM
 70
     0
  9
$DIMTIH
 70
     1
  9
$DIMTOH
 70
     1
  9
$DIMSE1
 70
     0
  9
$DIMSE2
 70
     0
  9
$DIMTAD
 70
     0
  9
$DIMZIN
 70
     0
  9
$DIMBLK
  1

  9
$DIMASO
 70
     1
  9
$DIMSHO
 70
     1
  9
$DIMPOST
  1

  9
$DIMAPOST
  1

  9
$DIMALT
 70
     0
  9
$DIMALTD
 70
     2
  9
$DIMALTF
 40
25.4
  9
$DIMLFAC
 40
1.0
  9
$DIMTOFL
 70
     0
  9
$DIMTVP
 40
0.0
  9
$DIMTIX
 70
     0
  9
$DIMSOXD
 70
     0
  9
$DIMSAH
 70
     0
  9
$DIMBLK1
  1

  9
$DIMBLK2
  1

  9
$DIMSTYLE
  2
STANDARD
  9
$DIMCLRD
 70
     0
  9
$DIMCLRE
 70
     0
  9
$DIMCLRT
 70
     0
  9
$DIMTFAC
 40
1.0
  9
$DIMGAP
 40
0.09
  9
$DIMJUST
 70
     0
  9
$DIMSD1
 70
     0
  9
$DIMSD2
 70
     0
  9
$DIMTOLJ
 70
     1
  9
$DIMTZIN
 70
     0
  9
$DIMALTZ
 70
     0
  9
$DIMALTTZ
 70
     0
  9
$DIMFIT
 70
     3
  9
$DIMUPT
 70
     0
  9
$DIMUNIT
 70
     2
  9
$DIMDEC
 70
     4
  9
$DIMTDEC
 70
     4
  9
$DIMALTU
 70
     2
  9
$DIMALTTD
 70
     2
  9
$DIMTXSTY
  7
STANDARD
  9
$DIMAUNIT
 70
     0
  9
$LUNITS
 70
     2
  9
$LUPREC
 70
     4
  9
$SKETCHINC
 40
0.1
  9
$FILLETRAD
 40
0.5
  9
$AUNITS
 70
     0
  9
$AUPREC
 70
     0
  9
$MENU
  1
.
  9
$ELEVATION
 40
0.0
  9
$PELEVATION
 40
0.0
  9
$THICKNESS
 40
0.0
  9
$LIMCHECK
 70
     0
  9
$CHAMFERA
 40
0.5
  9
$CHAMFERB
 40
0.5
  9
$CHAMFERC
 40
1.0
  9
$CHAMFERD
 40
0.0
  9
$SKPOLY
 70
     0
  9
$TDCREATE
 40
2457955.782418982
  9
$TDUPDATE
 40
2457955.782418982
  9
$TDINDWG
 40
0.0000000116
  9
$TDUSRTIMER
 40
0.0000000116
  9
$USRTIMER
 70
     1
  9
$ANGBASE
 50
0.0
  9
$ANGDIR
 70
     0
  9
$PDMODE
 70
     0
  9
$PDSIZE
 40
0.0
  9
$PLINEWID
 40
0.0
  9
$COORDS
 70
     1
  9
$SPLFRAME
 70
     0
  9
$SPLINETYPE
 70
     6
  9
$SPLINESEGS
 70
     8
  9
$ATTDIA
 70
     0
  9
$ATTREQ
 70
     1
  9
$HANDLING
 70
     1
  9
$HANDSEED
  5
1ED
  9
$SURFTAB1
 70
     6
  9
$SURFTAB2
 70
     6
  9
$SURFTYPE
 70
     6
  9
$SURFU
 70
     6
  9
$SURFV
 70
     6
  9
$UCSNAME
  2

  9
$UCSORG
 10
0.0
 20
0.0
 30
0.0
  9
$UCSXDIR
 10
1.0
 20
0.0
 30
0.0
  9
$UCSYDIR
 10
0.0
 20
1.0
 30
0.0
  9
$PUCSNAME
  2

  9
$PUCSORG
 10
0.0
 20
0.0
 30
0.0
  9
$PUCSXDIR
 10
1.0
 20
0.0
 30
0.0
  9
$PUCSYDIR
 10
0.0
 20
1.0
 30
0.0
  9
$USERI1
 70
     0
  9
$USERI2
 70
     0
  9
$USERI3
 70
     0
  9
$USERI4
 70
     0
  9
$USERI5
 70
     0
  9
$USERR1
 40
0.0
  9
$USERR2
 40
0.0
  9
$USERR3
 40
0.0
  9
$USERR4
 40
0.0
  9
$USERR5
 40
0.0
  9
$WORLDVIEW
 70
     1
  9
$SHADEDGE
 70
     3
  9
$SHADEDIF
 70
    70
  9
$TILEMODE
 70
     1
  9
$MAXACTVP
 70
    64
  9
$PINSBASE
 10
0.0
 20
0.0
 30
0.0
  9
$PLIMCHECK
 70
     0
  9
$PEXTMIN
 10
1.000000000000000E+20
 20
1.000000000000000E+20
 30
1.000000000000000E+20
  9
$PEXTMAX
 10
-1.000000000000000E+20
 20
-1.000000000000000E+20
 30
-1.000000000000000E+20
  9
$PLIMMIN
 10
0.0
 20
0.0
  9
$PLIMMAX
 10
12.0
 20
9.0
  9
$UNITMODE
 70
     0
  9
$VISRETAIN
 70
     1
  9
$PLINEGEN
 70
     0
  9
$PSLTSCALE
 70
     1
  9
$TREEDEPTH
 70
  3020
  9
$PICKSTYLE
 70
     1
  9
$CMLSTYLE
  2
STANDARD
  9
$CMLJUST
 70
     0
  9
$CMLSCALE
 40
1.0
  9
$PROXYGRAPHICS
 70
     1
  9
$MEASUREMENT
 70
     0
  0
ENDSEC
  0
SECTION
  2
CLASSES
  0
CLASS
  1
ACDBDICTIONARYWDFLT
  2
AcDbDictionaryWithDefault
  3
ObjectDBX Classes
 90
        0
280
     0
281
     0
  0
CLASS
  1
VISUALSTYLE
  2
AcDbVisualStyle
  3
ObjectDBX Classes
 90
     4095
280
     0
281
     0
  0
CLASS
  1
MATERIAL
  2
AcDbMaterial
  3
ObjectDBX Classes
 90
     1153
280
     0
281
     0
  0
CLASS
  1
SUN
  2
AcDbSun
  3
SCENEOE
 90
     1024
280
     0
281
     0
  0
CLASS
  1
DICTIONARYVAR
  2
AcDbDictionaryVar
  3
ObjectDBX Classes
 90
        0
280
     0
281
     0
  0
CLASS
  1
XRECORD
  2
AcDbXrecord
  3
AutoCAD 2000
 90
        0
280
     0
281
     0
  0
CLASS
  1
LWPOLYLINE
  2
AcDbPolyline
  3
AutoCAD 2000
 90
        0
280
     0
281
     1
  0
CLASS
  1
HATCH
  2
AcDbHatch
  3
AutoCAD 2000
 90
        0
280
     0
281
     1
  0
CLASS
  1
ACDBPLACEHOLDER
  2
AcDbPlaceHolder
  3
ObjectDBX Classes
 90
        0
280
     0
281
     0
  0
CLASS
  1
LAYOUT
  2
AcDbLayout
  3
ObjectDBX Classes
 90
        0
280
     0
281
     0
  0
ENDSEC
  0
SECTION
  2
TABLES
  0
TABLE
  2
VPORT
  5
8
330
0
100
AcDbSymbolTable
 70
     1
  0
VPORT
  5
29
330
8
100
AcDbSymbolTableRecord
100
AcDbViewportTableRecord
  2
*ACTIVE
 70
     0
 10
0.0
 20
0.0
 11
1.0
 21
1.0
 12
0.0
 22
0.0
 13
0.0
 23
0.0
 14
0.5
 24
0.5
 15
0.5
 25
0.5
 16
0.0
 26
0.0
 36
1.0
 17
103.7166666407375
 27
258.0176727104318
 37
0.0
 40
77.96388886939792
 41
1.398190045248869
 42
50.0
 43
0.0
 44
0.0
 50
0.0
 51
0.0
 71
     0
 72
   100
 73
     1
 74
     3
 75
     0
 76
     0
 77
     0
 78
     0
  0
ENDTAB
  0
TABLE
  2
LTYPE
  5
5
330
0
100
AcDbSymbolTable
 70
     1
  0
LTYPE
  5
14
330
5
100
AcDbSymbolTableRecord
100
AcDbLinetypeTableRecord
  2
BYBLOCK
 70
     0
  3

 72
    65
 73
     0
 40
0.0
  0
LTYPE
  5
15
330
5
100
AcDbSymbolTableRecord
100
AcDbLinetypeTableRecord
  2
BYLAYER
 70
     0
  3

 72
    65
 73
     0
 40
0.0
  0
LTYPE
  5
16
330
5
100
AcDbSymbolTableRecord
100
AcDbLinetypeTableRecord
  2
CONTINUOUS
 70
     0
  3
Solid line
 72
    65
 73
     0
 40
0.0
  0
ENDTAB
  0
TABLE
  2
LAYER
  5
2
330
0
100
AcDbSymbolTable
 70
     6
  0
LAYER
  5
10
330
2
100
AcDbSymbolTableRecord
100
AcDbLayerTableRecord
  2
0
 70
     0
 62
     7
  6
CONTINUOUS
  0
LAYER
  5
40
330
2
100
AcDbSymbolTableRecord
100
AcDbLayerTableRecord
  2
WAKU
 70
     4
 62
     7
  6
CONTINUOUS
  0
LAYER
  5
4F
330
2
100
AcDbSymbolTableRecord
100
AcDbLayerTableRecord
  2
_U_30EC_U_30A4_U_30E4_U_30
 70
     4
 62
     7
  6
CONTINUOUS
  0
LAYER
  5
50
330
2
100
AcDbSymbolTableRecord
100
AcDbLayerTableRecord
  2
_U_30EC_U_30A4_U_30E4_U_31
 70
     4
 62
     7
  6
CONTINUOUS
  0
LAYER
  5
51
330
2
100
AcDbSymbolTableRecord
100
AcDbLayerTableRecord
  2
_U_30EC_U_30A4_U_30E4_U_32
 70
     0
 62
     7
  6
CONTINUOUS
  0
LAYER
  5
1B9
330
2
100
AcDbSymbolTableRecord
100
AcDbLayerTableRecord
  2
TOP
 70
     4
 62
     7
  6
CONTINUOUS
  0
ENDTAB
  0
TABLE
  2
STYLE
  5
3
330
0
100
AcDbSymbolTable
 70
     1
  0
STYLE
  5
11
330
3
100
AcDbSymbolTableRecord
100
AcDbTextStyleTableRecord
  2
STANDARD
 70
     0
 40
0.0
 41
1.0
 50
0.0
 71
     0
 42
0.2
  3
txt
  4

  0
ENDTAB
  0
TABLE
  2
VIEW
  5
6
330
0
100
AcDbSymbolTable
 70
     0
  0
ENDTAB
  0
TABLE
  2
UCS
  5
7
330
0
100
AcDbSymbolTable
 70
     0
  0
ENDTAB
  0
TABLE
  2
APPID
  5
9
330
0
100
AcDbSymbolTable
 70
     1
  0
APPID
  5
12
330
9
100
AcDbSymbolTableRecord
100
AcDbRegAppTableRecord
  2
ACAD
 70
     0
  0
ENDTAB
  0
TABLE
  2
DIMSTYLE
  5
A
330
0
100
AcDbSymbolTable
 70
     1
  0
DIMSTYLE
105
27
330
A
100
AcDbSymbolTableRecord
100
AcDbDimStyleTableRecord
  2
STANDARD
 70
     0
  3

  4

  5

  6

  7

 40
1.0
 41
0.18
 42
0.0625
 43
0.38
 44
0.18
 45
0.0
 46
0.0
 47
0.0
 48
0.0
140
0.18
141
0.09
142
0.0
143
25.4
144
1.0
145
0.0
146
1.0
147
0.09
 71
     0
 72
     0
 73
     1
 74
     1
 75
     0
 76
     0
 77
     0
 78
     0
170
     0
171
     2
172
     0
173
     0
174
     0
175
     0
176
     0
177
     0
178
     0
270
     2
271
     4
272
     4
273
     2
274
     2
340
11
275
     0
280
     0
281
     0
282
     0
283
     1
284
     0
285
     0
286
     0
287
     3
288
     0
  0
ENDTAB
  0
TABLE
  2
BLOCK_RECORD
  5
1
330
0
100
AcDbSymbolTable
 70
    29
  0
BLOCK_RECORD
  5
1F
330
1
100
AcDbSymbolTableRecord
100
AcDbBlockTableRecord
  2
*MODEL_SPACE
  0
BLOCK_RECORD
  5
1B
330
1
100
AcDbSymbolTableRecord
100
AcDbBlockTableRecord
  2
*PAPER_SPACE
  0
BLOCK_RECORD
  5
52
330
1
100
AcDbSymbolTableRecord
100
AcDbBlockTableRecord
  2
BLOCK_2
  0
BLOCK_RECORD
  5
56
330
1
100
AcDbSymbolTableRecord
100
AcDbBlockTableRecord
  2
BLOCK_3
  0
BLOCK_RECORD
  5
5A
330
1
100
AcDbSymbolTableRecord
100
AcDbBlockTableRecord
  2
BLOCK_4
  0
BLOCK_RECORD
  5
60
330
1
100
AcDbSymbolTableRecord
100
AcDbBlockTableRecord
  2
BLOCK_5
  0
BLOCK_RECORD
  5
105
330
1
100
AcDbSymbolTableRecord
100
AcDbBlockTableRecord
  2
BLOCK_6
  0
BLOCK_RECORD
  5
116
330
1
100
AcDbSymbolTableRecord
100
AcDbBlockTableRecord
  2
BLOCK_7
  0
BLOCK_RECORD
  5
11B
330
1
100
AcDbSymbolTableRecord
100
AcDbBlockTableRecord
  2
BLOCK_8
  0
BLOCK_RECORD
  5
120
330
1
100
AcDbSymbolTableRecord
100
AcDbBlockTableRecord
  2
BLOCK_9
  0
BLOCK_RECORD
  5
125
330
1
100
AcDbSymbolTableRecord
100
AcDbBlockTableRecord
  2
BLOCK_10
  0
BLOCK_RECORD
  5
136
330
1
100
AcDbSymbolTableRecord
100
AcDbBlockTableRecord
  2
BLOCK_11
  0
BLOCK_RECORD
  5
13B
330
1
100
AcDbSymbolTableRecord
100
AcDbBlockTableRecord
  2
BLOCK_12
  0
BLOCK_RECORD
  5
140
330
1
100
AcDbSymbolTableRecord
100
AcDbBlockTableRecord
  2
BLOCK_13
  0
BLOCK_RECORD
  5
145
330
1
100
AcDbSymbolTableRecord
100
AcDbBlockTableRecord
  2
BLOCK_14
  0
BLOCK_RECORD
  5
152
330
1
100
AcDbSymbolTableRecord
100
AcDbBlockTableRecord
  2
BLOCK_15
  0
BLOCK_RECORD
  5
157
330
1
100
AcDbSymbolTableRecord
100
AcDbBlockTableRecord
  2
BLOCK_16
  0
BLOCK_RECORD
  5
15C
330
1
100
AcDbSymbolTableRecord
100
AcDbBlockTableRecord
  2
BLOCK_17
  0
BLOCK_RECORD
  5
161
330
1
100
AcDbSymbolTableRecord
100
AcDbBlockTableRecord
  2
BLOCK_18
  0
BLOCK_RECORD
  5
16E
330
1
100
AcDbSymbolTableRecord
100
AcDbBlockTableRecord
  2
BLOCK_19
  0
BLOCK_RECORD
  5
173
330
1
100
AcDbSymbolTableRecord
100
AcDbBlockTableRecord
  2
BLOCK_20
  0
BLOCK_RECORD
  5
178
330
1
100
AcDbSymbolTableRecord
100
AcDbBlockTableRecord
  2
BLOCK_21
  0
BLOCK_RECORD
  5
17D
330
1
100
AcDbSymbolTableRecord
100
AcDbBlockTableRecord
  2
BLOCK_22
  0
BLOCK_RECORD
  5
18E
330
1
100
AcDbSymbolTableRecord
100
AcDbBlockTableRecord
  2
BLOCK_23
  0
BLOCK_RECORD
  5
193
330
1
100
AcDbSymbolTableRecord
100
AcDbBlockTableRecord
  2
BLOCK_24
  0
BLOCK_RECORD
  5
198
330
1
100
AcDbSymbolTableRecord
100
AcDbBlockTableRecord
  2
BLOCK_25
  0
BLOCK_RECORD
  5
19D
330
1
100
AcDbSymbolTableRecord
100
AcDbBlockTableRecord
  2
BLOCK_26
  0
BLOCK_RECORD
  5
1AA
330
1
100
AcDbSymbolTableRecord
100
AcDbBlockTableRecord
  2
BLOCK_27
  0
BLOCK_RECORD
  5
1AF
330
1
100
AcDbSymbolTableRecord
100
AcDbBlockTableRecord
  2
BLOCK_28
  0
BLOCK_RECORD
  5
1B4
330
1
100
AcDbSymbolTableRecord
100
AcDbBlockTableRecord
  2
BLOCK_29
  0
ENDTAB
  0
ENDSEC
  0
SECTION
  2
BLOCKS
  0
BLOCK
  5
20
330
1F
100
AcDbEntity
  8
0
100
AcDbBlockBegin
  2
*MODEL_SPACE
 70
     0
 10
0.0
 20
0.0
 30
0.0
  3
*MODEL_SPACE
  1

  0
ENDBLK
  5
21
330
1F
100
AcDbEntity
  8
0
100
AcDbBlockEnd
  0
BLOCK
  5
1C
330
1B
100
AcDbEntity
 67
     1
  8
0
100
AcDbBlockBegin
  2
*PAPER_SPACE
 70
     0
 10
0.0
 20
0.0
 30
0.0
  3
*PAPER_SPACE
  1

  0
ENDBLK
  5
1D
330
1B
100
AcDbEntity
 67
     1
  8
0
100
AcDbBlockEnd
  0
BLOCK
  5
54
330
52
100
AcDbEntity
  8
0
100
AcDbBlockBegin
  2
BLOCK_2
 70
     0
 10
0.0
 20
0.0
 30
0.0
  3
BLOCK_2
  1

  0
ENDBLK
  5
55
330
52
100
AcDbEntity
  8
0
100
AcDbBlockEnd
  0
BLOCK
  5
58
330
56
100
AcDbEntity
  8
0
100
AcDbBlockBegin
  2
BLOCK_3
 70
     0
 10
0.0
 20
0.0
 30
0.0
  3
BLOCK_3
  1

  0
ENDBLK
  5
59
330
56
100
AcDbEntity
  8
0
100
AcDbBlockEnd
  0
BLOCK
  5
5C
330
5A
100
AcDbEntity
  8
0
100
AcDbBlockBegin
  2
BLOCK_4
 70
     0
 10
0.0
 20
0.0
 30
0.0
  3
BLOCK_4
  1

  0
ENDBLK
  5
5D
330
5A
100
AcDbEntity
  8
0
100
AcDbBlockEnd
  0
BLOCK
  5
62
330
60
100
AcDbEntity
  8
0
100
AcDbBlockBegin
  2
BLOCK_5
 70
     0
 10
0.0
 20
0.0
 30
0.0
  3
BLOCK_5
  1

  0
POLYLINE
  5
64
330
60
100
AcDbEntity
  8
_U_30EC_U_30A4_U_30E4_U_32
 62
    29
100
AcDb2dPolyline
 66
     1
 10
0.0
 20
0.0
 30
0.0
  0
VERTEX
  5
65
330
64
100
AcDbEntity
  8
_U_30EC_U_30A4_U_30E4_U_32
 62
    29
100
AcDbVertex
100
AcDb2dVertex
 10
82.48196110359538
 20
241.0244486076594
 30
0.0
  0
VERTEX
  5
66
330
64
100
AcDbEntity
  8
_U_30EC_U_30A4_U_30E4_U_32
 62
    29
100
AcDbVertex
100
AcDb2dVertex
 10
88.69636953324392
 20
241.0244486076594
 30
0.0
  0
SEQEND
  5
67
330
64
100
AcDbEntity
  8
_U_30EC_U_30A4_U_30E4_U_32
 62
    29
  0
POLYLINE
  5
68
330
60
100
AcDbEntity
  8
_U_30EC_U_30A4_U_30E4_U_32
 62
    29
100
AcDb2dPolyline
 66
     1
 10
0.0
 20
0.0
 30
0.0
  0
VERTEX
  5
69
330
68
100
AcDbEntity
  8
_U_30EC_U_30A4_U_30E4_U_32
 62
    29
100
AcDbVertex
100
AcDb2dVertex
 10
138.4138293882936
 20
276.7604212735915
 30
0.0
  0
VERTEX
  5
6A
330
68
100
AcDbEntity
  8
_U_30EC_U_30A4_U_30E4_U_32
 62
    29
100
AcDbVertex
100
AcDb2dVertex
 10
138.4138293882936
 20
271.322128767067
 30
0.0
  0
SEQEND
  5
6B
330
68
100
AcDbEntity
  8
_U_30EC_U_30A4_U_30E4_U_32
 62
    29
  0
POLYLINE
  5
6C
330
60
100
AcDbEntity
  8
_U_30EC_U_30A4_U_30E4_U_32
 62
    29
100
AcDb2dPolyline
 66
     1
 10
0.0
 20
0.0
 30
0.0
  0
VERTEX
  5
6D
330
6C
100
AcDbEntity
  8
_U_30EC_U_30A4_U_30E4_U_32
 62
    29
100
AcDbVertex
100
AcDb2dVertex
 10
88.69636953324392
 20
276.7604212735915
 30
0.0
  0
VERTEX
  5
6E
330
6C
100
AcDbEntity
  8
_U_30EC_U_30A4_U_30E4_U_32
 62
    29
100
AcDbVertex
100
AcDb2dVertex
 10
138.4138293882936
 20
276.7604212735915
 30
0.0
  0
SEQEND
  5
6F
330
6C
100
AcDbEntity
  8
_U_30EC_U_30A4_U_30E4_U_32
 62
    29
  0
POLYLINE
  5
70
330
60
100
AcDbEntity
  8
_U_30EC_U_30A4_U_30E4_U_32
 62
    29
100
AcDb2dPolyline
 66
     1
 10
0.0
 20
0.0
 30
0.0
  0
VERTEX
  5
71
330
70
100
AcDbEntity
  8
_U_30EC_U_30A4_U_30E4_U_32
 62
    29
100
AcDbVertex
100
AcDb2dVertex
 10
70.05216207779443
 20
234.811136386943
 30
0.0
  0
VERTEX
  5
72
330
70
100
AcDbEntity
  8
_U_30EC_U_30A4_U_30E4_U_32
 62
    29
100
AcDbVertex
100
AcDb2dVertex
 10
101.12551525522
 20
234.811136386943
 30
0.0
  0
SEQEND
  5
73
330
70
100
AcDbEntity
  8
_U_30EC_U_30A4_U_30E4_U_32
 62
    29
  0
POLYLINE
  5
74
330
60
100
AcDbEntity
  8
_U_30EC_U_30A4_U_30E4_U_32
 62
    29
100
AcDb2dPolyline
 66
     1
 10
0.0
 20
0.0
 30
0.0
  0
VERTEX
  5
75
330
74
100
AcDbEntity
  8
_U_30EC_U_30A4_U_30E4_U_32
 62
    29
100
AcDbVertex
100
AcDb2dVertex
 10
125.9851279844092
 20
241.0244486076594
 30
0.0
  0
VERTEX
  5
76
330
74
100
AcDbEntity
  8
_U_30EC_U_30A4_U_30E4_U_32
 62
    29
100
AcDbVertex
100
AcDb2dVertex
 10
125.9851279844092
 20
234.811136386943
 30
0.0
  0
SEQEND
  5
77
330
74
100
AcDbEntity
  8
_U_30EC_U_30A4_U_30E4_U_32
 62
    29
  0
POLYLINE
  5
78
330
60
100
AcDbEntity
  8
_U_30EC_U_30A4_U_30E4_U_32
 62
    29
100
AcDb2dPolyline
 66
     1
 10
0.0
 20
0.0
 30
0.0
  0
VERTEX
  5
79
330
78
100
AcDbEntity
  8
_U_30EC_U_30A4_U_30E4_U_32
 62
    29
100
AcDbVertex
100
AcDb2dVertex
 10
101.12551525522
 20
241.0244486076594
 30
0.0
  0
VERTEX
  5
7A
330
78
100
AcDbEntity
  8
_U_30EC_U_30A4_U_30E4_U_32
 62
    29
100
AcDbVertex
100
AcDb2dVertex
 10
101.12551525522
 20
234.811136386943
 30
0.0
  0
SEQEND
  5
7B
330
78
100
AcDbEntity
  8
_U_30EC_U_30A4_U_30E4_U_32
 62
    29
  0
POLYLINE
  5
7C
330
60
100
AcDbEntity
  8
_U_30EC_U_30A4_U_30E4_U_32
 62
    29
100
AcDb2dPolyline
 66
     1
 10
0.0
 20
0.0
 30
0.0
  0
VERTEX
  5
7D
330
7C
100
AcDbEntity
  8
_U_30EC_U_30A4_U_30E4_U_32
 62
    29
100
AcDbVertex
100
AcDb2dVertex
 10
144.6292244059796
 20
241.0244486076594
 30
0.0
  0
VERTEX
  5
7E
330
7C
100
AcDbEntity
  8
_U_30EC_U_30A4_U_30E4_U_32
 62
    29
100
AcDbVertex
100
AcDb2dVertex
 10
144.6292244059796
 20
237.9177924973007
 30
0.0
  0
SEQEND
  5
7F
330
7C
100
AcDbEntity
  8
_U_30EC_U_30A4_U_30E4_U_32
 62
    29
  0
POLYLINE
  5
80
330
60
100
AcDbEntity
  8
_U_30EC_U_30A4_U_30E4_U_32
 62
    29
100
AcDb2dPolyline
 66
     1
 10
0.0
 20
0.0
 30
0.0
  0
VERTEX
  5
81
330
80
100
AcDbEntity
  8
_U_30EC_U_30A4_U_30E4_U_32
 62
    29
100
AcDbVertex
100
AcDb2dVertex
 10
138.4138293882936
 20
241.0244486076594
 30
0.0
  0
VERTEX
  5
82
330
80
100
AcDbEntity
  8
_U_30EC_U_30A4_U_30E4_U_32
 62
    29
100
AcDbVertex
100
AcDb2dVertex
 10
144.6292244059796
 20
241.0244486076594
 30
0.0
  0
SEQEND
  5
83
330
80
100
AcDbEntity
  8
_U_30EC_U_30A4_U_30E4_U_32
 62
    29
  0
POLYLINE
  5
84
330
60
100
AcDbEntity
  8
_U_30EC_U_30A4_U_30E4_U_32
 62
    29
100
AcDb2dPolyline
 66
     1
 10
0.0
 20
0.0
 30
0.0
  0
VERTEX
  5
85
330
84
100
AcDbEntity
  8
_U_30EC_U_30A4_U_30E4_U_32
 62
    29
100
AcDbVertex
100
AcDb2dVertex
 10
125.9851279844092
 20
234.811136386943
 30
0.0
  0
VERTEX
  5
86
330
84
100
AcDbEntity
  8
_U_30EC_U_30A4_U_30E4_U_32
 62
    29
100
AcDbVertex
100
AcDb2dVertex
 10
157.0579316443835
 20
234.811136386943
 30
0.0
  0
SEQEND
  5
87
330
84
100
AcDbEntity
  8
_U_30EC_U_30A4_U_30E4_U_32
 62
    29
  0
POLYLINE
  5
88
330
60
100
AcDbEntity
  8
_U_30EC_U_30A4_U_30E4_U_32
 62
    29
100
AcDb2dPolyline
 66
     1
 10
0.0
 20
0.0
 30
0.0
  0
VERTEX
  5
89
330
88
100
AcDbEntity
  8
_U_30EC_U_30A4_U_30E4_U_32
 62
    29
100
AcDbVertex
100
AcDb2dVertex
 10
94.9117645509302
 20
241.0244486076594
 30
0.0
  0
VERTEX
  5
8A
330
88
100
AcDbEntity
  8
_U_30EC_U_30A4_U_30E4_U_32
 62
    29
100
AcDbVertex
100
AcDb2dVertex
 10
101.12551525522
 20
241.0244486076594
 30
0.0
  0
SEQEND
  5
8B
330
88
100
AcDbEntity
  8
_U_30EC_U_30A4_U_30E4_U_32
 62
    29
  0
POLYLINE
  5
8C
330
60
100
AcDbEntity
  8
_U_30EC_U_30A4_U_30E4_U_32
 62
    29
100
AcDb2dPolyline
 66
     1
 10
0.0
 20
0.0
 30
0.0
  0
VERTEX
  5
8D
330
8C
100
AcDbEntity
  8
_U_30EC_U_30A4_U_30E4_U_32
 62
    29
100
AcDbVertex
100
AcDb2dVertex
 10
125.9851279844092
 20
241.0244486076594
 30
0.0
  0
VERTEX
  5
8E
330
8C
100
AcDbEntity
  8
_U_30EC_U_30A4_U_30E4_U_32
 62
    29
100
AcDbVertex
100
AcDb2dVertex
 10
132.2005171675756
 20
241.0244486076594
 30
0.0
  0
SEQEND
  5
8F
330
8C
100
AcDbEntity
  8
_U_30EC_U_30A4_U_30E4_U_32
 62
    29
  0
POLYLINE
  5
90
330
60
100
AcDbEntity
  8
_U_30EC_U_30A4_U_30E4_U_32
 62
    29
100
AcDb2dPolyline
 66
     1
 10
0.0
 20
0.0
 30
0.0
  0
VERTEX
  5
91
330
90
100
AcDbEntity
  8
_U_30EC_U_30A4_U_30E4_U_32
 62
    29
100
AcDbVertex
100
AcDb2dVertex
 10
132.2005171675756
 20
259.2168031632984
 30
0.0
  0
VERTEX
  5
92
330
90
100
AcDbEntity
  8
_U_30EC_U_30A4_U_30E4_U_32
 62
    29
100
AcDbVertex
100
AcDb2dVertex
 10
132.2005171675756
 20
241.0244486076594
 30
0.0
  0
SEQEND
  5
93
330
90
100
AcDbEntity
  8
_U_30EC_U_30A4_U_30E4_U_32
 62
    29
  0
POLYLINE
  5
94
330
60
100
AcDbEntity
  8
_U_30EC_U_30A4_U_30E4_U_32
 62
    29
100
AcDb2dPolyline
 66
     1
 10
0.0
 20
0.0
 30
0.0
  0
VERTEX
  5
95
330
94
100
AcDbEntity
  8
_U_30EC_U_30A4_U_30E4_U_32
 62
    29
100
AcDbVertex
100
AcDb2dVertex
 10
104.2343637834408
 20
270.5450262559049
 30
0.0
  0
VERTEX
  5
96
330
94
100
AcDbEntity
  8
_U_30EC_U_30A4_U_30E4_U_32
 62
    29
100
AcDbVertex
100
AcDb2dVertex
 10
112.3895005044722
 20
270.5450262559049
 30
0.0
  0
SEQEND
  5
97
330
94
100
AcDbEntity
  8
_U_30EC_U_30A4_U_30E4_U_32
 62
    29
  0
POLYLINE
  5
98
330
60
100
AcDbEntity
  8
_U_30EC_U_30A4_U_30E4_U_32
 62
    29
100
AcDb2dPolyline
 66
     1
 10
0.0
 20
0.0
 30
0.0
  0
VERTEX
  5
99
330
98
100
AcDbEntity
  8
_U_30EC_U_30A4_U_30E4_U_32
 62
    29
100
AcDbVertex
100
AcDb2dVertex
 10
135.0010021235163
 20
269.9947293725601
 30
0.0
  0
VERTEX
  5
9A
330
98
100
AcDbEntity
  8
_U_30EC_U_30A4_U_30E4_U_32
 62
    29
100
AcDbVertex
100
AcDb2dVertex
 10
138.4138293882936
 20
271.322128767067
 30
0.0
  0
SEQEND
  5
9B
330
98
100
AcDbEntity
  8
_U_30EC_U_30A4_U_30E4_U_32
 62
    29
  0
POLYLINE
  5
9C
330
60
100
AcDbEntity
  8
_U_30EC_U_30A4_U_30E4_U_32
 62
    29
100
AcDb2dPolyline
 66
     1
 10
0.0
 20
0.0
 30
0.0
  0
VERTEX
  5
9D
330
9C
100
AcDbEntity
  8
_U_30EC_U_30A4_U_30E4_U_32
 62
    29
100
AcDbVertex
100
AcDb2dVertex
 10
135.0010021235163
 20
264.8819012976393
 30
0.0
  0
VERTEX
  5
9E
330
9C
100
AcDbEntity
  8
_U_30EC_U_30A4_U_30E4_U_32
 62
    29
100
AcDbVertex
100
AcDb2dVertex
 10
138.4138293882936
 20
263.5545019031324
 30
0.0
  0
SEQEND
  5
9F
330
9C
100
AcDbEntity
  8
_U_30EC_U_30A4_U_30E4_U_32
 62
    29
  0
POLYLINE
  5
A0
330
60
100
AcDbEntity
  8
_U_30EC_U_30A4_U_30E4_U_32
 62
    29
100
AcDb2dPolyline
 66
     1
 10
0.0
 20
0.0
 30
0.0
  0
VERTEX
  5
A1
330
A0
100
AcDbEntity
  8
_U_30EC_U_30A4_U_30E4_U_32
 62
    29
100
AcDbVertex
100
AcDb2dVertex
 10
138.4138293882936
 20
263.5545019031324
 30
0.0
  0
VERTEX
  5
A2
330
A0
100
AcDbEntity
  8
_U_30EC_U_30A4_U_30E4_U_32
 62
    29
100
AcDbVertex
100
AcDb2dVertex
 10
138.4138293882936
 20
241.0244486076594
 30
0.0
  0
SEQEND
  5
A3
330
A0
100
AcDbEntity
  8
_U_30EC_U_30A4_U_30E4_U_32
 62
    29
  0
POLYLINE
  5
A4
330
60
100
AcDbEntity
  8
_U_30EC_U_30A4_U_30E4_U_32
 62
    29
100
AcDb2dPolyline
 66
     1
 10
0.0
 20
0.0
 30
0.0
  0
VERTEX
  5
A5
330
A4
100
AcDbEntity
  8
_U_30EC_U_30A4_U_30E4_U_32
 62
    29
100
AcDbVertex
100
AcDb2dVertex
 10
88.69636953324392
 20
263.5545019031324
 30
0.0
  0
VERTEX
  5
A6
330
A4
100
AcDbEntity
  8
_U_30EC_U_30A4_U_30E4_U_32
 62
    29
100
AcDbVertex
100
AcDb2dVertex
 10
88.69636953324392
 20
241.0244486076594
 30
0.0
  0
SEQEND
  5
A7
330
A4
100
AcDbEntity
  8
_U_30EC_U_30A4_U_30E4_U_32
 62
    29
  0
POLYLINE
  5
A8
330
60
100
AcDbEntity
  8
_U_30EC_U_30A4_U_30E4_U_32
 62
    29
100
AcDb2dPolyline
 66
     1
 10
0.0
 20
0.0
 30
0.0
  0
VERTEX
  5
A9
330
A8
100
AcDbEntity
  8
_U_30EC_U_30A4_U_30E4_U_32
 62
    29
100
AcDbVertex
100
AcDb2dVertex
 10
92.11018338605966
 20
264.8819012976393
 30
0.0
  0
VERTEX
  5
AA
330
A8
100
AcDbEntity
  8
_U_30EC_U_30A4_U_30E4_U_32
 62
    29
100
AcDbVertex
100
AcDb2dVertex
 10
88.69636953324392
 20
263.5545019031324
 30
0.0
  0
SEQEND
  5
AB
330
A8
100
AcDbEntity
  8
_U_30EC_U_30A4_U_30E4_U_32
 62
    29
  0
POLYLINE
  5
AC
330
60
100
AcDbEntity
  8
_U_30EC_U_30A4_U_30E4_U_32
 62
    29
100
AcDb2dPolyline
 66
     1
 10
0.0
 20
0.0
 30
0.0
  0
VERTEX
  5
AD
330
AC
100
AcDbEntity
  8
_U_30EC_U_30A4_U_30E4_U_32
 62
    29
100
AcDbVertex
100
AcDb2dVertex
 10
92.11018338605966
 20
269.9947293725601
 30
0.0
  0
VERTEX
  5
AE
330
AC
100
AcDbEntity
  8
_U_30EC_U_30A4_U_30E4_U_32
 62
    29
100
AcDbVertex
100
AcDb2dVertex
 10
88.69636953324392
 20
271.322128767067
 30
0.0
  0
SEQEND
  5
AF
330
AC
100
AcDbEntity
  8
_U_30EC_U_30A4_U_30E4_U_32
 62
    29
  0
POLYLINE
  5
B0
330
60
100
AcDbEntity
  8
_U_30EC_U_30A4_U_30E4_U_32
 62
    29
100
AcDb2dPolyline
 66
     1
 10
0.0
 20
0.0
 30
0.0
  0
VERTEX
  5
B1
330
B0
100
AcDbEntity
  8
_U_30EC_U_30A4_U_30E4_U_32
 62
    29
100
AcDbVertex
100
AcDb2dVertex
 10
94.9117645509302
 20
259.2168031632984
 30
0.0
  0
VERTEX
  5
B2
330
B0
100
AcDbEntity
  8
_U_30EC_U_30A4_U_30E4_U_32
 62
    29
100
AcDbVertex
100
AcDb2dVertex
 10
94.9117645509302
 20
241.0244486076594
 30
0.0
  0
SEQEND
  5
B3
330
B0
100
AcDbEntity
  8
_U_30EC_U_30A4_U_30E4_U_32
 62
    29
  0
POLYLINE
  5
B4
330
60
100
AcDbEntity
  8
_U_30EC_U_30A4_U_30E4_U_32
 62
    29
100
AcDb2dPolyline
 66
     1
 10
0.0
 20
0.0
 30
0.0
  0
VERTEX
  5
B5
330
B4
100
AcDbEntity
  8
_U_30EC_U_30A4_U_30E4_U_32
 62
    29
100
AcDbVertex
100
AcDb2dVertex
 10
88.69636953324392
 20
276.7604212735915
 30
0.0
  0
VERTEX
  5
B6
330
B4
100
AcDbEntity
  8
_U_30EC_U_30A4_U_30E4_U_32
 62
    29
100
AcDbVertex
100
AcDb2dVertex
 10
88.69636953324392
 20
271.322128767067
 30
0.0
  0
SEQEND
  5
B7
330
B4
100
AcDbEntity
  8
_U_30EC_U_30A4_U_30E4_U_32
 62
    29
  0
POLYLINE
  5
B8
330
60
100
AcDbEntity
  8
_U_30EC_U_30A4_U_30E4_U_32
 62
    29
100
AcDb2dPolyline
 66
     1
 10
0.0
 20
0.0
 30
0.0
  0
VERTEX
  5
B9
330
B8
100
AcDbEntity
  8
_U_30EC_U_30A4_U_30E4_U_32
 62
    29
100
AcDbVertex
100
AcDb2dVertex
 10
112.3895005044722
 20
270.5450262559049
 30
0.0
  0
VERTEX
  5
BA
330
B8
100
AcDbEntity
  8
_U_30EC_U_30A4_U_30E4_U_32
 62
    29
100
AcDbVertex
100
AcDb2dVertex
 10
113.5564149114857
 20
272.564023864959
 30
0.0
  0
SEQEND
  5
BB
330
B8
100
AcDbEntity
  8
_U_30EC_U_30A4_U_30E4_U_32
 62
    29
  0
POLYLINE
  5
BC
330
60
100
AcDbEntity
  8
_U_30EC_U_30A4_U_30E4_U_32
 62
    29
100
AcDb2dPolyline
 66
     1
 10
0.0
 20
0.0
 30
0.0
  0
VERTEX
  5
BD
330
BC
100
AcDbEntity
  8
_U_30EC_U_30A4_U_30E4_U_32
 62
    29
100
AcDbVertex
100
AcDb2dVertex
 10
113.5564149114857
 20
272.564023864959
 30
0.0
  0
VERTEX
  5
BE
330
BC
100
AcDbEntity
  8
_U_30EC_U_30A4_U_30E4_U_32
 62
    29
100
AcDbVertex
100
AcDb2dVertex
 10
114.7211369006375
 20
270.5450262559049
 30
0.0
  0
SEQEND
  5
BF
330
BC
100
AcDbEntity
  8
_U_30EC_U_30A4_U_30E4_U_32
 62
    29
  0
POLYLINE
  5
C0
330
60
100
AcDbEntity
  8
_U_30EC_U_30A4_U_30E4_U_32
 62
    29
100
AcDb2dPolyline
 66
     1
 10
0.0
 20
0.0
 30
0.0
  0
VERTEX
  5
C1
330
C0
100
AcDbEntity
  8
_U_30EC_U_30A4_U_30E4_U_32
 62
    29
100
AcDbVertex
100
AcDb2dVertex
 10
114.7211369006375
 20
270.5450262559049
 30
0.0
  0
VERTEX
  5
C2
330
C0
100
AcDbEntity
  8
_U_30EC_U_30A4_U_30E4_U_32
 62
    29
100
AcDbVertex
100
AcDb2dVertex
 10
122.8784717955685
 20
270.5450262559049
 30
0.0
  0
SEQEND
  5
C3
330
C0
100
AcDbEntity
  8
_U_30EC_U_30A4_U_30E4_U_32
 62
    29
  0
POLYLINE
  5
C4
330
60
100
AcDbEntity
  8
_U_30EC_U_30A4_U_30E4_U_32
 62
    29
100
AcDb2dPolyline
 66
     1
 10
0.0
 20
0.0
 30
0.0
  0
VERTEX
  5
C5
330
C4
100
AcDbEntity
  8
_U_30EC_U_30A4_U_30E4_U_32
 62
    29
100
AcDbVertex
100
AcDb2dVertex
 10
157.0579316443835
 20
247.2398626403362
 30
0.0
  0
VERTEX
  5
C6
330
C4
100
AcDbEntity
  8
_U_30EC_U_30A4_U_30E4_U_32
 62
    29
100
AcDbVertex
100
AcDb2dVertex
 10
157.0579316443835
 20
234.811136386943
 30
0.0
  0
SEQEND
  5
C7
330
C4
100
AcDbEntity
  8
_U_30EC_U_30A4_U_30E4_U_32
 62
    29
  0
POLYLINE
  5
C8
330
60
100
AcDbEntity
  8
_U_30EC_U_30A4_U_30E4_U_32
 62
    29
100
AcDb2dPolyline
 66
     1
 10
0.0
 20
0.0
 30
0.0
  0
VERTEX
  5
C9
330
C8
100
AcDbEntity
  8
_U_30EC_U_30A4_U_30E4_U_32
 62
    29
100
AcDbVertex
100
AcDb2dVertex
 10
150.8446194236662
 20
247.2398626403362
 30
0.0
  0
VERTEX
  5
CA
330
C8
100
AcDbEntity
  8
_U_30EC_U_30A4_U_30E4_U_32
 62
    29
100
AcDbVertex
100
AcDb2dVertex
 10
157.0579316443835
 20
247.2398626403362
 30
0.0
  0
SEQEND
  5
CB
330
C8
100
AcDbEntity
  8
_U_30EC_U_30A4_U_30E4_U_32
 62
    29
  0
POLYLINE
  5
CC
330
60
100
AcDbEntity
  8
_U_30EC_U_30A4_U_30E4_U_32
 62
    29
100
AcDb2dPolyline
 66
     1
 10
0.0
 20
0.0
 30
0.0
  0
VERTEX
  5
CD
330
CC
100
AcDbEntity
  8
_U_30EC_U_30A4_U_30E4_U_32
 62
    29
100
AcDbVertex
100
AcDb2dVertex
 10
150.8446194236662
 20
247.2398626403362
 30
0.0
  0
VERTEX
  5
CE
330
CC
100
AcDbEntity
  8
_U_30EC_U_30A4_U_30E4_U_32
 62
    29
100
AcDbVertex
100
AcDb2dVertex
 10
150.8446194236662
 20
242.5787821481189
 30
0.0
  0
SEQEND
  5
CF
330
CC
100
AcDbEntity
  8
_U_30EC_U_30A4_U_30E4_U_32
 62
    29
  0
POLYLINE
  5
D0
330
60
100
AcDbEntity
  8
_U_30EC_U_30A4_U_30E4_U_32
 62
    29
100
AcDb2dPolyline
 66
     1
 10
0.0
 20
0.0
 30
0.0
  0
VERTEX
  5
D1
330
D0
100
AcDbEntity
  8
_U_30EC_U_30A4_U_30E4_U_32
 62
    29
100
AcDbVertex
100
AcDb2dVertex
 10
150.8446194236662
 20
242.5787821481189
 30
0.0
  0
VERTEX
  5
D2
330
D0
100
AcDbEntity
  8
_U_30EC_U_30A4_U_30E4_U_32
 62
    29
100
AcDbVertex
100
AcDb2dVertex
 10
152.3968512699142
 20
242.5787821481189
 30
0.0
  0
SEQEND
  5
D3
330
D0
100
AcDbEntity
  8
_U_30EC_U_30A4_U_30E4_U_32
 62
    29
  0
POLYLINE
  5
D4
330
60
100
AcDbEntity
  8
_U_30EC_U_30A4_U_30E4_U_32
 62
    29
100
AcDb2dPolyline
 66
     1
 10
0.0
 20
0.0
 30
0.0
  0
VERTEX
  5
D5
330
D4
100
AcDbEntity
  8
_U_30EC_U_30A4_U_30E4_U_32
 62
    29
100
AcDbVertex
100
AcDb2dVertex
 10
152.3968512699142
 20
242.5787821481189
 30
0.0
  0
VERTEX
  5
D6
330
D4
100
AcDbEntity
  8
_U_30EC_U_30A4_U_30E4_U_32
 62
    29
100
AcDbVertex
100
AcDb2dVertex
 10
152.3968512699142
 20
237.9177924973007
 30
0.0
  0
SEQEND
  5
D7
330
D4
100
AcDbEntity
  8
_U_30EC_U_30A4_U_30E4_U_32
 62
    29
  0
POLYLINE
  5
D8
330
60
100
AcDbEntity
  8
_U_30EC_U_30A4_U_30E4_U_32
 62
    29
100
AcDb2dPolyline
 66
     1
 10
0.0
 20
0.0
 30
0.0
  0
VERTEX
  5
D9
330
D8
100
AcDbEntity
  8
_U_30EC_U_30A4_U_30E4_U_32
 62
    29
100
AcDbVertex
100
AcDb2dVertex
 10
144.6292244059796
 20
237.9177924973007
 30
0.0
  0
VERTEX
  5
DA
330
D8
100
AcDbEntity
  8
_U_30EC_U_30A4_U_30E4_U_32
 62
    29
100
AcDbVertex
100
AcDb2dVertex
 10
152.3968512699142
 20
237.9177924973007
 30
0.0
  0
SEQEND
  5
DB
330
D8
100
AcDbEntity
  8
_U_30EC_U_30A4_U_30E4_U_32
 62
    29
  0
POLYLINE
  5
DC
330
60
100
AcDbEntity
  8
_U_30EC_U_30A4_U_30E4_U_32
 62
    29
100
AcDb2dPolyline
 66
     1
 10
0.0
 20
0.0
 30
0.0
  0
VERTEX
  5
DD
330
DC
100
AcDbEntity
  8
_U_30EC_U_30A4_U_30E4_U_32
 62
    29
100
AcDbVertex
100
AcDb2dVertex
 10
82.48196110359538
 20
241.0244486076594
 30
0.0
  0
VERTEX
  5
DE
330
DC
100
AcDbEntity
  8
_U_30EC_U_30A4_U_30E4_U_32
 62
    29
100
AcDbVertex
100
AcDb2dVertex
 10
82.48196110359538
 20
237.9177924973007
 30
0.0
  0
SEQEND
  5
DF
330
DC
100
AcDbEntity
  8
_U_30EC_U_30A4_U_30E4_U_32
 62
    29
  0
POLYLINE
  5
E0
330
60
100
AcDbEntity
  8
_U_30EC_U_30A4_U_30E4_U_32
 62
    29
100
AcDb2dPolyline
 66
     1
 10
0.0
 20
0.0
 30
0.0
  0
VERTEX
  5
E1
330
E0
100
AcDbEntity
  8
_U_30EC_U_30A4_U_30E4_U_32
 62
    29
100
AcDbVertex
100
AcDb2dVertex
 10
76.26766687339085
 20
242.5787821481189
 30
0.0
  0
VERTEX
  5
E2
330
E0
100
AcDbEntity
  8
_U_30EC_U_30A4_U_30E4_U_32
 62
    29
100
AcDbVertex
100
AcDb2dVertex
 10
74.71324257001267
 20
242.5787821481189
 30
0.0
  0
SEQEND
  5
E3
330
E0
100
AcDbEntity
  8
_U_30EC_U_30A4_U_30E4_U_32
 62
    29
  0
POLYLINE
  5
E4
330
60
100
AcDbEntity
  8
_U_30EC_U_30A4_U_30E4_U_32
 62
    29
100
AcDb2dPolyline
 66
     1
 10
0.0
 20
0.0
 30
0.0
  0
VERTEX
  5
E5
330
E4
100
AcDbEntity
  8
_U_30EC_U_30A4_U_30E4_U_32
 62
    29
100
AcDbVertex
100
AcDb2dVertex
 10
76.26766687339085
 20
247.2398626403362
 30
0.0
  0
VERTEX
  5
E6
330
E4
100
AcDbEntity
  8
_U_30EC_U_30A4_U_30E4_U_32
 62
    29
100
AcDbVertex
100
AcDb2dVertex
 10
76.26766687339085
 20
242.5787821481189
 30
0.0
  0
SEQEND
  5
E7
330
E4
100
AcDbEntity
  8
_U_30EC_U_30A4_U_30E4_U_32
 62
    29
  0
POLYLINE
  5
E8
330
60
100
AcDbEntity
  8
_U_30EC_U_30A4_U_30E4_U_32
 62
    29
100
AcDb2dPolyline
 66
     1
 10
0.0
 20
0.0
 30
0.0
  0
VERTEX
  5
E9
330
E8
100
AcDbEntity
  8
_U_30EC_U_30A4_U_30E4_U_32
 62
    29
100
AcDbVertex
100
AcDb2dVertex
 10
76.26766687339085
 20
247.2398626403362
 30
0.0
  0
VERTEX
  5
EA
330
E8
100
AcDbEntity
  8
_U_30EC_U_30A4_U_30E4_U_32
 62
    29
100
AcDbVertex
100
AcDb2dVertex
 10
70.05216207779443
 20
247.2398626403362
 30
0.0
  0
SEQEND
  5
EB
330
E8
100
AcDbEntity
  8
_U_30EC_U_30A4_U_30E4_U_32
 62
    29
  0
POLYLINE
  5
EC
330
60
100
AcDbEntity
  8
_U_30EC_U_30A4_U_30E4_U_32
 62
    29
100
AcDb2dPolyline
 66
     1
 10
0.0
 20
0.0
 30
0.0
  0
VERTEX
  5
ED
330
EC
100
AcDbEntity
  8
_U_30EC_U_30A4_U_30E4_U_32
 62
    29
100
AcDbVertex
100
AcDb2dVertex
 10
74.71324257001267
 20
242.5787821481189
 30
0.0
  0
VERTEX
  5
EE
330
EC
100
AcDbEntity
  8
_U_30EC_U_30A4_U_30E4_U_32
 62
    29
100
AcDbVertex
100
AcDb2dVertex
 10
74.71324257001267
 20
237.9177924973007
 30
0.0
  0
SEQEND
  5
EF
330
EC
100
AcDbEntity
  8
_U_30EC_U_30A4_U_30E4_U_32
 62
    29
  0
POLYLINE
  5
F0
330
60
100
AcDbEntity
  8
_U_30EC_U_30A4_U_30E4_U_32
 62
    29
100
AcDb2dPolyline
 66
     1
 10
0.0
 20
0.0
 30
0.0
  0
VERTEX
  5
F1
330
F0
100
AcDbEntity
  8
_U_30EC_U_30A4_U_30E4_U_32
 62
    29
100
AcDbVertex
100
AcDb2dVertex
 10
82.48196110359538
 20
237.9177924973007
 30
0.0
  0
VERTEX
  5
F2
330
F0
100
AcDbEntity
  8
_U_30EC_U_30A4_U_30E4_U_32
 62
    29
100
AcDbVertex
100
AcDb2dVertex
 10
74.71324257001267
 20
237.9177924973007
 30
0.0
  0
SEQEND
  5
F3
330
F0
100
AcDbEntity
  8
_U_30EC_U_30A4_U_30E4_U_32
 62
    29
  0
POLYLINE
  5
F4
330
60
100
AcDbEntity
  8
_U_30EC_U_30A4_U_30E4_U_32
 62
    29
100
AcDb2dPolyline
 66
     1
 10
0.0
 20
0.0
 30
0.0
  0
VERTEX
  5
F5
330
F4
100
AcDbEntity
  8
_U_30EC_U_30A4_U_30E4_U_32
 62
    29
100
AcDbVertex
100
AcDb2dVertex
 10
70.05216207779443
 20
247.2398626403362
 30
0.0
  0
VERTEX
  5
F6
330
F4
100
AcDbEntity
  8
_U_30EC_U_30A4_U_30E4_U_32
 62
    29
100
AcDbVertex
100
AcDb2dVertex
 10
70.05216207779443
 20
234.811136386943
 30
0.0
  0
SEQEND
  5
F7
330
F4
100
AcDbEntity
  8
_U_30EC_U_30A4_U_30E4_U_32
 62
    29
  0
SPLINE
  5
F8
330
60
100
AcDbEntity
  8
_U_30EC_U_30A4_U_30E4_U_32
 62
    29
100
AcDbSpline
210
0.0
220
0.0
230
1.0
 70
     8
 71
     3
 72
    17
 73
    13
 74
     0
 42
0.0000000001
 43
0.0000000001
 12
1.0
 22
0.0
 32
0.0
 13
1.0
 23
0.0
 33
0.0
 40
0.0
 40
0.0
 40
0.0
 40
0.0
 40
1.0
 40
1.0
 40
1.0
 40
2.0
 40
2.0
 40
2.0
 40
3.0
 40
3.0
 40
3.0
 40
4.0
 40
4.0
 40
4.0
 40
4.0
 10
135.0010021235163
 20
269.9947293725601
 30
0.0
 10
133.5878791906068
 20
272.3991540417416
 30
0.0
 10
130.4940487247401
 20
273.2041002597503
 30
0.0
 10
128.0897336764514
 20
271.7910869477345
 30
0.0
 10
125.6853090072702
 20
270.3801564326877
 30
0.0
 10
124.8803627892622
 20
267.2863259668214
 30
0.0
 10
126.2912933043087
 20
264.8819012976393
 30
0.0
 10
127.7043066163238
 20
262.4753938314892
 30
0.0
 10
130.7981370821905
 20
261.6704476134805
 30
0.0
 10
133.2024521304791
 20
263.0834609254962
 30
0.0
 10
133.9454625438887
 20
263.5203001844865
 30
0.0
 10
134.5641628645257
 20
264.1390199470229
 30
0.0
 10
135.0010021235163
 20
264.8819012976393
 30
0.0
  0
SPLINE
  5
F9
330
60
100
AcDbEntity
  8
_U_30EC_U_30A4_U_30E4_U_32
 62
    29
100
AcDbSpline
210
0.0
220
0.0
230
1.0
 70
     8
 71
     3
 72
    11
 73
     7
 74
     0
 42
0.0000000001
 43
0.0000000001
 12
1.0
 22
0.0
 32
0.0
 13
1.0
 23
0.0
 33
0.0
 40
0.0
 40
0.0
 40
0.0
 40
0.0
 40
1.0
 40
1.0
 40
1.0
 40
2.0
 40
2.0
 40
2.0
 40
2.0
 10
122.8784717955685
 20
270.5450262559049
 30
0.0
 10
121.1613643700652
 20
266.2543548792098
 30
0.0
 10
123.2488750373043
 20
261.3856525332154
 30
0.0
 10
127.5394367931069
 20
259.6685508637499
 30
0.0
 10
129.0167975693704
 20
259.0775846290658
 30
0.0
 10
130.6354596768353
 20
258.92126523551
 30
0.0
 10
132.2005171675756
 20
259.2168031632984
 30
0.0
  0
SPLINE
  5
FA
330
60
100
AcDbEntity
  8
_U_30EC_U_30A4_U_30E4_U_32
 62
    29
100
AcDbSpline
210
0.0
220
0.0
230
1.0
 70
     8
 71
     3
 72
    11
 73
     7
 74
     0
 42
0.0000000001
 43
0.0000000001
 12
1.0
 22
0.0
 32
0.0
 13
1.0
 23
0.0
 33
0.0
 40
0.0
 40
0.0
 40
0.0
 40
0.0
 40
1.0
 40
1.0
 40
1.0
 40
2.0
 40
2.0
 40
2.0
 40
2.0
 10
94.9117645509302
 20
259.2168031632984
 30
0.0
 10
99.45182345942048
 20
258.3582523285654
 30
0.0
 10
103.8275606491589
 20
261.3427907640144
 30
0.0
 10
104.6861114838922
 20
265.8839458814359
 30
0.0
 10
104.9815397907872
 20
267.4490033721768
 30
0.0
 10
104.8252203972317
 20
269.0655826826732
 30
0.0
 10
104.2343637834408
 20
270.5450262559049
 30
0.0
  0
SPLINE
  5
FB
330
60
100
AcDbEntity
  8
_U_30EC_U_30A4_U_30E4_U_32
 62
    29
100
AcDbSpline
210
0.0
220
0.0
230
1.0
 70
     8
 71
     3
 72
    17
 73
    13
 74
     0
 42
0.0000000001
 43
0.0000000001
 12
1.0
 22
0.0
 32
0.0
 13
1.0
 23
0.0
 33
0.0
 40
0.0
 40
0.0
 40
0.0
 40
0.0
 40
1.0
 40
1.0
 40
1.0
 40
2.0
 40
2.0
 40
2.0
 40
3.0
 40
3.0
 40
3.0
 40
4.0
 40
4.0
 40
4.0
 40
4.0
 10
92.11018338605966
 20
264.8819012976393
 30
0.0
 10
93.52221011003734
 20
262.4753938314892
 30
0.0
 10
96.61702716394146
 20
261.6704476134805
 30
0.0
 10
99.02145183312292
 20
263.0834609254962
 30
0.0
 10
101.427411194808
 20
264.494391440543
 30
0.0
 10
102.2302798502697
 20
267.5903047033783
 30
0.0
 10
100.8198922052666
 20
269.9947293725601
 30
0.0
 10
99.40786548128895
 20
272.3991540417416
 30
0.0
 10
96.3130484273845
 20
273.2041002597503
 30
0.0
 10
93.90862375820271
 20
271.7910869477345
 30
0.0
 10
93.16572797111843
 20
271.3564597308333
 30
0.0
 10
92.5469130241565
 20
270.7376301650759
 30
0.0
 10
92.11018338605966
 20
269.9947293725601
 30
0.0
  0
SPLINE
  5
FC
330
60
100
AcDbEntity
  8
_U_30EC_U_30A4_U_30E4_U_32
 62
    29
100
AcDbSpline
210
0.0
220
0.0
230
1.0
 70
    11
 71
     3
 72
    17
 73
    13
 74
     0
 42
0.0000000001
 43
0.0000000001
 12
1.0
 22
0.0
 32
0.0
 13
1.0
 23
0.0
 33
0.0
 40
0.0
 40
0.0
 40
0.0
 40
0.0
 40
1.0
 40
1.0
 40
1.0
 40
2.0
 40
2.0
 40
2.0
 40
3.0
 40
3.0
 40
3.0
 40
4.0
 40
4.0
 40
4.0
 40
4.0
 10
89.00681590249359
 20
289.1891285119955
 30
0.0
 10
89.00681590249359
 20
289.3603563470122
 30
0.0
 10
88.86869357719186
 20
289.4995748812448
 30
0.0
 10
88.69636953324392
 20
289.4995748812448
 30
0.0
 10
88.52503207733372
 20
289.4995748812448
 30
0.0
 10
88.38581354310114
 20
289.3603563470122
 30
0.0
 10
88.38581354310114
 20
289.1891285119955
 30
0.0
 10
88.38581354310114
 20
289.0177910560849
 30
0.0
 10
88.52503207733372
 20
288.8786821427455
 30
0.0
 10
88.69636953324392
 20
288.8786821427455
 30
0.0
 10
88.86869357719186
 20
288.8786821427455
 30
0.0
 10
89.00681590249359
 20
289.0177910560849
 30
0.0
 10
89.00681590249359
 20
289.1891285119955
 30
0.0
  0
SPLINE
  5
FD
330
60
100
AcDbEntity
  8
_U_30EC_U_30A4_U_30E4_U_32
 62
    29
100
AcDbSpline
210
0.0
220
0.0
230
1.0
 70
    11
 71
     3
 72
    17
 73
    13
 74
     0
 42
0.0000000001
 43
0.0000000001
 12
1.0
 22
0.0
 32
0.0
 13
1.0
 23
0.0
 33
0.0
 40
0.0
 40
0.0
 40
0.0
 40
0.0
 40
1.0
 40
1.0
 40
1.0
 40
2.0
 40
2.0
 40
2.0
 40
3.0
 40
3.0
 40
3.0
 40
4.0
 40
4.0
 40
4.0
 40
4.0
 10
138.7242757575436
 20
289.1891285119955
 30
0.0
 10
138.7242757575436
 20
289.3603563470122
 30
0.0
 10
138.5850572233101
 20
289.4995748812448
 30
0.0
 10
138.4138293882936
 20
289.4995748812448
 30
0.0
 10
138.2424919323834
 20
289.4995748812448
 30
0.0
 10
138.1033830190436
 20
289.3603563470122
 30
0.0
 10
138.1033830190436
 20
289.1891285119955
 30
0.0
 10
138.1033830190436
 20
289.0177910560849
 30
0.0
 10
138.2424919323834
 20
288.8786821427455
 30
0.0
 10
138.4138293882936
 20
288.8786821427455
 30
0.0
 10
138.5850572233101
 20
288.8786821427455
 30
0.0
 10
138.7242757575436
 20
289.0177910560849
 30
0.0
 10
138.7242757575436
 20
289.1891285119955
 30
0.0
  0
SPLINE
  5
FE
330
60
100
AcDbEntity
  8
_U_30EC_U_30A4_U_30E4_U_32
 62
    29
100
AcDbSpline
210
0.0
220
0.0
230
1.0
 70
    11
 71
     3
 72
    17
 73
    13
 74
     0
 42
0.0000000001
 43
0.0000000001
 12
1.0
 22
0.0
 32
0.0
 13
1.0
 23
0.0
 33
0.0
 40
0.0
 40
0.0
 40
0.0
 40
0.0
 40
1.0
 40
1.0
 40
1.0
 40
2.0
 40
2.0
 40
2.0
 40
3.0
 40
3.0
 40
3.0
 40
4.0
 40
4.0
 40
4.0
 40
4.0
 10
101.4359616244697
 20
222.3803463515694
 30
0.0
 10
101.4359616244697
 20
222.5515741865862
 30
0.0
 10
101.2968527111302
 20
222.6907927208191
 30
0.0
 10
101.12551525522
 20
222.6907927208191
 30
0.0
 10
100.9548355246685
 20
222.6907927208191
 30
0.0
 10
100.815616990436
 20
222.5515741865862
 30
0.0
 10
100.815616990436
 20
222.3803463515694
 30
0.0
 10
100.815616990436
 20
222.2090272783176
 30
0.0
 10
100.9548355246685
 20
222.0698999823198
 30
0.0
 10
101.12551525522
 20
222.0698999823198
 30
0.0
 10
101.2968527111302
 20
222.0698999823198
 30
0.0
 10
101.4359616244697
 20
222.2090272783176
 30
0.0
 10
101.4359616244697
 20
222.3803463515694
 30
0.0
  0
SPLINE
  5
FF
330
60
100
AcDbEntity
  8
_U_30EC_U_30A4_U_30E4_U_32
 62
    29
100
AcDbSpline
210
0.0
220
0.0
230
1.0
 70
    11
 71
     3
 72
    17
 73
    13
 74
     0
 42
0.0000000001
 43
0.0000000001
 12
1.0
 22
0.0
 32
0.0
 13
1.0
 23
0.0
 33
0.0
 40
0.0
 40
0.0
 40
0.0
 40
0.0
 40
1.0
 40
1.0
 40
1.0
 40
2.0
 40
2.0
 40
2.0
 40
3.0
 40
3.0
 40
3.0
 40
4.0
 40
4.0
 40
4.0
 40
4.0
 10
126.2955685191396
 20
222.3803463515694
 30
0.0
 10
126.2955685191396
 20
222.5515741865862
 30
0.0
 10
126.1563499849067
 20
222.6907927208191
 30
0.0
 10
125.9851279844092
 20
222.6907927208191
 30
0.0
 10
125.8137846939801
 20
222.6907927208191
 30
0.0
 10
125.6746757806403
 20
222.5515741865862
 30
0.0
 10
125.6746757806403
 20
222.3803463515694
 30
0.0
 10
125.6746757806403
 20
222.2090272783176
 30
0.0
 10
125.8137846939801
 20
222.0698999823198
 30
0.0
 10
125.9851279844092
 20
222.0698999823198
 30
0.0
 10
126.1563499849067
 20
222.0698999823198
 30
0.0
 10
126.2955685191396
 20
222.2090272783176
 30
0.0
 10
126.2955685191396
 20
222.3803463515694
 30
0.0
  0
SPLINE
  5
100
330
60
100
AcDbEntity
  8
_U_30EC_U_30A4_U_30E4_U_32
 62
    29
100
AcDbSpline
210
0.0
220
0.0
230
1.0
 70
    11
 71
     3
 72
    17
 73
    13
 74
     0
 42
0.0000000001
 43
0.0000000001
 12
1.0
 22
0.0
 32
0.0
 13
1.0
 23
0.0
 33
0.0
 40
0.0
 40
0.0
 40
0.0
 40
0.0
 40
1.0
 40
1.0
 40
1.0
 40
2.0
 40
2.0
 40
2.0
 40
3.0
 40
3.0
 40
3.0
 40
4.0
 40
4.0
 40
4.0
 40
4.0
 10
157.3683780136335
 20
222.3803463515694
 30
0.0
 10
157.3683780136335
 20
222.5515741865862
 30
0.0
 10
157.2291594794006
 20
222.6907927208191
 30
0.0
 10
157.0579316443835
 20
222.6907927208191
 30
0.0
 10
156.886594188474
 20
222.6907927208191
 30
0.0
 10
156.7474852751342
 20
222.5515741865862
 30
0.0
 10
156.7474852751342
 20
222.3803463515694
 30
0.0
 10
156.7474852751342
 20
222.2090272783176
 30
0.0
 10
156.886594188474
 20
222.0698999823198
 30
0.0
 10
157.0579316443835
 20
222.0698999823198
 30
0.0
 10
157.2291594794006
 20
222.0698999823198
 30
0.0
 10
157.3683780136335
 20
222.2090272783176
 30
0.0
 10
157.3683780136335
 20
222.3803463515694
 30
0.0
  0
SPLINE
  5
101
330
60
100
AcDbEntity
  8
_U_30EC_U_30A4_U_30E4_U_32
 62
    29
100
AcDbSpline
210
0.0
220
0.0
230
1.0
 70
    11
 71
     3
 72
    17
 73
    13
 74
     0
 42
0.0000000001
 43
0.0000000001
 12
1.0
 22
0.0
 32
0.0
 13
1.0
 23
0.0
 33
0.0
 40
0.0
 40
0.0
 40
0.0
 40
0.0
 40
1.0
 40
1.0
 40
1.0
 40
2.0
 40
2.0
 40
2.0
 40
3.0
 40
3.0
 40
3.0
 40
4.0
 40
4.0
 40
4.0
 40
4.0
 10
70.36260402551055
 20
222.3803463515694
 30
0.0
 10
70.36260402551055
 20
222.5515741865862
 30
0.0
 10
70.22349511217045
 20
222.6907927208191
 30
0.0
 10
70.05216207779443
 20
222.6907927208191
 30
0.0
 10
69.8809298212438
 20
222.6907927208191
 30
0.0
 10
69.7417112870109
 20
222.5515741865862
 30
0.0
 10
69.7417112870109
 20
222.3803463515694
 30
0.0
 10
69.7417112870109
 20
222.2090272783176
 30
0.0
 10
69.8809298212438
 20
222.0698999823198
 30
0.0
 10
70.05216207779443
 20
222.0698999823198
 30
0.0
 10
70.22349511217045
 20
222.0698999823198
 30
0.0
 10
70.36260402551055
 20
222.2090272783176
 30
0.0
 10
70.36260402551055
 20
222.3803463515694
 30
0.0
  0
SPLINE
  5
102
330
60
100
AcDbEntity
  8
_U_30EC_U_30A4_U_30E4_U_32
 62
    29
100
AcDbSpline
210
0.0
220
0.0
230
1.0
 70
    11
 71
     3
 72
    17
 73
    13
 74
     0
 42
0.0000000001
 43
0.0000000001
 12
1.0
 22
0.0
 32
0.0
 13
1.0
 23
0.0
 33
0.0
 40
0.0
 40
0.0
 40
0.0
 40
0.0
 40
1.0
 40
1.0
 40
1.0
 40
2.0
 40
2.0
 40
2.0
 40
3.0
 40
3.0
 40
3.0
 40
4.0
 40
4.0
 40
4.0
 40
4.0
 10
57.93400640800068
 20
234.811136386943
 30
0.0
 10
57.93400640800068
 20
234.9824738428522
 30
0.0
 10
57.79478787376713
 20
235.1215827561917
 30
0.0
 10
57.62246382981887
 20
235.1215827561917
 30
0.0
 10
57.45112637390995
 20
235.1215827561917
 30
0.0
 10
57.31202156025988
 20
234.9824738428522
 30
0.0
 10
57.31202156025988
 20
234.811136386943
 30
0.0
 10
57.31202156025988
 20
234.6377161340632
 30
0.0
 10
57.45112637390995
 20
234.4984975998306
 30
0.0
 10
57.62246382981887
 20
234.4984975998306
 30
0.0
 10
57.79478787376713
 20
234.4984975998306
 30
0.0
 10
57.93400640800068
 20
234.6377161340632
 30
0.0
 10
57.93400640800068
 20
234.811136386943
 30
0.0
  0
SPLINE
  5
103
330
60
100
AcDbEntity
  8
_U_30EC_U_30A4_U_30E4_U_32
 62
    29
100
AcDbSpline
210
0.0
220
0.0
230
1.0
 70
    11
 71
     3
 72
    17
 73
    13
 74
     0
 42
0.0000000001
 43
0.0000000001
 12
1.0
 22
0.0
 32
0.0
 13
1.0
 23
0.0
 33
0.0
 40
0.0
 40
0.0
 40
0.0
 40
0.0
 40
1.0
 40
1.0
 40
1.0
 40
2.0
 40
2.0
 40
2.0
 40
3.0
 40
3.0
 40
3.0
 40
4.0
 40
4.0
 40
4.0
 40
4.0
 10
57.93400640800068
 20
247.2398626403362
 30
0.0
 10
57.93400640800068
 20
247.4110714603627
 30
0.0
 10
57.79478787376713
 20
247.5502899945956
 30
0.0
 10
57.62246382981887
 20
247.5502899945956
 30
0.0
 10
57.45112637390995
 20
247.5502899945956
 30
0.0
 10
57.31202156025988
 20
247.4110714603627
 30
0.0
 10
57.31202156025988
 20
247.2398626403362
 30
0.0
 10
57.31202156025988
 20
247.0685061694354
 30
0.0
 10
57.45112637390995
 20
246.929397256096
 30
0.0
 10
57.62246382981887
 20
246.929397256096
 30
0.0
 10
57.79478787376713
 20
246.929397256096
 30
0.0
 10
57.93400640800068
 20
247.0685061694354
 30
0.0
 10
57.93400640800068
 20
247.2398626403362
 30
0.0
  0
SPLINE
  5
104
330
60
100
AcDbEntity
  8
_U_30EC_U_30A4_U_30E4_U_32
 62
    29
100
AcDbSpline
210
0.0
220
0.0
230
1.0
 70
    11
 71
     3
 72
    17
 73
    13
 74
     0
 42
0.0000000001
 43
0.0000000001
 12
1.0
 22
0.0
 32
0.0
 13
1.0
 23
0.0
 33
0.0
 40
0.0
 40
0.0
 40
0.0
 40
0.0
 40
1.0
 40
1.0
 40
1.0
 40
2.0
 40
2.0
 40
2.0
 40
3.0
 40
3.0
 40
3.0
 40
4.0
 40
4.0
 40
4.0
 40
4.0
 10
57.93400640800068
 20
276.7604212735915
 30
0.0
 10
57.93400640800068
 20
276.9316491086083
 30
0.0
 10
57.79478787376713
 20
277.0708676428412
 30
0.0
 10
57.62246382981887
 20
277.0708676428412
 30
0.0
 10
57.45112637390995
 20
277.0708676428412
 30
0.0
 10
57.31202156025988
 20
276.9316491086083
 30
0.0
 10
57.31202156025988
 20
276.7604212735915
 30
0.0
 10
57.31202156025988
 20
276.5890838176816
 30
0.0
 10
57.45112637390995
 20
276.4499749043416
 30
0.0
 10
57.62246382981887
 20
276.4499749043416
 30
0.0
 10
57.79478787376713
 20
276.4499749043416
 30
0.0
 10
57.93400640800068
 20
276.5890838176816
 30
0.0
 10
57.93400640800068
 20
276.7604212735915
 30
0.0
  0
INSERT
  5
106
330
60
100
AcDbEntity
  8
_U_30EC_U_30A4_U_30E4_U_32
100
AcDbBlockReference
  2
BLOCK_6
 10
0.0
 20
0.0
 30
0.0
  0
INSERT
  5
126
330
60
100
AcDbEntity
  8
_U_30EC_U_30A4_U_30E4_U_32
100
AcDbBlockReference
  2
BLOCK_10
 10
0.0
 20
0.0
 30
0.0
  0
INSERT
  5
146
330
60
100
AcDbEntity
  8
_U_30EC_U_30A4_U_30E4_U_32
100
AcDbBlockReference
  2
BLOCK_14
 10
0.0
 20
0.0
 30
0.0
  0
INSERT
  5
162
330
60
100
AcDbEntity
  8
_U_30EC_U_30A4_U_30E4_U_32
100
AcDbBlockReference
  2
BLOCK_18
 10
0.0
 20
0.0
 30
0.0
  0
INSERT
  5
17E
330
60
100
AcDbEntity
  8
_U_30EC_U_30A4_U_30E4_U_32
100
AcDbBlockReference
  2
BLOCK_22
 10
0.0
 20
0.0
 30
0.0
  0
INSERT
  5
19E
330
60
100
AcDbEntity
  8
_U_30EC_U_30A4_U_30E4_U_32
100
AcDbBlockReference
  2
BLOCK_26
 10
0.0
 20
0.0
 30
0.0
  0
ENDBLK
  5
63
330
60
100
AcDbEntity
  8
0
100
AcDbBlockEnd
  0
BLOCK
  5
107
330
105
100
AcDbEntity
  8
0
100
AcDbBlockBegin
  2
BLOCK_6
 70
     0
 10
0.0
 20
0.0
 30
0.0
  3
BLOCK_6
  1

  0
POLYLINE
  5
109
330
105
100
AcDbEntity
  8
_U_30EC_U_30A4_U_30E4_U_32
 62
    29
100
AcDb2dPolyline
 66
     1
 10
0.0
 20
0.0
 30
0.0
  0
VERTEX
  5
10A
330
109
100
AcDbEntity
  8
_U_30EC_U_30A4_U_30E4_U_32
 62
    29
100
AcDbVertex
100
AcDb2dVertex
 10
101.12551525522
 20
222.3803463515694
 30
0.0
  0
VERTEX
  5
10B
330
109
100
AcDbEntity
  8
_U_30EC_U_30A4_U_30E4_U_32
 62
    29
100
AcDbVertex
100
AcDb2dVertex
 10
125.9851279844092
 20
222.3803463515694
 30
0.0
  0
SEQEND
  5
10C
330
109
100
AcDbEntity
  8
_U_30EC_U_30A4_U_30E4_U_32
 62
    29
  0
POLYLINE
  5
10D
330
105
100
AcDbEntity
  8
_U_30EC_U_30A4_U_30E4_U_32
 62
    29
100
AcDb2dPolyline
 66
     1
 10
0.0
 20
0.0
 30
0.0
  0
VERTEX
  5
10E
330
10D
100
AcDbEntity
  8
_U_30EC_U_30A4_U_30E4_U_32
 62
    29
100
AcDbVertex
100
AcDb2dVertex
 10
101.12551525522
 20
226.9171166332668
 30
0.0
  0
VERTEX
  5
10F
330
10D
100
AcDbEntity
  8
_U_30EC_U_30A4_U_30E4_U_32
 62
    29
100
AcDbVertex
100
AcDb2dVertex
 10
101.12551525522
 20
219.2736902412108
 30
0.0
  0
SEQEND
  5
110
330
10D
100
AcDbEntity
  8
_U_30EC_U_30A4_U_30E4_U_32
 62
    29
  0
POLYLINE
  5
111
330
105
100
AcDbEntity
  8
_U_30EC_U_30A4_U_30E4_U_32
 62
    29
100
AcDb2dPolyline
 66
     1
 10
0.0
 20
0.0
 30
0.0
  0
VERTEX
  5
112
330
111
100
AcDbEntity
  8
_U_30EC_U_30A4_U_30E4_U_32
 62
    29
100
AcDbVertex
100
AcDb2dVertex
 10
125.9851279844092
 20
226.9171166332668
 30
0.0
  0
VERTEX
  5
113
330
111
100
AcDbEntity
  8
_U_30EC_U_30A4_U_30E4_U_32
 62
    29
100
AcDbVertex
100
AcDb2dVertex
 10
125.9851279844092
 20
219.2736902412108
 30
0.0
  0
SEQEND
  5
114
330
111
100
AcDbEntity
  8
_U_30EC_U_30A4_U_30E4_U_32
 62
    29
  0
MTEXT
  5
115
330
105
100
AcDbEntity
  8
_U_30EC_U_30A4_U_30E4_U_32
 62
    29
100
AcDbMText
 10
111.7272026630404
 20
223.5389885956498
 30
0.0
 40
4.656696193738881
 41
0.0
 71
     7
 72
     1
  1
\fA-OTF Futo Go B101 Pro|b1|i0|c0|p34;\W1;8
  0
INSERT
  5
117
330
105
100
AcDbEntity
  8
_U_30EC_U_30A4_U_30E4_U_32
100
AcDbBlockReference
  2
BLOCK_7
 10
0.0
 20
0.0
 30
0.0
  0
INSERT
  5
11C
330
105
100
AcDbEntity
  8
_U_30EC_U_30A4_U_30E4_U_32
100
AcDbBlockReference
  2
BLOCK_8
 10
0.0
 20
0.0
 30
0.0
  0
INSERT
  5
121
330
105
100
AcDbEntity
  8
_U_30EC_U_30A4_U_30E4_U_32
100
AcDbBlockReference
  2
BLOCK_9
 10
0.0
 20
0.0
 30
0.0
  0
ENDBLK
  5
108
330
105
100
AcDbEntity
  8
0
100
AcDbBlockEnd
  0
BLOCK
  5
118
330
116
100
AcDbEntity
  8
0
100
AcDbBlockBegin
  2
BLOCK_7
 70
     0
 10
0.0
 20
0.0
 30
0.0
  3
BLOCK_7
  1

  0
SPLINE
  5
11A
330
116
100
AcDbEntity
  8
_U_30EC_U_30A4_U_30E4_U_32
 62
    29
100
AcDbSpline
210
0.0
220
0.0
230
1.0
 70
    11
 71
     3
 72
    17
 73
    13
 74
     0
 42
0.0000000001
 43
0.0000000001
 12
1.0
 22
0.0
 32
0.0
 13
1.0
 23
0.0
 33
0.0
 40
0.0
 40
0.0
 40
0.0
 40
0.0
 40
1.0
 40
1.0
 40
1.0
 40
2.0
 40
2.0
 40
2.0
 40
3.0
 40
3.0
 40
3.0
 40
4.0
 40
4.0
 40
4.0
 40
4.0
 10
101.2346976647455
 20
234.811136386943
 30
0.0
 10
101.2346976647455
 20
234.7490909614491
 30
0.0
 10
101.185477883744
 20
234.6997615595561
 30
0.0
 10
101.12551525522
 20
234.6997615595561
 30
0.0
 10
101.0655526266964
 20
234.6997615595561
 30
0.0
 10
101.0163328456958
 20
234.7490909614491
 30
0.0
 10
101.0163328456958
 20
234.811136386943
 30
0.0
 10
101.0163328456958
 20
234.8710990154659
 30
0.0
 10
101.0655526266964
 20
234.9203187964662
 30
0.0
 10
101.12551525522
 20
234.9203187964662
 30
0.0
 10
101.185477883744
 20
234.9203187964662
 30
0.0
 10
101.2346976647455
 20
234.8710990154659
 30
0.0
 10
101.2346976647455
 20
234.811136386943
 30
0.0
  0
ENDBLK
  5
119
330
116
100
AcDbEntity
  8
0
100
AcDbBlockEnd
  0
BLOCK
  5
11D
330
11B
100
AcDbEntity
  8
0
100
AcDbBlockBegin
  2
BLOCK_8
 70
     0
 10
0.0
 20
0.0
 30
0.0
  3
BLOCK_8
  1

  0
SPLINE
  5
11F
330
11B
100
AcDbEntity
  8
_U_30EC_U_30A4_U_30E4_U_32
 62
    29
100
AcDbSpline
210
0.0
220
0.0
230
1.0
 70
    11
 71
     3
 72
    17
 73
    13
 74
     0
 42
0.0000000001
 43
0.0000000001
 12
1.0
 22
0.0
 32
0.0
 13
1.0
 23
0.0
 33
0.0
 40
0.0
 40
0.0
 40
0.0
 40
0.0
 40
1.0
 40
1.0
 40
1.0
 40
2.0
 40
2.0
 40
2.0
 40
3.0
 40
3.0
 40
3.0
 40
4.0
 40
4.0
 40
4.0
 40
4.0
 10
126.0943045594139
 20
234.811136386943
 30
0.0
 10
126.0943045594139
 20
234.7490909614491
 30
0.0
 10
126.0450847784133
 20
234.6997615595561
 30
0.0
 10
125.9851279844092
 20
234.6997615595561
 30
0.0
 10
125.9251595213654
 20
234.6997615595561
 30
0.0
 10
125.8759397403655
 20
234.7490909614491
 30
0.0
 10
125.8759397403655
 20
234.811136386943
 30
0.0
 10
125.8759397403655
 20
234.8710990154659
 30
0.0
 10
125.9251595213654
 20
234.9203187964662
 30
0.0
 10
125.9851279844092
 20
234.9203187964662
 30
0.0
 10
126.0450847784133
 20
234.9203187964662
 30
0.0
 10
126.0943045594139
 20
234.8710990154659
 30
0.0
 10
126.0943045594139
 20
234.811136386943
 30
0.0
  0
ENDBLK
  5
11E
330
11B
100
AcDbEntity
  8
0
100
AcDbBlockEnd
  0
BLOCK
  5
122
330
120
100
AcDbEntity
  8
0
100
AcDbBlockBegin
  2
BLOCK_9
 70
     0
 10
0.0
 20
0.0
 30
0.0
  3
BLOCK_9
  1

  0
SPLINE
  5
124
330
120
100
AcDbEntity
  8
_U_30EC_U_30A4_U_30E4_U_32
 62
    29
100
AcDbSpline
210
0.0
220
0.0
230
1.0
 70
    11
 71
     3
 72
    17
 73
    13
 74
     0
 42
0.0000000001
 43
0.0000000001
 12
1.0
 22
0.0
 32
0.0
 13
1.0
 23
0.0
 33
0.0
 40
0.0
 40
0.0
 40
0.0
 40
0.0
 40
1.0
 40
1.0
 40
1.0
 40
2.0
 40
2.0
 40
2.0
 40
3.0
 40
3.0
 40
3.0
 40
4.0
 40
4.0
 40
4.0
 40
4.0
 10
126.0943045594139
 20
222.3803463515694
 30
0.0
 10
126.0943045594139
 20
222.3203837230458
 30
0.0
 10
126.0450847784133
 20
222.2711639420452
 30
0.0
 10
125.9851279844092
 20
222.2711639420452
 30
0.0
 10
125.9251595213654
 20
222.2711639420452
 30
0.0
 10
125.8759397403655
 20
222.3203837230458
 30
0.0
 10
125.8759397403655
 20
222.3803463515694
 30
0.0
 10
125.8759397403655
 20
222.442391777062
 30
0.0
 10
125.9251595213654
 20
222.4895287610937
 30
0.0
 10
125.9851279844092
 20
222.4895287610937
 30
0.0
 10
126.0450847784133
 20
222.4895287610937
 30
0.0
 10
126.0943045594139
 20
222.442391777062
 30
0.0
 10
126.0943045594139
 20
222.3803463515694
 30
0.0
  0
ENDBLK
  5
123
330
120
100
AcDbEntity
  8
0
100
AcDbBlockEnd
  0
BLOCK
  5
127
330
125
100
AcDbEntity
  8
0
100
AcDbBlockBegin
  2
BLOCK_10
 70
     0
 10
0.0
 20
0.0
 30
0.0
  3
BLOCK_10
  1

  0
POLYLINE
  5
129
330
125
100
AcDbEntity
  8
_U_30EC_U_30A4_U_30E4_U_32
 62
    29
100
AcDb2dPolyline
 66
     1
 10
0.0
 20
0.0
 30
0.0
  0
VERTEX
  5
12A
330
129
100
AcDbEntity
  8
_U_30EC_U_30A4_U_30E4_U_32
 62
    29
100
AcDbVertex
100
AcDb2dVertex
 10
88.69636953324392
 20
289.1891285119955
 30
0.0
  0
VERTEX
  5
12B
330
129
100
AcDbEntity
  8
_U_30EC_U_30A4_U_30E4_U_32
 62
    29
100
AcDbVertex
100
AcDb2dVertex
 10
138.4138293882936
 20
289.1891285119955
 30
0.0
  0
SEQEND
  5
12C
330
129
100
AcDbEntity
  8
_U_30EC_U_30A4_U_30E4_U_32
 62
    29
  0
POLYLINE
  5
12D
330
125
100
AcDbEntity
  8
_U_30EC_U_30A4_U_30E4_U_32
 62
    29
100
AcDb2dPolyline
 66
     1
 10
0.0
 20
0.0
 30
0.0
  0
VERTEX
  5
12E
330
12D
100
AcDbEntity
  8
_U_30EC_U_30A4_U_30E4_U_32
 62
    29
100
AcDbVertex
100
AcDb2dVertex
 10
88.69636953324392
 20
284.6522486094044
 30
0.0
  0
VERTEX
  5
12F
330
12D
100
AcDbEntity
  8
_U_30EC_U_30A4_U_30E4_U_32
 62
    29
100
AcDbVertex
100
AcDb2dVertex
 10
88.69636953324392
 20
292.2957846223541
 30
0.0
  0
SEQEND
  5
130
330
12D
100
AcDbEntity
  8
_U_30EC_U_30A4_U_30E4_U_32
 62
    29
  0
POLYLINE
  5
131
330
125
100
AcDbEntity
  8
_U_30EC_U_30A4_U_30E4_U_32
 62
    29
100
AcDb2dPolyline
 66
     1
 10
0.0
 20
0.0
 30
0.0
  0
VERTEX
  5
132
330
131
100
AcDbEntity
  8
_U_30EC_U_30A4_U_30E4_U_32
 62
    29
100
AcDbVertex
100
AcDb2dVertex
 10
138.4138293882936
 20
284.6522486094044
 30
0.0
  0
VERTEX
  5
133
330
131
100
AcDbEntity
  8
_U_30EC_U_30A4_U_30E4_U_32
 62
    29
100
AcDbVertex
100
AcDb2dVertex
 10
138.4138293882936
 20
292.2957846223541
 30
0.0
  0
SEQEND
  5
134
330
131
100
AcDbEntity
  8
_U_30EC_U_30A4_U_30E4_U_32
 62
    29
  0
MTEXT
  5
135
330
125
100
AcDbEntity
  8
_U_30EC_U_30A4_U_30E4_U_32
 62
    29
100
AcDbMText
 10
109.8985459794698
 20
290.3476582838088
 30
0.0
 40
4.656696193738881
 41
0.0
 71
     7
 72
     1
  1
\fA-OTF Futo Go B101 Pro|b1|i0|c0|p34;\W1;16
  0
INSERT
  5
137
330
125
100
AcDbEntity
  8
_U_30EC_U_30A4_U_30E4_U_32
100
AcDbBlockReference
  2
BLOCK_11
 10
0.0
 20
0.0
 30
0.0
  0
INSERT
  5
13C
330
125
100
AcDbEntity
  8
_U_30EC_U_30A4_U_30E4_U_32
100
AcDbBlockReference
  2
BLOCK_12
 10
0.0
 20
0.0
 30
0.0
  0
INSERT
  5
141
330
125
100
AcDbEntity
  8
_U_30EC_U_30A4_U_30E4_U_32
100
AcDbBlockReference
  2
BLOCK_13
 10
0.0
 20
0.0
 30
0.0
  0
ENDBLK
  5
128
330
125
100
AcDbEntity
  8
0
100
AcDbBlockEnd
  0
BLOCK
  5
138
330
136
100
AcDbEntity
  8
0
100
AcDbBlockBegin
  2
BLOCK_11
 70
     0
 10
0.0
 20
0.0
 30
0.0
  3
BLOCK_11
  1

  0
SPLINE
  5
13A
330
136
100
AcDbEntity
  8
_U_30EC_U_30A4_U_30E4_U_32
 62
    29
100
AcDbSpline
210
0.0
220
0.0
230
1.0
 70
    11
 71
     3
 72
    17
 73
    13
 74
     0
 42
0.0000000001
 43
0.0000000001
 12
1.0
 22
0.0
 32
0.0
 13
1.0
 23
0.0
 33
0.0
 40
0.0
 40
0.0
 40
0.0
 40
0.0
 40
1.0
 40
1.0
 40
1.0
 40
2.0
 40
2.0
 40
2.0
 40
3.0
 40
3.0
 40
3.0
 40
4.0
 40
4.0
 40
4.0
 40
4.0
 10
88.8065385308062
 20
276.7604212735915
 30
0.0
 10
88.8065385308062
 20
276.6982859863792
 30
0.0
 10
88.7573187498056
 20
276.651238864067
 30
0.0
 10
88.69636953324392
 20
276.651238864067
 30
0.0
 10
88.63640690471998
 20
276.651238864067
 30
0.0
 10
88.58707750282628
 20
276.6982859863792
 30
0.0
 10
88.58707750282628
 20
276.7604212735915
 30
0.0
 10
88.58707750282628
 20
276.8203839021155
 30
0.0
 10
88.63640690471998
 20
276.8696036831163
 30
0.0
 10
88.69636953324392
 20
276.8696036831163
 30
0.0
 10
88.7573187498056
 20
276.8696036831163
 30
0.0
 10
88.8065385308062
 20
276.8203839021155
 30
0.0
 10
88.8065385308062
 20
276.7604212735915
 30
0.0
  0
ENDBLK
  5
139
330
136
100
AcDbEntity
  8
0
100
AcDbBlockEnd
  0
BLOCK
  5
13D
330
13B
100
AcDbEntity
  8
0
100
AcDbBlockBegin
  2
BLOCK_12
 70
     0
 10
0.0
 20
0.0
 30
0.0
  3
BLOCK_12
  1

  0
SPLINE
  5
13F
330
13B
100
AcDbEntity
  8
_U_30EC_U_30A4_U_30E4_U_32
 62
    29
100
AcDbSpline
210
0.0
220
0.0
230
1.0
 70
    11
 71
     3
 72
    17
 73
    13
 74
     0
 42
0.0000000001
 43
0.0000000001
 12
1.0
 22
0.0
 32
0.0
 13
1.0
 23
0.0
 33
0.0
 40
0.0
 40
0.0
 40
0.0
 40
0.0
 40
1.0
 40
1.0
 40
1.0
 40
2.0
 40
2.0
 40
2.0
 40
3.0
 40
3.0
 40
3.0
 40
4.0
 40
4.0
 40
4.0
 40
4.0
 10
138.5230117978178
 20
276.7604212735915
 30
0.0
 10
138.5230117978178
 20
276.6982859863792
 30
0.0
 10
138.4758748137859
 20
276.651238864067
 30
0.0
 10
138.4138293882936
 20
276.651238864067
 30
0.0
 10
138.3538667597693
 20
276.651238864067
 30
0.0
 10
138.3045373578763
 20
276.6982859863792
 30
0.0
 10
138.3045373578763
 20
276.7604212735915
 30
0.0
 10
138.3045373578763
 20
276.8203839021155
 30
0.0
 10
138.3538667597693
 20
276.8696036831163
 30
0.0
 10
138.4138293882936
 20
276.8696036831163
 30
0.0
 10
138.4758748137859
 20
276.8696036831163
 30
0.0
 10
138.5230117978178
 20
276.8203839021155
 30
0.0
 10
138.5230117978178
 20
276.7604212735915
 30
0.0
  0
ENDBLK
  5
13E
330
13B
100
AcDbEntity
  8
0
100
AcDbBlockEnd
  0
BLOCK
  5
142
330
140
100
AcDbEntity
  8
0
100
AcDbBlockBegin
  2
BLOCK_13
 70
     0
 10
0.0
 20
0.0
 30
0.0
  3
BLOCK_13
  1

  0
SPLINE
  5
144
330
140
100
AcDbEntity
  8
_U_30EC_U_30A4_U_30E4_U_32
 62
    29
100
AcDbSpline
210
0.0
220
0.0
230
1.0
 70
    11
 71
     3
 72
    17
 73
    13
 74
     0
 42
0.0000000001
 43
0.0000000001
 12
1.0
 22
0.0
 32
0.0
 13
1.0
 23
0.0
 33
0.0
 40
0.0
 40
0.0
 40
0.0
 40
0.0
 40
1.0
 40
1.0
 40
1.0
 40
2.0
 40
2.0
 40
2.0
 40
3.0
 40
3.0
 40
3.0
 40
4.0
 40
4.0
 40
4.0
 40
4.0
 10
138.5230117978178
 20
289.1891285119955
 30
0.0
 10
138.5230117978178
 20
289.1291658834712
 30
0.0
 10
138.4758748137859
 20
289.0799661744319
 30
0.0
 10
138.4138293882936
 20
289.0799661744319
 30
0.0
 10
138.3538667597693
 20
289.0799661744319
 30
0.0
 10
138.3045373578763
 20
289.1291658834712
 30
0.0
 10
138.3045373578763
 20
289.1891285119955
 30
0.0
 10
138.3045373578763
 20
289.2490911405191
 30
0.0
 10
138.3538667597693
 20
289.2983109215194
 30
0.0
 10
138.4138293882936
 20
289.2983109215194
 30
0.0
 10
138.4758748137859
 20
289.2983109215194
 30
0.0
 10
138.5230117978178
 20
289.2490911405191
 30
0.0
 10
138.5230117978178
 20
289.1891285119955
 30
0.0
  0
ENDBLK
  5
143
330
140
100
AcDbEntity
  8
0
100
AcDbBlockEnd
  0
BLOCK
  5
147
330
145
100
AcDbEntity
  8
0
100
AcDbBlockBegin
  2
BLOCK_14
 70
     0
 10
0.0
 20
0.0
 30
0.0
  3
BLOCK_14
  1

  0
POLYLINE
  5
149
330
145
100
AcDbEntity
  8
_U_30EC_U_30A4_U_30E4_U_32
 62
    29
100
AcDb2dPolyline
 66
     1
 10
0.0
 20
0.0
 30
0.0
  0
VERTEX
  5
14A
330
149
100
AcDbEntity
  8
_U_30EC_U_30A4_U_30E4_U_32
 62
    29
100
AcDbVertex
100
AcDb2dVertex
 10
70.05216207779443
 20
222.3803463515694
 30
0.0
  0
VERTEX
  5
14B
330
149
100
AcDbEntity
  8
_U_30EC_U_30A4_U_30E4_U_32
 62
    29
100
AcDbVertex
100
AcDb2dVertex
 10
101.12551525522
 20
222.3803463515694
 30
0.0
  0
SEQEND
  5
14C
330
149
100
AcDbEntity
  8
_U_30EC_U_30A4_U_30E4_U_32
 62
    29
  0
POLYLINE
  5
14D
330
145
100
AcDbEntity
  8
_U_30EC_U_30A4_U_30E4_U_32
 62
    29
100
AcDb2dPolyline
 66
     1
 10
0.0
 20
0.0
 30
0.0
  0
VERTEX
  5
14E
330
14D
100
AcDbEntity
  8
_U_30EC_U_30A4_U_30E4_U_32
 62
    29
100
AcDbVertex
100
AcDb2dVertex
 10
70.05216207779443
 20
226.9171166332668
 30
0.0
  0
VERTEX
  5
14F
330
14D
100
AcDbEntity
  8
_U_30EC_U_30A4_U_30E4_U_32
 62
    29
100
AcDbVertex
100
AcDb2dVertex
 10
70.05216207779443
 20
219.2736902412108
 30
0.0
  0
SEQEND
  5
150
330
14D
100
AcDbEntity
  8
_U_30EC_U_30A4_U_30E4_U_32
 62
    29
  0
MTEXT
  5
151
330
145
100
AcDbEntity
  8
_U_30EC_U_30A4_U_30E4_U_32
 62
    29
100
AcDbMText
 10
81.9322943588572
 20
223.5389885956498
 30
0.0
 40
4.656696193738881
 41
0.0
 71
     7
 72
     1
  1
\fA-OTF Futo Go B101 Pro|b1|i0|c0|p34;\W1;10
  0
INSERT
  5
153
330
145
100
AcDbEntity
  8
_U_30EC_U_30A4_U_30E4_U_32
100
AcDbBlockReference
  2
BLOCK_15
 10
0.0
 20
0.0
 30
0.0
  0
INSERT
  5
158
330
145
100
AcDbEntity
  8
_U_30EC_U_30A4_U_30E4_U_32
100
AcDbBlockReference
  2
BLOCK_16
 10
0.0
 20
0.0
 30
0.0
  0
INSERT
  5
15D
330
145
100
AcDbEntity
  8
_U_30EC_U_30A4_U_30E4_U_32
100
AcDbBlockReference
  2
BLOCK_17
 10
0.0
 20
0.0
 30
0.0
  0
ENDBLK
  5
148
330
145
100
AcDbEntity
  8
0
100
AcDbBlockEnd
  0
BLOCK
  5
154
330
152
100
AcDbEntity
  8
0
100
AcDbBlockBegin
  2
BLOCK_15
 70
     0
 10
0.0
 20
0.0
 30
0.0
  3
BLOCK_15
  1

  0
SPLINE
  5
156
330
152
100
AcDbEntity
  8
_U_30EC_U_30A4_U_30E4_U_32
 62
    29
100
AcDbSpline
210
0.0
220
0.0
230
1.0
 70
    11
 71
     3
 72
    17
 73
    13
 74
     0
 42
0.0000000001
 43
0.0000000001
 12
1.0
 22
0.0
 32
0.0
 13
1.0
 23
0.0
 33
0.0
 40
0.0
 40
0.0
 40
0.0
 40
0.0
 40
1.0
 40
1.0
 40
1.0
 40
2.0
 40
2.0
 40
2.0
 40
3.0
 40
3.0
 40
3.0
 40
4.0
 40
4.0
 40
4.0
 40
4.0
 10
70.16243627471563
 20
234.811136386943
 30
0.0
 10
70.16243627471563
 20
234.7490909614491
 30
0.0
 10
70.11321649371537
 20
234.6997615595561
 30
0.0
 10
70.05216207779443
 20
234.6997615595561
 30
0.0
 10
69.99230464863005
 20
234.6997615595561
 30
0.0
 10
69.94297524673635
 20
234.7490909614491
 30
0.0
 10
69.94297524673635
 20
234.811136386943
 30
0.0
 10
69.94297524673635
 20
234.8710990154659
 30
0.0
 10
69.99230464863005
 20
234.9203187964662
 30
0.0
 10
70.05216207779443
 20
234.9203187964662
 30
0.0
 10
70.11321649371537
 20
234.9203187964662
 30
0.0
 10
70.16243627471563
 20
234.8710990154659
 30
0.0
 10
70.16243627471563
 20
234.811136386943
 30
0.0
  0
ENDBLK
  5
155
330
152
100
AcDbEntity
  8
0
100
AcDbBlockEnd
  0
BLOCK
  5
159
330
157
100
AcDbEntity
  8
0
100
AcDbBlockBegin
  2
BLOCK_16
 70
     0
 10
0.0
 20
0.0
 30
0.0
  3
BLOCK_16
  1

  0
SPLINE
  5
15B
330
157
100
AcDbEntity
  8
_U_30EC_U_30A4_U_30E4_U_32
 62
    29
100
AcDbSpline
210
0.0
220
0.0
230
1.0
 70
    11
 71
     3
 72
    17
 73
    13
 74
     0
 42
0.0000000001
 43
0.0000000001
 12
1.0
 22
0.0
 32
0.0
 13
1.0
 23
0.0
 33
0.0
 40
0.0
 40
0.0
 40
0.0
 40
0.0
 40
1.0
 40
1.0
 40
1.0
 40
2.0
 40
2.0
 40
2.0
 40
3.0
 40
3.0
 40
3.0
 40
4.0
 40
4.0
 40
4.0
 40
4.0
 10
101.2346976647455
 20
234.811136386943
 30
0.0
 10
101.2346976647455
 20
234.7490909614491
 30
0.0
 10
101.185477883744
 20
234.6997615595561
 30
0.0
 10
101.12551525522
 20
234.6997615595561
 30
0.0
 10
101.0655526266964
 20
234.6997615595561
 30
0.0
 10
101.0163328456958
 20
234.7490909614491
 30
0.0
 10
101.0163328456958
 20
234.811136386943
 30
0.0
 10
101.0163328456958
 20
234.8710990154659
 30
0.0
 10
101.0655526266964
 20
234.9203187964662
 30
0.0
 10
101.12551525522
 20
234.9203187964662
 30
0.0
 10
101.185477883744
 20
234.9203187964662
 30
0.0
 10
101.2346976647455
 20
234.8710990154659
 30
0.0
 10
101.2346976647455
 20
234.811136386943
 30
0.0
  0
ENDBLK
  5
15A
330
157
100
AcDbEntity
  8
0
100
AcDbBlockEnd
  0
BLOCK
  5
15E
330
15C
100
AcDbEntity
  8
0
100
AcDbBlockBegin
  2
BLOCK_17
 70
     0
 10
0.0
 20
0.0
 30
0.0
  3
BLOCK_17
  1

  0
SPLINE
  5
160
330
15C
100
AcDbEntity
  8
_U_30EC_U_30A4_U_30E4_U_32
 62
    29
100
AcDbSpline
210
0.0
220
0.0
230
1.0
 70
    11
 71
     3
 72
    17
 73
    13
 74
     0
 42
0.0000000001
 43
0.0000000001
 12
1.0
 22
0.0
 32
0.0
 13
1.0
 23
0.0
 33
0.0
 40
0.0
 40
0.0
 40
0.0
 40
0.0
 40
1.0
 40
1.0
 40
1.0
 40
2.0
 40
2.0
 40
2.0
 40
3.0
 40
3.0
 40
3.0
 40
4.0
 40
4.0
 40
4.0
 40
4.0
 10
101.2346976647455
 20
222.3803463515694
 30
0.0
 10
101.2346976647455
 20
222.3203837230458
 30
0.0
 10
101.185477883744
 20
222.2711639420452
 30
0.0
 10
101.12551525522
 20
222.2711639420452
 30
0.0
 10
101.0655526266964
 20
222.2711639420452
 30
0.0
 10
101.0163328456958
 20
222.3203837230458
 30
0.0
 10
101.0163328456958
 20
222.3803463515694
 30
0.0
 10
101.0163328456958
 20
222.442391777062
 30
0.0
 10
101.0655526266964
 20
222.4895287610937
 30
0.0
 10
101.12551525522
 20
222.4895287610937
 30
0.0
 10
101.185477883744
 20
222.4895287610937
 30
0.0
 10
101.2346976647455
 20
222.442391777062
 30
0.0
 10
101.2346976647455
 20
222.3803463515694
 30
0.0
  0
ENDBLK
  5
15F
330
15C
100
AcDbEntity
  8
0
100
AcDbBlockEnd
  0
BLOCK
  5
163
330
161
100
AcDbEntity
  8
0
100
AcDbBlockBegin
  2
BLOCK_18
 70
     0
 10
0.0
 20
0.0
 30
0.0
  3
BLOCK_18
  1

  0
POLYLINE
  5
165
330
161
100
AcDbEntity
  8
_U_30EC_U_30A4_U_30E4_U_32
 62
    29
100
AcDb2dPolyline
 66
     1
 10
0.0
 20
0.0
 30
0.0
  0
VERTEX
  5
166
330
165
100
AcDbEntity
  8
_U_30EC_U_30A4_U_30E4_U_32
 62
    29
100
AcDbVertex
100
AcDb2dVertex
 10
125.9851279844092
 20
222.3803463515694
 30
0.0
  0
VERTEX
  5
167
330
165
100
AcDbEntity
  8
_U_30EC_U_30A4_U_30E4_U_32
 62
    29
100
AcDbVertex
100
AcDb2dVertex
 10
157.0579316443835
 20
222.3803463515694
 30
0.0
  0
SEQEND
  5
168
330
165
100
AcDbEntity
  8
_U_30EC_U_30A4_U_30E4_U_32
 62
    29
  0
POLYLINE
  5
169
330
161
100
AcDbEntity
  8
_U_30EC_U_30A4_U_30E4_U_32
 62
    29
100
AcDb2dPolyline
 66
     1
 10
0.0
 20
0.0
 30
0.0
  0
VERTEX
  5
16A
330
169
100
AcDbEntity
  8
_U_30EC_U_30A4_U_30E4_U_32
 62
    29
100
AcDbVertex
100
AcDb2dVertex
 10
157.0579316443835
 20
226.9171166332668
 30
0.0
  0
VERTEX
  5
16B
330
169
100
AcDbEntity
  8
_U_30EC_U_30A4_U_30E4_U_32
 62
    29
100
AcDbVertex
100
AcDb2dVertex
 10
157.0579316443835
 20
219.2736902412108
 30
0.0
  0
SEQEND
  5
16C
330
169
100
AcDbEntity
  8
_U_30EC_U_30A4_U_30E4_U_32
 62
    29
  0
MTEXT
  5
16D
330
161
100
AcDbEntity
  8
_U_30EC_U_30A4_U_30E4_U_32
 62
    29
100
AcDbMText
 10
137.8647976000824
 20
223.5389885956498
 30
0.0
 40
4.656696193738881
 41
0.0
 71
     7
 72
     1
  1
\fA-OTF Futo Go B101 Pro|b1|i0|c0|p34;\W1;10
  0
INSERT
  5
16F
330
161
100
AcDbEntity
  8
_U_30EC_U_30A4_U_30E4_U_32
100
AcDbBlockReference
  2
BLOCK_19
 10
0.0
 20
0.0
 30
0.0
  0
INSERT
  5
174
330
161
100
AcDbEntity
  8
_U_30EC_U_30A4_U_30E4_U_32
100
AcDbBlockReference
  2
BLOCK_20
 10
0.0
 20
0.0
 30
0.0
  0
INSERT
  5
179
330
161
100
AcDbEntity
  8
_U_30EC_U_30A4_U_30E4_U_32
100
AcDbBlockReference
  2
BLOCK_21
 10
0.0
 20
0.0
 30
0.0
  0
ENDBLK
  5
164
330
161
100
AcDbEntity
  8
0
100
AcDbBlockEnd
  0
BLOCK
  5
170
330
16E
100
AcDbEntity
  8
0
100
AcDbBlockBegin
  2
BLOCK_19
 70
     0
 10
0.0
 20
0.0
 30
0.0
  3
BLOCK_19
  1

  0
SPLINE
  5
172
330
16E
100
AcDbEntity
  8
_U_30EC_U_30A4_U_30E4_U_32
 62
    29
100
AcDbSpline
210
0.0
220
0.0
230
1.0
 70
    11
 71
     3
 72
    17
 73
    13
 74
     0
 42
0.0000000001
 43
0.0000000001
 12
1.0
 22
0.0
 32
0.0
 13
1.0
 23
0.0
 33
0.0
 40
0.0
 40
0.0
 40
0.0
 40
0.0
 40
1.0
 40
1.0
 40
1.0
 40
2.0
 40
2.0
 40
2.0
 40
3.0
 40
3.0
 40
3.0
 40
4.0
 40
4.0
 40
4.0
 40
4.0
 10
126.0943045594139
 20
234.811136386943
 30
0.0
 10
126.0943045594139
 20
234.7490909614491
 30
0.0
 10
126.0450847784133
 20
234.6997615595561
 30
0.0
 10
125.9851279844092
 20
234.6997615595561
 30
0.0
 10
125.9251595213654
 20
234.6997615595561
 30
0.0
 10
125.8759397403655
 20
234.7490909614491
 30
0.0
 10
125.8759397403655
 20
234.811136386943
 30
0.0
 10
125.8759397403655
 20
234.8710990154659
 30
0.0
 10
125.9251595213654
 20
234.9203187964662
 30
0.0
 10
125.9851279844092
 20
234.9203187964662
 30
0.0
 10
126.0450847784133
 20
234.9203187964662
 30
0.0
 10
126.0943045594139
 20
234.8710990154659
 30
0.0
 10
126.0943045594139
 20
234.811136386943
 30
0.0
  0
ENDBLK
  5
171
330
16E
100
AcDbEntity
  8
0
100
AcDbBlockEnd
  0
BLOCK
  5
175
330
173
100
AcDbEntity
  8
0
100
AcDbBlockBegin
  2
BLOCK_20
 70
     0
 10
0.0
 20
0.0
 30
0.0
  3
BLOCK_20
  1

  0
SPLINE
  5
177
330
173
100
AcDbEntity
  8
_U_30EC_U_30A4_U_30E4_U_32
 62
    29
100
AcDbSpline
210
0.0
220
0.0
230
1.0
 70
    11
 71
     3
 72
    17
 73
    13
 74
     0
 42
0.0000000001
 43
0.0000000001
 12
1.0
 22
0.0
 32
0.0
 13
1.0
 23
0.0
 33
0.0
 40
0.0
 40
0.0
 40
0.0
 40
0.0
 40
1.0
 40
1.0
 40
1.0
 40
2.0
 40
2.0
 40
2.0
 40
3.0
 40
3.0
 40
3.0
 40
4.0
 40
4.0
 40
4.0
 40
4.0
 10
157.1691968508763
 20
234.811136386943
 30
0.0
 10
157.1691968508763
 20
234.7490909614491
 30
0.0
 10
157.1199770698764
 20
234.6997615595561
 30
0.0
 10
157.0579316443835
 20
234.6997615595561
 30
0.0
 10
156.9979756338292
 20
234.6997615595561
 30
0.0
 10
156.9487492348593
 20
234.7490909614491
 30
0.0
 10
156.9487492348593
 20
234.811136386943
 30
0.0
 10
156.9487492348593
 20
234.8710990154659
 30
0.0
 10
156.9979756338292
 20
234.9203187964662
 30
0.0
 10
157.0579316443835
 20
234.9203187964662
 30
0.0
 10
157.1199770698764
 20
234.9203187964662
 30
0.0
 10
157.1691968508763
 20
234.8710990154659
 30
0.0
 10
157.1691968508763
 20
234.811136386943
 30
0.0
  0
ENDBLK
  5
176
330
173
100
AcDbEntity
  8
0
100
AcDbBlockEnd
  0
BLOCK
  5
17A
330
178
100
AcDbEntity
  8
0
100
AcDbBlockBegin
  2
BLOCK_21
 70
     0
 10
0.0
 20
0.0
 30
0.0
  3
BLOCK_21
  1

  0
SPLINE
  5
17C
330
178
100
AcDbEntity
  8
_U_30EC_U_30A4_U_30E4_U_32
 62
    29
100
AcDbSpline
210
0.0
220
0.0
230
1.0
 70
    11
 71
     3
 72
    17
 73
    13
 74
     0
 42
0.0000000001
 43
0.0000000001
 12
1.0
 22
0.0
 32
0.0
 13
1.0
 23
0.0
 33
0.0
 40
0.0
 40
0.0
 40
0.0
 40
0.0
 40
1.0
 40
1.0
 40
1.0
 40
2.0
 40
2.0
 40
2.0
 40
3.0
 40
3.0
 40
3.0
 40
4.0
 40
4.0
 40
4.0
 40
4.0
 10
157.1691968508763
 20
222.3803463515694
 30
0.0
 10
157.1691968508763
 20
222.3203837230458
 30
0.0
 10
157.1199770698764
 20
222.2711639420452
 30
0.0
 10
157.0579316443835
 20
222.2711639420452
 30
0.0
 10
156.9979756338292
 20
222.2711639420452
 30
0.0
 10
156.9487492348593
 20
222.3203837230458
 30
0.0
 10
156.9487492348593
 20
222.3803463515694
 30
0.0
 10
156.9487492348593
 20
222.442391777062
 30
0.0
 10
156.9979756338292
 20
222.4895287610937
 30
0.0
 10
157.0579316443835
 20
222.4895287610937
 30
0.0
 10
157.1199770698764
 20
222.4895287610937
 30
0.0
 10
157.1691968508763
 20
222.442391777062
 30
0.0
 10
157.1691968508763
 20
222.3803463515694
 30
0.0
  0
ENDBLK
  5
17B
330
178
100
AcDbEntity
  8
0
100
AcDbBlockEnd
  0
BLOCK
  5
17F
330
17D
100
AcDbEntity
  8
0
100
AcDbBlockBegin
  2
BLOCK_22
 70
     0
 10
0.0
 20
0.0
 30
0.0
  3
BLOCK_22
  1

  0
POLYLINE
  5
181
330
17D
100
AcDbEntity
  8
_U_30EC_U_30A4_U_30E4_U_32
 62
    29
100
AcDb2dPolyline
 66
     1
 10
0.0
 20
0.0
 30
0.0
  0
VERTEX
  5
182
330
181
100
AcDbEntity
  8
_U_30EC_U_30A4_U_30E4_U_32
 62
    29
100
AcDbVertex
100
AcDb2dVertex
 10
57.62246382981887
 20
247.2398626403362
 30
0.0
  0
VERTEX
  5
183
330
181
100
AcDbEntity
  8
_U_30EC_U_30A4_U_30E4_U_32
 62
    29
100
AcDbVertex
100
AcDb2dVertex
 10
57.62246382981887
 20
234.811136386943
 30
0.0
  0
SEQEND
  5
184
330
181
100
AcDbEntity
  8
_U_30EC_U_30A4_U_30E4_U_32
 62
    29
  0
POLYLINE
  5
185
330
17D
100
AcDbEntity
  8
_U_30EC_U_30A4_U_30E4_U_32
 62
    29
100
AcDb2dPolyline
 66
     1
 10
0.0
 20
0.0
 30
0.0
  0
VERTEX
  5
186
330
185
100
AcDbEntity
  8
_U_30EC_U_30A4_U_30E4_U_32
 62
    29
100
AcDbVertex
100
AcDb2dVertex
 10
62.15923411151655
 20
247.2398626403362
 30
0.0
  0
VERTEX
  5
187
330
185
100
AcDbEntity
  8
_U_30EC_U_30A4_U_30E4_U_32
 62
    29
100
AcDbVertex
100
AcDb2dVertex
 10
54.51580771946019
 20
247.2398626403362
 30
0.0
  0
SEQEND
  5
188
330
185
100
AcDbEntity
  8
_U_30EC_U_30A4_U_30E4_U_32
 62
    29
  0
POLYLINE
  5
189
330
17D
100
AcDbEntity
  8
_U_30EC_U_30A4_U_30E4_U_32
 62
    29
100
AcDb2dPolyline
 66
     1
 10
0.0
 20
0.0
 30
0.0
  0
VERTEX
  5
18A
330
189
100
AcDbEntity
  8
_U_30EC_U_30A4_U_30E4_U_32
 62
    29
100
AcDbVertex
100
AcDb2dVertex
 10
62.15923411151655
 20
234.811136386943
 30
0.0
  0
VERTEX
  5
18B
330
189
100
AcDbEntity
  8
_U_30EC_U_30A4_U_30E4_U_32
 62
    29
100
AcDbVertex
100
AcDb2dVertex
 10
54.51580771946019
 20
234.811136386943
 30
0.0
  0
SEQEND
  5
18C
330
189
100
AcDbEntity
  8
_U_30EC_U_30A4_U_30E4_U_32
 62
    29
  0
MTEXT
  5
18D
330
17D
100
AcDbEntity
  8
_U_30EC_U_30A4_U_30E4_U_32
 62
    29
100
AcDbMText
 10
56.46511500324483
 20
239.1959140474648
 30
0.0
 40
4.656696193738881
 41
0.0
 71
     7
 72
     1
  1
\fA-OTF Futo Go B101 Pro|b1|i0|c0|p34;\W1;4
 11
6.123233995736766E-17
 21
1.0
 31
0.0
  0
INSERT
  5
18F
330
17D
100
AcDbEntity
  8
_U_30EC_U_30A4_U_30E4_U_32
100
AcDbBlockReference
  2
BLOCK_23
 10
0.0
 20
0.0
 30
0.0
  0
INSERT
  5
194
330
17D
100
AcDbEntity
  8
_U_30EC_U_30A4_U_30E4_U_32
100
AcDbBlockReference
  2
BLOCK_24
 10
0.0
 20
0.0
 30
0.0
  0
INSERT
  5
199
330
17D
100
AcDbEntity
  8
_U_30EC_U_30A4_U_30E4_U_32
100
AcDbBlockReference
  2
BLOCK_25
 10
0.0
 20
0.0
 30
0.0
  0
ENDBLK
  5
180
330
17D
100
AcDbEntity
  8
0
100
AcDbBlockEnd
  0
BLOCK
  5
190
330
18E
100
AcDbEntity
  8
0
100
AcDbBlockBegin
  2
BLOCK_23
 70
     0
 10
0.0
 20
0.0
 30
0.0
  3
BLOCK_23
  1

  0
SPLINE
  5
192
330
18E
100
AcDbEntity
  8
_U_30EC_U_30A4_U_30E4_U_32
 62
    29
100
AcDbSpline
210
0.0
220
0.0
230
1.0
 70
    11
 71
     3
 72
    17
 73
    13
 74
     0
 42
0.0000000001
 43
0.0000000001
 12
1.0
 22
0.0
 32
0.0
 13
1.0
 23
0.0
 33
0.0
 40
0.0
 40
0.0
 40
0.0
 40
0.0
 40
1.0
 40
1.0
 40
1.0
 40
2.0
 40
2.0
 40
2.0
 40
3.0
 40
3.0
 40
3.0
 40
4.0
 40
4.0
 40
4.0
 40
4.0
 10
70.16243627471563
 20
247.2398626403362
 30
0.0
 10
70.16243627471563
 20
247.1798809968223
 30
0.0
 10
70.11321649371537
 20
247.1306612158214
 30
0.0
 10
70.05216207779443
 20
247.1306612158214
 30
0.0
 10
69.99230464863005
 20
247.1306612158214
 30
0.0
 10
69.94297524673635
 20
247.1798809968223
 30
0.0
 10
69.94297524673635
 20
247.2398626403362
 30
0.0
 10
69.94297524673635
 20
247.2998062538696
 30
0.0
 10
69.99230464863005
 20
247.3490260348702
 30
0.0
 10
70.05216207779443
 20
247.3490260348702
 30
0.0
 10
70.11321649371537
 20
247.3490260348702
 30
0.0
 10
70.16243627471563
 20
247.2998062538696
 30
0.0
 10
70.16243627471563
 20
247.2398626403362
 30
0.0
  0
ENDBLK
  5
191
330
18E
100
AcDbEntity
  8
0
100
AcDbBlockEnd
  0
BLOCK
  5
195
330
193
100
AcDbEntity
  8
0
100
AcDbBlockBegin
  2
BLOCK_24
 70
     0
 10
0.0
 20
0.0
 30
0.0
  3
BLOCK_24
  1

  0
SPLINE
  5
197
330
193
100
AcDbEntity
  8
_U_30EC_U_30A4_U_30E4_U_32
 62
    29
100
AcDbSpline
210
0.0
220
0.0
230
1.0
 70
    11
 71
     3
 72
    17
 73
    13
 74
     0
 42
0.0000000001
 43
0.0000000001
 12
1.0
 22
0.0
 32
0.0
 13
1.0
 23
0.0
 33
0.0
 40
0.0
 40
0.0
 40
0.0
 40
0.0
 40
1.0
 40
1.0
 40
1.0
 40
2.0
 40
2.0
 40
2.0
 40
3.0
 40
3.0
 40
3.0
 40
4.0
 40
4.0
 40
4.0
 40
4.0
 10
70.16243627471563
 20
234.811136386943
 30
0.0
 10
70.16243627471563
 20
234.7490909614491
 30
0.0
 10
70.11321649371537
 20
234.6997615595561
 30
0.0
 10
70.05216207779443
 20
234.6997615595561
 30
0.0
 10
69.99230464863005
 20
234.6997615595561
 30
0.0
 10
69.94297524673635
 20
234.7490909614491
 30
0.0
 10
69.94297524673635
 20
234.811136386943
 30
0.0
 10
69.94297524673635
 20
234.8710990154659
 30
0.0
 10
69.99230464863005
 20
234.9203187964662
 30
0.0
 10
70.05216207779443
 20
234.9203187964662
 30
0.0
 10
70.11321649371537
 20
234.9203187964662
 30
0.0
 10
70.16243627471563
 20
234.8710990154659
 30
0.0
 10
70.16243627471563
 20
234.811136386943
 30
0.0
  0
ENDBLK
  5
196
330
193
100
AcDbEntity
  8
0
100
AcDbBlockEnd
  0
BLOCK
  5
19A
330
198
100
AcDbEntity
  8
0
100
AcDbBlockBegin
  2
BLOCK_25
 70
     0
 10
0.0
 20
0.0
 30
0.0
  3
BLOCK_25
  1

  0
SPLINE
  5
19C
330
198
100
AcDbEntity
  8
_U_30EC_U_30A4_U_30E4_U_32
 62
    29
100
AcDbSpline
210
0.0
220
0.0
230
1.0
 70
    11
 71
     3
 72
    17
 73
    13
 74
     0
 42
0.0000000001
 43
0.0000000001
 12
1.0
 22
0.0
 32
0.0
 13
1.0
 23
0.0
 33
0.0
 40
0.0
 40
0.0
 40
0.0
 40
0.0
 40
1.0
 40
1.0
 40
1.0
 40
2.0
 40
2.0
 40
2.0
 40
3.0
 40
3.0
 40
3.0
 40
4.0
 40
4.0
 40
4.0
 40
4.0
 10
57.73274244827394
 20
234.811136386943
 30
0.0
 10
57.73274244827394
 20
234.7490909614491
 30
0.0
 10
57.68341304638088
 20
234.6997615595561
 30
0.0
 10
57.62246382981887
 20
234.6997615595561
 30
0.0
 10
57.56250120129524
 20
234.6997615595561
 30
0.0
 10
57.51328142029466
 20
234.7490909614491
 30
0.0
 10
57.51328142029466
 20
234.811136386943
 30
0.0
 10
57.51328142029466
 20
234.8710990154659
 30
0.0
 10
57.56250120129524
 20
234.9203187964662
 30
0.0
 10
57.62246382981887
 20
234.9203187964662
 30
0.0
 10
57.68341304638088
 20
234.9203187964662
 30
0.0
 10
57.73274244827394
 20
234.8710990154659
 30
0.0
 10
57.73274244827394
 20
234.811136386943
 30
0.0
  0
ENDBLK
  5
19B
330
198
100
AcDbEntity
  8
0
100
AcDbBlockEnd
  0
BLOCK
  5
19F
330
19D
100
AcDbEntity
  8
0
100
AcDbBlockBegin
  2
BLOCK_26
 70
     0
 10
0.0
 20
0.0
 30
0.0
  3
BLOCK_26
  1

  0
POLYLINE
  5
1A1
330
19D
100
AcDbEntity
  8
_U_30EC_U_30A4_U_30E4_U_32
 62
    29
100
AcDb2dPolyline
 66
     1
 10
0.0
 20
0.0
 30
0.0
  0
VERTEX
  5
1A2
330
1A1
100
AcDbEntity
  8
_U_30EC_U_30A4_U_30E4_U_32
 62
    29
100
AcDbVertex
100
AcDb2dVertex
 10
57.62246382981887
 20
247.2398626403362
 30
0.0
  0
VERTEX
  5
1A3
330
1A1
100
AcDbEntity
  8
_U_30EC_U_30A4_U_30E4_U_32
 62
    29
100
AcDbVertex
100
AcDb2dVertex
 10
57.62246382981887
 20
276.7604212735915
 30
0.0
  0
SEQEND
  5
1A4
330
1A1
100
AcDbEntity
  8
_U_30EC_U_30A4_U_30E4_U_32
 62
    29
  0
POLYLINE
  5
1A5
330
19D
100
AcDbEntity
  8
_U_30EC_U_30A4_U_30E4_U_32
 62
    29
100
AcDb2dPolyline
 66
     1
 10
0.0
 20
0.0
 30
0.0
  0
VERTEX
  5
1A6
330
1A5
100
AcDbEntity
  8
_U_30EC_U_30A4_U_30E4_U_32
 62
    29
100
AcDbVertex
100
AcDb2dVertex
 10
80.80344598850054
 20
276.7604212735915
 30
0.0
  0
VERTEX
  5
1A7
330
1A5
100
AcDbEntity
  8
_U_30EC_U_30A4_U_30E4_U_32
 62
    29
100
AcDbVertex
100
AcDb2dVertex
 10
54.51580771946019
 20
276.7604212735915
 30
0.0
  0
SEQEND
  5
1A8
330
1A5
100
AcDbEntity
  8
_U_30EC_U_30A4_U_30E4_U_32
 62
    29
  0
MTEXT
  5
1A9
330
19D
100
AcDbEntity
  8
_U_30EC_U_30A4_U_30E4_U_32
 62
    29
100
AcDbMText
 10
56.46511500324483
 20
257.4914381314326
 30
0.0
 40
4.656696193738881
 41
0.0
 71
     7
 72
     1
  1
\fA-OTF Futo Go B101 Pro|b1|i0|c0|p34;\W1;9.5
 11
6.123233995736766E-17
 21
1.0
 31
0.0
  0
INSERT
  5
1AB
330
19D
100
AcDbEntity
  8
_U_30EC_U_30A4_U_30E4_U_32
100
AcDbBlockReference
  2
BLOCK_27
 10
0.0
 20
0.0
 30
0.0
  0
INSERT
  5
1B0
330
19D
100
AcDbEntity
  8
_U_30EC_U_30A4_U_30E4_U_32
100
AcDbBlockReference
  2
BLOCK_28
 10
0.0
 20
0.0
 30
0.0
  0
INSERT
  5
1B5
330
19D
100
AcDbEntity
  8
_U_30EC_U_30A4_U_30E4_U_32
100
AcDbBlockReference
  2
BLOCK_29
 10
0.0
 20
0.0
 30
0.0
  0
ENDBLK
  5
1A0
330
19D
100
AcDbEntity
  8
0
100
AcDbBlockEnd
  0
BLOCK
  5
1AC
330
1AA
100
AcDbEntity
  8
0
100
AcDbBlockBegin
  2
BLOCK_27
 70
     0
 10
0.0
 20
0.0
 30
0.0
  3
BLOCK_27
  1

  0
SPLINE
  5
1AE
330
1AA
100
AcDbEntity
  8
_U_30EC_U_30A4_U_30E4_U_32
 62
    29
100
AcDbSpline
210
0.0
220
0.0
230
1.0
 70
    11
 71
     3
 72
    17
 73
    13
 74
     0
 42
0.0000000001
 43
0.0000000001
 12
1.0
 22
0.0
 32
0.0
 13
1.0
 23
0.0
 33
0.0
 40
0.0
 40
0.0
 40
0.0
 40
0.0
 40
1.0
 40
1.0
 40
1.0
 40
2.0
 40
2.0
 40
2.0
 40
3.0
 40
3.0
 40
3.0
 40
4.0
 40
4.0
 40
4.0
 40
4.0
 10
70.16243627471563
 20
247.2398626403362
 30
0.0
 10
70.16243627471563
 20
247.1798809968223
 30
0.0
 10
70.11321649371537
 20
247.1306612158214
 30
0.0
 10
70.05216207779443
 20
247.1306612158214
 30
0.0
 10
69.99230464863005
 20
247.1306612158214
 30
0.0
 10
69.94297524673635
 20
247.1798809968223
 30
0.0
 10
69.94297524673635
 20
247.2398626403362
 30
0.0
 10
69.94297524673635
 20
247.2998062538696
 30
0.0
 10
69.99230464863005
 20
247.3490260348702
 30
0.0
 10
70.05216207779443
 20
247.3490260348702
 30
0.0
 10
70.11321649371537
 20
247.3490260348702
 30
0.0
 10
70.16243627471563
 20
247.2998062538696
 30
0.0
 10
70.16243627471563
 20
247.2398626403362
 30
0.0
  0
ENDBLK
  5
1AD
330
1AA
100
AcDbEntity
  8
0
100
AcDbBlockEnd
  0
BLOCK
  5
1B1
330
1AF
100
AcDbEntity
  8
0
100
AcDbBlockBegin
  2
BLOCK_28
 70
     0
 10
0.0
 20
0.0
 30
0.0
  3
BLOCK_28
  1

  0
SPLINE
  5
1B3
330
1AF
100
AcDbEntity
  8
_U_30EC_U_30A4_U_30E4_U_32
 62
    29
100
AcDbSpline
210
0.0
220
0.0
230
1.0
 70
    11
 71
     3
 72
    17
 73
    13
 74
     0
 42
0.0000000001
 43
0.0000000001
 12
1.0
 22
0.0
 32
0.0
 13
1.0
 23
0.0
 33
0.0
 40
0.0
 40
0.0
 40
0.0
 40
0.0
 40
1.0
 40
1.0
 40
1.0
 40
2.0
 40
2.0
 40
2.0
 40
3.0
 40
3.0
 40
3.0
 40
4.0
 40
4.0
 40
4.0
 40
4.0
 10
88.8065385308062
 20
276.7604212735915
 30
0.0
 10
88.8065385308062
 20
276.6982859863792
 30
0.0
 10
88.7573187498056
 20
276.651238864067
 30
0.0
 10
88.69636953324392
 20
276.651238864067
 30
0.0
 10
88.63640690471998
 20
276.651238864067
 30
0.0
 10
88.58707750282628
 20
276.6982859863792
 30
0.0
 10
88.58707750282628
 20
276.7604212735915
 30
0.0
 10
88.58707750282628
 20
276.8203839021155
 30
0.0
 10
88.63640690471998
 20
276.8696036831163
 30
0.0
 10
88.69636953324392
 20
276.8696036831163
 30
0.0
 10
88.7573187498056
 20
276.8696036831163
 30
0.0
 10
88.8065385308062
 20
276.8203839021155
 30
0.0
 10
88.8065385308062
 20
276.7604212735915
 30
0.0
  0
ENDBLK
  5
1B2
330
1AF
100
AcDbEntity
  8
0
100
AcDbBlockEnd
  0
BLOCK
  5
1B6
330
1B4
100
AcDbEntity
  8
0
100
AcDbBlockBegin
  2
BLOCK_29
 70
     0
 10
0.0
 20
0.0
 30
0.0
  3
BLOCK_29
  1

  0
SPLINE
  5
1B8
330
1B4
100
AcDbEntity
  8
_U_30EC_U_30A4_U_30E4_U_32
 62
    29
100
AcDbSpline
210
0.0
220
0.0
230
1.0
 70
    11
 71
     3
 72
    17
 73
    13
 74
     0
 42
0.0000000001
 43
0.0000000001
 12
1.0
 22
0.0
 32
0.0
 13
1.0
 23
0.0
 33
0.0
 40
0.0
 40
0.0
 40
0.0
 40
0.0
 40
1.0
 40
1.0
 40
1.0
 40
2.0
 40
2.0
 40
2.0
 40
3.0
 40
3.0
 40
3.0
 40
4.0
 40
4.0
 40
4.0
 40
4.0
 10
57.73274244827394
 20
276.7604212735915
 30
0.0
 10
57.73274244827394
 20
276.6982859863792
 30
0.0
 10
57.68341304638088
 20
276.651238864067
 30
0.0
 10
57.62246382981887
 20
276.651238864067
 30
0.0
 10
57.56250120129524
 20
276.651238864067
 30
0.0
 10
57.51328142029466
 20
276.6982859863792
 30
0.0
 10
57.51328142029466
 20
276.7604212735915
 30
0.0
 10
57.51328142029466
 20
276.8203839021155
 30
0.0
 10
57.56250120129524
 20
276.8696036831163
 30
0.0
 10
57.62246382981887
 20
276.8696036831163
 30
0.0
 10
57.68341304638088
 20
276.8696036831163
 30
0.0
 10
57.73274244827394
 20
276.8203839021155
 30
0.0
 10
57.73274244827394
 20
276.7604212735915
 30
0.0
  0
ENDBLK
  5
1B7
330
1B4
100
AcDbEntity
  8
0
100
AcDbBlockEnd
  0
ENDSEC
  0
SECTION
  2
ENTITIES
  0
POLYLINE
  5
41
330
1F
100
AcDbEntity
  8
WAKU
 62
     7
100
AcDb2dPolyline
 66
     1
 10
0.0
 20
0.0
 30
0.0
  0
VERTEX
  5
42
330
41
100
AcDbEntity
  8
WAKU
 62
     7
100
AcDbVertex
100
AcDb2dVertex
 10
210.3527051890109
 20
-0.3527777776895833
 30
0.0
  0
VERTEX
  5
43
330
41
100
AcDbEntity
  8
WAKU
 62
     7
100
AcDbVertex
100
AcDb2dVertex
 10
0.3527777776895833
 20
-0.3527777776895833
 30
0.0
  0
VERTEX
  5
44
330
41
100
AcDbEntity
  8
WAKU
 62
     7
100
AcDbVertex
100
AcDb2dVertex
 10
0.3527777776895833
 20
296.647156876345
 30
0.0
  0
VERTEX
  5
45
330
41
100
AcDbEntity
  8
WAKU
 62
     7
100
AcDbVertex
100
AcDb2dVertex
 10
210.3527051890109
 20
296.647156876345
 30
0.0
  0
VERTEX
  5
46
330
41
100
AcDbEntity
  8
WAKU
 62
     7
100
AcDbVertex
100
AcDb2dVertex
 10
210.3527051890109
 20
-0.3527777776895833
 30
0.0
  0
SEQEND
  5
47
330
41
100
AcDbEntity
  8
WAKU
 62
     7
  0
POLYLINE
  5
48
330
1F
100
AcDbEntity
  8
WAKU
 62
     7
100
AcDb2dPolyline
 66
     1
 10
0.0
 20
0.0
 30
0.0
  0
VERTEX
  5
49
330
48
100
AcDbEntity
  8
WAKU
 62
     7
100
AcDbVertex
100
AcDb2dVertex
 10
216.3526789248278
 20
-6.352751665078269
 30
0.0
  0
VERTEX
  5
4A
330
48
100
AcDbEntity
  8
WAKU
 62
     7
100
AcDbVertex
100
AcDb2dVertex
 10
-5.647196109699424
 20
-6.352751665078269
 30
0.0
  0
VERTEX
  5
4B
330
48
100
AcDbEntity
  8
WAKU
 62
     7
100
AcDbVertex
100
AcDb2dVertex
 10
-5.647196109699424
 20
302.6471658899387
 30
0.0
  0
VERTEX
  5
4C
330
48
100
AcDbEntity
  8
WAKU
 62
     7
100
AcDbVertex
100
AcDb2dVertex
 10
216.3526789248278
 20
302.6471658899387
 30
0.0
  0
VERTEX
  5
4D
330
48
100
AcDbEntity
  8
WAKU
 62
     7
100
AcDbVertex
100
AcDb2dVertex
 10
216.3526789248278
 20
-6.352751665078269
 30
0.0
  0
SEQEND
  5
4E
330
48
100
AcDbEntity
  8
WAKU
 62
     7
  0
INSERT
  5
53
330
1F
100
AcDbEntity
  8
_U_30EC_U_30A4_U_30E4_U_32
100
AcDbBlockReference
  2
BLOCK_2
 10
0.0
 20
0.0
 30
0.0
  0
INSERT
  5
57
330
1F
100
AcDbEntity
  8
_U_30EC_U_30A4_U_30E4_U_32
100
AcDbBlockReference
  2
BLOCK_3
 10
0.0
 20
0.0
 30
0.0
  0
INSERT
  5
5B
330
1F
100
AcDbEntity
  8
_U_30EC_U_30A4_U_30E4_U_32
100
AcDbBlockReference
  2
BLOCK_4
 10
0.0
 20
0.0
 30
0.0
  0
SPLINE
  5
5E
330
1F
100
AcDbEntity
  8
_U_30EC_U_30A4_U_30E4_U_32
100
AcDbSpline
210
0.0
220
0.0
230
1.0
 70
    11
 71
     3
 72
   152
 73
   148
 74
     0
 42
0.0000000001
 43
0.0000000001
 12
1.0
 22
0.0
 32
0.0
 13
1.0
 23
0.0
 33
0.0
 40
0.0
 40
0.0
 40
0.0
 40
0.0
 40
1.0
 40
1.0
 40
1.0
 40
2.0
 40
2.0
 40
2.0
 40
3.0
 40
3.0
 40
3.0
 40
4.0
 40
4.0
 40
4.0
 40
5.0
 40
5.0
 40
5.0
 40
6.0
 40
6.0
 40
6.0
 40
7.0
 40
7.0
 40
7.0
 40
8.0
 40
8.0
 40
8.0
 40
9.0
 40
9.0
 40
9.0
 40
10.0
 40
10.0
 40
10.0
 40
11.0
 40
11.0
 40
11.0
 40
12.0
 40
12.0
 40
12.0
 40
13.0
 40
13.0
 40
13.0
 40
14.0
 40
14.0
 40
14.0
 40
15.0
 40
15.0
 40
15.0
 40
16.0
 40
16.0
 40
16.0
 40
17.0
 40
17.0
 40
17.0
 40
18.0
 40
18.0
 40
18.0
 40
19.0
 40
19.0
 40
19.0
 40
20.0
 40
20.0
 40
20.0
 40
21.0
 40
21.0
 40
21.0
 40
22.0
 40
22.0
 40
22.0
 40
23.0
 40
23.0
 40
23.0
 40
24.0
 40
24.0
 40
24.0
 40
25.0
 40
25.0
 40
25.0
 40
26.0
 40
26.0
 40
26.0
 40
27.0
 40
27.0
 40
27.0
 40
28.0
 40
28.0
 40
28.0
 40
29.0
 40
29.0
 40
29.0
 40
30.0
 40
30.0
 40
30.0
 40
31.0
 40
31.0
 40
31.0
 40
32.0
 40
32.0
 40
32.0
 40
33.0
 40
33.0
 40
33.0
 40
34.0
 40
34.0
 40
34.0
 40
35.0
 40
35.0
 40
35.0
 40
36.0
 40
36.0
 40
36.0
 40
37.0
 40
37.0
 40
37.0
 40
38.0
 40
38.0
 40
38.0
 40
39.0
 40
39.0
 40
39.0
 40
40.0
 40
40.0
 40
40.0
 40
41.0
 40
41.0
 40
41.0
 40
42.0
 40
42.0
 40
42.0
 40
43.0
 40
43.0
 40
43.0
 40
44.0
 40
44.0
 40
44.0
 40
45.0
 40
45.0
 40
45.0
 40
46.0
 40
46.0
 40
46.0
 40
47.0
 40
47.0
 40
47.0
 40
48.0
 40
48.0
 40
48.0
 40
49.0
 40
49.0
 40
49.0
 40
49.0
 10
150.8446194236662
 20
242.5787821481189
 30
0.0
 10
150.8446194236662
 20
242.5787821481189
 30
0.0
 10
152.3968512699142
 20
242.5787821481189
 30
0.0
 10
152.3968512699142
 20
242.5787821481189
 30
0.0
 10
152.3968512699142
 20
242.5787821481189
 30
0.0
 10
152.3968512699142
 20
237.9177924973007
 30
0.0
 10
152.3968512699142
 20
237.9177924973007
 30
0.0
 10
152.3968512699142
 20
237.9177924973007
 30
0.0
 10
144.6292244059796
 20
237.9177924973007
 30
0.0
 10
144.6292244059796
 20
237.9177924973007
 30
0.0
 10
144.6292244059796
 20
237.9177924973007
 30
0.0
 10
144.6292244059796
 20
241.0244486076594
 30
0.0
 10
144.6292244059796
 20
241.0244486076594
 30
0.0
 10
144.6292244059796
 20
241.0244486076594
 30
0.0
 10
138.4138293882936
 20
241.0244486076594
 30
0.0
 10
138.4138293882936
 20
241.0244486076594
 30
0.0
 10
138.4138293882936
 20
241.0244486076594
 30
0.0
 10
138.4138293882936
 20
263.5545019031324
 30
0.0
 10
138.4138293882936
 20
263.5545019031324
 30
0.0
 10
138.4138293882936
 20
263.5545019031324
 30
0.0
 10
135.0010021235163
 20
264.8819012976393
 30
0.0
 10
135.0010021235163
 20
264.8819012976393
 30
0.0
 10
134.5641628645257
 20
264.1390199470229
 30
0.0
 10
133.9454625438887
 20
263.5203001844865
 30
0.0
 10
133.2024521304791
 20
263.0834609254962
 30
0.0
 10
130.7981370821905
 20
261.6704476134805
 30
0.0
 10
127.7043066163238
 20
262.4753938314892
 30
0.0
 10
126.2912933043087
 20
264.8819012976393
 30
0.0
 10
124.8803627892622
 20
267.2863259668214
 30
0.0
 10
125.6853090072702
 20
270.3801564326877
 30
0.0
 10
128.0897336764514
 20
271.7910869477345
 30
0.0
 10
130.4940487247401
 20
273.2041002597503
 30
0.0
 10
133.5878791906068
 20
272.3991540417416
 30
0.0
 10
135.0010021235163
 20
269.9947293725601
 30
0.0
 10
135.0010021235163
 20
269.9947293725601
 30
0.0
 10
138.4138293882936
 20
271.322128767067
 30
0.0
 10
138.4138293882936
 20
271.322128767067
 30
0.0
 10
138.4138293882936
 20
271.322128767067
 30
0.0
 10
138.4138293882936
 20
276.7604212735915
 30
0.0
 10
138.4138293882936
 20
276.7604212735915
 30
0.0
 10
138.4138293882936
 20
276.7604212735915
 30
0.0
 10
88.69636953324392
 20
276.7604212735915
 30
0.0
 10
88.69636953324392
 20
276.7604212735915
 30
0.0
 10
88.69636953324392
 20
276.7604212735915
 30
0.0
 10
88.69636953324392
 20
271.322128767067
 30
0.0
 10
88.69636953324392
 20
271.322128767067
 30
0.0
 10
88.69636953324392
 20
271.322128767067
 30
0.0
 10
92.11018338605966
 20
269.9947293725601
 30
0.0
 10
92.11018338605966
 20
269.9947293725601
 30
0.0
 10
92.5469130241565
 20
270.7376301650759
 30
0.0
 10
93.16572797111843
 20
271.3564597308333
 30
0.0
 10
93.90862375820271
 20
271.7910869477345
 30
0.0
 10
96.3130484273845
 20
273.2041002597503
 30
0.0
 10
99.40786548128895
 20
272.3991540417416
 30
0.0
 10
100.8198922052666
 20
269.9947293725601
 30
0.0
 10
102.2302798502697
 20
267.5903047033783
 30
0.0
 10
101.427411194808
 20
264.494391440543
 30
0.0
 10
99.02145183312292
 20
263.0834609254962
 30
0.0
 10
96.61702716394146
 20
261.6704476134805
 30
0.0
 10
93.52221011003734
 20
262.4753938314892
 30
0.0
 10
92.11018338605966
 20
264.8819012976393
 30
0.0
 10
92.11018338605966
 20
264.8819012976393
 30
0.0
 10
88.69636953324392
 20
263.5545019031324
 30
0.0
 10
88.69636953324392
 20
263.5545019031324
 30
0.0
 10
88.69636953324392
 20
263.5545019031324
 30
0.0
 10
88.69636953324392
 20
241.0244486076594
 30
0.0
 10
88.69636953324392
 20
241.0244486076594
 30
0.0
 10
88.69636953324392
 20
241.0244486076594
 30
0.0
 10
82.48196110359538
 20
241.0244486076594
 30
0.0
 10
82.48196110359538
 20
241.0244486076594
 30
0.0
 10
82.48196110359538
 20
241.0244486076594
 30
0.0
 10
82.48196110359538
 20
237.9177924973007
 30
0.0
 10
82.48196110359538
 20
237.9177924973007
 30
0.0
 10
82.48196110359538
 20
237.9177924973007
 30
0.0
 10
74.71324257001267
 20
237.9177924973007
 30
0.0
 10
74.71324257001267
 20
237.9177924973007
 30
0.0
 10
74.71324257001267
 20
237.9177924973007
 30
0.0
 10
74.71324257001267
 20
242.5787821481189
 30
0.0
 10
74.71324257001267
 20
242.5787821481189
 30
0.0
 10
74.71324257001267
 20
242.5787821481189
 30
0.0
 10
76.26766687339085
 20
242.5787821481189
 30
0.0
 10
76.26766687339085
 20
242.5787821481189
 30
0.0
 10
76.26766687339085
 20
242.5787821481189
 30
0.0
 10
76.26766687339085
 20
247.2398626403362
 30
0.0
 10
76.26766687339085
 20
247.2398626403362
 30
0.0
 10
76.26766687339085
 20
247.2398626403362
 30
0.0
 10
70.05216207779443
 20
247.2398626403362
 30
0.0
 10
70.05216207779443
 20
247.2398626403362
 30
0.0
 10
70.05216207779443
 20
247.2398626403362
 30
0.0
 10
70.05216207779443
 20
234.811136386943
 30
0.0
 10
70.05216207779443
 20
234.811136386943
 30
0.0
 10
70.05216207779443
 20
234.811136386943
 30
0.0
 10
101.12551525522
 20
234.811136386943
 30
0.0
 10
101.12551525522
 20
234.811136386943
 30
0.0
 10
101.12551525522
 20
234.811136386943
 30
0.0
 10
101.12551525522
 20
241.0244486076594
 30
0.0
 10
101.12551525522
 20
241.0244486076594
 30
0.0
 10
101.12551525522
 20
241.0244486076594
 30
0.0
 10
94.9117645509302
 20
241.0244486076594
 30
0.0
 10
94.9117645509302
 20
241.0244486076594
 30
0.0
 10
94.9117645509302
 20
241.0244486076594
 30
0.0
 10
94.9117645509302
 20
259.2168031632984
 30
0.0
 10
94.9117645509302
 20
259.2168031632984
 30
0.0
 10
99.45182345942048
 20
258.3582523285654
 30
0.0
 10
103.8275606491589
 20
261.3427907640144
 30
0.0
 10
104.6861114838922
 20
265.8839458814359
 30
0.0
 10
104.9815397907872
 20
267.4490033721768
 30
0.0
 10
104.8252203972317
 20
269.0655826826732
 30
0.0
 10
104.2343637834408
 20
270.5450262559049
 30
0.0
 10
104.2343637834408
 20
270.5450262559049
 30
0.0
 10
112.3895005044722
 20
270.5450262559049
 30
0.0
 10
112.3895005044722
 20
270.5450262559049
 30
0.0
 10
112.3895005044722
 20
270.5450262559049
 30
0.0
 10
113.5564149114857
 20
272.564023864959
 30
0.0
 10
113.5564149114857
 20
272.564023864959
 30
0.0
 10
113.5564149114857
 20
272.564023864959
 30
0.0
 10
114.7211369006375
 20
270.5450262559049
 30
0.0
 10
114.7211369006375
 20
270.5450262559049
 30
0.0
 10
114.7211369006375
 20
270.5450262559049
 30
0.0
 10
122.8784717955685
 20
270.5450262559049
 30
0.0
 10
122.8784717955685
 20
270.5450262559049
 30
0.0
 10
121.1613643700652
 20
266.2543548792098
 30
0.0
 10
123.2488750373043
 20
261.3856525332154
 30
0.0
 10
127.5394367931069
 20
259.6685508637499
 30
0.0
 10
129.0167975693704
 20
259.0775846290658
 30
0.0
 10
130.6354596768353
 20
258.92126523551
 30
0.0
 10
132.2005171675756
 20
259.2168031632984
 30
0.0
 10
132.2005171675756
 20
259.2168031632984
 30
0.0
 10
132.2005171675756
 20
241.0244486076594
 30
0.0
 10
132.2005171675756
 20
241.0244486076594
 30
0.0
 10
132.2005171675756
 20
241.0244486076594
 30
0.0
 10
125.9851279844092
 20
241.0244486076594
 30
0.0
 10
125.9851279844092
 20
241.0244486076594
 30
0.0
 10
125.9851279844092
 20
241.0244486076594
 30
0.0
 10
125.9851279844092
 20
234.811136386943
 30
0.0
 10
125.9851279844092
 20
234.811136386943
 30
0.0
 10
125.9851279844092
 20
234.811136386943
 30
0.0
 10
157.0579316443835
 20
234.811136386943
 30
0.0
 10
157.0579316443835
 20
234.811136386943
 30
0.0
 10
157.0579316443835
 20
234.811136386943
 30
0.0
 10
157.0579316443835
 20
247.2398626403362
 30
0.0
 10
157.0579316443835
 20
247.2398626403362
 30
0.0
 10
157.0579316443835
 20
247.2398626403362
 30
0.0
 10
150.8446194236662
 20
247.2398626403362
 30
0.0
 10
150.8446194236662
 20
247.2398626403362
 30
0.0
 10
150.8446194236662
 20
247.2398626403362
 30
0.0
 10
150.8446194236662
 20
242.5787821481189
 30
0.0
 10
150.8446194236662
 20
242.5787821481189
 30
0.0
  0
HATCH
  5
5F
330
1F
100
AcDbEntity
  8
_U_30EC_U_30A4_U_30E4_U_32
 62
   254
100
AcDbHatch
 10
0.0
 20
0.0
 30
0.0
210
0.0
220
0.0
230
1.0
  2
SOLID
 70
     1
 71
     0
 91
        1
 92
        1
 93
        1
 72
     4
 94
        3
 73
     0
 74
     1
 95
      152
 96
      148
 40
0.0
 40
0.0
 40
0.0
 40
0.0
 40
1.0
 40
1.0
 40
1.0
 40
2.0
 40
2.0
 40
2.0
 40
3.0
 40
3.0
 40
3.0
 40
4.0
 40
4.0
 40
4.0
 40
5.0
 40
5.0
 40
5.0
 40
6.0
 40
6.0
 40
6.0
 40
7.0
 40
7.0
 40
7.0
 40
8.0
 40
8.0
 40
8.0
 40
9.0
 40
9.0
 40
9.0
 40
10.0
 40
10.0
 40
10.0
 40
11.0
 40
11.0
 40
11.0
 40
12.0
 40
12.0
 40
12.0
 40
13.0
 40
13.0
 40
13.0
 40
14.0
 40
14.0
 40
14.0
 40
15.0
 40
15.0
 40
15.0
 40
16.0
 40
16.0
 40
16.0
 40
17.0
 40
17.0
 40
17.0
 40
18.0
 40
18.0
 40
18.0
 40
19.0
 40
19.0
 40
19.0
 40
20.0
 40
20.0
 40
20.0
 40
21.0
 40
21.0
 40
21.0
 40
22.0
 40
22.0
 40
22.0
 40
23.0
 40
23.0
 40
23.0
 40
24.0
 40
24.0
 40
24.0
 40
25.0
 40
25.0
 40
25.0
 40
26.0
 40
26.0
 40
26.0
 40
27.0
 40
27.0
 40
27.0
 40
28.0
 40
28.0
 40
28.0
 40
29.0
 40
29.0
 40
29.0
 40
30.0
 40
30.0
 40
30.0
 40
31.0
 40
31.0
 40
31.0
 40
32.0
 40
32.0
 40
32.0
 40
33.0
 40
33.0
 40
33.0
 40
34.0
 40
34.0
 40
34.0
 40
35.0
 40
35.0
 40
35.0
 40
36.0
 40
36.0
 40
36.0
 40
37.0
 40
37.0
 40
37.0
 40
38.0
 40
38.0
 40
38.0
 40
39.0
 40
39.0
 40
39.0
 40
40.0
 40
40.0
 40
40.0
 40
41.0
 40
41.0
 40
41.0
 40
42.0
 40
42.0
 40
42.0
 40
43.0
 40
43.0
 40
43.0
 40
44.0
 40
44.0
 40
44.0
 40
45.0
 40
45.0
 40
45.0
 40
46.0
 40
46.0
 40
46.0
 40
47.0
 40
47.0
 40
47.0
 40
48.0
 40
48.0
 40
48.0
 40
49.0
 40
49.0
 40
49.0
 40
49.0
 10
150.8446194236662
 20
242.5787821481189
 10
150.8446194236662
 20
242.5787821481189
 10
152.3968512699142
 20
242.5787821481189
 10
152.3968512699142
 20
242.5787821481189
 10
152.3968512699142
 20
242.5787821481189
 10
152.3968512699142
 20
237.9177924973007
 10
152.3968512699142
 20
237.9177924973007
 10
152.3968512699142
 20
237.9177924973007
 10
144.6292244059796
 20
237.9177924973007
 10
144.6292244059796
 20
237.9177924973007
 10
144.6292244059796
 20
237.9177924973007
 10
144.6292244059796
 20
241.0244486076594
 10
144.6292244059796
 20
241.0244486076594
 10
144.6292244059796
 20
241.0244486076594
 10
138.4138293882936
 20
241.0244486076594
 10
138.4138293882936
 20
241.0244486076594
 10
138.4138293882936
 20
241.0244486076594
 10
138.4138293882936
 20
263.5545019031324
 10
138.4138293882936
 20
263.5545019031324
 10
138.4138293882936
 20
263.5545019031324
 10
135.0010021235163
 20
264.8819012976393
 10
135.0010021235163
 20
264.8819012976393
 10
134.5641628645257
 20
264.1390199470229
 10
133.9454625438887
 20
263.5203001844865
 10
133.2024521304791
 20
263.0834609254962
 10
130.7981370821905
 20
261.6704476134805
 10
127.7043066163238
 20
262.4753938314892
 10
126.2912933043087
 20
264.8819012976393
 10
124.8803627892622
 20
267.2863259668214
 10
125.6853090072702
 20
270.3801564326877
 10
128.0897336764514
 20
271.7910869477345
 10
130.4940487247401
 20
273.2041002597503
 10
133.5878791906068
 20
272.3991540417416
 10
135.0010021235163
 20
269.9947293725601
 10
135.0010021235163
 20
269.9947293725601
 10
138.4138293882936
 20
271.322128767067
 10
138.4138293882936
 20
271.322128767067
 10
138.4138293882936
 20
271.322128767067
 10
138.4138293882936
 20
276.7604212735915
 10
138.4138293882936
 20
276.7604212735915
 10
138.4138293882936
 20
276.7604212735915
 10
88.69636953324392
 20
276.7604212735915
 10
88.69636953324392
 20
276.7604212735915
 10
88.69636953324392
 20
276.7604212735915
 10
88.69636953324392
 20
271.322128767067
 10
88.69636953324392
 20
271.322128767067
 10
88.69636953324392
 20
271.322128767067
 10
92.11018338605966
 20
269.9947293725601
 10
92.11018338605966
 20
269.9947293725601
 10
92.5469130241565
 20
270.7376301650759
 10
93.16572797111843
 20
271.3564597308333
 10
93.90862375820271
 20
271.7910869477345
 10
96.3130484273845
 20
273.2041002597503
 10
99.40786548128895
 20
272.3991540417416
 10
100.8198922052666
 20
269.9947293725601
 10
102.2302798502697
 20
267.5903047033783
 10
101.427411194808
 20
264.494391440543
 10
99.02145183312292
 20
263.0834609254962
 10
96.61702716394146
 20
261.6704476134805
 10
93.52221011003734
 20
262.4753938314892
 10
92.11018338605966
 20
264.8819012976393
 10
92.11018338605966
 20
264.8819012976393
 10
88.69636953324392
 20
263.5545019031324
 10
88.69636953324392
 20
263.5545019031324
 10
88.69636953324392
 20
263.5545019031324
 10
88.69636953324392
 20
241.0244486076594
 10
88.69636953324392
 20
241.0244486076594
 10
88.69636953324392
 20
241.0244486076594
 10
82.48196110359538
 20
241.0244486076594
 10
82.48196110359538
 20
241.0244486076594
 10
82.48196110359538
 20
241.0244486076594
 10
82.48196110359538
 20
237.9177924973007
 10
82.48196110359538
 20
237.9177924973007
 10
82.48196110359538
 20
237.9177924973007
 10
74.71324257001267
 20
237.9177924973007
 10
74.71324257001267
 20
237.9177924973007
 10
74.71324257001267
 20
237.9177924973007
 10
74.71324257001267
 20
242.5787821481189
 10
74.71324257001267
 20
242.5787821481189
 10
74.71324257001267
 20
242.5787821481189
 10
76.26766687339085
 20
242.5787821481189
 10
76.26766687339085
 20
242.5787821481189
 10
76.26766687339085
 20
242.5787821481189
 10
76.26766687339085
 20
247.2398626403362
 10
76.26766687339085
 20
247.2398626403362
 10
76.26766687339085
 20
247.2398626403362
 10
70.05216207779443
 20
247.2398626403362
 10
70.05216207779443
 20
247.2398626403362
 10
70.05216207779443
 20
247.2398626403362
 10
70.05216207779443
 20
234.811136386943
 10
70.05216207779443
 20
234.811136386943
 10
70.05216207779443
 20
234.811136386943
 10
101.12551525522
 20
234.811136386943
 10
101.12551525522
 20
234.811136386943
 10
101.12551525522
 20
234.811136386943
 10
101.12551525522
 20
241.0244486076594
 10
101.12551525522
 20
241.0244486076594
 10
101.12551525522
 20
241.0244486076594
 10
94.9117645509302
 20
241.0244486076594
 10
94.9117645509302
 20
241.0244486076594
 10
94.9117645509302
 20
241.0244486076594
 10
94.9117645509302
 20
259.2168031632984
 10
94.9117645509302
 20
259.2168031632984
 10
99.45182345942048
 20
258.3582523285654
 10
103.8275606491589
 20
261.3427907640144
 10
104.6861114838922
 20
265.8839458814359
 10
104.9815397907872
 20
267.4490033721768
 10
104.8252203972317
 20
269.0655826826732
 10
104.2343637834408
 20
270.5450262559049
 10
104.2343637834408
 20
270.5450262559049
 10
112.3895005044722
 20
270.5450262559049
 10
112.3895005044722
 20
270.5450262559049
 10
112.3895005044722
 20
270.5450262559049
 10
113.5564149114857
 20
272.564023864959
 10
113.5564149114857
 20
272.564023864959
 10
113.5564149114857
 20
272.564023864959
 10
114.7211369006375
 20
270.5450262559049
 10
114.7211369006375
 20
270.5450262559049
 10
114.7211369006375
 20
270.5450262559049
 10
122.8784717955685
 20
270.5450262559049
 10
122.8784717955685
 20
270.5450262559049
 10
121.1613643700652
 20
266.2543548792098
 10
123.2488750373043
 20
261.3856525332154
 10
127.5394367931069
 20
259.6685508637499
 10
129.0167975693704
 20
259.0775846290658
 10
130.6354596768353
 20
258.92126523551
 10
132.2005171675756
 20
259.2168031632984
 10
132.2005171675756
 20
259.2168031632984
 10
132.2005171675756
 20
241.0244486076594
 10
132.2005171675756
 20
241.0244486076594
 10
132.2005171675756
 20
241.0244486076594
 10
125.9851279844092
 20
241.0244486076594
 10
125.9851279844092
 20
241.0244486076594
 10
125.9851279844092
 20
241.0244486076594
 10
125.9851279844092
 20
234.811136386943
 10
125.9851279844092
 20
234.811136386943
 10
125.9851279844092
 20
234.811136386943
 10
157.0579316443835
 20
234.811136386943
 10
157.0579316443835
 20
234.811136386943
 10
157.0579316443835
 20
234.811136386943
 10
157.0579316443835
 20
247.2398626403362
 10
157.0579316443835
 20
247.2398626403362
 10
157.0579316443835
 20
247.2398626403362
 10
150.8446194236662
 20
247.2398626403362
 10
150.8446194236662
 20
247.2398626403362
 10
150.8446194236662
 20
247.2398626403362
 10
150.8446194236662
 20
242.5787821481189
 10
150.8446194236662
 20
242.5787821481189
 97
        0
 75
     2
 76
     1
 98
        0
  0
INSERT
  5
61
330
1F
100
AcDbEntity
  8
_U_30EC_U_30A4_U_30E4_U_32
100
AcDbBlockReference
  2
BLOCK_5
 10
0.0
 20
0.0
 30
0.0
  0
POLYLINE
  5
1BA
330
1F
100
AcDbEntity
  8
TOP
 62
    29
100
AcDb2dPolyline
 66
     1
 10
0.0
 20
0.0
 30
0.0
  0
VERTEX
  5
1BB
330
1BA
100
AcDbEntity
  8
TOP
 62
    29
100
AcDbVertex
100
AcDb2dVertex
 10
40.89209395675577
 20
142.8246902451275
 30
0.0
  0
VERTEX
  5
1BC
330
1BA
100
AcDbEntity
  8
TOP
 62
    29
100
AcDbVertex
100
AcDb2dVertex
 10
40.89209395675577
 20
143.3428502319081
 30
0.0
  0
SEQEND
  5
1BD
330
1BA
100
AcDbEntity
  8
TOP
 62
    29
  0
POLYLINE
  5
1BE
330
1F
100
AcDbEntity
  8
TOP
 62
    29
100
AcDb2dPolyline
 66
     1
 10
0.0
 20
0.0
 30
0.0
  0
VERTEX
  5
1BF
330
1BE
100
AcDbEntity
  8
TOP
 62
    29
100
AcDbVertex
100
AcDb2dVertex
 10
41.64379282646722
 20
142.8246902451275
 30
0.0
  0
VERTEX
  5
1C0
330
1BE
100
AcDbEntity
  8
TOP
 62
    29
100
AcDbVertex
100
AcDb2dVertex
 10
41.64379282646722
 20
143.3428502319081
 30
0.0
  0
SEQEND
  5
1C1
330
1BE
100
AcDbEntity
  8
TOP
 62
    29
  0
ENDSEC
  0
SECTION
  2
OBJECTS
  0
DICTIONARY
  5
C
330
0
100
AcDbDictionary
  3
ACAD_GROUP
350
D
  3
ACAD_LAYOUT
350
1A
  3
ACAD_MATERIAL
350
3B
  3
ACAD_MLEADERSTYLE
350
1E4
  3
ACAD_MLINESTYLE
350
17
  3
ACAD_PLOTSETTINGS
350
19
  3
ACAD_VISUALSTYLE
350
2A
  3
ACDBHEADERROUNDTRIPXREC
350
1C2
  3
ACDBVARIABLEDICTIONARY
350
1E2
  0
DICTIONARY
  5
D
102
{ACAD_REACTORS
330
C
102
}
330
C
100
AcDbDictionary
  0
DICTIONARY
  5
1A
102
{ACAD_REACTORS
330
C
102
}
330
C
100
AcDbDictionary
  0
DICTIONARY
  5
3B
102
{ACAD_REACTORS
330
C
102
}
330
C
100
AcDbDictionary
  3
BYBLOCK
350
3D
  3
BYLAYER
350
3C
  3
GLOBAL
350
3E
  0
DICTIONARY
  5
1E4
102
{ACAD_REACTORS
330
C
102
}
330
C
100
AcDbDictionary
  0
DICTIONARY
  5
17
102
{ACAD_REACTORS
330
C
102
}
330
C
100
AcDbDictionary
  3
STANDARD
350
18
  0
DICTIONARY
  5
19
102
{ACAD_REACTORS
330
C
102
}
330
C
100
AcDbDictionary
  0
DICTIONARY
  5
2A
102
{ACAD_REACTORS
330
C
102
}
330
C
100
AcDbDictionary
  3
2DWIREFRAME
350
2F
  3
3DWIREFRAME
350
30
  3
3D_HIDDEN
350
31
  3
BASIC
350
32
  3
BRIGHTEN
350
36
  3
COLORCHANGE
350
3A
  3
CONCEPTUAL
350
34
  3
DIM
350
35
  3
FACEPATTERN
350
39
  3
FLAT
350
2B
  3
FLATWITHEDGES
350
2C
  3
GOURAUD
350
2D
  3
GOURAUDWITHEDGES
350
2E
  3
LINEPATTERN
350
38
  3
REALISTIC
350
33
  3
THICKEN
350
37
  0
DICTIONARY
  5
1C2
102
{ACAD_REACTORS
330
C
102
}
330
C
100
AcDbDictionary
  3
CEPSNTYPE
350
1CB
  3
DIMSTYLEDATA
350
1E1
  3
FINGERPRINTGUID
350
1CC
  3
HYPERLINKBASE
350
1C5
  3
INSUNITS
350
1CA
  3
LAYOUTDICT
350
1C7
  3
LWETCUNION
350
1C9
  3
PLOTSETDICT
350
1C8
  3
PSVPSCALE
350
1CE
  3
PUCSBASE
350
1D1
  3
PUCSORGBACK
350
1D7
  3
PUCSORGBOTTOM
350
1D3
  3
PUCSORGFRONT
350
1D6
  3
PUCSORGLEFT
350
1D4
  3
PUCSORGRIGHT
350
1D5
  3
PUCSORGTOP
350
1D2
  3
PUCSORTHOREF
350
1CF
  3
PUCSORTHOVIEW
350
1D0
  3
STYLESHEET
350
1C6
  3
TSTACKALIGN
350
1C3
  3
TSTACKSIZE
350
1C4
  3
UCSBASE
350
1DA
  3
UCSORGBACK
350
1E0
  3
UCSORGBOTTOM
350
1DC
  3
UCSORGFRONT
350
1DF
  3
UCSORGLEFT
350
1DD
  3
UCSORGRIGHT
350
1DE
  3
UCSORGTOP
350
1DB
  3
UCSORTHOREF
350
1D8
  3
UCSORTHOVIEW
350
1D9
  3
VERSIONGUID
350
1CD
  0
DICTIONARY
  5
1E2
102
{ACAD_REACTORS
330
C
102
}
330
C
100
AcDbDictionary
  3
DIMASSOC
350
1E5
  3
HIDETEXT
350
1E6
  0
MATERIAL
  5
3D
102
{ACAD_REACTORS
330
3B
102
}
102
{ACAD_XDICTIONARY
360
1E9
102
}
330
3B
100
AcDbMaterial
  1
ByBlock
  0
MATERIAL
  5
3C
102
{ACAD_REACTORS
330
3B
102
}
102
{ACAD_XDICTIONARY
360
1E7
102
}
330
3B
100
AcDbMaterial
  1
ByLayer
  0
MATERIAL
  5
3E
102
{ACAD_REACTORS
330
3B
102
}
102
{ACAD_XDICTIONARY
360
1EB
102
}
330
3B
100
AcDbMaterial
  1
Global
  0
MLINESTYLE
  5
18
102
{ACAD_REACTORS
330
17
102
}
330
17
100
AcDbMlineStyle
  2
Standard
 70
     0
  3

 62
   256
 51
90.0
 52
90.0
 71
     2
 49
0.5
 62
   256
  6
BYLAYER
 49
-0.5
 62
   256
  6
BYLAYER
  0
ACAD_PROXY_OBJECT
  5
2F
102
{ACAD_REACTORS
330
2A
102
}
330
2A
100
AcDbProxyObject
 90
      499
 91
      501
 93
      436
310
42CC9915DA5C99599C985B595049028333333333333E3BF0000000000000FB0107901411070040501600405405064090741402480A0340
1001
ACAD
1000
AcDbSavedByObjectVersion
1070
     0
  0
ACAD_PROXY_OBJECT
  5
30
102
{ACAD_REACTORS
330
2A
102
}
330
2A
100
AcDbProxyObject
 90
      499
 91
      501
 93
      436
310
42CCD915DA5C99599C985B595059028333333333333E3BF0000000000000FB0107901411070040501600405405064090741402480A0340
1001
ACAD
1000
AcDbSavedByObjectVersion
1070
     0
  0
ACAD_PROXY_OBJECT
  5
31
102
{ACAD_REACTORS
330
2A
102
}
330
2A
100
AcDbProxyObject
 90
      499
 91
      501
 93
      500
310
424CD108121A5919195B90640502408333333333333E3BF0000000000000FB01079024090700405020000000000001110200405405064090740C02480A0340
1001
ACAD
1000
AcDbSavedByObjectVersion
1070
     0
  0
ACAD_PROXY_OBJECT
  5
32
102
{ACAD_REACTORS
330
2A
102
}
330
2A
100
AcDbProxyObject
 90
      499
 91
      501
 93
      388
310
4150985CDA58D07406404333333333333E3BF0000000000000FB0107A41107004050150841D405064090741402480A0350
1001
ACAD
1000
AcDbSavedByObjectVersion
1070
     0
  0
ACAD_PROXY_OBJECT
  5
36
102
{ACAD_REACTORS
330
2A
102
}
330
2A
100
AcDbProxyObject
 90
      499
 91
      501
 93
      428
310
42109C9A59DA1D195B90C409028333333333333E3BF0000000000000FB010790141107004050150841D405064090741402480A029950
1001
ACAD
1000
AcDbSavedByObjectVersion
1070
     0
  0
ACAD_PROXY_OBJECT
  5
3A
102
{ACAD_REACTORS
330
2A
102
}
330
2A
100
AcDbProxyObject
 90
      499
 91
      501
 93
      452
310
42D0DBDB1BDC90DA185B99D95104090240C333333333333E3BF0000000000000FB0108901411070040501508421405064090741402480A0350
1001
ACAD
1000
AcDbSavedByObjectVersion
1070
     0
  0
ACAD_PROXY_OBJECT
  5
34
102
{ACAD_REACTORS
330
2A
102
}
330
2A
100
AcDbProxyObject
 90
      499
 91
      501
 93
      500
310
4290DBDB98D95C1D1D585B10940D028333333333333E3BF0000000000000FB0107902409070040501000000000000111010841D405064090740C02480A0340
1001
ACAD
1000
AcDbSavedByObjectVersion
1070
     0
  0
ACAD_PROXY_OBJECT
  5
35
102
{ACAD_REACTORS
330
2A
102
}
330
2A
100
AcDbProxyObject
 90
      499
 91
      501
 93
      412
310
40D11A5B50B409028333333333333E3BF0000000000000FB010790141107004050150841D405064090741402480A02677FFFFFD0
1001
ACAD
1000
AcDbSavedByObjectVersion
1070
     0
  0
ACAD_PROXY_OBJECT
  5
39
102
{ACAD_REACTORS
330
2A
102
}
330
2A
100
AcDbProxyObject
 90
      499
 91
      501
 93
      444
310
42D19858D95C185D1D195C9B90F409028333333333333E3BF0000000000000FB010790141107004050150841D405064090741402480A0350
1001
ACAD
1000
AcDbSavedByObjectVersion
1070
     0
  0
ACAD_PROXY_OBJECT
  5
2B
102
{ACAD_REACTORS
330
2A
102
}
330
2A
100
AcDbProxyObject
 90
      499
 91
      501
 93
      388
310
41119B185D240901404333333333333E3BF0000000000000F9010740A41107004050150841D405064090741402480A1B50
1001
ACAD
1000
AcDbSavedByObjectVersion
1070
     0
  0
ACAD_PROXY_OBJECT
  5
2C
102
{ACAD_REACTORS
330
2A
102
}
330
2A
100
AcDbProxyObject
 90
      499
 91
      501
 93
      476
310
43519B185D15DA5D1A115919D95CD0140901404333333333333E3BF0000000000000F9010740901411070040501600405405064090741402480A1B50
1001
ACAD
1000
AcDbSavedByObjectVersion
1070
     0
  0
ACAD_PROXY_OBJECT
  5
2D
102
{ACAD_REACTORS
330
2A
102
}
330
2A
100
AcDbProxyObject
 90
      499
 91
      501
 93
      412
310
41D1DBDD5C985D5910240902404333333333333E3BF0000000000000F9010740A411070040501641D405064090741402480A1B50
1001
ACAD
1000
AcDbSavedByObjectVersion
1070
     0
  0
ACAD_PROXY_OBJECT
  5
2E
102
{ACAD_REACTORS
330
2A
102
}
330
2A
100
AcDbProxyObject
 90
      499
 91
      501
 93
      500
310
4411DBDD5C985D5915DA5D1A115919D95CD0340902404333333333333E3BF0000000000000F9010740901411070040501600405405064090741402480A1B50
1001
ACAD
1000
AcDbSavedByObjectVersion
1070
     0
  0
ACAD_PROXY_OBJECT
  5
38
102
{ACAD_REACTORS
330
2A
102
}
330
2A
100
AcDbProxyObject
 90
      499
 91
      501
 93
      444
310
42D31A5B995C185D1D195C9B90E409028333333333333E3BF0000000000000FB010790141107004050750841D405064090741402483A0350
1001
ACAD
1000
AcDbSavedByObjectVersion
1070
     0
  0
ACAD_PROXY_OBJECT
  5
33
102
{ACAD_REACTORS
330
2A
102
}
330
2A
100
AcDbProxyObject
 90
      499
 91
      501
 93
      420
310
425499585B1A5CDD1A58D08409028333333333333E3BF0000000000000FB01079019070040501508421405064090741402480A1B40
1001
ACAD
1000
AcDbSavedByObjectVersion
1070
     0
  0
ACAD_PROXY_OBJECT
  5
37
102
{ACAD_REACTORS
330
2A
102
}
330
2A
100
AcDbProxyObject
 90
      499
 91
      501
 93
      412
310
41D51A1A58DAD95B90D409028333333333333E3BF0000000000000FB010790141107004050150C41D405064090741402480A0350
1001
ACAD
1000
AcDbSavedByObjectVersion
1070
     0
  0
XRECORD
  5
1CB
102
{ACAD_REACTORS
330
1C2
102
}
330
1C2
100
AcDbXrecord
 90
        0
  0
XRECORD
  5
1E1
102
{ACAD_REACTORS
330
1C2
102
}
330
1C2
100
AcDbXrecord
1000
DSTYLE
1002
{
1070
   340
340
11
1002
}
  0
XRECORD
  5
1CC
102
{ACAD_REACTORS
330
1C2
102
}
330
1C2
100
AcDbXrecord
  1
{6777B2AB-B7FA-7814-1734-EEF0855238C6}
  0
XRECORD
  5
1C5
102
{ACAD_REACTORS
330
1C2
102
}
330
1C2
100
AcDbXrecord
  1

  0
XRECORD
  5
1CA
102
{ACAD_REACTORS
330
1C2
102
}
330
1C2
100
AcDbXrecord
 90
        1
  0
XRECORD
  5
1C7
102
{ACAD_REACTORS
330
1C2
102
}
330
1C2
100
AcDbXrecord
340
1A
  0
XRECORD
  5
1C9
102
{ACAD_REACTORS
330
1C2
102
}
330
1C2
100
AcDbXrecord
 90
    10269
  0
XRECORD
  5
1C8
102
{ACAD_REACTORS
330
1C2
102
}
330
1C2
100
AcDbXrecord
340
19
  0
XRECORD
  5
1CE
102
{ACAD_REACTORS
330
1C2
102
}
330
1C2
100
AcDbXrecord
 40
0.0
  0
XRECORD
  5
1D1
102
{ACAD_REACTORS
330
1C2
102
}
330
1C2
100
AcDbXrecord
340
0
  0
XRECORD
  5
1D7
102
{ACAD_REACTORS
330
1C2
102
}
330
1C2
100
AcDbXrecord
 10
0.0
 20
0.0
 30
0.0
  0
XRECORD
  5
1D3
102
{ACAD_REACTORS
330
1C2
102
}
330
1C2
100
AcDbXrecord
 10
0.0
 20
0.0
 30
0.0
  0
XRECORD
  5
1D6
102
{ACAD_REACTORS
330
1C2
102
}
330
1C2
100
AcDbXrecord
 10
0.0
 20
0.0
 30
0.0
  0
XRECORD
  5
1D4
102
{ACAD_REACTORS
330
1C2
102
}
330
1C2
100
AcDbXrecord
 10
0.0
 20
0.0
 30
0.0
  0
XRECORD
  5
1D5
102
{ACAD_REACTORS
330
1C2
102
}
330
1C2
100
AcDbXrecord
 10
0.0
 20
0.0
 30
0.0
  0
XRECORD
  5
1D2
102
{ACAD_REACTORS
330
1C2
102
}
330
1C2
100
AcDbXrecord
 10
0.0
 20
0.0
 30
0.0
  0
XRECORD
  5
1CF
102
{ACAD_REACTORS
330
1C2
102
}
330
1C2
100
AcDbXrecord
340
0
  0
XRECORD
  5
1D0
102
{ACAD_REACTORS
330
1C2
102
}
330
1C2
100
AcDbXrecord
 70
     0
  0
XRECORD
  5
1C6
102
{ACAD_REACTORS
330
1C2
102
}
330
1C2
100
AcDbXrecord
  1

  0
XRECORD
  5
1C3
102
{ACAD_REACTORS
330
1C2
102
}
330
1C2
100
AcDbXrecord
 90
        1
  0
XRECORD
  5
1C4
102
{ACAD_REACTORS
330
1C2
102
}
330
1C2
100
AcDbXrecord
 90
       70
  0
XRECORD
  5
1DA
102
{ACAD_REACTORS
330
1C2
102
}
330
1C2
100
AcDbXrecord
340
0
  0
XRECORD
  5
1E0
102
{ACAD_REACTORS
330
1C2
102
}
330
1C2
100
AcDbXrecord
 10
0.0
 20
0.0
 30
0.0
  0
XRECORD
  5
1DC
102
{ACAD_REACTORS
330
1C2
102
}
330
1C2
100
AcDbXrecord
 10
0.0
 20
0.0
 30
0.0
  0
XRECORD
  5
1DF
102
{ACAD_REACTORS
330
1C2
102
}
330
1C2
100
AcDbXrecord
 10
0.0
 20
0.0
 30
0.0
  0
XRECORD
  5
1DD
102
{ACAD_REACTORS
330
1C2
102
}
330
1C2
100
AcDbXrecord
 10
0.0
 20
0.0
 30
0.0
  0
XRECORD
  5
1DE
102
{ACAD_REACTORS
330
1C2
102
}
330
1C2
100
AcDbXrecord
 10
0.0
 20
0.0
 30
0.0
  0
XRECORD
  5
1DB
102
{ACAD_REACTORS
330
1C2
102
}
330
1C2
100
AcDbXrecord
 10
0.0
 20
0.0
 30
0.0
  0
XRECORD
  5
1D8
102
{ACAD_REACTORS
330
1C2
102
}
330
1C2
100
AcDbXrecord
340
0
  0
XRECORD
  5
1D9
102
{ACAD_REACTORS
330
1C2
102
}
330
1C2
100
AcDbXrecord
 70
     0
  0
XRECORD
  5
1CD
102
{ACAD_REACTORS
330
1C2
102
}
330
1C2
100
AcDbXrecord
  1
{FAEB1C32-E019-11D5-929B-00C0DF256EC4}
  0
DICTIONARYVAR
  5
1E5
102
{ACAD_REACTORS
330
1E2
102
}
330
1E2
100
DictionaryVariables
280
     0
  1
2
  0
DICTIONARYVAR
  5
1E6
102
{ACAD_REACTORS
330
1E2
102
}
330
1E2
100
DictionaryVariables
280
     0
  1
1
  0
DICTIONARY
  5
1E9
330
3D
100
AcDbDictionary
280
     1
  3
ACAD_XREC_ROUNDTRIP
360
1EA
  0
DICTIONARY
  5
1E7
330
3C
100
AcDbDictionary
280
     1
  3
ACAD_XREC_ROUNDTRIP
360
1E8
  0
DICTIONARY
  5
1EB
330
3E
100
AcDbDictionary
280
     1
  3
ACAD_XREC_ROUNDTRIP
360
1EC
  0
XRECORD
  5
1EA
102
{ACAD_REACTORS
330
1E9
102
}
330
1E9
100
AcDbXrecord
102
MATERIAL
148
0.0
149
0.0
149
0.0
 93
        0
 94
      127
282
     0
 72
     1
 77
     1
171
     1
175
     1
179
     1
273
     0
  0
XRECORD
  5
1E8
102
{ACAD_REACTORS
330
1E7
102
}
330
1E7
100
AcDbXrecord
102
MATERIAL
148
0.0
149
0.0
149
0.0
 93
        0
 94
      127
282
     0
 72
     1
 77
     1
171
     1
175
     1
179
     1
273
     0
  0
XRECORD
  5
1EC
102
{ACAD_REACTORS
330
1EB
102
}
330
1EB
100
AcDbXrecord
102
MATERIAL
148
0.0
149
0.0
149
0.0
 93
        0
 94
      127
282
     0
 72
     1
 77
     1
171
     1
175
     1
179
     1
273
     0
  0
ENDSEC
  0
EOF
