  0
SECTION
  2
HEADER
  9
$ACADVER
  1
AC1024
  9
$ACADMAINTVER
 70
     6
  9
$DWGCODEPAGE
  3
UNDEFINED
  9
$INSBASE
 10
0.0
 20
0.0
 30
0.0
  9
$EXTMIN
 10
1.000000000000000E+20
 20
1.000000000000000E+20
 30
1.000000000000000E+20
  9
$EXTMAX
 10
-1.000000000000000E+20
 20
-1.000000000000000E+20
 30
-1.000000000000000E+20
  9
$LIMMIN
 10
0.0
 20
0.0
  9
$LIMMAX
 10
12.0
 20
9.0
  9
$ORTHOMODE
 70
     0
  9
$REGENMODE
 70
     1
  9
$FILLMODE
 70
     1
  9
$QTEXTMODE
 70
     0
  9
$MIRRTEXT
 70
     1
  9
$LTSCALE
 40
1.0
  9
$ATTMODE
 70
     1
  9
$TEXTSIZE
 40
0.2
  9
$TRACEWID
 40
0.05
  9
$TEXTSTYLE
  7
Standard
  9
$CLAYER
  8
0
  9
$CELTYPE
  6
ByLayer
  9
$CECOLOR
 62
   256
  9
$CELTSCALE
 40
1.0
  9
$DISPSILH
 70
     0
  9
$DIMSCALE
 40
1.0
  9
$DIMASZ
 40
0.18
  9
$DIMEXO
 40
0.0625
  9
$DIMDLI
 40
0.38
  9
$DIMRND
 40
0.0
  9
$DIMDLE
 40
0.0
  9
$DIMEXE
 40
0.18
  9
$DIMTP
 40
0.0
  9
$DIMTM
 40
0.0
  9
$DIMTXT
 40
0.18
  9
$DIMCEN
 40
0.09
  9
$DIMTSZ
 40
0.0
  9
$DIMTOL
 70
     0
  9
$DIMLIM
 70
     0
  9
$DIMTIH
 70
     1
  9
$DIMTOH
 70
     1
  9
$DIMSE1
 70
     0
  9
$DIMSE2
 70
     0
  9
$DIMTAD
 70
     0
  9
$DIMZIN
 70
     0
  9
$DIMBLK
  1

  9
$DIMASO
 70
     1
  9
$DIMSHO
 70
     1
  9
$DIMPOST
  1

  9
$DIMAPOST
  1

  9
$DIMALT
 70
     0
  9
$DIMALTD
 70
     2
  9
$DIMALTF
 40
25.4
  9
$DIMLFAC
 40
1.0
  9
$DIMTOFL
 70
     0
  9
$DIMTVP
 40
0.0
  9
$DIMTIX
 70
     0
  9
$DIMSOXD
 70
     0
  9
$DIMSAH
 70
     0
  9
$DIMBLK1
  1

  9
$DIMBLK2
  1

  9
$DIMSTYLE
  2
Standard
  9
$DIMCLRD
 70
     0
  9
$DIMCLRE
 70
     0
  9
$DIMCLRT
 70
     0
  9
$DIMTFAC
 40
1.0
  9
$DIMGAP
 40
0.09
  9
$DIMJUST
 70
     0
  9
$DIMSD1
 70
     0
  9
$DIMSD2
 70
     0
  9
$DIMTOLJ
 70
     1
  9
$DIMTZIN
 70
     0
  9
$DIMALTZ
 70
     0
  9
$DIMALTTZ
 70
     0
  9
$DIMUPT
 70
     0
  9
$DIMDEC
 70
     4
  9
$DIMTDEC
 70
     4
  9
$DIMALTU
 70
     2
  9
$DIMALTTD
 70
     2
  9
$DIMTXSTY
  7
Standard
  9
$DIMAUNIT
 70
     0
  9
$DIMADEC
 70
     0
  9
$DIMALTRND
 40
0.0
  9
$DIMAZIN
 70
     0
  9
$DIMDSEP
 70
    46
  9
$DIMATFIT
 70
     3
  9
$DIMFRAC
 70
     0
  9
$DIMLDRBLK
  1

  9
$DIMLUNIT
 70
     2
  9
$DIMLWD
 70
    -2
  9
$DIMLWE
 70
    -2
  9
$DIMTMOVE
 70
     0
  9
$DIMFXL
 40
1.0
  9
$DIMFXLON
 70
     0
  9
$DIMJOGANG
 40
0.7853981633974483
  9
$DIMTFILL
 70
     0
  9
$DIMTFILLCLR
 70
     0
  9
$DIMARCSYM
 70
     0
  9
$DIMLTYPE
  6

  9
$DIMLTEX1
  6

  9
$DIMLTEX2
  6

  9
$DIMTXTDIRECTION
 70
     0
  9
$LUNITS
 70
     2
  9
$LUPREC
 70
     4
  9
$SKETCHINC
 40
0.1
  9
$FILLETRAD
 40
0.5
  9
$AUNITS
 70
     0
  9
$AUPREC
 70
     0
  9
$MENU
  1
.
  9
$ELEVATION
 40
0.0
  9
$PELEVATION
 40
0.0
  9
$THICKNESS
 40
0.0
  9
$LIMCHECK
 70
     0
  9
$CHAMFERA
 40
0.5
  9
$CHAMFERB
 40
0.5
  9
$CHAMFERC
 40
1.0
  9
$CHAMFERD
 40
0.0
  9
$SKPOLY
 70
     0
  9
$TDCREATE
 40
2457917.646493044
  9
$TDUCREATE
 40
2457917.271493055
  9
$TDUPDATE
 40
2457917.646493044
  9
$TDUUPDATE
 40
2457917.271493055
  9
$TDINDWG
 40
0.0000000116
  9
$TDUSRTIMER
 40
0.0000000116
  9
$USRTIMER
 70
     1
  9
$ANGBASE
 50
0.0
  9
$ANGDIR
 70
     0
  9
$PDMODE
 70
     0
  9
$PDSIZE
 40
0.0
  9
$PLINEWID
 40
0.0
  9
$SPLFRAME
 70
     0
  9
$SPLINETYPE
 70
     6
  9
$SPLINESEGS
 70
     8
  9
$HANDSEED
  5
180
  9
$SURFTAB1
 70
     6
  9
$SURFTAB2
 70
     6
  9
$SURFTYPE
 70
     6
  9
$SURFU
 70
     6
  9
$SURFV
 70
     6
  9
$UCSBASE
  2

  9
$UCSNAME
  2

  9
$UCSORG
 10
0.0
 20
0.0
 30
0.0
  9
$UCSXDIR
 10
1.0
 20
0.0
 30
0.0
  9
$UCSYDIR
 10
0.0
 20
1.0
 30
0.0
  9
$UCSORTHOREF
  2

  9
$UCSORTHOVIEW
 70
     0
  9
$UCSORGTOP
 10
0.0
 20
0.0
 30
0.0
  9
$UCSORGBOTTOM
 10
0.0
 20
0.0
 30
0.0
  9
$UCSORGLEFT
 10
0.0
 20
0.0
 30
0.0
  9
$UCSORGRIGHT
 10
0.0
 20
0.0
 30
0.0
  9
$UCSORGFRONT
 10
0.0
 20
0.0
 30
0.0
  9
$UCSORGBACK
 10
0.0
 20
0.0
 30
0.0
  9
$PUCSBASE
  2

  9
$PUCSNAME
  2

  9
$PUCSORG
 10
0.0
 20
0.0
 30
0.0
  9
$PUCSXDIR
 10
1.0
 20
0.0
 30
0.0
  9
$PUCSYDIR
 10
0.0
 20
1.0
 30
0.0
  9
$PUCSORTHOREF
  2

  9
$PUCSORTHOVIEW
 70
     0
  9
$PUCSORGTOP
 10
0.0
 20
0.0
 30
0.0
  9
$PUCSORGBOTTOM
 10
0.0
 20
0.0
 30
0.0
  9
$PUCSORGLEFT
 10
0.0
 20
0.0
 30
0.0
  9
$PUCSORGRIGHT
 10
0.0
 20
0.0
 30
0.0
  9
$PUCSORGFRONT
 10
0.0
 20
0.0
 30
0.0
  9
$PUCSORGBACK
 10
0.0
 20
0.0
 30
0.0
  9
$USERI1
 70
     0
  9
$USERI2
 70
     0
  9
$USERI3
 70
     0
  9
$USERI4
 70
     0
  9
$USERI5
 70
     0
  9
$USERR1
 40
0.0
  9
$USERR2
 40
0.0
  9
$USERR3
 40
0.0
  9
$USERR4
 40
0.0
  9
$USERR5
 40
0.0
  9
$WORLDVIEW
 70
     1
  9
$SHADEDGE
 70
     3
  9
$SHADEDIF
 70
    70
  9
$TILEMODE
 70
     1
  9
$MAXACTVP
 70
    64
  9
$PINSBASE
 10
0.0
 20
0.0
 30
0.0
  9
$PLIMCHECK
 70
     0
  9
$PEXTMIN
 10
1.000000000000000E+20
 20
1.000000000000000E+20
 30
1.000000000000000E+20
  9
$PEXTMAX
 10
-1.000000000000000E+20
 20
-1.000000000000000E+20
 30
-1.000000000000000E+20
  9
$PLIMMIN
 10
0.0
 20
0.0
  9
$PLIMMAX
 10
12.0
 20
9.0
  9
$UNITMODE
 70
     0
  9
$VISRETAIN
 70
     1
  9
$PLINEGEN
 70
     0
  9
$PSLTSCALE
 70
     1
  9
$TREEDEPTH
 70
  3020
  9
$CMLSTYLE
  2
Standard
  9
$CMLJUST
 70
     0
  9
$CMLSCALE
 40
1.0
  9
$PROXYGRAPHICS
 70
     1
  9
$MEASUREMENT
 70
     0
  9
$CELWEIGHT
370
    -1
  9
$ENDCAPS
280
     0
  9
$JOINSTYLE
280
     0
  9
$LWDISPLAY
290
     1
  9
$INSUNITS
 70
     1
  9
$HYPERLINKBASE
  1

  9
$STYLESHEET
  1

  9
$XEDIT
290
     1
  9
$CEPSNTYPE
380
     0
  9
$PSTYLEMODE
290
     1
  9
$FINGERPRINTGUID
  2
{C0FE7C1A-4606-E3F1-FEC6-0B317195168C}
  9
$VERSIONGUID
  2
{FAEB1C32-E019-11D5-929B-00C0DF256EC4}
  9
$EXTNAMES
290
     1
  9
$PSVPSCALE
 40
0.0
  9
$OLESTARTUP
290
     0
  9
$SORTENTS
280
   127
  9
$INDEXCTL
280
     0
  9
$HIDETEXT
280
     1
  9
$XCLIPFRAME
280
     2
  9
$HALOGAP
280
     0
  9
$OBSCOLOR
 70
   257
  9
$OBSLTYPE
280
     0
  9
$INTERSECTIONDISPLAY
280
     0
  9
$INTERSECTIONCOLOR
 70
   257
  9
$DIMASSOC
280
     2
  9
$PROJECTNAME
  1

  9
$CAMERADISPLAY
290
     0
  9
$LENSLENGTH
 40
50.0
  9
$CAMERAHEIGHT
 40
0.0
  9
$STEPSPERSEC
 40
2.0
  9
$STEPSIZE
 40
6.0
  9
$3DDWFPREC
 40
2.0
  9
$PSOLWIDTH
 40
0.25
  9
$PSOLHEIGHT
 40
4.0
  9
$LOFTANG1
 40
1.570796326794897
  9
$LOFTANG2
 40
1.570796326794897
  9
$LOFTMAG1
 40
0.0
  9
$LOFTMAG2
 40
0.0
  9
$LOFTPARAM
 70
     7
  9
$LOFTNORMALS
280
     1
  9
$LATITUDE
 40
37.795
  9
$LONGITUDE
 40
-122.394
  9
$NORTHDIRECTION
 40
0.0
  9
$TIMEZONE
 70
 -8000
  9
$LIGHTGLYPHDISPLAY
280
     1
  9
$TILEMODELIGHTSYNCH
280
     1
  9
$CMATERIAL
347
3C
  9
$SOLIDHIST
280
     1
  9
$SHOWHIST
280
     1
  9
$DWFFRAME
280
     2
  9
$DGNFRAME
280
     2
  9
$REALWORLDSCALE
290
     1
  9
$INTERFERECOLOR
 62
   256
  9
$CSHADOW
280
     0
  9
$SHADOWPLANELOCATION
 40
0.0
  0
ENDSEC
  0
SECTION
  2
CLASSES
  0
CLASS
  1
ACDBDICTIONARYWDFLT
  2
AcDbDictionaryWithDefault
  3
ObjectDBX Classes
 90
        0
 91
        4
280
     0
281
     0
  0
CLASS
  1
VISUALSTYLE
  2
AcDbVisualStyle
  3
ObjectDBX Classes
 90
     4095
 91
        4
280
     0
281
     0
  0
CLASS
  1
MATERIAL
  2
AcDbMaterial
  3
ObjectDBX Classes
 90
     1153
 91
        4
280
     0
281
     0
  0
CLASS
  1
SUN
  2
AcDbSun
  3
SCENEOE
 90
     1024
 91
        4
280
     0
281
     0
  0
ENDSEC
  0
SECTION
  2
TABLES
  0
TABLE
  2
VPORT
  5
8
330
0
100
AcDbSymbolTable
 70
     1
  0
VPORT
  5
29
330
8
100
AcDbSymbolTableRecord
100
AcDbViewportTableRecord
  2
*Active
 70
     0
 10
0.0
 20
0.0
 11
1.0
 21
1.0
 12
0.0
 22
0.0
 13
0.0
 23
0.0
 14
0.5
 24
0.5
 15
0.5
 25
0.5
 16
0.0
 26
0.0
 36
1.0
 17
91.00082462281999
 27
-128.4993055234307
 37
0.0
 40
256.9986110468615
 41
0.7081814508812795
 42
50.0
 43
0.0
 44
0.0
 50
0.0
 51
0.0
 71
     0
 72
   100
 73
     1
 74
     3
 75
     0
 76
     0
 77
     0
 78
     0
281
     0
 65
     1
110
0.0
120
0.0
130
0.0
111
1.0
121
0.0
131
0.0
112
0.0
122
1.0
132
0.0
 79
     0
146
0.0
 60
     3
 61
     5
292
     1
282
     1
141
0.0
142
0.0
 63
   250
361
3F
  0
ENDTAB
  0
TABLE
  2
LTYPE
  5
5
330
0
100
AcDbSymbolTable
 70
     1
  0
LTYPE
  5
14
330
5
100
AcDbSymbolTableRecord
100
AcDbLinetypeTableRecord
  2
ByBlock
 70
     0
  3

 72
    65
 73
     0
 40
0.0
  0
LTYPE
  5
15
330
5
100
AcDbSymbolTableRecord
100
AcDbLinetypeTableRecord
  2
ByLayer
 70
     0
  3

 72
    65
 73
     0
 40
0.0
  0
LTYPE
  5
16
330
5
100
AcDbSymbolTableRecord
100
AcDbLinetypeTableRecord
  2
Continuous
 70
     0
  3
Solid line
 72
    65
 73
     0
 40
0.0
  0
ENDTAB
  0
TABLE
  2
LAYER
  5
2
330
0
100
AcDbSymbolTable
 70
     2
  0
LAYER
  5
10
330
2
100
AcDbSymbolTableRecord
100
AcDbLayerTableRecord
  2
0
 70
     0
 62
     7
  6
Continuous
370
    -3
390
F
347
3E
  0
LAYER
  5
40
330
2
100
AcDbSymbolTableRecord
100
AcDbLayerTableRecord
  2
_U+30EC_U+30A4_U+30E4_U+30FC 1
 70
     0
 62
     7
  6
Continuous
370
    -3
390
F
347
3E
  0
ENDTAB
  0
TABLE
  2
STYLE
  5
3
330
0
100
AcDbSymbolTable
 70
     1
  0
STYLE
  5
11
330
3
100
AcDbSymbolTableRecord
100
AcDbTextStyleTableRecord
  2
Standard
 70
     0
 40
0.0
 41
1.0
 50
0.0
 71
     0
 42
0.2
  3
txt
  4

  0
ENDTAB
  0
TABLE
  2
VIEW
  5
6
330
0
100
AcDbSymbolTable
 70
     0
  0
ENDTAB
  0
TABLE
  2
UCS
  5
7
330
0
100
AcDbSymbolTable
 70
     0
  0
ENDTAB
  0
TABLE
  2
APPID
  5
9
330
0
100
AcDbSymbolTable
 70
     1
  0
APPID
  5
12
330
9
100
AcDbSymbolTableRecord
100
AcDbRegAppTableRecord
  2
ACAD
 70
     0
  0
ENDTAB
  0
TABLE
  2
DIMSTYLE
  5
A
330
0
100
AcDbSymbolTable
 70
     1
100
AcDbDimStyleTable
  0
DIMSTYLE
105
27
330
A
100
AcDbSymbolTableRecord
100
AcDbDimStyleTableRecord
  2
Standard
 70
     0
178
     0
340
11
  0
ENDTAB
  0
TABLE
  2
BLOCK_RECORD
  5
1
330
0
100
AcDbSymbolTable
 70
     7
  0
BLOCK_RECORD
  5
1F
330
1
100
AcDbSymbolTableRecord
100
AcDbBlockTableRecord
  2
*Model_Space
340
22
 70
     0
280
     1
281
     0
  0
BLOCK_RECORD
  5
1B
330
1
100
AcDbSymbolTableRecord
100
AcDbBlockTableRecord
  2
*Paper_Space
340
1E
 70
     0
280
     1
281
     0
  0
BLOCK_RECORD
  5
23
330
1
100
AcDbSymbolTableRecord
100
AcDbBlockTableRecord
  2
*Paper_Space0
340
26
 70
     0
280
     1
281
     0
  0
BLOCK_RECORD
  5
F2
330
1
100
AcDbSymbolTableRecord
100
AcDbBlockTableRecord
  2
block 2
340
0
102
{BLKREFS
331
F3
102
}
 70
     0
280
     1
281
     0
  0
BLOCK_RECORD
  5
120
330
1
100
AcDbSymbolTableRecord
100
AcDbBlockTableRecord
  2
block 3
340
0
102
{BLKREFS
331
121
102
}
 70
     0
280
     1
281
     0
  0
BLOCK_RECORD
  5
133
330
1
100
AcDbSymbolTableRecord
100
AcDbBlockTableRecord
  2
block 4
340
0
102
{BLKREFS
331
134
102
}
 70
     0
280
     1
281
     0
  0
BLOCK_RECORD
  5
139
330
1
100
AcDbSymbolTableRecord
100
AcDbBlockTableRecord
  2
block 5
340
0
102
{BLKREFS
331
13A
102
}
 70
     0
280
     1
281
     0
  0
BLOCK_RECORD
  5
142
330
1
100
AcDbSymbolTableRecord
100
AcDbBlockTableRecord
  2
block 6
340
0
102
{BLKREFS
331
143
102
}
 70
     0
280
     1
281
     0
  0
BLOCK_RECORD
  5
14A
330
1
100
AcDbSymbolTableRecord
100
AcDbBlockTableRecord
  2
block 7
340
0
102
{BLKREFS
331
14B
102
}
 70
     0
280
     1
281
     0
  0
ENDTAB
  0
ENDSEC
  0
SECTION
  2
BLOCKS
  0
BLOCK
  5
20
330
1F
100
AcDbEntity
  8
0
100
AcDbBlockBegin
  2
*Model_Space
 70
     0
 10
0.0
 20
0.0
 30
0.0
  3
*Model_Space
  1

  0
ENDBLK
  5
21
330
1F
100
AcDbEntity
  8
0
100
AcDbBlockEnd
  0
BLOCK
  5
1C
330
1B
100
AcDbEntity
 67
     1
  8
0
100
AcDbBlockBegin
  2
*Paper_Space
 70
     0
 10
0.0
 20
0.0
 30
0.0
  3
*Paper_Space
  1

  0
ENDBLK
  5
1D
330
1B
100
AcDbEntity
 67
     1
  8
0
100
AcDbBlockEnd
  0
BLOCK
  5
24
330
23
100
AcDbEntity
  8
0
100
AcDbBlockBegin
  2
*Paper_Space0
 70
     0
 10
0.0
 20
0.0
 30
0.0
  3
*Paper_Space0
  1

  0
ENDBLK
  5
25
330
23
100
AcDbEntity
  8
0
100
AcDbBlockEnd
  0
BLOCK
  5
F4
330
F2
100
AcDbEntity
  8
0
100
AcDbBlockBegin
  2
block 2
 70
     0
 10
0.0
 20
0.0
 30
0.0
  3
block 2
  1

  0
POLYLINE
  5
F6
330
F2
100
AcDbEntity
  8
_U+30EC_U+30A4_U+30E4_U+30FC 1
370
     0
100
AcDb2dPolyline
 66
     1
 10
0.0
 20
0.0
 30
0.0
  0
VERTEX
  5
F7
330
F6
100
AcDbEntity
  8
_U+30EC_U+30A4_U+30E4_U+30FC 1
370
     0
100
AcDbVertex
100
AcDb2dVertex
 10
85.54482148469019
 20
-132.7874158739212
 30
0.0
  0
VERTEX
  5
F8
330
F6
100
AcDbEntity
  8
_U+30EC_U+30A4_U+30E4_U+30FC 1
370
     0
100
AcDbVertex
100
AcDb2dVertex
 10
85.54482148469019
 20
-133.1343369892859
 30
0.0
  0
VERTEX
  5
F9
330
F6
100
AcDbEntity
  8
_U+30EC_U+30A4_U+30E4_U+30FC 1
370
     0
100
AcDbVertex
100
AcDb2dVertex
 10
85.32691919524814
 20
-133.1343369892859
 30
0.0
  0
VERTEX
  5
FA
330
F6
100
AcDbEntity
  8
_U+30EC_U+30A4_U+30E4_U+30FC 1
370
     0
100
AcDbVertex
100
AcDb2dVertex
 10
85.32691919524814
 20
-132.7874158739212
 30
0.0
  0
VERTEX
  5
FB
330
F6
100
AcDbEntity
  8
_U+30EC_U+30A4_U+30E4_U+30FC 1
370
     0
100
AcDbVertex
100
AcDb2dVertex
 10
84.67114526963083
 20
-132.7874158739212
 30
0.0
  0
VERTEX
  5
FC
330
F6
100
AcDbEntity
  8
_U+30EC_U+30A4_U+30E4_U+30FC 1
370
     0
100
AcDbVertex
100
AcDb2dVertex
 10
84.67114526963083
 20
-132.5631401578314
 30
0.0
  0
VERTEX
  5
FD
330
F6
100
AcDbEntity
  8
_U+30EC_U+30A4_U+30E4_U+30FC 1
370
     0
100
AcDbVertex
100
AcDb2dVertex
 10
85.35017358977358
 20
-131.5899006832484
 30
0.0
  0
VERTEX
  5
FE
330
F6
100
AcDbEntity
  8
_U+30EC_U+30A4_U+30E4_U+30FC 1
370
     0
100
AcDbVertex
100
AcDb2dVertex
 10
85.54482148469019
 20
-131.5899006832484
 30
0.0
  0
VERTEX
  5
FF
330
F6
100
AcDbEntity
  8
_U+30EC_U+30A4_U+30E4_U+30FC 1
370
     0
100
AcDbVertex
100
AcDb2dVertex
 10
85.54482148469019
 20
-132.5886338644223
 30
0.0
  0
VERTEX
  5
100
330
F6
100
AcDbEntity
  8
_U+30EC_U+30A4_U+30E4_U+30FC 1
370
     0
100
AcDbVertex
100
AcDb2dVertex
 10
85.75221623290223
 20
-132.5886338644223
 30
0.0
  0
VERTEX
  5
101
330
F6
100
AcDbEntity
  8
_U+30EC_U+30A4_U+30E4_U+30FC 1
370
     0
100
AcDbVertex
100
AcDb2dVertex
 10
85.75221623290223
 20
-132.7874158739212
 30
0.0
  0
VERTEX
  5
102
330
F6
100
AcDbEntity
  8
_U+30EC_U+30A4_U+30E4_U+30FC 1
370
     0
100
AcDbVertex
100
AcDb2dVertex
 10
85.54482148469019
 20
-132.7874158739212
 30
0.0
  0
SEQEND
  5
103
330
F6
100
AcDbEntity
  8
_U+30EC_U+30A4_U+30E4_U+30FC 1
370
     0
  0
POLYLINE
  5
104
330
F2
100
AcDbEntity
  8
_U+30EC_U+30A4_U+30E4_U+30FC 1
370
     0
100
AcDb2dPolyline
 66
     1
 10
0.0
 20
0.0
 30
0.0
  0
VERTEX
  5
105
330
104
100
AcDbEntity
  8
_U+30EC_U+30A4_U+30E4_U+30FC 1
370
     0
100
AcDbVertex
100
AcDb2dVertex
 10
85.32691919524814
 20
-131.9326876840307
 30
0.0
  0
VERTEX
  5
106
330
104
100
AcDbEntity
  8
_U+30EC_U+30A4_U+30E4_U+30FC 1
370
     0
100
AcDbVertex
100
AcDb2dVertex
 10
84.87009953390401
 20
-132.5886338644223
 30
0.0
  0
VERTEX
  5
107
330
104
100
AcDbEntity
  8
_U+30EC_U+30A4_U+30E4_U+30FC 1
370
     0
100
AcDbVertex
100
AcDb2dVertex
 10
85.32691919524814
 20
-132.5886338644223
 30
0.0
  0
VERTEX
  5
108
330
104
100
AcDbEntity
  8
_U+30EC_U+30A4_U+30E4_U+30FC 1
370
     0
100
AcDbVertex
100
AcDb2dVertex
 10
85.32691919524814
 20
-131.9326876840307
 30
0.0
  0
SEQEND
  5
109
330
104
100
AcDbEntity
  8
_U+30EC_U+30A4_U+30E4_U+30FC 1
370
     0
  0
HATCH
  5
10A
330
F2
100
AcDbEntity
  8
_U+30EC_U+30A4_U+30E4_U+30FC 1
 62
   179
420
  2234388
100
AcDbHatch
 10
0.0
 20
0.0
 30
0.0
210
0.0
220
0.0
230
1.0
  2
SOLID
 70
     1
 71
     0
 91
        2
 92
        1
 93
       11
 72
     1
 10
85.54482148469019
 20
-132.7874158739212
 11
85.54482148469019
 21
-133.1343369892859
 72
     1
 10
85.54482148469019
 20
-133.1343369892859
 11
85.32691919524814
 21
-133.1343369892859
 72
     1
 10
85.32691919524814
 20
-133.1343369892859
 11
85.32691919524814
 21
-132.7874158739212
 72
     1
 10
85.32691919524814
 20
-132.7874158739212
 11
84.67114526963083
 21
-132.7874158739212
 72
     1
 10
84.67114526963083
 20
-132.7874158739212
 11
84.67114526963083
 21
-132.5631401578314
 72
     1
 10
84.67114526963083
 20
-132.5631401578314
 11
85.35017358977358
 21
-131.5899006832484
 72
     1
 10
85.35017358977358
 20
-131.5899006832484
 11
85.54482148469019
 21
-131.5899006832484
 72
     1
 10
85.54482148469019
 20
-131.5899006832484
 11
85.54482148469019
 21
-132.5886338644223
 72
     1
 10
85.54482148469019
 20
-132.5886338644223
 11
85.75221623290223
 21
-132.5886338644223
 72
     1
 10
85.75221623290223
 20
-132.5886338644223
 11
85.75221623290223
 21
-132.7874158739212
 72
     1
 10
85.75221623290223
 20
-132.7874158739212
 11
85.54482148469019
 21
-132.7874158739212
 97
        0
 92
        1
 93
        3
 72
     1
 10
85.32691919524814
 20
-131.9326876840307
 11
84.87009953390401
 21
-132.5886338644223
 72
     1
 10
84.87009953390401
 20
-132.5886338644223
 11
85.32691919524814
 21
-132.5886338644223
 72
     1
 10
85.32691919524814
 20
-132.5886338644223
 11
85.32691919524814
 21
-131.9326876840307
 97
        0
 75
     2
 76
     1
 98
        0
  0
POLYLINE
  5
10B
330
F2
100
AcDbEntity
  8
_U+30EC_U+30A4_U+30E4_U+30FC 1
370
     0
100
AcDb2dPolyline
 66
     1
 10
0.0
 20
0.0
 30
0.0
  0
VERTEX
  5
10C
330
10B
100
AcDbEntity
  8
_U+30EC_U+30A4_U+30E4_U+30FC 1
370
     0
100
AcDbVertex
100
AcDb2dVertex
 10
86.72166610245154
 20
-132.7874158739212
 30
0.0
  0
VERTEX
  5
10D
330
10B
100
AcDbEntity
  8
_U+30EC_U+30A4_U+30E4_U+30FC 1
370
     0
100
AcDbVertex
100
AcDb2dVertex
 10
86.72166610245154
 20
-133.1343369892859
 30
0.0
  0
VERTEX
  5
10E
330
10B
100
AcDbEntity
  8
_U+30EC_U+30A4_U+30E4_U+30FC 1
370
     0
100
AcDbVertex
100
AcDb2dVertex
 10
86.50393606778374
 20
-133.1343369892859
 30
0.0
  0
VERTEX
  5
10F
330
10B
100
AcDbEntity
  8
_U+30EC_U+30A4_U+30E4_U+30FC 1
370
     0
100
AcDbVertex
100
AcDb2dVertex
 10
86.50393606778374
 20
-132.7874158739212
 30
0.0
  0
VERTEX
  5
110
330
10B
100
AcDbEntity
  8
_U+30EC_U+30A4_U+30E4_U+30FC 1
370
     0
100
AcDbVertex
100
AcDb2dVertex
 10
85.84798988739217
 20
-132.7874158739212
 30
0.0
  0
VERTEX
  5
111
330
10B
100
AcDbEntity
  8
_U+30EC_U+30A4_U+30E4_U+30FC 1
370
     0
100
AcDbVertex
100
AcDb2dVertex
 10
85.84798988739217
 20
-132.5631401578314
 30
0.0
  0
VERTEX
  5
112
330
10B
100
AcDbEntity
  8
_U+30EC_U+30A4_U+30E4_U+30FC 1
370
     0
100
AcDbVertex
100
AcDb2dVertex
 10
86.52719046230918
 20
-131.5899006832484
 30
0.0
  0
VERTEX
  5
113
330
10B
100
AcDbEntity
  8
_U+30EC_U+30A4_U+30E4_U+30FC 1
370
     0
100
AcDbVertex
100
AcDb2dVertex
 10
86.72166610245154
 20
-131.5899006832484
 30
0.0
  0
VERTEX
  5
114
330
10B
100
AcDbEntity
  8
_U+30EC_U+30A4_U+30E4_U+30FC 1
370
     0
100
AcDbVertex
100
AcDb2dVertex
 10
86.72166610245154
 20
-132.5886338644223
 30
0.0
  0
VERTEX
  5
115
330
10B
100
AcDbEntity
  8
_U+30EC_U+30A4_U+30E4_U+30FC 1
370
     0
100
AcDbVertex
100
AcDb2dVertex
 10
86.92906085066357
 20
-132.5886338644223
 30
0.0
  0
VERTEX
  5
116
330
10B
100
AcDbEntity
  8
_U+30EC_U+30A4_U+30E4_U+30FC 1
370
     0
100
AcDbVertex
100
AcDb2dVertex
 10
86.92906085066357
 20
-132.7874158739212
 30
0.0
  0
VERTEX
  5
117
330
10B
100
AcDbEntity
  8
_U+30EC_U+30A4_U+30E4_U+30FC 1
370
     0
100
AcDbVertex
100
AcDb2dVertex
 10
86.72166610245154
 20
-132.7874158739212
 30
0.0
  0
SEQEND
  5
118
330
10B
100
AcDbEntity
  8
_U+30EC_U+30A4_U+30E4_U+30FC 1
370
     0
  0
POLYLINE
  5
119
330
F2
100
AcDbEntity
  8
_U+30EC_U+30A4_U+30E4_U+30FC 1
370
     0
100
AcDb2dPolyline
 66
     1
 10
0.0
 20
0.0
 30
0.0
  0
VERTEX
  5
11A
330
119
100
AcDbEntity
  8
_U+30EC_U+30A4_U+30E4_U+30FC 1
370
     0
100
AcDbVertex
100
AcDb2dVertex
 10
86.50393606778374
 20
-131.9326876840307
 30
0.0
  0
VERTEX
  5
11B
330
119
100
AcDbEntity
  8
_U+30EC_U+30A4_U+30E4_U+30FC 1
370
     0
100
AcDbVertex
100
AcDb2dVertex
 10
86.04694415166536
 20
-132.5886338644223
 30
0.0
  0
VERTEX
  5
11C
330
119
100
AcDbEntity
  8
_U+30EC_U+30A4_U+30E4_U+30FC 1
370
     0
100
AcDbVertex
100
AcDb2dVertex
 10
86.50393606778374
 20
-132.5886338644223
 30
0.0
  0
VERTEX
  5
11D
330
119
100
AcDbEntity
  8
_U+30EC_U+30A4_U+30E4_U+30FC 1
370
     0
100
AcDbVertex
100
AcDb2dVertex
 10
86.50393606778374
 20
-131.9326876840307
 30
0.0
  0
SEQEND
  5
11E
330
119
100
AcDbEntity
  8
_U+30EC_U+30A4_U+30E4_U+30FC 1
370
     0
  0
HATCH
  5
11F
330
F2
100
AcDbEntity
  8
_U+30EC_U+30A4_U+30E4_U+30FC 1
 62
   179
420
  2234388
100
AcDbHatch
 10
0.0
 20
0.0
 30
0.0
210
0.0
220
0.0
230
1.0
  2
SOLID
 70
     1
 71
     0
 91
        2
 92
        1
 93
       11
 72
     1
 10
86.72166610245154
 20
-132.7874158739212
 11
86.72166610245154
 21
-133.1343369892859
 72
     1
 10
86.72166610245154
 20
-133.1343369892859
 11
86.50393606778374
 21
-133.1343369892859
 72
     1
 10
86.50393606778374
 20
-133.1343369892859
 11
86.50393606778374
 21
-132.7874158739212
 72
     1
 10
86.50393606778374
 20
-132.7874158739212
 11
85.84798988739217
 21
-132.7874158739212
 72
     1
 10
85.84798988739217
 20
-132.7874158739212
 11
85.84798988739217
 21
-132.5631401578314
 72
     1
 10
85.84798988739217
 20
-132.5631401578314
 11
86.52719046230918
 21
-131.5899006832484
 72
     1
 10
86.52719046230918
 20
-131.5899006832484
 11
86.72166610245154
 21
-131.5899006832484
 72
     1
 10
86.72166610245154
 20
-131.5899006832484
 11
86.72166610245154
 21
-132.5886338644223
 72
     1
 10
86.72166610245154
 20
-132.5886338644223
 11
86.92906085066357
 21
-132.5886338644223
 72
     1
 10
86.92906085066357
 20
-132.5886338644223
 11
86.92906085066357
 21
-132.7874158739212
 72
     1
 10
86.92906085066357
 20
-132.7874158739212
 11
86.72166610245154
 21
-132.7874158739212
 97
        0
 92
        1
 93
        3
 72
     1
 10
86.50393606778374
 20
-131.9326876840307
 11
86.04694415166536
 21
-132.5886338644223
 72
     1
 10
86.04694415166536
 20
-132.5886338644223
 11
86.50393606778374
 21
-132.5886338644223
 72
     1
 10
86.50393606778374
 20
-132.5886338644223
 11
86.50393606778374
 21
-131.9326876840307
 97
        0
 75
     2
 76
     1
 98
        0
  0
ENDBLK
  5
F5
330
F2
100
AcDbEntity
  8
0
100
AcDbBlockEnd
  0
BLOCK
  5
122
330
120
100
AcDbEntity
  8
0
100
AcDbBlockBegin
  2
block 3
 70
     0
 10
0.0
 20
0.0
 30
0.0
  3
block 3
  1

  0
SPLINE
  5
124
330
120
100
AcDbEntity
  8
_U+30EC_U+30A4_U+30E4_U+30FC 1
370
     0
100
AcDbSpline
210
0.0
220
0.0
230
1.0
 70
    11
 71
     3
 72
    62
 73
    58
 74
     0
 42
0.0000000001
 43
0.0000000001
 12
1.0
 22
0.0
 32
0.0
 13
1.0
 23
0.0
 33
0.0
 40
0.0
 40
0.0
 40
0.0
 40
0.0
 40
1.0
 40
1.0
 40
1.0
 40
2.0
 40
2.0
 40
2.0
 40
3.0
 40
3.0
 40
3.0
 40
4.0
 40
4.0
 40
4.0
 40
5.0
 40
5.0
 40
5.0
 40
6.0
 40
6.0
 40
6.0
 40
7.0
 40
7.0
 40
7.0
 40
8.0
 40
8.0
 40
8.0
 40
9.0
 40
9.0
 40
9.0
 40
10.0
 40
10.0
 40
10.0
 40
11.0
 40
11.0
 40
11.0
 40
12.0
 40
12.0
 40
12.0
 40
13.0
 40
13.0
 40
13.0
 40
14.0
 40
14.0
 40
14.0
 40
15.0
 40
15.0
 40
15.0
 40
16.0
 40
16.0
 40
16.0
 40
17.0
 40
17.0
 40
17.0
 40
18.0
 40
18.0
 40
18.0
 40
19.0
 40
19.0
 40
19.0
 40
19.0
 10
87.58552379537792
 20
-146.2377576674336
 30
0.0
 10
87.49026690521077
 20
-146.2377576674336
 30
0.0
 10
87.27236461576872
 20
-146.2167425849736
 30
0.0
 10
87.14765215920268
 20
-146.0307074287701
 30
0.0
 10
87.07358260626981
 20
-145.918397315951
 30
0.0
 10
87.06927623691324
 20
-145.8191785659758
 30
0.0
 10
87.06514212233094
 20
-145.7344292170386
 30
0.0
 10
87.06514212233094
 20
-145.7344292170386
 30
0.0
 10
87.28511146906415
 20
-145.7344292170386
 30
0.0
 10
87.28511146906415
 20
-145.7344292170386
 30
0.0
 10
87.28717852635529
 20
-145.8084987699715
 30
0.0
 10
87.29785832235957
 20
-146.043109772517
 30
0.0
 10
87.58121742602137
 20
-146.043109772517
 30
0.0
 10
87.7188489906571
 20
-146.043109772517
 30
0.0
 10
87.87112221110515
 20
-145.973518843715
 30
0.0
 10
87.87112221110515
 20
-145.7451090130429
 30
0.0
 10
87.87112221110515
 20
-145.6286647856415
 30
0.0
 10
87.83305390599313
 20
-145.5800889392994
 30
0.0
 10
87.80135902752883
 20
-145.5483940608351
 30
0.0
 10
87.72728947459596
 20
-145.4743245079023
 30
0.0
 10
87.61084524719452
 20
-145.4615776546068
 30
0.0
 10
87.55589597420477
 20
-145.4615776546068
 30
0.0
 10
87.5369479490359
 20
-145.4615776546068
 30
0.0
 10
87.50094670121504
 20
-145.463644711898
 30
0.0
 10
87.47338593733305
 20
-145.4677788264803
 30
0.0
 10
87.47338593733305
 20
-145.4677788264803
 30
0.0
 10
87.47338593733305
 20
-145.2731309315637
 30
0.0
 10
87.47338593733305
 20
-145.2731309315637
 30
0.0
 10
87.51145424244505
 20
-145.2796766129856
 30
0.0
 10
87.55382891691363
 20
-145.2817436702768
 30
0.0
 10
87.56020234356134
 20
-145.2817436702768
 30
0.0
 10
87.62565915778109
 20
-145.2817436702768
 30
0.0
 10
87.82461342205427
 20
-145.2603840782682
 30
0.0
 10
87.82461342205427
 20
-145.0237060184316
 30
0.0
 10
87.82461342205427
 20
-144.8459390913927
 30
0.0
 10
87.69335528406624
 20
-144.7908175636287
 30
0.0
 10
87.58345673808678
 20
-144.7908175636287
 30
0.0
 10
87.31904565959385
 20
-144.7908175636287
 30
0.0
 10
87.31043292088073
 20
-145.0237060184316
 30
0.0
 10
87.30629880629843
 20
-145.0953640045248
 30
0.0
 10
87.30629880629843
 20
-145.0953640045248
 30
0.0
 10
87.10321042744295
 20
-145.0953640045248
 30
0.0
 10
87.10321042744295
 20
-145.0953640045248
 30
0.0
 10
87.11165091138182
 20
-144.9706515479587
 30
0.0
 10
87.13921167526381
 20
-144.5941026114209
 30
0.0
 10
87.59603133660794
 20
-144.5941026114209
 30
0.0
 10
87.8203070526977
 20
-144.5941026114209
 30
0.0
 10
88.06146373666519
 20
-144.7212266348266
 30
0.0
 10
88.06146373666519
 20
-145.0171603370096
 30
0.0
 10
88.06146373666519
 20
-145.2035400027616
 30
0.0
 10
87.9663791012723
 20
-145.2858777848591
 30
0.0
 10
87.86681584174858
 20
-145.3472004844965
 30
0.0
 10
87.92831079616029
 20
-145.3747612483785
 30
0.0
 10
88.11021183778148
 20
-145.4550319731849
 30
0.0
 10
88.11021183778148
 20
-145.7323621597475
 30
0.0
 10
88.11021183778148
 20
-146.070670536399
 30
0.0
 10
87.86268172716628
 20
-146.2377576674336
 30
0.0
 10
87.58552379537792
 20
-146.2377576674336
 30
0.0
  0
HATCH
  5
125
330
120
100
AcDbEntity
  8
_U+30EC_U+30A4_U+30E4_U+30FC 1
 62
   179
420
  2234388
100
AcDbHatch
 10
0.0
 20
0.0
 30
0.0
210
0.0
220
0.0
230
1.0
  2
SOLID
 70
     1
 71
     0
 91
        1
 92
        1
 93
        1
 72
     4
 94
        3
 73
     0
 74
     1
 95
       62
 96
       58
 40
0.0
 40
0.0
 40
0.0
 40
0.0
 40
1.0
 40
1.0
 40
1.0
 40
2.0
 40
2.0
 40
2.0
 40
3.0
 40
3.0
 40
3.0
 40
4.0
 40
4.0
 40
4.0
 40
5.0
 40
5.0
 40
5.0
 40
6.0
 40
6.0
 40
6.0
 40
7.0
 40
7.0
 40
7.0
 40
8.0
 40
8.0
 40
8.0
 40
9.0
 40
9.0
 40
9.0
 40
10.0
 40
10.0
 40
10.0
 40
11.0
 40
11.0
 40
11.0
 40
12.0
 40
12.0
 40
12.0
 40
13.0
 40
13.0
 40
13.0
 40
14.0
 40
14.0
 40
14.0
 40
15.0
 40
15.0
 40
15.0
 40
16.0
 40
16.0
 40
16.0
 40
17.0
 40
17.0
 40
17.0
 40
18.0
 40
18.0
 40
18.0
 40
19.0
 40
19.0
 40
19.0
 40
19.0
 10
87.58552379537792
 20
-146.2377576674336
 10
87.49026690521077
 20
-146.2377576674336
 10
87.27236461576872
 20
-146.2167425849736
 10
87.14765215920268
 20
-146.0307074287701
 10
87.07358260626981
 20
-145.918397315951
 10
87.06927623691324
 20
-145.8191785659758
 10
87.06514212233094
 20
-145.7344292170386
 10
87.06514212233094
 20
-145.7344292170386
 10
87.28511146906415
 20
-145.7344292170386
 10
87.28511146906415
 20
-145.7344292170386
 10
87.28717852635529
 20
-145.8084987699715
 10
87.29785832235957
 20
-146.043109772517
 10
87.58121742602137
 20
-146.043109772517
 10
87.7188489906571
 20
-146.043109772517
 10
87.87112221110515
 20
-145.973518843715
 10
87.87112221110515
 20
-145.7451090130429
 10
87.87112221110515
 20
-145.6286647856415
 10
87.83305390599313
 20
-145.5800889392994
 10
87.80135902752883
 20
-145.5483940608351
 10
87.72728947459596
 20
-145.4743245079023
 10
87.61084524719452
 20
-145.4615776546068
 10
87.55589597420477
 20
-145.4615776546068
 10
87.5369479490359
 20
-145.4615776546068
 10
87.50094670121504
 20
-145.463644711898
 10
87.47338593733305
 20
-145.4677788264803
 10
87.47338593733305
 20
-145.4677788264803
 10
87.47338593733305
 20
-145.2731309315637
 10
87.47338593733305
 20
-145.2731309315637
 10
87.51145424244505
 20
-145.2796766129856
 10
87.55382891691363
 20
-145.2817436702768
 10
87.56020234356134
 20
-145.2817436702768
 10
87.62565915778109
 20
-145.2817436702768
 10
87.82461342205427
 20
-145.2603840782682
 10
87.82461342205427
 20
-145.0237060184316
 10
87.82461342205427
 20
-144.8459390913927
 10
87.69335528406624
 20
-144.7908175636287
 10
87.58345673808678
 20
-144.7908175636287
 10
87.31904565959385
 20
-144.7908175636287
 10
87.31043292088073
 20
-145.0237060184316
 10
87.30629880629843
 20
-145.0953640045248
 10
87.30629880629843
 20
-145.0953640045248
 10
87.10321042744295
 20
-145.0953640045248
 10
87.10321042744295
 20
-145.0953640045248
 10
87.11165091138182
 20
-144.9706515479587
 10
87.13921167526381
 20
-144.5941026114209
 10
87.59603133660794
 20
-144.5941026114209
 10
87.8203070526977
 20
-144.5941026114209
 10
88.06146373666519
 20
-144.7212266348266
 10
88.06146373666519
 20
-145.0171603370096
 10
88.06146373666519
 20
-145.2035400027616
 10
87.9663791012723
 20
-145.2858777848591
 10
87.86681584174858
 20
-145.3472004844965
 10
87.92831079616029
 20
-145.3747612483785
 10
88.11021183778148
 20
-145.4550319731849
 10
88.11021183778148
 20
-145.7323621597475
 10
88.11021183778148
 20
-146.070670536399
 10
87.86268172716628
 20
-146.2377576674336
 10
87.58552379537792
 20
-146.2377576674336
 97
        0
 97
        0
 75
     2
 76
     1
 98
        0
  0
SPLINE
  5
126
330
120
100
AcDbEntity
  8
_U+30EC_U+30A4_U+30E4_U+30FC 1
370
     0
100
AcDbSpline
210
0.0
220
0.0
230
1.0
 70
    11
 71
     3
 72
    26
 73
    22
 74
     0
 42
0.0000000001
 43
0.0000000001
 12
1.0
 22
0.0
 32
0.0
 13
1.0
 23
0.0
 33
0.0
 40
0.0
 40
0.0
 40
0.0
 40
0.0
 40
1.0
 40
1.0
 40
1.0
 40
2.0
 40
2.0
 40
2.0
 40
3.0
 40
3.0
 40
3.0
 40
4.0
 40
4.0
 40
4.0
 40
5.0
 40
5.0
 40
5.0
 40
6.0
 40
6.0
 40
6.0
 40
7.0
 40
7.0
 40
7.0
 40
7.0
 10
88.72223305073611
 20
-146.1871147638005
 30
0.0
 10
88.72223305073611
 20
-146.1871147638005
 30
0.0
 10
88.72223305073611
 20
-145.0829616607779
 30
0.0
 10
88.72223305073611
 20
-145.0829616607779
 30
0.0
 10
88.72223305073611
 20
-145.0829616607779
 30
0.0
 10
88.39219290324918
 20
-145.0829616607779
 30
0.0
 10
88.39219290324918
 20
-145.0829616607779
 30
0.0
 10
88.39219290324918
 20
-145.0829616607779
 30
0.0
 10
88.39219290324918
 20
-144.9348225549121
 30
0.0
 10
88.39219290324918
 20
-144.9348225549121
 30
0.0
 10
88.72430010802726
 20
-144.9200086443255
 30
0.0
 10
88.77080889707814
 20
-144.7570556278733
 30
0.0
 10
88.80043671825129
 20
-144.6426784577629
 30
0.0
 10
88.80043671825129
 20
-144.6426784577629
 30
0.0
 10
88.94650876682587
 20
-144.6426784577629
 30
0.0
 10
88.94650876682587
 20
-144.6426784577629
 30
0.0
 10
88.94650876682587
 20
-144.6426784577629
 30
0.0
 10
88.94650876682587
 20
-146.1871147638005
 30
0.0
 10
88.94650876682587
 20
-146.1871147638005
 30
0.0
 10
88.94650876682587
 20
-146.1871147638005
 30
0.0
 10
88.72223305073611
 20
-146.1871147638005
 30
0.0
 10
88.72223305073611
 20
-146.1871147638005
 30
0.0
  0
HATCH
  5
127
330
120
100
AcDbEntity
  8
_U+30EC_U+30A4_U+30E4_U+30FC 1
 62
   179
420
  2234388
100
AcDbHatch
 10
0.0
 20
0.0
 30
0.0
210
0.0
220
0.0
230
1.0
  2
SOLID
 70
     1
 71
     0
 91
        1
 92
        1
 93
        1
 72
     4
 94
        3
 73
     0
 74
     1
 95
       26
 96
       22
 40
0.0
 40
0.0
 40
0.0
 40
0.0
 40
1.0
 40
1.0
 40
1.0
 40
2.0
 40
2.0
 40
2.0
 40
3.0
 40
3.0
 40
3.0
 40
4.0
 40
4.0
 40
4.0
 40
5.0
 40
5.0
 40
5.0
 40
6.0
 40
6.0
 40
6.0
 40
7.0
 40
7.0
 40
7.0
 40
7.0
 10
88.72223305073611
 20
-146.1871147638005
 10
88.72223305073611
 20
-146.1871147638005
 10
88.72223305073611
 20
-145.0829616607779
 10
88.72223305073611
 20
-145.0829616607779
 10
88.72223305073611
 20
-145.0829616607779
 10
88.39219290324918
 20
-145.0829616607779
 10
88.39219290324918
 20
-145.0829616607779
 10
88.39219290324918
 20
-145.0829616607779
 10
88.39219290324918
 20
-144.9348225549121
 10
88.39219290324918
 20
-144.9348225549121
 10
88.72430010802726
 20
-144.9200086443255
 10
88.77080889707814
 20
-144.7570556278733
 10
88.80043671825129
 20
-144.6426784577629
 10
88.80043671825129
 20
-144.6426784577629
 10
88.94650876682587
 20
-144.6426784577629
 10
88.94650876682587
 20
-144.6426784577629
 10
88.94650876682587
 20
-144.6426784577629
 10
88.94650876682587
 20
-146.1871147638005
 10
88.94650876682587
 20
-146.1871147638005
 10
88.94650876682587
 20
-146.1871147638005
 10
88.72223305073611
 20
-146.1871147638005
 10
88.72223305073611
 20
-146.1871147638005
 97
        0
 97
        0
 75
     2
 76
     1
 98
        0
  0
POLYLINE
  5
128
330
120
100
AcDbEntity
  8
_U+30EC_U+30A4_U+30E4_U+30FC 1
370
     0
100
AcDb2dPolyline
 66
     1
 10
0.0
 20
0.0
 30
0.0
  0
VERTEX
  5
129
330
128
100
AcDbEntity
  8
_U+30EC_U+30A4_U+30E4_U+30FC 1
370
     0
100
AcDbVertex
100
AcDb2dVertex
 10
89.50771482137307
 20
-146.1871147638005
 30
0.0
  0
VERTEX
  5
12A
330
128
100
AcDbEntity
  8
_U+30EC_U+30A4_U+30E4_U+30FC 1
370
     0
100
AcDbVertex
100
AcDb2dVertex
 10
89.50771482137307
 20
-145.9352782838287
 30
0.0
  0
VERTEX
  5
12B
330
128
100
AcDbEntity
  8
_U+30EC_U+30A4_U+30E4_U+30FC 1
370
     0
100
AcDbVertex
100
AcDb2dVertex
 10
89.75937904657057
 20
-145.9352782838287
 30
0.0
  0
VERTEX
  5
12C
330
128
100
AcDbEntity
  8
_U+30EC_U+30A4_U+30E4_U+30FC 1
370
     0
100
AcDbVertex
100
AcDb2dVertex
 10
89.75937904657057
 20
-146.1871147638005
 30
0.0
  0
VERTEX
  5
12D
330
128
100
AcDbEntity
  8
_U+30EC_U+30A4_U+30E4_U+30FC 1
370
     0
100
AcDbVertex
100
AcDb2dVertex
 10
89.50771482137307
 20
-146.1871147638005
 30
0.0
  0
SEQEND
  5
12E
330
128
100
AcDbEntity
  8
_U+30EC_U+30A4_U+30E4_U+30FC 1
370
     0
  0
HATCH
  5
12F
330
120
100
AcDbEntity
  8
_U+30EC_U+30A4_U+30E4_U+30FC 1
 62
   179
420
  2234388
100
AcDbHatch
 10
0.0
 20
0.0
 30
0.0
210
0.0
220
0.0
230
1.0
  2
SOLID
 70
     1
 71
     0
 91
        1
 92
        1
 93
        4
 72
     1
 10
89.50771482137307
 20
-146.1871147638005
 11
89.50771482137307
 21
-145.9352782838287
 72
     1
 10
89.50771482137307
 20
-145.9352782838287
 11
89.75937904657057
 21
-145.9352782838287
 72
     1
 10
89.75937904657057
 20
-145.9352782838287
 11
89.75937904657057
 21
-146.1871147638005
 72
     1
 10
89.75937904657057
 20
-146.1871147638005
 11
89.50771482137307
 21
-146.1871147638005
 97
        0
 75
     2
 76
     1
 98
        0
  0
SPLINE
  5
130
330
120
100
AcDbEntity
  8
_U+30EC_U+30A4_U+30E4_U+30FC 1
370
     0
100
AcDbSpline
210
0.0
220
0.0
230
1.0
 70
    11
 71
     3
 72
    32
 73
    28
 74
     0
 42
0.0000000001
 43
0.0000000001
 12
1.0
 22
0.0
 32
0.0
 13
1.0
 23
0.0
 33
0.0
 40
0.0
 40
0.0
 40
0.0
 40
0.0
 40
1.0
 40
1.0
 40
1.0
 40
2.0
 40
2.0
 40
2.0
 40
3.0
 40
3.0
 40
3.0
 40
4.0
 40
4.0
 40
4.0
 40
5.0
 40
5.0
 40
5.0
 40
6.0
 40
6.0
 40
6.0
 40
7.0
 40
7.0
 40
7.0
 40
8.0
 40
8.0
 40
8.0
 40
9.0
 40
9.0
 40
9.0
 40
9.0
 10
90.45356578684842
 20
-146.2377576674336
 30
0.0
 10
90.28010522916608
 20
-146.2377576674336
 30
0.0
 10
90.0348144306163
 20
-146.1681667386316
 30
0.0
 10
89.99657387073003
 20
-145.8360595338535
 30
0.0
 10
89.99657387073003
 20
-145.8360595338535
 30
0.0
 10
90.21034204558978
 20
-145.8360595338535
 30
0.0
 10
90.21034204558978
 20
-145.8360595338535
 30
0.0
 10
90.2208495868198
 20
-145.8953151761998
 30
0.0
 10
90.25271672005836
 20
-146.043109772517
 30
0.0
 10
90.45580509891383
 20
-146.043109772517
 30
0.0
 10
90.74760468651449
 20
-146.043109772517
 30
0.0
 10
90.7856729916265
 20
-145.7130696250301
 30
0.0
 10
90.79841984492192
 20
-145.5080864436577
 30
0.0
 10
90.70746932411133
 20
-145.588357168464
 30
0.0
 10
90.63977319782617
 20
-145.6455457535192
 30
0.0
 10
90.45787215620499
 20
-145.6455457535192
 30
0.0
 10
90.27803817187494
 20
-145.6455457535192
 30
0.0
 10
89.97555878827
 20
-145.539781322122
 30
0.0
 10
89.97555878827
 20
-145.1336045644111
 30
0.0
 10
89.97555878827
 20
-144.8142442129284
 30
0.0
 10
90.17434079776892
 20
-144.5941026114209
 30
0.0
 10
90.49163409196044
 20
-144.5941026114209
 30
0.0
 10
91.00581459313396
 20
-144.5941026114209
 30
0.0
 10
91.01632213436397
 20
-145.1484184749976
 30
0.0
 10
91.01632213436397
 20
-145.3620143950831
 30
0.0
 10
91.01632213436397
 20
-145.5924912830463
 30
0.0
 10
90.9973741091951
 20
-146.2377576674336
 30
0.0
 10
90.45356578684842
 20
-146.2377576674336
 30
0.0
  0
SPLINE
  5
131
330
120
100
AcDbEntity
  8
_U+30EC_U+30A4_U+30E4_U+30FC 1
370
     0
100
AcDbSpline
210
0.0
220
0.0
230
1.0
 70
    11
 71
     3
 72
    17
 73
    13
 74
     0
 42
0.0000000001
 43
0.0000000001
 12
1.0
 22
0.0
 32
0.0
 13
1.0
 23
0.0
 33
0.0
 40
0.0
 40
0.0
 40
0.0
 40
0.0
 40
1.0
 40
1.0
 40
1.0
 40
2.0
 40
2.0
 40
2.0
 40
3.0
 40
3.0
 40
3.0
 40
4.0
 40
4.0
 40
4.0
 40
4.0
 10
90.49387340402585
 20
-144.7866834490464
 30
0.0
 10
90.37536211933325
 20
-144.7866834490464
 30
0.0
 10
90.19983450435977
 20
-144.8438720341015
 30
0.0
 10
90.19983450435977
 20
-145.1294704498287
 30
0.0
 10
90.19983450435977
 20
-145.3558132232097
 30
0.0
 10
90.33936087151238
 20
-145.4508978586026
 30
0.0
 10
90.47475312408271
 20
-145.4508978586026
 30
0.0
 10
90.73709714528448
 20
-145.4508978586026
 30
0.0
 10
90.77516545039649
 20
-145.2414360530994
 30
0.0
 10
90.77516545039649
 20
-145.1249918256979
 30
0.0
 10
90.77516545039649
 20
-144.9496364654987
 30
0.0
 10
90.67990856022934
 20
-144.7866834490464
 30
0.0
 10
90.49387340402585
 20
-144.7866834490464
 30
0.0
  0
HATCH
  5
132
330
120
100
AcDbEntity
  8
_U+30EC_U+30A4_U+30E4_U+30FC 1
 62
   179
420
  2234388
100
AcDbHatch
 10
0.0
 20
0.0
 30
0.0
210
0.0
220
0.0
230
1.0
  2
SOLID
 70
     1
 71
     0
 91
        2
 92
        1
 93
        1
 72
     4
 94
        3
 73
     0
 74
     1
 95
       32
 96
       28
 40
0.0
 40
0.0
 40
0.0
 40
0.0
 40
1.0
 40
1.0
 40
1.0
 40
2.0
 40
2.0
 40
2.0
 40
3.0
 40
3.0
 40
3.0
 40
4.0
 40
4.0
 40
4.0
 40
5.0
 40
5.0
 40
5.0
 40
6.0
 40
6.0
 40
6.0
 40
7.0
 40
7.0
 40
7.0
 40
8.0
 40
8.0
 40
8.0
 40
9.0
 40
9.0
 40
9.0
 40
9.0
 10
90.45356578684842
 20
-146.2377576674336
 10
90.28010522916608
 20
-146.2377576674336
 10
90.0348144306163
 20
-146.1681667386316
 10
89.99657387073003
 20
-145.8360595338535
 10
89.99657387073003
 20
-145.8360595338535
 10
90.21034204558978
 20
-145.8360595338535
 10
90.21034204558978
 20
-145.8360595338535
 10
90.2208495868198
 20
-145.8953151761998
 10
90.25271672005836
 20
-146.043109772517
 10
90.45580509891383
 20
-146.043109772517
 10
90.74760468651449
 20
-146.043109772517
 10
90.7856729916265
 20
-145.7130696250301
 10
90.79841984492192
 20
-145.5080864436577
 10
90.70746932411133
 20
-145.588357168464
 10
90.63977319782617
 20
-145.6455457535192
 10
90.45787215620499
 20
-145.6455457535192
 10
90.27803817187494
 20
-145.6455457535192
 10
89.97555878827
 20
-145.539781322122
 10
89.97555878827
 20
-145.1336045644111
 10
89.97555878827
 20
-144.8142442129284
 10
90.17434079776892
 20
-144.5941026114209
 10
90.49163409196044
 20
-144.5941026114209
 10
91.00581459313396
 20
-144.5941026114209
 10
91.01632213436397
 20
-145.1484184749976
 10
91.01632213436397
 20
-145.3620143950831
 10
91.01632213436397
 20
-145.5924912830463
 10
90.9973741091951
 20
-146.2377576674336
 10
90.45356578684842
 20
-146.2377576674336
 97
        0
 97
        0
 92
        1
 93
        1
 72
     4
 94
        3
 73
     0
 74
     1
 95
       17
 96
       13
 40
0.0
 40
0.0
 40
0.0
 40
0.0
 40
1.0
 40
1.0
 40
1.0
 40
2.0
 40
2.0
 40
2.0
 40
3.0
 40
3.0
 40
3.0
 40
4.0
 40
4.0
 40
4.0
 40
4.0
 10
90.49387340402585
 20
-144.7866834490464
 10
90.37536211933325
 20
-144.7866834490464
 10
90.19983450435977
 20
-144.8438720341015
 10
90.19983450435977
 20
-145.1294704498287
 10
90.19983450435977
 20
-145.3558132232097
 10
90.33936087151238
 20
-145.4508978586026
 10
90.47475312408271
 20
-145.4508978586026
 10
90.73709714528448
 20
-145.4508978586026
 10
90.77516545039649
 20
-145.2414360530994
 10
90.77516545039649
 20
-145.1249918256979
 10
90.77516545039649
 20
-144.9496364654987
 10
90.67990856022934
 20
-144.7866834490464
 10
90.49387340402585
 20
-144.7866834490464
 97
        0
 97
        0
 75
     2
 76
     1
 98
        0
  0
ENDBLK
  5
123
330
120
100
AcDbEntity
  8
0
100
AcDbBlockEnd
  0
BLOCK
  5
135
330
133
100
AcDbEntity
  8
0
100
AcDbBlockBegin
  2
block 4
 70
     0
 10
0.0
 20
0.0
 30
0.0
  3
block 4
  1

  0
SPLINE
  5
137
330
133
100
AcDbEntity
  8
_U+30EC_U+30A4_U+30E4_U+30FC 1
370
     0
100
AcDbSpline
210
0.0
220
0.0
230
1.0
 70
    11
 71
     3
 72
    26
 73
    22
 74
     0
 42
0.0000000001
 43
0.0000000001
 12
1.0
 22
0.0
 32
0.0
 13
1.0
 23
0.0
 33
0.0
 40
0.0
 40
0.0
 40
0.0
 40
0.0
 40
1.0
 40
1.0
 40
1.0
 40
2.0
 40
2.0
 40
2.0
 40
3.0
 40
3.0
 40
3.0
 40
4.0
 40
4.0
 40
4.0
 40
5.0
 40
5.0
 40
5.0
 40
6.0
 40
6.0
 40
6.0
 40
7.0
 40
7.0
 40
7.0
 40
7.0
 10
104.350219700475
 20
-149.2739203185843
 30
0.0
 10
104.350219700475
 20
-149.2739203185843
 30
0.0
 10
104.1131971310898
 20
-149.2739203185843
 30
0.0
 10
104.1131971310898
 20
-149.2739203185843
 30
0.0
 10
104.1386908376806
 20
-148.9648952535574
 30
0.0
 10
104.3312716753061
 20
-148.4467528925758
 30
0.0
 10
104.737448433017
 20
-147.9410128753411
 30
0.0
 10
104.737448433017
 20
-147.9410128753411
 30
0.0
 10
103.8996012110043
 20
-147.9410128753411
 30
0.0
 10
103.8996012110043
 20
-147.9410128753411
 30
0.0
 10
103.8996012110043
 20
-147.9410128753411
 30
0.0
 10
103.8996012110043
 20
-147.7294840125468
 30
0.0
 10
103.8996012110043
 20
-147.7294840125468
 30
0.0
 10
103.8996012110043
 20
-147.7294840125468
 30
0.0
 10
104.9744710024022
 20
-147.7294840125468
 30
0.0
 10
104.9744710024022
 20
-147.7294840125468
 30
0.0
 10
104.9744710024022
 20
-147.7294840125468
 30
0.0
 10
104.9744710024022
 20
-147.9410128753411
 30
0.0
 10
104.9744710024022
 20
-147.9410128753411
 30
0.0
 10
104.6506320267887
 20
-148.2310899151992
 30
0.0
 10
104.3839816362304
 20
-148.8233018291136
 30
0.0
 10
104.350219700475
 20
-149.2739203185843
 30
0.0
  0
HATCH
  5
138
330
133
100
AcDbEntity
  8
_U+30EC_U+30A4_U+30E4_U+30FC 1
 62
   179
420
  2234388
100
AcDbHatch
 10
0.0
 20
0.0
 30
0.0
210
0.0
220
0.0
230
1.0
  2
SOLID
 70
     1
 71
     0
 91
        1
 92
        1
 93
        1
 72
     4
 94
        3
 73
     0
 74
     1
 95
       26
 96
       22
 40
0.0
 40
0.0
 40
0.0
 40
0.0
 40
1.0
 40
1.0
 40
1.0
 40
2.0
 40
2.0
 40
2.0
 40
3.0
 40
3.0
 40
3.0
 40
4.0
 40
4.0
 40
4.0
 40
5.0
 40
5.0
 40
5.0
 40
6.0
 40
6.0
 40
6.0
 40
7.0
 40
7.0
 40
7.0
 40
7.0
 10
104.350219700475
 20
-149.2739203185843
 10
104.350219700475
 20
-149.2739203185843
 10
104.1131971310898
 20
-149.2739203185843
 10
104.1131971310898
 20
-149.2739203185843
 10
104.1386908376806
 20
-148.9648952535574
 10
104.3312716753061
 20
-148.4467528925758
 10
104.737448433017
 20
-147.9410128753411
 10
104.737448433017
 20
-147.9410128753411
 10
103.8996012110043
 20
-147.9410128753411
 10
103.8996012110043
 20
-147.9410128753411
 10
103.8996012110043
 20
-147.9410128753411
 10
103.8996012110043
 20
-147.7294840125468
 10
103.8996012110043
 20
-147.7294840125468
 10
103.8996012110043
 20
-147.7294840125468
 10
104.9744710024022
 20
-147.7294840125468
 10
104.9744710024022
 20
-147.7294840125468
 10
104.9744710024022
 20
-147.7294840125468
 10
104.9744710024022
 20
-147.9410128753411
 10
104.9744710024022
 20
-147.9410128753411
 10
104.6506320267887
 20
-148.2310899151992
 10
104.3839816362304
 20
-148.8233018291136
 10
104.350219700475
 20
-149.2739203185843
 97
        0
 97
        0
 75
     2
 76
     1
 98
        0
  0
ENDBLK
  5
136
330
133
100
AcDbEntity
  8
0
100
AcDbBlockEnd
  0
BLOCK
  5
13B
330
139
100
AcDbEntity
  8
0
100
AcDbBlockBegin
  2
block 5
 70
     0
 10
0.0
 20
0.0
 30
0.0
  3
block 5
  1

  0
SPLINE
  5
13D
330
139
100
AcDbEntity
  8
_U+30EC_U+30A4_U+30E4_U+30FC 1
370
     0
100
AcDbSpline
210
0.0
220
0.0
230
1.0
 70
    11
 71
     3
 72
    44
 73
    40
 74
     0
 42
0.0000000001
 43
0.0000000001
 12
1.0
 22
0.0
 32
0.0
 13
1.0
 23
0.0
 33
0.0
 40
0.0
 40
0.0
 40
0.0
 40
0.0
 40
1.0
 40
1.0
 40
1.0
 40
2.0
 40
2.0
 40
2.0
 40
3.0
 40
3.0
 40
3.0
 40
4.0
 40
4.0
 40
4.0
 40
5.0
 40
5.0
 40
5.0
 40
6.0
 40
6.0
 40
6.0
 40
7.0
 40
7.0
 40
7.0
 40
8.0
 40
8.0
 40
8.0
 40
9.0
 40
9.0
 40
9.0
 40
10.0
 40
10.0
 40
10.0
 40
11.0
 40
11.0
 40
11.0
 40
12.0
 40
12.0
 40
12.0
 40
13.0
 40
13.0
 40
13.0
 40
13.0
 10
107.4425374080352
 20
-137.7559325827485
 30
0.0
 10
107.2248073733674
 20
-137.9147514846185
 30
0.0
 10
107.1317897952657
 20
-137.9888210375514
 30
0.0
 10
107.0828694393751
 20
-138.1324815192863
 30
0.0
 10
107.0828694393751
 20
-138.1324815192863
 30
0.0
 10
107.8614610190416
 20
-138.1324815192863
 30
0.0
 10
107.8614610190416
 20
-138.1324815192863
 30
0.0
 10
107.8614610190416
 20
-138.1324815192863
 30
0.0
 10
107.8614610190416
 20
-138.3378092102072
 30
0.0
 10
107.8614610190416
 20
-138.3378092102072
 30
0.0
 10
107.8614610190416
 20
-138.3378092102072
 30
0.0
 10
106.833444526243
 20
-138.3378092102072
 30
0.0
 10
106.833444526243
 20
-138.3378092102072
 30
0.0
 10
106.8651394047073
 20
-137.9802082988383
 30
0.0
 10
106.9305962189271
 20
-137.9020046313231
 30
0.0
 10
107.315757894178
 20
-137.6036593623005
 30
0.0
 10
107.5717284887321
 20
-137.4048773528016
 30
0.0
 10
107.6371853029518
 20
-137.3370089717421
 30
0.0
 10
107.6371853029518
 20
-137.1995496618807
 30
0.0
 10
107.6371853029518
 20
-137.0810383771881
 30
0.0
 10
107.5651828073101
 20
-136.9501247487486
 30
0.0
 10
107.3684678551023
 20
-136.9501247487486
 30
0.0
 10
107.108363145966
 20
-136.9501247487486
 30
0.0
 10
107.0997504072528
 20
-137.1806016367118
 30
0.0
 10
107.0956162926705
 20
-137.2970458641132
 30
0.0
 10
107.0956162926705
 20
-137.2970458641132
 30
0.0
 10
106.8713405765808
 20
-137.2970458641132
 30
0.0
 10
106.8713405765808
 20
-137.2970458641132
 30
0.0
 10
106.8799533152939
 20
-137.1699218407075
 30
0.0
 10
106.8906331112982
 20
-137.0579562374369
 30
0.0
 10
106.9709038361045
 20
-136.9394449527443
 30
0.0
 10
107.080802382084
 20
-136.7785589935831
 30
0.0
 10
107.267182047836
 20
-136.7447970578277
 30
0.0
 10
107.3832817656889
 20
-136.7447970578277
 30
0.0
 10
107.6606119522515
 20
-136.7447970578277
 30
0.0
 10
107.8680067004636
 20
-136.92876515674
 30
0.0
 10
107.8680067004636
 20
-137.2016167191718
 30
0.0
 10
107.8680067004636
 20
-137.4303710593924
 30
0.0
 10
107.7515624730621
 20
-137.5295898093676
 30
0.0
 10
107.4425374080352
 20
-137.7559325827485
 30
0.0
  0
HATCH
  5
13E
330
139
100
AcDbEntity
  8
_U+30EC_U+30A4_U+30E4_U+30FC 1
 62
   179
420
  2234388
100
AcDbHatch
 10
0.0
 20
0.0
 30
0.0
210
0.0
220
0.0
230
1.0
  2
SOLID
 70
     1
 71
     0
 91
        1
 92
        1
 93
        1
 72
     4
 94
        3
 73
     0
 74
     1
 95
       44
 96
       40
 40
0.0
 40
0.0
 40
0.0
 40
0.0
 40
1.0
 40
1.0
 40
1.0
 40
2.0
 40
2.0
 40
2.0
 40
3.0
 40
3.0
 40
3.0
 40
4.0
 40
4.0
 40
4.0
 40
5.0
 40
5.0
 40
5.0
 40
6.0
 40
6.0
 40
6.0
 40
7.0
 40
7.0
 40
7.0
 40
8.0
 40
8.0
 40
8.0
 40
9.0
 40
9.0
 40
9.0
 40
10.0
 40
10.0
 40
10.0
 40
11.0
 40
11.0
 40
11.0
 40
12.0
 40
12.0
 40
12.0
 40
13.0
 40
13.0
 40
13.0
 40
13.0
 10
107.4425374080352
 20
-137.7559325827485
 10
107.2248073733674
 20
-137.9147514846185
 10
107.1317897952657
 20
-137.9888210375514
 10
107.0828694393751
 20
-138.1324815192863
 10
107.0828694393751
 20
-138.1324815192863
 10
107.8614610190416
 20
-138.1324815192863
 10
107.8614610190416
 20
-138.1324815192863
 10
107.8614610190416
 20
-138.1324815192863
 10
107.8614610190416
 20
-138.3378092102072
 10
107.8614610190416
 20
-138.3378092102072
 10
107.8614610190416
 20
-138.3378092102072
 10
106.833444526243
 20
-138.3378092102072
 10
106.833444526243
 20
-138.3378092102072
 10
106.8651394047073
 20
-137.9802082988383
 10
106.9305962189271
 20
-137.9020046313231
 10
107.315757894178
 20
-137.6036593623005
 10
107.5717284887321
 20
-137.4048773528016
 10
107.6371853029518
 20
-137.3370089717421
 10
107.6371853029518
 20
-137.1995496618807
 10
107.6371853029518
 20
-137.0810383771881
 10
107.5651828073101
 20
-136.9501247487486
 10
107.3684678551023
 20
-136.9501247487486
 10
107.108363145966
 20
-136.9501247487486
 10
107.0997504072528
 20
-137.1806016367118
 10
107.0956162926705
 20
-137.2970458641132
 10
107.0956162926705
 20
-137.2970458641132
 10
106.8713405765808
 20
-137.2970458641132
 10
106.8713405765808
 20
-137.2970458641132
 10
106.8799533152939
 20
-137.1699218407075
 10
106.8906331112982
 20
-137.0579562374369
 10
106.9709038361045
 20
-136.9394449527443
 10
107.080802382084
 20
-136.7785589935831
 10
107.267182047836
 20
-136.7447970578277
 10
107.3832817656889
 20
-136.7447970578277
 10
107.6606119522515
 20
-136.7447970578277
 10
107.8680067004636
 20
-136.92876515674
 10
107.8680067004636
 20
-137.2016167191718
 10
107.8680067004636
 20
-137.4303710593924
 10
107.7515624730621
 20
-137.5295898093676
 10
107.4425374080352
 20
-137.7559325827485
 97
        0
 97
        0
 75
     2
 76
     1
 98
        0
  0
SPLINE
  5
13F
330
139
100
AcDbEntity
  8
_U+30EC_U+30A4_U+30E4_U+30FC 1
370
     0
100
AcDbSpline
210
0.0
220
0.0
230
1.0
 70
    11
 71
     3
 72
    29
 73
    25
 74
     0
 42
0.0000000001
 43
0.0000000001
 12
1.0
 22
0.0
 32
0.0
 13
1.0
 23
0.0
 33
0.0
 40
0.0
 40
0.0
 40
0.0
 40
0.0
 40
1.0
 40
1.0
 40
1.0
 40
2.0
 40
2.0
 40
2.0
 40
3.0
 40
3.0
 40
3.0
 40
4.0
 40
4.0
 40
4.0
 40
5.0
 40
5.0
 40
5.0
 40
6.0
 40
6.0
 40
6.0
 40
7.0
 40
7.0
 40
7.0
 40
8.0
 40
8.0
 40
8.0
 40
8.0
 10
108.9242729762412
 20
-138.1600422831683
 30
0.0
 10
108.8160969780043
 20
-138.3695040886715
 30
0.0
 10
108.6428086750962
 20
-138.3884521138404
 30
0.0
 10
108.5263644476948
 20
-138.3884521138404
 30
0.0
 10
108.3654784885336
 20
-138.3884521138404
 30
0.0
 10
108.2238850640899
 20
-138.3419433247895
 30
0.0
 10
108.128800428697
 20
-138.1600422831683
 30
0.0
 10
108.025103054591
 20
-137.9653943882517
 30
0.0
 10
108.0061550294221
 20
-137.7287163284151
 30
0.0
 10
108.0061550294221
 20
-137.5657633119627
 30
0.0
 10
108.0061550294221
 20
-137.4217583206793
 30
0.0
 10
108.0230359972998
 20
-137.1699218407075
 30
0.0
 10
108.128800428697
 20
-136.9711398312086
 30
0.0
 10
108.2366319173853
 20
-136.7682237071274
 30
0.0
 10
108.3975178765465
 20
-136.7447970578277
 30
0.0
 10
108.5263644476948
 20
-136.7447970578277
 30
0.0
 10
108.6851833495648
 20
-136.7447970578277
 30
0.0
 10
108.8288438312997
 20
-136.7892387895874
 30
0.0
 10
108.9242729762412
 20
-136.9711398312086
 30
0.0
 10
109.0234917262163
 20
-137.1637206688341
 30
0.0
 10
109.0469183755161
 20
-137.3921304995062
 30
0.0
 10
109.0469183755161
 20
-137.5657633119627
 30
0.0
 10
109.0469183755161
 20
-137.7369845575797
 30
0.0
 10
109.0255587835075
 20
-137.9674614455429
 30
0.0
 10
108.9242729762412
 20
-138.1600422831683
 30
0.0
  0
SPLINE
  5
140
330
139
100
AcDbEntity
  8
_U+30EC_U+30A4_U+30E4_U+30FC 1
370
     0
100
AcDbSpline
210
0.0
220
0.0
230
1.0
 70
    11
 71
     3
 72
    17
 73
    13
 74
     0
 42
0.0000000001
 43
0.0000000001
 12
1.0
 22
0.0
 32
0.0
 13
1.0
 23
0.0
 33
0.0
 40
0.0
 40
0.0
 40
0.0
 40
0.0
 40
1.0
 40
1.0
 40
1.0
 40
2.0
 40
2.0
 40
2.0
 40
3.0
 40
3.0
 40
3.0
 40
4.0
 40
4.0
 40
4.0
 40
4.0
 10
108.5263644476948
 20
-136.9373778954532
 30
0.0
 10
108.2769395345627
 20
-136.9373778954532
 30
0.0
 10
108.2300862359633
 20
-137.2209092538892
 30
0.0
 10
108.2300862359633
 20
-137.5657633119627
 30
0.0
 10
108.2300862359633
 20
-137.8851236634454
 30
0.0
 10
108.2662597385584
 20
-138.1938042189238
 30
0.0
 10
108.5263644476948
 20
-138.1938042189238
 30
0.0
 10
108.7740668130843
 20
-138.1938042189238
 30
0.0
 10
108.8226426594263
 20
-137.9126844273274
 30
0.0
 10
108.8226426594263
 20
-137.5657633119627
 30
0.0
 10
108.8226426594263
 20
-137.2460584509315
 30
0.0
 10
108.78440209954
 20
-136.9373778954532
 30
0.0
 10
108.5263644476948
 20
-136.9373778954532
 30
0.0
  0
HATCH
  5
141
330
139
100
AcDbEntity
  8
_U+30EC_U+30A4_U+30E4_U+30FC 1
 62
   179
420
  2234388
100
AcDbHatch
 10
0.0
 20
0.0
 30
0.0
210
0.0
220
0.0
230
1.0
  2
SOLID
 70
     1
 71
     0
 91
        2
 92
        1
 93
        1
 72
     4
 94
        3
 73
     0
 74
     1
 95
       29
 96
       25
 40
0.0
 40
0.0
 40
0.0
 40
0.0
 40
1.0
 40
1.0
 40
1.0
 40
2.0
 40
2.0
 40
2.0
 40
3.0
 40
3.0
 40
3.0
 40
4.0
 40
4.0
 40
4.0
 40
5.0
 40
5.0
 40
5.0
 40
6.0
 40
6.0
 40
6.0
 40
7.0
 40
7.0
 40
7.0
 40
8.0
 40
8.0
 40
8.0
 40
8.0
 10
108.9242729762412
 20
-138.1600422831683
 10
108.8160969780043
 20
-138.3695040886715
 10
108.6428086750962
 20
-138.3884521138404
 10
108.5263644476948
 20
-138.3884521138404
 10
108.3654784885336
 20
-138.3884521138404
 10
108.2238850640899
 20
-138.3419433247895
 10
108.128800428697
 20
-138.1600422831683
 10
108.025103054591
 20
-137.9653943882517
 10
108.0061550294221
 20
-137.7287163284151
 10
108.0061550294221
 20
-137.5657633119627
 10
108.0061550294221
 20
-137.4217583206793
 10
108.0230359972998
 20
-137.1699218407075
 10
108.128800428697
 20
-136.9711398312086
 10
108.2366319173853
 20
-136.7682237071274
 10
108.3975178765465
 20
-136.7447970578277
 10
108.5263644476948
 20
-136.7447970578277
 10
108.6851833495648
 20
-136.7447970578277
 10
108.8288438312997
 20
-136.7892387895874
 10
108.9242729762412
 20
-136.9711398312086
 10
109.0234917262163
 20
-137.1637206688341
 10
109.0469183755161
 20
-137.3921304995062
 10
109.0469183755161
 20
-137.5657633119627
 10
109.0469183755161
 20
-137.7369845575797
 10
109.0255587835075
 20
-137.9674614455429
 10
108.9242729762412
 20
-138.1600422831683
 97
        0
 97
        0
 92
        1
 93
        1
 72
     4
 94
        3
 73
     0
 74
     1
 95
       17
 96
       13
 40
0.0
 40
0.0
 40
0.0
 40
0.0
 40
1.0
 40
1.0
 40
1.0
 40
2.0
 40
2.0
 40
2.0
 40
3.0
 40
3.0
 40
3.0
 40
4.0
 40
4.0
 40
4.0
 40
4.0
 10
108.5263644476948
 20
-136.9373778954532
 10
108.2769395345627
 20
-136.9373778954532
 10
108.2300862359633
 20
-137.2209092538892
 10
108.2300862359633
 20
-137.5657633119627
 10
108.2300862359633
 20
-137.8851236634454
 10
108.2662597385584
 20
-138.1938042189238
 10
108.5263644476948
 20
-138.1938042189238
 10
108.7740668130843
 20
-138.1938042189238
 10
108.8226426594263
 20
-137.9126844273274
 10
108.8226426594263
 20
-137.5657633119627
 10
108.8226426594263
 20
-137.2460584509315
 10
108.78440209954
 20
-136.9373778954532
 10
108.5263644476948
 20
-136.9373778954532
 97
        0
 97
        0
 75
     2
 76
     1
 98
        0
  0
ENDBLK
  5
13C
330
139
100
AcDbEntity
  8
0
100
AcDbBlockEnd
  0
BLOCK
  5
144
330
142
100
AcDbEntity
  8
0
100
AcDbBlockBegin
  2
block 6
 70
     0
 10
0.0
 20
0.0
 30
0.0
  3
block 6
  1

  0
SPLINE
  5
146
330
142
100
AcDbEntity
  8
_U+30EC_U+30A4_U+30E4_U+30FC 1
370
     0
100
AcDbSpline
210
0.0
220
0.0
230
1.0
 70
    11
 71
     3
 72
    44
 73
    40
 74
     0
 42
0.0000000001
 43
0.0000000001
 12
1.0
 22
0.0
 32
0.0
 13
1.0
 23
0.0
 33
0.0
 40
0.0
 40
0.0
 40
0.0
 40
0.0
 40
1.0
 40
1.0
 40
1.0
 40
2.0
 40
2.0
 40
2.0
 40
3.0
 40
3.0
 40
3.0
 40
4.0
 40
4.0
 40
4.0
 40
5.0
 40
5.0
 40
5.0
 40
6.0
 40
6.0
 40
6.0
 40
7.0
 40
7.0
 40
7.0
 40
8.0
 40
8.0
 40
8.0
 40
9.0
 40
9.0
 40
9.0
 40
10.0
 40
10.0
 40
10.0
 40
11.0
 40
11.0
 40
11.0
 40
12.0
 40
12.0
 40
12.0
 40
13.0
 40
13.0
 40
13.0
 40
13.0
 10
89.31875133400712
 20
-123.6008965077283
 30
0.0
 10
89.10084904456507
 20
-123.759543154824
 30
0.0
 10
89.00765921168906
 20
-123.8336127077569
 30
0.0
 10
88.95908336534704
 20
-123.9774454442661
 30
0.0
 10
88.95908336534704
 20
-123.9774454442661
 30
0.0
 10
89.73750269023924
 20
-123.9774454442661
 30
0.0
 10
89.73750269023924
 20
-123.9774454442661
 30
0.0
 10
89.73750269023924
 20
-123.9774454442661
 30
0.0
 10
89.73750269023924
 20
-124.1826008804127
 30
0.0
 10
89.73750269023924
 20
-124.1826008804127
 30
0.0
 10
89.73750269023924
 20
-124.1826008804127
 30
0.0
 10
88.70948619744068
 20
-124.1826008804127
 30
0.0
 10
88.70948619744068
 20
-124.1826008804127
 30
0.0
 10
88.74118107590499
 20
-123.8249999690438
 30
0.0
 10
88.80663789012473
 20
-123.7467963015286
 30
0.0
 10
89.19179956537566
 20
-123.4484510325059
 30
0.0
 10
89.44777015992973
 20
-123.249669023007
 30
0.0
 10
89.51322697414948
 20
-123.1819728967219
 30
0.0
 10
89.51322697414948
 20
-123.0445135868604
 30
0.0
 10
89.51322697414948
 20
-122.9260023021678
 30
0.0
 10
89.44139673328202
 20
-122.7949164189541
 30
0.0
 10
89.24468178107425
 20
-122.7949164189541
 30
0.0
 10
88.98440481716362
 20
-122.7949164189541
 30
0.0
 10
88.97596433322477
 20
-123.0253933069173
 30
0.0
 10
88.9716579638682
 20
-123.1418375343187
 30
0.0
 10
88.9716579638682
 20
-123.1418375343187
 30
0.0
 10
88.7475545025527
 20
-123.1418375343187
 30
0.0
 10
88.7475545025527
 20
-123.1418375343187
 30
0.0
 10
88.75599498649156
 20
-123.0148857656873
 30
0.0
 10
88.76650252772157
 20
-122.9027479076424
 30
0.0
 10
88.84694550730215
 20
-122.7842366229498
 30
0.0
 10
88.95684405328163
 20
-122.6235229185629
 30
0.0
 10
89.14305146425939
 20
-122.5895887280332
 30
0.0
 10
89.25949569166083
 20
-122.5895887280332
 30
0.0
 10
89.53665362344917
 20
-122.5895887280332
 30
0.0
 10
89.74387611688695
 20
-122.7737290817198
 30
0.0
 10
89.74387611688695
 20
-123.0465806441516
 30
0.0
 10
89.74387611688695
 20
-123.2749904748236
 30
0.0
 10
89.62760414425976
 20
-123.3745537343473
 30
0.0
 10
89.31875133400712
 20
-123.6008965077283
 30
0.0
  0
HATCH
  5
147
330
142
100
AcDbEntity
  8
_U+30EC_U+30A4_U+30E4_U+30FC 1
 62
   179
420
  2234388
100
AcDbHatch
 10
0.0
 20
0.0
 30
0.0
210
0.0
220
0.0
230
1.0
  2
SOLID
 70
     1
 71
     0
 91
        1
 92
        1
 93
        1
 72
     4
 94
        3
 73
     0
 74
     1
 95
       44
 96
       40
 40
0.0
 40
0.0
 40
0.0
 40
0.0
 40
1.0
 40
1.0
 40
1.0
 40
2.0
 40
2.0
 40
2.0
 40
3.0
 40
3.0
 40
3.0
 40
4.0
 40
4.0
 40
4.0
 40
5.0
 40
5.0
 40
5.0
 40
6.0
 40
6.0
 40
6.0
 40
7.0
 40
7.0
 40
7.0
 40
8.0
 40
8.0
 40
8.0
 40
9.0
 40
9.0
 40
9.0
 40
10.0
 40
10.0
 40
10.0
 40
11.0
 40
11.0
 40
11.0
 40
12.0
 40
12.0
 40
12.0
 40
13.0
 40
13.0
 40
13.0
 40
13.0
 10
89.31875133400712
 20
-123.6008965077283
 10
89.10084904456507
 20
-123.759543154824
 10
89.00765921168906
 20
-123.8336127077569
 10
88.95908336534704
 20
-123.9774454442661
 10
88.95908336534704
 20
-123.9774454442661
 10
89.73750269023924
 20
-123.9774454442661
 10
89.73750269023924
 20
-123.9774454442661
 10
89.73750269023924
 20
-123.9774454442661
 10
89.73750269023924
 20
-124.1826008804127
 10
89.73750269023924
 20
-124.1826008804127
 10
89.73750269023924
 20
-124.1826008804127
 10
88.70948619744068
 20
-124.1826008804127
 10
88.70948619744068
 20
-124.1826008804127
 10
88.74118107590499
 20
-123.8249999690438
 10
88.80663789012473
 20
-123.7467963015286
 10
89.19179956537566
 20
-123.4484510325059
 10
89.44777015992973
 20
-123.249669023007
 10
89.51322697414948
 20
-123.1819728967219
 10
89.51322697414948
 20
-123.0445135868604
 10
89.51322697414948
 20
-122.9260023021678
 10
89.44139673328202
 20
-122.7949164189541
 10
89.24468178107425
 20
-122.7949164189541
 10
88.98440481716362
 20
-122.7949164189541
 10
88.97596433322477
 20
-123.0253933069173
 10
88.9716579638682
 20
-123.1418375343187
 10
88.9716579638682
 20
-123.1418375343187
 10
88.7475545025527
 20
-123.1418375343187
 10
88.7475545025527
 20
-123.1418375343187
 10
88.75599498649156
 20
-123.0148857656873
 10
88.76650252772157
 20
-122.9027479076424
 10
88.84694550730215
 20
-122.7842366229498
 10
88.95684405328163
 20
-122.6235229185629
 10
89.14305146425939
 20
-122.5895887280332
 10
89.25949569166083
 20
-122.5895887280332
 10
89.53665362344917
 20
-122.5895887280332
 10
89.74387611688695
 20
-122.7737290817198
 10
89.74387611688695
 20
-123.0465806441516
 10
89.74387611688695
 20
-123.2749904748236
 10
89.62760414425976
 20
-123.3745537343473
 10
89.31875133400712
 20
-123.6008965077283
 97
        0
 97
        0
 75
     2
 76
     1
 98
        0
  0
SPLINE
  5
148
330
142
100
AcDbEntity
  8
_U+30EC_U+30A4_U+30E4_U+30FC 1
370
     0
100
AcDbSpline
210
0.0
220
0.0
230
1.0
 70
    11
 71
     3
 72
    53
 73
    49
 74
     0
 42
0.0000000001
 43
0.0000000001
 12
1.0
 22
0.0
 32
0.0
 13
1.0
 23
0.0
 33
0.0
 40
0.0
 40
0.0
 40
0.0
 40
0.0
 40
1.0
 40
1.0
 40
1.0
 40
2.0
 40
2.0
 40
2.0
 40
3.0
 40
3.0
 40
3.0
 40
4.0
 40
4.0
 40
4.0
 40
5.0
 40
5.0
 40
5.0
 40
6.0
 40
6.0
 40
6.0
 40
7.0
 40
7.0
 40
7.0
 40
8.0
 40
8.0
 40
8.0
 40
9.0
 40
9.0
 40
9.0
 40
10.0
 40
10.0
 40
10.0
 40
11.0
 40
11.0
 40
11.0
 40
12.0
 40
12.0
 40
12.0
 40
13.0
 40
13.0
 40
13.0
 40
14.0
 40
14.0
 40
14.0
 40
15.0
 40
15.0
 40
15.0
 40
16.0
 40
16.0
 40
16.0
 40
16.0
 10
90.38345809372359
 20
-124.2334160388201
 30
0.0
 10
90.30508217143415
 20
-124.2334160388201
 30
0.0
 10
90.20362410939354
 20
-124.2163628161681
 30
0.0
 10
90.10199379257867
 20
-124.1529730592395
 30
0.0
 10
89.92853323489635
 20
-124.0429022584858
 30
0.0
 10
89.90734589766205
 20
-123.9118163752721
 30
0.0
 10
89.88839787249319
 20
-123.8039848865837
 30
0.0
 10
89.88839787249319
 20
-123.8039848865837
 30
0.0
 10
90.1106065312918
 20
-123.8039848865837
 30
0.0
 10
90.1106065312918
 20
-123.8039848865837
 30
0.0
 10
90.16555580428154
 20
-124.0027668960826
 30
0.0
 10
90.29250757291298
 20
-124.0323947172558
 30
0.0
 10
90.38552515101473
 20
-124.0323947172558
 30
0.0
 10
90.52522377294162
 20
-124.0323947172558
 30
0.0
 10
90.67749699338965
 20
-123.9330037125063
 30
0.0
 10
90.67749699338965
 20
-123.7002875124777
 30
0.0
 10
90.67749699338965
 20
-123.4443169179236
 30
0.0
 10
90.49766300905962
 20
-123.3745537343473
 30
0.0
 10
90.37708466707588
 20
-123.3745537343473
 30
0.0
 10
90.34538978861157
 20
-123.3745537343473
 30
0.0
 10
90.20362410939354
 20
-123.3745537343473
 30
0.0
 10
90.1147406458741
 20
-123.5035725602699
 30
0.0
 10
90.1147406458741
 20
-123.5035725602699
 30
0.0
 10
89.93921303090062
 20
-123.4844522803268
 30
0.0
 10
89.93921303090062
 20
-123.4844522803268
 30
0.0
 10
89.93921303090062
 20
-123.4844522803268
 30
0.0
 10
90.05979137288436
 20
-122.6383368291495
 30
0.0
 10
90.05979137288436
 20
-122.6383368291495
 30
0.0
 10
90.05979137288436
 20
-122.6383368291495
 30
0.0
 10
90.83821069777656
 20
-122.6383368291495
 30
0.0
 10
90.83821069777656
 20
-122.6383368291495
 30
0.0
 10
90.83821069777656
 20
-122.6383368291495
 30
0.0
 10
90.83821069777656
 20
-122.8329847240661
 30
0.0
 10
90.83821069777656
 20
-122.8329847240661
 30
0.0
 10
90.83821069777656
 20
-122.8329847240661
 30
0.0
 10
90.22257213456241
 20
-122.8329847240661
 30
0.0
 10
90.22257213456241
 20
-122.8329847240661
 30
0.0
 10
90.22257213456241
 20
-122.8329847240661
 30
0.0
 10
90.15711532034267
 20
-123.2560424496547
 30
0.0
 10
90.15711532034267
 20
-123.2560424496547
 30
0.0
 10
90.21843801998011
 20
-123.222108259125
 30
0.0
 10
90.30094805685185
 20
-123.1819728967219
 30
0.0
 10
90.41945934154444
 20
-123.1819728967219
 30
0.0
 10
90.6731906240331
 20
-123.1819728967219
 30
0.0
 10
90.91021319341829
 20
-123.3681803076996
 30
0.0
 10
90.91021319341829
 20
-123.6811672325346
 30
0.0
 10
90.91021319341829
 20
-123.9986327815003
 30
0.0
 10
90.68593747732852
 20
-124.2334160388201
 30
0.0
 10
90.38345809372359
 20
-124.2334160388201
 30
0.0
  0
HATCH
  5
149
330
142
100
AcDbEntity
  8
_U+30EC_U+30A4_U+30E4_U+30FC 1
 62
   179
420
  2234388
100
AcDbHatch
 10
0.0
 20
0.0
 30
0.0
210
0.0
220
0.0
230
1.0
  2
SOLID
 70
     1
 71
     0
 91
        1
 92
        1
 93
        1
 72
     4
 94
        3
 73
     0
 74
     1
 95
       53
 96
       49
 40
0.0
 40
0.0
 40
0.0
 40
0.0
 40
1.0
 40
1.0
 40
1.0
 40
2.0
 40
2.0
 40
2.0
 40
3.0
 40
3.0
 40
3.0
 40
4.0
 40
4.0
 40
4.0
 40
5.0
 40
5.0
 40
5.0
 40
6.0
 40
6.0
 40
6.0
 40
7.0
 40
7.0
 40
7.0
 40
8.0
 40
8.0
 40
8.0
 40
9.0
 40
9.0
 40
9.0
 40
10.0
 40
10.0
 40
10.0
 40
11.0
 40
11.0
 40
11.0
 40
12.0
 40
12.0
 40
12.0
 40
13.0
 40
13.0
 40
13.0
 40
14.0
 40
14.0
 40
14.0
 40
15.0
 40
15.0
 40
15.0
 40
16.0
 40
16.0
 40
16.0
 40
16.0
 10
90.38345809372359
 20
-124.2334160388201
 10
90.30508217143415
 20
-124.2334160388201
 10
90.20362410939354
 20
-124.2163628161681
 10
90.10199379257867
 20
-124.1529730592395
 10
89.92853323489635
 20
-124.0429022584858
 10
89.90734589766205
 20
-123.9118163752721
 10
89.88839787249319
 20
-123.8039848865837
 10
89.88839787249319
 20
-123.8039848865837
 10
90.1106065312918
 20
-123.8039848865837
 10
90.1106065312918
 20
-123.8039848865837
 10
90.16555580428154
 20
-124.0027668960826
 10
90.29250757291298
 20
-124.0323947172558
 10
90.38552515101473
 20
-124.0323947172558
 10
90.52522377294162
 20
-124.0323947172558
 10
90.67749699338965
 20
-123.9330037125063
 10
90.67749699338965
 20
-123.7002875124777
 10
90.67749699338965
 20
-123.4443169179236
 10
90.49766300905962
 20
-123.3745537343473
 10
90.37708466707588
 20
-123.3745537343473
 10
90.34538978861157
 20
-123.3745537343473
 10
90.20362410939354
 20
-123.3745537343473
 10
90.1147406458741
 20
-123.5035725602699
 10
90.1147406458741
 20
-123.5035725602699
 10
89.93921303090062
 20
-123.4844522803268
 10
89.93921303090062
 20
-123.4844522803268
 10
89.93921303090062
 20
-123.4844522803268
 10
90.05979137288436
 20
-122.6383368291495
 10
90.05979137288436
 20
-122.6383368291495
 10
90.05979137288436
 20
-122.6383368291495
 10
90.83821069777656
 20
-122.6383368291495
 10
90.83821069777656
 20
-122.6383368291495
 10
90.83821069777656
 20
-122.6383368291495
 10
90.83821069777656
 20
-122.8329847240661
 10
90.83821069777656
 20
-122.8329847240661
 10
90.83821069777656
 20
-122.8329847240661
 10
90.22257213456241
 20
-122.8329847240661
 10
90.22257213456241
 20
-122.8329847240661
 10
90.22257213456241
 20
-122.8329847240661
 10
90.15711532034267
 20
-123.2560424496547
 10
90.15711532034267
 20
-123.2560424496547
 10
90.21843801998011
 20
-123.222108259125
 10
90.30094805685185
 20
-123.1819728967219
 10
90.41945934154444
 20
-123.1819728967219
 10
90.6731906240331
 20
-123.1819728967219
 10
90.91021319341829
 20
-123.3681803076996
 10
90.91021319341829
 20
-123.6811672325346
 10
90.91021319341829
 20
-123.9986327815003
 10
90.68593747732852
 20
-124.2334160388201
 10
90.38345809372359
 20
-124.2334160388201
 97
        0
 97
        0
 75
     2
 76
     1
 98
        0
  0
ENDBLK
  5
145
330
142
100
AcDbEntity
  8
0
100
AcDbBlockEnd
  0
BLOCK
  5
14C
330
14A
100
AcDbEntity
  8
0
100
AcDbBlockBegin
  2
block 7
 70
     0
 10
0.0
 20
0.0
 30
0.0
  3
block 7
  1

  0
POLYLINE
  5
14E
330
14A
100
AcDbEntity
  8
_U+30EC_U+30A4_U+30E4_U+30FC 1
370
     0
100
AcDb2dPolyline
 66
     1
 10
0.0
 20
0.0
 30
0.0
  0
VERTEX
  5
14F
330
14E
100
AcDbEntity
  8
_U+30EC_U+30A4_U+30E4_U+30FC 1
370
     0
100
AcDbVertex
100
AcDb2dVertex
 10
110.308167832666
 20
-127.0048231019294
 30
0.0
  0
VERTEX
  5
150
330
14E
100
AcDbEntity
  8
_U+30EC_U+30A4_U+30E4_U+30FC 1
370
     0
100
AcDbVertex
100
AcDb2dVertex
 10
110.308167832666
 20
-125.9364989919534
 30
0.0
  0
VERTEX
  5
151
330
14E
100
AcDbEntity
  8
_U+30EC_U+30A4_U+30E4_U+30FC 1
370
     0
100
AcDbVertex
100
AcDb2dVertex
 10
110.3143690045395
 20
-125.7735459755011
 30
0.0
  0
VERTEX
  5
152
330
14E
100
AcDbEntity
  8
_U+30EC_U+30A4_U+30E4_U+30FC 1
370
     0
100
AcDbVertex
100
AcDb2dVertex
 10
110.2785400114929
 20
-125.9280585080145
 30
0.0
  0
VERTEX
  5
153
330
14E
100
AcDbEntity
  8
_U+30EC_U+30A4_U+30E4_U+30FC 1
370
     0
100
AcDbVertex
100
AcDb2dVertex
 10
109.9336859534194
 20
-127.0048231019294
 30
0.0
  0
VERTEX
  5
154
330
14E
100
AcDbEntity
  8
_U+30EC_U+30A4_U+30E4_U+30FC 1
370
     0
100
AcDbVertex
100
AcDb2dVertex
 10
109.6629014482787
 20
-127.0048231019294
 30
0.0
  0
VERTEX
  5
155
330
14E
100
AcDbEntity
  8
_U+30EC_U+30A4_U+30E4_U+30FC 1
370
     0
100
AcDbVertex
100
AcDb2dVertex
 10
109.3201144474964
 20
-125.9280585080145
 30
0.0
  0
VERTEX
  5
156
330
14E
100
AcDbEntity
  8
_U+30EC_U+30A4_U+30E4_U+30FC 1
370
     0
100
AcDbVertex
100
AcDb2dVertex
 10
109.2842854544498
 20
-125.7735459755011
 30
0.0
  0
VERTEX
  5
157
330
14E
100
AcDbEntity
  8
_U+30EC_U+30A4_U+30E4_U+30FC 1
370
     0
100
AcDbVertex
100
AcDb2dVertex
 10
109.2884195690321
 20
-125.9364989919534
 30
0.0
  0
VERTEX
  5
158
330
14E
100
AcDbEntity
  8
_U+30EC_U+30A4_U+30E4_U+30FC 1
370
     0
100
AcDbVertex
100
AcDb2dVertex
 10
109.2884195690321
 20
-127.0048231019294
 30
0.0
  0
VERTEX
  5
159
330
14E
100
AcDbEntity
  8
_U+30EC_U+30A4_U+30E4_U+30FC 1
370
     0
100
AcDbVertex
100
AcDb2dVertex
 10
109.0706895343643
 20
-127.0048231019294
 30
0.0
  0
VERTEX
  5
15A
330
14E
100
AcDbEntity
  8
_U+30EC_U+30A4_U+30E4_U+30FC 1
370
     0
100
AcDbVertex
100
AcDb2dVertex
 10
109.0706895343643
 20
-125.4605590506661
 30
0.0
  0
VERTEX
  5
15B
330
14E
100
AcDbEntity
  8
_U+30EC_U+30A4_U+30E4_U+30FC 1
370
     0
100
AcDbVertex
100
AcDb2dVertex
 10
109.3900498858469
 20
-125.4605590506661
 30
0.0
  0
VERTEX
  5
15C
330
14E
100
AcDbEntity
  8
_U+30EC_U+30A4_U+30E4_U+30FC 1
370
     0
100
AcDbVertex
100
AcDb2dVertex
 10
109.7603976505113
 20
-126.6091538854484
 30
0.0
  0
VERTEX
  5
15D
330
14E
100
AcDbEntity
  8
_U+30EC_U+30A4_U+30E4_U+30FC 1
370
     0
100
AcDbVertex
100
AcDb2dVertex
 10
109.798293700849
 20
-126.7509195646664
 30
0.0
  0
VERTEX
  5
15E
330
14E
100
AcDbEntity
  8
_U+30EC_U+30A4_U+30E4_U+30FC 1
370
     0
100
AcDbVertex
100
AcDb2dVertex
 10
109.8365342607353
 20
-126.6091538854484
 30
0.0
  0
VERTEX
  5
15F
330
14E
100
AcDbEntity
  8
_U+30EC_U+30A4_U+30E4_U+30FC 1
370
     0
100
AcDbVertex
100
AcDb2dVertex
 10
110.2086045731423
 20
-125.4605590506661
 30
0.0
  0
VERTEX
  5
160
330
14E
100
AcDbEntity
  8
_U+30EC_U+30A4_U+30E4_U+30FC 1
370
     0
100
AcDbVertex
100
AcDb2dVertex
 10
110.5262423768823
 20
-125.4605590506661
 30
0.0
  0
VERTEX
  5
161
330
14E
100
AcDbEntity
  8
_U+30EC_U+30A4_U+30E4_U+30FC 1
370
     0
100
AcDbVertex
100
AcDb2dVertex
 10
110.5262423768823
 20
-127.0048231019294
 30
0.0
  0
VERTEX
  5
162
330
14E
100
AcDbEntity
  8
_U+30EC_U+30A4_U+30E4_U+30FC 1
370
     0
100
AcDbVertex
100
AcDb2dVertex
 10
110.308167832666
 20
-127.0048231019294
 30
0.0
  0
SEQEND
  5
163
330
14E
100
AcDbEntity
  8
_U+30EC_U+30A4_U+30E4_U+30FC 1
370
     0
  0
HATCH
  5
164
330
14A
100
AcDbEntity
  8
_U+30EC_U+30A4_U+30E4_U+30FC 1
 62
   179
420
  2234388
100
AcDbHatch
 10
0.0
 20
0.0
 30
0.0
210
0.0
220
0.0
230
1.0
  2
SOLID
 70
     1
 71
     0
 91
        1
 92
        1
 93
       19
 72
     1
 10
110.308167832666
 20
-127.0048231019294
 11
110.308167832666
 21
-125.9364989919534
 72
     1
 10
110.308167832666
 20
-125.9364989919534
 11
110.3143690045395
 21
-125.7735459755011
 72
     1
 10
110.3143690045395
 20
-125.7735459755011
 11
110.2785400114929
 21
-125.9280585080145
 72
     1
 10
110.2785400114929
 20
-125.9280585080145
 11
109.9336859534194
 21
-127.0048231019294
 72
     1
 10
109.9336859534194
 20
-127.0048231019294
 11
109.6629014482787
 21
-127.0048231019294
 72
     1
 10
109.6629014482787
 20
-127.0048231019294
 11
109.3201144474964
 21
-125.9280585080145
 72
     1
 10
109.3201144474964
 20
-125.9280585080145
 11
109.2842854544498
 21
-125.7735459755011
 72
     1
 10
109.2842854544498
 20
-125.7735459755011
 11
109.2884195690321
 21
-125.9364989919534
 72
     1
 10
109.2884195690321
 20
-125.9364989919534
 11
109.2884195690321
 21
-127.0048231019294
 72
     1
 10
109.2884195690321
 20
-127.0048231019294
 11
109.0706895343643
 21
-127.0048231019294
 72
     1
 10
109.0706895343643
 20
-127.0048231019294
 11
109.0706895343643
 21
-125.4605590506661
 72
     1
 10
109.0706895343643
 20
-125.4605590506661
 11
109.3900498858469
 21
-125.4605590506661
 72
     1
 10
109.3900498858469
 20
-125.4605590506661
 11
109.7603976505113
 21
-126.6091538854484
 72
     1
 10
109.7603976505113
 20
-126.6091538854484
 11
109.798293700849
 21
-126.7509195646664
 72
     1
 10
109.798293700849
 20
-126.7509195646664
 11
109.8365342607353
 21
-126.6091538854484
 72
     1
 10
109.8365342607353
 20
-126.6091538854484
 11
110.2086045731423
 21
-125.4605590506661
 72
     1
 10
110.2086045731423
 20
-125.4605590506661
 11
110.5262423768823
 21
-125.4605590506661
 72
     1
 10
110.5262423768823
 20
-125.4605590506661
 11
110.5262423768823
 21
-127.0048231019294
 72
     1
 10
110.5262423768823
 20
-127.0048231019294
 11
110.308167832666
 21
-127.0048231019294
 97
        0
 75
     2
 76
     1
 98
        0
  0
POLYLINE
  5
165
330
14A
100
AcDbEntity
  8
_U+30EC_U+30A4_U+30E4_U+30FC 1
370
     0
100
AcDb2dPolyline
 66
     1
 10
0.0
 20
0.0
 30
0.0
  0
VERTEX
  5
166
330
165
100
AcDbEntity
  8
_U+30EC_U+30A4_U+30E4_U+30FC 1
370
     0
100
AcDbVertex
100
AcDb2dVertex
 10
111.6396972377151
 20
-126.6579019865647
 30
0.0
  0
VERTEX
  5
167
330
165
100
AcDbEntity
  8
_U+30EC_U+30A4_U+30E4_U+30FC 1
370
     0
100
AcDbVertex
100
AcDb2dVertex
 10
111.6396972377151
 20
-127.0048231019294
 30
0.0
  0
VERTEX
  5
168
330
165
100
AcDbEntity
  8
_U+30EC_U+30A4_U+30E4_U+30FC 1
370
     0
100
AcDbVertex
100
AcDb2dVertex
 10
111.4219672030473
 20
-127.0048231019294
 30
0.0
  0
VERTEX
  5
169
330
165
100
AcDbEntity
  8
_U+30EC_U+30A4_U+30E4_U+30FC 1
370
     0
100
AcDbVertex
100
AcDb2dVertex
 10
111.4219672030473
 20
-126.6579019865647
 30
0.0
  0
VERTEX
  5
16A
330
165
100
AcDbEntity
  8
_U+30EC_U+30A4_U+30E4_U+30FC 1
370
     0
100
AcDbVertex
100
AcDb2dVertex
 10
110.7660210226557
 20
-126.6579019865647
 30
0.0
  0
VERTEX
  5
16B
330
165
100
AcDbEntity
  8
_U+30EC_U+30A4_U+30E4_U+30FC 1
370
     0
100
AcDbVertex
100
AcDb2dVertex
 10
110.7660210226557
 20
-126.4336262704749
 30
0.0
  0
VERTEX
  5
16C
330
165
100
AcDbEntity
  8
_U+30EC_U+30A4_U+30E4_U+30FC 1
370
     0
100
AcDbVertex
100
AcDb2dVertex
 10
111.4450493427985
 20
-125.4605590506661
 30
0.0
  0
VERTEX
  5
16D
330
165
100
AcDbEntity
  8
_U+30EC_U+30A4_U+30E4_U+30FC 1
370
     0
100
AcDbVertex
100
AcDb2dVertex
 10
111.6396972377151
 20
-125.4605590506661
 30
0.0
  0
VERTEX
  5
16E
330
165
100
AcDbEntity
  8
_U+30EC_U+30A4_U+30E4_U+30FC 1
370
     0
100
AcDbVertex
100
AcDb2dVertex
 10
111.6396972377151
 20
-126.4589477222915
 30
0.0
  0
VERTEX
  5
16F
330
165
100
AcDbEntity
  8
_U+30EC_U+30A4_U+30E4_U+30FC 1
370
     0
100
AcDbVertex
100
AcDb2dVertex
 10
111.8470919859271
 20
-126.4589477222915
 30
0.0
  0
VERTEX
  5
170
330
165
100
AcDbEntity
  8
_U+30EC_U+30A4_U+30E4_U+30FC 1
370
     0
100
AcDbVertex
100
AcDb2dVertex
 10
111.8470919859271
 20
-126.6579019865647
 30
0.0
  0
VERTEX
  5
171
330
165
100
AcDbEntity
  8
_U+30EC_U+30A4_U+30E4_U+30FC 1
370
     0
100
AcDbVertex
100
AcDb2dVertex
 10
111.6396972377151
 20
-126.6579019865647
 30
0.0
  0
SEQEND
  5
172
330
165
100
AcDbEntity
  8
_U+30EC_U+30A4_U+30E4_U+30FC 1
370
     0
  0
POLYLINE
  5
173
330
14A
100
AcDbEntity
  8
_U+30EC_U+30A4_U+30E4_U+30FC 1
370
     0
100
AcDb2dPolyline
 66
     1
 10
0.0
 20
0.0
 30
0.0
  0
VERTEX
  5
174
330
173
100
AcDbEntity
  8
_U+30EC_U+30A4_U+30E4_U+30FC 1
370
     0
100
AcDbVertex
100
AcDb2dVertex
 10
111.4219672030473
 20
-125.8031737966742
 30
0.0
  0
VERTEX
  5
175
330
173
100
AcDbEntity
  8
_U+30EC_U+30A4_U+30E4_U+30FC 1
370
     0
100
AcDbVertex
100
AcDb2dVertex
 10
110.9651475417032
 20
-126.4589477222915
 30
0.0
  0
VERTEX
  5
176
330
173
100
AcDbEntity
  8
_U+30EC_U+30A4_U+30E4_U+30FC 1
370
     0
100
AcDbVertex
100
AcDb2dVertex
 10
111.4219672030473
 20
-126.4589477222915
 30
0.0
  0
VERTEX
  5
177
330
173
100
AcDbEntity
  8
_U+30EC_U+30A4_U+30E4_U+30FC 1
370
     0
100
AcDbVertex
100
AcDb2dVertex
 10
111.4219672030473
 20
-125.8031737966742
 30
0.0
  0
SEQEND
  5
178
330
173
100
AcDbEntity
  8
_U+30EC_U+30A4_U+30E4_U+30FC 1
370
     0
  0
HATCH
  5
179
330
14A
100
AcDbEntity
  8
_U+30EC_U+30A4_U+30E4_U+30FC 1
 62
   179
420
  2234388
100
AcDbHatch
 10
0.0
 20
0.0
 30
0.0
210
0.0
220
0.0
230
1.0
  2
SOLID
 70
     1
 71
     0
 91
        2
 92
        1
 93
       11
 72
     1
 10
111.6396972377151
 20
-126.6579019865647
 11
111.6396972377151
 21
-127.0048231019294
 72
     1
 10
111.6396972377151
 20
-127.0048231019294
 11
111.4219672030473
 21
-127.0048231019294
 72
     1
 10
111.4219672030473
 20
-127.0048231019294
 11
111.4219672030473
 21
-126.6579019865647
 72
     1
 10
111.4219672030473
 20
-126.6579019865647
 11
110.7660210226557
 21
-126.6579019865647
 72
     1
 10
110.7660210226557
 20
-126.6579019865647
 11
110.7660210226557
 21
-126.4336262704749
 72
     1
 10
110.7660210226557
 20
-126.4336262704749
 11
111.4450493427985
 21
-125.4605590506661
 72
     1
 10
111.4450493427985
 20
-125.4605590506661
 11
111.6396972377151
 21
-125.4605590506661
 72
     1
 10
111.6396972377151
 20
-125.4605590506661
 11
111.6396972377151
 21
-126.4589477222915
 72
     1
 10
111.6396972377151
 20
-126.4589477222915
 11
111.8470919859271
 21
-126.4589477222915
 72
     1
 10
111.8470919859271
 20
-126.4589477222915
 11
111.8470919859271
 21
-126.6579019865647
 72
     1
 10
111.8470919859271
 20
-126.6579019865647
 11
111.6396972377151
 21
-126.6579019865647
 97
        0
 92
        1
 93
        3
 72
     1
 10
111.4219672030473
 20
-125.8031737966742
 11
110.9651475417032
 21
-126.4589477222915
 72
     1
 10
110.9651475417032
 20
-126.4589477222915
 11
111.4219672030473
 21
-126.4589477222915
 72
     1
 10
111.4219672030473
 20
-126.4589477222915
 11
111.4219672030473
 21
-125.8031737966742
 97
        0
 75
     2
 76
     1
 98
        0
  0
SPLINE
  5
17A
330
14A
100
AcDbEntity
  8
_U+30EC_U+30A4_U+30E4_U+30FC 1
370
     0
100
AcDbSpline
210
0.0
220
0.0
230
1.0
 70
    11
 71
     3
 72
    35
 73
    31
 74
     0
 42
0.0000000001
 43
0.0000000001
 12
1.0
 22
0.0
 32
0.0
 13
1.0
 23
0.0
 33
0.0
 40
0.0
 40
0.0
 40
0.0
 40
0.0
 40
1.0
 40
1.0
 40
1.0
 40
2.0
 40
2.0
 40
2.0
 40
3.0
 40
3.0
 40
3.0
 40
4.0
 40
4.0
 40
4.0
 40
5.0
 40
5.0
 40
5.0
 40
6.0
 40
6.0
 40
6.0
 40
7.0
 40
7.0
 40
7.0
 40
8.0
 40
8.0
 40
8.0
 40
9.0
 40
9.0
 40
9.0
 40
10.0
 40
10.0
 40
10.0
 40
10.0
 10
112.9436658788821
 20
-125.6340196083484
 30
0.0
 10
112.9436658788821
 20
-125.6340196083484
 30
0.0
 10
112.8926784657004
 20
-125.8984306868414
 30
0.0
 10
112.8926784657004
 20
-125.8984306868414
 30
0.0
 10
113.0322048328531
 20
-125.9111775401368
 30
0.0
 10
113.3601779230489
 20
-126.0021280609474
 30
0.0
 10
113.3601779230489
 20
-126.3934909080718
 30
0.0
 10
113.3601779230489
 20
-126.8714979066502
 30
0.0
 10
112.9540011653379
 20
-126.9963826179905
 30
0.0
 10
112.679082545615
 20
-126.9963826179905
 30
0.0
 10
112.679082545615
 20
-126.9963826179905
 30
0.0
 10
112.6112141645555
 20
-127.3496771600029
 30
0.0
 10
112.6112141645555
 20
-127.3496771600029
 30
0.0
 10
112.6112141645555
 20
-127.3496771600029
 30
0.0
 10
112.404163925892
 20
-127.3496771600029
 30
0.0
 10
112.404163925892
 20
-127.3496771600029
 30
0.0
 10
112.404163925892
 20
-127.3496771600029
 30
0.0
 10
112.4758219119852
 20
-126.9815687074039
 30
0.0
 10
112.4758219119852
 20
-126.9815687074039
 30
0.0
 10
112.3679904232969
 20
-126.9624484274608
 30
0.0
 10
112.0169351933499
 20
-126.9011257278233
 30
0.0
 10
112.0169351933499
 20
-126.4844414288824
 30
0.0
 10
112.0169351933499
 20
-126.0358899967028
 30
0.0
 10
112.3724690474277
 20
-125.8856838335459
 30
0.0
 10
112.6876952843281
 20
-125.8856838335459
 30
0.0
 10
112.6876952843281
 20
-125.8856838335459
 30
0.0
 10
112.7362711306701
 20
-125.6340196083484
 30
0.0
 10
112.7362711306701
 20
-125.6340196083484
 30
0.0
 10
112.7362711306701
 20
-125.6340196083484
 30
0.0
 10
112.9436658788821
 20
-125.6340196083484
 30
0.0
 10
112.9436658788821
 20
-125.6340196083484
 30
0.0
  0
SPLINE
  5
17B
330
14A
100
AcDbEntity
  8
_U+30EC_U+30A4_U+30E4_U+30FC 1
370
     0
100
AcDbSpline
210
0.0
220
0.0
230
1.0
 70
    11
 71
     3
 72
    14
 73
    10
 74
     0
 42
0.0000000001
 43
0.0000000001
 12
1.0
 22
0.0
 32
0.0
 13
1.0
 23
0.0
 33
0.0
 40
0.0
 40
0.0
 40
0.0
 40
0.0
 40
1.0
 40
1.0
 40
1.0
 40
2.0
 40
2.0
 40
2.0
 40
3.0
 40
3.0
 40
3.0
 40
3.0
 10
112.6535888390241
 20
-126.0591443912283
 30
0.0
 10
112.5330104970404
 20
-126.0675848751671
 30
0.0
 10
112.2391438521486
 20
-126.0908392696926
 30
0.0
 10
112.2391438521486
 20
-126.4885755434647
 30
0.0
 10
112.2391438521486
 20
-126.5521375551675
 30
0.0
 10
112.2391438521486
 20
-126.765733475253
 30
0.0
 10
112.507861299998
 20
-126.8101752070127
 30
0.0
 10
112.507861299998
 20
-126.8101752070127
 30
0.0
 10
112.6535888390241
 20
-126.0591443912283
 30
0.0
 10
112.6535888390241
 20
-126.0591443912283
 30
0.0
  0
SPLINE
  5
17C
330
14A
100
AcDbEntity
  8
_U+30EC_U+30A4_U+30E4_U+30FC 1
370
     0
100
AcDbSpline
210
0.0
220
0.0
230
1.0
 70
    11
 71
     3
 72
    14
 73
    10
 74
     0
 42
0.0000000001
 43
0.0000000001
 12
1.0
 22
0.0
 32
0.0
 13
1.0
 23
0.0
 33
0.0
 40
0.0
 40
0.0
 40
0.0
 40
0.0
 40
1.0
 40
1.0
 40
1.0
 40
2.0
 40
2.0
 40
2.0
 40
3.0
 40
3.0
 40
3.0
 40
3.0
 10
112.7149115386616
 20
-126.8186156909516
 30
0.0
 10
112.8968125802827
 20
-126.8144815763693
 30
0.0
 10
113.1403808310899
 20
-126.7340385967887
 30
0.0
 10
113.1403808310899
 20
-126.3786769974852
 30
0.0
 10
113.1403808310899
 20
-126.2854871646092
 30
0.0
 10
113.1276339777945
 20
-126.0972126963403
 30
0.0
 10
112.8568494726538
 20
-126.0698241872326
 30
0.0
 10
112.8568494726538
 20
-126.0698241872326
 30
0.0
 10
112.7149115386616
 20
-126.8186156909516
 30
0.0
 10
112.7149115386616
 20
-126.8186156909516
 30
0.0
  0
HATCH
  5
17D
330
14A
100
AcDbEntity
  8
_U+30EC_U+30A4_U+30E4_U+30FC 1
 62
   179
420
  2234388
100
AcDbHatch
 10
0.0
 20
0.0
 30
0.0
210
0.0
220
0.0
230
1.0
  2
SOLID
 70
     1
 71
     0
 91
        3
 92
        1
 93
        1
 72
     4
 94
        3
 73
     0
 74
     1
 95
       35
 96
       31
 40
0.0
 40
0.0
 40
0.0
 40
0.0
 40
1.0
 40
1.0
 40
1.0
 40
2.0
 40
2.0
 40
2.0
 40
3.0
 40
3.0
 40
3.0
 40
4.0
 40
4.0
 40
4.0
 40
5.0
 40
5.0
 40
5.0
 40
6.0
 40
6.0
 40
6.0
 40
7.0
 40
7.0
 40
7.0
 40
8.0
 40
8.0
 40
8.0
 40
9.0
 40
9.0
 40
9.0
 40
10.0
 40
10.0
 40
10.0
 40
10.0
 10
112.9436658788821
 20
-125.6340196083484
 10
112.9436658788821
 20
-125.6340196083484
 10
112.8926784657004
 20
-125.8984306868414
 10
112.8926784657004
 20
-125.8984306868414
 10
113.0322048328531
 20
-125.9111775401368
 10
113.3601779230489
 20
-126.0021280609474
 10
113.3601779230489
 20
-126.3934909080718
 10
113.3601779230489
 20
-126.8714979066502
 10
112.9540011653379
 20
-126.9963826179905
 10
112.679082545615
 20
-126.9963826179905
 10
112.679082545615
 20
-126.9963826179905
 10
112.6112141645555
 20
-127.3496771600029
 10
112.6112141645555
 20
-127.3496771600029
 10
112.6112141645555
 20
-127.3496771600029
 10
112.404163925892
 20
-127.3496771600029
 10
112.404163925892
 20
-127.3496771600029
 10
112.404163925892
 20
-127.3496771600029
 10
112.4758219119852
 20
-126.9815687074039
 10
112.4758219119852
 20
-126.9815687074039
 10
112.3679904232969
 20
-126.9624484274608
 10
112.0169351933499
 20
-126.9011257278233
 10
112.0169351933499
 20
-126.4844414288824
 10
112.0169351933499
 20
-126.0358899967028
 10
112.3724690474277
 20
-125.8856838335459
 10
112.6876952843281
 20
-125.8856838335459
 10
112.6876952843281
 20
-125.8856838335459
 10
112.7362711306701
 20
-125.6340196083484
 10
112.7362711306701
 20
-125.6340196083484
 10
112.7362711306701
 20
-125.6340196083484
 10
112.9436658788821
 20
-125.6340196083484
 10
112.9436658788821
 20
-125.6340196083484
 97
        0
 97
        0
 92
        1
 93
        1
 72
     4
 94
        3
 73
     0
 74
     1
 95
       14
 96
       10
 40
0.0
 40
0.0
 40
0.0
 40
0.0
 40
1.0
 40
1.0
 40
1.0
 40
2.0
 40
2.0
 40
2.0
 40
3.0
 40
3.0
 40
3.0
 40
3.0
 10
112.6535888390241
 20
-126.0591443912283
 10
112.5330104970404
 20
-126.0675848751671
 10
112.2391438521486
 20
-126.0908392696926
 10
112.2391438521486
 20
-126.4885755434647
 10
112.2391438521486
 20
-126.5521375551675
 10
112.2391438521486
 20
-126.765733475253
 10
112.507861299998
 20
-126.8101752070127
 10
112.507861299998
 20
-126.8101752070127
 10
112.6535888390241
 20
-126.0591443912283
 10
112.6535888390241
 20
-126.0591443912283
 97
        0
 97
        0
 92
        1
 93
        1
 72
     4
 94
        3
 73
     0
 74
     1
 95
       14
 96
       10
 40
0.0
 40
0.0
 40
0.0
 40
0.0
 40
1.0
 40
1.0
 40
1.0
 40
2.0
 40
2.0
 40
2.0
 40
3.0
 40
3.0
 40
3.0
 40
3.0
 10
112.7149115386616
 20
-126.8186156909516
 10
112.8968125802827
 20
-126.8144815763693
 10
113.1403808310899
 20
-126.7340385967887
 10
113.1403808310899
 20
-126.3786769974852
 10
113.1403808310899
 20
-126.2854871646092
 10
113.1276339777945
 20
-126.0972126963403
 10
112.8568494726538
 20
-126.0698241872326
 10
112.8568494726538
 20
-126.0698241872326
 10
112.7149115386616
 20
-126.8186156909516
 10
112.7149115386616
 20
-126.8186156909516
 97
        0
 97
        0
 75
     2
 76
     1
 98
        0
  0
ENDBLK
  5
14D
330
14A
100
AcDbEntity
  8
0
100
AcDbBlockEnd
  0
ENDSEC
  0
SECTION
  2
ENTITIES
  0
POLYLINE
  5
41
330
1F
100
AcDbEntity
  8
_U+30EC_U+30A4_U+30E4_U+30FC 1
 62
     7
420
 16711422
370
    18
100
AcDb2dPolyline
 66
     1
 10
0.0
 20
0.0
 30
0.0
  0
VERTEX
  5
42
330
41
100
AcDbEntity
  8
_U+30EC_U+30A4_U+30E4_U+30FC 1
 62
     7
420
 16711422
370
    18
100
AcDbVertex
100
AcDb2dVertex
 10
201.8643429055671
 20
-282.8916179848324
 30
0.0
  0
VERTEX
  5
43
330
41
100
AcDbEntity
  8
_U+30EC_U+30A4_U+30E4_U+30FC 1
 62
     7
420
 16711422
370
    18
100
AcDbVertex
100
AcDb2dVertex
 10
-20.13553249496627
 20
-282.8916179848324
 30
0.0
  0
VERTEX
  5
44
330
41
100
AcDbEntity
  8
_U+30EC_U+30A4_U+30E4_U+30FC 1
 62
     7
420
 16711422
370
    18
100
AcDbVertex
100
AcDb2dVertex
 10
-20.13553249496627
 20
26.10830721569526
 30
0.0
  0
VERTEX
  5
45
330
41
100
AcDbEntity
  8
_U+30EC_U+30A4_U+30E4_U+30FC 1
 62
     7
420
 16711422
370
    18
100
AcDbVertex
100
AcDb2dVertex
 10
201.8643429055671
 20
26.10830721569526
 30
0.0
  0
VERTEX
  5
46
330
41
100
AcDbEntity
  8
_U+30EC_U+30A4_U+30E4_U+30FC 1
 62
     7
420
 16711422
370
    18
100
AcDbVertex
100
AcDb2dVertex
 10
201.8643429055671
 20
-282.8916179848324
 30
0.0
  0
SEQEND
  5
47
330
41
100
AcDbEntity
  8
_U+30EC_U+30A4_U+30E4_U+30FC 1
 62
     7
420
 16711422
370
    18
  0
SPLINE
  5
48
330
1F
100
AcDbEntity
  8
_U+30EC_U+30A4_U+30E4_U+30FC 1
370
     0
100
AcDbSpline
210
0.0
220
0.0
230
1.0
 70
    11
 71
     3
 72
   116
 73
   112
 74
     0
 42
0.0000000001
 43
0.0000000001
 12
1.0
 22
0.0
 32
0.0
 13
1.0
 23
0.0
 33
0.0
 40
0.0
 40
0.0
 40
0.0
 40
0.0
 40
1.0
 40
1.0
 40
1.0
 40
2.0
 40
2.0
 40
2.0
 40
3.0
 40
3.0
 40
3.0
 40
4.0
 40
4.0
 40
4.0
 40
5.0
 40
5.0
 40
5.0
 40
6.0
 40
6.0
 40
6.0
 40
7.0
 40
7.0
 40
7.0
 40
8.0
 40
8.0
 40
8.0
 40
9.0
 40
9.0
 40
9.0
 40
10.0
 40
10.0
 40
10.0
 40
11.0
 40
11.0
 40
11.0
 40
12.0
 40
12.0
 40
12.0
 40
13.0
 40
13.0
 40
13.0
 40
14.0
 40
14.0
 40
14.0
 40
15.0
 40
15.0
 40
15.0
 40
16.0
 40
16.0
 40
16.0
 40
17.0
 40
17.0
 40
17.0
 40
18.0
 40
18.0
 40
18.0
 40
19.0
 40
19.0
 40
19.0
 40
20.0
 40
20.0
 40
20.0
 40
21.0
 40
21.0
 40
21.0
 40
22.0
 40
22.0
 40
22.0
 40
23.0
 40
23.0
 40
23.0
 40
24.0
 40
24.0
 40
24.0
 40
25.0
 40
25.0
 40
25.0
 40
26.0
 40
26.0
 40
26.0
 40
27.0
 40
27.0
 40
27.0
 40
28.0
 40
28.0
 40
28.0
 40
29.0
 40
29.0
 40
29.0
 40
30.0
 40
30.0
 40
30.0
 40
31.0
 40
31.0
 40
31.0
 40
32.0
 40
32.0
 40
32.0
 40
33.0
 40
33.0
 40
33.0
 40
34.0
 40
34.0
 40
34.0
 40
35.0
 40
35.0
 40
35.0
 40
36.0
 40
36.0
 40
36.0
 40
37.0
 40
37.0
 40
37.0
 40
37.0
 10
91.85659293432086
 20
-132.1642080225143
 30
0.0
 10
91.85659293432086
 20
-132.1642080225143
 30
0.0
 10
88.4170096887386
 20
-134.4572635774966
 30
0.0
 10
88.4170096887386
 20
-134.4572635774966
 30
0.0
 10
88.4170096887386
 20
-134.4572635774966
 30
0.0
 10
88.06423191996093
 20
-134.324971910863
 30
0.0
 10
88.06423191996093
 20
-135.0305274662422
 30
0.0
 10
88.06423191996093
 20
-135.0305274662422
 30
0.0
 10
88.02013469886373
 20
-140.8954580203315
 30
0.0
 10
88.02013469886373
 20
-140.8954580203315
 30
0.0
 10
88.02013469886373
 20
-140.8954580203315
 30
0.0
 10
88.28471802544698
 20
-140.9836524647539
 30
0.0
 10
88.28471802544698
 20
-140.9836524647539
 30
0.0
 10
88.28471802544698
 20
-140.9836524647539
 30
0.0
 10
90.79825962798786
 20
-139.7489302428404
 30
0.0
 10
90.79825962798786
 20
-139.7489302428404
 30
0.0
 10
90.79825962798786
 20
-139.7489302428404
 30
0.0
 10
91.23923183895994
 20
-139.7048330206292
 30
0.0
 10
91.23923183895994
 20
-139.1315691318836
 30
0.0
 10
91.23923183895994
 20
-139.1315691318836
 30
0.0
 10
91.15103739676552
 20
-136.9267080213237
 30
0.0
 10
91.15103739676552
 20
-136.9267080213237
 30
0.0
 10
91.15103739676552
 20
-136.9267080213237
 30
0.0
 10
91.81249571322365
 20
-137.5440691322805
 30
0.0
 10
92.0770790398069
 20
-137.3235830212245
 30
0.0
 10
92.0770790398069
 20
-137.3235830212245
 30
0.0
 10
94.76700952673662
 20
-135.6037913549878
 30
0.0
 10
94.76700952673662
 20
-135.6037913549878
 30
0.0
 10
94.76700952673662
 20
-135.6037913549878
 30
0.0
 10
94.7229123056394
 20
-137.8086524655477
 30
0.0
 10
94.7229123056394
 20
-137.8086524655477
 30
0.0
 10
94.7229123056394
 20
-137.8086524655477
 30
0.0
 10
94.50242620015337
 20
-138.9551802430388
 30
0.0
 10
95.47256506429194
 20
-139.660735798418
 30
0.0
 10
95.47256506429194
 20
-139.660735798418
 30
0.0
 10
96.61909281281936
 20
-140.6308746870643
 30
0.0
 10
96.61909281281936
 20
-140.6308746870643
 30
0.0
 10
96.61909281281936
 20
-140.6308746870643
 30
0.0
 10
96.57499559172216
 20
-146.804485796632
 30
0.0
 10
96.57499559172216
 20
-146.804485796632
 30
0.0
 10
96.57499559172216
 20
-146.804485796632
 30
0.0
 10
96.61909281281936
 20
-147.4218469075888
 30
0.0
 10
97.19235668708308
 20
-147.4218469075888
 30
0.0
 10
97.19235668708308
 20
-147.4218469075888
 30
0.0
 10
99.88228717401279
 20
-145.8784441301969
 30
0.0
 10
99.88228717401279
 20
-145.8784441301969
 30
0.0
 10
99.88228717401279
 20
-145.8784441301969
 30
0.0
 10
100.0145788373044
 20
-141.2923330202323
 30
0.0
 10
100.0145788373044
 20
-141.2923330202323
 30
0.0
 10
100.0145788373044
 20
-141.2923330202323
 30
0.0
 10
100.1909677216932
 20
-139.8371246872628
 30
0.0
 10
100.8965232592486
 20
-139.7930274650516
 30
0.0
 10
100.8965232592486
 20
-139.7930274650516
 30
0.0
 10
101.6461760179011
 20
-139.6166385762068
 30
0.0
 10
101.7343704600955
 20
-140.6308746870643
 30
0.0
 10
101.7343704600955
 20
-140.6308746870643
 30
0.0
 10
101.7343704600955
 20
-144.1586524639602
 30
0.0
 10
101.7343704600955
 20
-144.1586524639602
 30
0.0
 10
101.7343704600955
 20
-144.1586524639602
 30
0.0
 10
102.043051007776
 20
-144.9524024637617
 30
0.0
 10
102.7927037664285
 20
-144.4673330194386
 30
0.0
 10
102.7927037664285
 20
-144.4673330194386
 30
0.0
 10
104.2920092837336
 20
-143.3649024641586
 30
0.0
 10
104.2920092837336
 20
-143.3649024641586
 30
0.0
 10
104.2920092837336
 20
-143.3649024641586
 30
0.0
 10
104.5124953892197
 20
-143.232610797525
 30
0.0
 10
104.5124953892197
 20
-142.7034441309906
 30
0.0
 10
104.5124953892197
 20
-142.7034441309906
 30
0.0
 10
104.6006898314141
 20
-136.5739302436341
 30
0.0
 10
104.6006898314141
 20
-136.5739302436341
 30
0.0
 10
104.6006898314141
 20
-136.5739302436341
 30
0.0
 10
104.4243009470252
 20
-135.6037913549878
 30
0.0
 10
103.4541620828867
 20
-135.1628191328758
 30
0.0
 10
103.4541620828867
 20
-135.1628191328758
 30
0.0
 10
102.2194398921648
 20
-134.8100413551862
 30
0.0
 10
102.4399259976509
 20
-133.3107358000055
 30
0.0
 10
102.4399259976509
 20
-133.3107358000055
 30
0.0
 10
102.4399259976509
 20
-132.2524024669367
 30
0.0
 10
102.4399259976509
 20
-132.2524024669367
 30
0.0
 10
102.4399259976509
 20
-132.2524024669367
 30
0.0
 10
103.0572870930118
 20
-132.0760135780919
 30
0.0
 10
103.0572870930118
 20
-132.0760135780919
 30
0.0
 10
103.0572870930118
 20
-132.0760135780919
 30
0.0
 10
103.101384314109
 20
-130.7089996895448
 30
0.0
 10
103.101384314109
 20
-130.7089996895448
 30
0.0
 10
103.101384314109
 20
-130.7089996895448
 30
0.0
 10
102.7927037664285
 20
-130.1357358007992
 30
0.0
 10
102.7927037664285
 20
-130.1357358007992
 30
0.0
 10
102.7927037664285
 20
-130.1357358007992
 30
0.0
 10
102.3958287765537
 20
-130.0034441341656
 30
0.0
 10
102.3958287765537
 20
-130.0034441341656
 30
0.0
 10
102.3958287765537
 20
-130.0034441341656
 30
0.0
 10
102.3517315554565
 20
-127.3135135792829
 30
0.0
 10
102.3517315554565
 20
-127.3135135792829
 30
0.0
 10
102.3517315554565
 20
-127.3135135792829
 30
0.0
 10
102.043051007776
 20
-126.8284441349597
 30
0.0
 10
102.043051007776
 20
-126.8284441349597
 30
0.0
 10
102.043051007776
 20
-126.8284441349597
 30
0.0
 10
100.1027732794988
 20
-125.6819163574686
 30
0.0
 10
100.1027732794988
 20
-125.6819163574686
 30
0.0
 10
100.1027732794988
 20
-125.6819163574686
 30
0.0
 10
99.00034275206862
 20
-125.549624690835
 30
0.0
 10
98.3388844356105
 20
-126.0787913573693
 30
0.0
 10
98.3388844356105
 20
-126.0787913573693
 30
0.0
 10
92.73853735626503
 20
-129.4301802454201
 30
0.0
 10
92.73853735626503
 20
-129.4301802454201
 30
0.0
 10
92.73853735626503
 20
-129.4301802454201
 30
0.0
 10
91.94478737651528
 20
-129.6947635786873
 30
0.0
 10
91.90069015541806
 20
-130.5326108007
 30
0.0
 10
91.90069015541806
 20
-130.5326108007
 30
0.0
 10
91.85659293432086
 20
-132.1642080225143
 30
0.0
 10
91.85659293432086
 20
-132.1642080225143
 30
0.0
  0
SPLINE
  5
49
330
1F
100
AcDbEntity
  8
_U+30EC_U+30A4_U+30E4_U+30FC 1
 62
   179
420
  2234388
370
     9
100
AcDbSpline
210
0.0
220
0.0
230
1.0
 70
    11
 71
     3
 72
    92
 73
    88
 74
     0
 42
0.0000000001
 43
0.0000000001
 12
1.0
 22
0.0
 32
0.0
 13
1.0
 23
0.0
 33
0.0
 40
0.0
 40
0.0
 40
0.0
 40
0.0
 40
1.0
 40
1.0
 40
1.0
 40
2.0
 40
2.0
 40
2.0
 40
3.0
 40
3.0
 40
3.0
 40
4.0
 40
4.0
 40
4.0
 40
5.0
 40
5.0
 40
5.0
 40
6.0
 40
6.0
 40
6.0
 40
7.0
 40
7.0
 40
7.0
 40
8.0
 40
8.0
 40
8.0
 40
9.0
 40
9.0
 40
9.0
 40
10.0
 40
10.0
 40
10.0
 40
11.0
 40
11.0
 40
11.0
 40
12.0
 40
12.0
 40
12.0
 40
13.0
 40
13.0
 40
13.0
 40
14.0
 40
14.0
 40
14.0
 40
15.0
 40
15.0
 40
15.0
 40
16.0
 40
16.0
 40
16.0
 40
17.0
 40
17.0
 40
17.0
 40
18.0
 40
18.0
 40
18.0
 40
19.0
 40
19.0
 40
19.0
 40
20.0
 40
20.0
 40
20.0
 40
21.0
 40
21.0
 40
21.0
 40
22.0
 40
22.0
 40
22.0
 40
23.0
 40
23.0
 40
23.0
 40
24.0
 40
24.0
 40
24.0
 40
25.0
 40
25.0
 40
25.0
 40
26.0
 40
26.0
 40
26.0
 40
27.0
 40
27.0
 40
27.0
 40
28.0
 40
28.0
 40
28.0
 40
29.0
 40
29.0
 40
29.0
 40
29.0
 10
88.02013469886373
 20
-135.5596941327766
 30
0.0
 10
88.02013469886373
 20
-135.5596941327766
 30
0.0
 10
87.97603747776652
 20
-140.8513607981203
 30
0.0
 10
87.97603747776652
 20
-140.8513607981203
 30
0.0
 10
87.97603747776652
 20
-140.8513607981203
 30
0.0
 10
87.97603747776652
 20
-141.0277496869651
 30
0.0
 10
88.28471802544698
 20
-140.9836524647539
 30
0.0
 10
88.28471802544698
 20
-140.9836524647539
 30
0.0
 10
88.4170096887386
 20
-135.8242774660438
 30
0.0
 10
88.4170096887386
 20
-135.8242774660438
 30
0.0
 10
88.4170096887386
 20
-135.8242774660438
 30
0.0
 10
88.32881524654418
 20
-134.765944132975
 30
0.0
 10
88.85798189971068
 20
-135.2510135772982
 30
0.0
 10
88.85798189971068
 20
-135.2510135772982
 30
0.0
 10
91.63610682883481
 20
-137.2353885768021
 30
0.0
 10
91.63610682883481
 20
-137.2353885768021
 30
0.0
 10
91.63610682883481
 20
-137.2353885768021
 30
0.0
 10
92.38575958748736
 20
-137.9850413543925
 30
0.0
 10
92.29756514529294
 20
-136.2211524659446
 30
0.0
 10
92.29756514529294
 20
-136.2211524659446
 30
0.0
 10
92.34166236639015
 20
-131.0176802450232
 30
0.0
 10
92.34166236639015
 20
-131.0176802450232
 30
0.0
 10
92.34166236639015
 20
-131.0176802450232
 30
0.0
 10
92.16527348200131
 20
-130.2680274674328
 30
0.0
 10
92.73853735626503
 20
-130.6208052451224
 30
0.0
 10
92.73853735626503
 20
-130.6208052451224
 30
0.0
 10
94.50242620015337
 20
-131.9437219114583
 30
0.0
 10
94.50242620015337
 20
-131.9437219114583
 30
0.0
 10
94.50242620015337
 20
-131.9437219114583
 30
0.0
 10
94.85520396893102
 20
-132.2524024669367
 30
0.0
 10
94.81110674783382
 20
-132.7815691334711
 30
0.0
 10
94.81110674783382
 20
-132.7815691334711
 30
0.0
 10
94.7229123056394
 20
-138.3819163542933
 30
0.0
 10
94.7229123056394
 20
-138.3819163542933
 30
0.0
 10
94.7229123056394
 20
-138.3819163542933
 30
0.0
 10
94.7229123056394
 20
-139.0433746874612
 30
0.0
 10
95.20798173770869
 20
-139.3961524651508
 30
0.0
 10
95.20798173770869
 20
-139.3961524651508
 30
0.0
 10
96.57499559172216
 20
-140.5867774648531
 30
0.0
 10
96.57499559172216
 20
-140.5867774648531
 30
0.0
 10
96.57499559172216
 20
-140.5867774648531
 30
0.0
 10
96.61909281281936
 20
-146.7603885744209
 30
0.0
 10
96.61909281281936
 20
-146.7603885744209
 30
0.0
 10
96.61909281281936
 20
-146.7603885744209
 30
0.0
 10
96.57499559172216
 20
-147.4659441298
 30
0.0
 10
97.28055112927748
 20
-147.4659441298
 30
0.0
 10
97.28055112927748
 20
-147.4659441298
 30
0.0
 10
96.97187058159703
 20
-147.5982357964336
 30
0.0
 10
96.97187058159703
 20
-146.0989302412529
 30
0.0
 10
96.97187058159703
 20
-146.0989302412529
 30
0.0
 10
97.01596780269423
 20
-140.8954580203315
 30
0.0
 10
97.01596780269423
 20
-140.8954580203315
 30
0.0
 10
97.01596780269423
 20
-140.8954580203315
 30
0.0
 10
97.10416224488866
 20
-140.2339996871636
 30
0.0
 10
96.57499559172216
 20
-140.10170802053
 30
0.0
 10
96.57499559172216
 20
-140.10170802053
 30
0.0
 10
95.51666228538916
 20
-139.1756663540948
 30
0.0
 10
95.51666228538916
 20
-139.1756663540948
 30
0.0
 10
95.51666228538916
 20
-139.1756663540948
 30
0.0
 10
95.11978729551427
 20
-138.5583052431381
 30
0.0
 10
95.11978729551427
 20
-137.8527496877589
 30
0.0
 10
95.11978729551427
 20
-137.8527496877589
 30
0.0
 10
95.16388451661149
 20
-132.3846941335703
 30
0.0
 10
95.16388451661149
 20
-132.3846941335703
 30
0.0
 10
95.16388451661149
 20
-132.3846941335703
 30
0.0
 10
95.2520789588059
 20
-131.8114302448247
 30
0.0
 10
94.63471786344499
 20
-131.414555244924
 30
0.0
 10
94.63471786344499
 20
-131.414555244924
 30
0.0
 10
92.51805125077898
 20
-129.8711524675321
 30
0.0
 10
92.51805125077898
 20
-129.8711524675321
 30
0.0
 10
92.51805125077898
 20
-129.8711524675321
 30
0.0
 10
91.94478737651528
 20
-129.5624719120537
 30
0.0
 10
91.90069015541806
 20
-130.4885135784888
 30
0.0
 10
91.90069015541806
 20
-130.4885135784888
 30
0.0
 10
91.81249571322365
 20
-136.1770552437333
 30
0.0
 10
91.81249571322365
 20
-136.1770552437333
 30
0.0
 10
91.81249571322365
 20
-136.1770552437333
 30
0.0
 10
91.85659293432086
 20
-136.8826107991125
 30
0.0
 10
91.45971794444598
 20
-136.6180274658453
 30
0.0
 10
91.45971794444598
 20
-136.6180274658453
 30
0.0
 10
88.76978745751627
 20
-134.5895552441302
 30
0.0
 10
88.76978745751627
 20
-134.5895552441302
 30
0.0
 10
88.76978745751627
 20
-134.5895552441302
 30
0.0
 10
88.06423191996093
 20
-134.1926802442295
 30
0.0
 10
88.02013469886373
 20
-134.9423330218198
 30
0.0
 10
88.02013469886373
 20
-134.9423330218198
 30
0.0
 10
88.02013469886373
 20
-135.5596941327766
 30
0.0
 10
88.02013469886373
 20
-135.5596941327766
 30
0.0
  0
SPLINE
  5
4A
330
1F
100
AcDbEntity
  8
_U+30EC_U+30A4_U+30E4_U+30FC 1
 62
   179
420
  2234388
370
     9
100
AcDbSpline
210
0.0
220
0.0
230
1.0
 70
     8
 71
     3
 72
    14
 73
    10
 74
     0
 42
0.0000000001
 43
0.0000000001
 12
1.0
 22
0.0
 32
0.0
 13
1.0
 23
0.0
 33
0.0
 40
0.0
 40
0.0
 40
0.0
 40
0.0
 40
1.0
 40
1.0
 40
1.0
 40
2.0
 40
2.0
 40
2.0
 40
3.0
 40
3.0
 40
3.0
 40
3.0
 10
91.15103739676552
 20
-137.0149024657461
 30
0.0
 10
91.15103739676552
 20
-137.0149024657461
 30
0.0
 10
91.19513461786273
 20
-139.0433746874612
 30
0.0
 10
91.19513461786273
 20
-139.0433746874612
 30
0.0
 10
91.19513461786273
 20
-139.0433746874612
 30
0.0
 10
91.28332906005714
 20
-139.4843469095732
 30
0.0
 10
90.88645407018227
 20
-139.7048330206292
 30
0.0
 10
90.88645407018227
 20
-139.7048330206292
 30
0.0
 10
88.28471802544698
 20
-140.9836524647539
 30
0.0
 10
88.28471802544698
 20
-140.9836524647539
 30
0.0
  0
POLYLINE
  5
4B
330
1F
100
AcDbEntity
  8
_U+30EC_U+30A4_U+30E4_U+30FC 1
 62
   179
420
  2234388
370
     9
100
AcDb2dPolyline
 66
     1
 10
0.0
 20
0.0
 30
0.0
  0
VERTEX
  5
4C
330
4B
100
AcDbEntity
  8
_U+30EC_U+30A4_U+30E4_U+30FC 1
 62
   179
420
  2234388
370
     9
100
AcDbVertex
100
AcDb2dVertex
 10
88.4611069098358
 20
-134.4131663552854
 30
0.0
  0
VERTEX
  5
4D
330
4B
100
AcDbEntity
  8
_U+30EC_U+30A4_U+30E4_U+30FC 1
 62
   179
420
  2234388
370
     9
100
AcDbVertex
100
AcDb2dVertex
 10
91.81249571322365
 20
-132.1642080225143
 30
0.0
  0
SEQEND
  5
4E
330
4B
100
AcDbEntity
  8
_U+30EC_U+30A4_U+30E4_U+30FC 1
 62
   179
420
  2234388
370
     9
  0
POLYLINE
  5
4F
330
1F
100
AcDbEntity
  8
_U+30EC_U+30A4_U+30E4_U+30FC 1
 62
   179
420
  2234388
370
     9
100
AcDb2dPolyline
 66
     1
 10
0.0
 20
0.0
 30
0.0
  0
VERTEX
  5
50
330
4F
100
AcDbEntity
  8
_U+30EC_U+30A4_U+30E4_U+30FC 1
 62
   179
420
  2234388
370
     9
100
AcDbVertex
100
AcDb2dVertex
 10
95.29617617990311
 20
-138.0732357988149
 30
0.0
  0
VERTEX
  5
51
330
4F
100
AcDbEntity
  8
_U+30EC_U+30A4_U+30E4_U+30FC 1
 62
   179
420
  2234388
370
     9
100
AcDbVertex
100
AcDb2dVertex
 10
99.57360662633232
 20
-135.6037913549878
 30
0.0
  0
SEQEND
  5
52
330
4F
100
AcDbEntity
  8
_U+30EC_U+30A4_U+30E4_U+30FC 1
 62
   179
420
  2234388
370
     9
  0
POLYLINE
  5
53
330
1F
100
AcDbEntity
  8
_U+30EC_U+30A4_U+30E4_U+30FC 1
 62
   179
420
  2234388
370
     9
100
AcDb2dPolyline
 66
     1
 10
0.0
 20
0.0
 30
0.0
  0
VERTEX
  5
54
330
53
100
AcDbEntity
  8
_U+30EC_U+30A4_U+30E4_U+30FC 1
 62
   179
420
  2234388
370
     9
100
AcDbVertex
100
AcDb2dVertex
 10
91.63610682883481
 20
-137.2353885768021
 30
0.0
  0
VERTEX
  5
55
330
53
100
AcDbEntity
  8
_U+30EC_U+30A4_U+30E4_U+30FC 1
 62
   179
420
  2234388
370
     9
100
AcDbVertex
100
AcDb2dVertex
 10
91.59200960773761
 20
-137.9850413543925
 30
0.0
  0
VERTEX
  5
56
330
53
100
AcDbEntity
  8
_U+30EC_U+30A4_U+30E4_U+30FC 1
 62
   179
420
  2234388
370
     9
100
AcDbVertex
100
AcDb2dVertex
 10
92.03298181870969
 20
-138.1614302432372
 30
0.0
  0
VERTEX
  5
57
330
53
100
AcDbEntity
  8
_U+30EC_U+30A4_U+30E4_U+30FC 1
 62
   179
420
  2234388
370
     9
100
AcDbVertex
100
AcDb2dVertex
 10
94.6788150845422
 20
-136.7944163546901
 30
0.0
  0
SEQEND
  5
58
330
53
100
AcDbEntity
  8
_U+30EC_U+30A4_U+30E4_U+30FC 1
 62
   179
420
  2234388
370
     9
  0
POLYLINE
  5
59
330
1F
100
AcDbEntity
  8
_U+30EC_U+30A4_U+30E4_U+30FC 1
 62
   179
420
  2234388
370
     9
100
AcDb2dPolyline
 66
     1
 10
0.0
 20
0.0
 30
0.0
  0
VERTEX
  5
5A
330
59
100
AcDbEntity
  8
_U+30EC_U+30A4_U+30E4_U+30FC 1
 62
   179
420
  2234388
370
     9
100
AcDbVertex
100
AcDb2dVertex
 10
91.90069015541806
 20
-137.4117774656469
 30
0.0
  0
VERTEX
  5
5B
330
59
100
AcDbEntity
  8
_U+30EC_U+30A4_U+30E4_U+30FC 1
 62
   179
420
  2234388
370
     9
100
AcDbVertex
100
AcDb2dVertex
 10
91.90069015541806
 20
-138.1614302432372
 30
0.0
  0
SEQEND
  5
5C
330
59
100
AcDbEntity
  8
_U+30EC_U+30A4_U+30E4_U+30FC 1
 62
   179
420
  2234388
370
     9
  0
POLYLINE
  5
5D
330
1F
100
AcDbEntity
  8
_U+30EC_U+30A4_U+30E4_U+30FC 1
 62
   179
420
  2234388
370
     9
100
AcDb2dPolyline
 66
     1
 10
0.0
 20
0.0
 30
0.0
  0
VERTEX
  5
5E
330
5D
100
AcDbEntity
  8
_U+30EC_U+30A4_U+30E4_U+30FC 1
 62
   179
420
  2234388
370
     9
100
AcDbVertex
100
AcDb2dVertex
 10
95.20798173770869
 20
-131.0176802450232
 30
0.0
  0
VERTEX
  5
5F
330
5D
100
AcDbEntity
  8
_U+30EC_U+30A4_U+30E4_U+30FC 1
 62
   179
420
  2234388
370
     9
100
AcDbVertex
100
AcDb2dVertex
 10
101.7343704600955
 20
-127.0048330238045
 30
0.0
  0
SEQEND
  5
60
330
5D
100
AcDbEntity
  8
_U+30EC_U+30A4_U+30E4_U+30FC 1
 62
   179
420
  2234388
370
     9
  0
POLYLINE
  5
61
330
1F
100
AcDbEntity
  8
_U+30EC_U+30A4_U+30E4_U+30FC 1
 62
   179
420
  2234388
370
     9
100
AcDb2dPolyline
 66
     1
 10
0.0
 20
0.0
 30
0.0
  0
VERTEX
  5
62
330
61
100
AcDbEntity
  8
_U+30EC_U+30A4_U+30E4_U+30FC 1
 62
   179
420
  2234388
370
     9
100
AcDbVertex
100
AcDb2dVertex
 10
95.69305116977799
 20
-131.5027496893464
 30
0.0
  0
VERTEX
  5
63
330
61
100
AcDbEntity
  8
_U+30EC_U+30A4_U+30E4_U+30FC 1
 62
   179
420
  2234388
370
     9
100
AcDbVertex
100
AcDb2dVertex
 10
102.3517315554565
 20
-127.3576108014941
 30
0.0
  0
SEQEND
  5
64
330
61
100
AcDbEntity
  8
_U+30EC_U+30A4_U+30E4_U+30FC 1
 62
   179
420
  2234388
370
     9
  0
SPLINE
  5
65
330
1F
100
AcDbEntity
  8
_U+30EC_U+30A4_U+30E4_U+30FC 1
 62
   179
420
  2234388
370
     9
100
AcDbSpline
210
0.0
220
0.0
230
1.0
 70
     8
 71
     3
 72
    20
 73
    16
 74
     0
 42
0.0000000001
 43
0.0000000001
 12
1.0
 22
0.0
 32
0.0
 13
1.0
 23
0.0
 33
0.0
 40
0.0
 40
0.0
 40
0.0
 40
0.0
 40
1.0
 40
1.0
 40
1.0
 40
2.0
 40
2.0
 40
2.0
 40
3.0
 40
3.0
 40
3.0
 40
4.0
 40
4.0
 40
4.0
 40
5.0
 40
5.0
 40
5.0
 40
5.0
 10
92.16527348200131
 20
-129.7829580231096
 30
0.0
 10
92.16527348200131
 20
-129.7829580231096
 30
0.0
 10
98.82395386767978
 20
-125.8142080241022
 30
0.0
 10
98.82395386767978
 20
-125.8142080241022
 30
0.0
 10
98.82395386767978
 20
-125.8142080241022
 30
0.0
 10
99.70589828962395
 20
-125.3732358019902
 30
0.0
 10
100.3673566060821
 20
-125.8583052463134
 30
0.0
 10
100.3673566060821
 20
-125.8583052463134
 30
0.0
 10
102.043051007776
 20
-126.8284441349597
 30
0.0
 10
102.043051007776
 20
-126.8284441349597
 30
0.0
 10
102.043051007776
 20
-126.8284441349597
 30
0.0
 10
102.3517315554565
 20
-126.7402496905373
 30
0.0
 10
102.3517315554565
 20
-127.8867774680285
 30
0.0
 10
102.3517315554565
 20
-127.8867774680285
 30
0.0
 10
102.3517315554565
 20
-129.8711524675321
 30
0.0
 10
102.3517315554565
 20
-129.8711524675321
 30
0.0
  0
SPLINE
  5
66
330
1F
100
AcDbEntity
  8
_U+30EC_U+30A4_U+30E4_U+30FC 1
 62
   179
420
  2234388
370
     9
100
AcDbSpline
210
0.0
220
0.0
230
1.0
 70
     8
 71
     3
 72
    44
 73
    40
 74
     0
 42
0.0000000001
 43
0.0000000001
 12
1.0
 22
0.0
 32
0.0
 13
1.0
 23
0.0
 33
0.0
 40
0.0
 40
0.0
 40
0.0
 40
0.0
 40
1.0
 40
1.0
 40
1.0
 40
2.0
 40
2.0
 40
2.0
 40
3.0
 40
3.0
 40
3.0
 40
4.0
 40
4.0
 40
4.0
 40
5.0
 40
5.0
 40
5.0
 40
6.0
 40
6.0
 40
6.0
 40
7.0
 40
7.0
 40
7.0
 40
8.0
 40
8.0
 40
8.0
 40
9.0
 40
9.0
 40
9.0
 40
10.0
 40
10.0
 40
10.0
 40
11.0
 40
11.0
 40
11.0
 40
12.0
 40
12.0
 40
12.0
 40
13.0
 40
13.0
 40
13.0
 40
13.0
 10
102.3958287765537
 20
-132.3846941335703
 30
0.0
 10
102.3958287765537
 20
-132.3846941335703
 30
0.0
 10
102.3958287765537
 20
-133.7076107999063
 30
0.0
 10
102.3958287765537
 20
-133.7076107999063
 30
0.0
 10
102.3958287765537
 20
-133.7076107999063
 30
0.0
 10
102.3517315554565
 20
-134.545458021919
 30
0.0
 10
102.9690926508174
 20
-134.8541385773974
 30
0.0
 10
102.9690926508174
 20
-134.8541385773974
 30
0.0
 10
104.5565926103169
 20
-135.6919857994102
 30
0.0
 10
104.5565926103169
 20
-136.5298330214229
 30
0.0
 10
104.5565926103169
 20
-136.5298330214229
 30
0.0
 10
104.5124953892197
 20
-142.7475413532019
 30
0.0
 10
104.5124953892197
 20
-142.7475413532019
 30
0.0
 10
104.5124953892197
 20
-142.7475413532019
 30
0.0
 10
104.5565926103169
 20
-143.1885135753138
 30
0.0
 10
104.1156203993448
 20
-143.5412913530034
 30
0.0
 10
104.1156203993448
 20
-143.5412913530034
 30
0.0
 10
102.6604121031369
 20
-144.5114302416497
 30
0.0
 10
102.6604121031369
 20
-144.5114302416497
 30
0.0
 10
102.6604121031369
 20
-144.5114302416497
 30
0.0
 10
102.3076343343592
 20
-144.8201107971281
 30
0.0
 10
101.9548565655816
 20
-144.4232357972274
 30
0.0
 10
101.9548565655816
 20
-144.4232357972274
 30
0.0
 10
101.6902732389983
 20
-144.1586524639602
 30
0.0
 10
101.6902732389983
 20
-144.1586524639602
 30
0.0
 10
101.6902732389983
 20
-144.1586524639602
 30
0.0
 10
101.7343704600955
 20
-140.7190691314867
 30
0.0
 10
101.7343704600955
 20
-140.7190691314867
 30
0.0
 10
101.7343704600955
 20
-140.7190691314867
 30
0.0
 10
101.6902732389983
 20
-139.3079580207284
 30
0.0
 10
100.6319399326653
 20
-139.881221909474
 30
0.0
 10
100.6319399326653
 20
-139.881221909474
 30
0.0
 10
100.0586760584016
 20
-140.3221941315859
 30
0.0
 10
99.9704816162072
 20
-141.4246246868659
 30
0.0
 10
99.9704816162072
 20
-141.4246246868659
 30
0.0
 10
99.92638439510999
 20
-145.9225413524081
 30
0.0
 10
99.92638439510999
 20
-145.9225413524081
 30
0.0
 10
99.92638439510999
 20
-145.9225413524081
 30
0.0
 10
97.28055112927748
 20
-147.4659441298
 30
0.0
 10
97.28055112927748
 20
-147.4659441298
 30
0.0
  0
SPLINE
  5
67
330
1F
100
AcDbEntity
  8
_U+30EC_U+30A4_U+30E4_U+30FC 1
 62
   179
420
  2234388
370
     9
100
AcDbSpline
210
0.0
220
0.0
230
1.0
 70
     8
 71
     3
 72
    11
 73
     7
 74
     0
 42
0.0000000001
 43
0.0000000001
 12
1.0
 22
0.0
 32
0.0
 13
1.0
 23
0.0
 33
0.0
 40
0.0
 40
0.0
 40
0.0
 40
0.0
 40
1.0
 40
1.0
 40
1.0
 40
2.0
 40
2.0
 40
2.0
 40
2.0
 10
100.8524260381514
 20
-139.7930274650516
 30
0.0
 10
100.8524260381514
 20
-139.7930274650516
 30
0.0
 10
101.9107593444844
 20
-139.3961524651508
 30
0.0
 10
102.1312454499704
 20
-140.4103885760084
 30
0.0
 10
102.1312454499704
 20
-140.4103885760084
 30
0.0
 10
102.1753426710676
 20
-144.4673330194386
 30
0.0
 10
102.1753426710676
 20
-144.4673330194386
 30
0.0
  0
POLYLINE
  5
68
330
1F
100
AcDbEntity
  8
_U+30EC_U+30A4_U+30E4_U+30FC 1
 62
   179
420
  2234388
370
     9
100
AcDb2dPolyline
 66
     1
 10
0.0
 20
0.0
 30
0.0
  0
VERTEX
  5
69
330
68
100
AcDbEntity
  8
_U+30EC_U+30A4_U+30E4_U+30FC 1
 62
   179
420
  2234388
370
     9
100
AcDbVertex
100
AcDb2dVertex
 10
97.63332889805515
 20
-140.4544857982195
 30
0.0
  0
VERTEX
  5
6A
330
68
100
AcDbEntity
  8
_U+30EC_U+30A4_U+30E4_U+30FC 1
 62
   179
420
  2234388
370
     9
100
AcDbVertex
100
AcDb2dVertex
 10
101.9107593444844
 20
-137.9409441321813
 30
0.0
  0
SEQEND
  5
6B
330
68
100
AcDbEntity
  8
_U+30EC_U+30A4_U+30E4_U+30FC 1
 62
   179
420
  2234388
370
     9
  0
POLYLINE
  5
6C
330
1F
100
AcDbEntity
  8
_U+30EC_U+30A4_U+30E4_U+30FC 1
 62
   179
420
  2234388
370
     9
100
AcDb2dPolyline
 66
     1
 10
0.0
 20
0.0
 30
0.0
  0
VERTEX
  5
6D
330
6C
100
AcDbEntity
  8
_U+30EC_U+30A4_U+30E4_U+30FC 1
 62
   179
420
  2234388
370
     9
100
AcDbVertex
100
AcDb2dVertex
 10
102.6163148820397
 20
-137.4999719100693
 30
0.0
  0
VERTEX
  5
6E
330
6C
100
AcDbEntity
  8
_U+30EC_U+30A4_U+30E4_U+30FC 1
 62
   179
420
  2234388
370
     9
100
AcDbVertex
100
AcDb2dVertex
 10
104.2920092837336
 20
-136.4857357992117
 30
0.0
  0
SEQEND
  5
6F
330
6C
100
AcDbEntity
  8
_U+30EC_U+30A4_U+30E4_U+30FC 1
 62
   179
420
  2234388
370
     9
  0
POLYLINE
  5
70
330
1F
100
AcDbEntity
  8
_U+30EC_U+30A4_U+30E4_U+30FC 1
 62
   179
420
  2234388
370
     9
100
AcDb2dPolyline
 66
     1
 10
0.0
 20
0.0
 30
0.0
  0
VERTEX
  5
71
330
70
100
AcDbEntity
  8
_U+30EC_U+30A4_U+30E4_U+30FC 1
 62
   179
420
  2234388
370
     9
100
AcDbVertex
100
AcDb2dVertex
 10
102.7486065453313
 20
-136.8385135769013
 30
0.0
  0
VERTEX
  5
72
330
70
100
AcDbEntity
  8
_U+30EC_U+30A4_U+30E4_U+30FC 1
 62
   179
420
  2234388
370
     9
100
AcDbVertex
100
AcDb2dVertex
 10
104.0274259571504
 20
-136.1329580215221
 30
0.0
  0
SEQEND
  5
73
330
70
100
AcDbEntity
  8
_U+30EC_U+30A4_U+30E4_U+30FC 1
 62
   179
420
  2234388
370
     9
  0
POLYLINE
  5
74
330
1F
100
AcDbEntity
  8
_U+30EC_U+30A4_U+30E4_U+30FC 1
 62
   179
420
  2234388
370
     9
100
AcDb2dPolyline
 66
     1
 10
0.0
 20
0.0
 30
0.0
  0
VERTEX
  5
75
330
74
100
AcDbEntity
  8
_U+30EC_U+30A4_U+30E4_U+30FC 1
 62
   179
420
  2234388
370
     9
100
AcDbVertex
100
AcDb2dVertex
 10
97.28055112927748
 20
-140.0576107983188
 30
0.0
  0
VERTEX
  5
76
330
74
100
AcDbEntity
  8
_U+30EC_U+30A4_U+30E4_U+30FC 1
 62
   179
420
  2234388
370
     9
100
AcDbVertex
100
AcDb2dVertex
 10
101.5579815757067
 20
-137.5881663544917
 30
0.0
  0
SEQEND
  5
77
330
74
100
AcDbEntity
  8
_U+30EC_U+30A4_U+30E4_U+30FC 1
 62
   179
420
  2234388
370
     9
  0
SPLINE
  5
78
330
1F
100
AcDbEntity
  8
_U+30EC_U+30A4_U+30E4_U+30FC 1
 62
   179
420
  2234388
370
     9
100
AcDbSpline
210
0.0
220
0.0
230
1.0
 70
     8
 71
     3
 72
     8
 73
     4
 74
     0
 42
0.0000000001
 43
0.0000000001
 12
1.0
 22
0.0
 32
0.0
 13
1.0
 23
0.0
 33
0.0
 40
0.0
 40
0.0
 40
0.0
 40
0.0
 40
1.0
 40
1.0
 40
1.0
 40
1.0
 10
101.6020787968039
 20
-132.2083052447256
 30
0.0
 10
101.6020787968039
 20
-132.2083052447256
 30
0.0
 10
102.6163148820397
 20
-132.9579580223159
 30
0.0
 10
101.5138843546095
 20
-134.3690691330742
 30
0.0
  0
SPLINE
  5
79
330
1F
100
AcDbEntity
  8
_U+30EC_U+30A4_U+30E4_U+30FC 1
 62
   179
420
  2234388
370
     9
100
AcDbSpline
210
0.0
220
0.0
230
1.0
 70
     8
 71
     3
 72
     8
 73
     4
 74
     0
 42
0.0000000001
 43
0.0000000001
 12
1.0
 22
0.0
 32
0.0
 13
1.0
 23
0.0
 33
0.0
 40
0.0
 40
0.0
 40
0.0
 40
0.0
 40
1.0
 40
1.0
 40
1.0
 40
1.0
 10
101.0729121436374
 20
-132.1642080225143
 30
0.0
 10
101.0729121436374
 20
-132.1642080225143
 30
0.0
 10
99.79409273181837
 20
-133.2225413555831
 30
0.0
 10
100.984717701443
 20
-134.3690691330742
 30
0.0
  0
SPLINE
  5
7A
330
1F
100
AcDbEntity
  8
_U+30EC_U+30A4_U+30E4_U+30FC 1
 62
   179
420
  2234388
370
     9
100
AcDbSpline
210
0.0
220
0.0
230
1.0
 70
     8
 71
     3
 72
     8
 73
     4
 74
     0
 42
0.0000000001
 43
0.0000000001
 12
1.0
 22
0.0
 32
0.0
 13
1.0
 23
0.0
 33
0.0
 40
0.0
 40
0.0
 40
0.0
 40
0.0
 40
1.0
 40
1.0
 40
1.0
 40
1.0
 10
100.5878427115681
 20
-132.1201108003031
 30
0.0
 10
100.5878427115681
 20
-132.1201108003031
 30
0.0
 10
99.26492607865187
 20
-133.7076107999063
 30
0.0
 10
100.764231595957
 20
-134.4131663552854
 30
0.0
  0
SPLINE
  5
7B
330
1F
100
AcDbEntity
  8
_U+30EC_U+30A4_U+30E4_U+30FC 1
 62
   179
420
  2234388
370
     9
100
AcDbSpline
210
0.0
220
0.0
230
1.0
 70
     8
 71
     3
 72
     8
 73
     4
 74
     0
 42
0.0000000001
 43
0.0000000001
 12
1.0
 22
0.0
 32
0.0
 13
1.0
 23
0.0
 33
0.0
 40
0.0
 40
0.0
 40
0.0
 40
0.0
 40
1.0
 40
1.0
 40
1.0
 40
1.0
 10
100.146870500596
 20
-132.2524024669367
 30
0.0
 10
100.146870500596
 20
-132.2524024669367
 30
0.0
 10
98.77985664658257
 20
-133.5753191332727
 30
0.0
 10
100.5437454904709
 20
-134.5013607997078
 30
0.0
  0
SPLINE
  5
7C
330
1F
100
AcDbEntity
  8
_U+30EC_U+30A4_U+30E4_U+30FC 1
 62
   179
420
  2234388
370
     9
100
AcDbSpline
210
0.0
220
0.0
230
1.0
 70
    11
 71
     3
 72
    32
 73
    28
 74
     0
 42
0.0000000001
 43
0.0000000001
 12
1.0
 22
0.0
 32
0.0
 13
1.0
 23
0.0
 33
0.0
 40
0.0
 40
0.0
 40
0.0
 40
0.0
 40
1.0
 40
1.0
 40
1.0
 40
2.0
 40
2.0
 40
2.0
 40
3.0
 40
3.0
 40
3.0
 40
4.0
 40
4.0
 40
4.0
 40
5.0
 40
5.0
 40
5.0
 40
6.0
 40
6.0
 40
6.0
 40
7.0
 40
7.0
 40
7.0
 40
8.0
 40
8.0
 40
8.0
 40
9.0
 40
9.0
 40
9.0
 40
9.0
 10
99.39721774194349
 20
-131.3263608005016
 30
0.0
 10
99.39721774194349
 20
-131.3263608005016
 30
0.0
 10
100.146870500596
 20
-132.2083052447256
 30
0.0
 10
100.146870500596
 20
-132.2083052447256
 30
0.0
 10
100.146870500596
 20
-132.2083052447256
 30
0.0
 10
101.7343704600955
 20
-131.9437219114583
 30
0.0
 10
102.2194398921648
 20
-132.2524024669367
 30
0.0
 10
102.2194398921648
 20
-132.2524024669367
 30
0.0
 10
103.0572870930118
 20
-132.1201108003031
 30
0.0
 10
103.0572870930118
 20
-132.1201108003031
 30
0.0
 10
103.0572870930118
 20
-132.1201108003031
 30
0.0
 10
103.0572870930118
 20
-130.753096911756
 30
0.0
 10
103.0572870930118
 20
-130.753096911756
 30
0.0
 10
103.0572870930118
 20
-130.753096911756
 30
0.0
 10
102.7927037664285
 20
-130.1357358007992
 30
0.0
 10
102.7927037664285
 20
-130.1357358007992
 30
0.0
 10
102.7927037664285
 20
-130.1357358007992
 30
0.0
 10
100.8524260381514
 20
-129.8711524675321
 30
0.0
 10
100.8524260381514
 20
-129.8711524675321
 30
0.0
 10
100.8524260381514
 20
-129.8711524675321
 30
0.0
 10
99.92638439510999
 20
-130.1798330230104
 30
0.0
 10
99.92638439510999
 20
-130.1798330230104
 30
0.0
 10
99.92638439510999
 20
-130.1798330230104
 30
0.0
 10
99.30902329974907
 20
-131.194069133868
 30
0.0
 10
99.30902329974907
 20
-131.194069133868
 30
0.0
 10
99.30902329974907
 20
-131.194069133868
 30
0.0
 10
99.39721774194349
 20
-131.3263608005016
 30
0.0
 10
99.39721774194349
 20
-131.3263608005016
 30
0.0
  0
SPLINE
  5
7D
330
1F
100
AcDbEntity
  8
_U+30EC_U+30A4_U+30E4_U+30FC 1
 62
   179
420
  2234388
370
     9
100
AcDbSpline
210
0.0
220
0.0
230
1.0
 70
     8
 71
     3
 72
    11
 73
     7
 74
     0
 42
0.0000000001
 43
0.0000000001
 12
1.0
 22
0.0
 32
0.0
 13
1.0
 23
0.0
 33
0.0
 40
0.0
 40
0.0
 40
0.0
 40
0.0
 40
1.0
 40
1.0
 40
1.0
 40
2.0
 40
2.0
 40
2.0
 40
2.0
 10
99.92638439510999
 20
-130.1798330230104
 30
0.0
 10
99.92638439510999
 20
-130.1798330230104
 30
0.0
 10
102.0871482288732
 20
-130.1798330230104
 30
0.0
 10
102.2194398921648
 20
-130.4444163562776
 30
0.0
 10
102.2194398921648
 20
-130.4444163562776
 30
0.0
 10
102.7927037664285
 20
-130.1357358007992
 30
0.0
 10
102.7927037664285
 20
-130.1357358007992
 30
0.0
  0
POLYLINE
  5
7E
330
1F
100
AcDbEntity
  8
_U+30EC_U+30A4_U+30E4_U+30FC 1
 62
   179
420
  2234388
370
     9
100
AcDb2dPolyline
 66
     1
 10
0.0
 20
0.0
 30
0.0
  0
VERTEX
  5
7F
330
7E
100
AcDbEntity
  8
_U+30EC_U+30A4_U+30E4_U+30FC 1
 62
   179
420
  2234388
370
     9
100
AcDbVertex
100
AcDb2dVertex
 10
102.2194398921648
 20
-130.4444163562776
 30
0.0
  0
VERTEX
  5
80
330
7E
100
AcDbEntity
  8
_U+30EC_U+30A4_U+30E4_U+30FC 1
 62
   179
420
  2234388
370
     9
100
AcDbVertex
100
AcDb2dVertex
 10
102.3517315554565
 20
-132.2083052447256
 30
0.0
  0
SEQEND
  5
81
330
7E
100
AcDbEntity
  8
_U+30EC_U+30A4_U+30E4_U+30FC 1
 62
   179
420
  2234388
370
     9
  0
SPLINE
  5
82
330
1F
100
AcDbEntity
  8
_U+30EC_U+30A4_U+30E4_U+30FC 1
 62
   179
420
  2234388
370
     9
100
AcDbSpline
210
0.0
220
0.0
230
1.0
 70
     8
 71
     3
 72
    11
 73
     7
 74
     0
 42
0.0000000001
 43
0.0000000001
 12
1.0
 22
0.0
 32
0.0
 13
1.0
 23
0.0
 33
0.0
 40
0.0
 40
0.0
 40
0.0
 40
0.0
 40
1.0
 40
1.0
 40
1.0
 40
2.0
 40
2.0
 40
2.0
 40
2.0
 10
101.5579815757067
 20
-134.324971910863
 30
0.0
 10
101.5579815757067
 20
-134.324971910863
 30
0.0
 10
99.04443997316582
 20
-134.545458021919
 30
0.0
 10
99.04443997316582
 20
-134.545458021919
 30
0.0
 10
97.3246483503747
 20
-132.5169858002039
 30
0.0
 10
99.39721774194349
 20
-131.3263608005016
 30
0.0
 10
99.39721774194349
 20
-131.3263608005016
 30
0.0
  0
SPLINE
  5
83
330
1F
100
AcDbEntity
  8
_U+30EC_U+30A4_U+30E4_U+30FC 1
 62
   179
420
  2234388
370
     9
100
AcDbSpline
210
0.0
220
0.0
230
1.0
 70
     8
 71
     3
 72
     8
 73
     4
 74
     0
 42
0.0000000001
 43
0.0000000001
 12
1.0
 22
0.0
 32
0.0
 13
1.0
 23
0.0
 33
0.0
 40
0.0
 40
0.0
 40
0.0
 40
0.0
 40
1.0
 40
1.0
 40
1.0
 40
1.0
 10
99.30902329974907
 20
-131.194069133868
 30
0.0
 10
99.30902329974907
 20
-131.194069133868
 30
0.0
 10
98.20659277231887
 20
-131.414555244924
 30
0.0
 10
98.3829816567077
 20
-132.8697635778935
 30
0.0
  0
POLYLINE
  5
84
330
1F
100
AcDbEntity
  8
_U+30EC_U+30A4_U+30E4_U+30FC 1
 62
   179
420
  2234388
370
     9
100
AcDb2dPolyline
 66
     1
 10
0.0
 20
0.0
 30
0.0
  0
VERTEX
  5
85
330
84
100
AcDbEntity
  8
_U+30EC_U+30A4_U+30E4_U+30FC 1
 62
   179
420
  2234388
370
     9
100
AcDbVertex
100
AcDb2dVertex
 10
101.6461760179011
 20
-134.545458021919
 30
0.0
  0
VERTEX
  5
86
330
84
100
AcDbEntity
  8
_U+30EC_U+30A4_U+30E4_U+30FC 1
 62
   179
420
  2234388
370
     9
100
AcDbVertex
100
AcDb2dVertex
 10
102.1753426710676
 20
-134.2367774664406
 30
0.0
  0
SEQEND
  5
87
330
84
100
AcDbEntity
  8
_U+30EC_U+30A4_U+30E4_U+30FC 1
 62
   179
420
  2234388
370
     9
  0
SPLINE
  5
88
330
1F
100
AcDbEntity
  8
_U+30EC_U+30A4_U+30E4_U+30FC 1
 62
   179
420
  2234388
370
     9
100
AcDbSpline
210
0.0
220
0.0
230
1.0
 70
     8
 71
     3
 72
    17
 73
    13
 74
     0
 42
0.0000000001
 43
0.0000000001
 12
1.0
 22
0.0
 32
0.0
 13
1.0
 23
0.0
 33
0.0
 40
0.0
 40
0.0
 40
0.0
 40
0.0
 40
1.0
 40
1.0
 40
1.0
 40
2.0
 40
2.0
 40
2.0
 40
3.0
 40
3.0
 40
3.0
 40
4.0
 40
4.0
 40
4.0
 40
4.0
 10
101.5138843546095
 20
-134.324971910863
 30
0.0
 10
101.5138843546095
 20
-134.324971910863
 30
0.0
 10
102.6604121031369
 20
-136.1770552437333
 30
0.0
 10
102.6604121031369
 20
-136.5298330214229
 30
0.0
 10
102.6604121031369
 20
-136.5298330214229
 30
0.0
 10
102.880898208623
 20
-137.7645552433365
 30
0.0
 10
101.9548565655816
 20
-137.8527496877589
 30
0.0
 10
101.9548565655816
 20
-137.8527496877589
 30
0.0
 10
99.66180106852674
 20
-135.6919857994102
 30
0.0
 10
99.66180106852674
 20
-135.6919857994102
 30
0.0
 10
99.66180106852674
 20
-135.6919857994102
 30
0.0
 10
98.77985664658257
 20
-134.8541385773974
 30
0.0
 10
99.08853719426303
 20
-134.5013607997078
 30
0.0
  0
SPLINE
  5
89
330
1F
100
AcDbEntity
  8
_U+30EC_U+30A4_U+30E4_U+30FC 1
 62
   179
420
  2234388
370
     9
100
AcDbSpline
210
0.0
220
0.0
230
1.0
 70
     8
 71
     3
 72
    11
 73
     7
 74
     0
 42
0.0000000001
 43
0.0000000001
 12
1.0
 22
0.0
 32
0.0
 13
1.0
 23
0.0
 33
0.0
 40
0.0
 40
0.0
 40
0.0
 40
0.0
 40
1.0
 40
1.0
 40
1.0
 40
2.0
 40
2.0
 40
2.0
 40
2.0
 10
100.5878427115681
 20
-134.4572635774966
 30
0.0
 10
100.5878427115681
 20
-134.4572635774966
 30
0.0
 10
102.1312454499704
 20
-136.3093469103669
 30
0.0
 10
102.263537113262
 20
-136.7503191324789
 30
0.0
 10
102.263537113262
 20
-136.7503191324789
 30
0.0
 10
102.1753426710676
 20
-137.6763607989141
 30
0.0
 10
101.9548565655816
 20
-137.8527496877589
 30
0.0
  0
SPLINE
  5
8A
330
1F
100
AcDbEntity
  8
_U+30EC_U+30A4_U+30E4_U+30FC 1
 62
   179
420
  2234388
370
     9
100
AcDbSpline
210
0.0
220
0.0
230
1.0
 70
     8
 71
     3
 72
     8
 73
     4
 74
     0
 42
0.0000000001
 43
0.0000000001
 12
1.0
 22
0.0
 32
0.0
 13
1.0
 23
0.0
 33
0.0
 40
0.0
 40
0.0
 40
0.0
 40
0.0
 40
1.0
 40
1.0
 40
1.0
 40
1.0
 10
102.0871482288732
 20
-136.1770552437333
 30
0.0
 10
102.0871482288732
 20
-136.1770552437333
 30
0.0
 10
102.4840232187481
 20
-136.1770552437333
 30
0.0
 10
102.4840232187481
 20
-136.0447635770998
 30
0.0
  0
SPLINE
  5
8B
330
1F
100
AcDbEntity
  8
_U+30EC_U+30A4_U+30E4_U+30FC 1
 62
   179
420
  2234388
370
     9
100
AcDbSpline
210
0.0
220
0.0
230
1.0
 70
     8
 71
     3
 72
     8
 73
     4
 74
     0
 42
0.0000000001
 43
0.0000000001
 12
1.0
 22
0.0
 32
0.0
 13
1.0
 23
0.0
 33
0.0
 40
0.0
 40
0.0
 40
0.0
 40
0.0
 40
1.0
 40
1.0
 40
1.0
 40
1.0
 10
101.0729121436374
 20
-132.1201108003031
 30
0.0
 10
101.0729121436374
 20
-132.1201108003031
 30
0.0
 10
102.6163148820397
 20
-133.2666385777943
 30
0.0
 10
100.984717701443
 20
-134.3690691330742
 30
0.0
  0
POLYLINE
  5
8C
330
1F
100
AcDbEntity
  8
_U+30EC_U+30A4_U+30E4_U+30FC 1
 62
   179
420
  2234388
370
     9
100
AcDb2dPolyline
 66
     1
 10
0.0
 20
0.0
 30
0.0
  0
VERTEX
  5
8D
330
8C
100
AcDbEntity
  8
_U+30EC_U+30A4_U+30E4_U+30FC 1
 62
   179
420
  2234388
370
     9
100
AcDbVertex
100
AcDb2dVertex
 10
92.25346792419573
 20
-137.1912913545909
 30
0.0
  0
VERTEX
  5
8E
330
8C
100
AcDbEntity
  8
_U+30EC_U+30A4_U+30E4_U+30FC 1
 62
   179
420
  2234388
370
     9
100
AcDbVertex
100
AcDb2dVertex
 10
94.7229123056394
 20
-135.6037913549878
 30
0.0
  0
SEQEND
  5
8F
330
8C
100
AcDbEntity
  8
_U+30EC_U+30A4_U+30E4_U+30FC 1
 62
   179
420
  2234388
370
     9
  0
POLYLINE
  5
90
330
1F
100
AcDbEntity
  8
_U+30EC_U+30A4_U+30E4_U+30FC 1
 62
   179
420
  2234388
370
     9
100
AcDb2dPolyline
 66
     1
 10
0.0
 20
0.0
 30
0.0
  0
VERTEX
  5
91
330
90
100
AcDbEntity
  8
_U+30EC_U+30A4_U+30E4_U+30FC 1
 62
   179
420
  2234388
370
     9
100
AcDbVertex
100
AcDb2dVertex
 10
92.73853735626503
 20
-120.5666385809696
 30
0.0
  0
VERTEX
  5
92
330
90
100
AcDbEntity
  8
_U+30EC_U+30A4_U+30E4_U+30FC 1
 62
   179
420
  2234388
370
     9
100
AcDbVertex
100
AcDb2dVertex
 10
98.73575942548537
 20
-124.888166357667
 30
0.0
  0
SEQEND
  5
93
330
90
100
AcDbEntity
  8
_U+30EC_U+30A4_U+30E4_U+30FC 1
 62
   179
420
  2234388
370
     9
  0
POLYLINE
  5
94
330
1F
100
AcDbEntity
  8
_U+30EC_U+30A4_U+30E4_U+30FC 1
 62
   179
420
  2234388
370
     9
100
AcDb2dPolyline
 66
     1
 10
0.0
 20
0.0
 30
0.0
  0
VERTEX
  5
95
330
94
100
AcDbEntity
  8
_U+30EC_U+30A4_U+30E4_U+30FC 1
 62
   179
420
  2234388
370
     9
100
AcDbVertex
100
AcDb2dVertex
 10
91.54791238664039
 20
-122.3305274694175
 30
0.0
  0
VERTEX
  5
96
330
94
100
AcDbEntity
  8
_U+30EC_U+30A4_U+30E4_U+30FC 1
 62
   179
420
  2234388
370
     9
100
AcDbVertex
100
AcDb2dVertex
 10
93.57638455711198
 20
-121.1399024697152
 30
0.0
  0
SEQEND
  5
97
330
94
100
AcDbEntity
  8
_U+30EC_U+30A4_U+30E4_U+30FC 1
 62
   179
420
  2234388
370
     9
  0
POLYLINE
  5
98
330
1F
100
AcDbEntity
  8
_U+30EC_U+30A4_U+30E4_U+30FC 1
 62
   179
420
  2234388
370
     9
100
AcDb2dPolyline
 66
     1
 10
0.0
 20
0.0
 30
0.0
  0
VERTEX
  5
99
330
98
100
AcDbEntity
  8
_U+30EC_U+30A4_U+30E4_U+30FC 1
 62
   179
420
  2234388
370
     9
100
AcDbVertex
100
AcDb2dVertex
 10
84.6687458954759
 20
-124.5353885799774
 30
0.0
  0
VERTEX
  5
9A
330
98
100
AcDbEntity
  8
_U+30EC_U+30A4_U+30E4_U+30FC 1
 62
   179
420
  2234388
370
     9
100
AcDbVertex
100
AcDb2dVertex
 10
90.88645407018227
 20
-128.8128191344633
 30
0.0
  0
SEQEND
  5
9B
330
98
100
AcDbEntity
  8
_U+30EC_U+30A4_U+30E4_U+30FC 1
 62
   179
420
  2234388
370
     9
  0
POLYLINE
  5
9C
330
1F
100
AcDbEntity
  8
_U+30EC_U+30A4_U+30E4_U+30FC 1
 62
   179
420
  2234388
370
     9
100
AcDb2dPolyline
 66
     1
 10
0.0
 20
0.0
 30
0.0
  0
VERTEX
  5
9D
330
9C
100
AcDbEntity
  8
_U+30EC_U+30A4_U+30E4_U+30FC 1
 62
   179
420
  2234388
370
     9
100
AcDbVertex
100
AcDb2dVertex
 10
87.66735693008606
 20
-124.4912913577662
 30
0.0
  0
VERTEX
  5
9E
330
9C
100
AcDbEntity
  8
_U+30EC_U+30A4_U+30E4_U+30FC 1
 62
   179
420
  2234388
370
     9
100
AcDbVertex
100
AcDb2dVertex
 10
85.85937086510052
 20
-125.329138579779
 30
0.0
  0
VERTEX
  5
9F
330
9C
100
AcDbEntity
  8
_U+30EC_U+30A4_U+30E4_U+30FC 1
 62
   179
420
  2234388
370
     9
100
AcDbVertex
100
AcDb2dVertex
 10
85.85937086510052
 20
-131.1058746894456
 30
0.0
  0
SEQEND
  5
A0
330
9C
100
AcDbEntity
  8
_U+30EC_U+30A4_U+30E4_U+30FC 1
 62
   179
420
  2234388
370
     9
  0
POLYLINE
  5
A1
330
1F
100
AcDbEntity
  8
_U+30EC_U+30A4_U+30E4_U+30FC 1
 62
   179
420
  2234388
370
     9
100
AcDb2dPolyline
 66
     1
 10
0.0
 20
0.0
 30
0.0
  0
VERTEX
  5
A2
330
A1
100
AcDbEntity
  8
_U+30EC_U+30A4_U+30E4_U+30FC 1
 62
   179
420
  2234388
370
     9
100
AcDbVertex
100
AcDb2dVertex
 10
83.91909313682335
 20
-138.2496246876597
 30
0.0
  0
VERTEX
  5
A3
330
A1
100
AcDbEntity
  8
_U+30EC_U+30A4_U+30E4_U+30FC 1
 62
   179
420
  2234388
370
     9
100
AcDbVertex
100
AcDb2dVertex
 10
87.3586763824056
 20
-140.5867774648531
 30
0.0
  0
SEQEND
  5
A4
330
A1
100
AcDbEntity
  8
_U+30EC_U+30A4_U+30E4_U+30FC 1
 62
   179
420
  2234388
370
     9
  0
POLYLINE
  5
A5
330
1F
100
AcDbEntity
  8
_U+30EC_U+30A4_U+30E4_U+30FC 1
 62
   179
420
  2234388
370
     9
100
AcDb2dPolyline
 66
     1
 10
0.0
 20
0.0
 30
0.0
  0
VERTEX
  5
A6
330
A5
100
AcDbEntity
  8
_U+30EC_U+30A4_U+30E4_U+30FC 1
 62
   179
420
  2234388
370
     9
100
AcDbVertex
100
AcDb2dVertex
 10
85.68298198071169
 20
-139.3520552429396
 30
0.0
  0
VERTEX
  5
A7
330
A5
100
AcDbEntity
  8
_U+30EC_U+30A4_U+30E4_U+30FC 1
 62
   179
420
  2234388
370
     9
100
AcDbVertex
100
AcDb2dVertex
 10
85.7711764229061
 20
-133.3548330222167
 30
0.0
  0
SEQEND
  5
A8
330
A5
100
AcDbEntity
  8
_U+30EC_U+30A4_U+30E4_U+30FC 1
 62
   179
420
  2234388
370
     9
  0
POLYLINE
  5
A9
330
1F
100
AcDbEntity
  8
_U+30EC_U+30A4_U+30E4_U+30FC 1
 62
   179
420
  2234388
370
     9
100
AcDb2dPolyline
 66
     1
 10
0.0
 20
0.0
 30
0.0
  0
VERTEX
  5
AA
330
A9
100
AcDbEntity
  8
_U+30EC_U+30A4_U+30E4_U+30FC 1
 62
   179
420
  2234388
370
     9
100
AcDbVertex
100
AcDb2dVertex
 10
83.91909313682335
 20
-143.3208052419474
 30
0.0
  0
VERTEX
  5
AB
330
A9
100
AcDbEntity
  8
_U+30EC_U+30A4_U+30E4_U+30FC 1
 62
   179
420
  2234388
370
     9
100
AcDbVertex
100
AcDb2dVertex
 10
87.8437458144749
 20
-141.2923330202323
 30
0.0
  0
SEQEND
  5
AC
330
A9
100
AcDbEntity
  8
_U+30EC_U+30A4_U+30E4_U+30FC 1
 62
   179
420
  2234388
370
     9
  0
POLYLINE
  5
AD
330
1F
100
AcDbEntity
  8
_U+30EC_U+30A4_U+30E4_U+30FC 1
 62
   179
420
  2234388
370
     9
100
AcDb2dPolyline
 66
     1
 10
0.0
 20
0.0
 30
0.0
  0
VERTEX
  5
AE
330
AD
100
AcDbEntity
  8
_U+30EC_U+30A4_U+30E4_U+30FC 1
 62
   179
420
  2234388
370
     9
100
AcDbVertex
100
AcDb2dVertex
 10
85.2420097697396
 20
-142.6152496865682
 30
0.0
  0
VERTEX
  5
AF
330
AD
100
AcDbEntity
  8
_U+30EC_U+30A4_U+30E4_U+30FC 1
 62
   179
420
  2234388
370
     9
100
AcDbVertex
100
AcDb2dVertex
 10
87.44687082460001
 20
-144.2468469083826
 30
0.0
  0
SEQEND
  5
B0
330
AD
100
AcDbEntity
  8
_U+30EC_U+30A4_U+30E4_U+30FC 1
 62
   179
420
  2234388
370
     9
  0
POLYLINE
  5
B1
330
1F
100
AcDbEntity
  8
_U+30EC_U+30A4_U+30E4_U+30FC 1
 62
   179
420
  2234388
370
     9
100
AcDb2dPolyline
 66
     1
 10
0.0
 20
0.0
 30
0.0
  0
VERTEX
  5
B2
330
B1
100
AcDbEntity
  8
_U+30EC_U+30A4_U+30E4_U+30FC 1
 62
   179
420
  2234388
370
     9
100
AcDbVertex
100
AcDb2dVertex
 10
92.34166236639015
 20
-149.7589996847823
 30
0.0
  0
VERTEX
  5
B3
330
B1
100
AcDbEntity
  8
_U+30EC_U+30A4_U+30E4_U+30FC 1
 62
   179
420
  2234388
370
     9
100
AcDbVertex
100
AcDb2dVertex
 10
96.04582893855566
 20
-147.4659441298
 30
0.0
  0
SEQEND
  5
B4
330
B1
100
AcDbEntity
  8
_U+30EC_U+30A4_U+30E4_U+30FC 1
 62
   179
420
  2234388
370
     9
  0
POLYLINE
  5
B5
330
1F
100
AcDbEntity
  8
_U+30EC_U+30A4_U+30E4_U+30FC 1
 62
   179
420
  2234388
370
     9
100
AcDb2dPolyline
 66
     1
 10
0.0
 20
0.0
 30
0.0
  0
VERTEX
  5
B6
330
B5
100
AcDbEntity
  8
_U+30EC_U+30A4_U+30E4_U+30FC 1
 62
   179
420
  2234388
370
     9
100
AcDbVertex
100
AcDb2dVertex
 10
90.71006518579344
 20
-146.7162913522097
 30
0.0
  0
VERTEX
  5
B7
330
B5
100
AcDbEntity
  8
_U+30EC_U+30A4_U+30E4_U+30FC 1
 62
   179
420
  2234388
370
     9
100
AcDbVertex
100
AcDb2dVertex
 10
93.53228733601478
 20
-149.0093469071919
 30
0.0
  0
SEQEND
  5
B8
330
B5
100
AcDbEntity
  8
_U+30EC_U+30A4_U+30E4_U+30FC 1
 62
   179
420
  2234388
370
     9
  0
POLYLINE
  5
B9
330
1F
100
AcDbEntity
  8
_U+30EC_U+30A4_U+30E4_U+30FC 1
 62
   179
420
  2234388
370
     9
100
AcDb2dPolyline
 66
     1
 10
0.0
 20
0.0
 30
0.0
  0
VERTEX
  5
BA
330
B9
100
AcDbEntity
  8
_U+30EC_U+30A4_U+30E4_U+30FC 1
 62
   179
420
  2234388
370
     9
100
AcDbVertex
100
AcDb2dVertex
 10
100.5437454904709
 20
-146.4517080189425
 30
0.0
  0
VERTEX
  5
BB
330
B9
100
AcDbEntity
  8
_U+30EC_U+30A4_U+30E4_U+30FC 1
 62
   179
420
  2234388
370
     9
100
AcDbVertex
100
AcDb2dVertex
 10
102.7486065453313
 20
-148.347888574024
 30
0.0
  0
SEQEND
  5
BC
330
B9
100
AcDbEntity
  8
_U+30EC_U+30A4_U+30E4_U+30FC 1
 62
   179
420
  2234388
370
     9
  0
POLYLINE
  5
BD
330
1F
100
AcDbEntity
  8
_U+30EC_U+30A4_U+30E4_U+30FC 1
 62
   179
420
  2234388
370
     9
100
AcDb2dPolyline
 66
     1
 10
0.0
 20
0.0
 30
0.0
  0
VERTEX
  5
BE
330
BD
100
AcDbEntity
  8
_U+30EC_U+30A4_U+30E4_U+30FC 1
 62
   179
420
  2234388
370
     9
100
AcDbVertex
100
AcDb2dVertex
 10
102.263537113262
 20
-147.906916351912
 30
0.0
  0
VERTEX
  5
BF
330
BD
100
AcDbEntity
  8
_U+30EC_U+30A4_U+30E4_U+30FC 1
 62
   179
420
  2234388
370
     9
100
AcDbVertex
100
AcDb2dVertex
 10
104.7770787158029
 20
-146.1871246856753
 30
0.0
  0
SEQEND
  5
C0
330
BD
100
AcDbEntity
  8
_U+30EC_U+30A4_U+30E4_U+30FC 1
 62
   179
420
  2234388
370
     9
  0
POLYLINE
  5
C1
330
1F
100
AcDbEntity
  8
_U+30EC_U+30A4_U+30E4_U+30FC 1
 62
   179
420
  2234388
370
     9
100
AcDb2dPolyline
 66
     1
 10
0.0
 20
0.0
 30
0.0
  0
VERTEX
  5
C2
330
C1
100
AcDbEntity
  8
_U+30EC_U+30A4_U+30E4_U+30FC 1
 62
   179
420
  2234388
370
     9
100
AcDbVertex
100
AcDb2dVertex
 10
103.4541620828867
 20
-144.9964996859729
 30
0.0
  0
VERTEX
  5
C3
330
C1
100
AcDbEntity
  8
_U+30EC_U+30A4_U+30E4_U+30FC 1
 62
   179
420
  2234388
370
     9
100
AcDbVertex
100
AcDb2dVertex
 10
105.438537032261
 20
-146.7603885744209
 30
0.0
  0
SEQEND
  5
C4
330
C1
100
AcDbEntity
  8
_U+30EC_U+30A4_U+30E4_U+30FC 1
 62
   179
420
  2234388
370
     9
  0
POLYLINE
  5
C5
330
1F
100
AcDbEntity
  8
_U+30EC_U+30A4_U+30E4_U+30FC 1
 62
   179
420
  2234388
370
     9
100
AcDb2dPolyline
 66
     1
 10
0.0
 20
0.0
 30
0.0
  0
VERTEX
  5
C6
330
C5
100
AcDbEntity
  8
_U+30EC_U+30A4_U+30E4_U+30FC 1
 62
   179
420
  2234388
370
     9
100
AcDbVertex
100
AcDb2dVertex
 10
105.0416620423862
 20
-135.5596941327766
 30
0.0
  0
VERTEX
  5
C7
330
C5
100
AcDbEntity
  8
_U+30EC_U+30A4_U+30E4_U+30FC 1
 62
   179
420
  2234388
370
     9
100
AcDbVertex
100
AcDb2dVertex
 10
109.0545091622321
 20
-133.6194163554839
 30
0.0
  0
SEQEND
  5
C8
330
C5
100
AcDbEntity
  8
_U+30EC_U+30A4_U+30E4_U+30FC 1
 62
   179
420
  2234388
370
     9
  0
POLYLINE
  5
C9
330
1F
100
AcDbEntity
  8
_U+30EC_U+30A4_U+30E4_U+30FC 1
 62
   179
420
  2234388
370
     9
100
AcDb2dPolyline
 66
     1
 10
0.0
 20
0.0
 30
0.0
  0
VERTEX
  5
CA
330
C9
100
AcDbEntity
  8
_U+30EC_U+30A4_U+30E4_U+30FC 1
 62
   179
420
  2234388
370
     9
100
AcDbVertex
100
AcDb2dVertex
 10
107.8197869715103
 20
-134.2367774664406
 30
0.0
  0
VERTEX
  5
CB
330
C9
100
AcDbEntity
  8
_U+30EC_U+30A4_U+30E4_U+30FC 1
 62
   179
420
  2234388
370
     9
100
AcDbVertex
100
AcDb2dVertex
 10
107.8197869715103
 20
-136.2211524659446
 30
0.0
  0
SEQEND
  5
CC
330
C9
100
AcDbEntity
  8
_U+30EC_U+30A4_U+30E4_U+30FC 1
 62
   179
420
  2234388
370
     9
  0
POLYLINE
  5
CD
330
1F
100
AcDbEntity
  8
_U+30EC_U+30A4_U+30E4_U+30FC 1
 62
   179
420
  2234388
370
     9
100
AcDb2dPolyline
 66
     1
 10
0.0
 20
0.0
 30
0.0
  0
VERTEX
  5
CE
330
CD
100
AcDbEntity
  8
_U+30EC_U+30A4_U+30E4_U+30FC 1
 62
   179
420
  2234388
370
     9
100
AcDbVertex
100
AcDb2dVertex
 10
104.8652731579973
 20
-142.6152496865682
 30
0.0
  0
VERTEX
  5
CF
330
CD
100
AcDbEntity
  8
_U+30EC_U+30A4_U+30E4_U+30FC 1
 62
   179
420
  2234388
370
     9
100
AcDbVertex
100
AcDb2dVertex
 10
108.9222174989405
 20
-140.6749719092755
 30
0.0
  0
SEQEND
  5
D0
330
CD
100
AcDbEntity
  8
_U+30EC_U+30A4_U+30E4_U+30FC 1
 62
   179
420
  2234388
370
     9
  0
POLYLINE
  5
D1
330
1F
100
AcDbEntity
  8
_U+30EC_U+30A4_U+30E4_U+30FC 1
 62
   179
420
  2234388
370
     9
100
AcDb2dPolyline
 66
     1
 10
0.0
 20
0.0
 30
0.0
  0
VERTEX
  5
D2
330
D1
100
AcDbEntity
  8
_U+30EC_U+30A4_U+30E4_U+30FC 1
 62
   179
420
  2234388
370
     9
100
AcDbVertex
100
AcDb2dVertex
 10
107.8638841926075
 20
-141.2482357980211
 30
0.0
  0
VERTEX
  5
D3
330
D1
100
AcDbEntity
  8
_U+30EC_U+30A4_U+30E4_U+30FC 1
 62
   179
420
  2234388
370
     9
100
AcDbVertex
100
AcDb2dVertex
 10
107.8197869715103
 20
-138.9551802430388
 30
0.0
  0
SEQEND
  5
D4
330
D1
100
AcDbEntity
  8
_U+30EC_U+30A4_U+30E4_U+30FC 1
 62
   179
420
  2234388
370
     9
  0
POLYLINE
  5
D5
330
1F
100
AcDbEntity
  8
_U+30EC_U+30A4_U+30E4_U+30FC 1
 62
   179
420
  2234388
370
     9
100
AcDb2dPolyline
 66
     1
 10
0.0
 20
0.0
 30
0.0
  0
VERTEX
  5
D6
330
D5
100
AcDbEntity
  8
_U+30EC_U+30A4_U+30E4_U+30FC 1
 62
   179
420
  2234388
370
     9
100
AcDbVertex
100
AcDb2dVertex
 10
103.8069398516643
 20
-131.2822635782904
 30
0.0
  0
VERTEX
  5
D7
330
D5
100
AcDbEntity
  8
_U+30EC_U+30A4_U+30E4_U+30FC 1
 62
   179
420
  2234388
370
     9
100
AcDbVertex
100
AcDb2dVertex
 10
103.7187454094699
 20
-130.8412913561784
 30
0.0
  0
VERTEX
  5
D8
330
D5
100
AcDbEntity
  8
_U+30EC_U+30A4_U+30E4_U+30FC 1
 62
   179
420
  2234388
370
     9
100
AcDbVertex
100
AcDb2dVertex
 10
103.3659676406922
 20
-131.63504135598
 30
0.0
  0
VERTEX
  5
D9
330
D5
100
AcDbEntity
  8
_U+30EC_U+30A4_U+30E4_U+30FC 1
 62
   179
420
  2234388
370
     9
100
AcDbVertex
100
AcDb2dVertex
 10
104.3361065048308
 20
-131.5027496893464
 30
0.0
  0
VERTEX
  5
DA
330
D5
100
AcDbEntity
  8
_U+30EC_U+30A4_U+30E4_U+30FC 1
 62
   179
420
  2234388
370
     9
100
AcDbVertex
100
AcDb2dVertex
 10
103.8069398516643
 20
-131.2822635782904
 30
0.0
  0
SEQEND
  5
DC
330
D5
100
AcDbEntity
  8
_U+30EC_U+30A4_U+30E4_U+30FC 1
 62
   179
420
  2234388
370
     9
  0
HATCH
  5
DB
330
1F
100
AcDbEntity
  8
_U+30EC_U+30A4_U+30E4_U+30FC 1
 62
     7
420
 16777215
100
AcDbHatch
 10
0.0
 20
0.0
 30
0.0
210
0.0
220
0.0
230
1.0
  2
SOLID
 70
     1
 71
     0
 91
        1
 92
        1
 93
        4
 72
     1
 10
103.8069398516643
 20
-131.2822635782904
 11
103.7187454094699
 21
-130.8412913561784
 72
     1
 10
103.7187454094699
 20
-130.8412913561784
 11
103.3659676406922
 21
-131.63504135598
 72
     1
 10
103.3659676406922
 20
-131.63504135598
 11
104.3361065048308
 21
-131.5027496893464
 72
     1
 10
104.3361065048308
 20
-131.5027496893464
 11
103.8069398516643
 21
-131.2822635782904
 97
        0
 75
     2
 76
     1
 98
        0
  0
POLYLINE
  5
DD
330
1F
100
AcDbEntity
  8
_U+30EC_U+30A4_U+30E4_U+30FC 1
 62
   179
420
  2234388
370
     9
100
AcDb2dPolyline
 66
     1
 10
0.0
 20
0.0
 30
0.0
  0
VERTEX
  5
DE
330
DD
100
AcDbEntity
  8
_U+30EC_U+30A4_U+30E4_U+30FC 1
 62
   179
420
  2234388
370
     9
100
AcDbVertex
100
AcDb2dVertex
 10
103.8069398516643
 20
-131.2822635782904
 30
0.0
  0
VERTEX
  5
DF
330
DD
100
AcDbEntity
  8
_U+30EC_U+30A4_U+30E4_U+30FC 1
 62
   179
420
  2234388
370
     9
100
AcDbVertex
100
AcDb2dVertex
 10
108.0402730769963
 20
-127.6221941347613
 30
0.0
  0
VERTEX
  5
E0
330
DD
100
AcDbEntity
  8
_U+30EC_U+30A4_U+30E4_U+30FC 1
 62
   179
420
  2234388
370
     9
100
AcDbVertex
100
AcDb2dVertex
 10
113.5089987708108
 20
-127.6221941347613
 30
0.0
  0
SEQEND
  5
E1
330
DD
100
AcDbEntity
  8
_U+30EC_U+30A4_U+30E4_U+30FC 1
 62
   179
420
  2234388
370
     9
  0
SPLINE
  5
E2
330
1F
100
AcDbEntity
  8
_U+30EC_U+30A4_U+30E4_U+30FC 1
370
     0
100
AcDbSpline
210
0.0
220
0.0
230
1.0
 70
    11
 71
     3
 72
    17
 73
    13
 74
     0
 42
0.0000000001
 43
0.0000000001
 12
1.0
 22
0.0
 32
0.0
 13
1.0
 23
0.0
 33
0.0
 40
0.0
 40
0.0
 40
0.0
 40
0.0
 40
1.0
 40
1.0
 40
1.0
 40
2.0
 40
2.0
 40
2.0
 40
3.0
 40
3.0
 40
3.0
 40
4.0
 40
4.0
 40
4.0
 40
4.0
 10
86.0712139152515
 20
-125.4349013575302
 30
0.0
 10
86.0712139152515
 20
-125.5664874686083
 30
0.0
 10
85.9644280846425
 20
-125.673132190804
 30
0.0
 10
85.83284197688843
 20
-125.673132190804
 30
0.0
 10
85.70122059135748
 20
-125.673132190804
 30
0.0
 10
85.59478753851727
 20
-125.5664874686083
 30
0.0
 10
85.59478753851727
 20
-125.4349013575302
 30
0.0
 10
85.59478753851727
 20
-125.3034563575629
 30
0.0
 10
85.70122059135748
 20
-125.1968469131454
 30
0.0
 10
85.83284197688843
 20
-125.1968469131454
 30
0.0
 10
85.9644280846425
 20
-125.1968469131454
 30
0.0
 10
86.0712139152515
 20
-125.3034563575629
 30
0.0
 10
86.0712139152515
 20
-125.4349013575302
 30
0.0
  0
HATCH
  5
E3
330
1F
100
AcDbEntity
  8
_U+30EC_U+30A4_U+30E4_U+30FC 1
 62
     7
420
 16777215
100
AcDbHatch
 10
0.0
 20
0.0
 30
0.0
210
0.0
220
0.0
230
1.0
  2
SOLID
 70
     1
 71
     0
 91
        1
 92
        1
 93
        1
 72
     4
 94
        3
 73
     0
 74
     1
 95
       17
 96
       13
 40
0.0
 40
0.0
 40
0.0
 40
0.0
 40
1.0
 40
1.0
 40
1.0
 40
2.0
 40
2.0
 40
2.0
 40
3.0
 40
3.0
 40
3.0
 40
4.0
 40
4.0
 40
4.0
 40
4.0
 10
86.0712139152515
 20
-125.4349013575302
 10
86.0712139152515
 20
-125.5664874686083
 10
85.9644280846425
 20
-125.673132190804
 10
85.83284197688843
 20
-125.673132190804
 10
85.70122059135748
 20
-125.673132190804
 10
85.59478753851727
 20
-125.5664874686083
 10
85.59478753851727
 20
-125.4349013575302
 10
85.59478753851727
 20
-125.3034563575629
 10
85.70122059135748
 20
-125.1968469131454
 10
85.83284197688843
 20
-125.1968469131454
 10
85.9644280846425
 20
-125.1968469131454
 10
86.0712139152515
 20
-125.3034563575629
 10
86.0712139152515
 20
-125.4349013575302
 97
        0
 97
        0
 75
     2
 76
     1
 98
        0
  0
SPLINE
  5
E4
330
1F
100
AcDbEntity
  8
_U+30EC_U+30A4_U+30E4_U+30FC 1
370
     0
100
AcDbSpline
210
0.0
220
0.0
230
1.0
 70
    11
 71
     3
 72
    17
 73
    13
 74
     0
 42
0.0000000001
 43
0.0000000001
 12
1.0
 22
0.0
 32
0.0
 13
1.0
 23
0.0
 33
0.0
 40
0.0
 40
0.0
 40
0.0
 40
0.0
 40
1.0
 40
1.0
 40
1.0
 40
2.0
 40
2.0
 40
2.0
 40
3.0
 40
3.0
 40
3.0
 40
4.0
 40
4.0
 40
4.0
 40
4.0
 10
85.89482503086268
 20
-139.4578180206912
 30
0.0
 10
85.89482503086268
 20
-139.5894041317692
 30
0.0
 10
85.78803920025368
 20
-139.6958724650763
 30
0.0
 10
85.6564530924996
 20
-139.6958724650763
 30
0.0
 10
85.52483170696865
 20
-139.6958724650763
 30
0.0
 10
85.41839865412844
 20
-139.5894041317692
 30
0.0
 10
85.41839865412844
 20
-139.4578180206912
 30
0.0
 10
85.41839865412844
 20
-139.3265494096127
 30
0.0
 10
85.52483170696865
 20
-139.219763576306
 30
0.0
 10
85.6564530924996
 20
-139.219763576306
 30
0.0
 10
85.78803920025368
 20
-139.219763576306
 30
0.0
 10
85.89482503086268
 20
-139.3265494096127
 30
0.0
 10
85.89482503086268
 20
-139.4578180206912
 30
0.0
  0
HATCH
  5
E5
330
1F
100
AcDbEntity
  8
_U+30EC_U+30A4_U+30E4_U+30FC 1
 62
     7
420
 16777215
100
AcDbHatch
 10
0.0
 20
0.0
 30
0.0
210
0.0
220
0.0
230
1.0
  2
SOLID
 70
     1
 71
     0
 91
        1
 92
        1
 93
        1
 72
     4
 94
        3
 73
     0
 74
     1
 95
       17
 96
       13
 40
0.0
 40
0.0
 40
0.0
 40
0.0
 40
1.0
 40
1.0
 40
1.0
 40
2.0
 40
2.0
 40
2.0
 40
3.0
 40
3.0
 40
3.0
 40
4.0
 40
4.0
 40
4.0
 40
4.0
 10
85.89482503086268
 20
-139.4578180206912
 10
85.89482503086268
 20
-139.5894041317692
 10
85.78803920025368
 20
-139.6958724650763
 10
85.6564530924996
 20
-139.6958724650763
 10
85.52483170696865
 20
-139.6958724650763
 10
85.41839865412844
 20
-139.5894041317692
 10
85.41839865412844
 20
-139.4578180206912
 10
85.41839865412844
 20
-139.3265494096127
 10
85.52483170696865
 20
-139.219763576306
 10
85.6564530924996
 20
-139.219763576306
 10
85.78803920025368
 20
-139.219763576306
 10
85.89482503086268
 20
-139.3265494096127
 10
85.89482503086268
 20
-139.4578180206912
 97
        0
 97
        0
 75
     2
 76
     1
 98
        0
  0
SPLINE
  5
E6
330
1F
100
AcDbEntity
  8
_U+30EC_U+30A4_U+30E4_U+30FC 1
370
     0
100
AcDbSpline
210
0.0
220
0.0
230
1.0
 70
    11
 71
     3
 72
    17
 73
    13
 74
     0
 42
0.0000000001
 43
0.0000000001
 12
1.0
 22
0.0
 32
0.0
 13
1.0
 23
0.0
 33
0.0
 40
0.0
 40
0.0
 40
0.0
 40
0.0
 40
1.0
 40
1.0
 40
1.0
 40
2.0
 40
2.0
 40
2.0
 40
3.0
 40
3.0
 40
3.0
 40
4.0
 40
4.0
 40
4.0
 40
4.0
 10
85.4979500409878
 20
-142.5887207976862
 30
0.0
 10
85.4979500409878
 20
-142.7203069087643
 30
0.0
 10
85.39116421037879
 20
-142.8267752420714
 30
0.0
 10
85.25957810262473
 20
-142.8267752420714
 30
0.0
 10
85.12795671709378
 20
-142.8267752420714
 30
0.0
 10
85.02152366425355
 20
-142.7203069087643
 30
0.0
 10
85.02152366425355
 20
-142.5887207976862
 30
0.0
 10
85.02152366425355
 20
-142.4574521866078
 30
0.0
 10
85.12795671709378
 20
-142.3506663533011
 30
0.0
 10
85.25957810262473
 20
-142.3506663533011
 30
0.0
 10
85.39116421037879
 20
-142.3506663533011
 30
0.0
 10
85.4979500409878
 20
-142.4574521866078
 30
0.0
 10
85.4979500409878
 20
-142.5887207976862
 30
0.0
  0
HATCH
  5
E7
330
1F
100
AcDbEntity
  8
_U+30EC_U+30A4_U+30E4_U+30FC 1
 62
     7
420
 16777215
100
AcDbHatch
 10
0.0
 20
0.0
 30
0.0
210
0.0
220
0.0
230
1.0
  2
SOLID
 70
     1
 71
     0
 91
        1
 92
        1
 93
        1
 72
     4
 94
        3
 73
     0
 74
     1
 95
       17
 96
       13
 40
0.0
 40
0.0
 40
0.0
 40
0.0
 40
1.0
 40
1.0
 40
1.0
 40
2.0
 40
2.0
 40
2.0
 40
3.0
 40
3.0
 40
3.0
 40
4.0
 40
4.0
 40
4.0
 40
4.0
 10
85.4979500409878
 20
-142.5887207976862
 10
85.4979500409878
 20
-142.7203069087643
 10
85.39116421037879
 20
-142.8267752420714
 10
85.25957810262473
 20
-142.8267752420714
 10
85.12795671709378
 20
-142.8267752420714
 10
85.02152366425355
 20
-142.7203069087643
 10
85.02152366425355
 20
-142.5887207976862
 10
85.02152366425355
 20
-142.4574521866078
 10
85.12795671709378
 20
-142.3506663533011
 10
85.25957810262473
 20
-142.3506663533011
 10
85.39116421037879
 20
-142.3506663533011
 10
85.4979500409878
 20
-142.4574521866078
 10
85.4979500409878
 20
-142.5887207976862
 97
        0
 97
        0
 75
     2
 76
     1
 98
        0
  0
SPLINE
  5
E8
330
1F
100
AcDbEntity
  8
_U+30EC_U+30A4_U+30E4_U+30FC 1
370
     0
100
AcDbSpline
210
0.0
220
0.0
230
1.0
 70
    11
 71
     3
 72
    17
 73
    13
 74
     0
 42
0.0000000001
 43
0.0000000001
 12
1.0
 22
0.0
 32
0.0
 13
1.0
 23
0.0
 33
0.0
 40
0.0
 40
0.0
 40
0.0
 40
0.0
 40
1.0
 40
1.0
 40
1.0
 40
2.0
 40
2.0
 40
2.0
 40
3.0
 40
3.0
 40
3.0
 40
4.0
 40
4.0
 40
4.0
 40
4.0
 10
93.78791010727107
 20
-149.0269152405211
 30
0.0
 10
93.78791010727107
 20
-149.1585013515992
 30
0.0
 10
93.68144177665397
 20
-149.2649696849063
 30
0.0
 10
93.54985566889991
 20
-149.2649696849063
 30
0.0
 10
93.41858706113773
 20
-149.2649696849063
 30
0.0
 10
93.31180123052873
 20
-149.1585013515992
 30
0.0
 10
93.31180123052873
 20
-149.0269152405211
 30
0.0
 10
93.31180123052873
 20
-148.8956466294427
 30
0.0
 10
93.41858706113773
 20
-148.788860796136
 30
0.0
 10
93.54985566889991
 20
-148.788860796136
 30
0.0
 10
93.68144177665397
 20
-148.788860796136
 30
0.0
 10
93.78791010727107
 20
-148.8956466294427
 30
0.0
 10
93.78791010727107
 20
-149.0269152405211
 30
0.0
  0
HATCH
  5
E9
330
1F
100
AcDbEntity
  8
_U+30EC_U+30A4_U+30E4_U+30FC 1
 62
     7
420
 16777215
100
AcDbHatch
 10
0.0
 20
0.0
 30
0.0
210
0.0
220
0.0
230
1.0
  2
SOLID
 70
     1
 71
     0
 91
        1
 92
        1
 93
        1
 72
     4
 94
        3
 73
     0
 74
     1
 95
       17
 96
       13
 40
0.0
 40
0.0
 40
0.0
 40
0.0
 40
1.0
 40
1.0
 40
1.0
 40
2.0
 40
2.0
 40
2.0
 40
3.0
 40
3.0
 40
3.0
 40
4.0
 40
4.0
 40
4.0
 40
4.0
 10
93.78791010727107
 20
-149.0269152405211
 10
93.78791010727107
 20
-149.1585013515992
 10
93.68144177665397
 20
-149.2649696849063
 10
93.54985566889991
 20
-149.2649696849063
 10
93.41858706113773
 20
-149.2649696849063
 10
93.31180123052873
 20
-149.1585013515992
 10
93.31180123052873
 20
-149.0269152405211
 10
93.31180123052873
 20
-148.8956466294427
 10
93.41858706113773
 20
-148.788860796136
 10
93.54985566889991
 20
-148.788860796136
 10
93.68144177665397
 20
-148.788860796136
 10
93.78791010727107
 20
-148.8956466294427
 10
93.78791010727107
 20
-149.0269152405211
 97
        0
 97
        0
 75
     2
 76
     1
 98
        0
  0
SPLINE
  5
EA
330
1F
100
AcDbEntity
  8
_U+30EC_U+30A4_U+30E4_U+30FC 1
370
     0
100
AcDbSpline
210
0.0
220
0.0
230
1.0
 70
    11
 71
     3
 72
    17
 73
    13
 74
     0
 42
0.0000000001
 43
0.0000000001
 12
1.0
 22
0.0
 32
0.0
 13
1.0
 23
0.0
 33
0.0
 40
0.0
 40
0.0
 40
0.0
 40
0.0
 40
1.0
 40
1.0
 40
1.0
 40
2.0
 40
2.0
 40
2.0
 40
3.0
 40
3.0
 40
3.0
 40
4.0
 40
4.0
 40
4.0
 40
4.0
 10
102.4309654423239
 20
-147.9244846852412
 30
0.0
 10
102.4309654423239
 20
-148.0560707963193
 30
0.0
 10
102.3244971117068
 20
-148.1625391296263
 30
0.0
 10
102.1929110039527
 20
-148.1625391296263
 30
0.0
 10
102.0616423961906
 20
-148.1625391296263
 30
0.0
 10
101.9548565655816
 20
-148.0560707963193
 30
0.0
 10
101.9548565655816
 20
-147.9244846852412
 30
0.0
 10
101.9548565655816
 20
-147.7932160741627
 30
0.0
 10
102.0616423961906
 20
-147.686430240856
 30
0.0
 10
102.1929110039527
 20
-147.686430240856
 30
0.0
 10
102.3244971117068
 20
-147.686430240856
 30
0.0
 10
102.4309654423239
 20
-147.7932160741627
 30
0.0
 10
102.4309654423239
 20
-147.9244846852412
 30
0.0
  0
HATCH
  5
EB
330
1F
100
AcDbEntity
  8
_U+30EC_U+30A4_U+30E4_U+30FC 1
 62
     7
420
 16777215
100
AcDbHatch
 10
0.0
 20
0.0
 30
0.0
210
0.0
220
0.0
230
1.0
  2
SOLID
 70
     1
 71
     0
 91
        1
 92
        1
 93
        1
 72
     4
 94
        3
 73
     0
 74
     1
 95
       17
 96
       13
 40
0.0
 40
0.0
 40
0.0
 40
0.0
 40
1.0
 40
1.0
 40
1.0
 40
2.0
 40
2.0
 40
2.0
 40
3.0
 40
3.0
 40
3.0
 40
4.0
 40
4.0
 40
4.0
 40
4.0
 10
102.4309654423239
 20
-147.9244846852412
 10
102.4309654423239
 20
-148.0560707963193
 10
102.3244971117068
 20
-148.1625391296263
 10
102.1929110039527
 20
-148.1625391296263
 10
102.0616423961906
 20
-148.1625391296263
 10
101.9548565655816
 20
-148.0560707963193
 10
101.9548565655816
 20
-147.9244846852412
 10
101.9548565655816
 20
-147.7932160741627
 10
102.0616423961906
 20
-147.686430240856
 10
102.1929110039527
 20
-147.686430240856
 10
102.3244971117068
 20
-147.686430240856
 10
102.4309654423239
 20
-147.7932160741627
 10
102.4309654423239
 20
-147.9244846852412
 97
        0
 97
        0
 75
     2
 76
     1
 98
        0
  0
SPLINE
  5
EC
330
1F
100
AcDbEntity
  8
_U+30EC_U+30A4_U+30E4_U+30FC 1
370
     0
100
AcDbSpline
210
0.0
220
0.0
230
1.0
 70
    11
 71
     3
 72
    17
 73
    13
 74
     0
 42
0.0000000001
 43
0.0000000001
 12
1.0
 22
0.0
 32
0.0
 13
1.0
 23
0.0
 33
0.0
 40
0.0
 40
0.0
 40
0.0
 40
0.0
 40
1.0
 40
1.0
 40
1.0
 40
2.0
 40
2.0
 40
2.0
 40
3.0
 40
3.0
 40
3.0
 40
4.0
 40
4.0
 40
4.0
 40
4.0
 10
104.9445070448648
 20
-146.1605957967933
 30
0.0
 10
104.9445070448648
 20
-146.2921819078713
 30
0.0
 10
104.8380387142477
 20
-146.3986502411784
 30
0.0
 10
104.7064526064936
 20
-146.3986502411784
 30
0.0
 10
104.5751839987315
 20
-146.3986502411784
 30
0.0
 10
104.4683981681225
 20
-146.2921819078713
 30
0.0
 10
104.4683981681225
 20
-146.1605957967933
 30
0.0
 10
104.4683981681225
 20
-146.0293271857148
 30
0.0
 10
104.5751839987315
 20
-145.9225413524081
 30
0.0
 10
104.7064526064936
 20
-145.9225413524081
 30
0.0
 10
104.8380387142477
 20
-145.9225413524081
 30
0.0
 10
104.9445070448648
 20
-146.0293271857148
 30
0.0
 10
104.9445070448648
 20
-146.1605957967933
 30
0.0
  0
HATCH
  5
ED
330
1F
100
AcDbEntity
  8
_U+30EC_U+30A4_U+30E4_U+30FC 1
 62
     7
420
 16777215
100
AcDbHatch
 10
0.0
 20
0.0
 30
0.0
210
0.0
220
0.0
230
1.0
  2
SOLID
 70
     1
 71
     0
 91
        1
 92
        1
 93
        1
 72
     4
 94
        3
 73
     0
 74
     1
 95
       17
 96
       13
 40
0.0
 40
0.0
 40
0.0
 40
0.0
 40
1.0
 40
1.0
 40
1.0
 40
2.0
 40
2.0
 40
2.0
 40
3.0
 40
3.0
 40
3.0
 40
4.0
 40
4.0
 40
4.0
 40
4.0
 10
104.9445070448648
 20
-146.1605957967933
 10
104.9445070448648
 20
-146.2921819078713
 10
104.8380387142477
 20
-146.3986502411784
 10
104.7064526064936
 20
-146.3986502411784
 10
104.5751839987315
 20
-146.3986502411784
 10
104.4683981681225
 20
-146.2921819078713
 10
104.4683981681225
 20
-146.1605957967933
 10
104.4683981681225
 20
-146.0293271857148
 10
104.5751839987315
 20
-145.9225413524081
 10
104.7064526064936
 20
-145.9225413524081
 10
104.8380387142477
 20
-145.9225413524081
 10
104.9445070448648
 20
-146.0293271857148
 10
104.9445070448648
 20
-146.1605957967933
 97
        0
 97
        0
 75
     2
 76
     1
 98
        0
  0
SPLINE
  5
EE
330
1F
100
AcDbEntity
  8
_U+30EC_U+30A4_U+30E4_U+30FC 1
370
     0
100
AcDbSpline
210
0.0
220
0.0
230
1.0
 70
    11
 71
     3
 72
    17
 73
    13
 74
     0
 42
0.0000000001
 43
0.0000000001
 12
1.0
 22
0.0
 32
0.0
 13
1.0
 23
0.0
 33
0.0
 40
0.0
 40
0.0
 40
0.0
 40
0.0
 40
1.0
 40
1.0
 40
1.0
 40
2.0
 40
2.0
 40
2.0
 40
3.0
 40
3.0
 40
3.0
 40
4.0
 40
4.0
 40
4.0
 40
4.0
 10
108.0313125216694
 20
-134.298443021981
 30
0.0
 10
108.0313125216694
 20
-134.4300291330591
 30
0.0
 10
107.9248441910523
 20
-134.5364974663662
 30
0.0
 10
107.7932580832982
 20
-134.5364974663662
 30
0.0
 10
107.661989475536
 20
-134.5364974663662
 30
0.0
 10
107.555203644927
 20
-134.4300291330591
 30
0.0
 10
107.555203644927
 20
-134.298443021981
 30
0.0
 10
107.555203644927
 20
-134.1671744109026
 30
0.0
 10
107.661989475536
 20
-134.0603885775959
 30
0.0
 10
107.7932580832982
 20
-134.0603885775959
 30
0.0
 10
107.9248441910523
 20
-134.0603885775959
 30
0.0
 10
108.0313125216694
 20
-134.1671744109026
 30
0.0
 10
108.0313125216694
 20
-134.298443021981
 30
0.0
  0
HATCH
  5
EF
330
1F
100
AcDbEntity
  8
_U+30EC_U+30A4_U+30E4_U+30FC 1
 62
     7
420
 16777215
100
AcDbHatch
 10
0.0
 20
0.0
 30
0.0
210
0.0
220
0.0
230
1.0
  2
SOLID
 70
     1
 71
     0
 91
        1
 92
        1
 93
        1
 72
     4
 94
        3
 73
     0
 74
     1
 95
       17
 96
       13
 40
0.0
 40
0.0
 40
0.0
 40
0.0
 40
1.0
 40
1.0
 40
1.0
 40
2.0
 40
2.0
 40
2.0
 40
3.0
 40
3.0
 40
3.0
 40
4.0
 40
4.0
 40
4.0
 40
4.0
 10
108.0313125216694
 20
-134.298443021981
 10
108.0313125216694
 20
-134.4300291330591
 10
107.9248441910523
 20
-134.5364974663662
 10
107.7932580832982
 20
-134.5364974663662
 10
107.661989475536
 20
-134.5364974663662
 10
107.555203644927
 20
-134.4300291330591
 10
107.555203644927
 20
-134.298443021981
 10
107.555203644927
 20
-134.1671744109026
 10
107.661989475536
 20
-134.0603885775959
 10
107.7932580832982
 20
-134.0603885775959
 10
107.9248441910523
 20
-134.0603885775959
 10
108.0313125216694
 20
-134.1671744109026
 10
108.0313125216694
 20
-134.298443021981
 97
        0
 97
        0
 75
     2
 76
     1
 98
        0
  0
SPLINE
  5
F0
330
1F
100
AcDbEntity
  8
_U+30EC_U+30A4_U+30E4_U+30FC 1
370
     0
100
AcDbSpline
210
0.0
220
0.0
230
1.0
 70
    11
 71
     3
 72
    17
 73
    13
 74
     0
 42
0.0000000001
 43
0.0000000001
 12
1.0
 22
0.0
 32
0.0
 13
1.0
 23
0.0
 33
0.0
 40
0.0
 40
0.0
 40
0.0
 40
0.0
 40
1.0
 40
1.0
 40
1.0
 40
2.0
 40
2.0
 40
2.0
 40
3.0
 40
3.0
 40
3.0
 40
4.0
 40
4.0
 40
4.0
 40
4.0
 10
108.0313125216694
 20
-141.1776096869279
 30
0.0
 10
108.0313125216694
 20
-141.309195798006
 30
0.0
 10
107.9248441910523
 20
-141.4156641313131
 30
0.0
 10
107.7932580832982
 20
-141.4156641313131
 30
0.0
 10
107.661989475536
 20
-141.4156641313131
 30
0.0
 10
107.555203644927
 20
-141.309195798006
 30
0.0
 10
107.555203644927
 20
-141.1776096869279
 30
0.0
 10
107.555203644927
 20
-141.0463410758494
 30
0.0
 10
107.661989475536
 20
-140.9395552425427
 30
0.0
 10
107.7932580832982
 20
-140.9395552425427
 30
0.0
 10
107.9248441910523
 20
-140.9395552425427
 30
0.0
 10
108.0313125216694
 20
-141.0463410758494
 30
0.0
 10
108.0313125216694
 20
-141.1776096869279
 30
0.0
  0
HATCH
  5
F1
330
1F
100
AcDbEntity
  8
_U+30EC_U+30A4_U+30E4_U+30FC 1
 62
     7
420
 16777215
100
AcDbHatch
 10
0.0
 20
0.0
 30
0.0
210
0.0
220
0.0
230
1.0
  2
SOLID
 70
     1
 71
     0
 91
        1
 92
        1
 93
        1
 72
     4
 94
        3
 73
     0
 74
     1
 95
       17
 96
       13
 40
0.0
 40
0.0
 40
0.0
 40
0.0
 40
1.0
 40
1.0
 40
1.0
 40
2.0
 40
2.0
 40
2.0
 40
3.0
 40
3.0
 40
3.0
 40
4.0
 40
4.0
 40
4.0
 40
4.0
 10
108.0313125216694
 20
-141.1776096869279
 10
108.0313125216694
 20
-141.309195798006
 10
107.9248441910523
 20
-141.4156641313131
 10
107.7932580832982
 20
-141.4156641313131
 10
107.661989475536
 20
-141.4156641313131
 10
107.555203644927
 20
-141.309195798006
 10
107.555203644927
 20
-141.1776096869279
 10
107.555203644927
 20
-141.0463410758494
 10
107.661989475536
 20
-140.9395552425427
 10
107.7932580832982
 20
-140.9395552425427
 10
107.9248441910523
 20
-140.9395552425427
 10
108.0313125216694
 20
-141.0463410758494
 10
108.0313125216694
 20
-141.1776096869279
 97
        0
 97
        0
 75
     2
 76
     1
 98
        0
  0
INSERT
  5
F3
330
1F
100
AcDbEntity
  8
_U+30EC_U+30A4_U+30E4_U+30FC 1
100
AcDbBlockReference
  2
block 2
 10
0.0
 20
0.0
 30
0.0
  0
INSERT
  5
121
330
1F
100
AcDbEntity
  8
_U+30EC_U+30A4_U+30E4_U+30FC 1
100
AcDbBlockReference
  2
block 3
 10
0.0
 20
0.0
 30
0.0
  0
INSERT
  5
134
330
1F
100
AcDbEntity
  8
_U+30EC_U+30A4_U+30E4_U+30FC 1
100
AcDbBlockReference
  2
block 4
 10
0.0
 20
0.0
 30
0.0
  0
INSERT
  5
13A
330
1F
100
AcDbEntity
  8
_U+30EC_U+30A4_U+30E4_U+30FC 1
100
AcDbBlockReference
  2
block 5
 10
0.0
 20
0.0
 30
0.0
  0
INSERT
  5
143
330
1F
100
AcDbEntity
  8
_U+30EC_U+30A4_U+30E4_U+30FC 1
100
AcDbBlockReference
  2
block 6
 10
0.0
 20
0.0
 30
0.0
  0
INSERT
  5
14B
330
1F
100
AcDbEntity
  8
_U+30EC_U+30A4_U+30E4_U+30FC 1
100
AcDbBlockReference
  2
block 7
 10
0.0
 20
0.0
 30
0.0
  0
ENDSEC
  0
SECTION
  2
OBJECTS
  0
DICTIONARY
  5
C
330
0
100
AcDbDictionary
281
     1
  3
ACAD_GROUP
350
D
  3
ACAD_LAYOUT
350
1A
  3
ACAD_MATERIAL
350
3B
  3
ACAD_MLEADERSTYLE
350
17F
  3
ACAD_MLINESTYLE
350
17
  3
ACAD_PLOTSETTINGS
350
19
  3
ACAD_PLOTSTYLENAME
350
E
  3
ACAD_TABLESTYLE
350
17E
  3
ACAD_VISUALSTYLE
350
2A
  0
SUN
  5
3F
330
29
100
AcDbSun
 90
        1
290
     0
 63
     7
421
 16777215
 40
1.0
291
     1
 91
  2455826
 92
 54000000
292
     0
 70
     2
 71
   256
280
     1
  0
DICTIONARY
  5
D
102
{ACAD_REACTORS
330
C
102
}
330
C
100
AcDbDictionary
281
     1
  0
DICTIONARY
  5
1A
102
{ACAD_REACTORS
330
C
102
}
330
C
100
AcDbDictionary
281
     1
  3
Layout1
350
1E
  3
Layout2
350
26
  3
Model
350
22
  0
DICTIONARY
  5
3B
102
{ACAD_REACTORS
330
C
102
}
330
C
100
AcDbDictionary
281
     1
  3
ByBlock
350
3D
  3
ByLayer
350
3C
  3
Global
350
3E
  0
DICTIONARY
  5
17F
102
{ACAD_REACTORS
330
C
102
}
330
C
100
AcDbDictionary
281
     1
  0
DICTIONARY
  5
17
102
{ACAD_REACTORS
330
C
102
}
330
C
100
AcDbDictionary
281
     1
  3
Standard
350
18
  0
DICTIONARY
  5
19
102
{ACAD_REACTORS
330
C
102
}
330
C
100
AcDbDictionary
281
     1
  0
ACDBDICTIONARYWDFLT
  5
E
102
{ACAD_REACTORS
330
C
102
}
330
C
100
AcDbDictionary
281
     1
  3
Normal
350
F
100
AcDbDictionaryWithDefault
340
F
  0
DICTIONARY
  5
17E
102
{ACAD_REACTORS
330
C
102
}
330
C
100
AcDbDictionary
281
     1
  0
DICTIONARY
  5
2A
102
{ACAD_REACTORS
330
C
102
}
330
C
100
AcDbDictionary
281
     1
  3
2dWireframe
350
2F
  3
3D Hidden
350
31
  3
3dWireframe
350
30
  3
Basic
350
32
  3
Brighten
350
36
  3
ColorChange
350
3A
  3
Conceptual
350
34
  3
Dim
350
35
  3
Facepattern
350
39
  3
Flat
350
2B
  3
FlatWithEdges
350
2C
  3
Gouraud
350
2D
  3
GouraudWithEdges
350
2E
  3
Linepattern
350
38
  3
Realistic
350
33
  3
Thicken
350
37
  0
LAYOUT
  5
1E
102
{ACAD_REACTORS
330
1A
102
}
330
1A
100
AcDbPlotSettings
  1

  2
none_device
  4

  6

 40
0.0
 41
0.0
 42
0.0
 43
0.0
 44
0.0
 45
0.0
 46
0.0
 47
0.0
 48
0.0
 49
0.0
140
0.0
141
0.0
142
1.0
143
1.0
 70
   688
 72
     0
 73
     0
 74
     5
  7

 75
    16
 76
     0
 77
     2
 78
   300
147
1.0
148
0.0
149
0.0
100
AcDbLayout
  1
Layout1
 70
     1
 71
     1
 10
0.0
 20
0.0
 11
12.0
 21
9.0
 12
0.0
 22
0.0
 32
0.0
 14
1.000000000000000E+20
 24
1.000000000000000E+20
 34
1.000000000000000E+20
 15
-1.000000000000000E+20
 25
-1.000000000000000E+20
 35
-1.000000000000000E+20
146
0.0
 13
0.0
 23
0.0
 33
0.0
 16
1.0
 26
0.0
 36
0.0
 17
0.0
 27
1.0
 37
0.0
 76
     0
330
1B
  0
LAYOUT
  5
26
102
{ACAD_REACTORS
330
1A
102
}
330
1A
100
AcDbPlotSettings
  1

  2
none_device
  4

  6

 40
0.0
 41
0.0
 42
0.0
 43
0.0
 44
0.0
 45
0.0
 46
0.0
 47
0.0
 48
0.0
 49
0.0
140
0.0
141
0.0
142
1.0
143
1.0
 70
   688
 72
     0
 73
     0
 74
     5
  7

 75
    16
 76
     0
 77
     2
 78
   300
147
1.0
148
0.0
149
0.0
100
AcDbLayout
  1
Layout2
 70
     1
 71
     2
 10
0.0
 20
0.0
 11
0.0
 21
0.0
 12
0.0
 22
0.0
 32
0.0
 14
0.0
 24
0.0
 34
0.0
 15
0.0
 25
0.0
 35
0.0
146
0.0
 13
0.0
 23
0.0
 33
0.0
 16
1.0
 26
0.0
 36
0.0
 17
0.0
 27
1.0
 37
0.0
 76
     0
330
23
  0
LAYOUT
  5
22
102
{ACAD_REACTORS
330
1A
102
}
330
1A
100
AcDbPlotSettings
  1

  2
none_device
  4

  6

 40
0.0
 41
0.0
 42
0.0
 43
0.0
 44
0.0
 45
0.0
 46
0.0
 47
0.0
 48
0.0
 49
0.0
140
0.0
141
0.0
142
1.0
143
1.0
 70
  1712
 72
     0
 73
     0
 74
     0
  7

 75
     0
 76
     0
 77
     2
 78
   300
147
1.0
148
0.0
149
0.0
100
AcDbLayout
  1
Model
 70
     1
 71
     0
 10
0.0
 20
0.0
 11
12.0
 21
9.0
 12
0.0
 22
0.0
 32
0.0
 14
1.000000000000000E+20
 24
1.000000000000000E+20
 34
1.000000000000000E+20
 15
-1.000000000000000E+20
 25
-1.000000000000000E+20
 35
-1.000000000000000E+20
146
0.0
 13
0.0
 23
0.0
 33
0.0
 16
1.0
 26
0.0
 36
0.0
 17
0.0
 27
1.0
 37
0.0
 76
     0
330
1F
331
29
  0
MATERIAL
  5
3D
102
{ACAD_REACTORS
330
3B
102
}
330
3B
100
AcDbMaterial
  1
ByBlock
 72
     1
 94
      127
  0
MATERIAL
  5
3C
102
{ACAD_REACTORS
330
3B
102
}
330
3B
100
AcDbMaterial
  1
ByLayer
 72
     1
 94
      127
  0
MATERIAL
  5
3E
102
{ACAD_REACTORS
330
3B
102
}
330
3B
100
AcDbMaterial
  1
Global
 72
     1
 94
      127
  0
MLINESTYLE
  5
18
102
{ACAD_REACTORS
330
17
102
}
330
17
100
AcDbMlineStyle
  2
Standard
 70
     0
  3

 62
   256
 51
90.0
 52
90.0
 71
     2
 49
0.5
 62
   256
  6
BYLAYER
 49
-0.5
 62
   256
  6
BYLAYER
  0
ACDBPLACEHOLDER
  5
F
102
{ACAD_REACTORS
330
E
102
}
330
E
  0
VISUALSTYLE
  5
2F
102
{ACAD_REACTORS
330
2A
102
}
330
2A
100
AcDbVisualStyle
  2
2dWireframe
 70
     4
177
     2
291
     0
 71
     0
176
     1
 72
     2
176
     1
 73
     0
176
     1
 90
        0
176
     1
 40
-0.6
176
     1
 41
-30.0
176
     1
 62
     5
 63
     7
421
 16777215
176
     1
 74
     1
176
     1
 91
        4
176
     1
 64
     7
176
     1
 65
   257
176
     1
 75
     1
176
     1
175
     1
176
     1
 42
1.0
176
     1
 92
        0
176
     1
 66
   257
176
     1
 43
1.0
176
     1
 76
     1
176
     1
 77
     6
176
     1
 78
     2
176
     1
 67
     7
176
     1
 79
     5
176
     1
170
     0
176
     1
171
     0
176
     1
290
     0
176
     1
 93
        1
176
     1
 44
0.0
176
     1
173
     0
176
     1
  0
VISUALSTYLE
  5
31
102
{ACAD_REACTORS
330
2A
102
}
330
2A
100
AcDbVisualStyle
  2
3D Hidden
 70
     6
177
     2
291
     0
 71
     1
176
     1
 72
     2
176
     1
 73
     2
176
     1
 90
        0
176
     1
 40
-0.6
176
     1
 41
-30.0
176
     1
 62
     5
 63
     7
421
 16777215
176
     1
 74
     2
176
     1
 91
        2
176
     1
 64
     7
176
     1
 65
   257
176
     1
 75
     2
176
     1
175
     1
176
     1
 42
40.0
176
     1
 92
        0
176
     1
 66
   257
176
     1
 43
1.0
176
     1
 76
     1
176
     1
 77
     6
176
     1
 78
     2
176
     1
 67
     7
176
     1
 79
     3
176
     1
170
     0
176
     1
171
     0
176
     1
290
     0
176
     1
 93
        1
176
     1
 44
0.0
176
     1
173
     0
176
     1
  0
VISUALSTYLE
  5
30
102
{ACAD_REACTORS
330
2A
102
}
330
2A
100
AcDbVisualStyle
  2
3dWireframe
 70
     5
177
     2
291
     0
 71
     0
176
     1
 72
     2
176
     1
 73
     0
176
     1
 90
        0
176
     1
 40
-0.6
176
     1
 41
-30.0
176
     1
 62
     5
 63
     7
421
 16777215
176
     1
 74
     1
176
     1
 91
        4
176
     1
 64
     7
176
     1
 65
   257
176
     1
 75
     1
176
     1
175
     1
176
     1
 42
1.0
176
     1
 92
        0
176
     1
 66
   257
176
     1
 43
1.0
176
     1
 76
     1
176
     1
 77
     6
176
     1
 78
     2
176
     1
 67
     7
176
     1
 79
     5
176
     1
170
     0
176
     1
171
     0
176
     1
290
     0
176
     1
 93
        1
176
     1
 44
0.0
176
     1
173
     0
176
     1
  0
VISUALSTYLE
  5
32
102
{ACAD_REACTORS
330
2A
102
}
330
2A
100
AcDbVisualStyle
  2
Basic
 70
     7
177
     2
291
     1
 71
     1
176
     1
 72
     0
176
     1
 73
     1
176
     1
 90
        0
176
     1
 40
-0.6
176
     1
 41
-30.0
176
     1
 62
     5
 63
     7
421
 16777215
176
     1
 74
     0
176
     1
 91
        4
176
     1
 64
     7
176
     1
 65
   257
176
     1
 75
     1
176
     1
175
     1
176
     1
 42
1.0
176
     1
 92
        8
176
     1
 66
     7
176
     1
 43
1.0
176
     1
 76
     1
176
     1
 77
     6
176
     1
 78
     2
176
     1
 67
     7
176
     1
 79
     5
176
     1
170
     0
176
     1
171
     0
176
     1
290
     0
176
     1
 93
        1
176
     1
 44
0.0
176
     1
173
     0
176
     1
  0
VISUALSTYLE
  5
36
102
{ACAD_REACTORS
330
2A
102
}
330
2A
100
AcDbVisualStyle
  2
Brighten
 70
    12
177
     2
291
     1
 71
     2
176
     1
 72
     2
176
     1
 73
     0
176
     1
 90
        0
176
     1
 40
-0.6
176
     1
 41
-30.0
176
     1
 62
     5
 63
     7
421
 16777215
176
     1
 74
     1
176
     1
 91
        4
176
     1
 64
     7
176
     1
 65
   257
176
     1
 75
     1
176
     1
175
     1
176
     1
 42
1.0
176
     1
 92
        8
176
     1
 66
     7
176
     1
 43
1.0
176
     1
 76
     1
176
     1
 77
     6
176
     1
 78
     2
176
     1
 67
     7
176
     1
 79
     5
176
     1
170
     0
176
     1
171
     0
176
     1
290
     0
176
     1
 93
        1
176
     1
 44
50.0
176
     1
173
     0
176
     1
  0
VISUALSTYLE
  5
3A
102
{ACAD_REACTORS
330
2A
102
}
330
2A
100
AcDbVisualStyle
  2
ColorChange
 70
    16
177
     2
291
     1
 71
     2
176
     1
 72
     2
176
     1
 73
     3
176
     1
 90
        0
176
     1
 40
-0.6
176
     1
 41
-30.0
176
     1
 62
     5
 63
     8
421
  8421504
176
     1
 74
     1
176
     1
 91
        4
176
     1
 64
     7
176
     1
 65
   257
176
     1
 75
     1
176
     1
175
     1
176
     1
 42
1.0
176
     1
 92
        8
176
     1
 66
     8
424
  8421504
176
     1
 43
1.0
176
     1
 76
     1
176
     1
 77
     6
176
     1
 78
     2
176
     1
 67
     7
176
     1
 79
     5
176
     1
170
     0
176
     1
171
     0
176
     1
290
     0
176
     1
 93
        1
176
     1
 44
0.0
176
     1
173
     0
176
     1
  0
VISUALSTYLE
  5
34
102
{ACAD_REACTORS
330
2A
102
}
330
2A
100
AcDbVisualStyle
  2
Conceptual
 70
     9
177
     2
291
     0
 71
     3
176
     1
 72
     2
176
     1
 73
     0
176
     1
 90
        0
176
     1
 40
-0.6
176
     1
 41
-30.0
176
     1
 62
     5
 63
     7
421
 16777215
176
     1
 74
     2
176
     1
 91
        2
176
     1
 64
     7
176
     1
 65
   257
176
     1
 75
     1
176
     1
175
     1
176
     1
 42
40.0
176
     1
 92
        8
176
     1
 66
     7
176
     1
 43
1.0
176
     1
 76
     1
176
     1
 77
     6
176
     1
 78
     2
176
     1
 67
     7
176
     1
 79
     3
176
     1
170
     0
176
     1
171
     0
176
     1
290
     0
176
     1
 93
        1
176
     1
 44
0.0
176
     1
173
     0
176
     1
  0
VISUALSTYLE
  5
35
102
{ACAD_REACTORS
330
2A
102
}
330
2A
100
AcDbVisualStyle
  2
Dim
 70
    11
177
     2
291
     1
 71
     2
176
     1
 72
     2
176
     1
 73
     0
176
     1
 90
        0
176
     1
 40
-0.6
176
     1
 41
-30.0
176
     1
 62
     5
 63
     7
421
 16777215
176
     1
 74
     1
176
     1
 91
        4
176
     1
 64
     7
176
     1
 65
   257
176
     1
 75
     1
176
     1
175
     1
176
     1
 42
1.0
176
     1
 92
        8
176
     1
 66
     7
176
     1
 43
1.0
176
     1
 76
     1
176
     1
 77
     6
176
     1
 78
     2
176
     1
 67
     7
176
     1
 79
     5
176
     1
170
     0
176
     1
171
     0
176
     1
290
     0
176
     1
 93
        1
176
     1
 44
-50.0
176
     1
173
     0
176
     1
  0
VISUALSTYLE
  5
39
102
{ACAD_REACTORS
330
2A
102
}
330
2A
100
AcDbVisualStyle
  2
Facepattern
 70
    15
177
     2
291
     1
 71
     2
176
     1
 72
     2
176
     1
 73
     0
176
     1
 90
        0
176
     1
 40
-0.6
176
     1
 41
-30.0
176
     1
 62
     5
 63
     7
421
 16777215
176
     1
 74
     1
176
     1
 91
        4
176
     1
 64
     7
176
     1
 65
   257
176
     1
 75
     1
176
     1
175
     1
176
     1
 42
1.0
176
     1
 92
        8
176
     1
 66
     7
176
     1
 43
1.0
176
     1
 76
     1
176
     1
 77
     6
176
     1
 78
     2
176
     1
 67
     7
176
     1
 79
     5
176
     1
170
     0
176
     1
171
     0
176
     1
290
     0
176
     1
 93
        1
176
     1
 44
0.0
176
     1
173
     0
176
     1
  0
VISUALSTYLE
  5
2B
102
{ACAD_REACTORS
330
2A
102
}
330
2A
100
AcDbVisualStyle
  2
Flat
 70
     0
177
     2
291
     1
 71
     2
176
     1
 72
     1
176
     1
 73
     1
176
     1
 90
        2
176
     1
 40
-0.6
176
     1
 41
30.0
176
     1
 62
     5
 63
     7
421
 16777215
176
     1
 74
     0
176
     1
 91
        4
176
     1
 64
     7
176
     1
 65
   257
176
     1
 75
     1
176
     1
175
     1
176
     1
 42
1.0
176
     1
 92
        8
176
     1
 66
     7
176
     1
 43
1.0
176
     1
 76
     1
176
     1
 77
     6
176
     1
 78
     2
176
     1
 67
     7
176
     1
 79
     5
176
     1
170
     0
176
     1
171
     0
176
     1
290
     0
176
     1
 93
       13
176
     1
 44
0.0
176
     1
173
     0
176
     1
  0
VISUALSTYLE
  5
2C
102
{ACAD_REACTORS
330
2A
102
}
330
2A
100
AcDbVisualStyle
  2
FlatWithEdges
 70
     1
177
     2
291
     1
 71
     2
176
     1
 72
     1
176
     1
 73
     1
176
     1
 90
        2
176
     1
 40
-0.6
176
     1
 41
30.0
176
     1
 62
     5
 63
     7
421
 16777215
176
     1
 74
     1
176
     1
 91
        4
176
     1
 64
     7
176
     1
 65
   257
176
     1
 75
     1
176
     1
175
     1
176
     1
 42
1.0
176
     1
 92
        0
176
     1
 66
   257
176
     1
 43
1.0
176
     1
 76
     1
176
     1
 77
     6
176
     1
 78
     2
176
     1
 67
     7
176
     1
 79
     5
176
     1
170
     0
176
     1
171
     0
176
     1
290
     0
176
     1
 93
       13
176
     1
 44
0.0
176
     1
173
     0
176
     1
  0
VISUALSTYLE
  5
2D
102
{ACAD_REACTORS
330
2A
102
}
330
2A
100
AcDbVisualStyle
  2
Gouraud
 70
     2
177
     2
291
     1
 71
     2
176
     1
 72
     2
176
     1
 73
     1
176
     1
 90
        2
176
     1
 40
-0.6
176
     1
 41
30.0
176
     1
 62
     5
 63
     7
421
 16777215
176
     1
 74
     0
176
     1
 91
        4
176
     1
 64
     7
176
     1
 65
   257
176
     1
 75
     1
176
     1
175
     1
176
     1
 42
1.0
176
     1
 92
        0
176
     1
 66
     7
176
     1
 43
1.0
176
     1
 76
     1
176
     1
 77
     6
176
     1
 78
     2
176
     1
 67
     7
176
     1
 79
     5
176
     1
170
     0
176
     1
171
     0
176
     1
290
     0
176
     1
 93
       13
176
     1
 44
0.0
176
     1
173
     0
176
     1
  0
VISUALSTYLE
  5
2E
102
{ACAD_REACTORS
330
2A
102
}
330
2A
100
AcDbVisualStyle
  2
GouraudWithEdges
 70
     3
177
     2
291
     1
 71
     2
176
     1
 72
     2
176
     1
 73
     1
176
     1
 90
        2
176
     1
 40
-0.6
176
     1
 41
30.0
176
     1
 62
     5
 63
     7
421
 16777215
176
     1
 74
     1
176
     1
 91
        4
176
     1
 64
     7
176
     1
 65
   257
176
     1
 75
     1
176
     1
175
     1
176
     1
 42
1.0
176
     1
 92
        0
176
     1
 66
   257
176
     1
 43
1.0
176
     1
 76
     1
176
     1
 77
     6
176
     1
 78
     2
176
     1
 67
     7
176
     1
 79
     5
176
     1
170
     0
176
     1
171
     0
176
     1
290
     0
176
     1
 93
       13
176
     1
 44
0.0
176
     1
173
     0
176
     1
  0
VISUALSTYLE
  5
38
102
{ACAD_REACTORS
330
2A
102
}
330
2A
100
AcDbVisualStyle
  2
Linepattern
 70
    14
177
     2
291
     1
 71
     2
176
     1
 72
     2
176
     1
 73
     0
176
     1
 90
        0
176
     1
 40
-0.6
176
     1
 41
-30.0
176
     1
 62
     5
 63
     7
421
 16777215
176
     1
 74
     1
176
     1
 91
        4
176
     1
 64
     7
176
     1
 65
   257
176
     1
 75
     7
176
     1
175
     7
176
     1
 42
1.0
176
     1
 92
        8
176
     1
 66
     7
176
     1
 43
1.0
176
     1
 76
     1
176
     1
 77
     6
176
     1
 78
     2
176
     1
 67
     7
176
     1
 79
     5
176
     1
170
     0
176
     1
171
     0
176
     1
290
     0
176
     1
 93
        1
176
     1
 44
0.0
176
     1
173
     0
176
     1
  0
VISUALSTYLE
  5
33
102
{ACAD_REACTORS
330
2A
102
}
330
2A
100
AcDbVisualStyle
  2
Realistic
 70
     8
177
     2
291
     0
 71
     2
176
     1
 72
     2
176
     1
 73
     0
176
     1
 90
        0
176
     1
 40
-0.6
176
     1
 41
-30.0
176
     1
 62
     5
 63
     7
421
 16777215
176
     1
 74
     1
176
     1
 91
        0
176
     1
 64
     7
176
     1
 65
   257
176
     1
 75
     1
176
     1
175
     1
176
     1
 42
1.0
176
     1
 92
        8
176
     1
 66
     8
424
  7895160
176
     1
 43
1.0
176
     1
 76
     1
176
     1
 77
     6
176
     1
 78
     2
176
     1
 67
     7
176
     1
 79
     5
176
     1
170
     0
176
     1
171
     0
176
     1
290
     0
176
     1
 93
       13
176
     1
 44
0.0
176
     1
173
     0
176
     1
  0
VISUALSTYLE
  5
37
102
{ACAD_REACTORS
330
2A
102
}
330
2A
100
AcDbVisualStyle
  2
Thicken
 70
    13
177
     2
291
     1
 71
     2
176
     1
 72
     2
176
     1
 73
     0
176
     1
 90
        0
176
     1
 40
-0.6
176
     1
 41
-30.0
176
     1
 62
     5
 63
     7
421
 16777215
176
     1
 74
     1
176
     1
 91
        4
176
     1
 64
     7
176
     1
 65
   257
176
     1
 75
     1
176
     1
175
     1
176
     1
 42
1.0
176
     1
 92
       12
176
     1
 66
     7
176
     1
 43
1.0
176
     1
 76
     1
176
     1
 77
     6
176
     1
 78
     2
176
     1
 67
     7
176
     1
 79
     5
176
     1
170
     0
176
     1
171
     0
176
     1
290
     0
176
     1
 93
        1
176
     1
 44
0.0
176
     1
173
     0
176
     1
  0
ENDSEC
  0
EOF
