  0
SECTION
  2
HEADER
  9
$ACADVER
  1
AC1024
  9
$ACADMAINTVER
 70
     6
  9
$DWGCODEPAGE
  3
UNDEFINED
  9
$INSBASE
 10
0.0
 20
0.0
 30
0.0
  9
$EXTMIN
 10
1.000000000000000E+20
 20
1.000000000000000E+20
 30
1.000000000000000E+20
  9
$EXTMAX
 10
-1.000000000000000E+20
 20
-1.000000000000000E+20
 30
-1.000000000000000E+20
  9
$LIMMIN
 10
0.0
 20
0.0
  9
$LIMMAX
 10
12.0
 20
9.0
  9
$ORTHOMODE
 70
     0
  9
$REGENMODE
 70
     1
  9
$FILLMODE
 70
     1
  9
$QTEXTMODE
 70
     0
  9
$MIRRTEXT
 70
     1
  9
$LTSCALE
 40
1.0
  9
$ATTMODE
 70
     1
  9
$TEXTSIZE
 40
0.2
  9
$TRACEWID
 40
0.05
  9
$TEXTSTYLE
  7
Standard
  9
$CLAYER
  8
0
  9
$CELTYPE
  6
ByLayer
  9
$CECOLOR
 62
   256
  9
$CELTSCALE
 40
1.0
  9
$DISPSILH
 70
     0
  9
$DIMSCALE
 40
1.0
  9
$DIMASZ
 40
0.18
  9
$DIMEXO
 40
0.0625
  9
$DIMDLI
 40
0.38
  9
$DIMRND
 40
0.0
  9
$DIMDLE
 40
0.0
  9
$DIMEXE
 40
0.18
  9
$DIMTP
 40
0.0
  9
$DIMTM
 40
0.0
  9
$DIMTXT
 40
0.18
  9
$DIMCEN
 40
0.09
  9
$DIMTSZ
 40
0.0
  9
$DIMTOL
 70
     0
  9
$DIMLIM
 70
     0
  9
$DIMTIH
 70
     1
  9
$DIMTOH
 70
     1
  9
$DIMSE1
 70
     0
  9
$DIMSE2
 70
     0
  9
$DIMTAD
 70
     0
  9
$DIMZIN
 70
     0
  9
$DIMBLK
  1

  9
$DIMASO
 70
     1
  9
$DIMSHO
 70
     1
  9
$DIMPOST
  1

  9
$DIMAPOST
  1

  9
$DIMALT
 70
     0
  9
$DIMALTD
 70
     2
  9
$DIMALTF
 40
25.4
  9
$DIMLFAC
 40
1.0
  9
$DIMTOFL
 70
     0
  9
$DIMTVP
 40
0.0
  9
$DIMTIX
 70
     0
  9
$DIMSOXD
 70
     0
  9
$DIMSAH
 70
     0
  9
$DIMBLK1
  1

  9
$DIMBLK2
  1

  9
$DIMSTYLE
  2
Standard
  9
$DIMCLRD
 70
     0
  9
$DIMCLRE
 70
     0
  9
$DIMCLRT
 70
     0
  9
$DIMTFAC
 40
1.0
  9
$DIMGAP
 40
0.09
  9
$DIMJUST
 70
     0
  9
$DIMSD1
 70
     0
  9
$DIMSD2
 70
     0
  9
$DIMTOLJ
 70
     1
  9
$DIMTZIN
 70
     0
  9
$DIMALTZ
 70
     0
  9
$DIMALTTZ
 70
     0
  9
$DIMUPT
 70
     0
  9
$DIMDEC
 70
     4
  9
$DIMTDEC
 70
     4
  9
$DIMALTU
 70
     2
  9
$DIMALTTD
 70
     2
  9
$DIMTXSTY
  7
Standard
  9
$DIMAUNIT
 70
     0
  9
$DIMADEC
 70
     0
  9
$DIMALTRND
 40
0.0
  9
$DIMAZIN
 70
     0
  9
$DIMDSEP
 70
    46
  9
$DIMATFIT
 70
     3
  9
$DIMFRAC
 70
     0
  9
$DIMLDRBLK
  1

  9
$DIMLUNIT
 70
     2
  9
$DIMLWD
 70
    -2
  9
$DIMLWE
 70
    -2
  9
$DIMTMOVE
 70
     0
  9
$DIMFXL
 40
1.0
  9
$DIMFXLON
 70
     0
  9
$DIMJOGANG
 40
0.7853981633974483
  9
$DIMTFILL
 70
     0
  9
$DIMTFILLCLR
 70
     0
  9
$DIMARCSYM
 70
     0
  9
$DIMLTYPE
  6

  9
$DIMLTEX1
  6

  9
$DIMLTEX2
  6

  9
$DIMTXTDIRECTION
 70
     0
  9
$LUNITS
 70
     2
  9
$LUPREC
 70
     4
  9
$SKETCHINC
 40
0.1
  9
$FILLETRAD
 40
0.5
  9
$AUNITS
 70
     0
  9
$AUPREC
 70
     0
  9
$MENU
  1
.
  9
$ELEVATION
 40
0.0
  9
$PELEVATION
 40
0.0
  9
$THICKNESS
 40
0.0
  9
$LIMCHECK
 70
     0
  9
$CHAMFERA
 40
0.5
  9
$CHAMFERB
 40
0.5
  9
$CHAMFERC
 40
1.0
  9
$CHAMFERD
 40
0.0
  9
$SKPOLY
 70
     0
  9
$TDCREATE
 40
2457917.646238415
  9
$TDUCREATE
 40
2457917.271238426
  9
$TDUPDATE
 40
2457917.646238415
  9
$TDUUPDATE
 40
2457917.271238426
  9
$TDINDWG
 40
0.0000000116
  9
$TDUSRTIMER
 40
0.0000000116
  9
$USRTIMER
 70
     1
  9
$ANGBASE
 50
0.0
  9
$ANGDIR
 70
     0
  9
$PDMODE
 70
     0
  9
$PDSIZE
 40
0.0
  9
$PLINEWID
 40
0.0
  9
$SPLFRAME
 70
     0
  9
$SPLINETYPE
 70
     6
  9
$SPLINESEGS
 70
     8
  9
$HANDSEED
  5
112
  9
$SURFTAB1
 70
     6
  9
$SURFTAB2
 70
     6
  9
$SURFTYPE
 70
     6
  9
$SURFU
 70
     6
  9
$SURFV
 70
     6
  9
$UCSBASE
  2

  9
$UCSNAME
  2

  9
$UCSORG
 10
0.0
 20
0.0
 30
0.0
  9
$UCSXDIR
 10
1.0
 20
0.0
 30
0.0
  9
$UCSYDIR
 10
0.0
 20
1.0
 30
0.0
  9
$UCSORTHOREF
  2

  9
$UCSORTHOVIEW
 70
     0
  9
$UCSORGTOP
 10
0.0
 20
0.0
 30
0.0
  9
$UCSORGBOTTOM
 10
0.0
 20
0.0
 30
0.0
  9
$UCSORGLEFT
 10
0.0
 20
0.0
 30
0.0
  9
$UCSORGRIGHT
 10
0.0
 20
0.0
 30
0.0
  9
$UCSORGFRONT
 10
0.0
 20
0.0
 30
0.0
  9
$UCSORGBACK
 10
0.0
 20
0.0
 30
0.0
  9
$PUCSBASE
  2

  9
$PUCSNAME
  2

  9
$PUCSORG
 10
0.0
 20
0.0
 30
0.0
  9
$PUCSXDIR
 10
1.0
 20
0.0
 30
0.0
  9
$PUCSYDIR
 10
0.0
 20
1.0
 30
0.0
  9
$PUCSORTHOREF
  2

  9
$PUCSORTHOVIEW
 70
     0
  9
$PUCSORGTOP
 10
0.0
 20
0.0
 30
0.0
  9
$PUCSORGBOTTOM
 10
0.0
 20
0.0
 30
0.0
  9
$PUCSORGLEFT
 10
0.0
 20
0.0
 30
0.0
  9
$PUCSORGRIGHT
 10
0.0
 20
0.0
 30
0.0
  9
$PUCSORGFRONT
 10
0.0
 20
0.0
 30
0.0
  9
$PUCSORGBACK
 10
0.0
 20
0.0
 30
0.0
  9
$USERI1
 70
     0
  9
$USERI2
 70
     0
  9
$USERI3
 70
     0
  9
$USERI4
 70
     0
  9
$USERI5
 70
     0
  9
$USERR1
 40
0.0
  9
$USERR2
 40
0.0
  9
$USERR3
 40
0.0
  9
$USERR4
 40
0.0
  9
$USERR5
 40
0.0
  9
$WORLDVIEW
 70
     1
  9
$SHADEDGE
 70
     3
  9
$SHADEDIF
 70
    70
  9
$TILEMODE
 70
     1
  9
$MAXACTVP
 70
    64
  9
$PINSBASE
 10
0.0
 20
0.0
 30
0.0
  9
$PLIMCHECK
 70
     0
  9
$PEXTMIN
 10
1.000000000000000E+20
 20
1.000000000000000E+20
 30
1.000000000000000E+20
  9
$PEXTMAX
 10
-1.000000000000000E+20
 20
-1.000000000000000E+20
 30
-1.000000000000000E+20
  9
$PLIMMIN
 10
0.0
 20
0.0
  9
$PLIMMAX
 10
12.0
 20
9.0
  9
$UNITMODE
 70
     0
  9
$VISRETAIN
 70
     1
  9
$PLINEGEN
 70
     0
  9
$PSLTSCALE
 70
     1
  9
$TREEDEPTH
 70
  3020
  9
$CMLSTYLE
  2
Standard
  9
$CMLJUST
 70
     0
  9
$CMLSCALE
 40
1.0
  9
$PROXYGRAPHICS
 70
     1
  9
$MEASUREMENT
 70
     0
  9
$CELWEIGHT
370
    -1
  9
$ENDCAPS
280
     0
  9
$JOINSTYLE
280
     0
  9
$LWDISPLAY
290
     1
  9
$INSUNITS
 70
     1
  9
$HYPERLINKBASE
  1

  9
$STYLESHEET
  1

  9
$XEDIT
290
     1
  9
$CEPSNTYPE
380
     0
  9
$PSTYLEMODE
290
     1
  9
$FINGERPRINTGUID
  2
{58F02F77-6BE7-34C0-AAF2-7B4F90950DF5}
  9
$VERSIONGUID
  2
{FAEB1C32-E019-11D5-929B-00C0DF256EC4}
  9
$EXTNAMES
290
     1
  9
$PSVPSCALE
 40
0.0
  9
$OLESTARTUP
290
     0
  9
$SORTENTS
280
   127
  9
$INDEXCTL
280
     0
  9
$HIDETEXT
280
     1
  9
$XCLIPFRAME
280
     2
  9
$HALOGAP
280
     0
  9
$OBSCOLOR
 70
   257
  9
$OBSLTYPE
280
     0
  9
$INTERSECTIONDISPLAY
280
     0
  9
$INTERSECTIONCOLOR
 70
   257
  9
$DIMASSOC
280
     2
  9
$PROJECTNAME
  1

  9
$CAMERADISPLAY
290
     0
  9
$LENSLENGTH
 40
50.0
  9
$CAMERAHEIGHT
 40
0.0
  9
$STEPSPERSEC
 40
2.0
  9
$STEPSIZE
 40
6.0
  9
$3DDWFPREC
 40
2.0
  9
$PSOLWIDTH
 40
0.25
  9
$PSOLHEIGHT
 40
4.0
  9
$LOFTANG1
 40
1.570796326794897
  9
$LOFTANG2
 40
1.570796326794897
  9
$LOFTMAG1
 40
0.0
  9
$LOFTMAG2
 40
0.0
  9
$LOFTPARAM
 70
     7
  9
$LOFTNORMALS
280
     1
  9
$LATITUDE
 40
37.795
  9
$LONGITUDE
 40
-122.394
  9
$NORTHDIRECTION
 40
0.0
  9
$TIMEZONE
 70
 -8000
  9
$LIGHTGLYPHDISPLAY
280
     1
  9
$TILEMODELIGHTSYNCH
280
     1
  9
$CMATERIAL
347
3C
  9
$SOLIDHIST
280
     1
  9
$SHOWHIST
280
     1
  9
$DWFFRAME
280
     2
  9
$DGNFRAME
280
     2
  9
$REALWORLDSCALE
290
     1
  9
$INTERFERECOLOR
 62
   256
  9
$CSHADOW
280
     0
  9
$SHADOWPLANELOCATION
 40
0.0
  0
ENDSEC
  0
SECTION
  2
CLASSES
  0
CLASS
  1
ACDBDICTIONARYWDFLT
  2
AcDbDictionaryWithDefault
  3
ObjectDBX Classes
 90
        0
 91
        4
280
     0
281
     0
  0
CLASS
  1
VISUALSTYLE
  2
AcDbVisualStyle
  3
ObjectDBX Classes
 90
     4095
 91
        4
280
     0
281
     0
  0
CLASS
  1
MATERIAL
  2
AcDbMaterial
  3
ObjectDBX Classes
 90
     1153
 91
        4
280
     0
281
     0
  0
CLASS
  1
SUN
  2
AcDbSun
  3
SCENEOE
 90
     1024
 91
        4
280
     0
281
     0
  0
ENDSEC
  0
SECTION
  2
TABLES
  0
TABLE
  2
VPORT
  5
8
330
0
100
AcDbSymbolTable
 70
     1
  0
VPORT
  5
29
330
8
100
AcDbSymbolTableRecord
100
AcDbViewportTableRecord
  2
*Active
 70
     0
 10
0.0
 20
0.0
 11
1.0
 21
1.0
 12
0.0
 22
0.0
 13
0.0
 23
0.0
 14
0.5
 24
0.5
 15
0.5
 25
0.5
 16
0.0
 26
0.0
 36
1.0
 17
91.00082462281999
 27
-128.4993055234307
 37
0.0
 40
256.9986110468615
 41
0.7081814508812795
 42
50.0
 43
0.0
 44
0.0
 50
0.0
 51
0.0
 71
     0
 72
   100
 73
     1
 74
     3
 75
     0
 76
     0
 77
     0
 78
     0
281
     0
 65
     1
110
0.0
120
0.0
130
0.0
111
1.0
121
0.0
131
0.0
112
0.0
122
1.0
132
0.0
 79
     0
146
0.0
 60
     3
 61
     5
292
     1
282
     1
141
0.0
142
0.0
 63
   250
361
3F
  0
ENDTAB
  0
TABLE
  2
LTYPE
  5
5
330
0
100
AcDbSymbolTable
 70
     1
  0
LTYPE
  5
14
330
5
100
AcDbSymbolTableRecord
100
AcDbLinetypeTableRecord
  2
ByBlock
 70
     0
  3

 72
    65
 73
     0
 40
0.0
  0
LTYPE
  5
15
330
5
100
AcDbSymbolTableRecord
100
AcDbLinetypeTableRecord
  2
ByLayer
 70
     0
  3

 72
    65
 73
     0
 40
0.0
  0
LTYPE
  5
16
330
5
100
AcDbSymbolTableRecord
100
AcDbLinetypeTableRecord
  2
Continuous
 70
     0
  3
Solid line
 72
    65
 73
     0
 40
0.0
  0
ENDTAB
  0
TABLE
  2
LAYER
  5
2
330
0
100
AcDbSymbolTable
 70
     2
  0
LAYER
  5
10
330
2
100
AcDbSymbolTableRecord
100
AcDbLayerTableRecord
  2
0
 70
     0
 62
     7
  6
Continuous
370
    -3
390
F
347
3E
  0
LAYER
  5
40
330
2
100
AcDbSymbolTableRecord
100
AcDbLayerTableRecord
  2
_U+30EC_U+30A4_U+30E4_U+30FC 1
 70
     0
 62
     7
  6
Continuous
370
    -3
390
F
347
3E
  0
ENDTAB
  0
TABLE
  2
STYLE
  5
3
330
0
100
AcDbSymbolTable
 70
     1
  0
STYLE
  5
11
330
3
100
AcDbSymbolTableRecord
100
AcDbTextStyleTableRecord
  2
Standard
 70
     0
 40
0.0
 41
1.0
 50
0.0
 71
     0
 42
0.2
  3
txt
  4

  0
ENDTAB
  0
TABLE
  2
VIEW
  5
6
330
0
100
AcDbSymbolTable
 70
     0
  0
ENDTAB
  0
TABLE
  2
UCS
  5
7
330
0
100
AcDbSymbolTable
 70
     0
  0
ENDTAB
  0
TABLE
  2
APPID
  5
9
330
0
100
AcDbSymbolTable
 70
     1
  0
APPID
  5
12
330
9
100
AcDbSymbolTableRecord
100
AcDbRegAppTableRecord
  2
ACAD
 70
     0
  0
ENDTAB
  0
TABLE
  2
DIMSTYLE
  5
A
330
0
100
AcDbSymbolTable
 70
     1
100
AcDbDimStyleTable
  0
DIMSTYLE
105
27
330
A
100
AcDbSymbolTableRecord
100
AcDbDimStyleTableRecord
  2
Standard
 70
     0
178
     0
340
11
  0
ENDTAB
  0
TABLE
  2
BLOCK_RECORD
  5
1
330
0
100
AcDbSymbolTable
 70
     6
  0
BLOCK_RECORD
  5
1F
330
1
100
AcDbSymbolTableRecord
100
AcDbBlockTableRecord
  2
*Model_Space
340
22
 70
     0
280
     1
281
     0
  0
BLOCK_RECORD
  5
1B
330
1
100
AcDbSymbolTableRecord
100
AcDbBlockTableRecord
  2
*Paper_Space
340
1E
 70
     0
280
     1
281
     0
  0
BLOCK_RECORD
  5
23
330
1
100
AcDbSymbolTableRecord
100
AcDbBlockTableRecord
  2
*Paper_Space0
340
26
 70
     0
280
     1
281
     0
  0
BLOCK_RECORD
  5
41
330
1
100
AcDbSymbolTableRecord
100
AcDbBlockTableRecord
  2
block 2
340
0
102
{BLKREFS
331
42
102
}
 70
     0
280
     1
281
     0
  0
BLOCK_RECORD
  5
D5
330
1
100
AcDbSymbolTableRecord
100
AcDbBlockTableRecord
  2
block 3
340
0
102
{BLKREFS
331
D6
102
}
 70
     0
280
     1
281
     0
  0
BLOCK_RECORD
  5
DE
330
1
100
AcDbSymbolTableRecord
100
AcDbBlockTableRecord
  2
block 4
340
0
102
{BLKREFS
331
DF
102
}
 70
     0
280
     1
281
     0
  0
BLOCK_RECORD
  5
E6
330
1
100
AcDbSymbolTableRecord
100
AcDbBlockTableRecord
  2
block 5
340
0
102
{BLKREFS
331
E7
102
}
 70
     0
280
     1
281
     0
  0
BLOCK_RECORD
  5
F2
330
1
100
AcDbSymbolTableRecord
100
AcDbBlockTableRecord
  2
block 6
340
0
102
{BLKREFS
331
F3
102
}
 70
     0
280
     1
281
     0
  0
ENDTAB
  0
ENDSEC
  0
SECTION
  2
BLOCKS
  0
BLOCK
  5
20
330
1F
100
AcDbEntity
  8
0
100
AcDbBlockBegin
  2
*Model_Space
 70
     0
 10
0.0
 20
0.0
 30
0.0
  3
*Model_Space
  1

  0
ENDBLK
  5
21
330
1F
100
AcDbEntity
  8
0
100
AcDbBlockEnd
  0
BLOCK
  5
1C
330
1B
100
AcDbEntity
 67
     1
  8
0
100
AcDbBlockBegin
  2
*Paper_Space
 70
     0
 10
0.0
 20
0.0
 30
0.0
  3
*Paper_Space
  1

  0
ENDBLK
  5
1D
330
1B
100
AcDbEntity
 67
     1
  8
0
100
AcDbBlockEnd
  0
BLOCK
  5
24
330
23
100
AcDbEntity
  8
0
100
AcDbBlockBegin
  2
*Paper_Space0
 70
     0
 10
0.0
 20
0.0
 30
0.0
  3
*Paper_Space0
  1

  0
ENDBLK
  5
25
330
23
100
AcDbEntity
  8
0
100
AcDbBlockEnd
  0
BLOCK
  5
43
330
41
100
AcDbEntity
  8
0
100
AcDbBlockBegin
  2
block 2
 70
     0
 10
0.0
 20
0.0
 30
0.0
  3
block 2
  1

  0
SPLINE
  5
45
330
41
100
AcDbEntity
  8
_U+30EC_U+30A4_U+30E4_U+30FC 1
 62
     7
420
 15004408
370
     9
100
AcDbSpline
210
0.0
220
0.0
230
1.0
 70
    11
 71
     3
 72
    62
 73
    58
 74
     0
 42
0.0000000001
 43
0.0000000001
 12
1.0
 22
0.0
 32
0.0
 13
1.0
 23
0.0
 33
0.0
 40
0.0
 40
0.0
 40
0.0
 40
0.0
 40
1.0
 40
1.0
 40
1.0
 40
2.0
 40
2.0
 40
2.0
 40
3.0
 40
3.0
 40
3.0
 40
4.0
 40
4.0
 40
4.0
 40
5.0
 40
5.0
 40
5.0
 40
6.0
 40
6.0
 40
6.0
 40
7.0
 40
7.0
 40
7.0
 40
8.0
 40
8.0
 40
8.0
 40
9.0
 40
9.0
 40
9.0
 40
10.0
 40
10.0
 40
10.0
 40
11.0
 40
11.0
 40
11.0
 40
12.0
 40
12.0
 40
12.0
 40
13.0
 40
13.0
 40
13.0
 40
14.0
 40
14.0
 40
14.0
 40
15.0
 40
15.0
 40
15.0
 40
16.0
 40
16.0
 40
16.0
 40
17.0
 40
17.0
 40
17.0
 40
18.0
 40
18.0
 40
18.0
 40
19.0
 40
19.0
 40
19.0
 40
19.0
 10
86.55783556950342
 20
-117.4791274706302
 30
0.0
 10
86.55783556950342
 20
-117.4791274706302
 30
0.0
 10
86.55783556950342
 20
-118.0082941371646
 30
0.0
 10
86.55783556950342
 20
-118.0082941371646
 30
0.0
 10
86.55783556950342
 20
-118.0082941371646
 30
0.0
 10
92.55523402760815
 20
-121.5360719140604
 30
0.0
 10
92.55523402760815
 20
-121.5360719140604
 30
0.0
 10
92.55523402760815
 20
-121.5360719140604
 30
0.0
 10
92.61379513722524
 20
-126.9455663571524
 30
0.0
 10
92.61379513722524
 20
-126.9455663571524
 30
0.0
 10
92.61379513722524
 20
-126.9455663571524
 30
0.0
 10
89.85048687438977
 20
-130.3555163562997
 30
0.0
 10
89.85048687438977
 20
-130.3555163562997
 30
0.0
 10
89.85048687438977
 20
-130.3555163562997
 30
0.0
 10
89.73283548850242
 20
-134.5888496885747
 30
0.0
 10
89.73283548850242
 20
-134.5888496885747
 30
0.0
 10
89.73283548850242
 20
-134.5888496885747
 30
0.0
 10
88.85089106655826
 20
-135.2358441328577
 30
0.0
 10
88.85089106655826
 20
-135.2358441328577
 30
0.0
 10
88.85089106655826
 20
-135.2358441328577
 30
0.0
 10
88.67450218216942
 20
-135.7060969105181
 30
0.0
 10
88.67450218216942
 20
-135.7060969105181
 30
0.0
 10
88.67450218216942
 20
-135.7060969105181
 30
0.0
 10
88.67450218216942
 20
-140.9977635758618
 30
0.0
 10
88.67450218216942
 20
-140.9977635758618
 30
0.0
 10
88.67450218216942
 20
-140.9977635758618
 30
0.0
 10
88.02768414311556
 20
-141.1745052424844
 30
0.0
 10
88.02768414311556
 20
-141.5858441312702
 30
0.0
 10
88.02768414311556
 20
-141.5858441312702
 30
0.0
 10
88.2040730275044
 20
-143.3497330197181
 30
0.0
 10
88.2040730275044
 20
-143.3497330197181
 30
0.0
 10
88.2040730275044
 20
-143.3497330197181
 30
0.0
 10
88.90962856505973
 20
-144.466627463883
 30
0.0
 10
89.61518410261507
 20
-143.9374607973486
 30
0.0
 10
89.61518410261507
 20
-143.9374607973486
 30
0.0
 10
89.61518410261507
 20
-145.5838746858264
 30
0.0
 10
89.61518410261507
 20
-145.5838746858264
 30
0.0
 10
89.61518410261507
 20
-145.5838746858264
 30
0.0
 10
90.14435075578157
 20
-145.7017024635743
 30
0.0
 10
90.14435075578157
 20
-145.7017024635743
 30
0.0
 10
90.14435075578157
 20
-145.7017024635743
 30
0.0
 10
95.43601728744657
 20
-142.5852635754649
 30
0.0
 10
95.43601728744657
 20
-142.5852635754649
 30
0.0
 10
95.43601728744657
 20
-142.5852635754649
 30
0.0
 10
95.37745617782949
 20
-127.9449858013472
 30
0.0
 10
95.37745617782949
 20
-127.9449858013472
 30
0.0
 10
95.37745617782949
 20
-127.9449858013472
 30
0.0
 10
98.25823943766791
 20
-124.2408191356066
 30
0.0
 10
98.25823943766791
 20
-124.2408191356066
 30
0.0
 10
98.25823943766791
 20
-124.2408191356066
 30
0.0
 10
98.19967832805082
 20
-118.4199858037285
 30
0.0
 10
98.19967832805082
 20
-118.4199858037285
 30
0.0
 10
98.19967832805082
 20
-118.4199858037285
 30
0.0
 10
91.73185071528107
 20
-114.598344138017
 30
0.0
 10
91.73185071528107
 20
-114.598344138017
 30
0.0
 10
91.73185071528107
 20
-114.598344138017
 30
0.0
 10
86.55783556950342
 20
-117.4791274706302
 30
0.0
 10
86.55783556950342
 20
-117.4791274706302
 30
0.0
  0
POLYLINE
  5
46
330
41
100
AcDbEntity
  8
_U+30EC_U+30A4_U+30E4_U+30FC 1
 62
   179
420
  2234388
370
     9
100
AcDb2dPolyline
 66
     1
 10
0.0
 20
0.0
 30
0.0
  0
VERTEX
  5
47
330
46
100
AcDbEntity
  8
_U+30EC_U+30A4_U+30E4_U+30FC 1
 62
   179
420
  2234388
370
     9
100
AcDbVertex
100
AcDb2dVertex
 10
91.73185071528107
 20
-114.598344138017
 30
0.0
  0
VERTEX
  5
48
330
46
100
AcDbEntity
  8
_U+30EC_U+30A4_U+30E4_U+30FC 1
 62
   179
420
  2234388
370
     9
100
AcDbVertex
100
AcDb2dVertex
 10
86.55783556950342
 20
-117.4791274706302
 30
0.0
  0
VERTEX
  5
49
330
46
100
AcDbEntity
  8
_U+30EC_U+30A4_U+30E4_U+30FC 1
 62
   179
420
  2234388
370
     9
100
AcDbVertex
100
AcDb2dVertex
 10
86.55783556950342
 20
-117.9497330260681
 30
0.0
  0
VERTEX
  5
4A
330
46
100
AcDbEntity
  8
_U+30EC_U+30A4_U+30E4_U+30FC 1
 62
   179
420
  2234388
370
     9
100
AcDbVertex
100
AcDb2dVertex
 10
92.61379513722524
 20
-121.5360719140604
 30
0.0
  0
VERTEX
  5
4B
330
46
100
AcDbEntity
  8
_U+30EC_U+30A4_U+30E4_U+30FC 1
 62
   179
420
  2234388
370
     9
100
AcDbVertex
100
AcDb2dVertex
 10
92.61379513722524
 20
-126.9455663571524
 30
0.0
  0
VERTEX
  5
4C
330
46
100
AcDbEntity
  8
_U+30EC_U+30A4_U+30E4_U+30FC 1
 62
   179
420
  2234388
370
     9
100
AcDbVertex
100
AcDb2dVertex
 10
89.7915729870039
 20
-130.4144302451743
 30
0.0
  0
VERTEX
  5
4D
330
46
100
AcDbEntity
  8
_U+30EC_U+30A4_U+30E4_U+30FC 1
 62
   179
420
  2234388
370
     9
100
AcDbVertex
100
AcDb2dVertex
 10
89.61518410261507
 20
-145.5249607969518
 30
0.0
  0
VERTEX
  5
4E
330
46
100
AcDbEntity
  8
_U+30EC_U+30A4_U+30E4_U+30FC 1
 62
   179
420
  2234388
370
     9
100
AcDbVertex
100
AcDb2dVertex
 10
90.08561325728009
 20
-145.7013496857966
 30
0.0
  0
VERTEX
  5
4F
330
46
100
AcDbEntity
  8
_U+30EC_U+30A4_U+30E4_U+30FC 1
 62
   179
420
  2234388
370
     9
100
AcDbVertex
100
AcDb2dVertex
 10
95.37745617782949
 20
-142.6441774643389
 30
0.0
  0
VERTEX
  5
50
330
46
100
AcDbEntity
  8
_U+30EC_U+30A4_U+30E4_U+30FC 1
 62
   179
420
  2234388
370
     9
100
AcDbVertex
100
AcDb2dVertex
 10
95.37745617782949
 20
-127.8860719124729
 30
0.0
  0
VERTEX
  5
51
330
46
100
AcDbEntity
  8
_U+30EC_U+30A4_U+30E4_U+30FC 1
 62
   179
420
  2234388
370
     9
100
AcDbVertex
100
AcDb2dVertex
 10
98.25823943766791
 20
-124.2408191356066
 30
0.0
  0
VERTEX
  5
52
330
46
100
AcDbEntity
  8
_U+30EC_U+30A4_U+30E4_U+30FC 1
 62
   179
420
  2234388
370
     9
100
AcDbVertex
100
AcDb2dVertex
 10
98.25823943766791
 20
-118.4199858037285
 30
0.0
  0
VERTEX
  5
53
330
46
100
AcDbEntity
  8
_U+30EC_U+30A4_U+30E4_U+30FC 1
 62
   179
420
  2234388
370
     9
100
AcDbVertex
100
AcDb2dVertex
 10
91.73185071528107
 20
-114.598344138017
 30
0.0
  0
SEQEND
  5
54
330
46
100
AcDbEntity
  8
_U+30EC_U+30A4_U+30E4_U+30FC 1
 62
   179
420
  2234388
370
     9
  0
POLYLINE
  5
55
330
41
100
AcDbEntity
  8
_U+30EC_U+30A4_U+30E4_U+30FC 1
 62
   179
420
  2234388
370
     9
100
AcDb2dPolyline
 66
     1
 10
0.0
 20
0.0
 30
0.0
  0
VERTEX
  5
56
330
55
100
AcDbEntity
  8
_U+30EC_U+30A4_U+30E4_U+30FC 1
 62
   179
420
  2234388
370
     9
100
AcDbVertex
100
AcDb2dVertex
 10
93.14296179039174
 20
-120.6541274698365
 30
0.0
  0
VERTEX
  5
57
330
55
100
AcDbEntity
  8
_U+30EC_U+30A4_U+30E4_U+30FC 1
 62
   179
420
  2234388
370
     9
100
AcDbVertex
100
AcDb2dVertex
 10
97.25850251872889
 20
-118.3025108037577
 30
0.0
  0
SEQEND
  5
58
330
55
100
AcDbEntity
  8
_U+30EC_U+30A4_U+30E4_U+30FC 1
 62
   179
420
  2234388
370
     9
  0
POLYLINE
  5
59
330
41
100
AcDbEntity
  8
_U+30EC_U+30A4_U+30E4_U+30FC 1
 62
   179
420
  2234388
370
     9
100
AcDb2dPolyline
 66
     1
 10
0.0
 20
0.0
 30
0.0
  0
VERTEX
  5
5A
330
59
100
AcDbEntity
  8
_U+30EC_U+30A4_U+30E4_U+30FC 1
 62
   179
420
  2234388
370
     9
100
AcDbVertex
100
AcDb2dVertex
 10
93.67212844355824
 20
-121.5949858029347
 30
0.0
  0
VERTEX
  5
5B
330
59
100
AcDbEntity
  8
_U+30EC_U+30A4_U+30E4_U+30FC 1
 62
   179
420
  2234388
370
     9
100
AcDbVertex
100
AcDb2dVertex
 10
97.61128028750655
 20
-119.2430163590781
 30
0.0
  0
SEQEND
  5
5C
330
59
100
AcDbEntity
  8
_U+30EC_U+30A4_U+30E4_U+30FC 1
 62
   179
420
  2234388
370
     9
  0
POLYLINE
  5
5D
330
41
100
AcDbEntity
  8
_U+30EC_U+30A4_U+30E4_U+30FC 1
 62
   179
420
  2234388
370
     9
100
AcDb2dPolyline
 66
     1
 10
0.0
 20
0.0
 30
0.0
  0
VERTEX
  5
5E
330
5D
100
AcDbEntity
  8
_U+30EC_U+30A4_U+30E4_U+30FC 1
 62
   179
420
  2234388
370
     9
100
AcDbVertex
100
AcDb2dVertex
 10
93.55433594656338
 20
-126.8866524682785
 30
0.0
  0
VERTEX
  5
5F
330
5D
100
AcDbEntity
  8
_U+30EC_U+30A4_U+30E4_U+30FC 1
 62
   179
420
  2234388
370
     9
100
AcDbVertex
100
AcDb2dVertex
 10
97.67051167488432
 20
-124.5935969132962
 30
0.0
  0
SEQEND
  5
60
330
5D
100
AcDbEntity
  8
_U+30EC_U+30A4_U+30E4_U+30FC 1
 62
   179
420
  2234388
370
     9
  0
POLYLINE
  5
61
330
41
100
AcDbEntity
  8
_U+30EC_U+30A4_U+30E4_U+30FC 1
 62
   179
420
  2234388
370
     9
100
AcDb2dPolyline
 66
     1
 10
0.0
 20
0.0
 30
0.0
  0
VERTEX
  5
62
330
61
100
AcDbEntity
  8
_U+30EC_U+30A4_U+30E4_U+30FC 1
 62
   179
420
  2234388
370
     9
100
AcDbVertex
100
AcDb2dVertex
 10
91.08503267622721
 20
-130.4144302451743
 30
0.0
  0
VERTEX
  5
63
330
61
100
AcDbEntity
  8
_U+30EC_U+30A4_U+30E4_U+30FC 1
 62
   179
420
  2234388
370
     9
100
AcDbVertex
100
AcDb2dVertex
 10
94.73046174989125
 20
-128.2388496901625
 30
0.0
  0
SEQEND
  5
64
330
61
100
AcDbEntity
  8
_U+30EC_U+30A4_U+30E4_U+30FC 1
 62
   179
420
  2234388
370
     9
  0
SPLINE
  5
65
330
41
100
AcDbEntity
  8
_U+30EC_U+30A4_U+30E4_U+30FC 1
 62
   179
420
  2234388
370
     9
100
AcDbSpline
210
0.0
220
0.0
230
1.0
 70
     8
 71
     3
 72
    20
 73
    16
 74
     0
 42
0.0000000001
 43
0.0000000001
 12
1.0
 22
0.0
 32
0.0
 13
1.0
 23
0.0
 33
0.0
 40
0.0
 40
0.0
 40
0.0
 40
0.0
 40
1.0
 40
1.0
 40
1.0
 40
2.0
 40
2.0
 40
2.0
 40
3.0
 40
3.0
 40
3.0
 40
4.0
 40
4.0
 40
4.0
 40
5.0
 40
5.0
 40
5.0
 40
5.0
 10
86.55783556950342
 20
-117.4791274706302
 30
0.0
 10
86.55783556950342
 20
-117.4791274706302
 30
0.0
 10
92.02606737444165
 20
-120.7130413587108
 30
0.0
 10
92.02606737444165
 20
-120.7130413587108
 30
0.0
 10
92.02606737444165
 20
-120.7130413587108
 30
0.0
 10
93.08440068077465
 20
-121.1836469141486
 30
0.0
 10
93.08440068077465
 20
-122.1830663583431
 30
0.0
 10
93.08440068077465
 20
-122.1830663583431
 30
0.0
 10
93.08440068077465
 20
-127.1219552459972
 30
0.0
 10
93.08440068077465
 20
-127.1219552459972
 30
0.0
 10
93.08440068077465
 20
-127.1219552459972
 30
0.0
 10
90.14435075578157
 20
-130.8261219117379
 30
0.0
 10
90.14435075578157
 20
-130.8261219117379
 30
0.0
 10
90.14435075578157
 20
-130.8261219117379
 30
0.0
 10
90.14435075578157
 20
-145.7013496857966
 30
0.0
 10
90.14435075578157
 20
-145.7013496857966
 30
0.0
  0
SPLINE
  5
66
330
41
100
AcDbEntity
  8
_U+30EC_U+30A4_U+30E4_U+30FC 1
 62
   179
420
  2234388
370
     9
100
AcDbSpline
210
0.0
220
0.0
230
1.0
 70
     8
 71
     3
 72
    17
 73
    13
 74
     0
 42
0.0000000001
 43
0.0000000001
 12
1.0
 22
0.0
 32
0.0
 13
1.0
 23
0.0
 33
0.0
 40
0.0
 40
0.0
 40
0.0
 40
0.0
 40
1.0
 40
1.0
 40
1.0
 40
2.0
 40
2.0
 40
2.0
 40
3.0
 40
3.0
 40
3.0
 40
4.0
 40
4.0
 40
4.0
 40
4.0
 10
93.52537289174673
 20
-137.8231163544333
 30
0.0
 10
93.52537289174673
 20
-137.8231163544333
 30
0.0
 10
93.31935067478058
 20
-137.0586469101795
 30
0.0
 10
93.31935067478058
 20
-137.0586469101795
 30
0.0
 10
93.31935067478058
 20
-137.0586469101795
 30
0.0
 10
92.52560069503082
 20
-136.881905243557
 30
0.0
 10
92.02606737444165
 20
-137.9698719099519
 30
0.0
 10
92.02606737444165
 20
-137.9698719099519
 30
0.0
 10
91.61437571827811
 20
-139.3224219096141
 30
0.0
 10
92.55523402760815
 20
-139.1460330207693
 30
0.0
 10
92.55523402760815
 20
-139.1460330207693
 30
0.0
 10
92.96657290600291
 20
-138.8518163541759
 30
0.0
 10
92.96657290600291
 20
-138.8518163541759
 30
0.0
  0
SPLINE
  5
67
330
41
100
AcDbEntity
  8
_U+30EC_U+30A4_U+30E4_U+30FC 1
 62
   179
420
  2234388
370
     9
100
AcDbSpline
210
0.0
220
0.0
230
1.0
 70
    11
 71
     3
 72
    17
 73
    13
 74
     0
 42
0.0000000001
 43
0.0000000001
 12
1.0
 22
0.0
 32
0.0
 13
1.0
 23
0.0
 33
0.0
 40
0.0
 40
0.0
 40
0.0
 40
0.0
 40
1.0
 40
1.0
 40
1.0
 40
2.0
 40
2.0
 40
2.0
 40
3.0
 40
3.0
 40
3.0
 40
4.0
 40
4.0
 40
4.0
 40
4.0
 10
94.34808592631313
 20
-131.0614246894566
 30
0.0
 10
94.34808592631313
 20
-131.0614246894566
 30
0.0
 10
94.34808592631313
 20
-141.2330663535806
 30
0.0
 10
94.34808592631313
 20
-141.2330663535806
 30
0.0
 10
94.34808592631313
 20
-141.2330663535806
 30
0.0
 10
94.49551175588532
 20
-141.703319131241
 30
0.0
 10
94.84828952466299
 20
-140.880288575891
 30
0.0
 10
94.84828952466299
 20
-140.880288575891
 30
0.0
 10
94.84828952466299
 20
-130.6793663562193
 30
0.0
 10
94.84828952466299
 20
-130.6793663562193
 30
0.0
 10
94.84828952466299
 20
-130.6793663562193
 30
0.0
 10
94.52447481070196
 20
-130.3265885785297
 30
0.0
 10
94.34808592631313
 20
-131.0614246894566
 30
0.0
  0
SPLINE
  5
68
330
41
100
AcDbEntity
  8
_U+30EC_U+30A4_U+30E4_U+30FC 1
 62
   179
420
  2234388
370
     9
100
AcDbSpline
210
0.0
220
0.0
230
1.0
 70
    11
 71
     3
 72
    17
 73
    13
 74
     0
 42
0.0000000001
 43
0.0000000001
 12
1.0
 22
0.0
 32
0.0
 13
1.0
 23
0.0
 33
0.0
 40
0.0
 40
0.0
 40
0.0
 40
0.0
 40
1.0
 40
1.0
 40
1.0
 40
2.0
 40
2.0
 40
2.0
 40
3.0
 40
3.0
 40
3.0
 40
4.0
 40
4.0
 40
4.0
 40
4.0
 10
90.67351740894807
 20
-133.2073719111426
 30
0.0
 10
90.67351740894807
 20
-133.2073719111426
 30
0.0
 10
90.67351740894807
 20
-143.2615385752957
 30
0.0
 10
90.67351740894807
 20
-143.2615385752957
 30
0.0
 10
90.67351740894807
 20
-143.2615385752957
 30
0.0
 10
90.90864379183839
 20
-143.6728774640815
 30
0.0
 10
91.11448961992015
 20
-143.1733441308733
 30
0.0
 10
91.11448961992015
 20
-143.1733441308733
 30
0.0
 10
91.11448961992015
 20
-132.7078385779344
 30
0.0
 10
91.11448961992015
 20
-132.7078385779344
 30
0.0
 10
91.11448961992015
 20
-132.7078385779344
 30
0.0
 10
90.73225490744956
 20
-132.5603774668596
 30
0.0
 10
90.67351740894807
 20
-133.2073719111426
 30
0.0
  0
POLYLINE
  5
69
330
41
100
AcDbEntity
  8
_U+30EC_U+30A4_U+30E4_U+30FC 1
 62
   179
420
  2234388
370
     9
100
AcDb2dPolyline
 66
     1
 10
0.0
 20
0.0
 30
0.0
  0
VERTEX
  5
6A
330
69
100
AcDbEntity
  8
_U+30EC_U+30A4_U+30E4_U+30FC 1
 62
   179
420
  2234388
370
     9
100
AcDbVertex
100
AcDb2dVertex
 10
91.55546183089224
 20
-134.5892024663525
 30
0.0
  0
VERTEX
  5
6B
330
69
100
AcDbEntity
  8
_U+30EC_U+30A4_U+30E4_U+30FC 1
 62
   179
420
  2234388
370
     9
100
AcDbVertex
100
AcDb2dVertex
 10
91.55546183089224
 20
-135.4711469105764
 30
0.0
  0
VERTEX
  5
6C
330
69
100
AcDbEntity
  8
_U+30EC_U+30A4_U+30E4_U+30FC 1
 62
   179
420
  2234388
370
     9
100
AcDbVertex
100
AcDb2dVertex
 10
93.96634510271882
 20
-134.1189496886927
 30
0.0
  0
VERTEX
  5
6D
330
69
100
AcDbEntity
  8
_U+30EC_U+30A4_U+30E4_U+30FC 1
 62
   179
420
  2234388
370
     9
100
AcDbVertex
100
AcDb2dVertex
 10
93.96634510271882
 20
-133.2662858000165
 30
0.0
  0
VERTEX
  5
6E
330
69
100
AcDbEntity
  8
_U+30EC_U+30A4_U+30E4_U+30FC 1
 62
   179
420
  2234388
370
     9
100
AcDbVertex
100
AcDb2dVertex
 10
91.55546183089224
 20
-134.5892024663525
 30
0.0
  0
SEQEND
  5
6F
330
69
100
AcDbEntity
  8
_U+30EC_U+30A4_U+30E4_U+30FC 1
 62
   179
420
  2234388
370
     9
  0
POLYLINE
  5
70
330
41
100
AcDbEntity
  8
_U+30EC_U+30A4_U+30E4_U+30FC 1
 62
   179
420
  2234388
370
     9
100
AcDb2dPolyline
 66
     1
 10
0.0
 20
0.0
 30
0.0
  0
VERTEX
  5
71
330
70
100
AcDbEntity
  8
_U+30EC_U+30A4_U+30E4_U+30FC 1
 62
   179
420
  2234388
370
     9
100
AcDbVertex
100
AcDb2dVertex
 10
93.67212844355824
 20
-133.4133941333135
 30
0.0
  0
VERTEX
  5
72
330
70
100
AcDbEntity
  8
_U+30EC_U+30A4_U+30E4_U+30FC 1
 62
   179
420
  2234388
370
     9
100
AcDbVertex
100
AcDb2dVertex
 10
93.9367117701415
 20
-133.6190635777061
 30
0.0
  0
VERTEX
  5
73
330
70
100
AcDbEntity
  8
_U+30EC_U+30A4_U+30E4_U+30FC 1
 62
   179
420
  2234388
370
     9
100
AcDbVertex
100
AcDb2dVertex
 10
91.82004515747549
 20
-134.8537857996197
 30
0.0
  0
VERTEX
  5
74
330
70
100
AcDbEntity
  8
_U+30EC_U+30A4_U+30E4_U+30FC 1
 62
   179
420
  2234388
370
     9
100
AcDbVertex
100
AcDb2dVertex
 10
91.82004515747549
 20
-135.2358441328577
 30
0.0
  0
SEQEND
  5
75
330
70
100
AcDbEntity
  8
_U+30EC_U+30A4_U+30E4_U+30FC 1
 62
   179
420
  2234388
370
     9
  0
POLYLINE
  5
76
330
41
100
AcDbEntity
  8
_U+30EC_U+30A4_U+30E4_U+30FC 1
 62
   179
420
  2234388
370
     9
100
AcDb2dPolyline
 66
     1
 10
0.0
 20
0.0
 30
0.0
  0
VERTEX
  5
77
330
76
100
AcDbEntity
  8
_U+30EC_U+30A4_U+30E4_U+30FC 1
 62
   179
420
  2234388
370
     9
100
AcDbVertex
100
AcDb2dVertex
 10
91.61405821828622
 20
-134.7948719107457
 30
0.0
  0
VERTEX
  5
78
330
76
100
AcDbEntity
  8
_U+30EC_U+30A4_U+30E4_U+30FC 1
 62
   179
420
  2234388
370
     9
100
AcDbVertex
100
AcDb2dVertex
 10
91.82004515747549
 20
-134.8537857996197
 30
0.0
  0
SEQEND
  5
79
330
76
100
AcDbEntity
  8
_U+30EC_U+30A4_U+30E4_U+30FC 1
 62
   179
420
  2234388
370
     9
  0
POLYLINE
  5
7A
330
41
100
AcDbEntity
  8
_U+30EC_U+30A4_U+30E4_U+30FC 1
 62
   179
420
  2234388
370
     9
100
AcDb2dPolyline
 66
     1
 10
0.0
 20
0.0
 30
0.0
  0
VERTEX
  5
7B
330
7A
100
AcDbEntity
  8
_U+30EC_U+30A4_U+30E4_U+30FC 1
 62
   179
420
  2234388
370
     9
100
AcDbVertex
100
AcDb2dVertex
 10
91.64365627308666
 20
-135.1772830217614
 30
0.0
  0
VERTEX
  5
7C
330
7A
100
AcDbEntity
  8
_U+30EC_U+30A4_U+30E4_U+30FC 1
 62
   179
420
  2234388
370
     9
100
AcDbVertex
100
AcDb2dVertex
 10
91.82004515747549
 20
-135.1476496884353
 30
0.0
  0
SEQEND
  5
7D
330
7A
100
AcDbEntity
  8
_U+30EC_U+30A4_U+30E4_U+30FC 1
 62
   179
420
  2234388
370
     9
  0
POLYLINE
  5
7E
330
41
100
AcDbEntity
  8
_U+30EC_U+30A4_U+30E4_U+30FC 1
 62
   179
420
  2234388
370
     9
100
AcDb2dPolyline
 66
     1
 10
0.0
 20
0.0
 30
0.0
  0
VERTEX
  5
7F
330
7E
100
AcDbEntity
  8
_U+30EC_U+30A4_U+30E4_U+30FC 1
 62
   179
420
  2234388
370
     9
100
AcDbVertex
100
AcDb2dVertex
 10
89.70337854480948
 20
-135.985496910448
 30
0.0
  0
VERTEX
  5
80
330
7E
100
AcDbEntity
  8
_U+30EC_U+30A4_U+30E4_U+30FC 1
 62
   179
420
  2234388
370
     9
100
AcDbVertex
100
AcDb2dVertex
 10
89.2624063338374
 20
-135.765010799392
 30
0.0
  0
VERTEX
  5
81
330
7E
100
AcDbEntity
  8
_U+30EC_U+30A4_U+30E4_U+30FC 1
 62
   179
420
  2234388
370
     9
100
AcDbVertex
100
AcDb2dVertex
 10
89.17421189164298
 20
-141.4094552424254
 30
0.0
  0
VERTEX
  5
82
330
7E
100
AcDbEntity
  8
_U+30EC_U+30A4_U+30E4_U+30FC 1
 62
   179
420
  2234388
370
     9
100
AcDbVertex
100
AcDb2dVertex
 10
88.42455913299044
 20
-141.8063302423261
 30
0.0
  0
VERTEX
  5
83
330
7E
100
AcDbEntity
  8
_U+30EC_U+30A4_U+30E4_U+30FC 1
 62
   179
420
  2234388
370
     9
100
AcDbVertex
100
AcDb2dVertex
 10
88.42455913299044
 20
-143.2174413530845
 30
0.0
  0
VERTEX
  5
84
330
7E
100
AcDbEntity
  8
_U+30EC_U+30A4_U+30E4_U+30FC 1
 62
   179
420
  2234388
370
     9
100
AcDbVertex
100
AcDb2dVertex
 10
89.30650355493461
 20
-143.6143163529853
 30
0.0
  0
VERTEX
  5
85
330
7E
100
AcDbEntity
  8
_U+30EC_U+30A4_U+30E4_U+30FC 1
 62
   179
420
  2234388
370
     9
100
AcDbVertex
100
AcDb2dVertex
 10
89.61518410261507
 20
-143.3497330197181
 30
0.0
  0
SEQEND
  5
86
330
7E
100
AcDbEntity
  8
_U+30EC_U+30A4_U+30E4_U+30FC 1
 62
   179
420
  2234388
370
     9
  0
SPLINE
  5
87
330
41
100
AcDbEntity
  8
_U+30EC_U+30A4_U+30E4_U+30FC 1
 62
   179
420
  2234388
370
     9
100
AcDbSpline
210
0.0
220
0.0
230
1.0
 70
     8
 71
     3
 72
    20
 73
    16
 74
     0
 42
0.0000000001
 43
0.0000000001
 12
1.0
 22
0.0
 32
0.0
 13
1.0
 23
0.0
 33
0.0
 40
0.0
 40
0.0
 40
0.0
 40
0.0
 40
1.0
 40
1.0
 40
1.0
 40
2.0
 40
2.0
 40
2.0
 40
3.0
 40
3.0
 40
3.0
 40
4.0
 40
4.0
 40
4.0
 40
5.0
 40
5.0
 40
5.0
 40
5.0
 10
89.7915729870039
 20
-135.5004274661248
 30
0.0
 10
89.7915729870039
 20
-135.5004274661248
 30
0.0
 10
88.77733690176811
 20
-134.5743857996897
 30
0.0
 10
88.7332396806709
 20
-135.6768163549696
 30
0.0
 10
88.7332396806709
 20
-135.6768163549696
 30
0.0
 10
88.7332396806709
 20
-141.100774686947
 30
0.0
 10
88.7332396806709
 20
-141.100774686947
 30
0.0
 10
88.7332396806709
 20
-141.100774686947
 30
0.0
 10
88.02768414311556
 20
-141.1448719091582
 30
0.0
 10
88.02768414311556
 20
-141.762233020115
 30
0.0
 10
88.02768414311556
 20
-141.762233020115
 30
0.0
 10
87.98358692201836
 20
-143.3056357975069
 30
0.0
 10
88.33636469079603
 20
-143.6143163529853
 30
0.0
 10
88.33636469079603
 20
-143.6143163529853
 30
0.0
 10
89.17421189164298
 20
-144.3639691305756
 30
0.0
 10
89.65928132371228
 20
-143.9229969084637
 30
0.0
  0
POLYLINE
  5
88
330
41
100
AcDbEntity
  8
_U+30EC_U+30A4_U+30E4_U+30FC 1
 62
   179
420
  2234388
370
     9
100
AcDb2dPolyline
 66
     1
 10
0.0
 20
0.0
 30
0.0
  0
VERTEX
  5
89
330
88
100
AcDbEntity
  8
_U+30EC_U+30A4_U+30E4_U+30FC 1
 62
   179
420
  2234388
370
     9
100
AcDbVertex
100
AcDb2dVertex
 10
89.30650355493461
 20
-143.6143163529853
 30
0.0
  0
VERTEX
  5
8A
330
88
100
AcDbEntity
  8
_U+30EC_U+30A4_U+30E4_U+30FC 1
 62
   179
420
  2234388
370
     9
100
AcDbVertex
100
AcDb2dVertex
 10
89.30650355493461
 20
-143.9670941306748
 30
0.0
  0
SEQEND
  5
8B
330
88
100
AcDbEntity
  8
_U+30EC_U+30A4_U+30E4_U+30FC 1
 62
   179
420
  2234388
370
     9
  0
POLYLINE
  5
8C
330
41
100
AcDbEntity
  8
_U+30EC_U+30A4_U+30E4_U+30FC 1
 62
   179
420
  2234388
370
     9
100
AcDb2dPolyline
 66
     1
 10
0.0
 20
0.0
 30
0.0
  0
VERTEX
  5
8D
330
8C
100
AcDbEntity
  8
_U+30EC_U+30A4_U+30E4_U+30FC 1
 62
   179
420
  2234388
370
     9
100
AcDbVertex
100
AcDb2dVertex
 10
88.77733690176811
 20
-142.9969552420285
 30
0.0
  0
VERTEX
  5
8E
330
8C
100
AcDbEntity
  8
_U+30EC_U+30A4_U+30E4_U+30FC 1
 62
   179
420
  2234388
370
     9
100
AcDbVertex
100
AcDb2dVertex
 10
89.65928132371228
 20
-142.5118857977053
 30
0.0
  0
SEQEND
  5
8F
330
8C
100
AcDbEntity
  8
_U+30EC_U+30A4_U+30E4_U+30FC 1
 62
   179
420
  2234388
370
     9
  0
POLYLINE
  5
90
330
41
100
AcDbEntity
  8
_U+30EC_U+30A4_U+30E4_U+30FC 1
 62
   179
420
  2234388
370
     9
100
AcDb2dPolyline
 66
     1
 10
0.0
 20
0.0
 30
0.0
  0
VERTEX
  5
91
330
90
100
AcDbEntity
  8
_U+30EC_U+30A4_U+30E4_U+30FC 1
 62
   179
420
  2234388
370
     9
100
AcDbVertex
100
AcDb2dVertex
 10
89.04192022835136
 20
-135.1035524662241
 30
0.0
  0
VERTEX
  5
92
330
90
100
AcDbEntity
  8
_U+30EC_U+30A4_U+30E4_U+30FC 1
 62
   179
420
  2234388
370
     9
100
AcDbVertex
100
AcDb2dVertex
 10
89.65928132371228
 20
-134.7066774663233
 30
0.0
  0
SEQEND
  5
93
330
90
100
AcDbEntity
  8
_U+30EC_U+30A4_U+30E4_U+30FC 1
 62
   179
420
  2234388
370
     9
  0
POLYLINE
  5
94
330
41
100
AcDbEntity
  8
_U+30EC_U+30A4_U+30E4_U+30FC 1
 62
   179
420
  2234388
370
     9
100
AcDb2dPolyline
 66
     1
 10
0.0
 20
0.0
 30
0.0
  0
VERTEX
  5
95
330
94
100
AcDbEntity
  8
_U+30EC_U+30A4_U+30E4_U+30FC 1
 62
   179
420
  2234388
370
     9
100
AcDbVertex
100
AcDb2dVertex
 10
89.17421189164298
 20
-141.4094552424254
 30
0.0
  0
VERTEX
  5
96
330
94
100
AcDbEntity
  8
_U+30EC_U+30A4_U+30E4_U+30FC 1
 62
   179
420
  2234388
370
     9
100
AcDbVertex
100
AcDb2dVertex
 10
89.65928132371228
 20
-141.1448719091582
 30
0.0
  0
SEQEND
  5
97
330
94
100
AcDbEntity
  8
_U+30EC_U+30A4_U+30E4_U+30FC 1
 62
   179
420
  2234388
370
     9
  0
SPLINE
  5
98
330
41
100
AcDbEntity
  8
_U+30EC_U+30A4_U+30E4_U+30FC 1
 62
   179
420
  2234388
370
     9
100
AcDbSpline
210
0.0
220
0.0
230
1.0
 70
    11
 71
     3
 72
    17
 73
    13
 74
     0
 42
0.0000000001
 43
0.0000000001
 12
1.0
 22
0.0
 32
0.0
 13
1.0
 23
0.0
 33
0.0
 40
0.0
 40
0.0
 40
0.0
 40
0.0
 40
1.0
 40
1.0
 40
1.0
 40
2.0
 40
2.0
 40
2.0
 40
3.0
 40
3.0
 40
3.0
 40
4.0
 40
4.0
 40
4.0
 40
4.0
 10
94.37768398111358
 20
-117.8835871927513
 30
0.0
 10
94.37768398111358
 20
-118.4802755259353
 30
0.0
 10
93.53846094696839
 20
-118.9639691369256
 30
0.0
 10
92.50355208448222
 20
-118.9639691369256
 30
0.0
 10
91.46867849977293
 20
-118.9639691369256
 30
0.0
 10
90.62942018785087
 20
-118.4802755259353
 30
0.0
 10
90.62942018785087
 20
-117.8835871927513
 30
0.0
 10
90.62942018785087
 20
-117.2868988595672
 30
0.0
 10
91.46867849977293
 20
-116.8032052485769
 30
0.0
 10
92.50355208448222
 20
-116.8032052485769
 30
0.0
 10
93.53846094696839
 20
-116.8032052485769
 30
0.0
 10
94.37768398111358
 20
-117.2868988595672
 30
0.0
 10
94.37768398111358
 20
-117.8835871927513
 30
0.0
  0
HATCH
  5
99
330
41
100
AcDbEntity
  8
_U+30EC_U+30A4_U+30E4_U+30FC 1
 62
     7
420
 16711422
100
AcDbHatch
 10
0.0
 20
0.0
 30
0.0
210
0.0
220
0.0
230
1.0
  2
SOLID
 70
     1
 71
     0
 91
        1
 92
        1
 93
        1
 72
     4
 94
        3
 73
     0
 74
     1
 95
       17
 96
       13
 40
0.0
 40
0.0
 40
0.0
 40
0.0
 40
1.0
 40
1.0
 40
1.0
 40
2.0
 40
2.0
 40
2.0
 40
3.0
 40
3.0
 40
3.0
 40
4.0
 40
4.0
 40
4.0
 40
4.0
 10
94.37768398111358
 20
-117.8835871927513
 10
94.37768398111358
 20
-118.4802755259353
 10
93.53846094696839
 20
-118.9639691369256
 10
92.50355208448222
 20
-118.9639691369256
 10
91.46867849977293
 20
-118.9639691369256
 10
90.62942018785087
 20
-118.4802755259353
 10
90.62942018785087
 20
-117.8835871927513
 10
90.62942018785087
 20
-117.2868988595672
 10
91.46867849977293
 20
-116.8032052485769
 10
92.50355208448222
 20
-116.8032052485769
 10
93.53846094696839
 20
-116.8032052485769
 10
94.37768398111358
 20
-117.2868988595672
 10
94.37768398111358
 20
-117.8835871927513
 97
        0
 97
        0
 75
     2
 76
     1
 98
        0
  0
SPLINE
  5
9A
330
41
100
AcDbEntity
  8
_U+30EC_U+30A4_U+30E4_U+30FC 1
 62
   179
420
  2234388
370
     9
100
AcDbSpline
210
0.0
220
0.0
230
1.0
 70
     8
 71
     3
 72
     8
 73
     4
 74
     0
 42
0.0000000001
 43
0.0000000001
 12
1.0
 22
0.0
 32
0.0
 13
1.0
 23
0.0
 33
0.0
 40
0.0
 40
0.0
 40
0.0
 40
0.0
 40
1.0
 40
1.0
 40
1.0
 40
1.0
 10
90.67351740894807
 20
-118.0820246927017
 30
0.0
 10
90.67351740894807
 20
-118.0820246927017
 30
0.0
 10
92.52560069503082
 20
-116.3622330264649
 30
0.0
 10
94.33358676001637
 20
-118.1261219149129
 30
0.0
  0
SPLINE
  5
9B
330
41
100
AcDbEntity
  8
_U+30EC_U+30A4_U+30E4_U+30FC 1
 62
   179
420
  2234388
370
     9
100
AcDbSpline
210
0.0
220
0.0
230
1.0
 70
    11
 71
     3
 72
    17
 73
    13
 74
     0
 42
0.0000000001
 43
0.0000000001
 12
1.0
 22
0.0
 32
0.0
 13
1.0
 23
0.0
 33
0.0
 40
0.0
 40
0.0
 40
0.0
 40
0.0
 40
1.0
 40
1.0
 40
1.0
 40
2.0
 40
2.0
 40
2.0
 40
3.0
 40
3.0
 40
3.0
 40
4.0
 40
4.0
 40
4.0
 40
4.0
 10
93.15054651242046
 20
-141.7405371867871
 30
0.0
 10
92.918348185011
 20
-142.1205141311367
 30
0.0
 10
92.53251513929887
 20
-142.3086152422007
 30
0.0
 10
92.28825181219722
 20
-142.1598135755713
 30
0.0
 10
92.04398848509555
 20
-142.0106238533865
 30
0.0
 10
92.03467515199982
 20
-141.5813638534937
 30
0.0
 10
92.26655831026657
 20
-141.2013869091441
 30
0.0
 10
92.49875430682684
 20
-140.821374687017
 30
0.0
 10
92.88458735253897
 20
-140.633273575953
 30
0.0
 10
93.12849790187185
 20
-140.7827807981374
 30
0.0
 10
93.3731140067423
 20
-140.931617742545
 30
0.0
 10
93.38242733983802
 20
-141.36052496466
 30
0.0
 10
93.15054651242046
 20
-141.7405371867871
 30
0.0
  0
HATCH
  5
9C
330
41
100
AcDbEntity
  8
_U+30EC_U+30A4_U+30E4_U+30FC 1
 62
     7
420
 16711422
100
AcDbHatch
 10
0.0
 20
0.0
 30
0.0
210
0.0
220
0.0
230
1.0
  2
SOLID
 70
     1
 71
     0
 91
        1
 92
        1
 93
        1
 72
     4
 94
        3
 73
     0
 74
     1
 95
       17
 96
       13
 40
0.0
 40
0.0
 40
0.0
 40
0.0
 40
1.0
 40
1.0
 40
1.0
 40
2.0
 40
2.0
 40
2.0
 40
3.0
 40
3.0
 40
3.0
 40
4.0
 40
4.0
 40
4.0
 40
4.0
 10
93.15054651242046
 20
-141.7405371867871
 10
92.918348185011
 20
-142.1205141311367
 10
92.53251513929887
 20
-142.3086152422007
 10
92.28825181219722
 20
-142.1598135755713
 10
92.04398848509555
 20
-142.0106238533865
 10
92.03467515199982
 20
-141.5813638534937
 10
92.26655831026657
 20
-141.2013869091441
 10
92.49875430682684
 20
-140.821374687017
 10
92.88458735253897
 20
-140.633273575953
 10
93.12849790187185
 20
-140.7827807981374
 10
93.3731140067423
 20
-140.931617742545
 10
93.38242733983802
 20
-141.36052496466
 10
93.15054651242046
 20
-141.7405371867871
 97
        0
 97
        0
 75
     2
 76
     1
 98
        0
  0
SPLINE
  5
9D
330
41
100
AcDbEntity
  8
_U+30EC_U+30A4_U+30E4_U+30FC 1
 62
   179
420
  2234388
370
     9
100
AcDbSpline
210
0.0
220
0.0
230
1.0
 70
    11
 71
     3
 72
    17
 73
    13
 74
     0
 42
0.0000000001
 43
0.0000000001
 12
1.0
 22
0.0
 32
0.0
 13
1.0
 23
0.0
 33
0.0
 40
0.0
 40
0.0
 40
0.0
 40
0.0
 40
1.0
 40
1.0
 40
1.0
 40
2.0
 40
2.0
 40
2.0
 40
3.0
 40
3.0
 40
3.0
 40
4.0
 40
4.0
 40
4.0
 40
4.0
 10
92.71543041241009
 20
-141.4752482979644
 30
0.0
 10
92.5683220828298
 20
-141.7164071867931
 30
0.0
 10
92.34716569958309
 20
-141.8504274645373
 30
0.0
 10
92.22246108805538
 20
-141.774298020112
 30
0.0
 10
92.09704626151971
 20
-141.6978157979088
 30
0.0
 10
92.11532014994239
 20
-141.4401116313067
 30
0.0
 10
92.26242847952268
 20
-141.198952742478
 30
0.0
 10
92.40985430909487
 20
-140.9577938536493
 30
0.0
 10
92.63034041458091
 20
-140.823773575905
 30
0.0
 10
92.75575291138138
 20
-140.9002557981082
 30
0.0
 10
92.88081263041306
 20
-140.9764205203117
 30
0.0
 10
92.86253874199038
 20
-141.2340894091357
 30
0.0
 10
92.71543041241009
 20
-141.4752482979644
 30
0.0
  0
HATCH
  5
9E
330
41
100
AcDbEntity
  8
_U+30EC_U+30A4_U+30E4_U+30FC 1
 62
     7
420
 16711422
100
AcDbHatch
 10
0.0
 20
0.0
 30
0.0
210
0.0
220
0.0
230
1.0
  2
SOLID
 70
     1
 71
     0
 91
        1
 92
        1
 93
        1
 72
     4
 94
        3
 73
     0
 74
     1
 95
       17
 96
       13
 40
0.0
 40
0.0
 40
0.0
 40
0.0
 40
1.0
 40
1.0
 40
1.0
 40
2.0
 40
2.0
 40
2.0
 40
3.0
 40
3.0
 40
3.0
 40
4.0
 40
4.0
 40
4.0
 40
4.0
 10
92.71543041241009
 20
-141.4752482979644
 10
92.5683220828298
 20
-141.7164071867931
 10
92.34716569958309
 20
-141.8504274645373
 10
92.22246108805538
 20
-141.774298020112
 10
92.09704626151971
 20
-141.6978157979088
 10
92.11532014994239
 20
-141.4401116313067
 10
92.26242847952268
 20
-141.198952742478
 10
92.40985430909487
 20
-140.9577938536493
 10
92.63034041458091
 20
-140.823773575905
 10
92.75575291138138
 20
-140.9002557981082
 10
92.88081263041306
 20
-140.9764205203117
 10
92.86253874199038
 20
-141.2340894091357
 10
92.71543041241009
 20
-141.4752482979644
 97
        0
 97
        0
 75
     2
 76
     1
 98
        0
  0
SPLINE
  5
9F
330
41
100
AcDbEntity
  8
_U+30EC_U+30A4_U+30E4_U+30FC 1
 62
   179
420
  2234388
370
     9
100
AcDbSpline
210
0.0
220
0.0
230
1.0
 70
    11
 71
     3
 72
    17
 73
    13
 74
     0
 42
0.0000000001
 43
0.0000000001
 12
1.0
 22
0.0
 32
0.0
 13
1.0
 23
0.0
 33
0.0
 40
0.0
 40
0.0
 40
0.0
 40
0.0
 40
1.0
 40
1.0
 40
1.0
 40
2.0
 40
2.0
 40
2.0
 40
3.0
 40
3.0
 40
3.0
 40
4.0
 40
4.0
 40
4.0
 40
4.0
 10
93.38207456206925
 20
-138.4352916320582
 30
0.0
 10
93.16642151201546
 20
-138.7887749653026
 30
0.0
 10
92.8074348545073
 20
-138.9637880208145
 30
0.0
 10
92.580387082522
 20
-138.8252874652939
 30
0.0
 10
92.35337458831357
 20
-138.686469409773
 30
0.0
 10
92.34441403298662
 20
-138.287160243206
 30
0.0
 10
92.56006942130443
 20
-137.9340296877387
 30
0.0
 10
92.77607291086296
 20
-137.5805816322717
 30
0.0
 10
93.1354123461399
 20
-137.4055685767598
 30
0.0
 10
93.36207206257956
 20
-137.5447394100585
 30
0.0
 10
93.58947497660252
 20
-137.6828871878014
 30
0.0
 10
93.5980803898918
 20
-138.0818435765906
 30
0.0
 10
93.38207456206925
 20
-138.4352916320582
 30
0.0
  0
HATCH
  5
A0
330
41
100
AcDbEntity
  8
_U+30EC_U+30A4_U+30E4_U+30FC 1
 62
     7
420
 16711422
100
AcDbHatch
 10
0.0
 20
0.0
 30
0.0
210
0.0
220
0.0
230
1.0
  2
SOLID
 70
     1
 71
     0
 91
        1
 92
        1
 93
        1
 72
     4
 94
        3
 73
     0
 74
     1
 95
       17
 96
       13
 40
0.0
 40
0.0
 40
0.0
 40
0.0
 40
1.0
 40
1.0
 40
1.0
 40
2.0
 40
2.0
 40
2.0
 40
3.0
 40
3.0
 40
3.0
 40
4.0
 40
4.0
 40
4.0
 40
4.0
 10
93.38207456206925
 20
-138.4352916320582
 10
93.16642151201546
 20
-138.7887749653026
 10
92.8074348545073
 20
-138.9637880208145
 10
92.580387082522
 20
-138.8252874652939
 10
92.35337458831357
 20
-138.686469409773
 10
92.34441403298662
 20
-138.287160243206
 10
92.56006942130443
 20
-137.9340296877387
 10
92.77607291086296
 20
-137.5805816322717
 10
93.1354123461399
 20
-137.4055685767598
 10
93.36207206257956
 20
-137.5447394100585
 10
93.58947497660252
 20
-137.6828871878014
 10
93.5980803898918
 20
-138.0818435765906
 10
93.38207456206925
 20
-138.4352916320582
 97
        0
 97
        0
 75
     2
 76
     1
 98
        0
  0
SPLINE
  5
A1
330
41
100
AcDbEntity
  8
_U+30EC_U+30A4_U+30E4_U+30FC 1
 62
   179
420
  2234388
370
     9
100
AcDbSpline
210
0.0
220
0.0
230
1.0
 70
    11
 71
     3
 72
    17
 73
    13
 74
     0
 42
0.0000000001
 43
0.0000000001
 12
1.0
 22
0.0
 32
0.0
 13
1.0
 23
0.0
 33
0.0
 40
0.0
 40
0.0
 40
0.0
 40
0.0
 40
1.0
 40
1.0
 40
1.0
 40
2.0
 40
2.0
 40
2.0
 40
3.0
 40
3.0
 40
3.0
 40
4.0
 40
4.0
 40
4.0
 40
4.0
 10
92.97761485016565
 20
-138.1886294098973
 30
0.0
 10
92.84084290921055
 20
-138.4129255209523
 30
0.0
 10
92.63517347001317
 20
-138.5376324653653
 30
0.0
 10
92.51907430630844
 20
-138.4666535764943
 30
0.0
 10
92.40297514260371
 20
-138.3956746876234
 30
0.0
 10
92.41952041995938
 20
-138.1558916321275
 30
0.0
 10
92.55660986090638
 20
-137.9316307988507
 30
0.0
 10
92.69338180186148
 20
-137.7073699655732
 30
0.0
 10
92.89873608788612
 20
-137.582627743382
 30
0.0
 10
93.0148329047717
 20
-137.6539594100307
 30
0.0
 10
93.1316023462371
 20
-137.7245855211246
 30
0.0
 10
93.11473956888953
 20
-137.9643685766198
 30
0.0
 10
92.97761485016565
 20
-138.1886294098973
 30
0.0
  0
HATCH
  5
A2
330
41
100
AcDbEntity
  8
_U+30EC_U+30A4_U+30E4_U+30FC 1
 62
     7
420
 16711422
100
AcDbHatch
 10
0.0
 20
0.0
 30
0.0
210
0.0
220
0.0
230
1.0
  2
SOLID
 70
     1
 71
     0
 91
        1
 92
        1
 93
        1
 72
     4
 94
        3
 73
     0
 74
     1
 95
       17
 96
       13
 40
0.0
 40
0.0
 40
0.0
 40
0.0
 40
1.0
 40
1.0
 40
1.0
 40
2.0
 40
2.0
 40
2.0
 40
3.0
 40
3.0
 40
3.0
 40
4.0
 40
4.0
 40
4.0
 40
4.0
 10
92.97761485016565
 20
-138.1886294098973
 10
92.84084290921055
 20
-138.4129255209523
 10
92.63517347001317
 20
-138.5376324653653
 10
92.51907430630844
 20
-138.4666535764943
 10
92.40297514260371
 20
-138.3956746876234
 10
92.41952041995938
 20
-138.1558916321275
 10
92.55660986090638
 20
-137.9316307988507
 10
92.69338180186148
 20
-137.7073699655732
 10
92.89873608788612
 20
-137.582627743382
 10
93.0148329047717
 20
-137.6539594100307
 10
93.1316023462371
 20
-137.7245855211246
 10
93.11473956888953
 20
-137.9643685766198
 10
92.97761485016565
 20
-138.1886294098973
 97
        0
 97
        0
 75
     2
 76
     1
 98
        0
  0
POLYLINE
  5
A3
330
41
100
AcDbEntity
  8
_U+30EC_U+30A4_U+30E4_U+30FC 1
 62
   179
420
  2234388
370
     9
100
AcDb2dPolyline
 66
     1
 10
0.0
 20
0.0
 30
0.0
  0
VERTEX
  5
A4
330
A3
100
AcDbEntity
  8
_U+30EC_U+30A4_U+30E4_U+30FC 1
 62
   179
420
  2234388
370
     9
100
AcDbVertex
100
AcDb2dVertex
 10
82.6185426144476
 20
-115.1275108045514
 30
0.0
  0
VERTEX
  5
A5
330
A3
100
AcDbEntity
  8
_U+30EC_U+30A4_U+30E4_U+30FC 1
 62
   179
420
  2234388
370
     9
100
AcDbVertex
100
AcDb2dVertex
 10
85.49950226317041
 20
-116.8913996929993
 30
0.0
  0
SEQEND
  5
A6
330
A3
100
AcDbEntity
  8
_U+30EC_U+30A4_U+30E4_U+30FC 1
 62
   179
420
  2234388
370
     9
  0
POLYLINE
  5
A7
330
41
100
AcDbEntity
  8
_U+30EC_U+30A4_U+30E4_U+30FC 1
 62
   179
420
  2234388
370
     9
100
AcDb2dPolyline
 66
     1
 10
0.0
 20
0.0
 30
0.0
  0
VERTEX
  5
A8
330
A7
100
AcDbEntity
  8
_U+30EC_U+30A4_U+30E4_U+30FC 1
 62
   179
420
  2234388
370
     9
100
AcDbVertex
100
AcDb2dVertex
 10
87.73382026172378
 20
-112.069985805316
 30
0.0
  0
VERTEX
  5
A9
330
A7
100
AcDbEntity
  8
_U+30EC_U+30A4_U+30E4_U+30FC 1
 62
   179
420
  2234388
370
     9
100
AcDbVertex
100
AcDb2dVertex
 10
90.79116879483543
 20
-113.9513496937344
 30
0.0
  0
SEQEND
  5
AA
330
A7
100
AcDbEntity
  8
_U+30EC_U+30A4_U+30E4_U+30FC 1
 62
   179
420
  2234388
370
     9
  0
POLYLINE
  5
AB
330
41
100
AcDbEntity
  8
_U+30EC_U+30A4_U+30E4_U+30FC 1
 62
   179
420
  2234388
370
     9
100
AcDb2dPolyline
 66
     1
 10
0.0
 20
0.0
 30
0.0
  0
VERTEX
  5
AC
330
AB
100
AcDbEntity
  8
_U+30EC_U+30A4_U+30E4_U+30FC 1
 62
   179
420
  2234388
370
     9
100
AcDbVertex
100
AcDb2dVertex
 10
87.32212860556024
 20
-113.3047080272295
 30
0.0
  0
VERTEX
  5
AD
330
AB
100
AcDbEntity
  8
_U+30EC_U+30A4_U+30E4_U+30FC 1
 62
   179
420
  2234388
370
     9
100
AcDbVertex
100
AcDb2dVertex
 10
88.61576468366793
 20
-112.5991524718504
 30
0.0
  0
SEQEND
  5
AE
330
AB
100
AcDbEntity
  8
_U+30EC_U+30A4_U+30E4_U+30FC 1
 62
   179
420
  2234388
370
     9
  0
POLYLINE
  5
AF
330
41
100
AcDbEntity
  8
_U+30EC_U+30A4_U+30E4_U+30FC 1
 62
   179
420
  2234388
370
     9
100
AcDb2dPolyline
 66
     1
 10
0.0
 20
0.0
 30
0.0
  0
VERTEX
  5
B0
330
AF
100
AcDbEntity
  8
_U+30EC_U+30A4_U+30E4_U+30FC 1
 62
   179
420
  2234388
370
     9
100
AcDbVertex
100
AcDb2dVertex
 10
84.79394672561509
 20
-114.7158191379879
 30
0.0
  0
VERTEX
  5
B1
330
AF
100
AcDbEntity
  8
_U+30EC_U+30A4_U+30E4_U+30FC 1
 62
   179
420
  2234388
370
     9
100
AcDbVertex
100
AcDb2dVertex
 10
83.38283565050442
 20
-115.6566774710858
 30
0.0
  0
VERTEX
  5
B2
330
AF
100
AcDbEntity
  8
_U+30EC_U+30A4_U+30E4_U+30FC 1
 62
   179
420
  2234388
370
     9
100
AcDbVertex
100
AcDb2dVertex
 10
83.38283565050442
 20
-119.654708025642
 30
0.0
  0
SEQEND
  5
B3
330
AF
100
AcDbEntity
  8
_U+30EC_U+30A4_U+30E4_U+30FC 1
 62
   179
420
  2234388
370
     9
  0
POLYLINE
  5
B4
330
41
100
AcDbEntity
  8
_U+30EC_U+30A4_U+30E4_U+30FC 1
 62
   179
420
  2234388
370
     9
100
AcDb2dPolyline
 66
     1
 10
0.0
 20
0.0
 30
0.0
  0
VERTEX
  5
B5
330
B4
100
AcDbEntity
  8
_U+30EC_U+30A4_U+30E4_U+30FC 1
 62
   179
420
  2234388
370
     9
100
AcDbVertex
100
AcDb2dVertex
 10
81.0310426549481
 20
-122.7711469137517
 30
0.0
  0
VERTEX
  5
B6
330
B4
100
AcDbEntity
  8
_U+30EC_U+30A4_U+30E4_U+30FC 1
 62
   179
420
  2234388
370
     9
100
AcDbVertex
100
AcDb2dVertex
 10
85.7935425334466
 20
-122.7711469137517
 30
0.0
  0
VERTEX
  5
B7
330
B4
100
AcDbEntity
  8
_U+30EC_U+30A4_U+30E4_U+30FC 1
 62
   179
420
  2234388
370
     9
100
AcDbVertex
100
AcDb2dVertex
 10
90.08561325728009
 20
-119.0080663591368
 30
0.0
  0
SEQEND
  5
B8
330
B4
100
AcDbEntity
  8
_U+30EC_U+30A4_U+30E4_U+30FC 1
 62
   179
420
  2234388
370
     9
  0
POLYLINE
  5
B9
330
41
100
AcDbEntity
  8
_U+30EC_U+30A4_U+30E4_U+30FC 1
 62
   179
420
  2234388
370
     9
100
AcDb2dPolyline
 66
     1
 10
0.0
 20
0.0
 30
0.0
  0
VERTEX
  5
BA
330
B9
100
AcDbEntity
  8
_U+30EC_U+30A4_U+30E4_U+30FC 1
 62
   179
420
  2234388
370
     9
100
AcDbVertex
100
AcDb2dVertex
 10
83.32409815200293
 20
-123.1824858025379
 30
0.0
  0
VERTEX
  5
BB
330
B9
100
AcDbEntity
  8
_U+30EC_U+30A4_U+30E4_U+30FC 1
 62
   179
420
  2234388
370
     9
100
AcDbVertex
100
AcDb2dVertex
 10
83.32409815200293
 20
-126.3574858017441
 30
0.0
  0
SEQEND
  5
BC
330
B9
100
AcDbEntity
  8
_U+30EC_U+30A4_U+30E4_U+30FC 1
 62
   179
420
  2234388
370
     9
  0
POLYLINE
  5
BD
330
41
100
AcDbEntity
  8
_U+30EC_U+30A4_U+30E4_U+30FC 1
 62
   179
420
  2234388
370
     9
100
AcDb2dPolyline
 66
     1
 10
0.0
 20
0.0
 30
0.0
  0
VERTEX
  5
BE
330
BD
100
AcDbEntity
  8
_U+30EC_U+30A4_U+30E4_U+30FC 1
 62
   179
420
  2234388
370
     9
100
AcDbVertex
100
AcDb2dVertex
 10
83.26518426461706
 20
-130.5908191340191
 30
0.0
  0
VERTEX
  5
BF
330
BD
100
AcDbEntity
  8
_U+30EC_U+30A4_U+30E4_U+30FC 1
 62
   179
420
  2234388
370
     9
100
AcDbVertex
100
AcDb2dVertex
 10
83.26518426461706
 20
-140.2922080204827
 30
0.0
  0
SEQEND
  5
C0
330
BD
100
AcDbEntity
  8
_U+30EC_U+30A4_U+30E4_U+30FC 1
 62
   179
420
  2234388
370
     9
  0
POLYLINE
  5
C1
330
41
100
AcDbEntity
  8
_U+30EC_U+30A4_U+30E4_U+30FC 1
 62
   179
420
  2234388
370
     9
100
AcDb2dPolyline
 66
     1
 10
0.0
 20
0.0
 30
0.0
  0
VERTEX
  5
C2
330
C1
100
AcDbEntity
  8
_U+30EC_U+30A4_U+30E4_U+30FC 1
 62
   179
420
  2234388
370
     9
100
AcDbVertex
100
AcDb2dVertex
 10
82.3832398426729
 20
-139.7044802428514
 30
0.0
  0
VERTEX
  5
C3
330
C1
100
AcDbEntity
  8
_U+30EC_U+30A4_U+30E4_U+30FC 1
 62
   179
420
  2234388
370
     9
100
AcDbVertex
100
AcDb2dVertex
 10
85.38185087728307
 20
-141.4094552424254
 30
0.0
  0
SEQEND
  5
C4
330
C1
100
AcDbEntity
  8
_U+30EC_U+30A4_U+30E4_U+30FC 1
 62
   179
420
  2234388
370
     9
  0
POLYLINE
  5
C5
330
41
100
AcDbEntity
  8
_U+30EC_U+30A4_U+30E4_U+30FC 1
 62
   179
420
  2234388
370
     9
100
AcDb2dPolyline
 66
     1
 10
0.0
 20
0.0
 30
0.0
  0
VERTEX
  5
C6
330
C5
100
AcDbEntity
  8
_U+30EC_U+30A4_U+30E4_U+30FC 1
 62
   179
420
  2234388
370
     9
100
AcDbVertex
100
AcDb2dVertex
 10
92.73162291199698
 20
-113.8927885826379
 30
0.0
  0
VERTEX
  5
C7
330
C5
100
AcDbEntity
  8
_U+30EC_U+30A4_U+30E4_U+30FC 1
 62
   179
420
  2234388
370
     9
100
AcDbVertex
100
AcDb2dVertex
 10
95.55384506221831
 20
-112.3052885830347
 30
0.0
  0
SEQEND
  5
C8
330
C5
100
AcDbEntity
  8
_U+30EC_U+30A4_U+30E4_U+30FC 1
 62
   179
420
  2234388
370
     9
  0
POLYLINE
  5
C9
330
41
100
AcDbEntity
  8
_U+30EC_U+30A4_U+30E4_U+30FC 1
 62
   179
420
  2234388
370
     9
100
AcDb2dPolyline
 66
     1
 10
0.0
 20
0.0
 30
0.0
  0
VERTEX
  5
CA
330
C9
100
AcDbEntity
  8
_U+30EC_U+30A4_U+30E4_U+30FC 1
 62
   179
420
  2234388
370
     9
100
AcDbVertex
100
AcDb2dVertex
 10
94.84828952466299
 20
-112.6580663607243
 30
0.0
  0
VERTEX
  5
CB
330
C9
100
AcDbEntity
  8
_U+30EC_U+30A4_U+30E4_U+30FC 1
 62
   179
420
  2234388
370
     9
100
AcDbVertex
100
AcDb2dVertex
 10
96.61217836855133
 20
-113.7749608048896
 30
0.0
  0
SEQEND
  5
CC
330
C9
100
AcDbEntity
  8
_U+30EC_U+30A4_U+30E4_U+30FC 1
 62
   179
420
  2234388
370
     9
  0
POLYLINE
  5
CD
330
41
100
AcDbEntity
  8
_U+30EC_U+30A4_U+30E4_U+30FC 1
 62
   179
420
  2234388
370
     9
100
AcDb2dPolyline
 66
     1
 10
0.0
 20
0.0
 30
0.0
  0
VERTEX
  5
CE
330
CD
100
AcDbEntity
  8
_U+30EC_U+30A4_U+30E4_U+30FC 1
 62
   179
420
  2234388
370
     9
100
AcDbVertex
100
AcDb2dVertex
 10
99.31657274400092
 20
-117.655516359475
 30
0.0
  0
VERTEX
  5
CF
330
CD
100
AcDbEntity
  8
_U+30EC_U+30A4_U+30E4_U+30FC 1
 62
   179
420
  2234388
370
     9
100
AcDbVertex
100
AcDb2dVertex
 10
102.1977087816081
 20
-115.9505413599014
 30
0.0
  0
SEQEND
  5
D0
330
CD
100
AcDbEntity
  8
_U+30EC_U+30A4_U+30E4_U+30FC 1
 62
   179
420
  2234388
370
     9
  0
POLYLINE
  5
D1
330
41
100
AcDbEntity
  8
_U+30EC_U+30A4_U+30E4_U+30FC 1
 62
   179
420
  2234388
370
     9
100
AcDb2dPolyline
 66
     1
 10
0.0
 20
0.0
 30
0.0
  0
VERTEX
  5
D2
330
D1
100
AcDbEntity
  8
_U+30EC_U+30A4_U+30E4_U+30FC 1
 62
   179
420
  2234388
370
     9
100
AcDbVertex
100
AcDb2dVertex
 10
99.08162274999499
 20
-115.2449858045222
 30
0.0
  0
VERTEX
  5
D3
330
D1
100
AcDbEntity
  8
_U+30EC_U+30A4_U+30E4_U+30FC 1
 62
   179
420
  2234388
370
     9
100
AcDbVertex
100
AcDb2dVertex
 10
101.2568504722781
 20
-116.5971830264063
 30
0.0
  0
SEQEND
  5
D4
330
D1
100
AcDbEntity
  8
_U+30EC_U+30A4_U+30E4_U+30FC 1
 62
   179
420
  2234388
370
     9
  0
INSERT
  5
D6
330
41
100
AcDbEntity
  8
_U+30EC_U+30A4_U+30E4_U+30FC 1
100
AcDbBlockReference
  2
block 3
 10
0.0
 20
0.0
 30
0.0
  0
INSERT
  5
DF
330
41
100
AcDbEntity
  8
_U+30EC_U+30A4_U+30E4_U+30FC 1
100
AcDbBlockReference
  2
block 4
 10
0.0
 20
0.0
 30
0.0
  0
INSERT
  5
E7
330
41
100
AcDbEntity
  8
_U+30EC_U+30A4_U+30E4_U+30FC 1
100
AcDbBlockReference
  2
block 5
 10
0.0
 20
0.0
 30
0.0
  0
INSERT
  5
F3
330
41
100
AcDbEntity
  8
_U+30EC_U+30A4_U+30E4_U+30FC 1
100
AcDbBlockReference
  2
block 6
 10
0.0
 20
0.0
 30
0.0
  0
SPLINE
  5
106
330
41
100
AcDbEntity
  8
_U+30EC_U+30A4_U+30E4_U+30FC 1
370
     0
100
AcDbSpline
210
0.0
220
0.0
230
1.0
 70
    11
 71
     3
 72
    17
 73
    13
 74
     0
 42
0.0000000001
 43
0.0000000001
 12
1.0
 22
0.0
 32
0.0
 13
1.0
 23
0.0
 33
0.0
 40
0.0
 40
0.0
 40
0.0
 40
0.0
 40
1.0
 40
1.0
 40
1.0
 40
2.0
 40
2.0
 40
2.0
 40
3.0
 40
3.0
 40
3.0
 40
4.0
 40
4.0
 40
4.0
 40
4.0
 10
101.3805343580115
 20
-116.5999346930724
 30
0.0
 10
101.3805343580115
 20
-116.7315560819283
 30
0.0
 10
101.2741013051713
 20
-116.8379891374572
 30
0.0
 10
101.1424799196404
 20
-116.8379891374572
 30
0.0
 10
101.0108938118863
 20
-116.8379891374572
 30
0.0
 10
100.9040727035004
 20
-116.7315560819283
 30
0.0
 10
100.9040727035004
 20
-116.5999346930724
 30
0.0
 10
100.9040727035004
 20
-116.468348581994
 30
0.0
 10
101.0108938118863
 20
-116.3618802486872
 30
0.0
 10
101.1424799196404
 20
-116.3618802486872
 30
0.0
 10
101.2741013051713
 20
-116.3618802486872
 30
0.0
 10
101.3805343580115
 20
-116.468348581994
 30
0.0
 10
101.3805343580115
 20
-116.5999346930724
 30
0.0
  0
HATCH
  5
107
330
41
100
AcDbEntity
  8
_U+30EC_U+30A4_U+30E4_U+30FC 1
 62
   179
420
  2234388
100
AcDbHatch
 10
0.0
 20
0.0
 30
0.0
210
0.0
220
0.0
230
1.0
  2
SOLID
 70
     1
 71
     0
 91
        1
 92
        1
 93
        1
 72
     4
 94
        3
 73
     0
 74
     1
 95
       17
 96
       13
 40
0.0
 40
0.0
 40
0.0
 40
0.0
 40
1.0
 40
1.0
 40
1.0
 40
2.0
 40
2.0
 40
2.0
 40
3.0
 40
3.0
 40
3.0
 40
4.0
 40
4.0
 40
4.0
 40
4.0
 10
101.3805343580115
 20
-116.5999346930724
 10
101.3805343580115
 20
-116.7315560819283
 10
101.2741013051713
 20
-116.8379891374572
 10
101.1424799196404
 20
-116.8379891374572
 10
101.0108938118863
 20
-116.8379891374572
 10
100.9040727035004
 20
-116.7315560819283
 10
100.9040727035004
 20
-116.5999346930724
 10
100.9040727035004
 20
-116.468348581994
 10
101.0108938118863
 20
-116.3618802486872
 10
101.1424799196404
 20
-116.3618802486872
 10
101.2741013051713
 20
-116.3618802486872
 10
101.3805343580115
 20
-116.468348581994
 10
101.3805343580115
 20
-116.5999346930724
 97
        0
 97
        0
 75
     2
 76
     1
 98
        0
  0
SPLINE
  5
108
330
41
100
AcDbEntity
  8
_U+30EC_U+30A4_U+30E4_U+30FC 1
370
     0
100
AcDbSpline
210
0.0
220
0.0
230
1.0
 70
    11
 71
     3
 72
    17
 73
    13
 74
     0
 42
0.0000000001
 43
0.0000000001
 12
1.0
 22
0.0
 32
0.0
 13
1.0
 23
0.0
 33
0.0
 40
0.0
 40
0.0
 40
0.0
 40
0.0
 40
1.0
 40
1.0
 40
1.0
 40
2.0
 40
2.0
 40
2.0
 40
3.0
 40
3.0
 40
3.0
 40
4.0
 40
4.0
 40
4.0
 40
4.0
 10
95.0894484073994
 20
-112.6604652496127
 30
0.0
 10
95.0894484073994
 20
-112.7920866384686
 30
0.0
 10
94.9826625767904
 20
-112.8985196939975
 30
0.0
 10
94.85104119125945
 20
-112.8985196939975
 30
0.0
 10
94.71945508350538
 20
-112.8985196939975
 30
0.0
 10
94.61298675288828
 20
-112.7920866384686
 30
0.0
 10
94.61298675288828
 20
-112.6604652496127
 30
0.0
 10
94.61298675288828
 20
-112.5288791385346
 30
0.0
 10
94.71945508350538
 20
-112.4224108052278
 30
0.0
 10
94.85104119125945
 20
-112.4224108052278
 30
0.0
 10
94.9826625767904
 20
-112.4224108052278
 30
0.0
 10
95.0894484073994
 20
-112.5288791385346
 30
0.0
 10
95.0894484073994
 20
-112.6604652496127
 30
0.0
  0
HATCH
  5
109
330
41
100
AcDbEntity
  8
_U+30EC_U+30A4_U+30E4_U+30FC 1
 62
   179
420
  2234388
100
AcDbHatch
 10
0.0
 20
0.0
 30
0.0
210
0.0
220
0.0
230
1.0
  2
SOLID
 70
     1
 71
     0
 91
        1
 92
        1
 93
        1
 72
     4
 94
        3
 73
     0
 74
     1
 95
       17
 96
       13
 40
0.0
 40
0.0
 40
0.0
 40
0.0
 40
1.0
 40
1.0
 40
1.0
 40
2.0
 40
2.0
 40
2.0
 40
3.0
 40
3.0
 40
3.0
 40
4.0
 40
4.0
 40
4.0
 40
4.0
 10
95.0894484073994
 20
-112.6604652496127
 10
95.0894484073994
 20
-112.7920866384686
 10
94.9826625767904
 20
-112.8985196939975
 10
94.85104119125945
 20
-112.8985196939975
 10
94.71945508350538
 20
-112.8985196939975
 10
94.61298675288828
 20
-112.7920866384686
 10
94.61298675288828
 20
-112.6604652496127
 10
94.61298675288828
 20
-112.5288791385346
 10
94.71945508350538
 20
-112.4224108052278
 10
94.85104119125945
 20
-112.4224108052278
 10
94.9826625767904
 20
-112.4224108052278
 10
95.0894484073994
 20
-112.5288791385346
 10
95.0894484073994
 20
-112.6604652496127
 97
        0
 97
        0
 75
     2
 76
     1
 98
        0
  0
SPLINE
  5
10A
330
41
100
AcDbEntity
  8
_U+30EC_U+30A4_U+30E4_U+30FC 1
370
     0
100
AcDbSpline
210
0.0
220
0.0
230
1.0
 70
    11
 71
     3
 72
    17
 73
    13
 74
     0
 42
0.0000000001
 43
0.0000000001
 12
1.0
 22
0.0
 32
0.0
 13
1.0
 23
0.0
 33
0.0
 40
0.0
 40
0.0
 40
0.0
 40
0.0
 40
1.0
 40
1.0
 40
1.0
 40
2.0
 40
2.0
 40
2.0
 40
3.0
 40
3.0
 40
3.0
 40
4.0
 40
4.0
 40
4.0
 40
4.0
 10
88.79818606790288
 20
-112.6019041385161
 30
0.0
 10
88.79818606790288
 20
-112.733525527372
 30
0.0
 10
88.69157662617826
 20
-112.8399585829013
 30
0.0
 10
88.55995524064731
 20
-112.8399585829013
 30
0.0
 10
88.42854552177764
 20
-112.8399585829013
 30
0.0
 10
88.32190080227615
 20
-112.733525527372
 30
0.0
 10
88.32190080227615
 20
-112.6019041385161
 30
0.0
 10
88.32190080227615
 20
-112.4703180274381
 30
0.0
 10
88.42854552177764
 20
-112.3638496941313
 30
0.0
 10
88.55995524064731
 20
-112.3638496941313
 30
0.0
 10
88.69157662617826
 20
-112.3638496941313
 30
0.0
 10
88.79818606790288
 20
-112.4703180274381
 30
0.0
 10
88.79818606790288
 20
-112.6019041385161
 30
0.0
  0
HATCH
  5
10B
330
41
100
AcDbEntity
  8
_U+30EC_U+30A4_U+30E4_U+30FC 1
 62
   179
420
  2234388
100
AcDbHatch
 10
0.0
 20
0.0
 30
0.0
210
0.0
220
0.0
230
1.0
  2
SOLID
 70
     1
 71
     0
 91
        1
 92
        1
 93
        1
 72
     4
 94
        3
 73
     0
 74
     1
 95
       17
 96
       13
 40
0.0
 40
0.0
 40
0.0
 40
0.0
 40
1.0
 40
1.0
 40
1.0
 40
2.0
 40
2.0
 40
2.0
 40
3.0
 40
3.0
 40
3.0
 40
4.0
 40
4.0
 40
4.0
 40
4.0
 10
88.79818606790288
 20
-112.6019041385161
 10
88.79818606790288
 20
-112.733525527372
 10
88.69157662617826
 20
-112.8399585829013
 10
88.55995524064731
 20
-112.8399585829013
 10
88.42854552177764
 20
-112.8399585829013
 10
88.32190080227615
 20
-112.733525527372
 10
88.32190080227615
 20
-112.6019041385161
 10
88.32190080227615
 20
-112.4703180274381
 10
88.42854552177764
 20
-112.3638496941313
 10
88.55995524064731
 20
-112.3638496941313
 10
88.69157662617826
 20
-112.3638496941313
 10
88.79818606790288
 20
-112.4703180274381
 10
88.79818606790288
 20
-112.6019041385161
 97
        0
 97
        0
 75
     2
 76
     1
 98
        0
  0
SPLINE
  5
10C
330
41
100
AcDbEntity
  8
_U+30EC_U+30A4_U+30E4_U+30FC 1
370
     0
100
AcDbSpline
210
0.0
220
0.0
230
1.0
 70
    11
 71
     3
 72
    17
 73
    13
 74
     0
 42
0.0000000001
 43
0.0000000001
 12
1.0
 22
0.0
 32
0.0
 13
1.0
 23
0.0
 33
0.0
 40
0.0
 40
0.0
 40
0.0
 40
0.0
 40
1.0
 40
1.0
 40
1.0
 40
2.0
 40
2.0
 40
2.0
 40
3.0
 40
3.0
 40
3.0
 40
4.0
 40
4.0
 40
4.0
 40
4.0
 10
83.6829084206267
 20
-115.6005152488776
 30
0.0
 10
83.6829084206267
 20
-115.7321366377335
 30
0.0
 10
83.57629897890209
 20
-115.8385696932628
 30
0.0
 10
83.44467759337114
 20
-115.8385696932628
 30
0.0
 10
83.31326787450146
 20
-115.8385696932628
 30
0.0
 10
83.20662315499997
 20
-115.7321366377335
 30
0.0
 10
83.20662315499997
 20
-115.6005152488776
 30
0.0
 10
83.20662315499997
 20
-115.4689291377995
 30
0.0
 10
83.31326787450146
 20
-115.3624608044927
 30
0.0
 10
83.44467759337114
 20
-115.3624608044927
 30
0.0
 10
83.57629897890209
 20
-115.3624608044927
 30
0.0
 10
83.6829084206267
 20
-115.4689291377995
 30
0.0
 10
83.6829084206267
 20
-115.6005152488776
 30
0.0
  0
HATCH
  5
10D
330
41
100
AcDbEntity
  8
_U+30EC_U+30A4_U+30E4_U+30FC 1
 62
   179
420
  2234388
100
AcDbHatch
 10
0.0
 20
0.0
 30
0.0
210
0.0
220
0.0
230
1.0
  2
SOLID
 70
     1
 71
     0
 91
        1
 92
        1
 93
        1
 72
     4
 94
        3
 73
     0
 74
     1
 95
       17
 96
       13
 40
0.0
 40
0.0
 40
0.0
 40
0.0
 40
1.0
 40
1.0
 40
1.0
 40
2.0
 40
2.0
 40
2.0
 40
3.0
 40
3.0
 40
3.0
 40
4.0
 40
4.0
 40
4.0
 40
4.0
 10
83.6829084206267
 20
-115.6005152488776
 10
83.6829084206267
 20
-115.7321366377335
 10
83.57629897890209
 20
-115.8385696932628
 10
83.44467759337114
 20
-115.8385696932628
 10
83.31326787450146
 20
-115.8385696932628
 10
83.20662315499997
 20
-115.7321366377335
 10
83.20662315499997
 20
-115.6005152488776
 10
83.20662315499997
 20
-115.4689291377995
 10
83.31326787450146
 20
-115.3624608044927
 10
83.44467759337114
 20
-115.3624608044927
 10
83.57629897890209
 20
-115.3624608044927
 10
83.6829084206267
 20
-115.4689291377995
 10
83.6829084206267
 20
-115.6005152488776
 97
        0
 97
        0
 75
     2
 76
     1
 98
        0
  0
SPLINE
  5
10E
330
41
100
AcDbEntity
  8
_U+30EC_U+30A4_U+30E4_U+30FC 1
370
     0
100
AcDbSpline
210
0.0
220
0.0
230
1.0
 70
    11
 71
     3
 72
    17
 73
    13
 74
     0
 42
0.0000000001
 43
0.0000000001
 12
1.0
 22
0.0
 32
0.0
 13
1.0
 23
0.0
 33
0.0
 40
0.0
 40
0.0
 40
0.0
 40
0.0
 40
1.0
 40
1.0
 40
1.0
 40
2.0
 40
2.0
 40
2.0
 40
3.0
 40
3.0
 40
3.0
 40
4.0
 40
4.0
 40
4.0
 40
4.0
 10
83.44760564885199
 20
-140.1771319094005
 30
0.0
 10
83.44760564885199
 20
-140.3087532982561
 30
0.0
 10
83.34099620712739
 20
-140.415186353785
 30
0.0
 10
83.20937482159644
 20
-140.415186353785
 30
0.0
 10
83.07796510272675
 20
-140.415186353785
 30
0.0
 10
82.97132038322526
 20
-140.3087532982561
 30
0.0
 10
82.97132038322526
 20
-140.1771319094005
 30
0.0
 10
82.97132038322526
 20
-140.0455457983218
 30
0.0
 10
83.07796510272675
 20
-139.9390774650153
 30
0.0
 10
83.20937482159644
 20
-139.9390774650153
 30
0.0
 10
83.34099620712739
 20
-139.9390774650153
 30
0.0
 10
83.44760564885199
 20
-140.0455457983218
 30
0.0
 10
83.44760564885199
 20
-140.1771319094005
 30
0.0
  0
HATCH
  5
10F
330
41
100
AcDbEntity
  8
_U+30EC_U+30A4_U+30E4_U+30FC 1
 62
   179
420
  2234388
100
AcDbHatch
 10
0.0
 20
0.0
 30
0.0
210
0.0
220
0.0
230
1.0
  2
SOLID
 70
     1
 71
     0
 91
        1
 92
        1
 93
        1
 72
     4
 94
        3
 73
     0
 74
     1
 95
       17
 96
       13
 40
0.0
 40
0.0
 40
0.0
 40
0.0
 40
1.0
 40
1.0
 40
1.0
 40
2.0
 40
2.0
 40
2.0
 40
3.0
 40
3.0
 40
3.0
 40
4.0
 40
4.0
 40
4.0
 40
4.0
 10
83.44760564885199
 20
-140.1771319094005
 10
83.44760564885199
 20
-140.3087532982561
 10
83.34099620712739
 20
-140.415186353785
 10
83.20937482159644
 20
-140.415186353785
 10
83.07796510272675
 20
-140.415186353785
 10
82.97132038322526
 20
-140.3087532982561
 10
82.97132038322526
 20
-140.1771319094005
 10
82.97132038322526
 20
-140.0455457983218
 10
83.07796510272675
 20
-139.9390774650153
 10
83.20937482159644
 20
-139.9390774650153
 10
83.34099620712739
 20
-139.9390774650153
 10
83.44760564885199
 20
-140.0455457983218
 10
83.44760564885199
 20
-140.1771319094005
 97
        0
 97
        0
 75
     2
 76
     1
 98
        0
  0
ENDBLK
  5
44
330
41
100
AcDbEntity
  8
0
100
AcDbBlockEnd
  0
BLOCK
  5
D7
330
D5
100
AcDbEntity
  8
0
100
AcDbBlockBegin
  2
block 3
 70
     0
 10
0.0
 20
0.0
 30
0.0
  3
block 3
  1

  0
SPLINE
  5
D9
330
D5
100
AcDbEntity
  8
_U+30EC_U+30A4_U+30E4_U+30FC 1
370
     0
100
AcDbSpline
210
0.0
220
0.0
230
1.0
 70
    11
 71
     3
 72
    44
 73
    40
 74
     0
 42
0.0000000001
 43
0.0000000001
 12
1.0
 22
0.0
 32
0.0
 13
1.0
 23
0.0
 33
0.0
 40
0.0
 40
0.0
 40
0.0
 40
0.0
 40
1.0
 40
1.0
 40
1.0
 40
2.0
 40
2.0
 40
2.0
 40
3.0
 40
3.0
 40
3.0
 40
4.0
 40
4.0
 40
4.0
 40
5.0
 40
5.0
 40
5.0
 40
6.0
 40
6.0
 40
6.0
 40
7.0
 40
7.0
 40
7.0
 40
8.0
 40
8.0
 40
8.0
 40
9.0
 40
9.0
 40
9.0
 40
10.0
 40
10.0
 40
10.0
 40
11.0
 40
11.0
 40
11.0
 40
12.0
 40
12.0
 40
12.0
 40
13.0
 40
13.0
 40
13.0
 40
13.0
 10
85.404261588892
 20
-114.206121119452
 30
0.0
 10
85.31675616356665
 20
-114.4610581853604
 30
0.0
 10
85.2829942278112
 20
-114.5750908459222
 30
0.0
 10
85.32554115705403
 20
-114.7209906397225
 30
0.0
 10
85.32554115705403
 20
-114.7209906397225
 30
0.0
 10
85.96340058614804
 20
-114.2745062648342
 30
0.0
 10
85.96340058614804
 20
-114.2745062648342
 30
0.0
 10
85.96340058614804
 20
-114.2745062648342
 30
0.0
 10
86.08105059696932
 20
-114.4426269245143
 30
0.0
 10
86.08105059696932
 20
-114.4426269245143
 30
0.0
 10
86.08105059696932
 20
-114.4426269245143
 30
0.0
 10
85.23872475082574
 20
-115.0322550168149
 30
0.0
 10
85.23872475082574
 20
-115.0322550168149
 30
0.0
 10
85.05975204036702
 20
-114.7211628944968
 30
0.0
 10
85.0685370338544
 20
-114.6193603229077
 30
0.0
 10
85.21288653468636
 20
-114.1542724323989
 30
0.0
 10
85.30866018917631
 20
-113.844558348275
 30
0.0
 10
85.32347409976289
 20
-113.751368515399
 30
0.0
 10
85.24475366792493
 20
-113.6387138930313
 30
0.0
 10
85.17671303209124
 20
-113.5417344551215
 30
0.0
 10
85.04269881771502
 20
-113.4754163670305
 30
0.0
 10
84.88146834900533
 20
-113.5882432441724
 30
0.0
 10
84.66821693846836
 20
-113.7374158786837
 30
0.0
 10
84.79361841413146
 20
-113.931202499729
 30
0.0
 10
84.85683591628579
 20
-114.0290432115101
 30
0.0
 10
84.85683591628579
 20
-114.0290432115101
 30
0.0
 10
84.67304007214771
 20
-114.1575452731099
 30
0.0
 10
84.67304007214771
 20
-114.1575452731099
 30
0.0
 10
84.60723874837944
 20
-114.048680255776
 30
0.0
 10
84.55160045629266
 20
-113.9508395439949
 30
0.0
 10
84.5495333990015
 20
-113.8076958265828
 30
0.0
 10
84.54746634171036
 20
-113.6128756768919
 30
0.0
 10
84.68061928221526
 20
-113.4783446981929
 30
0.0
 10
84.77587617238243
 20
-113.4116821005533
 30
0.0
 10
85.00290796486038
 20
-113.2526909439091
 30
0.0
 10
85.27834334890612
 20
-113.2847303319219
 30
0.0
 10
85.43492293871071
 20
-113.5083170289146
 30
0.0
 10
85.56583656715021
 20
-113.6953857137637
 30
0.0
 10
85.52759600726394
 20
-113.8436970744037
 30
0.0
 10
85.404261588892
 20
-114.206121119452
 30
0.0
  0
HATCH
  5
DA
330
D5
100
AcDbEntity
  8
_U+30EC_U+30A4_U+30E4_U+30FC 1
 62
   179
420
  2234388
100
AcDbHatch
 10
0.0
 20
0.0
 30
0.0
210
0.0
220
0.0
230
1.0
  2
SOLID
 70
     1
 71
     0
 91
        1
 92
        1
 93
        1
 72
     4
 94
        3
 73
     0
 74
     1
 95
       44
 96
       40
 40
0.0
 40
0.0
 40
0.0
 40
0.0
 40
1.0
 40
1.0
 40
1.0
 40
2.0
 40
2.0
 40
2.0
 40
3.0
 40
3.0
 40
3.0
 40
4.0
 40
4.0
 40
4.0
 40
5.0
 40
5.0
 40
5.0
 40
6.0
 40
6.0
 40
6.0
 40
7.0
 40
7.0
 40
7.0
 40
8.0
 40
8.0
 40
8.0
 40
9.0
 40
9.0
 40
9.0
 40
10.0
 40
10.0
 40
10.0
 40
11.0
 40
11.0
 40
11.0
 40
12.0
 40
12.0
 40
12.0
 40
13.0
 40
13.0
 40
13.0
 40
13.0
 10
85.404261588892
 20
-114.206121119452
 10
85.31675616356665
 20
-114.4610581853604
 10
85.2829942278112
 20
-114.5750908459222
 10
85.32554115705403
 20
-114.7209906397225
 10
85.32554115705403
 20
-114.7209906397225
 10
85.96340058614804
 20
-114.2745062648342
 10
85.96340058614804
 20
-114.2745062648342
 10
85.96340058614804
 20
-114.2745062648342
 10
86.08105059696932
 20
-114.4426269245143
 10
86.08105059696932
 20
-114.4426269245143
 10
86.08105059696932
 20
-114.4426269245143
 10
85.23872475082574
 20
-115.0322550168149
 10
85.23872475082574
 20
-115.0322550168149
 10
85.05975204036702
 20
-114.7211628944968
 10
85.0685370338544
 20
-114.6193603229077
 10
85.21288653468636
 20
-114.1542724323989
 10
85.30866018917631
 20
-113.844558348275
 10
85.32347409976289
 20
-113.751368515399
 10
85.24475366792493
 20
-113.6387138930313
 10
85.17671303209124
 20
-113.5417344551215
 10
85.04269881771502
 20
-113.4754163670305
 10
84.88146834900533
 20
-113.5882432441724
 10
84.66821693846836
 20
-113.7374158786837
 10
84.79361841413146
 20
-113.931202499729
 10
84.85683591628579
 20
-114.0290432115101
 10
84.85683591628579
 20
-114.0290432115101
 10
84.67304007214771
 20
-114.1575452731099
 10
84.67304007214771
 20
-114.1575452731099
 10
84.60723874837944
 20
-114.048680255776
 10
84.55160045629266
 20
-113.9508395439949
 10
84.5495333990015
 20
-113.8076958265828
 10
84.54746634171036
 20
-113.6128756768919
 10
84.68061928221526
 20
-113.4783446981929
 10
84.77587617238243
 20
-113.4116821005533
 10
85.00290796486038
 20
-113.2526909439091
 10
85.27834334890612
 20
-113.2847303319219
 10
85.43492293871071
 20
-113.5083170289146
 10
85.56583656715021
 20
-113.6953857137637
 10
85.52759600726394
 20
-113.8436970744037
 10
85.404261588892
 20
-114.206121119452
 97
        0
 97
        0
 75
     2
 76
     1
 98
        0
  0
SPLINE
  5
DB
330
D5
100
AcDbEntity
  8
_U+30EC_U+30A4_U+30E4_U+30FC 1
370
     0
100
AcDbSpline
210
0.0
220
0.0
230
1.0
 70
    11
 71
     3
 72
    29
 73
    25
 74
     0
 42
0.0000000001
 43
0.0000000001
 12
1.0
 22
0.0
 32
0.0
 13
1.0
 23
0.0
 33
0.0
 40
0.0
 40
0.0
 40
0.0
 40
0.0
 40
1.0
 40
1.0
 40
1.0
 40
2.0
 40
2.0
 40
2.0
 40
3.0
 40
3.0
 40
3.0
 40
4.0
 40
4.0
 40
4.0
 40
5.0
 40
5.0
 40
5.0
 40
6.0
 40
6.0
 40
6.0
 40
7.0
 40
7.0
 40
7.0
 40
8.0
 40
8.0
 40
8.0
 40
8.0
 10
86.84982365450283
 20
-113.6878065036961
 30
0.0
 10
86.88151853296712
 20
-113.9212117228218
 30
0.0
 10
86.75026039497911
 20
-114.0362779120291
 30
0.0
 10
86.65483125003769
 20
-114.1029405096687
 30
0.0
 10
86.52322860250113
 20
-114.1952690686734
 30
0.0
 10
86.38042939463753
 20
-114.238332762239
 30
0.0
 10
86.19801158869356
 20
-114.1439371459432
 30
0.0
 10
86.00146889126006
 20
-114.0438571220967
 30
0.0
 10
85.85005694468332
 20
-113.8605780422814
 30
0.0
 10
85.75669485703305
 20
-113.7272528470022
 30
0.0
 10
85.67418482016132
 20
-113.6092583266324
 30
0.0
 10
85.54361570127035
 20
-113.3934230944815
 30
0.0
 10
85.51639944693687
 20
-113.1698363974888
 30
0.0
 10
85.48832191873208
 20
-112.941598821591
 30
0.0
 10
85.60666094865043
 20
-112.8303222374174
 30
0.0
 10
85.71242538004759
 20
-112.7562526844846
 30
0.0
 10
85.84230547984151
 20
-112.665302163674
 30
0.0
 10
85.98579370680217
 20
-112.6191378841716
 30
0.0
 10
86.16803925797188
 20
-112.7137057552417
 30
0.0
 10
86.3599310765003
 20
-112.8144747981853
 30
0.0
 10
86.50996498488293
 20
-112.9882798654161
 30
0.0
 10
86.60935598963239
 20
-113.1303900541827
 30
0.0
 10
86.70771346573628
 20
-113.2707776952066
 30
0.0
 10
86.82260740016935
 20
-113.4717990167709
 30
0.0
 10
86.84982365450283
 20
-113.6878065036961
 30
0.0
  0
SPLINE
  5
DC
330
D5
100
AcDbEntity
  8
_U+30EC_U+30A4_U+30E4_U+30FC 1
370
     0
100
AcDbSpline
210
0.0
220
0.0
230
1.0
 70
    11
 71
     3
 72
    17
 73
    13
 74
     0
 42
0.0000000001
 43
0.0000000001
 12
1.0
 22
0.0
 32
0.0
 13
1.0
 23
0.0
 33
0.0
 40
0.0
 40
0.0
 40
0.0
 40
0.0
 40
1.0
 40
1.0
 40
1.0
 40
2.0
 40
2.0
 40
2.0
 40
3.0
 40
3.0
 40
3.0
 40
4.0
 40
4.0
 40
4.0
 40
4.0
 10
85.82284069034985
 20
-112.914038057709
 30
0.0
 10
85.618202018526
 20
-113.0571817751211
 30
0.0
 10
85.7427422203178
 20
-113.3160807008376
 30
0.0
 10
85.94031844639687
 20
-113.5985785306281
 30
0.0
 10
86.12359752621217
 20
-113.8602335327329
 30
0.0
 10
86.33013100055288
 20
-114.0927774779872
 30
0.0
 10
86.54338241108985
 20
-113.9436048434759
 30
0.0
 10
86.74612628039681
 20
-113.8016669094836
 30
0.0
 10
86.62468666454176
 20
-113.5431124933156
 30
0.0
 10
86.42573240026857
 20
-113.2588921157825
 30
0.0
 10
86.24245332045328
 20
-112.9972371136778
 30
0.0
 10
86.03419729836993
 20
-112.7660712066175
 30
0.0
 10
85.82284069034985
 20
-112.914038057709
 30
0.0
  0
HATCH
  5
DD
330
D5
100
AcDbEntity
  8
_U+30EC_U+30A4_U+30E4_U+30FC 1
 62
   179
420
  2234388
100
AcDbHatch
 10
0.0
 20
0.0
 30
0.0
210
0.0
220
0.0
230
1.0
  2
SOLID
 70
     1
 71
     0
 91
        2
 92
        1
 93
        1
 72
     4
 94
        3
 73
     0
 74
     1
 95
       29
 96
       25
 40
0.0
 40
0.0
 40
0.0
 40
0.0
 40
1.0
 40
1.0
 40
1.0
 40
2.0
 40
2.0
 40
2.0
 40
3.0
 40
3.0
 40
3.0
 40
4.0
 40
4.0
 40
4.0
 40
5.0
 40
5.0
 40
5.0
 40
6.0
 40
6.0
 40
6.0
 40
7.0
 40
7.0
 40
7.0
 40
8.0
 40
8.0
 40
8.0
 40
8.0
 10
86.84982365450283
 20
-113.6878065036961
 10
86.88151853296712
 20
-113.9212117228218
 10
86.75026039497911
 20
-114.0362779120291
 10
86.65483125003769
 20
-114.1029405096687
 10
86.52322860250113
 20
-114.1952690686734
 10
86.38042939463753
 20
-114.238332762239
 10
86.19801158869356
 20
-114.1439371459432
 10
86.00146889126006
 20
-114.0438571220967
 10
85.85005694468332
 20
-113.8605780422814
 10
85.75669485703305
 20
-113.7272528470022
 10
85.67418482016132
 20
-113.6092583266324
 10
85.54361570127035
 20
-113.3934230944815
 10
85.51639944693687
 20
-113.1698363974888
 10
85.48832191873208
 20
-112.941598821591
 10
85.60666094865043
 20
-112.8303222374174
 10
85.71242538004759
 20
-112.7562526844846
 10
85.84230547984151
 20
-112.665302163674
 10
85.98579370680217
 20
-112.6191378841716
 10
86.16803925797188
 20
-112.7137057552417
 10
86.3599310765003
 20
-112.8144747981853
 10
86.50996498488293
 20
-112.9882798654161
 10
86.60935598963239
 20
-113.1303900541827
 10
86.70771346573628
 20
-113.2707776952066
 10
86.82260740016935
 20
-113.4717990167709
 10
86.84982365450283
 20
-113.6878065036961
 97
        0
 97
        0
 92
        1
 93
        1
 72
     4
 94
        3
 73
     0
 74
     1
 95
       17
 96
       13
 40
0.0
 40
0.0
 40
0.0
 40
0.0
 40
1.0
 40
1.0
 40
1.0
 40
2.0
 40
2.0
 40
2.0
 40
3.0
 40
3.0
 40
3.0
 40
4.0
 40
4.0
 40
4.0
 40
4.0
 10
85.82284069034985
 20
-112.914038057709
 10
85.618202018526
 20
-113.0571817751211
 10
85.7427422203178
 20
-113.3160807008376
 10
85.94031844639687
 20
-113.5985785306281
 10
86.12359752621217
 20
-113.8602335327329
 10
86.33013100055288
 20
-114.0927774779872
 10
86.54338241108985
 20
-113.9436048434759
 10
86.74612628039681
 20
-113.8016669094836
 10
86.62468666454176
 20
-113.5431124933156
 10
86.42573240026857
 20
-113.2588921157825
 10
86.24245332045328
 20
-112.9972371136778
 10
86.03419729836993
 20
-112.7660712066175
 10
85.82284069034985
 20
-112.914038057709
 97
        0
 97
        0
 75
     2
 76
     1
 98
        0
  0
ENDBLK
  5
D8
330
D5
100
AcDbEntity
  8
0
100
AcDbBlockEnd
  0
BLOCK
  5
E0
330
DE
100
AcDbEntity
  8
0
100
AcDbBlockBegin
  2
block 4
 70
     0
 10
0.0
 20
0.0
 30
0.0
  3
block 4
  1

  0
SPLINE
  5
E2
330
DE
100
AcDbEntity
  8
_U+30EC_U+30A4_U+30E4_U+30FC 1
370
     0
100
AcDbSpline
210
0.0
220
0.0
230
1.0
 70
    11
 71
     3
 72
    44
 73
    40
 74
     0
 42
0.0000000001
 43
0.0000000001
 12
1.0
 22
0.0
 32
0.0
 13
1.0
 23
0.0
 33
0.0
 40
0.0
 40
0.0
 40
0.0
 40
0.0
 40
1.0
 40
1.0
 40
1.0
 40
2.0
 40
2.0
 40
2.0
 40
3.0
 40
3.0
 40
3.0
 40
4.0
 40
4.0
 40
4.0
 40
5.0
 40
5.0
 40
5.0
 40
6.0
 40
6.0
 40
6.0
 40
7.0
 40
7.0
 40
7.0
 40
8.0
 40
8.0
 40
8.0
 40
9.0
 40
9.0
 40
9.0
 40
10.0
 40
10.0
 40
10.0
 40
11.0
 40
11.0
 40
11.0
 40
12.0
 40
12.0
 40
12.0
 40
13.0
 40
13.0
 40
13.0
 40
13.0
 10
97.55476885581965
 20
-114.1298122544537
 30
0.0
 10
97.28570689842164
 20
-114.1144815795443
 30
0.0
 10
97.16685110418051
 20
-114.1129312865759
 30
0.0
 10
97.03800453303216
 20
-114.1933742661565
 30
0.0
 10
97.03800453303216
 20
-114.1933742661565
 30
0.0
 10
97.64055173340236
 20
-114.68653968487
 30
0.0
 10
97.64055173340236
 20
-114.68653968487
 30
0.0
 10
97.64055173340236
 20
-114.68653968487
 30
0.0
 10
97.51067163360845
 20
-114.8451863319658
 30
0.0
 10
97.51067163360845
 20
-114.8451863319658
 30
0.0
 10
97.51067163360845
 20
-114.8451863319658
 30
0.0
 10
96.71485457651573
 20
-114.1940632852536
 30
0.0
 10
96.71485457651573
 20
-114.1940632852536
 30
0.0
 10
96.96600203739045
 20
-113.9375759263767
 30
0.0
 10
97.06625431601123
 20
-113.9184556464336
 30
0.0
 10
97.55304630807701
 20
-113.9315470092775
 30
0.0
 10
97.87722979323902
 20
-113.9396429836679
 30
0.0
 10
97.9705918808893
 20
-113.9287909328893
 30
0.0
 10
98.05775279666612
 20
-113.8225097371694
 30
0.0
 10
98.13285587824457
 20
-113.7306979424875
 30
0.0
 10
98.16007213257804
 20
-113.5837646200416
 30
0.0
 10
98.00779891213
 20
-113.4590521634755
 30
0.0
 10
97.8066053357914
 20
-113.2943765992806
 30
0.0
 10
97.65398760579484
 20
-113.4674926474144
 30
0.0
 10
97.57716197647377
 20
-113.5548258179655
 30
0.0
 10
97.57716197647377
 20
-113.5548258179655
 30
0.0
 10
97.40352916401717
 20
-113.4127156291989
 30
0.0
 10
97.40352916401717
 20
-113.4127156291989
 30
0.0
 10
97.49034557024548
 20
-113.3198703058714
 30
0.0
 10
97.56958276640621
 20
-113.2397718358394
 30
0.0
 10
97.70704207626768
 20
-113.1991197091134
 30
0.0
 10
97.89376625156822
 20
-113.1443426908979
 30
0.0
 10
98.05947534440875
 20
-113.2359822308056
 30
0.0
 10
98.14939233657377
 20
-113.3097072741899
 30
0.0
 10
98.36402178530483
 20
-113.4852348891634
 30
0.0
 10
98.40777449796751
 20
-113.7589477254665
 30
0.0
 10
98.23483070460796
 20
-113.9701320787123
 30
0.0
 10
98.09013669422747
 20
-114.1468654771056
 30
0.0
 10
97.93717445468238
 20
-114.1501383178166
 30
0.0
 10
97.55476885581965
 20
-114.1298122544537
 30
0.0
  0
HATCH
  5
E3
330
DE
100
AcDbEntity
  8
_U+30EC_U+30A4_U+30E4_U+30FC 1
 62
   179
420
  2234388
100
AcDbHatch
 10
0.0
 20
0.0
 30
0.0
210
0.0
220
0.0
230
1.0
  2
SOLID
 70
     1
 71
     0
 91
        1
 92
        1
 93
        1
 72
     4
 94
        3
 73
     0
 74
     1
 95
       44
 96
       40
 40
0.0
 40
0.0
 40
0.0
 40
0.0
 40
1.0
 40
1.0
 40
1.0
 40
2.0
 40
2.0
 40
2.0
 40
3.0
 40
3.0
 40
3.0
 40
4.0
 40
4.0
 40
4.0
 40
5.0
 40
5.0
 40
5.0
 40
6.0
 40
6.0
 40
6.0
 40
7.0
 40
7.0
 40
7.0
 40
8.0
 40
8.0
 40
8.0
 40
9.0
 40
9.0
 40
9.0
 40
10.0
 40
10.0
 40
10.0
 40
11.0
 40
11.0
 40
11.0
 40
12.0
 40
12.0
 40
12.0
 40
13.0
 40
13.0
 40
13.0
 40
13.0
 10
97.55476885581965
 20
-114.1298122544537
 10
97.28570689842164
 20
-114.1144815795443
 10
97.16685110418051
 20
-114.1129312865759
 10
97.03800453303216
 20
-114.1933742661565
 10
97.03800453303216
 20
-114.1933742661565
 10
97.64055173340236
 20
-114.68653968487
 10
97.64055173340236
 20
-114.68653968487
 10
97.64055173340236
 20
-114.68653968487
 10
97.51067163360845
 20
-114.8451863319658
 10
97.51067163360845
 20
-114.8451863319658
 10
97.51067163360845
 20
-114.8451863319658
 10
96.71485457651573
 20
-114.1940632852536
 10
96.71485457651573
 20
-114.1940632852536
 10
96.96600203739045
 20
-113.9375759263767
 10
97.06625431601123
 20
-113.9184556464336
 10
97.55304630807701
 20
-113.9315470092775
 10
97.87722979323902
 20
-113.9396429836679
 10
97.9705918808893
 20
-113.9287909328893
 10
98.05775279666612
 20
-113.8225097371694
 10
98.13285587824457
 20
-113.7306979424875
 10
98.16007213257804
 20
-113.5837646200416
 10
98.00779891213
 20
-113.4590521634755
 10
97.8066053357914
 20
-113.2943765992806
 10
97.65398760579484
 20
-113.4674926474144
 10
97.57716197647377
 20
-113.5548258179655
 10
97.57716197647377
 20
-113.5548258179655
 10
97.40352916401717
 20
-113.4127156291989
 10
97.40352916401717
 20
-113.4127156291989
 10
97.49034557024548
 20
-113.3198703058714
 10
97.56958276640621
 20
-113.2397718358394
 10
97.70704207626768
 20
-113.1991197091134
 10
97.89376625156822
 20
-113.1443426908979
 10
98.05947534440875
 20
-113.2359822308056
 10
98.14939233657377
 20
-113.3097072741899
 10
98.36402178530483
 20
-113.4852348891634
 10
98.40777449796751
 20
-113.7589477254665
 10
98.23483070460796
 20
-113.9701320787123
 10
98.09013669422747
 20
-114.1468654771056
 10
97.93717445468238
 20
-114.1501383178166
 10
97.55476885581965
 20
-114.1298122544537
 97
        0
 97
        0
 75
     2
 76
     1
 98
        0
  0
SPLINE
  5
E4
330
DE
100
AcDbEntity
  8
_U+30EC_U+30A4_U+30E4_U+30FC 1
370
     0
100
AcDbSpline
210
0.0
220
0.0
230
1.0
 70
    11
 71
     3
 72
    53
 73
    49
 74
     0
 42
0.0000000001
 43
0.0000000001
 12
1.0
 22
0.0
 32
0.0
 13
1.0
 23
0.0
 33
0.0
 40
0.0
 40
0.0
 40
0.0
 40
0.0
 40
1.0
 40
1.0
 40
1.0
 40
2.0
 40
2.0
 40
2.0
 40
3.0
 40
3.0
 40
3.0
 40
4.0
 40
4.0
 40
4.0
 40
5.0
 40
5.0
 40
5.0
 40
6.0
 40
6.0
 40
6.0
 40
7.0
 40
7.0
 40
7.0
 40
8.0
 40
8.0
 40
8.0
 40
9.0
 40
9.0
 40
9.0
 40
10.0
 40
10.0
 40
10.0
 40
11.0
 40
11.0
 40
11.0
 40
12.0
 40
12.0
 40
12.0
 40
13.0
 40
13.0
 40
13.0
 40
14.0
 40
14.0
 40
14.0
 40
15.0
 40
15.0
 40
15.0
 40
16.0
 40
16.0
 40
16.0
 40
16.0
 10
97.97817109095685
 20
-115.2935655093711
 30
0.0
 10
97.91753741041646
 20
-115.2439561343835
 30
0.0
 10
97.84966902935703
 20
-115.1666137407396
 30
0.0
 10
97.81142846947075
 20
-115.0532700992749
 30
0.0
 10
97.74666067434806
 20
-114.8582776948097
 30
0.0
 10
97.81349552676191
 20
-114.7432115056024
 30
0.0
 10
97.86723901633181
 20
-114.647782360661
 30
0.0
 10
97.86723901633181
 20
-114.647782360661
 30
0.0
 10
98.03914928104577
 20
-114.7883422564592
 30
0.0
 10
98.03914928104577
 20
-114.7883422564592
 30
0.0
 10
97.95577797030273
 20
-114.9771334890509
 30
0.0
 10
98.03501516646347
 20
-115.0804863536084
 30
0.0
 10
98.10701766210519
 20
-115.1393974864061
 30
0.0
 10
98.21519366034204
 20
-115.2277641856028
 30
0.0
 10
98.39606117331766
 20
-115.2474012298687
 30
0.0
 10
98.54351126008635
 20
-115.0672227359901
 30
0.0
 10
98.70543074789309
 20
-114.8691297455883
 30
0.0
 10
98.61069062204872
 20
-114.7011813406824
 30
0.0
 10
98.51732853439844
 20
-114.6248724756841
 30
0.0
 10
98.49286835645317
 20
-114.6047186670954
 30
0.0
 10
98.38296981047371
 20
-114.5149739297046
 30
0.0
 10
98.23241913776829
 20
-114.558554387593
 30
0.0
 10
98.23241913776829
 20
-114.558554387593
 30
0.0
 10
98.10874020984782
 20
-114.4326361476071
 30
0.0
 10
98.10874020984782
 20
-114.4326361476071
 30
0.0
 10
98.10874020984782
 20
-114.4326361476071
 30
0.0
 10
98.73781464545443
 20
-113.8542046156337
 30
0.0
 10
98.73781464545443
 20
-113.8542046156337
 30
0.0
 10
98.73781464545443
 20
-113.8542046156337
 30
0.0
 10
99.34036184582463
 20
-114.3471977795729
 30
0.0
 10
99.34036184582463
 20
-114.3471977795729
 30
0.0
 10
99.34036184582463
 20
-114.3471977795729
 30
0.0
 10
99.21702742745269
 20
-114.4977484522783
 30
0.0
 10
99.21702742745269
 20
-114.4977484522783
 30
0.0
 10
99.21702742745269
 20
-114.4977484522783
 30
0.0
 10
98.74057072184264
 20
-114.1079358981223
 30
0.0
 10
98.74057072184264
 20
-114.1079358981223
 30
0.0
 10
98.74057072184264
 20
-114.1079358981223
 30
0.0
 10
98.42189938945702
 20
-114.3938788233981
 30
0.0
 10
98.42189938945702
 20
-114.3938788233981
 30
0.0
 10
98.49080129916203
 20
-114.4064534219192
 30
0.0
 10
98.58037378177852
 20
-114.4276407591535
 30
0.0
 10
98.67201332168617
 20
-114.502743840732
 30
0.0
 10
98.86838376434541
 20
-114.6634575451189
 30
0.0
 10
98.93384057856515
 20
-114.9574964447849
 30
0.0
 10
98.73574758816329
 20
-115.1998589121723
 30
0.0
 10
98.5345540118247
 20
-115.4454942202706
 30
0.0
 10
98.21243758395384
 20
-115.485112818351
 30
0.0
 10
97.97817109095685
 20
-115.2935655093711
 30
0.0
  0
HATCH
  5
E5
330
DE
100
AcDbEntity
  8
_U+30EC_U+30A4_U+30E4_U+30FC 1
 62
   179
420
  2234388
100
AcDbHatch
 10
0.0
 20
0.0
 30
0.0
210
0.0
220
0.0
230
1.0
  2
SOLID
 70
     1
 71
     0
 91
        1
 92
        1
 93
        1
 72
     4
 94
        3
 73
     0
 74
     1
 95
       53
 96
       49
 40
0.0
 40
0.0
 40
0.0
 40
0.0
 40
1.0
 40
1.0
 40
1.0
 40
2.0
 40
2.0
 40
2.0
 40
3.0
 40
3.0
 40
3.0
 40
4.0
 40
4.0
 40
4.0
 40
5.0
 40
5.0
 40
5.0
 40
6.0
 40
6.0
 40
6.0
 40
7.0
 40
7.0
 40
7.0
 40
8.0
 40
8.0
 40
8.0
 40
9.0
 40
9.0
 40
9.0
 40
10.0
 40
10.0
 40
10.0
 40
11.0
 40
11.0
 40
11.0
 40
12.0
 40
12.0
 40
12.0
 40
13.0
 40
13.0
 40
13.0
 40
14.0
 40
14.0
 40
14.0
 40
15.0
 40
15.0
 40
15.0
 40
16.0
 40
16.0
 40
16.0
 40
16.0
 10
97.97817109095685
 20
-115.2935655093711
 10
97.91753741041646
 20
-115.2439561343835
 10
97.84966902935703
 20
-115.1666137407396
 10
97.81142846947075
 20
-115.0532700992749
 10
97.74666067434806
 20
-114.8582776948097
 10
97.81349552676191
 20
-114.7432115056024
 10
97.86723901633181
 20
-114.647782360661
 10
97.86723901633181
 20
-114.647782360661
 10
98.03914928104577
 20
-114.7883422564592
 10
98.03914928104577
 20
-114.7883422564592
 10
97.95577797030273
 20
-114.9771334890509
 10
98.03501516646347
 20
-115.0804863536084
 10
98.10701766210519
 20
-115.1393974864061
 10
98.21519366034204
 20
-115.2277641856028
 10
98.39606117331766
 20
-115.2474012298687
 10
98.54351126008635
 20
-115.0672227359901
 10
98.70543074789309
 20
-114.8691297455883
 10
98.61069062204872
 20
-114.7011813406824
 10
98.51732853439844
 20
-114.6248724756841
 10
98.49286835645317
 20
-114.6047186670954
 10
98.38296981047371
 20
-114.5149739297046
 10
98.23241913776829
 20
-114.558554387593
 10
98.23241913776829
 20
-114.558554387593
 10
98.10874020984782
 20
-114.4326361476071
 10
98.10874020984782
 20
-114.4326361476071
 10
98.10874020984782
 20
-114.4326361476071
 10
98.73781464545443
 20
-113.8542046156337
 10
98.73781464545443
 20
-113.8542046156337
 10
98.73781464545443
 20
-113.8542046156337
 10
99.34036184582463
 20
-114.3471977795729
 10
99.34036184582463
 20
-114.3471977795729
 10
99.34036184582463
 20
-114.3471977795729
 10
99.21702742745269
 20
-114.4977484522783
 10
99.21702742745269
 20
-114.4977484522783
 10
99.21702742745269
 20
-114.4977484522783
 10
98.74057072184264
 20
-114.1079358981223
 10
98.74057072184264
 20
-114.1079358981223
 10
98.74057072184264
 20
-114.1079358981223
 10
98.42189938945702
 20
-114.3938788233981
 10
98.42189938945702
 20
-114.3938788233981
 10
98.49080129916203
 20
-114.4064534219192
 10
98.58037378177852
 20
-114.4276407591535
 10
98.67201332168617
 20
-114.502743840732
 10
98.86838376434541
 20
-114.6634575451189
 10
98.93384057856515
 20
-114.9574964447849
 10
98.73574758816329
 20
-115.1998589121723
 10
98.5345540118247
 20
-115.4454942202706
 10
98.21243758395384
 20
-115.485112818351
 10
97.97817109095685
 20
-115.2935655093711
 97
        0
 97
        0
 75
     2
 76
     1
 98
        0
  0
ENDBLK
  5
E1
330
DE
100
AcDbEntity
  8
0
100
AcDbBlockEnd
  0
BLOCK
  5
E8
330
E6
100
AcDbEntity
  8
0
100
AcDbBlockBegin
  2
block 5
 70
     0
 10
0.0
 20
0.0
 30
0.0
  3
block 5
  1

  0
SPLINE
  5
EA
330
E6
100
AcDbEntity
  8
_U+30EC_U+30A4_U+30E4_U+30FC 1
370
     0
100
AcDbSpline
210
0.0
220
0.0
230
1.0
 70
    11
 71
     3
 72
    26
 73
    22
 74
     0
 42
0.0000000001
 43
0.0000000001
 12
1.0
 22
0.0
 32
0.0
 13
1.0
 23
0.0
 33
0.0
 40
0.0
 40
0.0
 40
0.0
 40
0.0
 40
1.0
 40
1.0
 40
1.0
 40
2.0
 40
2.0
 40
2.0
 40
3.0
 40
3.0
 40
3.0
 40
4.0
 40
4.0
 40
4.0
 40
5.0
 40
5.0
 40
5.0
 40
6.0
 40
6.0
 40
6.0
 40
7.0
 40
7.0
 40
7.0
 40
7.0
 10
82.1100612858961
 20
-129.0622341257206
 30
0.0
 10
82.1100612858961
 20
-129.0622341257206
 30
0.0
 10
82.1100612858961
 20
-127.9579087679237
 30
0.0
 10
82.1100612858961
 20
-127.9579087679237
 30
0.0
 10
82.1100612858961
 20
-127.9579087679237
 30
0.0
 10
81.78002113840917
 20
-127.9579087679237
 30
0.0
 10
81.78002113840917
 20
-127.9579087679237
 30
0.0
 10
81.78002113840917
 20
-127.9579087679237
 30
0.0
 10
81.78002113840917
 20
-127.8099419168322
 30
0.0
 10
81.78002113840917
 20
-127.8099419168322
 30
0.0
 10
82.11212834318725
 20
-127.7951280062457
 30
0.0
 10
82.15863713223813
 20
-127.6321749897934
 30
0.0
 10
82.18826495341128
 20
-127.5179700744573
 30
0.0
 10
82.18826495341128
 20
-127.5179700744573
 30
0.0
 10
82.33433700198586
 20
-127.5179700744573
 30
0.0
 10
82.33433700198586
 20
-127.5179700744573
 30
0.0
 10
82.33433700198586
 20
-127.5179700744573
 30
0.0
 10
82.33433700198586
 20
-129.0622341257206
 30
0.0
 10
82.33433700198586
 20
-129.0622341257206
 30
0.0
 10
82.33433700198586
 20
-129.0622341257206
 30
0.0
 10
82.1100612858961
 20
-129.0622341257206
 30
0.0
 10
82.1100612858961
 20
-129.0622341257206
 30
0.0
  0
HATCH
  5
EB
330
E6
100
AcDbEntity
  8
_U+30EC_U+30A4_U+30E4_U+30FC 1
 62
   179
420
  2234388
100
AcDbHatch
 10
0.0
 20
0.0
 30
0.0
210
0.0
220
0.0
230
1.0
  2
SOLID
 70
     1
 71
     0
 91
        1
 92
        1
 93
        1
 72
     4
 94
        3
 73
     0
 74
     1
 95
       26
 96
       22
 40
0.0
 40
0.0
 40
0.0
 40
0.0
 40
1.0
 40
1.0
 40
1.0
 40
2.0
 40
2.0
 40
2.0
 40
3.0
 40
3.0
 40
3.0
 40
4.0
 40
4.0
 40
4.0
 40
5.0
 40
5.0
 40
5.0
 40
6.0
 40
6.0
 40
6.0
 40
7.0
 40
7.0
 40
7.0
 40
7.0
 10
82.1100612858961
 20
-129.0622341257206
 10
82.1100612858961
 20
-129.0622341257206
 10
82.1100612858961
 20
-127.9579087679237
 10
82.1100612858961
 20
-127.9579087679237
 10
82.1100612858961
 20
-127.9579087679237
 10
81.78002113840917
 20
-127.9579087679237
 10
81.78002113840917
 20
-127.9579087679237
 10
81.78002113840917
 20
-127.9579087679237
 10
81.78002113840917
 20
-127.8099419168322
 10
81.78002113840917
 20
-127.8099419168322
 10
82.11212834318725
 20
-127.7951280062457
 10
82.15863713223813
 20
-127.6321749897934
 10
82.18826495341128
 20
-127.5179700744573
 10
82.18826495341128
 20
-127.5179700744573
 10
82.33433700198586
 20
-127.5179700744573
 10
82.33433700198586
 20
-127.5179700744573
 10
82.33433700198586
 20
-127.5179700744573
 10
82.33433700198586
 20
-129.0622341257206
 10
82.33433700198586
 20
-129.0622341257206
 10
82.33433700198586
 20
-129.0622341257206
 10
82.1100612858961
 20
-129.0622341257206
 10
82.1100612858961
 20
-129.0622341257206
 97
        0
 97
        0
 75
     2
 76
     1
 98
        0
  0
SPLINE
  5
EC
330
E6
100
AcDbEntity
  8
_U+30EC_U+30A4_U+30E4_U+30FC 1
370
     0
100
AcDbSpline
210
0.0
220
0.0
230
1.0
 70
    11
 71
     3
 72
    29
 73
    25
 74
     0
 42
0.0000000001
 43
0.0000000001
 12
1.0
 22
0.0
 32
0.0
 13
1.0
 23
0.0
 33
0.0
 40
0.0
 40
0.0
 40
0.0
 40
0.0
 40
1.0
 40
1.0
 40
1.0
 40
2.0
 40
2.0
 40
2.0
 40
3.0
 40
3.0
 40
3.0
 40
4.0
 40
4.0
 40
4.0
 40
5.0
 40
5.0
 40
5.0
 40
6.0
 40
6.0
 40
6.0
 40
7.0
 40
7.0
 40
7.0
 40
8.0
 40
8.0
 40
8.0
 40
8.0
 10
83.73321802377156
 20
-128.8844671986817
 30
0.0
 10
83.62538653508324
 20
-129.0939290041848
 30
0.0
 10
83.4519259774009
 20
-129.1128770293537
 30
0.0
 10
83.33548174999947
 20
-129.1128770293537
 30
0.0
 10
83.17476804561257
 20
-129.1128770293537
 30
0.0
 10
83.03300236639453
 20
-129.0663682403029
 30
0.0
 10
82.93774547622738
 20
-128.8844671986817
 30
0.0
 10
82.83422035689561
 20
-128.6898193037651
 30
0.0
 10
82.81510007695248
 20
-128.4529689891541
 30
0.0
 10
82.81510007695248
 20
-128.2900159727018
 30
0.0
 10
82.81510007695248
 20
-128.1461832361926
 30
0.0
 10
82.8319810448302
 20
-127.8945190109951
 30
0.0
 10
82.93774547622738
 20
-127.6955647467219
 30
0.0
 10
83.04574921968995
 20
-127.4924763678665
 30
0.0
 10
83.20646292407686
 20
-127.469221973341
 30
0.0
 10
83.33548174999947
 20
-127.469221973341
 30
0.0
 10
83.49412839709522
 20
-127.469221973341
 30
0.0
 10
83.63813338837866
 20
-127.5136637051008
 30
0.0
 10
83.73321802377156
 20
-127.6955647467219
 30
0.0
 10
83.83260902852102
 20
-127.8881455843474
 30
0.0
 10
83.85603567782071
 20
-128.1165554150195
 30
0.0
 10
83.85603567782071
 20
-128.2900159727018
 30
0.0
 10
83.85603567782071
 20
-128.461409473093
 30
0.0
 10
83.83484834058643
 20
-128.6920586158305
 30
0.0
 10
83.73321802377156
 20
-128.8844671986817
 30
0.0
  0
SPLINE
  5
ED
330
E6
100
AcDbEntity
  8
_U+30EC_U+30A4_U+30E4_U+30FC 1
370
     0
100
AcDbSpline
210
0.0
220
0.0
230
1.0
 70
    11
 71
     3
 72
    17
 73
    13
 74
     0
 42
0.0000000001
 43
0.0000000001
 12
1.0
 22
0.0
 32
0.0
 13
1.0
 23
0.0
 33
0.0
 40
0.0
 40
0.0
 40
0.0
 40
0.0
 40
1.0
 40
1.0
 40
1.0
 40
2.0
 40
2.0
 40
2.0
 40
3.0
 40
3.0
 40
3.0
 40
4.0
 40
4.0
 40
4.0
 40
4.0
 10
83.33548174999947
 20
-127.6618028109665
 30
0.0
 10
83.08588458209312
 20
-127.6618028109665
 30
0.0
 10
83.03937579304224
 20
-127.9453341694026
 30
0.0
 10
83.03937579304224
 20
-128.2900159727018
 30
0.0
 10
83.03937579304224
 20
-128.6095485789587
 30
0.0
 10
83.0753770408631
 20
-128.9182291344371
 30
0.0
 10
83.33548174999947
 20
-128.9182291344371
 30
0.0
 10
83.58301186061466
 20
-128.9182291344371
 30
0.0
 10
83.63175996173095
 20
-128.6369370880665
 30
0.0
 10
83.63175996173095
 20
-128.2900159727018
 30
0.0
 10
83.63175996173095
 20
-127.9706556212192
 30
0.0
 10
83.59369165661894
 20
-127.6618028109665
 30
0.0
 10
83.33548174999947
 20
-127.6618028109665
 30
0.0
  0
HATCH
  5
EE
330
E6
100
AcDbEntity
  8
_U+30EC_U+30A4_U+30E4_U+30FC 1
 62
   179
420
  2234388
100
AcDbHatch
 10
0.0
 20
0.0
 30
0.0
210
0.0
220
0.0
230
1.0
  2
SOLID
 70
     1
 71
     0
 91
        2
 92
        1
 93
        1
 72
     4
 94
        3
 73
     0
 74
     1
 95
       29
 96
       25
 40
0.0
 40
0.0
 40
0.0
 40
0.0
 40
1.0
 40
1.0
 40
1.0
 40
2.0
 40
2.0
 40
2.0
 40
3.0
 40
3.0
 40
3.0
 40
4.0
 40
4.0
 40
4.0
 40
5.0
 40
5.0
 40
5.0
 40
6.0
 40
6.0
 40
6.0
 40
7.0
 40
7.0
 40
7.0
 40
8.0
 40
8.0
 40
8.0
 40
8.0
 10
83.73321802377156
 20
-128.8844671986817
 10
83.62538653508324
 20
-129.0939290041848
 10
83.4519259774009
 20
-129.1128770293537
 10
83.33548174999947
 20
-129.1128770293537
 10
83.17476804561257
 20
-129.1128770293537
 10
83.03300236639453
 20
-129.0663682403029
 10
82.93774547622738
 20
-128.8844671986817
 10
82.83422035689561
 20
-128.6898193037651
 10
82.81510007695248
 20
-128.4529689891541
 10
82.81510007695248
 20
-128.2900159727018
 10
82.81510007695248
 20
-128.1461832361926
 10
82.8319810448302
 20
-127.8945190109951
 10
82.93774547622738
 20
-127.6955647467219
 10
83.04574921968995
 20
-127.4924763678665
 10
83.20646292407686
 20
-127.469221973341
 10
83.33548174999947
 20
-127.469221973341
 10
83.49412839709522
 20
-127.469221973341
 10
83.63813338837866
 20
-127.5136637051008
 10
83.73321802377156
 20
-127.6955647467219
 10
83.83260902852102
 20
-127.8881455843474
 10
83.85603567782071
 20
-128.1165554150195
 10
83.85603567782071
 20
-128.2900159727018
 10
83.85603567782071
 20
-128.461409473093
 10
83.83484834058643
 20
-128.6920586158305
 10
83.73321802377156
 20
-128.8844671986817
 97
        0
 97
        0
 92
        1
 93
        1
 72
     4
 94
        3
 73
     0
 74
     1
 95
       17
 96
       13
 40
0.0
 40
0.0
 40
0.0
 40
0.0
 40
1.0
 40
1.0
 40
1.0
 40
2.0
 40
2.0
 40
2.0
 40
3.0
 40
3.0
 40
3.0
 40
4.0
 40
4.0
 40
4.0
 40
4.0
 10
83.33548174999947
 20
-127.6618028109665
 10
83.08588458209312
 20
-127.6618028109665
 10
83.03937579304224
 20
-127.9453341694026
 10
83.03937579304224
 20
-128.2900159727018
 10
83.03937579304224
 20
-128.6095485789587
 10
83.0753770408631
 20
-128.9182291344371
 10
83.33548174999947
 20
-128.9182291344371
 10
83.58301186061466
 20
-128.9182291344371
 10
83.63175996173095
 20
-128.6369370880665
 10
83.63175996173095
 20
-128.2900159727018
 10
83.63175996173095
 20
-127.9706556212192
 10
83.59369165661894
 20
-127.6618028109665
 10
83.33548174999947
 20
-127.6618028109665
 97
        0
 97
        0
 75
     2
 76
     1
 98
        0
  0
SPLINE
  5
EF
330
E6
100
AcDbEntity
  8
_U+30EC_U+30A4_U+30E4_U+30FC 1
370
     0
100
AcDbSpline
210
0.0
220
0.0
230
1.0
 70
    11
 71
     3
 72
    29
 73
    25
 74
     0
 42
0.0000000001
 43
0.0000000001
 12
1.0
 22
0.0
 32
0.0
 13
1.0
 23
0.0
 33
0.0
 40
0.0
 40
0.0
 40
0.0
 40
0.0
 40
1.0
 40
1.0
 40
1.0
 40
2.0
 40
2.0
 40
2.0
 40
3.0
 40
3.0
 40
3.0
 40
4.0
 40
4.0
 40
4.0
 40
5.0
 40
5.0
 40
5.0
 40
6.0
 40
6.0
 40
6.0
 40
7.0
 40
7.0
 40
7.0
 40
8.0
 40
8.0
 40
8.0
 40
8.0
 10
84.9100626415329
 20
-128.8844671986817
 30
0.0
 10
84.80223115284458
 20
-129.0939290041848
 30
0.0
 10
84.62877059516225
 20
-129.1128770293537
 30
0.0
 10
84.5123263677608
 20
-129.1128770293537
 30
0.0
 10
84.3516126633739
 20
-129.1128770293537
 30
0.0
 10
84.20984698415587
 20
-129.0663682403029
 30
0.0
 10
84.11476234876298
 20
-128.8844671986817
 30
0.0
 10
84.01106497465696
 20
-128.6898193037651
 30
0.0
 10
83.99194469471382
 20
-128.4529689891541
 30
0.0
 10
83.99194469471382
 20
-128.2900159727018
 30
0.0
 10
83.99194469471382
 20
-128.1461832361926
 30
0.0
 10
84.0089979173658
 20
-127.8945190109951
 30
0.0
 10
84.11476234876298
 20
-127.6955647467219
 30
0.0
 10
84.2225938374513
 20
-127.4924763678665
 30
0.0
 10
84.3833075418382
 20
-127.469221973341
 30
0.0
 10
84.5123263677608
 20
-127.469221973341
 30
0.0
 10
84.67114526963083
 20
-127.469221973341
 30
0.0
 10
84.81497800614001
 20
-127.5136637051008
 30
0.0
 10
84.9100626415329
 20
-127.6955647467219
 30
0.0
 10
85.00962590105662
 20
-127.8881455843474
 30
0.0
 10
85.03288029558206
 20
-128.1165554150195
 30
0.0
 10
85.03288029558206
 20
-128.2900159727018
 30
0.0
 10
85.03288029558206
 20
-128.461409473093
 30
0.0
 10
85.01169295834778
 20
-128.6920586158305
 30
0.0
 10
84.9100626415329
 20
-128.8844671986817
 30
0.0
  0
SPLINE
  5
F0
330
E6
100
AcDbEntity
  8
_U+30EC_U+30A4_U+30E4_U+30FC 1
370
     0
100
AcDbSpline
210
0.0
220
0.0
230
1.0
 70
    11
 71
     3
 72
    17
 73
    13
 74
     0
 42
0.0000000001
 43
0.0000000001
 12
1.0
 22
0.0
 32
0.0
 13
1.0
 23
0.0
 33
0.0
 40
0.0
 40
0.0
 40
0.0
 40
0.0
 40
1.0
 40
1.0
 40
1.0
 40
2.0
 40
2.0
 40
2.0
 40
3.0
 40
3.0
 40
3.0
 40
4.0
 40
4.0
 40
4.0
 40
4.0
 10
84.5123263677608
 20
-127.6618028109665
 30
0.0
 10
84.26272919985446
 20
-127.6618028109665
 30
0.0
 10
84.21622041080359
 20
-127.9453341694026
 30
0.0
 10
84.21622041080359
 20
-128.2900159727018
 30
0.0
 10
84.21622041080359
 20
-128.6095485789587
 30
0.0
 10
84.25222165862445
 20
-128.9182291344371
 30
0.0
 10
84.5123263677608
 20
-128.9182291344371
 30
0.0
 10
84.75985647837601
 20
-128.9182291344371
 30
0.0
 10
84.8086045794923
 20
-128.6369370880665
 30
0.0
 10
84.8086045794923
 20
-128.2900159727018
 30
0.0
 10
84.8086045794923
 20
-127.9706556212192
 30
0.0
 10
84.77053627438029
 20
-127.6618028109665
 30
0.0
 10
84.5123263677608
 20
-127.6618028109665
 30
0.0
  0
HATCH
  5
F1
330
E6
100
AcDbEntity
  8
_U+30EC_U+30A4_U+30E4_U+30FC 1
 62
   179
420
  2234388
100
AcDbHatch
 10
0.0
 20
0.0
 30
0.0
210
0.0
220
0.0
230
1.0
  2
SOLID
 70
     1
 71
     0
 91
        2
 92
        1
 93
        1
 72
     4
 94
        3
 73
     0
 74
     1
 95
       29
 96
       25
 40
0.0
 40
0.0
 40
0.0
 40
0.0
 40
1.0
 40
1.0
 40
1.0
 40
2.0
 40
2.0
 40
2.0
 40
3.0
 40
3.0
 40
3.0
 40
4.0
 40
4.0
 40
4.0
 40
5.0
 40
5.0
 40
5.0
 40
6.0
 40
6.0
 40
6.0
 40
7.0
 40
7.0
 40
7.0
 40
8.0
 40
8.0
 40
8.0
 40
8.0
 10
84.9100626415329
 20
-128.8844671986817
 10
84.80223115284458
 20
-129.0939290041848
 10
84.62877059516225
 20
-129.1128770293537
 10
84.5123263677608
 20
-129.1128770293537
 10
84.3516126633739
 20
-129.1128770293537
 10
84.20984698415587
 20
-129.0663682403029
 10
84.11476234876298
 20
-128.8844671986817
 10
84.01106497465696
 20
-128.6898193037651
 10
83.99194469471382
 20
-128.4529689891541
 10
83.99194469471382
 20
-128.2900159727018
 10
83.99194469471382
 20
-128.1461832361926
 10
84.0089979173658
 20
-127.8945190109951
 10
84.11476234876298
 20
-127.6955647467219
 10
84.2225938374513
 20
-127.4924763678665
 10
84.3833075418382
 20
-127.469221973341
 10
84.5123263677608
 20
-127.469221973341
 10
84.67114526963083
 20
-127.469221973341
 10
84.81497800614001
 20
-127.5136637051008
 10
84.9100626415329
 20
-127.6955647467219
 10
85.00962590105662
 20
-127.8881455843474
 10
85.03288029558206
 20
-128.1165554150195
 10
85.03288029558206
 20
-128.2900159727018
 10
85.03288029558206
 20
-128.461409473093
 10
85.01169295834778
 20
-128.6920586158305
 10
84.9100626415329
 20
-128.8844671986817
 97
        0
 97
        0
 92
        1
 93
        1
 72
     4
 94
        3
 73
     0
 74
     1
 95
       17
 96
       13
 40
0.0
 40
0.0
 40
0.0
 40
0.0
 40
1.0
 40
1.0
 40
1.0
 40
2.0
 40
2.0
 40
2.0
 40
3.0
 40
3.0
 40
3.0
 40
4.0
 40
4.0
 40
4.0
 40
4.0
 10
84.5123263677608
 20
-127.6618028109665
 10
84.26272919985446
 20
-127.6618028109665
 10
84.21622041080359
 20
-127.9453341694026
 10
84.21622041080359
 20
-128.2900159727018
 10
84.21622041080359
 20
-128.6095485789587
 10
84.25222165862445
 20
-128.9182291344371
 10
84.5123263677608
 20
-128.9182291344371
 10
84.75985647837601
 20
-128.9182291344371
 10
84.8086045794923
 20
-128.6369370880665
 10
84.8086045794923
 20
-128.2900159727018
 10
84.8086045794923
 20
-127.9706556212192
 10
84.77053627438029
 20
-127.6618028109665
 10
84.5123263677608
 20
-127.6618028109665
 97
        0
 97
        0
 75
     2
 76
     1
 98
        0
  0
ENDBLK
  5
E9
330
E6
100
AcDbEntity
  8
0
100
AcDbBlockEnd
  0
BLOCK
  5
F4
330
F2
100
AcDbEntity
  8
0
100
AcDbBlockBegin
  2
block 6
 70
     0
 10
0.0
 20
0.0
 30
0.0
  3
block 6
  1

  0
SPLINE
  5
F6
330
F2
100
AcDbEntity
  8
_U+30EC_U+30A4_U+30E4_U+30FC 1
370
     0
100
AcDbSpline
210
0.0
220
0.0
230
1.0
 70
    11
 71
     3
 72
    35
 73
    31
 74
     0
 42
0.0000000001
 43
0.0000000001
 12
1.0
 22
0.0
 32
0.0
 13
1.0
 23
0.0
 33
0.0
 40
0.0
 40
0.0
 40
0.0
 40
0.0
 40
1.0
 40
1.0
 40
1.0
 40
2.0
 40
2.0
 40
2.0
 40
3.0
 40
3.0
 40
3.0
 40
4.0
 40
4.0
 40
4.0
 40
5.0
 40
5.0
 40
5.0
 40
6.0
 40
6.0
 40
6.0
 40
7.0
 40
7.0
 40
7.0
 40
8.0
 40
8.0
 40
8.0
 40
9.0
 40
9.0
 40
9.0
 40
10.0
 40
10.0
 40
10.0
 40
10.0
 10
80.84329967596973
 20
-120.753352834395
 30
0.0
 10
80.84329967596973
 20
-120.753352834395
 30
0.0
 10
80.79265677233656
 20
-121.0177639128879
 30
0.0
 10
80.79265677233656
 20
-121.0177639128879
 30
0.0
 10
80.93218313948918
 20
-121.0305107661834
 30
0.0
 10
81.26015622968497
 20
-121.1214612869939
 30
0.0
 10
81.26015622968497
 20
-121.5128241341183
 30
0.0
 10
81.26015622968497
 20
-121.9908311326967
 30
0.0
 10
80.85397947197401
 20
-122.1157158440371
 30
0.0
 10
80.5788885974768
 20
-122.1157158440371
 30
0.0
 10
80.5788885974768
 20
-122.1157158440371
 30
0.0
 10
80.51119247119165
 20
-122.4690103860494
 30
0.0
 10
80.51119247119165
 20
-122.4690103860494
 30
0.0
 10
80.51119247119165
 20
-122.4690103860494
 30
0.0
 10
80.30396997775387
 20
-122.4690103860494
 30
0.0
 10
80.30396997775387
 20
-122.4690103860494
 30
0.0
 10
80.30396997775387
 20
-122.4690103860494
 30
0.0
 10
80.37580021862134
 20
-122.1009019334505
 30
0.0
 10
80.37580021862134
 20
-122.1009019334505
 30
0.0
 10
80.26796872993302
 20
-122.0817816535073
 30
0.0
 10
79.9167412452118
 20
-122.0204589538699
 30
0.0
 10
79.9167412452118
 20
-121.6037746549289
 30
0.0
 10
79.9167412452118
 20
-121.1552232227494
 30
0.0
 10
80.27227509928957
 20
-121.0050170595925
 30
0.0
 10
80.58732908141567
 20
-121.0050170595925
 30
0.0
 10
80.58732908141567
 20
-121.0050170595925
 30
0.0
 10
80.63607718253196
 20
-120.753352834395
 30
0.0
 10
80.63607718253196
 20
-120.753352834395
 30
0.0
 10
80.63607718253196
 20
-120.753352834395
 30
0.0
 10
80.84329967596973
 20
-120.753352834395
 30
0.0
 10
80.84329967596973
 20
-120.753352834395
 30
0.0
  0
SPLINE
  5
F7
330
F2
100
AcDbEntity
  8
_U+30EC_U+30A4_U+30E4_U+30FC 1
370
     0
100
AcDbSpline
210
0.0
220
0.0
230
1.0
 70
    11
 71
     3
 72
    14
 73
    10
 74
     0
 42
0.0000000001
 43
0.0000000001
 12
1.0
 22
0.0
 32
0.0
 13
1.0
 23
0.0
 33
0.0
 40
0.0
 40
0.0
 40
0.0
 40
0.0
 40
1.0
 40
1.0
 40
1.0
 40
2.0
 40
2.0
 40
2.0
 40
3.0
 40
3.0
 40
3.0
 40
3.0
 10
80.55356714566022
 20
-121.1784776172748
 30
0.0
 10
80.43298880367648
 20
-121.1869181012137
 30
0.0
 10
80.1389499040104
 20
-121.2101724957391
 30
0.0
 10
80.1389499040104
 20
-121.6079087695112
 30
0.0
 10
80.1389499040104
 20
-121.6714707812141
 30
0.0
 10
80.1389499040104
 20
-121.8850667012996
 30
0.0
 10
80.4076673518599
 20
-121.9295084330593
 30
0.0
 10
80.4076673518599
 20
-121.9295084330593
 30
0.0
 10
80.55356714566022
 20
-121.1784776172748
 30
0.0
 10
80.55356714566022
 20
-121.1784776172748
 30
0.0
  0
SPLINE
  5
F8
330
F2
100
AcDbEntity
  8
_U+30EC_U+30A4_U+30E4_U+30FC 1
370
     0
100
AcDbSpline
210
0.0
220
0.0
230
1.0
 70
    11
 71
     3
 72
    14
 73
    10
 74
     0
 42
0.0000000001
 43
0.0000000001
 12
1.0
 22
0.0
 32
0.0
 13
1.0
 23
0.0
 33
0.0
 40
0.0
 40
0.0
 40
0.0
 40
0.0
 40
1.0
 40
1.0
 40
1.0
 40
2.0
 40
2.0
 40
2.0
 40
3.0
 40
3.0
 40
3.0
 40
3.0
 10
80.61488984529767
 20
-121.9379489169982
 30
0.0
 10
80.79679088691886
 20
-121.9338148024159
 30
0.0
 10
81.04018688295176
 20
-121.8533718228353
 30
0.0
 10
81.04018688295176
 20
-121.4980102235318
 30
0.0
 10
81.04018688295176
 20
-121.4048203906557
 30
0.0
 10
81.02744002965633
 20
-121.2165459223868
 30
0.0
 10
80.75665552451571
 20
-121.1891574132791
 30
0.0
 10
80.75665552451571
 20
-121.1891574132791
 30
0.0
 10
80.61488984529767
 20
-121.9379489169982
 30
0.0
 10
80.61488984529767
 20
-121.9379489169982
 30
0.0
  0
HATCH
  5
F9
330
F2
100
AcDbEntity
  8
_U+30EC_U+30A4_U+30E4_U+30FC 1
 62
   179
420
  2234388
100
AcDbHatch
 10
0.0
 20
0.0
 30
0.0
210
0.0
220
0.0
230
1.0
  2
SOLID
 70
     1
 71
     0
 91
        3
 92
        1
 93
        1
 72
     4
 94
        3
 73
     0
 74
     1
 95
       35
 96
       31
 40
0.0
 40
0.0
 40
0.0
 40
0.0
 40
1.0
 40
1.0
 40
1.0
 40
2.0
 40
2.0
 40
2.0
 40
3.0
 40
3.0
 40
3.0
 40
4.0
 40
4.0
 40
4.0
 40
5.0
 40
5.0
 40
5.0
 40
6.0
 40
6.0
 40
6.0
 40
7.0
 40
7.0
 40
7.0
 40
8.0
 40
8.0
 40
8.0
 40
9.0
 40
9.0
 40
9.0
 40
10.0
 40
10.0
 40
10.0
 40
10.0
 10
80.84329967596973
 20
-120.753352834395
 10
80.84329967596973
 20
-120.753352834395
 10
80.79265677233656
 20
-121.0177639128879
 10
80.79265677233656
 20
-121.0177639128879
 10
80.93218313948918
 20
-121.0305107661834
 10
81.26015622968497
 20
-121.1214612869939
 10
81.26015622968497
 20
-121.5128241341183
 10
81.26015622968497
 20
-121.9908311326967
 10
80.85397947197401
 20
-122.1157158440371
 10
80.5788885974768
 20
-122.1157158440371
 10
80.5788885974768
 20
-122.1157158440371
 10
80.51119247119165
 20
-122.4690103860494
 10
80.51119247119165
 20
-122.4690103860494
 10
80.51119247119165
 20
-122.4690103860494
 10
80.30396997775387
 20
-122.4690103860494
 10
80.30396997775387
 20
-122.4690103860494
 10
80.30396997775387
 20
-122.4690103860494
 10
80.37580021862134
 20
-122.1009019334505
 10
80.37580021862134
 20
-122.1009019334505
 10
80.26796872993302
 20
-122.0817816535073
 10
79.9167412452118
 20
-122.0204589538699
 10
79.9167412452118
 20
-121.6037746549289
 10
79.9167412452118
 20
-121.1552232227494
 10
80.27227509928957
 20
-121.0050170595925
 10
80.58732908141567
 20
-121.0050170595925
 10
80.58732908141567
 20
-121.0050170595925
 10
80.63607718253196
 20
-120.753352834395
 10
80.63607718253196
 20
-120.753352834395
 10
80.63607718253196
 20
-120.753352834395
 10
80.84329967596973
 20
-120.753352834395
 10
80.84329967596973
 20
-120.753352834395
 97
        0
 97
        0
 92
        1
 93
        1
 72
     4
 94
        3
 73
     0
 74
     1
 95
       14
 96
       10
 40
0.0
 40
0.0
 40
0.0
 40
0.0
 40
1.0
 40
1.0
 40
1.0
 40
2.0
 40
2.0
 40
2.0
 40
3.0
 40
3.0
 40
3.0
 40
3.0
 10
80.55356714566022
 20
-121.1784776172748
 10
80.43298880367648
 20
-121.1869181012137
 10
80.1389499040104
 20
-121.2101724957391
 10
80.1389499040104
 20
-121.6079087695112
 10
80.1389499040104
 20
-121.6714707812141
 10
80.1389499040104
 20
-121.8850667012996
 10
80.4076673518599
 20
-121.9295084330593
 10
80.4076673518599
 20
-121.9295084330593
 10
80.55356714566022
 20
-121.1784776172748
 10
80.55356714566022
 20
-121.1784776172748
 97
        0
 97
        0
 92
        1
 93
        1
 72
     4
 94
        3
 73
     0
 74
     1
 95
       14
 96
       10
 40
0.0
 40
0.0
 40
0.0
 40
0.0
 40
1.0
 40
1.0
 40
1.0
 40
2.0
 40
2.0
 40
2.0
 40
3.0
 40
3.0
 40
3.0
 40
3.0
 10
80.61488984529767
 20
-121.9379489169982
 10
80.79679088691886
 20
-121.9338148024159
 10
81.04018688295176
 20
-121.8533718228353
 10
81.04018688295176
 20
-121.4980102235318
 10
81.04018688295176
 20
-121.4048203906557
 10
81.02744002965633
 20
-121.2165459223868
 10
80.75665552451571
 20
-121.1891574132791
 10
80.75665552451571
 20
-121.1891574132791
 10
80.61488984529767
 20
-121.9379489169982
 10
80.61488984529767
 20
-121.9379489169982
 97
        0
 97
        0
 75
     2
 76
     1
 98
        0
  0
SPLINE
  5
FA
330
F2
100
AcDbEntity
  8
_U+30EC_U+30A4_U+30E4_U+30FC 1
370
     0
100
AcDbSpline
210
0.0
220
0.0
230
1.0
 70
    11
 71
     3
 72
    26
 73
    22
 74
     0
 42
0.0000000001
 43
0.0000000001
 12
1.0
 22
0.0
 32
0.0
 13
1.0
 23
0.0
 33
0.0
 40
0.0
 40
0.0
 40
0.0
 40
0.0
 40
1.0
 40
1.0
 40
1.0
 40
2.0
 40
2.0
 40
2.0
 40
3.0
 40
3.0
 40
3.0
 40
4.0
 40
4.0
 40
4.0
 40
5.0
 40
5.0
 40
5.0
 40
6.0
 40
6.0
 40
6.0
 40
7.0
 40
7.0
 40
7.0
 40
7.0
 10
81.88302949341814
 20
-122.1241563279759
 30
0.0
 10
81.88302949341814
 20
-122.1241563279759
 30
0.0
 10
81.6461791788072
 20
-122.1241563279759
 30
0.0
 10
81.6461791788072
 20
-122.1241563279759
 30
0.0
 10
81.6715006306238
 20
-121.8153035177233
 30
0.0
 10
81.86408146824927
 20
-121.2969889019674
 30
0.0
 10
82.27025822596022
 20
-120.791421139507
 30
0.0
 10
82.27025822596022
 20
-120.791421139507
 30
0.0
 10
81.43241100394745
 20
-120.791421139507
 30
0.0
 10
81.43241100394745
 20
-120.791421139507
 30
0.0
 10
81.43241100394745
 20
-120.791421139507
 30
0.0
 10
81.43241100394745
 20
-120.5798922767127
 30
0.0
 10
81.43241100394745
 20
-120.5798922767127
 30
0.0
 10
81.43241100394745
 20
-120.5798922767127
 30
0.0
 10
82.50710854057114
 20
-120.5798922767127
 30
0.0
 10
82.50710854057114
 20
-120.5798922767127
 30
0.0
 10
82.50710854057114
 20
-120.5798922767127
 30
0.0
 10
82.50710854057114
 20
-120.791421139507
 30
0.0
 10
82.50710854057114
 20
-120.791421139507
 30
0.0
 10
82.18344181973193
 20
-121.0811536698165
 30
0.0
 10
81.91696368394784
 20
-121.6735378385052
 30
0.0
 10
81.88302949341814
 20
-122.1241563279759
 30
0.0
  0
HATCH
  5
FB
330
F2
100
AcDbEntity
  8
_U+30EC_U+30A4_U+30E4_U+30FC 1
 62
   179
420
  2234388
100
AcDbHatch
 10
0.0
 20
0.0
 30
0.0
210
0.0
220
0.0
230
1.0
  2
SOLID
 70
     1
 71
     0
 91
        1
 92
        1
 93
        1
 72
     4
 94
        3
 73
     0
 74
     1
 95
       26
 96
       22
 40
0.0
 40
0.0
 40
0.0
 40
0.0
 40
1.0
 40
1.0
 40
1.0
 40
2.0
 40
2.0
 40
2.0
 40
3.0
 40
3.0
 40
3.0
 40
4.0
 40
4.0
 40
4.0
 40
5.0
 40
5.0
 40
5.0
 40
6.0
 40
6.0
 40
6.0
 40
7.0
 40
7.0
 40
7.0
 40
7.0
 10
81.88302949341814
 20
-122.1241563279759
 10
81.88302949341814
 20
-122.1241563279759
 10
81.6461791788072
 20
-122.1241563279759
 10
81.6461791788072
 20
-122.1241563279759
 10
81.6715006306238
 20
-121.8153035177233
 10
81.86408146824927
 20
-121.2969889019674
 10
82.27025822596022
 20
-120.791421139507
 10
82.27025822596022
 20
-120.791421139507
 10
81.43241100394745
 20
-120.791421139507
 10
81.43241100394745
 20
-120.791421139507
 10
81.43241100394745
 20
-120.791421139507
 10
81.43241100394745
 20
-120.5798922767127
 10
81.43241100394745
 20
-120.5798922767127
 10
81.43241100394745
 20
-120.5798922767127
 10
82.50710854057114
 20
-120.5798922767127
 10
82.50710854057114
 20
-120.5798922767127
 10
82.50710854057114
 20
-120.5798922767127
 10
82.50710854057114
 20
-120.791421139507
 10
82.50710854057114
 20
-120.791421139507
 10
82.18344181973193
 20
-121.0811536698165
 10
81.91696368394784
 20
-121.6735378385052
 10
81.88302949341814
 20
-122.1241563279759
 97
        0
 97
        0
 75
     2
 76
     1
 98
        0
  0
POLYLINE
  5
FC
330
F2
100
AcDbEntity
  8
_U+30EC_U+30A4_U+30E4_U+30FC 1
370
     0
100
AcDb2dPolyline
 66
     1
 10
0.0
 20
0.0
 30
0.0
  0
VERTEX
  5
FD
330
FC
100
AcDbEntity
  8
_U+30EC_U+30A4_U+30E4_U+30FC 1
370
     0
100
AcDbVertex
100
AcDb2dVertex
 10
82.70881888123252
 20
-122.1241563279759
 30
0.0
  0
VERTEX
  5
FE
330
FC
100
AcDbEntity
  8
_U+30EC_U+30A4_U+30E4_U+30FC 1
370
     0
100
AcDbVertex
100
AcDb2dVertex
 10
82.70881888123252
 20
-121.8724921027784
 30
0.0
  0
VERTEX
  5
FF
330
FC
100
AcDbEntity
  8
_U+30EC_U+30A4_U+30E4_U+30FC 1
370
     0
100
AcDbVertex
100
AcDb2dVertex
 10
82.96048310643002
 20
-121.8724921027784
 30
0.0
  0
VERTEX
  5
100
330
FC
100
AcDbEntity
  8
_U+30EC_U+30A4_U+30E4_U+30FC 1
370
     0
100
AcDbVertex
100
AcDb2dVertex
 10
82.96048310643002
 20
-122.1241563279759
 30
0.0
  0
VERTEX
  5
101
330
FC
100
AcDbEntity
  8
_U+30EC_U+30A4_U+30E4_U+30FC 1
370
     0
100
AcDbVertex
100
AcDb2dVertex
 10
82.70881888123252
 20
-122.1241563279759
 30
0.0
  0
SEQEND
  5
102
330
FC
100
AcDbEntity
  8
_U+30EC_U+30A4_U+30E4_U+30FC 1
370
     0
  0
HATCH
  5
103
330
F2
100
AcDbEntity
  8
_U+30EC_U+30A4_U+30E4_U+30FC 1
 62
   179
420
  2234388
100
AcDbHatch
 10
0.0
 20
0.0
 30
0.0
210
0.0
220
0.0
230
1.0
  2
SOLID
 70
     1
 71
     0
 91
        1
 92
        1
 93
        4
 72
     1
 10
82.70881888123252
 20
-122.1241563279759
 11
82.70881888123252
 21
-121.8724921027784
 72
     1
 10
82.70881888123252
 20
-121.8724921027784
 11
82.96048310643002
 21
-121.8724921027784
 72
     1
 10
82.96048310643002
 20
-121.8724921027784
 11
82.96048310643002
 21
-122.1241563279759
 72
     1
 10
82.96048310643002
 20
-122.1241563279759
 11
82.70881888123252
 21
-122.1241563279759
 97
        0
 75
     2
 76
     1
 98
        0
  0
SPLINE
  5
104
330
F2
100
AcDbEntity
  8
_U+30EC_U+30A4_U+30E4_U+30FC 1
370
     0
100
AcDbSpline
210
0.0
220
0.0
230
1.0
 70
    11
 71
     3
 72
    53
 73
    49
 74
     0
 42
0.0000000001
 43
0.0000000001
 12
1.0
 22
0.0
 32
0.0
 13
1.0
 23
0.0
 33
0.0
 40
0.0
 40
0.0
 40
0.0
 40
0.0
 40
1.0
 40
1.0
 40
1.0
 40
2.0
 40
2.0
 40
2.0
 40
3.0
 40
3.0
 40
3.0
 40
4.0
 40
4.0
 40
4.0
 40
5.0
 40
5.0
 40
5.0
 40
6.0
 40
6.0
 40
6.0
 40
7.0
 40
7.0
 40
7.0
 40
8.0
 40
8.0
 40
8.0
 40
9.0
 40
9.0
 40
9.0
 40
10.0
 40
10.0
 40
10.0
 40
11.0
 40
11.0
 40
11.0
 40
12.0
 40
12.0
 40
12.0
 40
13.0
 40
13.0
 40
13.0
 40
14.0
 40
14.0
 40
14.0
 40
15.0
 40
15.0
 40
15.0
 40
16.0
 40
16.0
 40
16.0
 40
16.0
 10
83.6779242412333
 20
-122.1749714863833
 30
0.0
 10
83.59972057371813
 20
-122.1749714863833
 30
0.0
 10
83.49809025690325
 20
-122.1579182637314
 30
0.0
 10
83.39663219486265
 20
-122.0945285068028
 30
0.0
 10
83.22317163718033
 20
-121.984457706049
 30
0.0
 10
83.20198429994603
 20
-121.8533718228353
 30
0.0
 10
83.1828640200029
 20
-121.745540334147
 30
0.0
 10
83.1828640200029
 20
-121.745540334147
 30
0.0
 10
83.40507267880152
 20
-121.745540334147
 30
0.0
 10
83.40507267880152
 20
-121.745540334147
 30
0.0
 10
83.46002195179125
 20
-121.9443223436459
 30
0.0
 10
83.5869737204227
 20
-121.973950164819
 30
0.0
 10
83.67999129852446
 20
-121.973950164819
 30
0.0
 10
83.81968992045132
 20
-121.973950164819
 30
0.0
 10
83.97196314089938
 20
-121.8745591600696
 30
0.0
 10
83.97196314089938
 20
-121.6418429600409
 30
0.0
 10
83.97196314089938
 20
-121.3858723654869
 30
0.0
 10
83.79212915656933
 20
-121.3161091819106
 30
0.0
 10
83.67155081458559
 20
-121.3161091819106
 30
0.0
 10
83.6398559361213
 20
-121.3161091819106
 30
0.0
 10
83.49809025690325
 20
-121.3161091819106
 30
0.0
 10
83.40920679338382
 20
-121.4451280078332
 30
0.0
 10
83.40920679338382
 20
-121.4451280078332
 30
0.0
 10
83.23367917841033
 20
-121.42600772789
 30
0.0
 10
83.23367917841033
 20
-121.42600772789
 30
0.0
 10
83.23367917841033
 20
-121.42600772789
 30
0.0
 10
83.35425752039407
 20
-120.5798922767127
 30
0.0
 10
83.35425752039407
 20
-120.5798922767127
 30
0.0
 10
83.35425752039407
 20
-120.5798922767127
 30
0.0
 10
84.13284910006054
 20
-120.5798922767127
 30
0.0
 10
84.13284910006054
 20
-120.5798922767127
 30
0.0
 10
84.13284910006054
 20
-120.5798922767127
 30
0.0
 10
84.13284910006054
 20
-120.7745401716293
 30
0.0
 10
84.13284910006054
 20
-120.7745401716293
 30
0.0
 10
84.13284910006054
 20
-120.7745401716293
 30
0.0
 10
83.51721053684639
 20
-120.7745401716293
 30
0.0
 10
83.51721053684639
 20
-120.7745401716293
 30
0.0
 10
83.51721053684639
 20
-120.7745401716293
 30
0.0
 10
83.45158146785239
 20
-121.197597897218
 30
0.0
 10
83.45158146785239
 20
-121.197597897218
 30
0.0
 10
83.51290416748984
 20
-121.1636637066883
 30
0.0
 10
83.59541420436156
 20
-121.1235283442851
 30
0.0
 10
83.71392548905416
 20
-121.1235283442851
 30
0.0
 10
83.96782902631708
 20
-121.1235283442851
 30
0.0
 10
84.204679340928
 20
-121.3097357552628
 30
0.0
 10
84.204679340928
 20
-121.6227226800978
 30
0.0
 10
84.204679340928
 20
-121.9401882290636
 30
0.0
 10
83.98040362483823
 20
-122.1749714863833
 30
0.0
 10
83.6779242412333
 20
-122.1749714863833
 30
0.0
  0
HATCH
  5
105
330
F2
100
AcDbEntity
  8
_U+30EC_U+30A4_U+30E4_U+30FC 1
 62
   179
420
  2234388
100
AcDbHatch
 10
0.0
 20
0.0
 30
0.0
210
0.0
220
0.0
230
1.0
  2
SOLID
 70
     1
 71
     0
 91
        1
 92
        1
 93
        1
 72
     4
 94
        3
 73
     0
 74
     1
 95
       53
 96
       49
 40
0.0
 40
0.0
 40
0.0
 40
0.0
 40
1.0
 40
1.0
 40
1.0
 40
2.0
 40
2.0
 40
2.0
 40
3.0
 40
3.0
 40
3.0
 40
4.0
 40
4.0
 40
4.0
 40
5.0
 40
5.0
 40
5.0
 40
6.0
 40
6.0
 40
6.0
 40
7.0
 40
7.0
 40
7.0
 40
8.0
 40
8.0
 40
8.0
 40
9.0
 40
9.0
 40
9.0
 40
10.0
 40
10.0
 40
10.0
 40
11.0
 40
11.0
 40
11.0
 40
12.0
 40
12.0
 40
12.0
 40
13.0
 40
13.0
 40
13.0
 40
14.0
 40
14.0
 40
14.0
 40
15.0
 40
15.0
 40
15.0
 40
16.0
 40
16.0
 40
16.0
 40
16.0
 10
83.6779242412333
 20
-122.1749714863833
 10
83.59972057371813
 20
-122.1749714863833
 10
83.49809025690325
 20
-122.1579182637314
 10
83.39663219486265
 20
-122.0945285068028
 10
83.22317163718033
 20
-121.984457706049
 10
83.20198429994603
 20
-121.8533718228353
 10
83.1828640200029
 20
-121.745540334147
 10
83.1828640200029
 20
-121.745540334147
 10
83.40507267880152
 20
-121.745540334147
 10
83.40507267880152
 20
-121.745540334147
 10
83.46002195179125
 20
-121.9443223436459
 10
83.5869737204227
 20
-121.973950164819
 10
83.67999129852446
 20
-121.973950164819
 10
83.81968992045132
 20
-121.973950164819
 10
83.97196314089938
 20
-121.8745591600696
 10
83.97196314089938
 20
-121.6418429600409
 10
83.97196314089938
 20
-121.3858723654869
 10
83.79212915656933
 20
-121.3161091819106
 10
83.67155081458559
 20
-121.3161091819106
 10
83.6398559361213
 20
-121.3161091819106
 10
83.49809025690325
 20
-121.3161091819106
 10
83.40920679338382
 20
-121.4451280078332
 10
83.40920679338382
 20
-121.4451280078332
 10
83.23367917841033
 20
-121.42600772789
 10
83.23367917841033
 20
-121.42600772789
 10
83.23367917841033
 20
-121.42600772789
 10
83.35425752039407
 20
-120.5798922767127
 10
83.35425752039407
 20
-120.5798922767127
 10
83.35425752039407
 20
-120.5798922767127
 10
84.13284910006054
 20
-120.5798922767127
 10
84.13284910006054
 20
-120.5798922767127
 10
84.13284910006054
 20
-120.5798922767127
 10
84.13284910006054
 20
-120.7745401716293
 10
84.13284910006054
 20
-120.7745401716293
 10
84.13284910006054
 20
-120.7745401716293
 10
83.51721053684639
 20
-120.7745401716293
 10
83.51721053684639
 20
-120.7745401716293
 10
83.51721053684639
 20
-120.7745401716293
 10
83.45158146785239
 20
-121.197597897218
 10
83.45158146785239
 20
-121.197597897218
 10
83.51290416748984
 20
-121.1636637066883
 10
83.59541420436156
 20
-121.1235283442851
 10
83.71392548905416
 20
-121.1235283442851
 10
83.96782902631708
 20
-121.1235283442851
 10
84.204679340928
 20
-121.3097357552628
 10
84.204679340928
 20
-121.6227226800978
 10
84.204679340928
 20
-121.9401882290636
 10
83.98040362483823
 20
-122.1749714863833
 10
83.6779242412333
 20
-122.1749714863833
 97
        0
 97
        0
 75
     2
 76
     1
 98
        0
  0
ENDBLK
  5
F5
330
F2
100
AcDbEntity
  8
0
100
AcDbBlockEnd
  0
ENDSEC
  0
SECTION
  2
ENTITIES
  0
INSERT
  5
42
330
1F
100
AcDbEntity
  8
_U+30EC_U+30A4_U+30E4_U+30FC 1
100
AcDbBlockReference
  2
block 2
 10
0.0
 20
0.0
 30
0.0
  0
ENDSEC
  0
SECTION
  2
OBJECTS
  0
DICTIONARY
  5
C
330
0
100
AcDbDictionary
281
     1
  3
ACAD_GROUP
350
D
  3
ACAD_LAYOUT
350
1A
  3
ACAD_MATERIAL
350
3B
  3
ACAD_MLEADERSTYLE
350
111
  3
ACAD_MLINESTYLE
350
17
  3
ACAD_PLOTSETTINGS
350
19
  3
ACAD_PLOTSTYLENAME
350
E
  3
ACAD_TABLESTYLE
350
110
  3
ACAD_VISUALSTYLE
350
2A
  0
SUN
  5
3F
330
29
100
AcDbSun
 90
        1
290
     0
 63
     7
421
 16777215
 40
1.0
291
     1
 91
  2455826
 92
 54000000
292
     0
 70
     2
 71
   256
280
     1
  0
DICTIONARY
  5
D
102
{ACAD_REACTORS
330
C
102
}
330
C
100
AcDbDictionary
281
     1
  0
DICTIONARY
  5
1A
102
{ACAD_REACTORS
330
C
102
}
330
C
100
AcDbDictionary
281
     1
  3
Layout1
350
1E
  3
Layout2
350
26
  3
Model
350
22
  0
DICTIONARY
  5
3B
102
{ACAD_REACTORS
330
C
102
}
330
C
100
AcDbDictionary
281
     1
  3
ByBlock
350
3D
  3
ByLayer
350
3C
  3
Global
350
3E
  0
DICTIONARY
  5
111
102
{ACAD_REACTORS
330
C
102
}
330
C
100
AcDbDictionary
281
     1
  0
DICTIONARY
  5
17
102
{ACAD_REACTORS
330
C
102
}
330
C
100
AcDbDictionary
281
     1
  3
Standard
350
18
  0
DICTIONARY
  5
19
102
{ACAD_REACTORS
330
C
102
}
330
C
100
AcDbDictionary
281
     1
  0
ACDBDICTIONARYWDFLT
  5
E
102
{ACAD_REACTORS
330
C
102
}
330
C
100
AcDbDictionary
281
     1
  3
Normal
350
F
100
AcDbDictionaryWithDefault
340
F
  0
DICTIONARY
  5
110
102
{ACAD_REACTORS
330
C
102
}
330
C
100
AcDbDictionary
281
     1
  0
DICTIONARY
  5
2A
102
{ACAD_REACTORS
330
C
102
}
330
C
100
AcDbDictionary
281
     1
  3
2dWireframe
350
2F
  3
3D Hidden
350
31
  3
3dWireframe
350
30
  3
Basic
350
32
  3
Brighten
350
36
  3
ColorChange
350
3A
  3
Conceptual
350
34
  3
Dim
350
35
  3
Facepattern
350
39
  3
Flat
350
2B
  3
FlatWithEdges
350
2C
  3
Gouraud
350
2D
  3
GouraudWithEdges
350
2E
  3
Linepattern
350
38
  3
Realistic
350
33
  3
Thicken
350
37
  0
LAYOUT
  5
1E
102
{ACAD_REACTORS
330
1A
102
}
330
1A
100
AcDbPlotSettings
  1

  2
none_device
  4

  6

 40
0.0
 41
0.0
 42
0.0
 43
0.0
 44
0.0
 45
0.0
 46
0.0
 47
0.0
 48
0.0
 49
0.0
140
0.0
141
0.0
142
1.0
143
1.0
 70
   688
 72
     0
 73
     0
 74
     5
  7

 75
    16
 76
     0
 77
     2
 78
   300
147
1.0
148
0.0
149
0.0
100
AcDbLayout
  1
Layout1
 70
     1
 71
     1
 10
0.0
 20
0.0
 11
12.0
 21
9.0
 12
0.0
 22
0.0
 32
0.0
 14
1.000000000000000E+20
 24
1.000000000000000E+20
 34
1.000000000000000E+20
 15
-1.000000000000000E+20
 25
-1.000000000000000E+20
 35
-1.000000000000000E+20
146
0.0
 13
0.0
 23
0.0
 33
0.0
 16
1.0
 26
0.0
 36
0.0
 17
0.0
 27
1.0
 37
0.0
 76
     0
330
1B
  0
LAYOUT
  5
26
102
{ACAD_REACTORS
330
1A
102
}
330
1A
100
AcDbPlotSettings
  1

  2
none_device
  4

  6

 40
0.0
 41
0.0
 42
0.0
 43
0.0
 44
0.0
 45
0.0
 46
0.0
 47
0.0
 48
0.0
 49
0.0
140
0.0
141
0.0
142
1.0
143
1.0
 70
   688
 72
     0
 73
     0
 74
     5
  7

 75
    16
 76
     0
 77
     2
 78
   300
147
1.0
148
0.0
149
0.0
100
AcDbLayout
  1
Layout2
 70
     1
 71
     2
 10
0.0
 20
0.0
 11
0.0
 21
0.0
 12
0.0
 22
0.0
 32
0.0
 14
0.0
 24
0.0
 34
0.0
 15
0.0
 25
0.0
 35
0.0
146
0.0
 13
0.0
 23
0.0
 33
0.0
 16
1.0
 26
0.0
 36
0.0
 17
0.0
 27
1.0
 37
0.0
 76
     0
330
23
  0
LAYOUT
  5
22
102
{ACAD_REACTORS
330
1A
102
}
330
1A
100
AcDbPlotSettings
  1

  2
none_device
  4

  6

 40
0.0
 41
0.0
 42
0.0
 43
0.0
 44
0.0
 45
0.0
 46
0.0
 47
0.0
 48
0.0
 49
0.0
140
0.0
141
0.0
142
1.0
143
1.0
 70
  1712
 72
     0
 73
     0
 74
     0
  7

 75
     0
 76
     0
 77
     2
 78
   300
147
1.0
148
0.0
149
0.0
100
AcDbLayout
  1
Model
 70
     1
 71
     0
 10
0.0
 20
0.0
 11
12.0
 21
9.0
 12
0.0
 22
0.0
 32
0.0
 14
1.000000000000000E+20
 24
1.000000000000000E+20
 34
1.000000000000000E+20
 15
-1.000000000000000E+20
 25
-1.000000000000000E+20
 35
-1.000000000000000E+20
146
0.0
 13
0.0
 23
0.0
 33
0.0
 16
1.0
 26
0.0
 36
0.0
 17
0.0
 27
1.0
 37
0.0
 76
     0
330
1F
331
29
  0
MATERIAL
  5
3D
102
{ACAD_REACTORS
330
3B
102
}
330
3B
100
AcDbMaterial
  1
ByBlock
 72
     1
 94
      127
  0
MATERIAL
  5
3C
102
{ACAD_REACTORS
330
3B
102
}
330
3B
100
AcDbMaterial
  1
ByLayer
 72
     1
 94
      127
  0
MATERIAL
  5
3E
102
{ACAD_REACTORS
330
3B
102
}
330
3B
100
AcDbMaterial
  1
Global
 72
     1
 94
      127
  0
MLINESTYLE
  5
18
102
{ACAD_REACTORS
330
17
102
}
330
17
100
AcDbMlineStyle
  2
Standard
 70
     0
  3

 62
   256
 51
90.0
 52
90.0
 71
     2
 49
0.5
 62
   256
  6
BYLAYER
 49
-0.5
 62
   256
  6
BYLAYER
  0
ACDBPLACEHOLDER
  5
F
102
{ACAD_REACTORS
330
E
102
}
330
E
  0
VISUALSTYLE
  5
2F
102
{ACAD_REACTORS
330
2A
102
}
330
2A
100
AcDbVisualStyle
  2
2dWireframe
 70
     4
177
     2
291
     0
 71
     0
176
     1
 72
     2
176
     1
 73
     0
176
     1
 90
        0
176
     1
 40
-0.6
176
     1
 41
-30.0
176
     1
 62
     5
 63
     7
421
 16777215
176
     1
 74
     1
176
     1
 91
        4
176
     1
 64
     7
176
     1
 65
   257
176
     1
 75
     1
176
     1
175
     1
176
     1
 42
1.0
176
     1
 92
        0
176
     1
 66
   257
176
     1
 43
1.0
176
     1
 76
     1
176
     1
 77
     6
176
     1
 78
     2
176
     1
 67
     7
176
     1
 79
     5
176
     1
170
     0
176
     1
171
     0
176
     1
290
     0
176
     1
 93
        1
176
     1
 44
0.0
176
     1
173
     0
176
     1
  0
VISUALSTYLE
  5
31
102
{ACAD_REACTORS
330
2A
102
}
330
2A
100
AcDbVisualStyle
  2
3D Hidden
 70
     6
177
     2
291
     0
 71
     1
176
     1
 72
     2
176
     1
 73
     2
176
     1
 90
        0
176
     1
 40
-0.6
176
     1
 41
-30.0
176
     1
 62
     5
 63
     7
421
 16777215
176
     1
 74
     2
176
     1
 91
        2
176
     1
 64
     7
176
     1
 65
   257
176
     1
 75
     2
176
     1
175
     1
176
     1
 42
40.0
176
     1
 92
        0
176
     1
 66
   257
176
     1
 43
1.0
176
     1
 76
     1
176
     1
 77
     6
176
     1
 78
     2
176
     1
 67
     7
176
     1
 79
     3
176
     1
170
     0
176
     1
171
     0
176
     1
290
     0
176
     1
 93
        1
176
     1
 44
0.0
176
     1
173
     0
176
     1
  0
VISUALSTYLE
  5
30
102
{ACAD_REACTORS
330
2A
102
}
330
2A
100
AcDbVisualStyle
  2
3dWireframe
 70
     5
177
     2
291
     0
 71
     0
176
     1
 72
     2
176
     1
 73
     0
176
     1
 90
        0
176
     1
 40
-0.6
176
     1
 41
-30.0
176
     1
 62
     5
 63
     7
421
 16777215
176
     1
 74
     1
176
     1
 91
        4
176
     1
 64
     7
176
     1
 65
   257
176
     1
 75
     1
176
     1
175
     1
176
     1
 42
1.0
176
     1
 92
        0
176
     1
 66
   257
176
     1
 43
1.0
176
     1
 76
     1
176
     1
 77
     6
176
     1
 78
     2
176
     1
 67
     7
176
     1
 79
     5
176
     1
170
     0
176
     1
171
     0
176
     1
290
     0
176
     1
 93
        1
176
     1
 44
0.0
176
     1
173
     0
176
     1
  0
VISUALSTYLE
  5
32
102
{ACAD_REACTORS
330
2A
102
}
330
2A
100
AcDbVisualStyle
  2
Basic
 70
     7
177
     2
291
     1
 71
     1
176
     1
 72
     0
176
     1
 73
     1
176
     1
 90
        0
176
     1
 40
-0.6
176
     1
 41
-30.0
176
     1
 62
     5
 63
     7
421
 16777215
176
     1
 74
     0
176
     1
 91
        4
176
     1
 64
     7
176
     1
 65
   257
176
     1
 75
     1
176
     1
175
     1
176
     1
 42
1.0
176
     1
 92
        8
176
     1
 66
     7
176
     1
 43
1.0
176
     1
 76
     1
176
     1
 77
     6
176
     1
 78
     2
176
     1
 67
     7
176
     1
 79
     5
176
     1
170
     0
176
     1
171
     0
176
     1
290
     0
176
     1
 93
        1
176
     1
 44
0.0
176
     1
173
     0
176
     1
  0
VISUALSTYLE
  5
36
102
{ACAD_REACTORS
330
2A
102
}
330
2A
100
AcDbVisualStyle
  2
Brighten
 70
    12
177
     2
291
     1
 71
     2
176
     1
 72
     2
176
     1
 73
     0
176
     1
 90
        0
176
     1
 40
-0.6
176
     1
 41
-30.0
176
     1
 62
     5
 63
     7
421
 16777215
176
     1
 74
     1
176
     1
 91
        4
176
     1
 64
     7
176
     1
 65
   257
176
     1
 75
     1
176
     1
175
     1
176
     1
 42
1.0
176
     1
 92
        8
176
     1
 66
     7
176
     1
 43
1.0
176
     1
 76
     1
176
     1
 77
     6
176
     1
 78
     2
176
     1
 67
     7
176
     1
 79
     5
176
     1
170
     0
176
     1
171
     0
176
     1
290
     0
176
     1
 93
        1
176
     1
 44
50.0
176
     1
173
     0
176
     1
  0
VISUALSTYLE
  5
3A
102
{ACAD_REACTORS
330
2A
102
}
330
2A
100
AcDbVisualStyle
  2
ColorChange
 70
    16
177
     2
291
     1
 71
     2
176
     1
 72
     2
176
     1
 73
     3
176
     1
 90
        0
176
     1
 40
-0.6
176
     1
 41
-30.0
176
     1
 62
     5
 63
     8
421
  8421504
176
     1
 74
     1
176
     1
 91
        4
176
     1
 64
     7
176
     1
 65
   257
176
     1
 75
     1
176
     1
175
     1
176
     1
 42
1.0
176
     1
 92
        8
176
     1
 66
     8
424
  8421504
176
     1
 43
1.0
176
     1
 76
     1
176
     1
 77
     6
176
     1
 78
     2
176
     1
 67
     7
176
     1
 79
     5
176
     1
170
     0
176
     1
171
     0
176
     1
290
     0
176
     1
 93
        1
176
     1
 44
0.0
176
     1
173
     0
176
     1
  0
VISUALSTYLE
  5
34
102
{ACAD_REACTORS
330
2A
102
}
330
2A
100
AcDbVisualStyle
  2
Conceptual
 70
     9
177
     2
291
     0
 71
     3
176
     1
 72
     2
176
     1
 73
     0
176
     1
 90
        0
176
     1
 40
-0.6
176
     1
 41
-30.0
176
     1
 62
     5
 63
     7
421
 16777215
176
     1
 74
     2
176
     1
 91
        2
176
     1
 64
     7
176
     1
 65
   257
176
     1
 75
     1
176
     1
175
     1
176
     1
 42
40.0
176
     1
 92
        8
176
     1
 66
     7
176
     1
 43
1.0
176
     1
 76
     1
176
     1
 77
     6
176
     1
 78
     2
176
     1
 67
     7
176
     1
 79
     3
176
     1
170
     0
176
     1
171
     0
176
     1
290
     0
176
     1
 93
        1
176
     1
 44
0.0
176
     1
173
     0
176
     1
  0
VISUALSTYLE
  5
35
102
{ACAD_REACTORS
330
2A
102
}
330
2A
100
AcDbVisualStyle
  2
Dim
 70
    11
177
     2
291
     1
 71
     2
176
     1
 72
     2
176
     1
 73
     0
176
     1
 90
        0
176
     1
 40
-0.6
176
     1
 41
-30.0
176
     1
 62
     5
 63
     7
421
 16777215
176
     1
 74
     1
176
     1
 91
        4
176
     1
 64
     7
176
     1
 65
   257
176
     1
 75
     1
176
     1
175
     1
176
     1
 42
1.0
176
     1
 92
        8
176
     1
 66
     7
176
     1
 43
1.0
176
     1
 76
     1
176
     1
 77
     6
176
     1
 78
     2
176
     1
 67
     7
176
     1
 79
     5
176
     1
170
     0
176
     1
171
     0
176
     1
290
     0
176
     1
 93
        1
176
     1
 44
-50.0
176
     1
173
     0
176
     1
  0
VISUALSTYLE
  5
39
102
{ACAD_REACTORS
330
2A
102
}
330
2A
100
AcDbVisualStyle
  2
Facepattern
 70
    15
177
     2
291
     1
 71
     2
176
     1
 72
     2
176
     1
 73
     0
176
     1
 90
        0
176
     1
 40
-0.6
176
     1
 41
-30.0
176
     1
 62
     5
 63
     7
421
 16777215
176
     1
 74
     1
176
     1
 91
        4
176
     1
 64
     7
176
     1
 65
   257
176
     1
 75
     1
176
     1
175
     1
176
     1
 42
1.0
176
     1
 92
        8
176
     1
 66
     7
176
     1
 43
1.0
176
     1
 76
     1
176
     1
 77
     6
176
     1
 78
     2
176
     1
 67
     7
176
     1
 79
     5
176
     1
170
     0
176
     1
171
     0
176
     1
290
     0
176
     1
 93
        1
176
     1
 44
0.0
176
     1
173
     0
176
     1
  0
VISUALSTYLE
  5
2B
102
{ACAD_REACTORS
330
2A
102
}
330
2A
100
AcDbVisualStyle
  2
Flat
 70
     0
177
     2
291
     1
 71
     2
176
     1
 72
     1
176
     1
 73
     1
176
     1
 90
        2
176
     1
 40
-0.6
176
     1
 41
30.0
176
     1
 62
     5
 63
     7
421
 16777215
176
     1
 74
     0
176
     1
 91
        4
176
     1
 64
     7
176
     1
 65
   257
176
     1
 75
     1
176
     1
175
     1
176
     1
 42
1.0
176
     1
 92
        8
176
     1
 66
     7
176
     1
 43
1.0
176
     1
 76
     1
176
     1
 77
     6
176
     1
 78
     2
176
     1
 67
     7
176
     1
 79
     5
176
     1
170
     0
176
     1
171
     0
176
     1
290
     0
176
     1
 93
       13
176
     1
 44
0.0
176
     1
173
     0
176
     1
  0
VISUALSTYLE
  5
2C
102
{ACAD_REACTORS
330
2A
102
}
330
2A
100
AcDbVisualStyle
  2
FlatWithEdges
 70
     1
177
     2
291
     1
 71
     2
176
     1
 72
     1
176
     1
 73
     1
176
     1
 90
        2
176
     1
 40
-0.6
176
     1
 41
30.0
176
     1
 62
     5
 63
     7
421
 16777215
176
     1
 74
     1
176
     1
 91
        4
176
     1
 64
     7
176
     1
 65
   257
176
     1
 75
     1
176
     1
175
     1
176
     1
 42
1.0
176
     1
 92
        0
176
     1
 66
   257
176
     1
 43
1.0
176
     1
 76
     1
176
     1
 77
     6
176
     1
 78
     2
176
     1
 67
     7
176
     1
 79
     5
176
     1
170
     0
176
     1
171
     0
176
     1
290
     0
176
     1
 93
       13
176
     1
 44
0.0
176
     1
173
     0
176
     1
  0
VISUALSTYLE
  5
2D
102
{ACAD_REACTORS
330
2A
102
}
330
2A
100
AcDbVisualStyle
  2
Gouraud
 70
     2
177
     2
291
     1
 71
     2
176
     1
 72
     2
176
     1
 73
     1
176
     1
 90
        2
176
     1
 40
-0.6
176
     1
 41
30.0
176
     1
 62
     5
 63
     7
421
 16777215
176
     1
 74
     0
176
     1
 91
        4
176
     1
 64
     7
176
     1
 65
   257
176
     1
 75
     1
176
     1
175
     1
176
     1
 42
1.0
176
     1
 92
        0
176
     1
 66
     7
176
     1
 43
1.0
176
     1
 76
     1
176
     1
 77
     6
176
     1
 78
     2
176
     1
 67
     7
176
     1
 79
     5
176
     1
170
     0
176
     1
171
     0
176
     1
290
     0
176
     1
 93
       13
176
     1
 44
0.0
176
     1
173
     0
176
     1
  0
VISUALSTYLE
  5
2E
102
{ACAD_REACTORS
330
2A
102
}
330
2A
100
AcDbVisualStyle
  2
GouraudWithEdges
 70
     3
177
     2
291
     1
 71
     2
176
     1
 72
     2
176
     1
 73
     1
176
     1
 90
        2
176
     1
 40
-0.6
176
     1
 41
30.0
176
     1
 62
     5
 63
     7
421
 16777215
176
     1
 74
     1
176
     1
 91
        4
176
     1
 64
     7
176
     1
 65
   257
176
     1
 75
     1
176
     1
175
     1
176
     1
 42
1.0
176
     1
 92
        0
176
     1
 66
   257
176
     1
 43
1.0
176
     1
 76
     1
176
     1
 77
     6
176
     1
 78
     2
176
     1
 67
     7
176
     1
 79
     5
176
     1
170
     0
176
     1
171
     0
176
     1
290
     0
176
     1
 93
       13
176
     1
 44
0.0
176
     1
173
     0
176
     1
  0
VISUALSTYLE
  5
38
102
{ACAD_REACTORS
330
2A
102
}
330
2A
100
AcDbVisualStyle
  2
Linepattern
 70
    14
177
     2
291
     1
 71
     2
176
     1
 72
     2
176
     1
 73
     0
176
     1
 90
        0
176
     1
 40
-0.6
176
     1
 41
-30.0
176
     1
 62
     5
 63
     7
421
 16777215
176
     1
 74
     1
176
     1
 91
        4
176
     1
 64
     7
176
     1
 65
   257
176
     1
 75
     7
176
     1
175
     7
176
     1
 42
1.0
176
     1
 92
        8
176
     1
 66
     7
176
     1
 43
1.0
176
     1
 76
     1
176
     1
 77
     6
176
     1
 78
     2
176
     1
 67
     7
176
     1
 79
     5
176
     1
170
     0
176
     1
171
     0
176
     1
290
     0
176
     1
 93
        1
176
     1
 44
0.0
176
     1
173
     0
176
     1
  0
VISUALSTYLE
  5
33
102
{ACAD_REACTORS
330
2A
102
}
330
2A
100
AcDbVisualStyle
  2
Realistic
 70
     8
177
     2
291
     0
 71
     2
176
     1
 72
     2
176
     1
 73
     0
176
     1
 90
        0
176
     1
 40
-0.6
176
     1
 41
-30.0
176
     1
 62
     5
 63
     7
421
 16777215
176
     1
 74
     1
176
     1
 91
        0
176
     1
 64
     7
176
     1
 65
   257
176
     1
 75
     1
176
     1
175
     1
176
     1
 42
1.0
176
     1
 92
        8
176
     1
 66
     8
424
  7895160
176
     1
 43
1.0
176
     1
 76
     1
176
     1
 77
     6
176
     1
 78
     2
176
     1
 67
     7
176
     1
 79
     5
176
     1
170
     0
176
     1
171
     0
176
     1
290
     0
176
     1
 93
       13
176
     1
 44
0.0
176
     1
173
     0
176
     1
  0
VISUALSTYLE
  5
37
102
{ACAD_REACTORS
330
2A
102
}
330
2A
100
AcDbVisualStyle
  2
Thicken
 70
    13
177
     2
291
     1
 71
     2
176
     1
 72
     2
176
     1
 73
     0
176
     1
 90
        0
176
     1
 40
-0.6
176
     1
 41
-30.0
176
     1
 62
     5
 63
     7
421
 16777215
176
     1
 74
     1
176
     1
 91
        4
176
     1
 64
     7
176
     1
 65
   257
176
     1
 75
     1
176
     1
175
     1
176
     1
 42
1.0
176
     1
 92
       12
176
     1
 66
     7
176
     1
 43
1.0
176
     1
 76
     1
176
     1
 77
     6
176
     1
 78
     2
176
     1
 67
     7
176
     1
 79
     5
176
     1
170
     0
176
     1
171
     0
176
     1
290
     0
176
     1
 93
        1
176
     1
 44
0.0
176
     1
173
     0
176
     1
  0
ENDSEC
  0
EOF
