  0
SECTION
  2
HEADER
  9
$ACADVER
  1
AC1024
  9
$ACADMAINTVER
 70
     6
  9
$DWGCODEPAGE
  3
UNDEFINED
  9
$INSBASE
 10
0.0
 20
0.0
 30
0.0
  9
$EXTMIN
 10
1.000000000000000E+20
 20
1.000000000000000E+20
 30
1.000000000000000E+20
  9
$EXTMAX
 10
-1.000000000000000E+20
 20
-1.000000000000000E+20
 30
-1.000000000000000E+20
  9
$LIMMIN
 10
0.0
 20
0.0
  9
$LIMMAX
 10
12.0
 20
9.0
  9
$ORTHOMODE
 70
     0
  9
$REGENMODE
 70
     1
  9
$FILLMODE
 70
     1
  9
$QTEXTMODE
 70
     0
  9
$MIRRTEXT
 70
     1
  9
$LTSCALE
 40
1.0
  9
$ATTMODE
 70
     1
  9
$TEXTSIZE
 40
0.2
  9
$TRACEWID
 40
0.05
  9
$TEXTSTYLE
  7
Standard
  9
$CLAYER
  8
0
  9
$CELTYPE
  6
ByLayer
  9
$CECOLOR
 62
   256
  9
$CELTSCALE
 40
1.0
  9
$DISPSILH
 70
     0
  9
$DIMSCALE
 40
1.0
  9
$DIMASZ
 40
0.18
  9
$DIMEXO
 40
0.0625
  9
$DIMDLI
 40
0.38
  9
$DIMRND
 40
0.0
  9
$DIMDLE
 40
0.0
  9
$DIMEXE
 40
0.18
  9
$DIMTP
 40
0.0
  9
$DIMTM
 40
0.0
  9
$DIMTXT
 40
0.18
  9
$DIMCEN
 40
0.09
  9
$DIMTSZ
 40
0.0
  9
$DIMTOL
 70
     0
  9
$DIMLIM
 70
     0
  9
$DIMTIH
 70
     1
  9
$DIMTOH
 70
     1
  9
$DIMSE1
 70
     0
  9
$DIMSE2
 70
     0
  9
$DIMTAD
 70
     0
  9
$DIMZIN
 70
     0
  9
$DIMBLK
  1

  9
$DIMASO
 70
     1
  9
$DIMSHO
 70
     1
  9
$DIMPOST
  1

  9
$DIMAPOST
  1

  9
$DIMALT
 70
     0
  9
$DIMALTD
 70
     2
  9
$DIMALTF
 40
25.4
  9
$DIMLFAC
 40
1.0
  9
$DIMTOFL
 70
     0
  9
$DIMTVP
 40
0.0
  9
$DIMTIX
 70
     0
  9
$DIMSOXD
 70
     0
  9
$DIMSAH
 70
     0
  9
$DIMBLK1
  1

  9
$DIMBLK2
  1

  9
$DIMSTYLE
  2
Standard
  9
$DIMCLRD
 70
     0
  9
$DIMCLRE
 70
     0
  9
$DIMCLRT
 70
     0
  9
$DIMTFAC
 40
1.0
  9
$DIMGAP
 40
0.09
  9
$DIMJUST
 70
     0
  9
$DIMSD1
 70
     0
  9
$DIMSD2
 70
     0
  9
$DIMTOLJ
 70
     1
  9
$DIMTZIN
 70
     0
  9
$DIMALTZ
 70
     0
  9
$DIMALTTZ
 70
     0
  9
$DIMUPT
 70
     0
  9
$DIMDEC
 70
     4
  9
$DIMTDEC
 70
     4
  9
$DIMALTU
 70
     2
  9
$DIMALTTD
 70
     2
  9
$DIMTXSTY
  7
Standard
  9
$DIMAUNIT
 70
     0
  9
$DIMADEC
 70
     0
  9
$DIMALTRND
 40
0.0
  9
$DIMAZIN
 70
     0
  9
$DIMDSEP
 70
    46
  9
$DIMATFIT
 70
     3
  9
$DIMFRAC
 70
     0
  9
$DIMLDRBLK
  1

  9
$DIMLUNIT
 70
     2
  9
$DIMLWD
 70
    -2
  9
$DIMLWE
 70
    -2
  9
$DIMTMOVE
 70
     0
  9
$DIMFXL
 40
1.0
  9
$DIMFXLON
 70
     0
  9
$DIMJOGANG
 40
0.7853981633974483
  9
$DIMTFILL
 70
     0
  9
$DIMTFILLCLR
 70
     0
  9
$DIMARCSYM
 70
     0
  9
$DIMLTYPE
  6

  9
$DIMLTEX1
  6

  9
$DIMLTEX2
  6

  9
$DIMTXTDIRECTION
 70
     0
  9
$LUNITS
 70
     2
  9
$LUPREC
 70
     4
  9
$SKETCHINC
 40
0.1
  9
$FILLETRAD
 40
0.5
  9
$AUNITS
 70
     0
  9
$AUPREC
 70
     0
  9
$MENU
  1
.
  9
$ELEVATION
 40
0.0
  9
$PELEVATION
 40
0.0
  9
$THICKNESS
 40
0.0
  9
$LIMCHECK
 70
     0
  9
$CHAMFERA
 40
0.5
  9
$CHAMFERB
 40
0.5
  9
$CHAMFERC
 40
1.0
  9
$CHAMFERD
 40
0.0
  9
$SKPOLY
 70
     0
  9
$TDCREATE
 40
2457917.64619213
  9
$TDUCREATE
 40
2457917.27119213
  9
$TDUPDATE
 40
2457917.64619213
  9
$TDUUPDATE
 40
2457917.27119213
  9
$TDINDWG
 40
0.0000000116
  9
$TDUSRTIMER
 40
0.0000000116
  9
$USRTIMER
 70
     1
  9
$ANGBASE
 50
0.0
  9
$ANGDIR
 70
     0
  9
$PDMODE
 70
     0
  9
$PDSIZE
 40
0.0
  9
$PLINEWID
 40
0.0
  9
$SPLFRAME
 70
     0
  9
$SPLINETYPE
 70
     6
  9
$SPLINESEGS
 70
     8
  9
$HANDSEED
  5
1AD
  9
$SURFTAB1
 70
     6
  9
$SURFTAB2
 70
     6
  9
$SURFTYPE
 70
     6
  9
$SURFU
 70
     6
  9
$SURFV
 70
     6
  9
$UCSBASE
  2

  9
$UCSNAME
  2

  9
$UCSORG
 10
0.0
 20
0.0
 30
0.0
  9
$UCSXDIR
 10
1.0
 20
0.0
 30
0.0
  9
$UCSYDIR
 10
0.0
 20
1.0
 30
0.0
  9
$UCSORTHOREF
  2

  9
$UCSORTHOVIEW
 70
     0
  9
$UCSORGTOP
 10
0.0
 20
0.0
 30
0.0
  9
$UCSORGBOTTOM
 10
0.0
 20
0.0
 30
0.0
  9
$UCSORGLEFT
 10
0.0
 20
0.0
 30
0.0
  9
$UCSORGRIGHT
 10
0.0
 20
0.0
 30
0.0
  9
$UCSORGFRONT
 10
0.0
 20
0.0
 30
0.0
  9
$UCSORGBACK
 10
0.0
 20
0.0
 30
0.0
  9
$PUCSBASE
  2

  9
$PUCSNAME
  2

  9
$PUCSORG
 10
0.0
 20
0.0
 30
0.0
  9
$PUCSXDIR
 10
1.0
 20
0.0
 30
0.0
  9
$PUCSYDIR
 10
0.0
 20
1.0
 30
0.0
  9
$PUCSORTHOREF
  2

  9
$PUCSORTHOVIEW
 70
     0
  9
$PUCSORGTOP
 10
0.0
 20
0.0
 30
0.0
  9
$PUCSORGBOTTOM
 10
0.0
 20
0.0
 30
0.0
  9
$PUCSORGLEFT
 10
0.0
 20
0.0
 30
0.0
  9
$PUCSORGRIGHT
 10
0.0
 20
0.0
 30
0.0
  9
$PUCSORGFRONT
 10
0.0
 20
0.0
 30
0.0
  9
$PUCSORGBACK
 10
0.0
 20
0.0
 30
0.0
  9
$USERI1
 70
     0
  9
$USERI2
 70
     0
  9
$USERI3
 70
     0
  9
$USERI4
 70
     0
  9
$USERI5
 70
     0
  9
$USERR1
 40
0.0
  9
$USERR2
 40
0.0
  9
$USERR3
 40
0.0
  9
$USERR4
 40
0.0
  9
$USERR5
 40
0.0
  9
$WORLDVIEW
 70
     1
  9
$SHADEDGE
 70
     3
  9
$SHADEDIF
 70
    70
  9
$TILEMODE
 70
     1
  9
$MAXACTVP
 70
    64
  9
$PINSBASE
 10
0.0
 20
0.0
 30
0.0
  9
$PLIMCHECK
 70
     0
  9
$PEXTMIN
 10
1.000000000000000E+20
 20
1.000000000000000E+20
 30
1.000000000000000E+20
  9
$PEXTMAX
 10
-1.000000000000000E+20
 20
-1.000000000000000E+20
 30
-1.000000000000000E+20
  9
$PLIMMIN
 10
0.0
 20
0.0
  9
$PLIMMAX
 10
12.0
 20
9.0
  9
$UNITMODE
 70
     0
  9
$VISRETAIN
 70
     1
  9
$PLINEGEN
 70
     0
  9
$PSLTSCALE
 70
     1
  9
$TREEDEPTH
 70
  3020
  9
$CMLSTYLE
  2
Standard
  9
$CMLJUST
 70
     0
  9
$CMLSCALE
 40
1.0
  9
$PROXYGRAPHICS
 70
     1
  9
$MEASUREMENT
 70
     0
  9
$CELWEIGHT
370
    -1
  9
$ENDCAPS
280
     0
  9
$JOINSTYLE
280
     0
  9
$LWDISPLAY
290
     1
  9
$INSUNITS
 70
     1
  9
$HYPERLINKBASE
  1

  9
$STYLESHEET
  1

  9
$XEDIT
290
     1
  9
$CEPSNTYPE
380
     0
  9
$PSTYLEMODE
290
     1
  9
$FINGERPRINTGUID
  2
{AA2F0EA9-556F-4E57-C99B-5C96B5F6AAD1}
  9
$VERSIONGUID
  2
{FAEB1C32-E019-11D5-929B-00C0DF256EC4}
  9
$EXTNAMES
290
     1
  9
$PSVPSCALE
 40
0.0
  9
$OLESTARTUP
290
     0
  9
$SORTENTS
280
   127
  9
$INDEXCTL
280
     0
  9
$HIDETEXT
280
     1
  9
$XCLIPFRAME
280
     2
  9
$HALOGAP
280
     0
  9
$OBSCOLOR
 70
   257
  9
$OBSLTYPE
280
     0
  9
$INTERSECTIONDISPLAY
280
     0
  9
$INTERSECTIONCOLOR
 70
   257
  9
$DIMASSOC
280
     2
  9
$PROJECTNAME
  1

  9
$CAMERADISPLAY
290
     0
  9
$LENSLENGTH
 40
50.0
  9
$CAMERAHEIGHT
 40
0.0
  9
$STEPSPERSEC
 40
2.0
  9
$STEPSIZE
 40
6.0
  9
$3DDWFPREC
 40
2.0
  9
$PSOLWIDTH
 40
0.25
  9
$PSOLHEIGHT
 40
4.0
  9
$LOFTANG1
 40
1.570796326794897
  9
$LOFTANG2
 40
1.570796326794897
  9
$LOFTMAG1
 40
0.0
  9
$LOFTMAG2
 40
0.0
  9
$LOFTPARAM
 70
     7
  9
$LOFTNORMALS
280
     1
  9
$LATITUDE
 40
37.795
  9
$LONGITUDE
 40
-122.394
  9
$NORTHDIRECTION
 40
0.0
  9
$TIMEZONE
 70
 -8000
  9
$LIGHTGLYPHDISPLAY
280
     1
  9
$TILEMODELIGHTSYNCH
280
     1
  9
$CMATERIAL
347
3C
  9
$SOLIDHIST
280
     1
  9
$SHOWHIST
280
     1
  9
$DWFFRAME
280
     2
  9
$DGNFRAME
280
     2
  9
$REALWORLDSCALE
290
     1
  9
$INTERFERECOLOR
 62
   256
  9
$CSHADOW
280
     0
  9
$SHADOWPLANELOCATION
 40
0.0
  0
ENDSEC
  0
SECTION
  2
CLASSES
  0
CLASS
  1
ACDBDICTIONARYWDFLT
  2
AcDbDictionaryWithDefault
  3
ObjectDBX Classes
 90
        0
 91
        4
280
     0
281
     0
  0
CLASS
  1
VISUALSTYLE
  2
AcDbVisualStyle
  3
ObjectDBX Classes
 90
     4095
 91
        4
280
     0
281
     0
  0
CLASS
  1
MATERIAL
  2
AcDbMaterial
  3
ObjectDBX Classes
 90
     1153
 91
        4
280
     0
281
     0
  0
CLASS
  1
SUN
  2
AcDbSun
  3
SCENEOE
 90
     1024
 91
        4
280
     0
281
     0
  0
ENDSEC
  0
SECTION
  2
TABLES
  0
TABLE
  2
VPORT
  5
8
330
0
100
AcDbSymbolTable
 70
     1
  0
VPORT
  5
29
330
8
100
AcDbSymbolTableRecord
100
AcDbViewportTableRecord
  2
*Active
 70
     0
 10
0.0
 20
0.0
 11
1.0
 21
1.0
 12
0.0
 22
0.0
 13
0.0
 23
0.0
 14
0.5
 24
0.5
 15
0.5
 25
0.5
 16
0.0
 26
0.0
 36
1.0
 17
91.00082462281999
 27
-128.4993055234307
 37
0.0
 40
256.9986110468615
 41
0.7081814508812795
 42
50.0
 43
0.0
 44
0.0
 50
0.0
 51
0.0
 71
     0
 72
   100
 73
     1
 74
     3
 75
     0
 76
     0
 77
     0
 78
     0
281
     0
 65
     1
110
0.0
120
0.0
130
0.0
111
1.0
121
0.0
131
0.0
112
0.0
122
1.0
132
0.0
 79
     0
146
0.0
 60
     3
 61
     5
292
     1
282
     1
141
0.0
142
0.0
 63
   250
361
3F
  0
ENDTAB
  0
TABLE
  2
LTYPE
  5
5
330
0
100
AcDbSymbolTable
 70
     1
  0
LTYPE
  5
14
330
5
100
AcDbSymbolTableRecord
100
AcDbLinetypeTableRecord
  2
ByBlock
 70
     0
  3

 72
    65
 73
     0
 40
0.0
  0
LTYPE
  5
15
330
5
100
AcDbSymbolTableRecord
100
AcDbLinetypeTableRecord
  2
ByLayer
 70
     0
  3

 72
    65
 73
     0
 40
0.0
  0
LTYPE
  5
16
330
5
100
AcDbSymbolTableRecord
100
AcDbLinetypeTableRecord
  2
Continuous
 70
     0
  3
Solid line
 72
    65
 73
     0
 40
0.0
  0
ENDTAB
  0
TABLE
  2
LAYER
  5
2
330
0
100
AcDbSymbolTable
 70
     2
  0
LAYER
  5
10
330
2
100
AcDbSymbolTableRecord
100
AcDbLayerTableRecord
  2
0
 70
     0
 62
     7
  6
Continuous
370
    -3
390
F
347
3E
  0
LAYER
  5
40
330
2
100
AcDbSymbolTableRecord
100
AcDbLayerTableRecord
  2
_U+30EC_U+30A4_U+30E4_U+30FC 1
 70
     0
 62
     7
  6
Continuous
370
    -3
390
F
347
3E
  0
ENDTAB
  0
TABLE
  2
STYLE
  5
3
330
0
100
AcDbSymbolTable
 70
     1
  0
STYLE
  5
11
330
3
100
AcDbSymbolTableRecord
100
AcDbTextStyleTableRecord
  2
Standard
 70
     0
 40
0.0
 41
1.0
 50
0.0
 71
     0
 42
0.2
  3
txt
  4

  0
ENDTAB
  0
TABLE
  2
VIEW
  5
6
330
0
100
AcDbSymbolTable
 70
     0
  0
ENDTAB
  0
TABLE
  2
UCS
  5
7
330
0
100
AcDbSymbolTable
 70
     0
  0
ENDTAB
  0
TABLE
  2
APPID
  5
9
330
0
100
AcDbSymbolTable
 70
     1
  0
APPID
  5
12
330
9
100
AcDbSymbolTableRecord
100
AcDbRegAppTableRecord
  2
ACAD
 70
     0
  0
ENDTAB
  0
TABLE
  2
DIMSTYLE
  5
A
330
0
100
AcDbSymbolTable
 70
     1
100
AcDbDimStyleTable
  0
DIMSTYLE
105
27
330
A
100
AcDbSymbolTableRecord
100
AcDbDimStyleTableRecord
  2
Standard
 70
     0
178
     0
340
11
  0
ENDTAB
  0
TABLE
  2
BLOCK_RECORD
  5
1
330
0
100
AcDbSymbolTable
 70
    21
  0
BLOCK_RECORD
  5
1F
330
1
100
AcDbSymbolTableRecord
100
AcDbBlockTableRecord
  2
*Model_Space
340
22
 70
     0
280
     1
281
     0
  0
BLOCK_RECORD
  5
1B
330
1
100
AcDbSymbolTableRecord
100
AcDbBlockTableRecord
  2
*Paper_Space
340
1E
 70
     0
280
     1
281
     0
  0
BLOCK_RECORD
  5
23
330
1
100
AcDbSymbolTableRecord
100
AcDbBlockTableRecord
  2
*Paper_Space0
340
26
 70
     0
280
     1
281
     0
  0
BLOCK_RECORD
  5
43
330
1
100
AcDbSymbolTableRecord
100
AcDbBlockTableRecord
  2
block 2
340
0
102
{BLKREFS
331
44
102
}
 70
     0
280
     1
281
     0
  0
BLOCK_RECORD
  5
CA
330
1
100
AcDbSymbolTableRecord
100
AcDbBlockTableRecord
  2
block 3
340
0
102
{BLKREFS
331
CB
102
}
 70
     0
280
     1
281
     0
  0
BLOCK_RECORD
  5
ED
330
1
100
AcDbSymbolTableRecord
100
AcDbBlockTableRecord
  2
block 4
340
0
102
{BLKREFS
331
EE
102
}
 70
     0
280
     1
281
     0
  0
BLOCK_RECORD
  5
FE
330
1
100
AcDbSymbolTableRecord
100
AcDbBlockTableRecord
  2
block 5
340
0
102
{BLKREFS
331
FF
102
}
 70
     0
280
     1
281
     0
  0
BLOCK_RECORD
  5
104
330
1
100
AcDbSymbolTableRecord
100
AcDbBlockTableRecord
  2
block 6
340
0
102
{BLKREFS
331
105
102
}
 70
     0
280
     1
281
     0
  0
BLOCK_RECORD
  5
109
330
1
100
AcDbSymbolTableRecord
100
AcDbBlockTableRecord
  2
block 7
340
0
102
{BLKREFS
331
10A
102
}
 70
     0
280
     1
281
     0
  0
BLOCK_RECORD
  5
10E
330
1
100
AcDbSymbolTableRecord
100
AcDbBlockTableRecord
  2
block 8
340
0
102
{BLKREFS
331
10F
102
}
 70
     0
280
     1
281
     0
  0
BLOCK_RECORD
  5
11F
330
1
100
AcDbSymbolTableRecord
100
AcDbBlockTableRecord
  2
block 9
340
0
102
{BLKREFS
331
120
102
}
 70
     0
280
     1
281
     0
  0
BLOCK_RECORD
  5
125
330
1
100
AcDbSymbolTableRecord
100
AcDbBlockTableRecord
  2
block 10
340
0
102
{BLKREFS
331
126
102
}
 70
     0
280
     1
281
     0
  0
BLOCK_RECORD
  5
12A
330
1
100
AcDbSymbolTableRecord
100
AcDbBlockTableRecord
  2
block 11
340
0
102
{BLKREFS
331
12B
102
}
 70
     0
280
     1
281
     0
  0
BLOCK_RECORD
  5
12F
330
1
100
AcDbSymbolTableRecord
100
AcDbBlockTableRecord
  2
block 12
340
0
102
{BLKREFS
331
130
102
}
 70
     0
280
     1
281
     0
  0
BLOCK_RECORD
  5
140
330
1
100
AcDbSymbolTableRecord
100
AcDbBlockTableRecord
  2
block 13
340
0
102
{BLKREFS
331
141
102
}
 70
     0
280
     1
281
     0
  0
BLOCK_RECORD
  5
15B
330
1
100
AcDbSymbolTableRecord
100
AcDbBlockTableRecord
  2
block 14
340
0
102
{BLKREFS
331
15C
102
}
 70
     0
280
     1
281
     0
  0
BLOCK_RECORD
  5
160
330
1
100
AcDbSymbolTableRecord
100
AcDbBlockTableRecord
  2
block 15
340
0
102
{BLKREFS
331
161
102
}
 70
     0
280
     1
281
     0
  0
BLOCK_RECORD
  5
165
330
1
100
AcDbSymbolTableRecord
100
AcDbBlockTableRecord
  2
block 16
340
0
102
{BLKREFS
331
166
102
}
 70
     0
280
     1
281
     0
  0
BLOCK_RECORD
  5
176
330
1
100
AcDbSymbolTableRecord
100
AcDbBlockTableRecord
  2
block 17
340
0
102
{BLKREFS
331
177
102
}
 70
     0
280
     1
281
     0
  0
BLOCK_RECORD
  5
17E
330
1
100
AcDbSymbolTableRecord
100
AcDbBlockTableRecord
  2
block 18
340
0
102
{BLKREFS
331
17F
102
}
 70
     0
280
     1
281
     0
  0
BLOCK_RECORD
  5
183
330
1
100
AcDbSymbolTableRecord
100
AcDbBlockTableRecord
  2
block 19
340
0
102
{BLKREFS
331
184
102
}
 70
     0
280
     1
281
     0
  0
BLOCK_RECORD
  5
188
330
1
100
AcDbSymbolTableRecord
100
AcDbBlockTableRecord
  2
block 20
340
0
102
{BLKREFS
331
189
102
}
 70
     0
280
     1
281
     0
  0
BLOCK_RECORD
  5
18D
330
1
100
AcDbSymbolTableRecord
100
AcDbBlockTableRecord
  2
block 21
340
0
102
{BLKREFS
331
18E
102
}
 70
     0
280
     1
281
     0
  0
ENDTAB
  0
ENDSEC
  0
SECTION
  2
BLOCKS
  0
BLOCK
  5
20
330
1F
100
AcDbEntity
  8
0
100
AcDbBlockBegin
  2
*Model_Space
 70
     0
 10
0.0
 20
0.0
 30
0.0
  3
*Model_Space
  1

  0
ENDBLK
  5
21
330
1F
100
AcDbEntity
  8
0
100
AcDbBlockEnd
  0
BLOCK
  5
1C
330
1B
100
AcDbEntity
 67
     1
  8
0
100
AcDbBlockBegin
  2
*Paper_Space
 70
     0
 10
0.0
 20
0.0
 30
0.0
  3
*Paper_Space
  1

  0
ENDBLK
  5
1D
330
1B
100
AcDbEntity
 67
     1
  8
0
100
AcDbBlockEnd
  0
BLOCK
  5
24
330
23
100
AcDbEntity
  8
0
100
AcDbBlockBegin
  2
*Paper_Space0
 70
     0
 10
0.0
 20
0.0
 30
0.0
  3
*Paper_Space0
  1

  0
ENDBLK
  5
25
330
23
100
AcDbEntity
  8
0
100
AcDbBlockEnd
  0
BLOCK
  5
45
330
43
100
AcDbEntity
  8
0
100
AcDbBlockBegin
  2
block 2
 70
     0
 10
0.0
 20
0.0
 30
0.0
  3
block 2
  1

  0
POLYLINE
  5
47
330
43
100
AcDbEntity
  8
_U+30EC_U+30A4_U+30E4_U+30FC 1
 62
   179
420
  2234388
370
    25
100
AcDb2dPolyline
 66
     1
 10
0.0
 20
0.0
 30
0.0
  0
VERTEX
  5
48
330
47
100
AcDbEntity
  8
_U+30EC_U+30A4_U+30E4_U+30FC 1
 62
   179
420
  2234388
370
    25
100
AcDbVertex
100
AcDb2dVertex
 10
91.28537517111606
 20
-117.8020955261051
 30
0.0
  0
VERTEX
  5
49
330
47
100
AcDbEntity
  8
_U+30EC_U+30A4_U+30E4_U+30FC 1
 62
   179
420
  2234388
370
    25
100
AcDbVertex
100
AcDb2dVertex
 10
91.28537517111606
 20
-139.252148576298
 30
0.0
  0
SEQEND
  5
4A
330
47
100
AcDbEntity
  8
_U+30EC_U+30A4_U+30E4_U+30FC 1
 62
   179
420
  2234388
370
    25
  0
POLYLINE
  5
4B
330
43
100
AcDbEntity
  8
_U+30EC_U+30A4_U+30E4_U+30FC 1
 62
   179
420
  2234388
370
    25
100
AcDb2dPolyline
 66
     1
 10
0.0
 20
0.0
 30
0.0
  0
VERTEX
  5
4C
330
4B
100
AcDbEntity
  8
_U+30EC_U+30A4_U+30E4_U+30FC 1
 62
   179
420
  2234388
370
    25
100
AcDbVertex
100
AcDb2dVertex
 10
91.98542737547847
 20
-118.9520805258175
 30
0.0
  0
VERTEX
  5
4D
330
4B
100
AcDbEntity
  8
_U+30EC_U+30A4_U+30E4_U+30FC 1
 62
   179
420
  2234388
370
    25
100
AcDbVertex
100
AcDb2dVertex
 10
91.98542737547847
 20
-139.252148576298
 30
0.0
  0
SEQEND
  5
4E
330
4B
100
AcDbEntity
  8
_U+30EC_U+30A4_U+30E4_U+30FC 1
 62
   179
420
  2234388
370
    25
  0
POLYLINE
  5
4F
330
43
100
AcDbEntity
  8
_U+30EC_U+30A4_U+30E4_U+30FC 1
 62
   179
420
  2234388
370
    25
100
AcDb2dPolyline
 66
     1
 10
0.0
 20
0.0
 30
0.0
  0
VERTEX
  5
50
330
4F
100
AcDbEntity
  8
_U+30EC_U+30A4_U+30E4_U+30FC 1
 62
   179
420
  2234388
370
    25
100
AcDbVertex
100
AcDb2dVertex
 10
82.88556010763541
 20
-139.9521655205674
 30
0.0
  0
VERTEX
  5
51
330
4F
100
AcDbEntity
  8
_U+30EC_U+30A4_U+30E4_U+30FC 1
 62
   179
420
  2234388
370
    25
100
AcDbVertex
100
AcDb2dVertex
 10
100.3852424389591
 20
-139.9521655205674
 30
0.0
  0
SEQEND
  5
52
330
4F
100
AcDbEntity
  8
_U+30EC_U+30A4_U+30E4_U+30FC 1
 62
   179
420
  2234388
370
    25
  0
POLYLINE
  5
53
330
43
100
AcDbEntity
  8
_U+30EC_U+30A4_U+30E4_U+30FC 1
 62
   179
420
  2234388
370
    25
100
AcDb2dPolyline
 66
     1
 10
0.0
 20
0.0
 30
0.0
  0
VERTEX
  5
54
330
53
100
AcDbEntity
  8
_U+30EC_U+30A4_U+30E4_U+30FC 1
 62
   179
420
  2234388
370
    25
100
AcDbVertex
100
AcDb2dVertex
 10
96.1353992140483
 20
-137.4524174656368
 30
0.0
  0
VERTEX
  5
55
330
53
100
AcDbEntity
  8
_U+30EC_U+30A4_U+30E4_U+30FC 1
 62
   179
420
  2234388
370
    25
100
AcDbVertex
100
AcDb2dVertex
 10
98.63514720582998
 20
-137.4524174656368
 30
0.0
  0
SEQEND
  5
56
330
53
100
AcDbEntity
  8
_U+30EC_U+30A4_U+30E4_U+30FC 1
 62
   179
420
  2234388
370
    25
  0
POLYLINE
  5
57
330
43
100
AcDbEntity
  8
_U+30EC_U+30A4_U+30E4_U+30FC 1
 62
   179
420
  2234388
370
    25
100
AcDb2dPolyline
 66
     1
 10
0.0
 20
0.0
 30
0.0
  0
VERTEX
  5
58
330
57
100
AcDbEntity
  8
_U+30EC_U+30A4_U+30E4_U+30FC 1
 62
   179
420
  2234388
370
    25
100
AcDbVertex
100
AcDb2dVertex
 10
96.1353992140483
 20
-137.4524174656368
 30
0.0
  0
VERTEX
  5
59
330
57
100
AcDbEntity
  8
_U+30EC_U+30A4_U+30E4_U+30FC 1
 62
   179
420
  2234388
370
    25
100
AcDbVertex
100
AcDb2dVertex
 10
96.1353992140483
 20
-138.1524696876844
 30
0.0
  0
SEQEND
  5
5A
330
57
100
AcDbEntity
  8
_U+30EC_U+30A4_U+30E4_U+30FC 1
 62
   179
420
  2234388
370
    25
  0
POLYLINE
  5
5B
330
43
100
AcDbEntity
  8
_U+30EC_U+30A4_U+30E4_U+30FC 1
 62
   179
420
  2234388
370
    25
100
AcDb2dPolyline
 66
     1
 10
0.0
 20
0.0
 30
0.0
  0
VERTEX
  5
5C
330
5B
100
AcDbEntity
  8
_U+30EC_U+30A4_U+30E4_U+30FC 1
 62
   179
420
  2234388
370
    25
100
AcDbVertex
100
AcDb2dVertex
 10
91.98542737547847
 20
-139.252148576298
 30
0.0
  0
VERTEX
  5
5D
330
5B
100
AcDbEntity
  8
_U+30EC_U+30A4_U+30E4_U+30FC 1
 62
   179
420
  2234388
370
    25
100
AcDbVertex
100
AcDb2dVertex
 10
97.93509500146757
 20
-139.252148576298
 30
0.0
  0
SEQEND
  5
5E
330
5B
100
AcDbEntity
  8
_U+30EC_U+30A4_U+30E4_U+30FC 1
 62
   179
420
  2234388
370
    25
  0
POLYLINE
  5
5F
330
43
100
AcDbEntity
  8
_U+30EC_U+30A4_U+30E4_U+30FC 1
 62
   179
420
  2234388
370
    25
100
AcDb2dPolyline
 66
     1
 10
0.0
 20
0.0
 30
0.0
  0
VERTEX
  5
60
330
5F
100
AcDbEntity
  8
_U+30EC_U+30A4_U+30E4_U+30FC 1
 62
   179
420
  2234388
370
    25
100
AcDbVertex
100
AcDb2dVertex
 10
97.93509500146757
 20
-138.1524696876844
 30
0.0
  0
VERTEX
  5
61
330
5F
100
AcDbEntity
  8
_U+30EC_U+30A4_U+30E4_U+30FC 1
 62
   179
420
  2234388
370
    25
100
AcDbVertex
100
AcDb2dVertex
 10
97.93509500146757
 20
-139.252148576298
 30
0.0
  0
SEQEND
  5
62
330
5F
100
AcDbEntity
  8
_U+30EC_U+30A4_U+30E4_U+30FC 1
 62
   179
420
  2234388
370
    25
  0
POLYLINE
  5
63
330
43
100
AcDbEntity
  8
_U+30EC_U+30A4_U+30E4_U+30FC 1
 62
   179
420
  2234388
370
    25
100
AcDb2dPolyline
 66
     1
 10
0.0
 20
0.0
 30
0.0
  0
VERTEX
  5
64
330
63
100
AcDbEntity
  8
_U+30EC_U+30A4_U+30E4_U+30FC 1
 62
   179
420
  2234388
370
    25
100
AcDbVertex
100
AcDb2dVertex
 10
96.1353992140483
 20
-138.1524696876844
 30
0.0
  0
VERTEX
  5
65
330
63
100
AcDbEntity
  8
_U+30EC_U+30A4_U+30E4_U+30FC 1
 62
   179
420
  2234388
370
    25
100
AcDbVertex
100
AcDb2dVertex
 10
97.93509500146757
 20
-138.1524696876844
 30
0.0
  0
SEQEND
  5
66
330
63
100
AcDbEntity
  8
_U+30EC_U+30A4_U+30E4_U+30FC 1
 62
   179
420
  2234388
370
    25
  0
POLYLINE
  5
67
330
43
100
AcDbEntity
  8
_U+30EC_U+30A4_U+30E4_U+30FC 1
 62
   179
420
  2234388
370
    25
100
AcDb2dPolyline
 66
     1
 10
0.0
 20
0.0
 30
0.0
  0
VERTEX
  5
68
330
67
100
AcDbEntity
  8
_U+30EC_U+30A4_U+30E4_U+30FC 1
 62
   179
420
  2234388
370
    25
100
AcDbVertex
100
AcDb2dVertex
 10
98.63514720582998
 20
-137.4524174656368
 30
0.0
  0
VERTEX
  5
69
330
67
100
AcDbEntity
  8
_U+30EC_U+30A4_U+30E4_U+30FC 1
 62
   179
420
  2234388
370
    25
100
AcDbVertex
100
AcDb2dVertex
 10
98.63514720582998
 20
-139.252148576298
 30
0.0
  0
SEQEND
  5
6A
330
67
100
AcDbEntity
  8
_U+30EC_U+30A4_U+30E4_U+30FC 1
 62
   179
420
  2234388
370
    25
  0
POLYLINE
  5
6B
330
43
100
AcDbEntity
  8
_U+30EC_U+30A4_U+30E4_U+30FC 1
 62
   179
420
  2234388
370
    25
100
AcDb2dPolyline
 66
     1
 10
0.0
 20
0.0
 30
0.0
  0
VERTEX
  5
6C
330
6B
100
AcDbEntity
  8
_U+30EC_U+30A4_U+30E4_U+30FC 1
 62
   179
420
  2234388
370
    25
100
AcDbVertex
100
AcDb2dVertex
 10
84.63530256299576
 20
-137.4524174656368
 30
0.0
  0
VERTEX
  5
6D
330
6B
100
AcDbEntity
  8
_U+30EC_U+30A4_U+30E4_U+30FC 1
 62
   179
420
  2234388
370
    25
100
AcDbVertex
100
AcDb2dVertex
 10
84.63530256299576
 20
-139.252148576298
 30
0.0
  0
SEQEND
  5
6E
330
6B
100
AcDbEntity
  8
_U+30EC_U+30A4_U+30E4_U+30FC 1
 62
   179
420
  2234388
370
    25
  0
POLYLINE
  5
6F
330
43
100
AcDbEntity
  8
_U+30EC_U+30A4_U+30E4_U+30FC 1
 62
   179
420
  2234388
370
    25
100
AcDb2dPolyline
 66
     1
 10
0.0
 20
0.0
 30
0.0
  0
VERTEX
  5
70
330
6F
100
AcDbEntity
  8
_U+30EC_U+30A4_U+30E4_U+30FC 1
 62
   179
420
  2234388
370
    25
100
AcDbVertex
100
AcDb2dVertex
 10
87.13540553377156
 20
-138.1524696876844
 30
0.0
  0
VERTEX
  5
71
330
6F
100
AcDbEntity
  8
_U+30EC_U+30A4_U+30E4_U+30FC 1
 62
   179
420
  2234388
370
    25
100
AcDbVertex
100
AcDb2dVertex
 10
85.33535476735817
 20
-138.1524696876844
 30
0.0
  0
SEQEND
  5
72
330
6F
100
AcDbEntity
  8
_U+30EC_U+30A4_U+30E4_U+30FC 1
 62
   179
420
  2234388
370
    25
  0
POLYLINE
  5
73
330
43
100
AcDbEntity
  8
_U+30EC_U+30A4_U+30E4_U+30FC 1
 62
   179
420
  2234388
370
    25
100
AcDb2dPolyline
 66
     1
 10
0.0
 20
0.0
 30
0.0
  0
VERTEX
  5
74
330
73
100
AcDbEntity
  8
_U+30EC_U+30A4_U+30E4_U+30FC 1
 62
   179
420
  2234388
370
    25
100
AcDbVertex
100
AcDb2dVertex
 10
85.33535476735817
 20
-138.1524696876844
 30
0.0
  0
VERTEX
  5
75
330
73
100
AcDbEntity
  8
_U+30EC_U+30A4_U+30E4_U+30FC 1
 62
   179
420
  2234388
370
    25
100
AcDbVertex
100
AcDb2dVertex
 10
85.33535476735817
 20
-139.252148576298
 30
0.0
  0
SEQEND
  5
76
330
73
100
AcDbEntity
  8
_U+30EC_U+30A4_U+30E4_U+30FC 1
 62
   179
420
  2234388
370
    25
  0
POLYLINE
  5
77
330
43
100
AcDbEntity
  8
_U+30EC_U+30A4_U+30E4_U+30FC 1
 62
   179
420
  2234388
370
    25
100
AcDb2dPolyline
 66
     1
 10
0.0
 20
0.0
 30
0.0
  0
VERTEX
  5
78
330
77
100
AcDbEntity
  8
_U+30EC_U+30A4_U+30E4_U+30FC 1
 62
   179
420
  2234388
370
    25
100
AcDbVertex
100
AcDb2dVertex
 10
91.28537517111606
 20
-139.252148576298
 30
0.0
  0
VERTEX
  5
79
330
77
100
AcDbEntity
  8
_U+30EC_U+30A4_U+30E4_U+30FC 1
 62
   179
420
  2234388
370
    25
100
AcDbVertex
100
AcDb2dVertex
 10
85.33535476735817
 20
-139.252148576298
 30
0.0
  0
SEQEND
  5
7A
330
77
100
AcDbEntity
  8
_U+30EC_U+30A4_U+30E4_U+30FC 1
 62
   179
420
  2234388
370
    25
  0
POLYLINE
  5
7B
330
43
100
AcDbEntity
  8
_U+30EC_U+30A4_U+30E4_U+30FC 1
 62
   179
420
  2234388
370
    25
100
AcDb2dPolyline
 66
     1
 10
0.0
 20
0.0
 30
0.0
  0
VERTEX
  5
7C
330
7B
100
AcDbEntity
  8
_U+30EC_U+30A4_U+30E4_U+30FC 1
 62
   179
420
  2234388
370
    25
100
AcDbVertex
100
AcDb2dVertex
 10
87.13540553377156
 20
-137.4524174656368
 30
0.0
  0
VERTEX
  5
7D
330
7B
100
AcDbEntity
  8
_U+30EC_U+30A4_U+30E4_U+30FC 1
 62
   179
420
  2234388
370
    25
100
AcDbVertex
100
AcDb2dVertex
 10
87.13540553377156
 20
-138.1524696876844
 30
0.0
  0
SEQEND
  5
7E
330
7B
100
AcDbEntity
  8
_U+30EC_U+30A4_U+30E4_U+30FC 1
 62
   179
420
  2234388
370
    25
  0
POLYLINE
  5
7F
330
43
100
AcDbEntity
  8
_U+30EC_U+30A4_U+30E4_U+30FC 1
 62
   179
420
  2234388
370
    25
100
AcDb2dPolyline
 66
     1
 10
0.0
 20
0.0
 30
0.0
  0
VERTEX
  5
80
330
7F
100
AcDbEntity
  8
_U+30EC_U+30A4_U+30E4_U+30FC 1
 62
   179
420
  2234388
370
    25
100
AcDbVertex
100
AcDb2dVertex
 10
87.13540553377156
 20
-137.4524174656368
 30
0.0
  0
VERTEX
  5
81
330
7F
100
AcDbEntity
  8
_U+30EC_U+30A4_U+30E4_U+30FC 1
 62
   179
420
  2234388
370
    25
100
AcDbVertex
100
AcDb2dVertex
 10
84.63530256299576
 20
-137.4524174656368
 30
0.0
  0
SEQEND
  5
82
330
7F
100
AcDbEntity
  8
_U+30EC_U+30A4_U+30E4_U+30FC 1
 62
   179
420
  2234388
370
    25
  0
POLYLINE
  5
83
330
43
100
AcDbEntity
  8
_U+30EC_U+30A4_U+30E4_U+30FC 1
 62
   179
420
  2234388
370
    25
100
AcDb2dPolyline
 66
     1
 10
0.0
 20
0.0
 30
0.0
  0
VERTEX
  5
84
330
83
100
AcDbEntity
  8
_U+30EC_U+30A4_U+30E4_U+30FC 1
 62
   179
420
  2234388
370
    25
100
AcDbVertex
100
AcDb2dVertex
 10
92.98519957219438
 20
-118.4521944148316
 30
0.0
  0
VERTEX
  5
85
330
83
100
AcDbEntity
  8
_U+30EC_U+30A4_U+30E4_U+30FC 1
 62
   179
420
  2234388
370
    25
100
AcDbVertex
100
AcDb2dVertex
 10
92.98519957219438
 20
-119.4523194145812
 30
0.0
  0
SEQEND
  5
86
330
83
100
AcDbEntity
  8
_U+30EC_U+30A4_U+30E4_U+30FC 1
 62
   179
420
  2234388
370
    25
  0
POLYLINE
  5
87
330
43
100
AcDbEntity
  8
_U+30EC_U+30A4_U+30E4_U+30FC 1
 62
   179
420
  2234388
370
    25
100
AcDb2dPolyline
 66
     1
 10
0.0
 20
0.0
 30
0.0
  0
VERTEX
  5
88
330
87
100
AcDbEntity
  8
_U+30EC_U+30A4_U+30E4_U+30FC 1
 62
   179
420
  2234388
370
    25
100
AcDbVertex
100
AcDb2dVertex
 10
91.98542737547847
 20
-118.9520805258175
 30
0.0
  0
VERTEX
  5
89
330
87
100
AcDbEntity
  8
_U+30EC_U+30A4_U+30E4_U+30FC 1
 62
   179
420
  2234388
370
    25
100
AcDbVertex
100
AcDb2dVertex
 10
92.98519957219438
 20
-119.4523194145812
 30
0.0
  0
SEQEND
  5
8A
330
87
100
AcDbEntity
  8
_U+30EC_U+30A4_U+30E4_U+30FC 1
 62
   179
420
  2234388
370
    25
  0
POLYLINE
  5
8B
330
43
100
AcDbEntity
  8
_U+30EC_U+30A4_U+30E4_U+30FC 1
 62
   179
420
  2234388
370
    25
100
AcDb2dPolyline
 66
     1
 10
0.0
 20
0.0
 30
0.0
  0
VERTEX
  5
8C
330
8B
100
AcDbEntity
  8
_U+30EC_U+30A4_U+30E4_U+30FC 1
 62
   179
420
  2234388
370
    25
100
AcDbVertex
100
AcDb2dVertex
 10
92.98519957219438
 20
-118.4521944148316
 30
0.0
  0
VERTEX
  5
8D
330
8B
100
AcDbEntity
  8
_U+30EC_U+30A4_U+30E4_U+30FC 1
 62
   179
420
  2234388
370
    25
100
AcDbVertex
100
AcDb2dVertex
 10
91.85659293432086
 20
-117.5309858039506
 30
0.0
  0
SEQEND
  5
8E
330
8B
100
AcDbEntity
  8
_U+30EC_U+30A4_U+30E4_U+30FC 1
 62
   179
420
  2234388
370
    25
  0
POLYLINE
  5
8F
330
43
100
AcDbEntity
  8
_U+30EC_U+30A4_U+30E4_U+30FC 1
 62
   179
420
  2234388
370
    25
100
AcDb2dPolyline
 66
     1
 10
0.0
 20
0.0
 30
0.0
  0
VERTEX
  5
90
330
8F
100
AcDbEntity
  8
_U+30EC_U+30A4_U+30E4_U+30FC 1
 62
   179
420
  2234388
370
    25
100
AcDbVertex
100
AcDb2dVertex
 10
100.3852424389591
 20
-137.4524174656368
 30
0.0
  0
VERTEX
  5
91
330
8F
100
AcDbEntity
  8
_U+30EC_U+30A4_U+30E4_U+30FC 1
 62
   179
420
  2234388
370
    25
100
AcDbVertex
100
AcDb2dVertex
 10
100.3852424389591
 20
-139.9521655205674
 30
0.0
  0
SEQEND
  5
92
330
8F
100
AcDbEntity
  8
_U+30EC_U+30A4_U+30E4_U+30FC 1
 62
   179
420
  2234388
370
    25
  0
POLYLINE
  5
93
330
43
100
AcDbEntity
  8
_U+30EC_U+30A4_U+30E4_U+30FC 1
 62
   179
420
  2234388
370
    25
100
AcDb2dPolyline
 66
     1
 10
0.0
 20
0.0
 30
0.0
  0
VERTEX
  5
94
330
93
100
AcDbEntity
  8
_U+30EC_U+30A4_U+30E4_U+30FC 1
 62
   179
420
  2234388
370
    25
100
AcDbVertex
100
AcDb2dVertex
 10
82.88556010763541
 20
-137.4524174656368
 30
0.0
  0
VERTEX
  5
95
330
93
100
AcDbEntity
  8
_U+30EC_U+30A4_U+30E4_U+30FC 1
 62
   179
420
  2234388
370
    25
100
AcDbVertex
100
AcDb2dVertex
 10
82.88556010763541
 20
-139.9521655205674
 30
0.0
  0
SEQEND
  5
96
330
93
100
AcDbEntity
  8
_U+30EC_U+30A4_U+30E4_U+30FC 1
 62
   179
420
  2234388
370
    25
  0
POLYLINE
  5
97
330
43
100
AcDbEntity
  8
_U+30EC_U+30A4_U+30E4_U+30FC 1
 62
   179
420
  2234388
370
    25
100
AcDb2dPolyline
 66
     1
 10
0.0
 20
0.0
 30
0.0
  0
VERTEX
  5
98
330
97
100
AcDbEntity
  8
_U+30EC_U+30A4_U+30E4_U+30FC 1
 62
   179
420
  2234388
370
    25
100
AcDbVertex
100
AcDb2dVertex
 10
83.58525953422904
 20
-139.252148576298
 30
0.0
  0
VERTEX
  5
99
330
97
100
AcDbEntity
  8
_U+30EC_U+30A4_U+30E4_U+30FC 1
 62
   179
420
  2234388
370
    25
100
AcDbVertex
100
AcDb2dVertex
 10
84.63530256299576
 20
-139.252148576298
 30
0.0
  0
SEQEND
  5
9A
330
97
100
AcDbEntity
  8
_U+30EC_U+30A4_U+30E4_U+30FC 1
 62
   179
420
  2234388
370
    25
  0
POLYLINE
  5
9B
330
43
100
AcDbEntity
  8
_U+30EC_U+30A4_U+30E4_U+30FC 1
 62
   179
420
  2234388
370
    25
100
AcDb2dPolyline
 66
     1
 10
0.0
 20
0.0
 30
0.0
  0
VERTEX
  5
9C
330
9B
100
AcDbEntity
  8
_U+30EC_U+30A4_U+30E4_U+30FC 1
 62
   179
420
  2234388
370
    25
100
AcDbVertex
100
AcDb2dVertex
 10
98.63514720582998
 20
-139.252148576298
 30
0.0
  0
VERTEX
  5
9D
330
9B
100
AcDbEntity
  8
_U+30EC_U+30A4_U+30E4_U+30FC 1
 62
   179
420
  2234388
370
    25
100
AcDbVertex
100
AcDb2dVertex
 10
99.68522551237358
 20
-139.252148576298
 30
0.0
  0
SEQEND
  5
9E
330
9B
100
AcDbEntity
  8
_U+30EC_U+30A4_U+30E4_U+30FC 1
 62
   179
420
  2234388
370
    25
  0
POLYLINE
  5
9F
330
43
100
AcDbEntity
  8
_U+30EC_U+30A4_U+30E4_U+30FC 1
 62
   179
420
  2234388
370
    25
100
AcDb2dPolyline
 66
     1
 10
0.0
 20
0.0
 30
0.0
  0
VERTEX
  5
A0
330
9F
100
AcDbEntity
  8
_U+30EC_U+30A4_U+30E4_U+30FC 1
 62
   179
420
  2234388
370
    25
100
AcDbVertex
100
AcDb2dVertex
 10
99.68522551237358
 20
-137.4524174656368
 30
0.0
  0
VERTEX
  5
A1
330
9F
100
AcDbEntity
  8
_U+30EC_U+30A4_U+30E4_U+30FC 1
 62
   179
420
  2234388
370
    25
100
AcDbVertex
100
AcDb2dVertex
 10
99.68522551237358
 20
-139.252148576298
 30
0.0
  0
SEQEND
  5
A2
330
9F
100
AcDbEntity
  8
_U+30EC_U+30A4_U+30E4_U+30FC 1
 62
   179
420
  2234388
370
    25
  0
POLYLINE
  5
A3
330
43
100
AcDbEntity
  8
_U+30EC_U+30A4_U+30E4_U+30FC 1
 62
   179
420
  2234388
370
    25
100
AcDb2dPolyline
 66
     1
 10
0.0
 20
0.0
 30
0.0
  0
VERTEX
  5
A4
330
A3
100
AcDbEntity
  8
_U+30EC_U+30A4_U+30E4_U+30FC 1
 62
   179
420
  2234388
370
    25
100
AcDbVertex
100
AcDb2dVertex
 10
83.58525953422904
 20
-137.4524174656368
 30
0.0
  0
VERTEX
  5
A5
330
A3
100
AcDbEntity
  8
_U+30EC_U+30A4_U+30E4_U+30FC 1
 62
   179
420
  2234388
370
    25
100
AcDbVertex
100
AcDb2dVertex
 10
83.58525953422904
 20
-139.252148576298
 30
0.0
  0
SEQEND
  5
A6
330
A3
100
AcDbEntity
  8
_U+30EC_U+30A4_U+30E4_U+30FC 1
 62
   179
420
  2234388
370
    25
  0
POLYLINE
  5
A7
330
43
100
AcDbEntity
  8
_U+30EC_U+30A4_U+30E4_U+30FC 1
 62
   179
420
  2234388
370
    25
100
AcDb2dPolyline
 66
     1
 10
0.0
 20
0.0
 30
0.0
  0
VERTEX
  5
A8
330
A7
100
AcDbEntity
  8
_U+30EC_U+30A4_U+30E4_U+30FC 1
 62
   179
420
  2234388
370
    25
100
AcDbVertex
100
AcDb2dVertex
 10
82.88556010763541
 20
-137.4524174656368
 30
0.0
  0
VERTEX
  5
A9
330
A7
100
AcDbEntity
  8
_U+30EC_U+30A4_U+30E4_U+30FC 1
 62
   179
420
  2234388
370
    25
100
AcDbVertex
100
AcDb2dVertex
 10
83.58525953422904
 20
-137.4524174656368
 30
0.0
  0
SEQEND
  5
AA
330
A7
100
AcDbEntity
  8
_U+30EC_U+30A4_U+30E4_U+30FC 1
 62
   179
420
  2234388
370
    25
  0
POLYLINE
  5
AB
330
43
100
AcDbEntity
  8
_U+30EC_U+30A4_U+30E4_U+30FC 1
 62
   179
420
  2234388
370
    25
100
AcDb2dPolyline
 66
     1
 10
0.0
 20
0.0
 30
0.0
  0
VERTEX
  5
AC
330
AB
100
AcDbEntity
  8
_U+30EC_U+30A4_U+30E4_U+30FC 1
 62
   179
420
  2234388
370
    25
100
AcDbVertex
100
AcDb2dVertex
 10
99.68522551237358
 20
-137.4524174656368
 30
0.0
  0
VERTEX
  5
AD
330
AB
100
AcDbEntity
  8
_U+30EC_U+30A4_U+30E4_U+30FC 1
 62
   179
420
  2234388
370
    25
100
AcDbVertex
100
AcDb2dVertex
 10
100.3852424389591
 20
-137.4524174656368
 30
0.0
  0
SEQEND
  5
AE
330
AB
100
AcDbEntity
  8
_U+30EC_U+30A4_U+30E4_U+30FC 1
 62
   179
420
  2234388
370
    25
  0
SPLINE
  5
AF
330
43
100
AcDbEntity
  8
_U+30EC_U+30A4_U+30E4_U+30FC 1
 62
   179
420
  2234388
370
     9
100
AcDbSpline
210
0.0
220
0.0
230
1.0
 70
    11
 71
     3
 72
    17
 73
    13
 74
     0
 42
0.0000000001
 43
0.0000000001
 12
1.0
 22
0.0
 32
0.0
 13
1.0
 23
0.0
 33
0.0
 40
0.0
 40
0.0
 40
0.0
 40
0.0
 40
1.0
 40
1.0
 40
1.0
 40
2.0
 40
2.0
 40
2.0
 40
3.0
 40
3.0
 40
3.0
 40
4.0
 40
4.0
 40
4.0
 40
4.0
 10
92.03538070753739
 20
-115.4522074711369
 30
0.0
 10
92.03538070753739
 20
-115.4246555266994
 30
0.0
 10
92.01297931922
 20
-115.4022541378161
 30
0.0
 10
91.98542737547847
 20
-115.4022541378161
 30
0.0
 10
91.9578777547882
 20
-115.4022541378161
 30
0.0
 10
91.93512126565076
 20
-115.4246555266994
 30
0.0
 10
91.93512126565076
 20
-115.4522074711369
 30
0.0
 10
91.93512126565076
 20
-115.4797594155743
 30
0.0
 10
91.9578777547882
 20
-115.5021608044577
 30
0.0
 10
91.98542737547847
 20
-115.5021608044577
 30
0.0
 10
92.01297931922
 20
-115.5021608044577
 30
0.0
 10
92.03538070753739
 20
-115.4797594155743
 30
0.0
 10
92.03538070753739
 20
-115.4522074711369
 30
0.0
  0
SPLINE
  5
B0
330
43
100
AcDbEntity
  8
_U+30EC_U+30A4_U+30E4_U+30FC 1
 62
   179
420
  2234388
370
     9
100
AcDbSpline
210
0.0
220
0.0
230
1.0
 70
    11
 71
     3
 72
    17
 73
    13
 74
     0
 42
0.0000000001
 43
0.0000000001
 12
1.0
 22
0.0
 32
0.0
 13
1.0
 23
0.0
 33
0.0
 40
0.0
 40
0.0
 40
0.0
 40
0.0
 40
1.0
 40
1.0
 40
1.0
 40
2.0
 40
2.0
 40
2.0
 40
3.0
 40
3.0
 40
3.0
 40
4.0
 40
4.0
 40
4.0
 40
4.0
 10
91.33532850317498
 20
-115.4522074711369
 30
0.0
 10
91.33532850317498
 20
-115.4246555266994
 30
0.0
 10
91.3129271148576
 20
-115.4022541378161
 30
0.0
 10
91.28537517111606
 20
-115.4022541378161
 30
0.0
 10
91.25782322737452
 20
-115.4022541378161
 30
0.0
 10
91.23506906128836
 20
-115.4246555266994
 30
0.0
 10
91.23506906128836
 20
-115.4522074711369
 30
0.0
 10
91.23506906128836
 20
-115.4797594155743
 30
0.0
 10
91.25782322737452
 20
-115.5021608044577
 30
0.0
 10
91.28537517111606
 20
-115.5021608044577
 30
0.0
 10
91.3129271148576
 20
-115.5021608044577
 30
0.0
 10
91.33532850317498
 20
-115.4797594155743
 30
0.0
 10
91.33532850317498
 20
-115.4522074711369
 30
0.0
  0
SPLINE
  5
B1
330
43
100
AcDbEntity
  8
_U+30EC_U+30A4_U+30E4_U+30FC 1
 62
   179
420
  2234388
370
     9
100
AcDbSpline
210
0.0
220
0.0
230
1.0
 70
    11
 71
     3
 72
    17
 73
    13
 74
     0
 42
0.0000000001
 43
0.0000000001
 12
1.0
 22
0.0
 32
0.0
 13
1.0
 23
0.0
 33
0.0
 40
0.0
 40
0.0
 40
0.0
 40
0.0
 40
1.0
 40
1.0
 40
1.0
 40
2.0
 40
2.0
 40
2.0
 40
3.0
 40
3.0
 40
3.0
 40
4.0
 40
4.0
 40
4.0
 40
4.0
 10
98.68545331565767
 20
-135.452202743915
 30
0.0
 10
98.68545331565767
 20
-135.4246507994772
 30
0.0
 10
98.66269914957151
 20
-135.4018966328161
 30
0.0
 10
98.63514720582998
 20
-135.4018966328161
 30
0.0
 10
98.60759526208844
 20
-135.4018966328161
 30
0.0
 10
98.58554665153983
 20
-135.4246507994772
 30
0.0
 10
98.58554665153983
 20
-135.452202743915
 30
0.0
 10
98.58554665153983
 20
-135.4797546883521
 30
0.0
 10
98.60759526208844
 20
-135.5025088550132
 30
0.0
 10
98.63514720582998
 20
-135.5025088550132
 30
0.0
 10
98.66269914957151
 20
-135.5025088550132
 30
0.0
 10
98.68545331565767
 20
-135.4797546883521
 30
0.0
 10
98.68545331565767
 20
-135.452202743915
 30
0.0
  0
SPLINE
  5
B2
330
43
100
AcDbEntity
  8
_U+30EC_U+30A4_U+30E4_U+30FC 1
 62
   179
420
  2234388
370
     9
100
AcDbSpline
210
0.0
220
0.0
230
1.0
 70
    11
 71
     3
 72
    17
 73
    13
 74
     0
 42
0.0000000001
 43
0.0000000001
 12
1.0
 22
0.0
 32
0.0
 13
1.0
 23
0.0
 33
0.0
 40
0.0
 40
0.0
 40
0.0
 40
0.0
 40
1.0
 40
1.0
 40
1.0
 40
2.0
 40
2.0
 40
2.0
 40
3.0
 40
3.0
 40
3.0
 40
4.0
 40
4.0
 40
4.0
 40
4.0
 10
96.18535254610723
 20
-135.452202743915
 30
0.0
 10
96.18535254610723
 20
-135.4246507994772
 30
0.0
 10
96.16295115778983
 20
-135.4018966328161
 30
0.0
 10
96.1353992140483
 20
-135.4018966328161
 30
0.0
 10
96.10781199252989
 20
-135.4018966328161
 30
0.0
 10
96.0850931042206
 20
-135.4246507994772
 30
0.0
 10
96.0850931042206
 20
-135.452202743915
 30
0.0
 10
96.0850931042206
 20
-135.4797546883521
 30
0.0
 10
96.10781199252989
 20
-135.5025088550132
 30
0.0
 10
96.1353992140483
 20
-135.5025088550132
 30
0.0
 10
96.16295115778983
 20
-135.5025088550132
 30
0.0
 10
96.18535254610723
 20
-135.4797546883521
 30
0.0
 10
96.18535254610723
 20
-135.452202743915
 30
0.0
  0
SPLINE
  5
B3
330
43
100
AcDbEntity
  8
_U+30EC_U+30A4_U+30E4_U+30FC 1
 62
   179
420
  2234388
370
    25
100
AcDbSpline
210
0.0
220
0.0
230
1.0
 70
     8
 71
     3
 72
    11
 73
     7
 74
     0
 42
0.0000000001
 43
0.0000000001
 12
1.0
 22
0.0
 32
0.0
 13
1.0
 23
0.0
 33
0.0
 40
0.0
 40
0.0
 40
0.0
 40
0.0
 40
1.0
 40
1.0
 40
1.0
 40
2.0
 40
2.0
 40
2.0
 40
2.0
 10
91.85659293432086
 20
-117.5309858039506
 30
0.0
 10
91.70705275485113
 20
-117.4086777484256
 30
0.0
 10
91.48656664379514
 20
-117.4310791373089
 30
0.0
 10
91.36393878022284
 20
-117.5809391372714
 30
0.0
 10
91.3129271148576
 20
-117.643310248367
 30
0.0
 10
91.28537517111606
 20
-117.7214858039029
 30
0.0
 10
91.28537517111606
 20
-117.8020955261051
 30
0.0
  0
SPLINE
  5
B4
330
43
100
AcDbEntity
  8
_U+30EC_U+30A4_U+30E4_U+30FC 1
 62
   179
420
  2234388
370
     9
100
AcDbSpline
210
0.0
220
0.0
230
1.0
 70
    11
 71
     3
 72
    17
 73
    13
 74
     0
 42
0.0000000001
 43
0.0000000001
 12
1.0
 22
0.0
 32
0.0
 13
1.0
 23
0.0
 33
0.0
 40
0.0
 40
0.0
 40
0.0
 40
0.0
 40
1.0
 40
1.0
 40
1.0
 40
2.0
 40
2.0
 40
2.0
 40
3.0
 40
3.0
 40
3.0
 40
4.0
 40
4.0
 40
4.0
 40
4.0
 10
102.4350929422186
 20
-137.4524174656368
 30
0.0
 10
102.4350929422186
 20
-137.4248655211996
 30
0.0
 10
102.41304433167
 20
-137.4021113545385
 30
0.0
 10
102.3854923879285
 20
-137.4021113545385
 30
0.0
 10
102.3579051664101
 20
-137.4021113545385
 30
0.0
 10
102.3351888633054
 20
-137.4248655211996
 30
0.0
 10
102.3351888633054
 20
-137.4524174656368
 30
0.0
 10
102.3351888633054
 20
-137.4799694100746
 30
0.0
 10
102.3579051664101
 20
-137.5020180211802
 30
0.0
 10
102.3854923879285
 20
-137.5020180211802
 30
0.0
 10
102.41304433167
 20
-137.5020180211802
 30
0.0
 10
102.4350929422186
 20
-137.4799694100746
 30
0.0
 10
102.4350929422186
 20
-137.4524174656368
 30
0.0
  0
SPLINE
  5
B5
330
43
100
AcDbEntity
  8
_U+30EC_U+30A4_U+30E4_U+30FC 1
 62
   179
420
  2234388
370
     9
100
AcDbSpline
210
0.0
220
0.0
230
1.0
 70
    11
 71
     3
 72
    17
 73
    13
 74
     0
 42
0.0000000001
 43
0.0000000001
 12
1.0
 22
0.0
 32
0.0
 13
1.0
 23
0.0
 33
0.0
 40
0.0
 40
0.0
 40
0.0
 40
0.0
 40
1.0
 40
1.0
 40
1.0
 40
2.0
 40
2.0
 40
2.0
 40
3.0
 40
3.0
 40
3.0
 40
4.0
 40
4.0
 40
4.0
 40
4.0
 10
102.4350929422186
 20
-139.9521655205674
 30
0.0
 10
102.4350929422186
 20
-139.9246135761296
 30
0.0
 10
102.41304433167
 20
-139.9018946872467
 30
0.0
 10
102.3854923879285
 20
-139.9018946872467
 30
0.0
 10
102.3579051664101
 20
-139.9018946872467
 30
0.0
 10
102.3351888633054
 20
-139.9246135761296
 30
0.0
 10
102.3351888633054
 20
-139.9521655205674
 30
0.0
 10
102.3351888633054
 20
-139.9797527427827
 30
0.0
 10
102.3579051664101
 20
-140.0024716316663
 30
0.0
 10
102.3854923879285
 20
-140.0024716316663
 30
0.0
 10
102.41304433167
 20
-140.0024716316663
 30
0.0
 10
102.4350929422186
 20
-139.9797527427827
 30
0.0
 10
102.4350929422186
 20
-139.9521655205674
 30
0.0
  0
SPLINE
  5
B6
330
43
100
AcDbEntity
  8
_U+30EC_U+30A4_U+30E4_U+30FC 1
 62
   179
420
  2234388
370
     9
100
AcDbSpline
210
0.0
220
0.0
230
1.0
 70
    11
 71
     3
 72
    17
 73
    13
 74
     0
 42
0.0000000001
 43
0.0000000001
 12
1.0
 22
0.0
 32
0.0
 13
1.0
 23
0.0
 33
0.0
 40
0.0
 40
0.0
 40
0.0
 40
0.0
 40
1.0
 40
1.0
 40
1.0
 40
2.0
 40
2.0
 40
2.0
 40
3.0
 40
3.0
 40
3.0
 40
4.0
 40
4.0
 40
4.0
 40
4.0
 10
100.4355485487868
 20
-141.9524155200674
 30
0.0
 10
100.4355485487868
 20
-141.9248282978521
 30
0.0
 10
100.4128296604775
 20
-141.9021094089691
 30
0.0
 10
100.3852424389591
 20
-141.9021094089691
 30
0.0
 10
100.3576904952176
 20
-141.9021094089691
 30
0.0
 10
100.3352916415832
 20
-141.9248282978521
 30
0.0
 10
100.3352916415832
 20
-141.9524155200674
 30
0.0
 10
100.3352916415832
 20
-141.9799674645052
 30
0.0
 10
100.3576904952176
 20
-142.0020160756108
 30
0.0
 10
100.3852424389591
 20
-142.0020160756108
 30
0.0
 10
100.4128296604775
 20
-142.0020160756108
 30
0.0
 10
100.4355485487868
 20
-141.9799674645052
 30
0.0
 10
100.4355485487868
 20
-141.9524155200674
 30
0.0
  0
SPLINE
  5
B7
330
43
100
AcDbEntity
  8
_U+30EC_U+30A4_U+30E4_U+30FC 1
 62
   179
420
  2234388
370
     9
100
AcDbSpline
210
0.0
220
0.0
230
1.0
 70
    11
 71
     3
 72
    17
 73
    13
 74
     0
 42
0.0000000001
 43
0.0000000001
 12
1.0
 22
0.0
 32
0.0
 13
1.0
 23
0.0
 33
0.0
 40
0.0
 40
0.0
 40
0.0
 40
0.0
 40
1.0
 40
1.0
 40
1.0
 40
2.0
 40
2.0
 40
2.0
 40
3.0
 40
3.0
 40
3.0
 40
4.0
 40
4.0
 40
4.0
 40
4.0
 10
82.93516066192555
 20
-141.9524155200674
 30
0.0
 10
82.93516066192555
 20
-141.9248282978521
 30
0.0
 10
82.91311205137696
 20
-141.9021094089691
 30
0.0
 10
82.88556010763541
 20
-141.9021094089691
 30
0.0
 10
82.8576553861251
 20
-141.9021094089691
 30
0.0
 10
82.83525399780773
 20
-141.9248282978521
 30
0.0
 10
82.83525399780773
 20
-141.9524155200674
 30
0.0
 10
82.83525399780773
 20
-141.9799674645052
 30
0.0
 10
82.8576553861251
 20
-142.0020160756108
 30
0.0
 10
82.88556010763541
 20
-142.0020160756108
 30
0.0
 10
82.91311205137696
 20
-142.0020160756108
 30
0.0
 10
82.93516066192555
 20
-141.9799674645052
 30
0.0
 10
82.93516066192555
 20
-141.9524155200674
 30
0.0
  0
SPLINE
  5
B8
330
43
100
AcDbEntity
  8
_U+30EC_U+30A4_U+30E4_U+30FC 1
 62
   179
420
  2234388
370
     9
100
AcDbSpline
210
0.0
220
0.0
230
1.0
 70
    11
 71
     3
 72
    17
 73
    13
 74
     0
 42
0.0000000001
 43
0.0000000001
 12
1.0
 22
0.0
 32
0.0
 13
1.0
 23
0.0
 33
0.0
 40
0.0
 40
0.0
 40
0.0
 40
0.0
 40
1.0
 40
1.0
 40
1.0
 40
2.0
 40
2.0
 40
2.0
 40
3.0
 40
3.0
 40
3.0
 40
4.0
 40
4.0
 40
4.0
 40
4.0
 10
79.53346574871003
 20
-139.9521655205674
 30
0.0
 10
79.53346574871003
 20
-139.9246135761296
 30
0.0
 10
79.51106436039264
 20
-139.9018946872467
 30
0.0
 10
79.48351241665111
 20
-139.9018946872467
 30
0.0
 10
79.45596047290957
 20
-139.9018946872467
 30
0.0
 10
79.43356109125278
 20
-139.9246135761296
 30
0.0
 10
79.43356109125278
 20
-139.9521655205674
 30
0.0
 10
79.43356109125278
 20
-139.9797527427827
 30
0.0
 10
79.45596047290957
 20
-140.0024716316663
 30
0.0
 10
79.48351241665111
 20
-140.0024716316663
 30
0.0
 10
79.51106436039264
 20
-140.0024716316663
 30
0.0
 10
79.53346574871003
 20
-139.9797527427827
 30
0.0
 10
79.53346574871003
 20
-139.9521655205674
 30
0.0
  0
SPLINE
  5
B9
330
43
100
AcDbEntity
  8
_U+30EC_U+30A4_U+30E4_U+30FC 1
 62
   179
420
  2234388
370
     9
100
AcDbSpline
210
0.0
220
0.0
230
1.0
 70
    11
 71
     3
 72
    17
 73
    13
 74
     0
 42
0.0000000001
 43
0.0000000001
 12
1.0
 22
0.0
 32
0.0
 13
1.0
 23
0.0
 33
0.0
 40
0.0
 40
0.0
 40
0.0
 40
0.0
 40
1.0
 40
1.0
 40
1.0
 40
2.0
 40
2.0
 40
2.0
 40
3.0
 40
3.0
 40
3.0
 40
4.0
 40
4.0
 40
4.0
 40
4.0
 10
79.53346574871003
 20
-117.4521046928591
 30
0.0
 10
79.53346574871003
 20
-117.4245174706438
 30
0.0
 10
79.51106436039264
 20
-117.4021513595383
 30
0.0
 10
79.48351241665111
 20
-117.4021513595383
 30
0.0
 10
79.45596047290957
 20
-117.4021513595383
 30
0.0
 10
79.43356109125278
 20
-117.4245174706438
 30
0.0
 10
79.43356109125278
 20
-117.4521046928591
 30
0.0
 10
79.43356109125278
 20
-117.4796566372969
 30
0.0
 10
79.45596047290957
 20
-117.5020580261799
 30
0.0
 10
79.48351241665111
 20
-117.5020580261799
 30
0.0
 10
79.51106436039264
 20
-117.5020580261799
 30
0.0
 10
79.53346574871003
 20
-117.4796566372969
 30
0.0
 10
79.53346574871003
 20
-117.4521046928591
 30
0.0
  0
POLYLINE
  5
BA
330
43
100
AcDbEntity
  8
_U+30EC_U+30A4_U+30E4_U+30FC 1
 62
   179
420
  2234388
370
     9
100
AcDb2dPolyline
 66
     1
 10
0.0
 20
0.0
 30
0.0
  0
VERTEX
  5
BB
330
BA
100
AcDbEntity
  8
_U+30EC_U+30A4_U+30E4_U+30FC 1
 62
   179
420
  2234388
370
     9
100
AcDbVertex
100
AcDb2dVertex
 10
91.98542737547847
 20
-115.4522074711369
 30
0.0
  0
VERTEX
  5
BC
330
BA
100
AcDbEntity
  8
_U+30EC_U+30A4_U+30E4_U+30FC 1
 62
   179
420
  2234388
370
     9
100
AcDbVertex
100
AcDb2dVertex
 10
94.61404508619461
 20
-115.4522074711369
 30
0.0
  0
SEQEND
  5
BD
330
BA
100
AcDbEntity
  8
_U+30EC_U+30A4_U+30E4_U+30FC 1
 62
   179
420
  2234388
370
     9
  0
POLYLINE
  5
BE
330
43
100
AcDbEntity
  8
_U+30EC_U+30A4_U+30E4_U+30FC 1
 62
   179
420
  2234388
370
     9
100
AcDb2dPolyline
 66
     1
 10
0.0
 20
0.0
 30
0.0
  0
VERTEX
  5
BF
330
BE
100
AcDbEntity
  8
_U+30EC_U+30A4_U+30E4_U+30FC 1
 62
   179
420
  2234388
370
     9
100
AcDbVertex
100
AcDb2dVertex
 10
90.7851715727662
 20
-115.4522074711369
 30
0.0
  0
VERTEX
  5
C0
330
BE
100
AcDbEntity
  8
_U+30EC_U+30A4_U+30E4_U+30FC 1
 62
   179
420
  2234388
370
     9
100
AcDbVertex
100
AcDb2dVertex
 10
91.98542737547847
 20
-115.4522074711369
 30
0.0
  0
SEQEND
  5
C1
330
BE
100
AcDbEntity
  8
_U+30EC_U+30A4_U+30E4_U+30FC 1
 62
   179
420
  2234388
370
     9
  0
POLYLINE
  5
C2
330
43
100
AcDbEntity
  8
_U+30EC_U+30A4_U+30E4_U+30FC 1
 62
   179
420
  2234388
370
     9
100
AcDb2dPolyline
 66
     1
 10
0.0
 20
0.0
 30
0.0
  0
VERTEX
  5
C3
330
C2
100
AcDbEntity
  8
_U+30EC_U+30A4_U+30E4_U+30FC 1
 62
   179
420
  2234388
370
     9
100
AcDbVertex
100
AcDb2dVertex
 10
91.28537517111606
 20
-116.18221052651
 30
0.0
  0
VERTEX
  5
C4
330
C2
100
AcDbEntity
  8
_U+30EC_U+30A4_U+30E4_U+30FC 1
 62
   179
420
  2234388
370
     9
100
AcDbVertex
100
AcDb2dVertex
 10
91.28537517111606
 20
-114.9523213601509
 30
0.0
  0
SEQEND
  5
C5
330
C2
100
AcDbEntity
  8
_U+30EC_U+30A4_U+30E4_U+30FC 1
 62
   179
420
  2234388
370
     9
  0
POLYLINE
  5
C6
330
43
100
AcDbEntity
  8
_U+30EC_U+30A4_U+30E4_U+30FC 1
 62
   179
420
  2234388
370
     9
100
AcDb2dPolyline
 66
     1
 10
0.0
 20
0.0
 30
0.0
  0
VERTEX
  5
C7
330
C6
100
AcDbEntity
  8
_U+30EC_U+30A4_U+30E4_U+30FC 1
 62
   179
420
  2234388
370
     9
100
AcDbVertex
100
AcDb2dVertex
 10
91.98542737547847
 20
-116.18221052651
 30
0.0
  0
VERTEX
  5
C8
330
C6
100
AcDbEntity
  8
_U+30EC_U+30A4_U+30E4_U+30FC 1
 62
   179
420
  2234388
370
     9
100
AcDbVertex
100
AcDb2dVertex
 10
91.98542737547847
 20
-114.9523213601509
 30
0.0
  0
SEQEND
  5
C9
330
C6
100
AcDbEntity
  8
_U+30EC_U+30A4_U+30E4_U+30FC 1
 62
   179
420
  2234388
370
     9
  0
INSERT
  5
CB
330
43
100
AcDbEntity
  8
_U+30EC_U+30A4_U+30E4_U+30FC 1
100
AcDbBlockReference
  2
block 3
 10
0.0
 20
0.0
 30
0.0
  0
INSERT
  5
EE
330
43
100
AcDbEntity
  8
_U+30EC_U+30A4_U+30E4_U+30FC 1
100
AcDbBlockReference
  2
block 4
 10
0.0
 20
0.0
 30
0.0
  0
POLYLINE
  5
F2
330
43
100
AcDbEntity
  8
_U+30EC_U+30A4_U+30E4_U+30FC 1
 62
   179
420
  2234388
370
     9
100
AcDb2dPolyline
 66
     1
 10
0.0
 20
0.0
 30
0.0
  0
VERTEX
  5
F3
330
F2
100
AcDbEntity
  8
_U+30EC_U+30A4_U+30E4_U+30FC 1
 62
   179
420
  2234388
370
     9
100
AcDbVertex
100
AcDb2dVertex
 10
96.1353992140483
 20
-135.452202743915
 30
0.0
  0
VERTEX
  5
F4
330
F2
100
AcDbEntity
  8
_U+30EC_U+30A4_U+30E4_U+30FC 1
 62
   179
420
  2234388
370
     9
100
AcDbVertex
100
AcDb2dVertex
 10
98.63514720582998
 20
-135.452202743915
 30
0.0
  0
SEQEND
  5
F5
330
F2
100
AcDbEntity
  8
_U+30EC_U+30A4_U+30E4_U+30FC 1
 62
   179
420
  2234388
370
     9
  0
POLYLINE
  5
F6
330
43
100
AcDbEntity
  8
_U+30EC_U+30A4_U+30E4_U+30FC 1
 62
   179
420
  2234388
370
     9
100
AcDb2dPolyline
 66
     1
 10
0.0
 20
0.0
 30
0.0
  0
VERTEX
  5
F7
330
F6
100
AcDbEntity
  8
_U+30EC_U+30A4_U+30E4_U+30FC 1
 62
   179
420
  2234388
370
     9
100
AcDbVertex
100
AcDb2dVertex
 10
96.1353992140483
 20
-136.18185302151
 30
0.0
  0
VERTEX
  5
F8
330
F6
100
AcDbEntity
  8
_U+30EC_U+30A4_U+30E4_U+30FC 1
 62
   179
420
  2234388
370
     9
100
AcDbVertex
100
AcDb2dVertex
 10
96.1353992140483
 20
-134.9519638551506
 30
0.0
  0
SEQEND
  5
F9
330
F6
100
AcDbEntity
  8
_U+30EC_U+30A4_U+30E4_U+30FC 1
 62
   179
420
  2234388
370
     9
  0
POLYLINE
  5
FA
330
43
100
AcDbEntity
  8
_U+30EC_U+30A4_U+30E4_U+30FC 1
 62
   179
420
  2234388
370
     9
100
AcDb2dPolyline
 66
     1
 10
0.0
 20
0.0
 30
0.0
  0
VERTEX
  5
FB
330
FA
100
AcDbEntity
  8
_U+30EC_U+30A4_U+30E4_U+30FC 1
 62
   179
420
  2234388
370
     9
100
AcDbVertex
100
AcDb2dVertex
 10
98.63514720582998
 20
-136.18185302151
 30
0.0
  0
VERTEX
  5
FC
330
FA
100
AcDbEntity
  8
_U+30EC_U+30A4_U+30E4_U+30FC 1
 62
   179
420
  2234388
370
     9
100
AcDbVertex
100
AcDb2dVertex
 10
98.63514720582998
 20
-134.9519638551506
 30
0.0
  0
SEQEND
  5
FD
330
FA
100
AcDbEntity
  8
_U+30EC_U+30A4_U+30E4_U+30FC 1
 62
   179
420
  2234388
370
     9
  0
INSERT
  5
FF
330
43
100
AcDbEntity
  8
_U+30EC_U+30A4_U+30E4_U+30FC 1
100
AcDbBlockReference
  2
block 5
 10
0.0
 20
0.0
 30
0.0
  0
INSERT
  5
105
330
43
100
AcDbEntity
  8
_U+30EC_U+30A4_U+30E4_U+30FC 1
100
AcDbBlockReference
  2
block 6
 10
0.0
 20
0.0
 30
0.0
  0
INSERT
  5
10A
330
43
100
AcDbEntity
  8
_U+30EC_U+30A4_U+30E4_U+30FC 1
100
AcDbBlockReference
  2
block 7
 10
0.0
 20
0.0
 30
0.0
  0
INSERT
  5
10F
330
43
100
AcDbEntity
  8
_U+30EC_U+30A4_U+30E4_U+30FC 1
100
AcDbBlockReference
  2
block 8
 10
0.0
 20
0.0
 30
0.0
  0
POLYLINE
  5
113
330
43
100
AcDbEntity
  8
_U+30EC_U+30A4_U+30E4_U+30FC 1
 62
   179
420
  2234388
370
     9
100
AcDb2dPolyline
 66
     1
 10
0.0
 20
0.0
 30
0.0
  0
VERTEX
  5
114
330
113
100
AcDbEntity
  8
_U+30EC_U+30A4_U+30E4_U+30FC 1
 62
   179
420
  2234388
370
     9
100
AcDbVertex
100
AcDb2dVertex
 10
102.3854923879285
 20
-137.4524174656368
 30
0.0
  0
VERTEX
  5
115
330
113
100
AcDbEntity
  8
_U+30EC_U+30A4_U+30E4_U+30FC 1
 62
   179
420
  2234388
370
     9
100
AcDbVertex
100
AcDb2dVertex
 10
102.3854923879285
 20
-139.9521655205674
 30
0.0
  0
SEQEND
  5
116
330
113
100
AcDbEntity
  8
_U+30EC_U+30A4_U+30E4_U+30FC 1
 62
   179
420
  2234388
370
     9
  0
POLYLINE
  5
117
330
43
100
AcDbEntity
  8
_U+30EC_U+30A4_U+30E4_U+30FC 1
 62
   179
420
  2234388
370
     9
100
AcDb2dPolyline
 66
     1
 10
0.0
 20
0.0
 30
0.0
  0
VERTEX
  5
118
330
117
100
AcDbEntity
  8
_U+30EC_U+30A4_U+30E4_U+30FC 1
 62
   179
420
  2234388
370
     9
100
AcDbVertex
100
AcDb2dVertex
 10
101.6551365732281
 20
-137.4524174656368
 30
0.0
  0
VERTEX
  5
119
330
117
100
AcDbEntity
  8
_U+30EC_U+30A4_U+30E4_U+30FC 1
 62
   179
420
  2234388
370
     9
100
AcDbVertex
100
AcDb2dVertex
 10
102.8853784862864
 20
-137.4524174656368
 30
0.0
  0
SEQEND
  5
11A
330
117
100
AcDbEntity
  8
_U+30EC_U+30A4_U+30E4_U+30FC 1
 62
   179
420
  2234388
370
     9
  0
POLYLINE
  5
11B
330
43
100
AcDbEntity
  8
_U+30EC_U+30A4_U+30E4_U+30FC 1
 62
   179
420
  2234388
370
     9
100
AcDb2dPolyline
 66
     1
 10
0.0
 20
0.0
 30
0.0
  0
VERTEX
  5
11C
330
11B
100
AcDbEntity
  8
_U+30EC_U+30A4_U+30E4_U+30FC 1
 62
   179
420
  2234388
370
     9
100
AcDbVertex
100
AcDb2dVertex
 10
101.6551365732281
 20
-139.9521655205674
 30
0.0
  0
VERTEX
  5
11D
330
11B
100
AcDbEntity
  8
_U+30EC_U+30A4_U+30E4_U+30FC 1
 62
   179
420
  2234388
370
     9
100
AcDbVertex
100
AcDb2dVertex
 10
102.8853784862864
 20
-139.9521655205674
 30
0.0
  0
SEQEND
  5
11E
330
11B
100
AcDbEntity
  8
_U+30EC_U+30A4_U+30E4_U+30FC 1
 62
   179
420
  2234388
370
     9
  0
INSERT
  5
120
330
43
100
AcDbEntity
  8
_U+30EC_U+30A4_U+30E4_U+30FC 1
100
AcDbBlockReference
  2
block 9
 10
0.0
 20
0.0
 30
0.0
  0
INSERT
  5
126
330
43
100
AcDbEntity
  8
_U+30EC_U+30A4_U+30E4_U+30FC 1
100
AcDbBlockReference
  2
block 10
 10
0.0
 20
0.0
 30
0.0
  0
INSERT
  5
12B
330
43
100
AcDbEntity
  8
_U+30EC_U+30A4_U+30E4_U+30FC 1
100
AcDbBlockReference
  2
block 11
 10
0.0
 20
0.0
 30
0.0
  0
INSERT
  5
130
330
43
100
AcDbEntity
  8
_U+30EC_U+30A4_U+30E4_U+30FC 1
100
AcDbBlockReference
  2
block 12
 10
0.0
 20
0.0
 30
0.0
  0
POLYLINE
  5
134
330
43
100
AcDbEntity
  8
_U+30EC_U+30A4_U+30E4_U+30FC 1
 62
   179
420
  2234388
370
     9
100
AcDb2dPolyline
 66
     1
 10
0.0
 20
0.0
 30
0.0
  0
VERTEX
  5
135
330
134
100
AcDbEntity
  8
_U+30EC_U+30A4_U+30E4_U+30FC 1
 62
   179
420
  2234388
370
     9
100
AcDbVertex
100
AcDb2dVertex
 10
79.48351241665111
 20
-139.9521655205674
 30
0.0
  0
VERTEX
  5
136
330
134
100
AcDbEntity
  8
_U+30EC_U+30A4_U+30E4_U+30FC 1
 62
   179
420
  2234388
370
     9
100
AcDbVertex
100
AcDb2dVertex
 10
79.48351241665111
 20
-117.4521046928591
 30
0.0
  0
SEQEND
  5
137
330
134
100
AcDbEntity
  8
_U+30EC_U+30A4_U+30E4_U+30FC 1
 62
   179
420
  2234388
370
     9
  0
POLYLINE
  5
138
330
43
100
AcDbEntity
  8
_U+30EC_U+30A4_U+30E4_U+30FC 1
 62
   179
420
  2234388
370
     9
100
AcDb2dPolyline
 66
     1
 10
0.0
 20
0.0
 30
0.0
  0
VERTEX
  5
139
330
138
100
AcDbEntity
  8
_U+30EC_U+30A4_U+30E4_U+30FC 1
 62
   179
420
  2234388
370
     9
100
AcDbVertex
100
AcDb2dVertex
 10
81.41172514523608
 20
-139.9521655205674
 30
0.0
  0
VERTEX
  5
13A
330
138
100
AcDbEntity
  8
_U+30EC_U+30A4_U+30E4_U+30FC 1
 62
   179
420
  2234388
370
     9
100
AcDbVertex
100
AcDb2dVertex
 10
78.98327354052438
 20
-139.9521655205674
 30
0.0
  0
SEQEND
  5
13B
330
138
100
AcDbEntity
  8
_U+30EC_U+30A4_U+30E4_U+30FC 1
 62
   179
420
  2234388
370
     9
  0
POLYLINE
  5
13C
330
43
100
AcDbEntity
  8
_U+30EC_U+30A4_U+30E4_U+30FC 1
 62
   179
420
  2234388
370
     9
100
AcDb2dPolyline
 66
     1
 10
0.0
 20
0.0
 30
0.0
  0
VERTEX
  5
13D
330
13C
100
AcDbEntity
  8
_U+30EC_U+30A4_U+30E4_U+30FC 1
 62
   179
420
  2234388
370
     9
100
AcDbVertex
100
AcDb2dVertex
 10
88.96374467479023
 20
-117.4521046928591
 30
0.0
  0
VERTEX
  5
13E
330
13C
100
AcDbEntity
  8
_U+30EC_U+30A4_U+30E4_U+30FC 1
 62
   179
420
  2234388
370
     9
100
AcDbVertex
100
AcDb2dVertex
 10
78.98327354052438
 20
-117.4521046928591
 30
0.0
  0
SEQEND
  5
13F
330
13C
100
AcDbEntity
  8
_U+30EC_U+30A4_U+30E4_U+30FC 1
 62
   179
420
  2234388
370
     9
  0
INSERT
  5
141
330
43
100
AcDbEntity
  8
_U+30EC_U+30A4_U+30E4_U+30FC 1
100
AcDbBlockReference
  2
block 13
 10
0.0
 20
0.0
 30
0.0
  0
INSERT
  5
15C
330
43
100
AcDbEntity
  8
_U+30EC_U+30A4_U+30E4_U+30FC 1
100
AcDbBlockReference
  2
block 14
 10
0.0
 20
0.0
 30
0.0
  0
INSERT
  5
161
330
43
100
AcDbEntity
  8
_U+30EC_U+30A4_U+30E4_U+30FC 1
100
AcDbBlockReference
  2
block 15
 10
0.0
 20
0.0
 30
0.0
  0
INSERT
  5
166
330
43
100
AcDbEntity
  8
_U+30EC_U+30A4_U+30E4_U+30FC 1
100
AcDbBlockReference
  2
block 16
 10
0.0
 20
0.0
 30
0.0
  0
POLYLINE
  5
16A
330
43
100
AcDbEntity
  8
_U+30EC_U+30A4_U+30E4_U+30FC 1
 62
   179
420
  2234388
370
     9
100
AcDb2dPolyline
 66
     1
 10
0.0
 20
0.0
 30
0.0
  0
VERTEX
  5
16B
330
16A
100
AcDbEntity
  8
_U+30EC_U+30A4_U+30E4_U+30FC 1
 62
   179
420
  2234388
370
     9
100
AcDbVertex
100
AcDb2dVertex
 10
82.88556010763541
 20
-141.9524155200674
 30
0.0
  0
VERTEX
  5
16C
330
16A
100
AcDbEntity
  8
_U+30EC_U+30A4_U+30E4_U+30FC 1
 62
   179
420
  2234388
370
     9
100
AcDbVertex
100
AcDb2dVertex
 10
100.3852424389591
 20
-141.9524155200674
 30
0.0
  0
SEQEND
  5
16D
330
16A
100
AcDbEntity
  8
_U+30EC_U+30A4_U+30E4_U+30FC 1
 62
   179
420
  2234388
370
     9
  0
POLYLINE
  5
16E
330
43
100
AcDbEntity
  8
_U+30EC_U+30A4_U+30E4_U+30FC 1
 62
   179
420
  2234388
370
     9
100
AcDb2dPolyline
 66
     1
 10
0.0
 20
0.0
 30
0.0
  0
VERTEX
  5
16F
330
16E
100
AcDbEntity
  8
_U+30EC_U+30A4_U+30E4_U+30FC 1
 62
   179
420
  2234388
370
     9
100
AcDbVertex
100
AcDb2dVertex
 10
82.88556010763541
 20
-141.2220596869169
 30
0.0
  0
VERTEX
  5
170
330
16E
100
AcDbEntity
  8
_U+30EC_U+30A4_U+30E4_U+30FC 1
 62
   179
420
  2234388
370
     9
100
AcDbVertex
100
AcDb2dVertex
 10
82.88556010763541
 20
-142.4519488532762
 30
0.0
  0
SEQEND
  5
171
330
16E
100
AcDbEntity
  8
_U+30EC_U+30A4_U+30E4_U+30FC 1
 62
   179
420
  2234388
370
     9
  0
POLYLINE
  5
172
330
43
100
AcDbEntity
  8
_U+30EC_U+30A4_U+30E4_U+30FC 1
 62
   179
420
  2234388
370
     9
100
AcDb2dPolyline
 66
     1
 10
0.0
 20
0.0
 30
0.0
  0
VERTEX
  5
173
330
172
100
AcDbEntity
  8
_U+30EC_U+30A4_U+30E4_U+30FC 1
 62
   179
420
  2234388
370
     9
100
AcDbVertex
100
AcDb2dVertex
 10
100.3852424389591
 20
-141.2220596869169
 30
0.0
  0
VERTEX
  5
174
330
172
100
AcDbEntity
  8
_U+30EC_U+30A4_U+30E4_U+30FC 1
 62
   179
420
  2234388
370
     9
100
AcDbVertex
100
AcDb2dVertex
 10
100.3852424389591
 20
-142.4519488532762
 30
0.0
  0
SEQEND
  5
175
330
172
100
AcDbEntity
  8
_U+30EC_U+30A4_U+30E4_U+30FC 1
 62
   179
420
  2234388
370
     9
  0
INSERT
  5
177
330
43
100
AcDbEntity
  8
_U+30EC_U+30A4_U+30E4_U+30FC 1
100
AcDbBlockReference
  2
block 17
 10
0.0
 20
0.0
 30
0.0
  0
INSERT
  5
17F
330
43
100
AcDbEntity
  8
_U+30EC_U+30A4_U+30E4_U+30FC 1
100
AcDbBlockReference
  2
block 18
 10
0.0
 20
0.0
 30
0.0
  0
INSERT
  5
184
330
43
100
AcDbEntity
  8
_U+30EC_U+30A4_U+30E4_U+30FC 1
100
AcDbBlockReference
  2
block 19
 10
0.0
 20
0.0
 30
0.0
  0
INSERT
  5
189
330
43
100
AcDbEntity
  8
_U+30EC_U+30A4_U+30E4_U+30FC 1
100
AcDbBlockReference
  2
block 20
 10
0.0
 20
0.0
 30
0.0
  0
ENDBLK
  5
46
330
43
100
AcDbEntity
  8
0
100
AcDbBlockEnd
  0
BLOCK
  5
CC
330
CA
100
AcDbEntity
  8
0
100
AcDbBlockBegin
  2
block 3
 70
     0
 10
0.0
 20
0.0
 30
0.0
  3
block 3
  1

  0
SPLINE
  5
CE
330
CA
100
AcDbEntity
  8
_U+30EC_U+30A4_U+30E4_U+30FC 1
370
     0
100
AcDbSpline
210
0.0
220
0.0
230
1.0
 70
    11
 71
     3
 72
    26
 73
    22
 74
     0
 42
0.0000000001
 43
0.0000000001
 12
1.0
 22
0.0
 32
0.0
 13
1.0
 23
0.0
 33
0.0
 40
0.0
 40
0.0
 40
0.0
 40
0.0
 40
1.0
 40
1.0
 40
1.0
 40
2.0
 40
2.0
 40
2.0
 40
3.0
 40
3.0
 40
3.0
 40
4.0
 40
4.0
 40
4.0
 40
5.0
 40
5.0
 40
5.0
 40
6.0
 40
6.0
 40
6.0
 40
7.0
 40
7.0
 40
7.0
 40
7.0
 10
90.69076061100787
 20
-114.4173054726978
 30
0.0
 10
90.69076061100787
 20
-114.4173054726978
 30
0.0
 10
90.69076061100787
 20
-113.3129801149009
 30
0.0
 10
90.69076061100787
 20
-113.3129801149009
 30
0.0
 10
90.69076061100787
 20
-113.3129801149009
 30
0.0
 10
90.36072046352093
 20
-113.3129801149009
 30
0.0
 10
90.36072046352093
 20
-113.3129801149009
 30
0.0
 10
90.36072046352093
 20
-113.3129801149009
 30
0.0
 10
90.36072046352093
 20
-113.1648410090352
 30
0.0
 10
90.36072046352093
 20
-113.1648410090352
 30
0.0
 10
90.69282766829902
 20
-113.1501993532229
 30
0.0
 10
90.73933645734989
 20
-112.9872463367706
 30
0.0
 10
90.76896427852304
 20
-112.8730414214345
 30
0.0
 10
90.76896427852304
 20
-112.8730414214345
 30
0.0
 10
90.91503632709764
 20
-112.8730414214345
 30
0.0
 10
90.91503632709764
 20
-112.8730414214345
 30
0.0
 10
90.91503632709764
 20
-112.8730414214345
 30
0.0
 10
90.91503632709764
 20
-114.4173054726978
 30
0.0
 10
90.91503632709764
 20
-114.4173054726978
 30
0.0
 10
90.91503632709764
 20
-114.4173054726978
 30
0.0
 10
90.69076061100787
 20
-114.4173054726978
 30
0.0
 10
90.69076061100787
 20
-114.4173054726978
 30
0.0
  0
HATCH
  5
CF
330
CA
100
AcDbEntity
  8
_U+30EC_U+30A4_U+30E4_U+30FC 1
 62
   179
420
  2234388
100
AcDbHatch
 10
0.0
 20
0.0
 30
0.0
210
0.0
220
0.0
230
1.0
  2
SOLID
 70
     1
 71
     0
 91
        1
 92
        1
 93
        1
 72
     4
 94
        3
 73
     0
 74
     1
 95
       26
 96
       22
 40
0.0
 40
0.0
 40
0.0
 40
0.0
 40
1.0
 40
1.0
 40
1.0
 40
2.0
 40
2.0
 40
2.0
 40
3.0
 40
3.0
 40
3.0
 40
4.0
 40
4.0
 40
4.0
 40
5.0
 40
5.0
 40
5.0
 40
6.0
 40
6.0
 40
6.0
 40
7.0
 40
7.0
 40
7.0
 40
7.0
 10
90.69076061100787
 20
-114.4173054726978
 10
90.69076061100787
 20
-114.4173054726978
 10
90.69076061100787
 20
-113.3129801149009
 10
90.69076061100787
 20
-113.3129801149009
 10
90.69076061100787
 20
-113.3129801149009
 10
90.36072046352093
 20
-113.3129801149009
 10
90.36072046352093
 20
-113.3129801149009
 10
90.36072046352093
 20
-113.3129801149009
 10
90.36072046352093
 20
-113.1648410090352
 10
90.36072046352093
 20
-113.1648410090352
 10
90.69282766829902
 20
-113.1501993532229
 10
90.73933645734989
 20
-112.9872463367706
 10
90.76896427852304
 20
-112.8730414214345
 10
90.76896427852304
 20
-112.8730414214345
 10
90.91503632709764
 20
-112.8730414214345
 10
90.91503632709764
 20
-112.8730414214345
 10
90.91503632709764
 20
-112.8730414214345
 10
90.91503632709764
 20
-114.4173054726978
 10
90.91503632709764
 20
-114.4173054726978
 10
90.91503632709764
 20
-114.4173054726978
 10
90.69076061100787
 20
-114.4173054726978
 10
90.69076061100787
 20
-114.4173054726978
 97
        0
 97
        0
 75
     2
 76
     1
 98
        0
  0
POLYLINE
  5
D0
330
CA
100
AcDbEntity
  8
_U+30EC_U+30A4_U+30E4_U+30FC 1
370
     0
100
AcDb2dPolyline
 66
     1
 10
0.0
 20
0.0
 30
0.0
  0
VERTEX
  5
D1
330
D0
100
AcDbEntity
  8
_U+30EC_U+30A4_U+30E4_U+30FC 1
370
     0
100
AcDbVertex
100
AcDb2dVertex
 10
91.47624238164484
 20
-114.4173054726978
 30
0.0
  0
VERTEX
  5
D2
330
D0
100
AcDbEntity
  8
_U+30EC_U+30A4_U+30E4_U+30FC 1
370
     0
100
AcDbVertex
100
AcDb2dVertex
 10
91.47624238164484
 20
-114.1656412475003
 30
0.0
  0
VERTEX
  5
D3
330
D0
100
AcDbEntity
  8
_U+30EC_U+30A4_U+30E4_U+30FC 1
370
     0
100
AcDbVertex
100
AcDb2dVertex
 10
91.7280788616166
 20
-114.1656412475003
 30
0.0
  0
VERTEX
  5
D4
330
D0
100
AcDbEntity
  8
_U+30EC_U+30A4_U+30E4_U+30FC 1
370
     0
100
AcDbVertex
100
AcDb2dVertex
 10
91.7280788616166
 20
-114.4173054726978
 30
0.0
  0
VERTEX
  5
D5
330
D0
100
AcDbEntity
  8
_U+30EC_U+30A4_U+30E4_U+30FC 1
370
     0
100
AcDbVertex
100
AcDb2dVertex
 10
91.47624238164484
 20
-114.4173054726978
 30
0.0
  0
SEQEND
  5
D6
330
D0
100
AcDbEntity
  8
_U+30EC_U+30A4_U+30E4_U+30FC 1
370
     0
  0
HATCH
  5
D7
330
CA
100
AcDbEntity
  8
_U+30EC_U+30A4_U+30E4_U+30FC 1
 62
   179
420
  2234388
100
AcDbHatch
 10
0.0
 20
0.0
 30
0.0
210
0.0
220
0.0
230
1.0
  2
SOLID
 70
     1
 71
     0
 91
        1
 92
        1
 93
        4
 72
     1
 10
91.47624238164484
 20
-114.4173054726978
 11
91.47624238164484
 21
-114.1656412475003
 72
     1
 10
91.47624238164484
 20
-114.1656412475003
 11
91.7280788616166
 21
-114.1656412475003
 72
     1
 10
91.7280788616166
 20
-114.1656412475003
 11
91.7280788616166
 21
-114.4173054726978
 72
     1
 10
91.7280788616166
 20
-114.4173054726978
 11
91.47624238164484
 21
-114.4173054726978
 97
        0
 75
     2
 76
     1
 98
        0
  0
POLYLINE
  5
D8
330
CA
100
AcDbEntity
  8
_U+30EC_U+30A4_U+30E4_U+30FC 1
370
     0
100
AcDb2dPolyline
 66
     1
 10
0.0
 20
0.0
 30
0.0
  0
VERTEX
  5
D9
330
D8
100
AcDbEntity
  8
_U+30EC_U+30A4_U+30E4_U+30FC 1
370
     0
100
AcDbVertex
100
AcDb2dVertex
 10
92.79640297159257
 20
-114.0703843573331
 30
0.0
  0
VERTEX
  5
DA
330
D8
100
AcDbEntity
  8
_U+30EC_U+30A4_U+30E4_U+30FC 1
370
     0
100
AcDbVertex
100
AcDb2dVertex
 10
92.79640297159257
 20
-114.4173054726978
 30
0.0
  0
VERTEX
  5
DB
330
D8
100
AcDbEntity
  8
_U+30EC_U+30A4_U+30E4_U+30FC 1
370
     0
100
AcDbVertex
100
AcDb2dVertex
 10
92.57867293692478
 20
-114.4173054726978
 30
0.0
  0
VERTEX
  5
DC
330
D8
100
AcDbEntity
  8
_U+30EC_U+30A4_U+30E4_U+30FC 1
370
     0
100
AcDbVertex
100
AcDb2dVertex
 10
92.57867293692478
 20
-114.0703843573331
 30
0.0
  0
VERTEX
  5
DD
330
D8
100
AcDbEntity
  8
_U+30EC_U+30A4_U+30E4_U+30FC 1
370
     0
100
AcDbVertex
100
AcDb2dVertex
 10
91.92272675653321
 20
-114.0703843573331
 30
0.0
  0
VERTEX
  5
DE
330
D8
100
AcDbEntity
  8
_U+30EC_U+30A4_U+30E4_U+30FC 1
370
     0
100
AcDbVertex
100
AcDb2dVertex
 10
91.92272675653321
 20
-113.8461086412433
 30
0.0
  0
VERTEX
  5
DF
330
D8
100
AcDbEntity
  8
_U+30EC_U+30A4_U+30E4_U+30FC 1
370
     0
100
AcDbVertex
100
AcDb2dVertex
 10
92.60175507667596
 20
-112.8730414214345
 30
0.0
  0
VERTEX
  5
E0
330
D8
100
AcDbEntity
  8
_U+30EC_U+30A4_U+30E4_U+30FC 1
370
     0
100
AcDbVertex
100
AcDb2dVertex
 10
92.79640297159257
 20
-112.8730414214345
 30
0.0
  0
VERTEX
  5
E1
330
D8
100
AcDbEntity
  8
_U+30EC_U+30A4_U+30E4_U+30FC 1
370
     0
100
AcDbVertex
100
AcDb2dVertex
 10
92.79640297159257
 20
-113.8714300930599
 30
0.0
  0
VERTEX
  5
E2
330
D8
100
AcDbEntity
  8
_U+30EC_U+30A4_U+30E4_U+30FC 1
370
     0
100
AcDbVertex
100
AcDb2dVertex
 10
93.00379771980461
 20
-113.8714300930599
 30
0.0
  0
VERTEX
  5
E3
330
D8
100
AcDbEntity
  8
_U+30EC_U+30A4_U+30E4_U+30FC 1
370
     0
100
AcDbVertex
100
AcDb2dVertex
 10
93.00379771980461
 20
-114.0703843573331
 30
0.0
  0
VERTEX
  5
E4
330
D8
100
AcDbEntity
  8
_U+30EC_U+30A4_U+30E4_U+30FC 1
370
     0
100
AcDbVertex
100
AcDb2dVertex
 10
92.79640297159257
 20
-114.0703843573331
 30
0.0
  0
SEQEND
  5
E5
330
D8
100
AcDbEntity
  8
_U+30EC_U+30A4_U+30E4_U+30FC 1
370
     0
  0
POLYLINE
  5
E6
330
CA
100
AcDbEntity
  8
_U+30EC_U+30A4_U+30E4_U+30FC 1
370
     0
100
AcDb2dPolyline
 66
     1
 10
0.0
 20
0.0
 30
0.0
  0
VERTEX
  5
E7
330
E6
100
AcDbEntity
  8
_U+30EC_U+30A4_U+30E4_U+30FC 1
370
     0
100
AcDbVertex
100
AcDb2dVertex
 10
92.57867293692478
 20
-113.2156561674426
 30
0.0
  0
VERTEX
  5
E8
330
E6
100
AcDbEntity
  8
_U+30EC_U+30A4_U+30E4_U+30FC 1
370
     0
100
AcDbVertex
100
AcDb2dVertex
 10
92.12150876603212
 20
-113.8714300930599
 30
0.0
  0
VERTEX
  5
E9
330
E6
100
AcDbEntity
  8
_U+30EC_U+30A4_U+30E4_U+30FC 1
370
     0
100
AcDbVertex
100
AcDb2dVertex
 10
92.57867293692478
 20
-113.8714300930599
 30
0.0
  0
VERTEX
  5
EA
330
E6
100
AcDbEntity
  8
_U+30EC_U+30A4_U+30E4_U+30FC 1
370
     0
100
AcDbVertex
100
AcDb2dVertex
 10
92.57867293692478
 20
-113.2156561674426
 30
0.0
  0
SEQEND
  5
EB
330
E6
100
AcDbEntity
  8
_U+30EC_U+30A4_U+30E4_U+30FC 1
370
     0
  0
HATCH
  5
EC
330
CA
100
AcDbEntity
  8
_U+30EC_U+30A4_U+30E4_U+30FC 1
 62
   179
420
  2234388
100
AcDbHatch
 10
0.0
 20
0.0
 30
0.0
210
0.0
220
0.0
230
1.0
  2
SOLID
 70
     1
 71
     0
 91
        2
 92
        1
 93
       11
 72
     1
 10
92.79640297159257
 20
-114.0703843573331
 11
92.79640297159257
 21
-114.4173054726978
 72
     1
 10
92.79640297159257
 20
-114.4173054726978
 11
92.57867293692478
 21
-114.4173054726978
 72
     1
 10
92.57867293692478
 20
-114.4173054726978
 11
92.57867293692478
 21
-114.0703843573331
 72
     1
 10
92.57867293692478
 20
-114.0703843573331
 11
91.92272675653321
 21
-114.0703843573331
 72
     1
 10
91.92272675653321
 20
-114.0703843573331
 11
91.92272675653321
 21
-113.8461086412433
 72
     1
 10
91.92272675653321
 20
-113.8461086412433
 11
92.60175507667596
 21
-112.8730414214345
 72
     1
 10
92.60175507667596
 20
-112.8730414214345
 11
92.79640297159257
 21
-112.8730414214345
 72
     1
 10
92.79640297159257
 20
-112.8730414214345
 11
92.79640297159257
 21
-113.8714300930599
 72
     1
 10
92.79640297159257
 20
-113.8714300930599
 11
93.00379771980461
 21
-113.8714300930599
 72
     1
 10
93.00379771980461
 20
-113.8714300930599
 11
93.00379771980461
 21
-114.0703843573331
 72
     1
 10
93.00379771980461
 20
-114.0703843573331
 11
92.79640297159257
 21
-114.0703843573331
 97
        0
 92
        1
 93
        3
 72
     1
 10
92.57867293692478
 20
-113.2156561674426
 11
92.12150876603212
 21
-113.8714300930599
 72
     1
 10
92.12150876603212
 20
-113.8714300930599
 11
92.57867293692478
 21
-113.8714300930599
 72
     1
 10
92.57867293692478
 20
-113.8714300930599
 11
92.57867293692478
 21
-113.2156561674426
 97
        0
 75
     2
 76
     1
 98
        0
  0
ENDBLK
  5
CD
330
CA
100
AcDbEntity
  8
0
100
AcDbBlockEnd
  0
BLOCK
  5
EF
330
ED
100
AcDbEntity
  8
0
100
AcDbBlockBegin
  2
block 4
 70
     0
 10
0.0
 20
0.0
 30
0.0
  3
block 4
  1

  0
SPLINE
  5
F1
330
ED
100
AcDbEntity
  8
_U+30EC_U+30A4_U+30E4_U+30FC 1
 62
   179
420
  2234388
370
     9
100
AcDbSpline
210
0.0
220
0.0
230
1.0
 70
    11
 71
     3
 72
    17
 73
    13
 74
     0
 42
0.0000000001
 43
0.0000000001
 12
1.0
 22
0.0
 32
0.0
 13
1.0
 23
0.0
 33
0.0
 40
0.0
 40
0.0
 40
0.0
 40
0.0
 40
1.0
 40
1.0
 40
1.0
 40
2.0
 40
2.0
 40
2.0
 40
3.0
 40
3.0
 40
3.0
 40
4.0
 40
4.0
 40
4.0
 40
4.0
 10
92.00299570836358
 20
-115.4522074711369
 30
0.0
 10
92.00299570836358
 20
-115.4618735822456
 30
0.0
 10
91.99505820856609
 20
-115.4697758044658
 30
0.0
 10
91.98542737547847
 20
-115.4697758044658
 30
0.0
 10
91.97579654239082
 20
-115.4697758044658
 30
0.0
 10
91.96750626482455
 20
-115.4618735822456
 30
0.0
 10
91.96750626482455
 20
-115.4522074711369
 30
0.0
 10
91.96750626482455
 20
-115.4425766378061
 30
0.0
 10
91.97579654239082
 20
-115.434639137808
 30
0.0
 10
91.98542737547847
 20
-115.434639137808
 30
0.0
 10
91.99505820856609
 20
-115.434639137808
 30
0.0
 10
92.00299570836358
 20
-115.4425766378061
 30
0.0
 10
92.00299570836358
 20
-115.4522074711369
 30
0.0
  0
ENDBLK
  5
F0
330
ED
100
AcDbEntity
  8
0
100
AcDbBlockEnd
  0
BLOCK
  5
100
330
FE
100
AcDbEntity
  8
0
100
AcDbBlockBegin
  2
block 5
 70
     0
 10
0.0
 20
0.0
 30
0.0
  3
block 5
  1

  0
SPLINE
  5
102
330
FE
100
AcDbEntity
  8
_U+30EC_U+30A4_U+30E4_U+30FC 1
370
     0
100
AcDbSpline
210
0.0
220
0.0
230
1.0
 70
    11
 71
     3
 72
    53
 73
    49
 74
     0
 42
0.0000000001
 43
0.0000000001
 12
1.0
 22
0.0
 32
0.0
 13
1.0
 23
0.0
 33
0.0
 40
0.0
 40
0.0
 40
0.0
 40
0.0
 40
1.0
 40
1.0
 40
1.0
 40
2.0
 40
2.0
 40
2.0
 40
3.0
 40
3.0
 40
3.0
 40
4.0
 40
4.0
 40
4.0
 40
5.0
 40
5.0
 40
5.0
 40
6.0
 40
6.0
 40
6.0
 40
7.0
 40
7.0
 40
7.0
 40
8.0
 40
8.0
 40
8.0
 40
9.0
 40
9.0
 40
9.0
 40
10.0
 40
10.0
 40
10.0
 40
11.0
 40
11.0
 40
11.0
 40
12.0
 40
12.0
 40
12.0
 40
13.0
 40
13.0
 40
13.0
 40
14.0
 40
14.0
 40
14.0
 40
15.0
 40
15.0
 40
15.0
 40
16.0
 40
16.0
 40
16.0
 40
16.0
 10
97.36425507548533
 20
-134.7442301095431
 30
0.0
 10
97.28605140797016
 20
-134.7442301095431
 30
0.0
 10
97.18442109115529
 20
-134.7273491416654
 30
0.0
 10
97.08279077434042
 20
-134.6639593847368
 30
0.0
 10
96.90950247143235
 20
-134.5537163292088
 30
0.0
 10
96.8881428794238
 20
-134.4228027007693
 30
0.0
 10
96.86919485425493
 20
-134.3146267025325
 30
0.0
 10
96.86919485425493
 20
-134.3146267025325
 30
0.0
 10
97.09140351305355
 20
-134.3146267025325
 30
0.0
 10
97.09140351305355
 20
-134.3146267025325
 30
0.0
 10
97.14618053126901
 20
-134.5137532215799
 30
0.0
 10
97.27330455467474
 20
-134.5433810427531
 30
0.0
 10
97.36632213277647
 20
-134.5433810427531
 30
0.0
 10
97.5058484999291
 20
-134.5433810427531
 30
0.0
 10
97.65812172037714
 20
-134.4438177832293
 30
0.0
 10
97.65812172037714
 20
-134.211273837975
 30
0.0
 10
97.65812172037714
 20
-133.9549587338724
 30
0.0
 10
97.4782877360471
 20
-133.8853678050703
 30
0.0
 10
97.35770939406335
 20
-133.8853678050703
 30
0.0
 10
97.32601451559906
 20
-133.8853678050703
 30
0.0
 10
97.18442109115529
 20
-133.8853678050703
 30
0.0
 10
97.09553762763585
 20
-134.0142143762187
 30
0.0
 10
97.09553762763585
 20
-134.0142143762187
 30
0.0
 10
96.9198377578881
 20
-133.9952663510498
 30
0.0
 10
96.9198377578881
 20
-133.9952663510498
 30
0.0
 10
96.9198377578881
 20
-133.9952663510498
 30
0.0
 10
97.04041609987185
 20
-133.1491508998724
 30
0.0
 10
97.04041609987185
 20
-133.1491508998724
 30
0.0
 10
97.04041609987185
 20
-133.1491508998724
 30
0.0
 10
97.8190076795383
 20
-133.1491508998724
 30
0.0
 10
97.8190076795383
 20
-133.1491508998724
 30
0.0
 10
97.8190076795383
 20
-133.1491508998724
 30
0.0
 10
97.8190076795383
 20
-133.3437987947891
 30
0.0
 10
97.8190076795383
 20
-133.3437987947891
 30
0.0
 10
97.8190076795383
 20
-133.3437987947891
 30
0.0
 10
97.20336911632417
 20
-133.3437987947891
 30
0.0
 10
97.20336911632417
 20
-133.3437987947891
 30
0.0
 10
97.20336911632417
 20
-133.3437987947891
 30
0.0
 10
97.13791230210441
 20
-133.7668565203777
 30
0.0
 10
97.13791230210441
 20
-133.7668565203777
 30
0.0
 10
97.19923500174187
 20
-133.7330945846223
 30
0.0
 10
97.28157278383934
 20
-133.6927869674449
 30
0.0
 10
97.40008406853192
 20
-133.6927869674449
 30
0.0
 10
97.65398760579484
 20
-133.6927869674449
 30
0.0
 10
97.89101017518003
 20
-133.8791666331969
 30
0.0
 10
97.89101017518003
 20
-134.1919813032576
 30
0.0
 10
97.89101017518003
 20
-134.5096191069976
 30
0.0
 10
97.66673445909026
 20
-134.7442301095431
 30
0.0
 10
97.36425507548533
 20
-134.7442301095431
 30
0.0
  0
HATCH
  5
103
330
FE
100
AcDbEntity
  8
_U+30EC_U+30A4_U+30E4_U+30FC 1
 62
   179
420
  2234388
100
AcDbHatch
 10
0.0
 20
0.0
 30
0.0
210
0.0
220
0.0
230
1.0
  2
SOLID
 70
     1
 71
     0
 91
        1
 92
        1
 93
        1
 72
     4
 94
        3
 73
     0
 74
     1
 95
       53
 96
       49
 40
0.0
 40
0.0
 40
0.0
 40
0.0
 40
1.0
 40
1.0
 40
1.0
 40
2.0
 40
2.0
 40
2.0
 40
3.0
 40
3.0
 40
3.0
 40
4.0
 40
4.0
 40
4.0
 40
5.0
 40
5.0
 40
5.0
 40
6.0
 40
6.0
 40
6.0
 40
7.0
 40
7.0
 40
7.0
 40
8.0
 40
8.0
 40
8.0
 40
9.0
 40
9.0
 40
9.0
 40
10.0
 40
10.0
 40
10.0
 40
11.0
 40
11.0
 40
11.0
 40
12.0
 40
12.0
 40
12.0
 40
13.0
 40
13.0
 40
13.0
 40
14.0
 40
14.0
 40
14.0
 40
15.0
 40
15.0
 40
15.0
 40
16.0
 40
16.0
 40
16.0
 40
16.0
 10
97.36425507548533
 20
-134.7442301095431
 10
97.28605140797016
 20
-134.7442301095431
 10
97.18442109115529
 20
-134.7273491416654
 10
97.08279077434042
 20
-134.6639593847368
 10
96.90950247143235
 20
-134.5537163292088
 10
96.8881428794238
 20
-134.4228027007693
 10
96.86919485425493
 20
-134.3146267025325
 10
96.86919485425493
 20
-134.3146267025325
 10
97.09140351305355
 20
-134.3146267025325
 10
97.09140351305355
 20
-134.3146267025325
 10
97.14618053126901
 20
-134.5137532215799
 10
97.27330455467474
 20
-134.5433810427531
 10
97.36632213277647
 20
-134.5433810427531
 10
97.5058484999291
 20
-134.5433810427531
 10
97.65812172037714
 20
-134.4438177832293
 10
97.65812172037714
 20
-134.211273837975
 10
97.65812172037714
 20
-133.9549587338724
 10
97.4782877360471
 20
-133.8853678050703
 10
97.35770939406335
 20
-133.8853678050703
 10
97.32601451559906
 20
-133.8853678050703
 10
97.18442109115529
 20
-133.8853678050703
 10
97.09553762763585
 20
-134.0142143762187
 10
97.09553762763585
 20
-134.0142143762187
 10
96.9198377578881
 20
-133.9952663510498
 10
96.9198377578881
 20
-133.9952663510498
 10
96.9198377578881
 20
-133.9952663510498
 10
97.04041609987185
 20
-133.1491508998724
 10
97.04041609987185
 20
-133.1491508998724
 10
97.04041609987185
 20
-133.1491508998724
 10
97.8190076795383
 20
-133.1491508998724
 10
97.8190076795383
 20
-133.1491508998724
 10
97.8190076795383
 20
-133.1491508998724
 10
97.8190076795383
 20
-133.3437987947891
 10
97.8190076795383
 20
-133.3437987947891
 10
97.8190076795383
 20
-133.3437987947891
 10
97.20336911632417
 20
-133.3437987947891
 10
97.20336911632417
 20
-133.3437987947891
 10
97.20336911632417
 20
-133.3437987947891
 10
97.13791230210441
 20
-133.7668565203777
 10
97.13791230210441
 20
-133.7668565203777
 10
97.19923500174187
 20
-133.7330945846223
 10
97.28157278383934
 20
-133.6927869674449
 10
97.40008406853192
 20
-133.6927869674449
 10
97.65398760579484
 20
-133.6927869674449
 10
97.89101017518003
 20
-133.8791666331969
 10
97.89101017518003
 20
-134.1919813032576
 10
97.89101017518003
 20
-134.5096191069976
 10
97.66673445909026
 20
-134.7442301095431
 10
97.36425507548533
 20
-134.7442301095431
 97
        0
 97
        0
 75
     2
 76
     1
 98
        0
  0
ENDBLK
  5
101
330
FE
100
AcDbEntity
  8
0
100
AcDbBlockEnd
  0
BLOCK
  5
106
330
104
100
AcDbEntity
  8
0
100
AcDbBlockBegin
  2
block 6
 70
     0
 10
0.0
 20
0.0
 30
0.0
  3
block 6
  1

  0
SPLINE
  5
108
330
104
100
AcDbEntity
  8
_U+30EC_U+30A4_U+30E4_U+30FC 1
 62
   179
420
  2234388
370
    25
100
AcDbSpline
210
0.0
220
0.0
230
1.0
 70
    11
 71
     3
 72
    17
 73
    13
 74
     0
 42
0.0000000001
 43
0.0000000001
 12
1.0
 22
0.0
 32
0.0
 13
1.0
 23
0.0
 33
0.0
 40
0.0
 40
0.0
 40
0.0
 40
0.0
 40
1.0
 40
1.0
 40
1.0
 40
2.0
 40
2.0
 40
2.0
 40
3.0
 40
3.0
 40
3.0
 40
4.0
 40
4.0
 40
4.0
 40
4.0
 10
96.15296754693343
 20
-137.4524174656368
 30
0.0
 10
96.15296754693343
 20
-137.4620835767458
 30
0.0
 10
96.14503004713593
 20
-137.4696330211882
 30
0.0
 10
96.1353992140483
 20
-137.4696330211882
 30
0.0
 10
96.12573310318379
 20
-137.4696330211882
 30
0.0
 10
96.11748053152645
 20
-137.4620835767458
 30
0.0
 10
96.11748053152645
 20
-137.4524174656368
 30
0.0
 10
96.11748053152645
 20
-137.4420810767504
 30
0.0
 10
96.12573310318379
 20
-137.4344963545305
 30
0.0
 10
96.1353992140483
 20
-137.4344963545305
 30
0.0
 10
96.14503004713593
 20
-137.4344963545305
 30
0.0
 10
96.15296754693343
 20
-137.4420810767504
 30
0.0
 10
96.15296754693343
 20
-137.4524174656368
 30
0.0
  0
ENDBLK
  5
107
330
104
100
AcDbEntity
  8
0
100
AcDbBlockEnd
  0
BLOCK
  5
10B
330
109
100
AcDbEntity
  8
0
100
AcDbBlockBegin
  2
block 7
 70
     0
 10
0.0
 20
0.0
 30
0.0
  3
block 7
  1

  0
SPLINE
  5
10D
330
109
100
AcDbEntity
  8
_U+30EC_U+30A4_U+30E4_U+30FC 1
 62
   179
420
  2234388
370
    25
100
AcDbSpline
210
0.0
220
0.0
230
1.0
 70
    11
 71
     3
 72
    17
 73
    13
 74
     0
 42
0.0000000001
 43
0.0000000001
 12
1.0
 22
0.0
 32
0.0
 13
1.0
 23
0.0
 33
0.0
 40
0.0
 40
0.0
 40
0.0
 40
0.0
 40
1.0
 40
1.0
 40
1.0
 40
2.0
 40
2.0
 40
2.0
 40
3.0
 40
3.0
 40
3.0
 40
4.0
 40
4.0
 40
4.0
 40
4.0
 10
98.65306831648388
 20
-137.4524174656368
 30
0.0
 10
98.65306831648388
 20
-137.4620835767458
 30
0.0
 10
98.64513330867199
 20
-137.4696330211882
 30
0.0
 10
98.63514720582998
 20
-137.4696330211882
 30
0.0
 10
98.62551637274234
 20
-137.4696330211882
 30
0.0
 10
98.61793165071363
 20
-137.4620835767458
 30
0.0
 10
98.61793165071363
 20
-137.4524174656368
 30
0.0
 10
98.61793165071363
 20
-137.4420810767504
 30
0.0
 10
98.62551637274234
 20
-137.4344963545305
 30
0.0
 10
98.63514720582998
 20
-137.4344963545305
 30
0.0
 10
98.64513330867199
 20
-137.4344963545305
 30
0.0
 10
98.65306831648388
 20
-137.4420810767504
 30
0.0
 10
98.65306831648388
 20
-137.4524174656368
 30
0.0
  0
ENDBLK
  5
10C
330
109
100
AcDbEntity
  8
0
100
AcDbBlockEnd
  0
BLOCK
  5
110
330
10E
100
AcDbEntity
  8
0
100
AcDbBlockBegin
  2
block 8
 70
     0
 10
0.0
 20
0.0
 30
0.0
  3
block 8
  1

  0
SPLINE
  5
112
330
10E
100
AcDbEntity
  8
_U+30EC_U+30A4_U+30E4_U+30FC 1
 62
   179
420
  2234388
370
     9
100
AcDbSpline
210
0.0
220
0.0
230
1.0
 70
    11
 71
     3
 72
    17
 73
    13
 74
     0
 42
0.0000000001
 43
0.0000000001
 12
1.0
 22
0.0
 32
0.0
 13
1.0
 23
0.0
 33
0.0
 40
0.0
 40
0.0
 40
0.0
 40
0.0
 40
1.0
 40
1.0
 40
1.0
 40
2.0
 40
2.0
 40
2.0
 40
3.0
 40
3.0
 40
3.0
 40
4.0
 40
4.0
 40
4.0
 40
4.0
 10
98.65306831648388
 20
-135.452202743915
 30
0.0
 10
98.65306831648388
 20
-135.4618335772458
 30
0.0
 10
98.64513330867199
 20
-135.4701238550213
 30
0.0
 10
98.63514720582998
 20
-135.4701238550213
 30
0.0
 10
98.62551637274234
 20
-135.4701238550213
 30
0.0
 10
98.61793165071363
 20
-135.4618335772458
 30
0.0
 10
98.61793165071363
 20
-135.452202743915
 30
0.0
 10
98.61793165071363
 20
-135.442536632806
 30
0.0
 10
98.62551637274234
 20
-135.4342816328081
 30
0.0
 10
98.63514720582998
 20
-135.4342816328081
 30
0.0
 10
98.64513330867199
 20
-135.4342816328081
 30
0.0
 10
98.65306831648388
 20
-135.442536632806
 30
0.0
 10
98.65306831648388
 20
-135.452202743915
 30
0.0
  0
ENDBLK
  5
111
330
10E
100
AcDbEntity
  8
0
100
AcDbBlockEnd
  0
BLOCK
  5
121
330
11F
100
AcDbEntity
  8
0
100
AcDbBlockBegin
  2
block 9
 70
     0
 10
0.0
 20
0.0
 30
0.0
  3
block 9
  1

  0
SPLINE
  5
123
330
11F
100
AcDbEntity
  8
_U+30EC_U+30A4_U+30E4_U+30FC 1
370
     0
100
AcDbSpline
210
0.0
220
0.0
230
1.0
 70
    11
 71
     3
 72
    53
 73
    49
 74
     0
 42
0.0000000001
 43
0.0000000001
 12
1.0
 22
0.0
 32
0.0
 13
1.0
 23
0.0
 33
0.0
 40
0.0
 40
0.0
 40
0.0
 40
0.0
 40
1.0
 40
1.0
 40
1.0
 40
2.0
 40
2.0
 40
2.0
 40
3.0
 40
3.0
 40
3.0
 40
4.0
 40
4.0
 40
4.0
 40
5.0
 40
5.0
 40
5.0
 40
6.0
 40
6.0
 40
6.0
 40
7.0
 40
7.0
 40
7.0
 40
8.0
 40
8.0
 40
8.0
 40
9.0
 40
9.0
 40
9.0
 40
10.0
 40
10.0
 40
10.0
 40
11.0
 40
11.0
 40
11.0
 40
12.0
 40
12.0
 40
12.0
 40
13.0
 40
13.0
 40
13.0
 40
14.0
 40
14.0
 40
14.0
 40
15.0
 40
15.0
 40
15.0
 40
16.0
 40
16.0
 40
16.0
 40
16.0
 10
104.6582112368563
 20
-138.721592847264
 30
0.0
 10
104.6582112368563
 20
-138.8001410243278
 30
0.0
 10
104.6413302689786
 20
-138.9014268315941
 30
0.0
 10
104.57794051205
 20
-139.0034016579575
 30
0.0
 10
104.4680419660705
 20
-139.1766899608656
 30
0.0
 10
104.3367838280825
 20
-139.1977050433256
 30
0.0
 10
104.2289523393942
 20
-139.216997578043
 30
0.0
 10
104.2289523393942
 20
-139.216997578043
 30
0.0
 10
104.2289523393942
 20
-138.9947889192444
 30
0.0
 10
104.2289523393942
 20
-138.9947889192444
 30
0.0
 10
104.4277343488931
 20
-138.9396673914804
 30
0.0
 10
104.4573621700662
 20
-138.8125433680746
 30
0.0
 10
104.4573621700662
 20
-138.7195257899729
 30
0.0
 10
104.4573621700662
 20
-138.5799994228203
 30
0.0
 10
104.3577989105425
 20
-138.4277262023722
 30
0.0
 10
104.1252549652881
 20
-138.4277262023722
 30
0.0
 10
103.8692843707341
 20
-138.4277262023722
 30
0.0
 10
103.7993489323835
 20
-138.6075601867023
 30
0.0
 10
103.7993489323835
 20
-138.728138528686
 30
0.0
 10
103.7993489323835
 20
-138.7598334071503
 30
0.0
 10
103.7993489323835
 20
-138.9014268315941
 30
0.0
 10
103.9285400130804
 20
-138.9903102951135
 30
0.0
 10
103.9285400130804
 20
-138.9903102951135
 30
0.0
 10
103.9095919879115
 20
-139.1660101648613
 30
0.0
 10
103.9095919879115
 20
-139.1660101648613
 30
0.0
 10
103.9095919879115
 20
-139.1660101648613
 30
0.0
 10
103.0631320271856
 20
-139.0454318228775
 30
0.0
 10
103.0631320271856
 20
-139.0454318228775
 30
0.0
 10
103.0631320271856
 20
-139.0454318228775
 30
0.0
 10
103.0631320271856
 20
-138.2668402432111
 30
0.0
 10
103.0631320271856
 20
-138.2668402432111
 30
0.0
 10
103.0631320271856
 20
-138.2668402432111
 30
0.0
 10
103.2577799221022
 20
-138.2668402432111
 30
0.0
 10
103.2577799221022
 20
-138.2668402432111
 30
0.0
 10
103.2577799221022
 20
-138.2668402432111
 30
0.0
 10
103.2577799221022
 20
-138.8828233159738
 30
0.0
 10
103.2577799221022
 20
-138.8828233159738
 30
0.0
 10
103.2577799221022
 20
-138.8828233159738
 30
0.0
 10
103.6808376476909
 20
-138.9482801301935
 30
0.0
 10
103.6808376476909
 20
-138.9482801301935
 30
0.0
 10
103.6470757119355
 20
-138.886957430556
 30
0.0
 10
103.606768094758
 20
-138.80427513891
 30
0.0
 10
103.606768094758
 20
-138.6857638542174
 30
0.0
 10
103.606768094758
 20
-138.4322048265031
 30
0.0
 10
103.7931477605101
 20
-138.1951822571179
 30
0.0
 10
104.1063069401193
 20
-138.1951822571179
 30
0.0
 10
104.4236002343108
 20
-138.1951822571179
 30
0.0
 10
104.6582112368563
 20
-138.4191134636591
 30
0.0
 10
104.6582112368563
 20
-138.721592847264
 30
0.0
  0
HATCH
  5
124
330
11F
100
AcDbEntity
  8
_U+30EC_U+30A4_U+30E4_U+30FC 1
 62
   179
420
  2234388
100
AcDbHatch
 10
0.0
 20
0.0
 30
0.0
210
0.0
220
0.0
230
1.0
  2
SOLID
 70
     1
 71
     0
 91
        1
 92
        1
 93
        1
 72
     4
 94
        3
 73
     0
 74
     1
 95
       53
 96
       49
 40
0.0
 40
0.0
 40
0.0
 40
0.0
 40
1.0
 40
1.0
 40
1.0
 40
2.0
 40
2.0
 40
2.0
 40
3.0
 40
3.0
 40
3.0
 40
4.0
 40
4.0
 40
4.0
 40
5.0
 40
5.0
 40
5.0
 40
6.0
 40
6.0
 40
6.0
 40
7.0
 40
7.0
 40
7.0
 40
8.0
 40
8.0
 40
8.0
 40
9.0
 40
9.0
 40
9.0
 40
10.0
 40
10.0
 40
10.0
 40
11.0
 40
11.0
 40
11.0
 40
12.0
 40
12.0
 40
12.0
 40
13.0
 40
13.0
 40
13.0
 40
14.0
 40
14.0
 40
14.0
 40
15.0
 40
15.0
 40
15.0
 40
16.0
 40
16.0
 40
16.0
 40
16.0
 10
104.6582112368563
 20
-138.721592847264
 10
104.6582112368563
 20
-138.8001410243278
 10
104.6413302689786
 20
-138.9014268315941
 10
104.57794051205
 20
-139.0034016579575
 10
104.4680419660705
 20
-139.1766899608656
 10
104.3367838280825
 20
-139.1977050433256
 10
104.2289523393942
 20
-139.216997578043
 10
104.2289523393942
 20
-139.216997578043
 10
104.2289523393942
 20
-138.9947889192444
 10
104.2289523393942
 20
-138.9947889192444
 10
104.4277343488931
 20
-138.9396673914804
 10
104.4573621700662
 20
-138.8125433680746
 10
104.4573621700662
 20
-138.7195257899729
 10
104.4573621700662
 20
-138.5799994228203
 10
104.3577989105425
 20
-138.4277262023722
 10
104.1252549652881
 20
-138.4277262023722
 10
103.8692843707341
 20
-138.4277262023722
 10
103.7993489323835
 20
-138.6075601867023
 10
103.7993489323835
 20
-138.728138528686
 10
103.7993489323835
 20
-138.7598334071503
 10
103.7993489323835
 20
-138.9014268315941
 10
103.9285400130804
 20
-138.9903102951135
 10
103.9285400130804
 20
-138.9903102951135
 10
103.9095919879115
 20
-139.1660101648613
 10
103.9095919879115
 20
-139.1660101648613
 10
103.9095919879115
 20
-139.1660101648613
 10
103.0631320271856
 20
-139.0454318228775
 10
103.0631320271856
 20
-139.0454318228775
 10
103.0631320271856
 20
-139.0454318228775
 10
103.0631320271856
 20
-138.2668402432111
 10
103.0631320271856
 20
-138.2668402432111
 10
103.0631320271856
 20
-138.2668402432111
 10
103.2577799221022
 20
-138.2668402432111
 10
103.2577799221022
 20
-138.2668402432111
 10
103.2577799221022
 20
-138.2668402432111
 10
103.2577799221022
 20
-138.8828233159738
 10
103.2577799221022
 20
-138.8828233159738
 10
103.2577799221022
 20
-138.8828233159738
 10
103.6808376476909
 20
-138.9482801301935
 10
103.6808376476909
 20
-138.9482801301935
 10
103.6470757119355
 20
-138.886957430556
 10
103.606768094758
 20
-138.80427513891
 10
103.606768094758
 20
-138.6857638542174
 10
103.606768094758
 20
-138.4322048265031
 10
103.7931477605101
 20
-138.1951822571179
 10
104.1063069401193
 20
-138.1951822571179
 10
104.4236002343108
 20
-138.1951822571179
 10
104.6582112368563
 20
-138.4191134636591
 10
104.6582112368563
 20
-138.721592847264
 97
        0
 97
        0
 75
     2
 76
     1
 98
        0
  0
ENDBLK
  5
122
330
11F
100
AcDbEntity
  8
0
100
AcDbBlockEnd
  0
BLOCK
  5
127
330
125
100
AcDbEntity
  8
0
100
AcDbBlockBegin
  2
block 10
 70
     0
 10
0.0
 20
0.0
 30
0.0
  3
block 10
  1

  0
SPLINE
  5
129
330
125
100
AcDbEntity
  8
_U+30EC_U+30A4_U+30E4_U+30FC 1
 62
   179
420
  2234388
370
    25
100
AcDbSpline
210
0.0
220
0.0
230
1.0
 70
    11
 71
     3
 72
    17
 73
    13
 74
     0
 42
0.0000000001
 43
0.0000000001
 12
1.0
 22
0.0
 32
0.0
 13
1.0
 23
0.0
 33
0.0
 40
0.0
 40
0.0
 40
0.0
 40
0.0
 40
1.0
 40
1.0
 40
1.0
 40
2.0
 40
2.0
 40
2.0
 40
3.0
 40
3.0
 40
3.0
 40
4.0
 40
4.0
 40
4.0
 40
4.0
 10
100.403163549613
 20
-137.4524174656368
 30
0.0
 10
100.403163549613
 20
-137.4620835767458
 30
0.0
 10
100.3949110860127
 20
-137.4696330211882
 30
0.0
 10
100.3852424389591
 20
-137.4696330211882
 30
0.0
 10
100.3756116058715
 20
-137.4696330211882
 30
0.0
 10
100.367674106074
 20
-137.4620835767458
 30
0.0
 10
100.367674106074
 20
-137.4524174656368
 30
0.0
 10
100.367674106074
 20
-137.4420810767504
 30
0.0
 10
100.3756116058715
 20
-137.4344963545305
 30
0.0
 10
100.3852424389591
 20
-137.4344963545305
 30
0.0
 10
100.3949110860127
 20
-137.4344963545305
 30
0.0
 10
100.403163549613
 20
-137.4420810767504
 30
0.0
 10
100.403163549613
 20
-137.4524174656368
 30
0.0
  0
ENDBLK
  5
128
330
125
100
AcDbEntity
  8
0
100
AcDbBlockEnd
  0
BLOCK
  5
12C
330
12A
100
AcDbEntity
  8
0
100
AcDbBlockBegin
  2
block 11
 70
     0
 10
0.0
 20
0.0
 30
0.0
  3
block 11
  1

  0
SPLINE
  5
12E
330
12A
100
AcDbEntity
  8
_U+30EC_U+30A4_U+30E4_U+30FC 1
 62
   179
420
  2234388
370
    25
100
AcDbSpline
210
0.0
220
0.0
230
1.0
 70
    11
 71
     3
 72
    17
 73
    13
 74
     0
 42
0.0000000001
 43
0.0000000001
 12
1.0
 22
0.0
 32
0.0
 13
1.0
 23
0.0
 33
0.0
 40
0.0
 40
0.0
 40
0.0
 40
0.0
 40
1.0
 40
1.0
 40
1.0
 40
2.0
 40
2.0
 40
2.0
 40
3.0
 40
3.0
 40
3.0
 40
4.0
 40
4.0
 40
4.0
 40
4.0
 10
100.403163549613
 20
-139.9521655205674
 30
0.0
 10
100.403163549613
 20
-139.9618316316764
 30
0.0
 10
100.3949110860127
 20
-139.9700866316744
 30
0.0
 10
100.3852424389591
 20
-139.9700866316744
 30
0.0
 10
100.3756116058715
 20
-139.9700866316744
 30
0.0
 10
100.367674106074
 20
-139.9618316316764
 30
0.0
 10
100.367674106074
 20
-139.9521655205674
 30
0.0
 10
100.367674106074
 20
-139.9425346872366
 30
0.0
 10
100.3756116058715
 20
-139.9342796872386
 30
0.0
 10
100.3852424389591
 20
-139.9342796872386
 30
0.0
 10
100.3949110860127
 20
-139.9342796872386
 30
0.0
 10
100.403163549613
 20
-139.9425346872366
 30
0.0
 10
100.403163549613
 20
-139.9521655205674
 30
0.0
  0
ENDBLK
  5
12D
330
12A
100
AcDbEntity
  8
0
100
AcDbBlockEnd
  0
BLOCK
  5
131
330
12F
100
AcDbEntity
  8
0
100
AcDbBlockBegin
  2
block 12
 70
     0
 10
0.0
 20
0.0
 30
0.0
  3
block 12
  1

  0
SPLINE
  5
133
330
12F
100
AcDbEntity
  8
_U+30EC_U+30A4_U+30E4_U+30FC 1
 62
   179
420
  2234388
370
     9
100
AcDbSpline
210
0.0
220
0.0
230
1.0
 70
    11
 71
     3
 72
    17
 73
    13
 74
     0
 42
0.0000000001
 43
0.0000000001
 12
1.0
 22
0.0
 32
0.0
 13
1.0
 23
0.0
 33
0.0
 40
0.0
 40
0.0
 40
0.0
 40
0.0
 40
1.0
 40
1.0
 40
1.0
 40
2.0
 40
2.0
 40
2.0
 40
3.0
 40
3.0
 40
3.0
 40
4.0
 40
4.0
 40
4.0
 40
4.0
 10
102.4027079430448
 20
-139.9521655205674
 30
0.0
 10
102.4027079430448
 20
-139.9618316316764
 30
0.0
 10
102.3951232210161
 20
-139.9700866316744
 30
0.0
 10
102.3854923879285
 20
-139.9700866316744
 30
0.0
 10
102.375826277064
 20
-139.9700866316744
 30
0.0
 10
102.3675712772746
 20
-139.9618316316764
 30
0.0
 10
102.3675712772746
 20
-139.9521655205674
 30
0.0
 10
102.3675712772746
 20
-139.9425346872366
 30
0.0
 10
102.375826277064
 20
-139.9342796872386
 30
0.0
 10
102.3854923879285
 20
-139.9342796872386
 30
0.0
 10
102.3951232210161
 20
-139.9342796872386
 30
0.0
 10
102.4027079430448
 20
-139.9425346872366
 30
0.0
 10
102.4027079430448
 20
-139.9521655205674
 30
0.0
  0
ENDBLK
  5
132
330
12F
100
AcDbEntity
  8
0
100
AcDbBlockEnd
  0
BLOCK
  5
142
330
140
100
AcDbEntity
  8
0
100
AcDbBlockBegin
  2
block 13
 70
     0
 10
0.0
 20
0.0
 30
0.0
  3
block 13
  1

  0
POLYLINE
  5
144
330
140
100
AcDbEntity
  8
_U+30EC_U+30A4_U+30E4_U+30FC 1
370
     0
100
AcDb2dPolyline
 66
     1
 10
0.0
 20
0.0
 30
0.0
  0
VERTEX
  5
145
330
144
100
AcDbEntity
  8
_U+30EC_U+30A4_U+30E4_U+30FC 1
370
     0
100
AcDbVertex
100
AcDb2dVertex
 10
78.4365559699742
 20
-128.9588812611631
 30
0.0
  0
VERTEX
  5
146
330
144
100
AcDbEntity
  8
_U+30EC_U+30A4_U+30E4_U+30FC 1
370
     0
100
AcDbVertex
100
AcDb2dVertex
 10
78.78347708533886
 20
-128.9588812611631
 30
0.0
  0
VERTEX
  5
147
330
144
100
AcDbEntity
  8
_U+30EC_U+30A4_U+30E4_U+30FC 1
370
     0
100
AcDbVertex
100
AcDb2dVertex
 10
78.78347708533886
 20
-129.1769558053794
 30
0.0
  0
VERTEX
  5
148
330
144
100
AcDbEntity
  8
_U+30EC_U+30A4_U+30E4_U+30FC 1
370
     0
100
AcDbVertex
100
AcDb2dVertex
 10
78.4365559699742
 20
-129.1769558053794
 30
0.0
  0
VERTEX
  5
149
330
144
100
AcDbEntity
  8
_U+30EC_U+30A4_U+30E4_U+30FC 1
370
     0
100
AcDbVertex
100
AcDb2dVertex
 10
78.4365559699742
 20
-129.8325574762224
 30
0.0
  0
VERTEX
  5
14A
330
144
100
AcDbEntity
  8
_U+30EC_U+30A4_U+30E4_U+30FC 1
370
     0
100
AcDbVertex
100
AcDb2dVertex
 10
78.21228025388443
 20
-129.8325574762224
 30
0.0
  0
VERTEX
  5
14B
330
144
100
AcDbEntity
  8
_U+30EC_U+30A4_U+30E4_U+30FC 1
370
     0
100
AcDbVertex
100
AcDb2dVertex
 10
77.23904077930135
 20
-129.1538736656282
 30
0.0
  0
VERTEX
  5
14C
330
144
100
AcDbEntity
  8
_U+30EC_U+30A4_U+30E4_U+30FC 1
370
     0
100
AcDbVertex
100
AcDb2dVertex
 10
77.23904077930135
 20
-128.9588812611631
 30
0.0
  0
VERTEX
  5
14D
330
144
100
AcDbEntity
  8
_U+30EC_U+30A4_U+30E4_U+30FC 1
370
     0
100
AcDbVertex
100
AcDb2dVertex
 10
78.23777396047528
 20
-128.9588812611631
 30
0.0
  0
VERTEX
  5
14E
330
144
100
AcDbEntity
  8
_U+30EC_U+30A4_U+30E4_U+30FC 1
370
     0
100
AcDbVertex
100
AcDb2dVertex
 10
78.23777396047528
 20
-128.7516587677253
 30
0.0
  0
VERTEX
  5
14F
330
144
100
AcDbEntity
  8
_U+30EC_U+30A4_U+30E4_U+30FC 1
370
     0
100
AcDbVertex
100
AcDb2dVertex
 10
78.4365559699742
 20
-128.7516587677253
 30
0.0
  0
VERTEX
  5
150
330
144
100
AcDbEntity
  8
_U+30EC_U+30A4_U+30E4_U+30FC 1
370
     0
100
AcDbVertex
100
AcDb2dVertex
 10
78.4365559699742
 20
-128.9588812611631
 30
0.0
  0
SEQEND
  5
151
330
144
100
AcDbEntity
  8
_U+30EC_U+30A4_U+30E4_U+30FC 1
370
     0
  0
POLYLINE
  5
152
330
140
100
AcDbEntity
  8
_U+30EC_U+30A4_U+30E4_U+30FC 1
370
     0
100
AcDb2dPolyline
 66
     1
 10
0.0
 20
0.0
 30
0.0
  0
VERTEX
  5
153
330
152
100
AcDbEntity
  8
_U+30EC_U+30A4_U+30E4_U+30FC 1
370
     0
100
AcDbVertex
100
AcDb2dVertex
 10
77.58182778008371
 20
-129.1769558053794
 30
0.0
  0
VERTEX
  5
154
330
152
100
AcDbEntity
  8
_U+30EC_U+30A4_U+30E4_U+30FC 1
370
     0
100
AcDbVertex
100
AcDb2dVertex
 10
78.23777396047528
 20
-129.6337754667235
 30
0.0
  0
VERTEX
  5
155
330
152
100
AcDbEntity
  8
_U+30EC_U+30A4_U+30E4_U+30FC 1
370
     0
100
AcDbVertex
100
AcDb2dVertex
 10
78.23777396047528
 20
-129.1769558053794
 30
0.0
  0
VERTEX
  5
156
330
152
100
AcDbEntity
  8
_U+30EC_U+30A4_U+30E4_U+30FC 1
370
     0
100
AcDbVertex
100
AcDb2dVertex
 10
77.58182778008371
 20
-129.1769558053794
 30
0.0
  0
SEQEND
  5
157
330
152
100
AcDbEntity
  8
_U+30EC_U+30A4_U+30E4_U+30FC 1
370
     0
  0
HATCH
  5
158
330
140
100
AcDbEntity
  8
_U+30EC_U+30A4_U+30E4_U+30FC 1
 62
   179
420
  2234388
100
AcDbHatch
 10
0.0
 20
0.0
 30
0.0
210
0.0
220
0.0
230
1.0
  2
SOLID
 70
     1
 71
     0
 91
        2
 92
        1
 93
       11
 72
     1
 10
78.4365559699742
 20
-128.9588812611631
 11
78.78347708533886
 21
-128.9588812611631
 72
     1
 10
78.78347708533886
 20
-128.9588812611631
 11
78.78347708533886
 21
-129.1769558053794
 72
     1
 10
78.78347708533886
 20
-129.1769558053794
 11
78.4365559699742
 21
-129.1769558053794
 72
     1
 10
78.4365559699742
 20
-129.1769558053794
 11
78.4365559699742
 21
-129.8325574762224
 72
     1
 10
78.4365559699742
 20
-129.8325574762224
 11
78.21228025388443
 21
-129.8325574762224
 72
     1
 10
78.21228025388443
 20
-129.8325574762224
 11
77.23904077930135
 21
-129.1538736656282
 72
     1
 10
77.23904077930135
 20
-129.1538736656282
 11
77.23904077930135
 21
-128.9588812611631
 72
     1
 10
77.23904077930135
 20
-128.9588812611631
 11
78.23777396047528
 21
-128.9588812611631
 72
     1
 10
78.23777396047528
 20
-128.9588812611631
 11
78.23777396047528
 21
-128.7516587677253
 72
     1
 10
78.23777396047528
 20
-128.7516587677253
 11
78.4365559699742
 21
-128.7516587677253
 72
     1
 10
78.4365559699742
 20
-128.7516587677253
 11
78.4365559699742
 21
-128.9588812611631
 97
        0
 92
        1
 93
        3
 72
     1
 10
77.58182778008371
 20
-129.1769558053794
 11
78.23777396047528
 21
-129.6337754667235
 72
     1
 10
78.23777396047528
 20
-129.6337754667235
 11
78.23777396047528
 21
-129.1769558053794
 72
     1
 10
78.23777396047528
 20
-129.1769558053794
 11
77.58182778008371
 21
-129.1769558053794
 97
        0
 75
     2
 76
     1
 98
        0
  0
SPLINE
  5
159
330
140
100
AcDbEntity
  8
_U+30EC_U+30A4_U+30E4_U+30FC 1
370
     0
100
AcDbSpline
210
0.0
220
0.0
230
1.0
 70
    11
 71
     3
 72
    53
 73
    49
 74
     0
 42
0.0000000001
 43
0.0000000001
 12
1.0
 22
0.0
 32
0.0
 13
1.0
 23
0.0
 33
0.0
 40
0.0
 40
0.0
 40
0.0
 40
0.0
 40
1.0
 40
1.0
 40
1.0
 40
2.0
 40
2.0
 40
2.0
 40
3.0
 40
3.0
 40
3.0
 40
4.0
 40
4.0
 40
4.0
 40
5.0
 40
5.0
 40
5.0
 40
6.0
 40
6.0
 40
6.0
 40
7.0
 40
7.0
 40
7.0
 40
8.0
 40
8.0
 40
8.0
 40
9.0
 40
9.0
 40
9.0
 40
10.0
 40
10.0
 40
10.0
 40
11.0
 40
11.0
 40
11.0
 40
12.0
 40
12.0
 40
12.0
 40
13.0
 40
13.0
 40
13.0
 40
14.0
 40
14.0
 40
14.0
 40
15.0
 40
15.0
 40
15.0
 40
16.0
 40
16.0
 40
16.0
 40
16.0
 10
78.83411998897203
 20
-128.1332641281229
 30
0.0
 10
78.83411998897203
 20
-128.2116400504124
 30
0.0
 10
78.81723902109431
 20
-128.313098112453
 30
0.0
 10
78.75384926416571
 20
-128.4147284292679
 30
0.0
 10
78.64395071818623
 20
-128.5881889869502
 30
0.0
 10
78.51269258019822
 20
-128.6093763241845
 30
0.0
 10
78.4048610915099
 20
-128.6283243493533
 30
0.0
 10
78.4048610915099
 20
-128.6283243493533
 30
0.0
 10
78.4048610915099
 20
-128.406287945329
 30
0.0
 10
78.4048610915099
 20
-128.406287945329
 30
0.0
 10
78.60364310100881
 20
-128.351166417565
 30
0.0
 10
78.63327092218196
 20
-128.2242146489335
 30
0.0
 10
78.63327092218196
 20
-128.1311970708318
 30
0.0
 10
78.63327092218196
 20
-127.9914984489049
 30
0.0
 10
78.53370766265824
 20
-127.8392252284569
 30
0.0
 10
78.30116371740388
 20
-127.8392252284569
 30
0.0
 10
78.04519312284981
 20
-127.8392252284569
 30
0.0
 10
77.97525768449924
 20
-128.0190592127869
 30
0.0
 10
77.97525768449924
 20
-128.1396375547706
 30
0.0
 10
77.97525768449924
 20
-128.1713324332349
 30
0.0
 10
77.97525768449924
 20
-128.313098112453
 30
0.0
 10
78.10444876519611
 20
-128.4019815759724
 30
0.0
 10
78.10444876519611
 20
-128.4019815759724
 30
0.0
 10
78.08550074002724
 20
-128.5775091909459
 30
0.0
 10
78.08550074002724
 20
-128.5775091909459
 30
0.0
 10
78.08550074002724
 20
-128.5775091909459
 30
0.0
 10
77.23904077930135
 20
-128.4569308489622
 30
0.0
 10
77.23904077930135
 20
-128.4569308489622
 30
0.0
 10
77.23904077930135
 20
-128.4569308489622
 30
0.0
 10
77.23904077930135
 20
-127.67851152407
 30
0.0
 10
77.23904077930135
 20
-127.67851152407
 30
0.0
 10
77.23904077930135
 20
-127.67851152407
 30
0.0
 10
77.43368867421798
 20
-127.67851152407
 30
0.0
 10
77.43368867421798
 20
-127.67851152407
 30
0.0
 10
77.43368867421798
 20
-127.67851152407
 30
0.0
 10
77.43368867421798
 20
-128.2941500872841
 30
0.0
 10
77.43368867421798
 20
-128.2941500872841
 30
0.0
 10
77.43368867421798
 20
-128.2941500872841
 30
0.0
 10
77.85674639980665
 20
-128.3596069015039
 30
0.0
 10
77.85674639980665
 20
-128.3596069015039
 30
0.0
 10
77.8229844640512
 20
-128.2982842018664
 30
0.0
 10
77.78267684687378
 20
-128.2157741649947
 30
0.0
 10
77.78267684687378
 20
-128.0974351350764
 30
0.0
 10
77.78267684687378
 20
-127.8435315978134
 30
0.0
 10
77.9690565126258
 20
-127.6065090284282
 30
0.0
 10
78.282215692235
 20
-127.6065090284282
 30
0.0
 10
78.59950898642651
 20
-127.6065090284282
 30
0.0
 10
78.83411998897203
 20
-127.830784744518
 30
0.0
 10
78.83411998897203
 20
-128.1332641281229
 30
0.0
  0
HATCH
  5
15A
330
140
100
AcDbEntity
  8
_U+30EC_U+30A4_U+30E4_U+30FC 1
 62
   179
420
  2234388
100
AcDbHatch
 10
0.0
 20
0.0
 30
0.0
210
0.0
220
0.0
230
1.0
  2
SOLID
 70
     1
 71
     0
 91
        1
 92
        1
 93
        1
 72
     4
 94
        3
 73
     0
 74
     1
 95
       53
 96
       49
 40
0.0
 40
0.0
 40
0.0
 40
0.0
 40
1.0
 40
1.0
 40
1.0
 40
2.0
 40
2.0
 40
2.0
 40
3.0
 40
3.0
 40
3.0
 40
4.0
 40
4.0
 40
4.0
 40
5.0
 40
5.0
 40
5.0
 40
6.0
 40
6.0
 40
6.0
 40
7.0
 40
7.0
 40
7.0
 40
8.0
 40
8.0
 40
8.0
 40
9.0
 40
9.0
 40
9.0
 40
10.0
 40
10.0
 40
10.0
 40
11.0
 40
11.0
 40
11.0
 40
12.0
 40
12.0
 40
12.0
 40
13.0
 40
13.0
 40
13.0
 40
14.0
 40
14.0
 40
14.0
 40
15.0
 40
15.0
 40
15.0
 40
16.0
 40
16.0
 40
16.0
 40
16.0
 10
78.83411998897203
 20
-128.1332641281229
 10
78.83411998897203
 20
-128.2116400504124
 10
78.81723902109431
 20
-128.313098112453
 10
78.75384926416571
 20
-128.4147284292679
 10
78.64395071818623
 20
-128.5881889869502
 10
78.51269258019822
 20
-128.6093763241845
 10
78.4048610915099
 20
-128.6283243493533
 10
78.4048610915099
 20
-128.6283243493533
 10
78.4048610915099
 20
-128.406287945329
 10
78.4048610915099
 20
-128.406287945329
 10
78.60364310100881
 20
-128.351166417565
 10
78.63327092218196
 20
-128.2242146489335
 10
78.63327092218196
 20
-128.1311970708318
 10
78.63327092218196
 20
-127.9914984489049
 10
78.53370766265824
 20
-127.8392252284569
 10
78.30116371740388
 20
-127.8392252284569
 10
78.04519312284981
 20
-127.8392252284569
 10
77.97525768449924
 20
-128.0190592127869
 10
77.97525768449924
 20
-128.1396375547706
 10
77.97525768449924
 20
-128.1713324332349
 10
77.97525768449924
 20
-128.313098112453
 10
78.10444876519611
 20
-128.4019815759724
 10
78.10444876519611
 20
-128.4019815759724
 10
78.08550074002724
 20
-128.5775091909459
 10
78.08550074002724
 20
-128.5775091909459
 10
78.08550074002724
 20
-128.5775091909459
 10
77.23904077930135
 20
-128.4569308489622
 10
77.23904077930135
 20
-128.4569308489622
 10
77.23904077930135
 20
-128.4569308489622
 10
77.23904077930135
 20
-127.67851152407
 10
77.23904077930135
 20
-127.67851152407
 10
77.23904077930135
 20
-127.67851152407
 10
77.43368867421798
 20
-127.67851152407
 10
77.43368867421798
 20
-127.67851152407
 10
77.43368867421798
 20
-127.67851152407
 10
77.43368867421798
 20
-128.2941500872841
 10
77.43368867421798
 20
-128.2941500872841
 10
77.43368867421798
 20
-128.2941500872841
 10
77.85674639980665
 20
-128.3596069015039
 10
77.85674639980665
 20
-128.3596069015039
 10
77.8229844640512
 20
-128.2982842018664
 10
77.78267684687378
 20
-128.2157741649947
 10
77.78267684687378
 20
-128.0974351350764
 10
77.78267684687378
 20
-127.8435315978134
 10
77.9690565126258
 20
-127.6065090284282
 10
78.282215692235
 20
-127.6065090284282
 10
78.59950898642651
 20
-127.6065090284282
 10
78.83411998897203
 20
-127.830784744518
 10
78.83411998897203
 20
-128.1332641281229
 97
        0
 97
        0
 75
     2
 76
     1
 98
        0
  0
ENDBLK
  5
143
330
140
100
AcDbEntity
  8
0
100
AcDbBlockEnd
  0
BLOCK
  5
15D
330
15B
100
AcDbEntity
  8
0
100
AcDbBlockBegin
  2
block 14
 70
     0
 10
0.0
 20
0.0
 30
0.0
  3
block 14
  1

  0
SPLINE
  5
15F
330
15B
100
AcDbEntity
  8
_U+30EC_U+30A4_U+30E4_U+30FC 1
 62
   179
420
  2234388
370
    25
100
AcDbSpline
210
0.0
220
0.0
230
1.0
 70
    11
 71
     3
 72
    17
 73
    13
 74
     0
 42
0.0000000001
 43
0.0000000001
 12
1.0
 22
0.0
 32
0.0
 13
1.0
 23
0.0
 33
0.0
 40
0.0
 40
0.0
 40
0.0
 40
0.0
 40
1.0
 40
1.0
 40
1.0
 40
2.0
 40
2.0
 40
2.0
 40
3.0
 40
3.0
 40
3.0
 40
4.0
 40
4.0
 40
4.0
 40
4.0
 10
82.90277775705209
 20
-139.9521655205674
 30
0.0
 10
82.90277775705209
 20
-139.9618316316764
 30
0.0
 10
82.89519094072304
 20
-139.9700866316744
 30
0.0
 10
82.88556010763541
 20
-139.9700866316744
 30
0.0
 10
82.875576496779
 20
-139.9700866316744
 30
0.0
 10
82.86763899698151
 20
-139.9618316316764
 30
0.0
 10
82.86763899698151
 20
-139.9521655205674
 30
0.0
 10
82.86763899698151
 20
-139.9425346872366
 30
0.0
 10
82.875576496779
 20
-139.9342796872386
 30
0.0
 10
82.88556010763541
 20
-139.9342796872386
 30
0.0
 10
82.89519094072304
 20
-139.9342796872386
 30
0.0
 10
82.90277775705209
 20
-139.9425346872366
 30
0.0
 10
82.90277775705209
 20
-139.9521655205674
 30
0.0
  0
ENDBLK
  5
15E
330
15B
100
AcDbEntity
  8
0
100
AcDbBlockEnd
  0
BLOCK
  5
162
330
160
100
AcDbEntity
  8
0
100
AcDbBlockBegin
  2
block 15
 70
     0
 10
0.0
 20
0.0
 30
0.0
  3
block 15
  1

  0
SPLINE
  5
164
330
160
100
AcDbEntity
  8
_U+30EC_U+30A4_U+30E4_U+30FC 1
 62
   179
420
  2234388
370
    25
100
AcDbSpline
210
0.0
220
0.0
230
1.0
 70
    11
 71
     3
 72
    17
 73
    13
 74
     0
 42
0.0000000001
 43
0.0000000001
 12
1.0
 22
0.0
 32
0.0
 13
1.0
 23
0.0
 33
0.0
 40
0.0
 40
0.0
 40
0.0
 40
0.0
 40
1.0
 40
1.0
 40
1.0
 40
2.0
 40
2.0
 40
2.0
 40
3.0
 40
3.0
 40
3.0
 40
4.0
 40
4.0
 40
4.0
 40
4.0
 10
91.65296960618238
 20
-117.4521046928591
 30
0.0
 10
91.65296960618238
 20
-117.4617355261903
 30
0.0
 10
91.64506738416176
 20
-117.4696730261883
 30
0.0
 10
91.63540127329726
 20
-117.4696730261883
 30
0.0
 10
91.62577044020964
 20
-117.4696730261883
 30
0.0
 10
91.61748016264336
 20
-117.4617355261903
 30
0.0
 10
91.61748016264336
 20
-117.4521046928591
 30
0.0
 10
91.61748016264336
 20
-117.4424385817504
 30
0.0
 10
91.62577044020964
 20
-117.4345363595302
 30
0.0
 10
91.63540127329726
 20
-117.4345363595302
 30
0.0
 10
91.64506738416176
 20
-117.4345363595302
 30
0.0
 10
91.65296960618238
 20
-117.4424385817504
 30
0.0
 10
91.65296960618238
 20
-117.4521046928591
 30
0.0
  0
ENDBLK
  5
163
330
160
100
AcDbEntity
  8
0
100
AcDbBlockEnd
  0
BLOCK
  5
167
330
165
100
AcDbEntity
  8
0
100
AcDbBlockBegin
  2
block 16
 70
     0
 10
0.0
 20
0.0
 30
0.0
  3
block 16
  1

  0
SPLINE
  5
169
330
165
100
AcDbEntity
  8
_U+30EC_U+30A4_U+30E4_U+30FC 1
 62
   179
420
  2234388
370
     9
100
AcDbSpline
210
0.0
220
0.0
230
1.0
 70
    11
 71
     3
 72
    17
 73
    13
 74
     0
 42
0.0000000001
 43
0.0000000001
 12
1.0
 22
0.0
 32
0.0
 13
1.0
 23
0.0
 33
0.0
 40
0.0
 40
0.0
 40
0.0
 40
0.0
 40
1.0
 40
1.0
 40
1.0
 40
2.0
 40
2.0
 40
2.0
 40
3.0
 40
3.0
 40
3.0
 40
4.0
 40
4.0
 40
4.0
 40
4.0
 10
79.50108074953623
 20
-117.4521046928591
 30
0.0
 10
79.50108074953623
 20
-117.4617355261903
 30
0.0
 10
79.49318053568227
 20
-117.4696730261883
 30
0.0
 10
79.48351241665111
 20
-117.4696730261883
 30
0.0
 10
79.47388158356348
 20
-117.4696730261883
 30
0.0
 10
79.46594408376598
 20
-117.4617355261903
 30
0.0
 10
79.46594408376598
 20
-117.4521046928591
 30
0.0
 10
79.46594408376598
 20
-117.4424385817504
 30
0.0
 10
79.47388158356348
 20
-117.4345363595302
 30
0.0
 10
79.48351241665111
 20
-117.4345363595302
 30
0.0
 10
79.49318053568227
 20
-117.4345363595302
 30
0.0
 10
79.50108074953623
 20
-117.4424385817504
 30
0.0
 10
79.50108074953623
 20
-117.4521046928591
 30
0.0
  0
ENDBLK
  5
168
330
165
100
AcDbEntity
  8
0
100
AcDbBlockEnd
  0
BLOCK
  5
178
330
176
100
AcDbEntity
  8
0
100
AcDbBlockBegin
  2
block 17
 70
     0
 10
0.0
 20
0.0
 30
0.0
  3
block 17
  1

  0
SPLINE
  5
17A
330
176
100
AcDbEntity
  8
_U+30EC_U+30A4_U+30E4_U+30FC 1
370
     0
100
AcDbSpline
210
0.0
220
0.0
230
1.0
 70
    11
 71
     3
 72
    62
 73
    58
 74
     0
 42
0.0000000001
 43
0.0000000001
 12
1.0
 22
0.0
 32
0.0
 13
1.0
 23
0.0
 33
0.0
 40
0.0
 40
0.0
 40
0.0
 40
0.0
 40
1.0
 40
1.0
 40
1.0
 40
2.0
 40
2.0
 40
2.0
 40
3.0
 40
3.0
 40
3.0
 40
4.0
 40
4.0
 40
4.0
 40
5.0
 40
5.0
 40
5.0
 40
6.0
 40
6.0
 40
6.0
 40
7.0
 40
7.0
 40
7.0
 40
8.0
 40
8.0
 40
8.0
 40
9.0
 40
9.0
 40
9.0
 40
10.0
 40
10.0
 40
10.0
 40
11.0
 40
11.0
 40
11.0
 40
12.0
 40
12.0
 40
12.0
 40
13.0
 40
13.0
 40
13.0
 40
14.0
 40
14.0
 40
14.0
 40
15.0
 40
15.0
 40
15.0
 40
16.0
 40
16.0
 40
16.0
 40
17.0
 40
17.0
 40
17.0
 40
18.0
 40
18.0
 40
18.0
 40
19.0
 40
19.0
 40
19.0
 40
19.0
 10
91.03664819772695
 20
-144.1441731410473
 30
0.0
 10
90.94121905278553
 20
-144.1441731410473
 30
0.0
 10
90.72348901811775
 20
-144.1228135490387
 30
0.0
 10
90.59843205200318
 20
-143.9367783928353
 30
0.0
 10
90.5243624990703
 20
-143.8244682800161
 30
0.0
 10
90.52022838448801
 20
-143.7252495300409
 30
0.0
 10
90.51609426990571
 20
-143.6405001811038
 30
0.0
 10
90.51609426990571
 20
-143.6405001811038
 30
0.0
 10
90.73623587141317
 20
-143.6405001811038
 30
0.0
 10
90.73623587141317
 20
-143.6405001811038
 30
0.0
 10
90.73830292870431
 20
-143.7149142435852
 30
0.0
 10
90.74863821516007
 20
-143.9495252461307
 30
0.0
 10
91.03216957359612
 20
-143.9495252461307
 30
0.0
 10
91.16962888345759
 20
-143.9495252461307
 30
0.0
 10
91.32224661345417
 20
-143.8795898077801
 30
0.0
 10
91.32224661345417
 20
-143.6511799771081
 30
0.0
 10
91.32224661345417
 20
-143.5350802592551
 30
0.0
 10
91.2840060535679
 20
-143.4861599033646
 30
0.0
 10
91.2523111751036
 20
-143.4544650249003
 30
0.0
 10
91.17824162217072
 20
-143.3803954719674
 30
0.0
 10
91.06179739476927
 20
-143.367648618672
 30
0.0
 10
91.00702037655381
 20
-143.367648618672
 30
0.0
 10
90.9877278418364
 20
-143.367648618672
 30
0.0
 10
90.95189884878981
 20
-143.3697156759631
 30
0.0
 10
90.9243380849078
 20
-143.3738497905454
 30
0.0
 10
90.9243380849078
 20
-143.3738497905454
 30
0.0
 10
90.9243380849078
 20
-143.1795464051773
 30
0.0
 10
90.9243380849078
 20
-143.1795464051773
 30
0.0
 10
90.96257864479408
 20
-143.1857475770508
 30
0.0
 10
91.00460880971413
 20
-143.1878146343419
 30
0.0
 10
91.01115449113611
 20
-143.1878146343419
 30
0.0
 10
91.07661130535585
 20
-143.1878146343419
 30
0.0
 10
91.27539331485477
 20
-143.1667995518819
 30
0.0
 10
91.27539331485477
 20
-142.9297769824967
 30
0.0
 10
91.27539331485477
 20
-142.7523545650064
 30
0.0
 10
91.14447968641527
 20
-142.6972330372424
 30
0.0
 10
91.03423663088728
 20
-142.6972330372424
 30
0.0
 10
90.76999780716862
 20
-142.6972330372424
 30
0.0
 10
90.7613850684555
 20
-142.9297769824967
 30
0.0
 10
90.7572509538732
 20
-143.0017794781384
 30
0.0
 10
90.7572509538732
 20
-143.0017794781384
 30
0.0
 10
90.55399032024346
 20
-143.0017794781384
 30
0.0
 10
90.55399032024346
 20
-143.0017794781384
 30
0.0
 10
90.56260305895657
 20
-142.8770670215724
 30
0.0
 10
90.59016382283858
 20
-142.5001735754861
 30
0.0
 10
91.0469834841827
 20
-142.5001735754861
 30
0.0
 10
91.27125920027247
 20
-142.5001735754861
 30
0.0
 10
91.51241588423996
 20
-142.6272975988918
 30
0.0
 10
91.51241588423996
 20
-142.9232313010748
 30
0.0
 10
91.51241588423996
 20
-143.1096109668268
 30
0.0
 10
91.41733124884706
 20
-143.1919487489242
 30
0.0
 10
91.31776798932334
 20
-143.2532714485617
 30
0.0
 10
91.37909068896079
 20
-143.2808322124437
 30
0.0
 10
91.56099173058197
 20
-143.3614474467985
 30
0.0
 10
91.56099173058197
 20
-143.6384331238126
 30
0.0
 10
91.56099173058197
 20
-143.9770860100127
 30
0.0
 10
91.31363387474104
 20
-144.1441731410473
 30
0.0
 10
91.03664819772695
 20
-144.1441731410473
 30
0.0
  0
HATCH
  5
17B
330
176
100
AcDbEntity
  8
_U+30EC_U+30A4_U+30E4_U+30FC 1
 62
   179
420
  2234388
100
AcDbHatch
 10
0.0
 20
0.0
 30
0.0
210
0.0
220
0.0
230
1.0
  2
SOLID
 70
     1
 71
     0
 91
        1
 92
        1
 93
        1
 72
     4
 94
        3
 73
     0
 74
     1
 95
       62
 96
       58
 40
0.0
 40
0.0
 40
0.0
 40
0.0
 40
1.0
 40
1.0
 40
1.0
 40
2.0
 40
2.0
 40
2.0
 40
3.0
 40
3.0
 40
3.0
 40
4.0
 40
4.0
 40
4.0
 40
5.0
 40
5.0
 40
5.0
 40
6.0
 40
6.0
 40
6.0
 40
7.0
 40
7.0
 40
7.0
 40
8.0
 40
8.0
 40
8.0
 40
9.0
 40
9.0
 40
9.0
 40
10.0
 40
10.0
 40
10.0
 40
11.0
 40
11.0
 40
11.0
 40
12.0
 40
12.0
 40
12.0
 40
13.0
 40
13.0
 40
13.0
 40
14.0
 40
14.0
 40
14.0
 40
15.0
 40
15.0
 40
15.0
 40
16.0
 40
16.0
 40
16.0
 40
17.0
 40
17.0
 40
17.0
 40
18.0
 40
18.0
 40
18.0
 40
19.0
 40
19.0
 40
19.0
 40
19.0
 10
91.03664819772695
 20
-144.1441731410473
 10
90.94121905278553
 20
-144.1441731410473
 10
90.72348901811775
 20
-144.1228135490387
 10
90.59843205200318
 20
-143.9367783928353
 10
90.5243624990703
 20
-143.8244682800161
 10
90.52022838448801
 20
-143.7252495300409
 10
90.51609426990571
 20
-143.6405001811038
 10
90.51609426990571
 20
-143.6405001811038
 10
90.73623587141317
 20
-143.6405001811038
 10
90.73623587141317
 20
-143.6405001811038
 10
90.73830292870431
 20
-143.7149142435852
 10
90.74863821516007
 20
-143.9495252461307
 10
91.03216957359612
 20
-143.9495252461307
 10
91.16962888345759
 20
-143.9495252461307
 10
91.32224661345417
 20
-143.8795898077801
 10
91.32224661345417
 20
-143.6511799771081
 10
91.32224661345417
 20
-143.5350802592551
 10
91.2840060535679
 20
-143.4861599033646
 10
91.2523111751036
 20
-143.4544650249003
 10
91.17824162217072
 20
-143.3803954719674
 10
91.06179739476927
 20
-143.367648618672
 10
91.00702037655381
 20
-143.367648618672
 10
90.9877278418364
 20
-143.367648618672
 10
90.95189884878981
 20
-143.3697156759631
 10
90.9243380849078
 20
-143.3738497905454
 10
90.9243380849078
 20
-143.3738497905454
 10
90.9243380849078
 20
-143.1795464051773
 10
90.9243380849078
 20
-143.1795464051773
 10
90.96257864479408
 20
-143.1857475770508
 10
91.00460880971413
 20
-143.1878146343419
 10
91.01115449113611
 20
-143.1878146343419
 10
91.07661130535585
 20
-143.1878146343419
 10
91.27539331485477
 20
-143.1667995518819
 10
91.27539331485477
 20
-142.9297769824967
 10
91.27539331485477
 20
-142.7523545650064
 10
91.14447968641527
 20
-142.6972330372424
 10
91.03423663088728
 20
-142.6972330372424
 10
90.76999780716862
 20
-142.6972330372424
 10
90.7613850684555
 20
-142.9297769824967
 10
90.7572509538732
 20
-143.0017794781384
 10
90.7572509538732
 20
-143.0017794781384
 10
90.55399032024346
 20
-143.0017794781384
 10
90.55399032024346
 20
-143.0017794781384
 10
90.56260305895657
 20
-142.8770670215724
 10
90.59016382283858
 20
-142.5001735754861
 10
91.0469834841827
 20
-142.5001735754861
 10
91.27125920027247
 20
-142.5001735754861
 10
91.51241588423996
 20
-142.6272975988918
 10
91.51241588423996
 20
-142.9232313010748
 10
91.51241588423996
 20
-143.1096109668268
 10
91.41733124884706
 20
-143.1919487489242
 10
91.31776798932334
 20
-143.2532714485617
 10
91.37909068896079
 20
-143.2808322124437
 10
91.56099173058197
 20
-143.3614474467985
 10
91.56099173058197
 20
-143.6384331238126
 10
91.56099173058197
 20
-143.9770860100127
 10
91.31363387474104
 20
-144.1441731410473
 10
91.03664819772695
 20
-144.1441731410473
 97
        0
 97
        0
 75
     2
 76
     1
 98
        0
  0
SPLINE
  5
17C
330
176
100
AcDbEntity
  8
_U+30EC_U+30A4_U+30E4_U+30FC 1
370
     0
100
AcDbSpline
210
0.0
220
0.0
230
1.0
 70
    11
 71
     3
 72
    53
 73
    49
 74
     0
 42
0.0000000001
 43
0.0000000001
 12
1.0
 22
0.0
 32
0.0
 13
1.0
 23
0.0
 33
0.0
 40
0.0
 40
0.0
 40
0.0
 40
0.0
 40
1.0
 40
1.0
 40
1.0
 40
2.0
 40
2.0
 40
2.0
 40
3.0
 40
3.0
 40
3.0
 40
4.0
 40
4.0
 40
4.0
 40
5.0
 40
5.0
 40
5.0
 40
6.0
 40
6.0
 40
6.0
 40
7.0
 40
7.0
 40
7.0
 40
8.0
 40
8.0
 40
8.0
 40
9.0
 40
9.0
 40
9.0
 40
10.0
 40
10.0
 40
10.0
 40
11.0
 40
11.0
 40
11.0
 40
12.0
 40
12.0
 40
12.0
 40
13.0
 40
13.0
 40
13.0
 40
14.0
 40
14.0
 40
14.0
 40
15.0
 40
15.0
 40
15.0
 40
16.0
 40
16.0
 40
16.0
 40
16.0
 10
92.20281301948403
 20
-144.1441731410473
 30
0.0
 10
92.12460935196886
 20
-144.1441731410473
 30
0.0
 10
92.02297903515398
 20
-144.1272921731696
 30
0.0
 10
91.92134871833912
 20
-144.0635579066924
 30
0.0
 10
91.74806041543104
 20
-143.953659360713
 30
0.0
 10
91.72670082342249
 20
-143.8224012227249
 30
0.0
 10
91.70775279825362
 20
-143.7149142435852
 30
0.0
 10
91.70775279825362
 20
-143.7149142435852
 30
0.0
 10
91.92996145705223
 20
-143.7149142435852
 30
0.0
 10
91.92996145705223
 20
-143.7149142435852
 30
0.0
 10
91.9847384752677
 20
-143.9133517435356
 30
0.0
 10
92.11186249867343
 20
-143.9429795647087
 30
0.0
 10
92.20488007677517
 20
-143.9429795647087
 30
0.0
 10
92.3444064439278
 20
-143.9429795647087
 30
0.0
 10
92.49667966437583
 20
-143.8437608147335
 30
0.0
 10
92.49667966437583
 20
-143.6108723599306
 30
0.0
 10
92.49667966437583
 20
-143.3552462749251
 30
0.0
 10
92.31684568004579
 20
-143.2853108365745
 30
0.0
 10
92.19626733806204
 20
-143.2853108365745
 30
0.0
 10
92.16457245959775
 20
-143.2853108365745
 30
0.0
 10
92.02297903515398
 20
-143.2853108365745
 30
0.0
 10
91.93409557163453
 20
-143.4145019172714
 30
0.0
 10
91.93409557163453
 20
-143.4145019172714
 30
0.0
 10
91.7583957018868
 20
-143.395209382554
 30
0.0
 10
91.7583957018868
 20
-143.395209382554
 30
0.0
 10
91.7583957018868
 20
-143.395209382554
 30
0.0
 10
91.87897404387054
 20
-142.5490939313766
 30
0.0
 10
91.87897404387054
 20
-142.5490939313766
 30
0.0
 10
91.87897404387054
 20
-142.5490939313766
 30
0.0
 10
92.657565623537
 20
-142.5490939313766
 30
0.0
 10
92.657565623537
 20
-142.5490939313766
 30
0.0
 10
92.657565623537
 20
-142.5490939313766
 30
0.0
 10
92.657565623537
 20
-142.7437418262932
 30
0.0
 10
92.657565623537
 20
-142.7437418262932
 30
0.0
 10
92.657565623537
 20
-142.7437418262932
 30
0.0
 10
92.04192706032286
 20
-142.7437418262932
 30
0.0
 10
92.04192706032286
 20
-142.7437418262932
 30
0.0
 10
92.04192706032286
 20
-142.7437418262932
 30
0.0
 10
91.9764702461031
 20
-143.1667995518819
 30
0.0
 10
91.9764702461031
 20
-143.1667995518819
 30
0.0
 10
92.03779294574056
 20
-143.1326931065779
 30
0.0
 10
92.12013072783803
 20
-143.092729998949
 30
0.0
 10
92.23864201253062
 20
-143.092729998949
 30
0.0
 10
92.49254554979353
 20
-143.092729998949
 30
0.0
 10
92.72956811917872
 20
-143.2787651551525
 30
0.0
 10
92.72956811917872
 20
-143.5919243347618
 30
0.0
 10
92.72956811917872
 20
-143.9092176289533
 30
0.0
 10
92.50529240308896
 20
-144.1441731410473
 30
0.0
 10
92.20281301948403
 20
-144.1441731410473
 30
0.0
  0
HATCH
  5
17D
330
176
100
AcDbEntity
  8
_U+30EC_U+30A4_U+30E4_U+30FC 1
 62
   179
420
  2234388
100
AcDbHatch
 10
0.0
 20
0.0
 30
0.0
210
0.0
220
0.0
230
1.0
  2
SOLID
 70
     1
 71
     0
 91
        1
 92
        1
 93
        1
 72
     4
 94
        3
 73
     0
 74
     1
 95
       53
 96
       49
 40
0.0
 40
0.0
 40
0.0
 40
0.0
 40
1.0
 40
1.0
 40
1.0
 40
2.0
 40
2.0
 40
2.0
 40
3.0
 40
3.0
 40
3.0
 40
4.0
 40
4.0
 40
4.0
 40
5.0
 40
5.0
 40
5.0
 40
6.0
 40
6.0
 40
6.0
 40
7.0
 40
7.0
 40
7.0
 40
8.0
 40
8.0
 40
8.0
 40
9.0
 40
9.0
 40
9.0
 40
10.0
 40
10.0
 40
10.0
 40
11.0
 40
11.0
 40
11.0
 40
12.0
 40
12.0
 40
12.0
 40
13.0
 40
13.0
 40
13.0
 40
14.0
 40
14.0
 40
14.0
 40
15.0
 40
15.0
 40
15.0
 40
16.0
 40
16.0
 40
16.0
 40
16.0
 10
92.20281301948403
 20
-144.1441731410473
 10
92.12460935196886
 20
-144.1441731410473
 10
92.02297903515398
 20
-144.1272921731696
 10
91.92134871833912
 20
-144.0635579066924
 10
91.74806041543104
 20
-143.953659360713
 10
91.72670082342249
 20
-143.8224012227249
 10
91.70775279825362
 20
-143.7149142435852
 10
91.70775279825362
 20
-143.7149142435852
 10
91.92996145705223
 20
-143.7149142435852
 10
91.92996145705223
 20
-143.7149142435852
 10
91.9847384752677
 20
-143.9133517435356
 10
92.11186249867343
 20
-143.9429795647087
 10
92.20488007677517
 20
-143.9429795647087
 10
92.3444064439278
 20
-143.9429795647087
 10
92.49667966437583
 20
-143.8437608147335
 10
92.49667966437583
 20
-143.6108723599306
 10
92.49667966437583
 20
-143.3552462749251
 10
92.31684568004579
 20
-143.2853108365745
 10
92.19626733806204
 20
-143.2853108365745
 10
92.16457245959775
 20
-143.2853108365745
 10
92.02297903515398
 20
-143.2853108365745
 10
91.93409557163453
 20
-143.4145019172714
 10
91.93409557163453
 20
-143.4145019172714
 10
91.7583957018868
 20
-143.395209382554
 10
91.7583957018868
 20
-143.395209382554
 10
91.7583957018868
 20
-143.395209382554
 10
91.87897404387054
 20
-142.5490939313766
 10
91.87897404387054
 20
-142.5490939313766
 10
91.87897404387054
 20
-142.5490939313766
 10
92.657565623537
 20
-142.5490939313766
 10
92.657565623537
 20
-142.5490939313766
 10
92.657565623537
 20
-142.5490939313766
 10
92.657565623537
 20
-142.7437418262932
 10
92.657565623537
 20
-142.7437418262932
 10
92.657565623537
 20
-142.7437418262932
 10
92.04192706032286
 20
-142.7437418262932
 10
92.04192706032286
 20
-142.7437418262932
 10
92.04192706032286
 20
-142.7437418262932
 10
91.9764702461031
 20
-143.1667995518819
 10
91.9764702461031
 20
-143.1667995518819
 10
92.03779294574056
 20
-143.1326931065779
 10
92.12013072783803
 20
-143.092729998949
 10
92.23864201253062
 20
-143.092729998949
 10
92.49254554979353
 20
-143.092729998949
 10
92.72956811917872
 20
-143.2787651551525
 10
92.72956811917872
 20
-143.5919243347618
 10
92.72956811917872
 20
-143.9092176289533
 10
92.50529240308896
 20
-144.1441731410473
 10
92.20281301948403
 20
-144.1441731410473
 97
        0
 97
        0
 75
     2
 76
     1
 98
        0
  0
ENDBLK
  5
179
330
176
100
AcDbEntity
  8
0
100
AcDbBlockEnd
  0
BLOCK
  5
180
330
17E
100
AcDbEntity
  8
0
100
AcDbBlockBegin
  2
block 18
 70
     0
 10
0.0
 20
0.0
 30
0.0
  3
block 18
  1

  0
SPLINE
  5
182
330
17E
100
AcDbEntity
  8
_U+30EC_U+30A4_U+30E4_U+30FC 1
 62
   179
420
  2234388
370
    25
100
AcDbSpline
210
0.0
220
0.0
230
1.0
 70
    11
 71
     3
 72
    17
 73
    13
 74
     0
 42
0.0000000001
 43
0.0000000001
 12
1.0
 22
0.0
 32
0.0
 13
1.0
 23
0.0
 33
0.0
 40
0.0
 40
0.0
 40
0.0
 40
0.0
 40
1.0
 40
1.0
 40
1.0
 40
2.0
 40
2.0
 40
2.0
 40
3.0
 40
3.0
 40
3.0
 40
4.0
 40
4.0
 40
4.0
 40
4.0
 10
82.90277775705209
 20
-139.9521655205674
 30
0.0
 10
82.90277775705209
 20
-139.9618316316764
 30
0.0
 10
82.89519094072304
 20
-139.9700866316744
 30
0.0
 10
82.88556010763541
 20
-139.9700866316744
 30
0.0
 10
82.875576496779
 20
-139.9700866316744
 30
0.0
 10
82.86763899698151
 20
-139.9618316316764
 30
0.0
 10
82.86763899698151
 20
-139.9521655205674
 30
0.0
 10
82.86763899698151
 20
-139.9425346872366
 30
0.0
 10
82.875576496779
 20
-139.9342796872386
 30
0.0
 10
82.88556010763541
 20
-139.9342796872386
 30
0.0
 10
82.89519094072304
 20
-139.9342796872386
 30
0.0
 10
82.90277775705209
 20
-139.9425346872366
 30
0.0
 10
82.90277775705209
 20
-139.9521655205674
 30
0.0
  0
ENDBLK
  5
181
330
17E
100
AcDbEntity
  8
0
100
AcDbBlockEnd
  0
BLOCK
  5
185
330
183
100
AcDbEntity
  8
0
100
AcDbBlockBegin
  2
block 19
 70
     0
 10
0.0
 20
0.0
 30
0.0
  3
block 19
  1

  0
SPLINE
  5
187
330
183
100
AcDbEntity
  8
_U+30EC_U+30A4_U+30E4_U+30FC 1
 62
   179
420
  2234388
370
    25
100
AcDbSpline
210
0.0
220
0.0
230
1.0
 70
    11
 71
     3
 72
    17
 73
    13
 74
     0
 42
0.0000000001
 43
0.0000000001
 12
1.0
 22
0.0
 32
0.0
 13
1.0
 23
0.0
 33
0.0
 40
0.0
 40
0.0
 40
0.0
 40
0.0
 40
1.0
 40
1.0
 40
1.0
 40
2.0
 40
2.0
 40
2.0
 40
3.0
 40
3.0
 40
3.0
 40
4.0
 40
4.0
 40
4.0
 40
4.0
 10
100.403163549613
 20
-139.9521655205674
 30
0.0
 10
100.403163549613
 20
-139.9618316316764
 30
0.0
 10
100.3949110860127
 20
-139.9700866316744
 30
0.0
 10
100.3852424389591
 20
-139.9700866316744
 30
0.0
 10
100.3756116058715
 20
-139.9700866316744
 30
0.0
 10
100.367674106074
 20
-139.9618316316764
 30
0.0
 10
100.367674106074
 20
-139.9521655205674
 30
0.0
 10
100.367674106074
 20
-139.9425346872366
 30
0.0
 10
100.3756116058715
 20
-139.9342796872386
 30
0.0
 10
100.3852424389591
 20
-139.9342796872386
 30
0.0
 10
100.3949110860127
 20
-139.9342796872386
 30
0.0
 10
100.403163549613
 20
-139.9425346872366
 30
0.0
 10
100.403163549613
 20
-139.9521655205674
 30
0.0
  0
ENDBLK
  5
186
330
183
100
AcDbEntity
  8
0
100
AcDbBlockEnd
  0
BLOCK
  5
18A
330
188
100
AcDbEntity
  8
0
100
AcDbBlockBegin
  2
block 20
 70
     0
 10
0.0
 20
0.0
 30
0.0
  3
block 20
  1

  0
SPLINE
  5
18C
330
188
100
AcDbEntity
  8
_U+30EC_U+30A4_U+30E4_U+30FC 1
 62
   179
420
  2234388
370
     9
100
AcDbSpline
210
0.0
220
0.0
230
1.0
 70
    11
 71
     3
 72
    17
 73
    13
 74
     0
 42
0.0000000001
 43
0.0000000001
 12
1.0
 22
0.0
 32
0.0
 13
1.0
 23
0.0
 33
0.0
 40
0.0
 40
0.0
 40
0.0
 40
0.0
 40
1.0
 40
1.0
 40
1.0
 40
2.0
 40
2.0
 40
2.0
 40
3.0
 40
3.0
 40
3.0
 40
4.0
 40
4.0
 40
4.0
 40
4.0
 10
100.403163549613
 20
-141.9524155200674
 30
0.0
 10
100.403163549613
 20
-141.9620463533982
 30
0.0
 10
100.3949110860127
 20
-141.9696310756188
 30
0.0
 10
100.3852424389591
 20
-141.9696310756188
 30
0.0
 10
100.3756116058715
 20
-141.9696310756188
 30
0.0
 10
100.367674106074
 20
-141.9620463533982
 30
0.0
 10
100.367674106074
 20
-141.9524155200674
 30
0.0
 10
100.367674106074
 20
-141.942749408959
 30
0.0
 10
100.3756116058715
 20
-141.9344944089611
 30
0.0
 10
100.3852424389591
 20
-141.9344944089611
 30
0.0
 10
100.3949110860127
 20
-141.9344944089611
 30
0.0
 10
100.403163549613
 20
-141.942749408959
 30
0.0
 10
100.403163549613
 20
-141.9524155200674
 30
0.0
  0
ENDBLK
  5
18B
330
188
100
AcDbEntity
  8
0
100
AcDbBlockEnd
  0
BLOCK
  5
18F
330
18D
100
AcDbEntity
  8
0
100
AcDbBlockBegin
  2
block 21
 70
     0
 10
0.0
 20
0.0
 30
0.0
  3
block 21
  1

  0
SPLINE
  5
191
330
18D
100
AcDbEntity
  8
_U+30EC_U+30A4_U+30E4_U+30FC 1
370
     0
100
AcDbSpline
210
0.0
220
0.0
230
1.0
 70
    11
 71
     3
 72
    26
 73
    22
 74
     0
 42
0.0000000001
 43
0.0000000001
 12
1.0
 22
0.0
 32
0.0
 13
1.0
 23
0.0
 33
0.0
 40
0.0
 40
0.0
 40
0.0
 40
0.0
 40
1.0
 40
1.0
 40
1.0
 40
2.0
 40
2.0
 40
2.0
 40
3.0
 40
3.0
 40
3.0
 40
4.0
 40
4.0
 40
4.0
 40
5.0
 40
5.0
 40
5.0
 40
6.0
 40
6.0
 40
6.0
 40
7.0
 40
7.0
 40
7.0
 40
7.0
 10
81.58950735807485
 20
-138.3791503560302
 30
0.0
 10
81.58950735807485
 20
-138.3791503560302
 30
0.0
 10
80.48518200027802
 20
-138.3791503560302
 30
0.0
 10
80.48518200027802
 20
-138.3791503560302
 30
0.0
 10
80.48518200027802
 20
-138.3791503560302
 30
0.0
 10
80.48518200027802
 20
-138.7091905035172
 30
0.0
 10
80.48518200027802
 20
-138.7091905035172
 30
0.0
 10
80.48518200027802
 20
-138.7091905035172
 30
0.0
 10
80.33721514918653
 20
-138.7091905035172
 30
0.0
 10
80.33721514918653
 20
-138.7091905035172
 30
0.0
 10
80.32240123859997
 20
-138.3770832987391
 30
0.0
 10
80.15944822214765
 20
-138.3305745096882
 30
0.0
 10
80.04524330681161
 20
-138.300946688515
 30
0.0
 10
80.04524330681161
 20
-138.300946688515
 30
0.0
 10
80.04524330681161
 20
-138.1548746399405
 30
0.0
 10
80.04524330681161
 20
-138.1548746399405
 30
0.0
 10
80.04524330681161
 20
-138.1548746399405
 30
0.0
 10
81.58950735807485
 20
-138.1548746399405
 30
0.0
 10
81.58950735807485
 20
-138.1548746399405
 30
0.0
 10
81.58950735807485
 20
-138.1548746399405
 30
0.0
 10
81.58950735807485
 20
-138.3791503560302
 30
0.0
 10
81.58950735807485
 20
-138.3791503560302
 30
0.0
  0
HATCH
  5
192
330
18D
100
AcDbEntity
  8
_U+30EC_U+30A4_U+30E4_U+30FC 1
 62
   179
420
  2234388
100
AcDbHatch
 10
0.0
 20
0.0
 30
0.0
210
0.0
220
0.0
230
1.0
  2
SOLID
 70
     1
 71
     0
 91
        1
 92
        1
 93
        1
 72
     4
 94
        3
 73
     0
 74
     1
 95
       26
 96
       22
 40
0.0
 40
0.0
 40
0.0
 40
0.0
 40
1.0
 40
1.0
 40
1.0
 40
2.0
 40
2.0
 40
2.0
 40
3.0
 40
3.0
 40
3.0
 40
4.0
 40
4.0
 40
4.0
 40
5.0
 40
5.0
 40
5.0
 40
6.0
 40
6.0
 40
6.0
 40
7.0
 40
7.0
 40
7.0
 40
7.0
 10
81.58950735807485
 20
-138.3791503560302
 10
81.58950735807485
 20
-138.3791503560302
 10
80.48518200027802
 20
-138.3791503560302
 10
80.48518200027802
 20
-138.3791503560302
 10
80.48518200027802
 20
-138.3791503560302
 10
80.48518200027802
 20
-138.7091905035172
 10
80.48518200027802
 20
-138.7091905035172
 10
80.48518200027802
 20
-138.7091905035172
 10
80.33721514918653
 20
-138.7091905035172
 10
80.33721514918653
 20
-138.7091905035172
 10
80.32240123859997
 20
-138.3770832987391
 10
80.15944822214765
 20
-138.3305745096882
 10
80.04524330681161
 20
-138.300946688515
 10
80.04524330681161
 20
-138.300946688515
 10
80.04524330681161
 20
-138.1548746399405
 10
80.04524330681161
 20
-138.1548746399405
 10
80.04524330681161
 20
-138.1548746399405
 10
81.58950735807485
 20
-138.1548746399405
 10
81.58950735807485
 20
-138.1548746399405
 10
81.58950735807485
 20
-138.1548746399405
 10
81.58950735807485
 20
-138.3791503560302
 10
81.58950735807485
 20
-138.3791503560302
 97
        0
 97
        0
 75
     2
 76
     1
 98
        0
  0
POLYLINE
  5
193
330
18D
100
AcDbEntity
  8
_U+30EC_U+30A4_U+30E4_U+30FC 1
370
     0
100
AcDb2dPolyline
 66
     1
 10
0.0
 20
0.0
 30
0.0
  0
VERTEX
  5
194
330
193
100
AcDbEntity
  8
_U+30EC_U+30A4_U+30E4_U+30FC 1
370
     0
100
AcDbVertex
100
AcDb2dVertex
 10
81.58950735807485
 20
-137.5936685853933
 30
0.0
  0
VERTEX
  5
195
330
193
100
AcDbEntity
  8
_U+30EC_U+30A4_U+30E4_U+30FC 1
370
     0
100
AcDbVertex
100
AcDb2dVertex
 10
81.33784313287735
 20
-137.5936685853933
 30
0.0
  0
VERTEX
  5
196
330
193
100
AcDbEntity
  8
_U+30EC_U+30A4_U+30E4_U+30FC 1
370
     0
100
AcDbVertex
100
AcDb2dVertex
 10
81.33784313287735
 20
-137.34217661497
 30
0.0
  0
VERTEX
  5
197
330
193
100
AcDbEntity
  8
_U+30EC_U+30A4_U+30E4_U+30FC 1
370
     0
100
AcDbVertex
100
AcDb2dVertex
 10
81.58950735807485
 20
-137.34217661497
 30
0.0
  0
VERTEX
  5
198
330
193
100
AcDbEntity
  8
_U+30EC_U+30A4_U+30E4_U+30FC 1
370
     0
100
AcDbVertex
100
AcDb2dVertex
 10
81.58950735807485
 20
-137.5936685853933
 30
0.0
  0
SEQEND
  5
199
330
193
100
AcDbEntity
  8
_U+30EC_U+30A4_U+30E4_U+30FC 1
370
     0
  0
HATCH
  5
19A
330
18D
100
AcDbEntity
  8
_U+30EC_U+30A4_U+30E4_U+30FC 1
 62
   179
420
  2234388
100
AcDbHatch
 10
0.0
 20
0.0
 30
0.0
210
0.0
220
0.0
230
1.0
  2
SOLID
 70
     1
 71
     0
 91
        1
 92
        1
 93
        4
 72
     1
 10
81.58950735807485
 20
-137.5936685853933
 11
81.33784313287735
 21
-137.5936685853933
 72
     1
 10
81.33784313287735
 20
-137.5936685853933
 11
81.33784313287735
 21
-137.34217661497
 72
     1
 10
81.33784313287735
 20
-137.34217661497
 11
81.58950735807485
 21
-137.34217661497
 72
     1
 10
81.58950735807485
 20
-137.34217661497
 11
81.58950735807485
 21
-137.5936685853933
 97
        0
 75
     2
 76
     1
 98
        0
  0
SPLINE
  5
19B
330
18D
100
AcDbEntity
  8
_U+30EC_U+30A4_U+30E4_U+30FC 1
370
     0
100
AcDbSpline
210
0.0
220
0.0
230
1.0
 70
    11
 71
     3
 72
    44
 73
    40
 74
     0
 42
0.0000000001
 43
0.0000000001
 12
1.0
 22
0.0
 32
0.0
 13
1.0
 23
0.0
 33
0.0
 40
0.0
 40
0.0
 40
0.0
 40
0.0
 40
1.0
 40
1.0
 40
1.0
 40
2.0
 40
2.0
 40
2.0
 40
3.0
 40
3.0
 40
3.0
 40
4.0
 40
4.0
 40
4.0
 40
5.0
 40
5.0
 40
5.0
 40
6.0
 40
6.0
 40
6.0
 40
7.0
 40
7.0
 40
7.0
 40
8.0
 40
8.0
 40
8.0
 40
9.0
 40
9.0
 40
9.0
 40
10.0
 40
10.0
 40
10.0
 40
11.0
 40
11.0
 40
11.0
 40
12.0
 40
12.0
 40
12.0
 40
13.0
 40
13.0
 40
13.0
 40
13.0
 10
81.00780298539041
 20
-136.5125976221219
 30
0.0
 10
81.16644963248616
 20
-136.7303276567897
 30
0.0
 10
81.24051918541905
 20
-136.8233452348914
 30
0.0
 10
81.38435192192821
 20
-136.872265590782
 30
0.0
 10
81.38435192192821
 20
-136.872265590782
 30
0.0
 10
81.38435192192821
 20
-136.0936740111155
 30
0.0
 10
81.38435192192821
 20
-136.0936740111155
 30
0.0
 10
81.38435192192821
 20
-136.0936740111155
 30
0.0
 10
81.58950735807485
 20
-136.0936740111155
 30
0.0
 10
81.58950735807485
 20
-136.0936740111155
 30
0.0
 10
81.58950735807485
 20
-136.0936740111155
 30
0.0
 10
81.58950735807485
 20
-137.121690503914
 30
0.0
 10
81.58950735807485
 20
-137.121690503914
 30
0.0
 10
81.23190644670592
 20
-137.0899956254497
 30
0.0
 10
81.15370277919074
 20
-137.02453881123
 30
0.0
 10
80.8553575101681
 20
-136.6393771359791
 30
0.0
 10
80.65657550066919
 20
-136.383406541425
 30
0.0
 10
80.58887937438404
 20
-136.3179497272052
 30
0.0
 10
80.45142006452257
 20
-136.3179497272052
 30
0.0
 10
80.33290877982996
 20
-136.3179497272052
 30
0.0
 10
80.20182289661622
 20
-136.389952222847
 30
0.0
 10
80.20182289661622
 20
-136.5863226655062
 30
0.0
 10
80.20182289661622
 20
-136.8467718841911
 30
0.0
 10
80.43229978457943
 20
-136.8550401133557
 30
0.0
 10
80.54874401198087
 20
-136.8595187374865
 30
0.0
 10
80.54874401198087
 20
-136.8595187374865
 30
0.0
 10
80.54874401198087
 20
-137.0837944535763
 30
0.0
 10
80.54874401198087
 20
-137.0837944535763
 30
0.0
 10
80.42179224334942
 20
-137.0751817148632
 30
0.0
 10
80.30965438530454
 20
-137.0645019188589
 30
0.0
 10
80.19114310061194
 20
-136.9842311940526
 30
0.0
 10
80.03042939622503
 20
-136.8743326480731
 30
0.0
 10
79.99649520569533
 20
-136.6882974918696
 30
0.0
 10
79.99649520569533
 20
-136.5718532644682
 30
0.0
 10
79.99649520569533
 20
-136.2945230779056
 30
0.0
 10
80.18063555938193
 20
-136.087472839242
 30
0.0
 10
80.45348712181371
 20
-136.087472839242
 30
0.0
 10
80.68189695248579
 20
-136.087472839242
 30
0.0
 10
80.7814602120095
 20
-136.203572557095
 30
0.0
 10
81.00780298539041
 20
-136.5125976221219
 30
0.0
  0
HATCH
  5
19C
330
18D
100
AcDbEntity
  8
_U+30EC_U+30A4_U+30E4_U+30FC 1
 62
   179
420
  2234388
100
AcDbHatch
 10
0.0
 20
0.0
 30
0.0
210
0.0
220
0.0
230
1.0
  2
SOLID
 70
     1
 71
     0
 91
        1
 92
        1
 93
        1
 72
     4
 94
        3
 73
     0
 74
     1
 95
       44
 96
       40
 40
0.0
 40
0.0
 40
0.0
 40
0.0
 40
1.0
 40
1.0
 40
1.0
 40
2.0
 40
2.0
 40
2.0
 40
3.0
 40
3.0
 40
3.0
 40
4.0
 40
4.0
 40
4.0
 40
5.0
 40
5.0
 40
5.0
 40
6.0
 40
6.0
 40
6.0
 40
7.0
 40
7.0
 40
7.0
 40
8.0
 40
8.0
 40
8.0
 40
9.0
 40
9.0
 40
9.0
 40
10.0
 40
10.0
 40
10.0
 40
11.0
 40
11.0
 40
11.0
 40
12.0
 40
12.0
 40
12.0
 40
13.0
 40
13.0
 40
13.0
 40
13.0
 10
81.00780298539041
 20
-136.5125976221219
 10
81.16644963248616
 20
-136.7303276567897
 10
81.24051918541905
 20
-136.8233452348914
 10
81.38435192192821
 20
-136.872265590782
 10
81.38435192192821
 20
-136.872265590782
 10
81.38435192192821
 20
-136.0936740111155
 10
81.38435192192821
 20
-136.0936740111155
 10
81.38435192192821
 20
-136.0936740111155
 10
81.58950735807485
 20
-136.0936740111155
 10
81.58950735807485
 20
-136.0936740111155
 10
81.58950735807485
 20
-136.0936740111155
 10
81.58950735807485
 20
-137.121690503914
 10
81.58950735807485
 20
-137.121690503914
 10
81.23190644670592
 20
-137.0899956254497
 10
81.15370277919074
 20
-137.02453881123
 10
80.8553575101681
 20
-136.6393771359791
 10
80.65657550066919
 20
-136.383406541425
 10
80.58887937438404
 20
-136.3179497272052
 10
80.45142006452257
 20
-136.3179497272052
 10
80.33290877982996
 20
-136.3179497272052
 10
80.20182289661622
 20
-136.389952222847
 10
80.20182289661622
 20
-136.5863226655062
 10
80.20182289661622
 20
-136.8467718841911
 10
80.43229978457943
 20
-136.8550401133557
 10
80.54874401198087
 20
-136.8595187374865
 10
80.54874401198087
 20
-136.8595187374865
 10
80.54874401198087
 20
-137.0837944535763
 10
80.54874401198087
 20
-137.0837944535763
 10
80.42179224334942
 20
-137.0751817148632
 10
80.30965438530454
 20
-137.0645019188589
 10
80.19114310061194
 20
-136.9842311940526
 10
80.03042939622503
 20
-136.8743326480731
 10
79.99649520569533
 20
-136.6882974918696
 10
79.99649520569533
 20
-136.5718532644682
 10
79.99649520569533
 20
-136.2945230779056
 10
80.18063555938193
 20
-136.087472839242
 10
80.45348712181371
 20
-136.087472839242
 10
80.68189695248579
 20
-136.087472839242
 10
80.7814602120095
 20
-136.203572557095
 10
81.00780298539041
 20
-136.5125976221219
 97
        0
 97
        0
 75
     2
 76
     1
 98
        0
  0
ENDBLK
  5
190
330
18D
100
AcDbEntity
  8
0
100
AcDbBlockEnd
  0
ENDSEC
  0
SECTION
  2
ENTITIES
  0
SPLINE
  5
41
330
1F
100
AcDbEntity
  8
_U+30EC_U+30A4_U+30E4_U+30FC 1
370
     0
100
AcDbSpline
210
0.0
220
0.0
230
1.0
 70
    11
 71
     3
 72
   113
 73
   109
 74
     0
 42
0.0000000001
 43
0.0000000001
 12
1.0
 22
0.0
 32
0.0
 13
1.0
 23
0.0
 33
0.0
 40
0.0
 40
0.0
 40
0.0
 40
0.0
 40
1.0
 40
1.0
 40
1.0
 40
2.0
 40
2.0
 40
2.0
 40
3.0
 40
3.0
 40
3.0
 40
4.0
 40
4.0
 40
4.0
 40
5.0
 40
5.0
 40
5.0
 40
6.0
 40
6.0
 40
6.0
 40
7.0
 40
7.0
 40
7.0
 40
8.0
 40
8.0
 40
8.0
 40
9.0
 40
9.0
 40
9.0
 40
10.0
 40
10.0
 40
10.0
 40
11.0
 40
11.0
 40
11.0
 40
12.0
 40
12.0
 40
12.0
 40
13.0
 40
13.0
 40
13.0
 40
14.0
 40
14.0
 40
14.0
 40
15.0
 40
15.0
 40
15.0
 40
16.0
 40
16.0
 40
16.0
 40
17.0
 40
17.0
 40
17.0
 40
18.0
 40
18.0
 40
18.0
 40
19.0
 40
19.0
 40
19.0
 40
20.0
 40
20.0
 40
20.0
 40
21.0
 40
21.0
 40
21.0
 40
22.0
 40
22.0
 40
22.0
 40
23.0
 40
23.0
 40
23.0
 40
24.0
 40
24.0
 40
24.0
 40
25.0
 40
25.0
 40
25.0
 40
26.0
 40
26.0
 40
26.0
 40
27.0
 40
27.0
 40
27.0
 40
28.0
 40
28.0
 40
28.0
 40
29.0
 40
29.0
 40
29.0
 40
30.0
 40
30.0
 40
30.0
 40
31.0
 40
31.0
 40
31.0
 40
32.0
 40
32.0
 40
32.0
 40
33.0
 40
33.0
 40
33.0
 40
34.0
 40
34.0
 40
34.0
 40
35.0
 40
35.0
 40
35.0
 40
36.0
 40
36.0
 40
36.0
 40
36.0
 10
98.63514720582998
 20
-137.4696330211882
 30
0.0
 10
98.62551637274234
 20
-137.4696330211882
 30
0.0
 10
98.61793165071363
 20
-137.4620835767458
 30
0.0
 10
98.61793165071363
 20
-137.4524174656368
 30
0.0
 10
98.61793165071363
 20
-137.4524174656368
 30
0.0
 10
96.15296754693343
 20
-137.4524174656368
 30
0.0
 10
96.15296754693343
 20
-137.4524174656368
 30
0.0
 10
96.15296754693343
 20
-137.4620835767458
 30
0.0
 10
96.14503004713593
 20
-137.4696330211882
 30
0.0
 10
96.1353992140483
 20
-137.4696330211882
 30
0.0
 10
96.1353992140483
 20
-137.4696330211882
 30
0.0
 10
96.1353992140483
 20
-138.1524696876844
 30
0.0
 10
96.1353992140483
 20
-138.1524696876844
 30
0.0
 10
96.1353992140483
 20
-138.1524696876844
 30
0.0
 10
97.93509500146757
 20
-138.1524696876844
 30
0.0
 10
97.93509500146757
 20
-138.1524696876844
 30
0.0
 10
97.93509500146757
 20
-138.1524696876844
 30
0.0
 10
97.93509500146757
 20
-139.252148576298
 30
0.0
 10
97.93509500146757
 20
-139.252148576298
 30
0.0
 10
97.93509500146757
 20
-139.252148576298
 30
0.0
 10
91.98542737547847
 20
-139.252148576298
 30
0.0
 10
91.98542737547847
 20
-139.252148576298
 30
0.0
 10
91.98542737547847
 20
-139.252148576298
 30
0.0
 10
91.98542737547847
 20
-118.9520805258175
 30
0.0
 10
91.98542737547847
 20
-118.9520805258175
 30
0.0
 10
91.98542737547847
 20
-118.9520805258175
 30
0.0
 10
92.98519957219438
 20
-119.4523194145812
 30
0.0
 10
92.98519957219438
 20
-119.4523194145812
 30
0.0
 10
92.98519957219438
 20
-119.4523194145812
 30
0.0
 10
92.98519957219438
 20
-118.4521944148316
 30
0.0
 10
92.98519957219438
 20
-118.4521944148316
 30
0.0
 10
92.98519957219438
 20
-118.4521944148316
 30
0.0
 10
91.85659293432086
 20
-117.5309858039506
 30
0.0
 10
91.85659293432086
 20
-117.5309858039506
 30
0.0
 10
91.79492738033852
 20
-117.4805033039631
 30
0.0
 10
91.72084404889522
 20
-117.4605360817459
 30
0.0
 10
91.6467607174519
 20
-117.4581019150801
 30
0.0
 10
91.64365627308666
 20
-117.463287748412
 30
0.0
 10
91.64161016202775
 20
-117.4696730261883
 30
0.0
 10
91.63540127329726
 20
-117.4696730261883
 30
0.0
 10
91.62781655126854
 20
-117.4696730261883
 30
0.0
 10
91.62368905137384
 20
-117.4625821928565
 30
0.0
 10
91.62129016254616
 20
-117.4558794150806
 30
0.0
 10
91.52480544278546
 20
-117.4598305261907
 30
0.0
 10
91.43008461186865
 20
-117.5001530261804
 30
0.0
 10
91.36393878022284
 20
-117.5809391372714
 30
0.0
 10
91.3129271148576
 20
-117.643310248367
 30
0.0
 10
91.28537517111606
 20
-117.7214858039029
 30
0.0
 10
91.28537517111606
 20
-117.8020955261051
 30
0.0
 10
91.28537517111606
 20
-117.8020955261051
 30
0.0
 10
91.28537517111606
 20
-139.252148576298
 30
0.0
 10
91.28537517111606
 20
-139.252148576298
 30
0.0
 10
91.28537517111606
 20
-139.252148576298
 30
0.0
 10
85.33535476735817
 20
-139.252148576298
 30
0.0
 10
85.33535476735817
 20
-139.252148576298
 30
0.0
 10
85.33535476735817
 20
-139.252148576298
 30
0.0
 10
85.33535476735817
 20
-138.1524696876844
 30
0.0
 10
85.33535476735817
 20
-138.1524696876844
 30
0.0
 10
85.33535476735817
 20
-138.1524696876844
 30
0.0
 10
87.13540553377156
 20
-138.1524696876844
 30
0.0
 10
87.13540553377156
 20
-138.1524696876844
 30
0.0
 10
87.13540553377156
 20
-138.1524696876844
 30
0.0
 10
87.13540553377156
 20
-137.4524174656368
 30
0.0
 10
87.13540553377156
 20
-137.4524174656368
 30
0.0
 10
87.13540553377156
 20
-137.4524174656368
 30
0.0
 10
84.63530256299576
 20
-137.4524174656368
 30
0.0
 10
84.63530256299576
 20
-137.4524174656368
 30
0.0
 10
84.63530256299576
 20
-137.4524174656368
 30
0.0
 10
84.63530256299576
 20
-139.252148576298
 30
0.0
 10
84.63530256299576
 20
-139.252148576298
 30
0.0
 10
84.63530256299576
 20
-139.252148576298
 30
0.0
 10
83.58525953422904
 20
-139.252148576298
 30
0.0
 10
83.58525953422904
 20
-139.252148576298
 30
0.0
 10
83.58525953422904
 20
-139.252148576298
 30
0.0
 10
83.58525953422904
 20
-137.4524174656368
 30
0.0
 10
83.58525953422904
 20
-137.4524174656368
 30
0.0
 10
83.58525953422904
 20
-137.4524174656368
 30
0.0
 10
82.88556010763541
 20
-137.4524174656368
 30
0.0
 10
82.88556010763541
 20
-137.4524174656368
 30
0.0
 10
82.88556010763541
 20
-137.4524174656368
 30
0.0
 10
82.88556010763541
 20
-139.9342796872386
 30
0.0
 10
82.88556010763541
 20
-139.9342796872386
 30
0.0
 10
82.89519094072304
 20
-139.9342796872386
 30
0.0
 10
82.90277775705209
 20
-139.9425346872366
 30
0.0
 10
82.90277775705209
 20
-139.9521655205674
 30
0.0
 10
82.90277775705209
 20
-139.9521655205674
 30
0.0
 10
100.367674106074
 20
-139.9521655205674
 30
0.0
 10
100.367674106074
 20
-139.9521655205674
 30
0.0
 10
100.367674106074
 20
-139.9425346872366
 30
0.0
 10
100.3756116058715
 20
-139.9342796872386
 30
0.0
 10
100.3852424389591
 20
-139.9342796872386
 30
0.0
 10
100.3852424389591
 20
-139.9342796872386
 30
0.0
 10
100.3852424389591
 20
-137.4696330211882
 30
0.0
 10
100.3852424389591
 20
-137.4696330211882
 30
0.0
 10
100.3756116058715
 20
-137.4696330211882
 30
0.0
 10
100.367674106074
 20
-137.4620835767458
 30
0.0
 10
100.367674106074
 20
-137.4524174656368
 30
0.0
 10
100.367674106074
 20
-137.4524174656368
 30
0.0
 10
99.68522551237358
 20
-137.4524174656368
 30
0.0
 10
99.68522551237358
 20
-137.4524174656368
 30
0.0
 10
99.68522551237358
 20
-137.4524174656368
 30
0.0
 10
99.68522551237358
 20
-139.252148576298
 30
0.0
 10
99.68522551237358
 20
-139.252148576298
 30
0.0
 10
99.68522551237358
 20
-139.252148576298
 30
0.0
 10
98.63514720582998
 20
-139.252148576298
 30
0.0
 10
98.63514720582998
 20
-139.252148576298
 30
0.0
 10
98.63514720582998
 20
-139.252148576298
 30
0.0
 10
98.63514720582998
 20
-137.4696330211882
 30
0.0
 10
98.63514720582998
 20
-137.4696330211882
 30
0.0
  0
HATCH
  5
42
330
1F
100
AcDbEntity
  8
_U+30EC_U+30A4_U+30E4_U+30FC 1
 62
   253
420
 11711154
100
AcDbHatch
 10
0.0
 20
0.0
 30
0.0
210
0.0
220
0.0
230
1.0
  2
SOLID
 70
     1
 71
     0
 91
        1
 92
        1
 93
        1
 72
     4
 94
        3
 73
     0
 74
     1
 95
      113
 96
      109
 40
0.0
 40
0.0
 40
0.0
 40
0.0
 40
1.0
 40
1.0
 40
1.0
 40
2.0
 40
2.0
 40
2.0
 40
3.0
 40
3.0
 40
3.0
 40
4.0
 40
4.0
 40
4.0
 40
5.0
 40
5.0
 40
5.0
 40
6.0
 40
6.0
 40
6.0
 40
7.0
 40
7.0
 40
7.0
 40
8.0
 40
8.0
 40
8.0
 40
9.0
 40
9.0
 40
9.0
 40
10.0
 40
10.0
 40
10.0
 40
11.0
 40
11.0
 40
11.0
 40
12.0
 40
12.0
 40
12.0
 40
13.0
 40
13.0
 40
13.0
 40
14.0
 40
14.0
 40
14.0
 40
15.0
 40
15.0
 40
15.0
 40
16.0
 40
16.0
 40
16.0
 40
17.0
 40
17.0
 40
17.0
 40
18.0
 40
18.0
 40
18.0
 40
19.0
 40
19.0
 40
19.0
 40
20.0
 40
20.0
 40
20.0
 40
21.0
 40
21.0
 40
21.0
 40
22.0
 40
22.0
 40
22.0
 40
23.0
 40
23.0
 40
23.0
 40
24.0
 40
24.0
 40
24.0
 40
25.0
 40
25.0
 40
25.0
 40
26.0
 40
26.0
 40
26.0
 40
27.0
 40
27.0
 40
27.0
 40
28.0
 40
28.0
 40
28.0
 40
29.0
 40
29.0
 40
29.0
 40
30.0
 40
30.0
 40
30.0
 40
31.0
 40
31.0
 40
31.0
 40
32.0
 40
32.0
 40
32.0
 40
33.0
 40
33.0
 40
33.0
 40
34.0
 40
34.0
 40
34.0
 40
35.0
 40
35.0
 40
35.0
 40
36.0
 40
36.0
 40
36.0
 40
36.0
 10
98.63514720582998
 20
-137.4696330211882
 10
98.62551637274234
 20
-137.4696330211882
 10
98.61793165071363
 20
-137.4620835767458
 10
98.61793165071363
 20
-137.4524174656368
 10
98.61793165071363
 20
-137.4524174656368
 10
96.15296754693343
 20
-137.4524174656368
 10
96.15296754693343
 20
-137.4524174656368
 10
96.15296754693343
 20
-137.4620835767458
 10
96.14503004713593
 20
-137.4696330211882
 10
96.1353992140483
 20
-137.4696330211882
 10
96.1353992140483
 20
-137.4696330211882
 10
96.1353992140483
 20
-138.1524696876844
 10
96.1353992140483
 20
-138.1524696876844
 10
96.1353992140483
 20
-138.1524696876844
 10
97.93509500146757
 20
-138.1524696876844
 10
97.93509500146757
 20
-138.1524696876844
 10
97.93509500146757
 20
-138.1524696876844
 10
97.93509500146757
 20
-139.252148576298
 10
97.93509500146757
 20
-139.252148576298
 10
97.93509500146757
 20
-139.252148576298
 10
91.98542737547847
 20
-139.252148576298
 10
91.98542737547847
 20
-139.252148576298
 10
91.98542737547847
 20
-139.252148576298
 10
91.98542737547847
 20
-118.9520805258175
 10
91.98542737547847
 20
-118.9520805258175
 10
91.98542737547847
 20
-118.9520805258175
 10
92.98519957219438
 20
-119.4523194145812
 10
92.98519957219438
 20
-119.4523194145812
 10
92.98519957219438
 20
-119.4523194145812
 10
92.98519957219438
 20
-118.4521944148316
 10
92.98519957219438
 20
-118.4521944148316
 10
92.98519957219438
 20
-118.4521944148316
 10
91.85659293432086
 20
-117.5309858039506
 10
91.85659293432086
 20
-117.5309858039506
 10
91.79492738033852
 20
-117.4805033039631
 10
91.72084404889522
 20
-117.4605360817459
 10
91.6467607174519
 20
-117.4581019150801
 10
91.64365627308666
 20
-117.463287748412
 10
91.64161016202775
 20
-117.4696730261883
 10
91.63540127329726
 20
-117.4696730261883
 10
91.62781655126854
 20
-117.4696730261883
 10
91.62368905137384
 20
-117.4625821928565
 10
91.62129016254616
 20
-117.4558794150806
 10
91.52480544278546
 20
-117.4598305261907
 10
91.43008461186865
 20
-117.5001530261804
 10
91.36393878022284
 20
-117.5809391372714
 10
91.3129271148576
 20
-117.643310248367
 10
91.28537517111606
 20
-117.7214858039029
 10
91.28537517111606
 20
-117.8020955261051
 10
91.28537517111606
 20
-117.8020955261051
 10
91.28537517111606
 20
-139.252148576298
 10
91.28537517111606
 20
-139.252148576298
 10
91.28537517111606
 20
-139.252148576298
 10
85.33535476735817
 20
-139.252148576298
 10
85.33535476735817
 20
-139.252148576298
 10
85.33535476735817
 20
-139.252148576298
 10
85.33535476735817
 20
-138.1524696876844
 10
85.33535476735817
 20
-138.1524696876844
 10
85.33535476735817
 20
-138.1524696876844
 10
87.13540553377156
 20
-138.1524696876844
 10
87.13540553377156
 20
-138.1524696876844
 10
87.13540553377156
 20
-138.1524696876844
 10
87.13540553377156
 20
-137.4524174656368
 10
87.13540553377156
 20
-137.4524174656368
 10
87.13540553377156
 20
-137.4524174656368
 10
84.63530256299576
 20
-137.4524174656368
 10
84.63530256299576
 20
-137.4524174656368
 10
84.63530256299576
 20
-137.4524174656368
 10
84.63530256299576
 20
-139.252148576298
 10
84.63530256299576
 20
-139.252148576298
 10
84.63530256299576
 20
-139.252148576298
 10
83.58525953422904
 20
-139.252148576298
 10
83.58525953422904
 20
-139.252148576298
 10
83.58525953422904
 20
-139.252148576298
 10
83.58525953422904
 20
-137.4524174656368
 10
83.58525953422904
 20
-137.4524174656368
 10
83.58525953422904
 20
-137.4524174656368
 10
82.88556010763541
 20
-137.4524174656368
 10
82.88556010763541
 20
-137.4524174656368
 10
82.88556010763541
 20
-137.4524174656368
 10
82.88556010763541
 20
-139.9342796872386
 10
82.88556010763541
 20
-139.9342796872386
 10
82.89519094072304
 20
-139.9342796872386
 10
82.90277775705209
 20
-139.9425346872366
 10
82.90277775705209
 20
-139.9521655205674
 10
82.90277775705209
 20
-139.9521655205674
 10
100.367674106074
 20
-139.9521655205674
 10
100.367674106074
 20
-139.9521655205674
 10
100.367674106074
 20
-139.9425346872366
 10
100.3756116058715
 20
-139.9342796872386
 10
100.3852424389591
 20
-139.9342796872386
 10
100.3852424389591
 20
-139.9342796872386
 10
100.3852424389591
 20
-137.4696330211882
 10
100.3852424389591
 20
-137.4696330211882
 10
100.3756116058715
 20
-137.4696330211882
 10
100.367674106074
 20
-137.4620835767458
 10
100.367674106074
 20
-137.4524174656368
 10
100.367674106074
 20
-137.4524174656368
 10
99.68522551237358
 20
-137.4524174656368
 10
99.68522551237358
 20
-137.4524174656368
 10
99.68522551237358
 20
-137.4524174656368
 10
99.68522551237358
 20
-139.252148576298
 10
99.68522551237358
 20
-139.252148576298
 10
99.68522551237358
 20
-139.252148576298
 10
98.63514720582998
 20
-139.252148576298
 10
98.63514720582998
 20
-139.252148576298
 10
98.63514720582998
 20
-139.252148576298
 10
98.63514720582998
 20
-137.4696330211882
 10
98.63514720582998
 20
-137.4696330211882
 97
        0
 97
        0
 75
     2
 76
     1
 98
        0
  0
INSERT
  5
44
330
1F
100
AcDbEntity
  8
_U+30EC_U+30A4_U+30E4_U+30FC 1
100
AcDbBlockReference
  2
block 2
 10
0.0
 20
0.0
 30
0.0
  0
INSERT
  5
18E
330
1F
100
AcDbEntity
  8
_U+30EC_U+30A4_U+30E4_U+30FC 1
100
AcDbBlockReference
  2
block 21
 10
0.0
 20
0.0
 30
0.0
  0
POLYLINE
  5
19D
330
1F
100
AcDbEntity
  8
_U+30EC_U+30A4_U+30E4_U+30FC 1
 62
   179
420
  2234388
370
     9
100
AcDb2dPolyline
 66
     1
 10
0.0
 20
0.0
 30
0.0
  0
VERTEX
  5
19E
330
19D
100
AcDbEntity
  8
_U+30EC_U+30A4_U+30E4_U+30FC 1
 62
   179
420
  2234388
370
     9
100
AcDbVertex
100
AcDb2dVertex
 10
81.93538846520964
 20
-135.5672788549972
 30
0.0
  0
VERTEX
  5
19F
330
19D
100
AcDbEntity
  8
_U+30EC_U+30A4_U+30E4_U+30FC 1
 62
   179
420
  2234388
370
     9
100
AcDbVertex
100
AcDb2dVertex
 10
81.93538846520964
 20
-139.9521655205674
 30
0.0
  0
SEQEND
  5
1A0
330
19D
100
AcDbEntity
  8
_U+30EC_U+30A4_U+30E4_U+30FC 1
 62
   179
420
  2234388
370
     9
  0
POLYLINE
  5
1A1
330
1F
100
AcDbEntity
  8
_U+30EC_U+30A4_U+30E4_U+30FC 1
 62
   179
420
  2234388
370
     9
100
AcDb2dPolyline
 66
     1
 10
0.0
 20
0.0
 30
0.0
  0
VERTEX
  5
1A2
330
1A1
100
AcDbEntity
  8
_U+30EC_U+30A4_U+30E4_U+30FC 1
 62
   179
420
  2234388
370
     9
100
AcDbVertex
100
AcDb2dVertex
 10
81.20538542827802
 20
-139.252818854076
 30
0.0
  0
VERTEX
  5
1A3
330
1A1
100
AcDbEntity
  8
_U+30EC_U+30A4_U+30E4_U+30FC 1
 62
   179
420
  2234388
370
     9
100
AcDbVertex
100
AcDb2dVertex
 10
82.4352745635676
 20
-139.252818854076
 30
0.0
  0
SEQEND
  5
1A4
330
1A1
100
AcDbEntity
  8
_U+30EC_U+30A4_U+30E4_U+30FC 1
 62
   179
420
  2234388
370
     9
  0
POLYLINE
  5
1A5
330
1F
100
AcDbEntity
  8
_U+30EC_U+30A4_U+30E4_U+30FC 1
 62
   179
420
  2234388
370
     9
100
AcDb2dPolyline
 66
     1
 10
0.0
 20
0.0
 30
0.0
  0
VERTEX
  5
1A6
330
1A5
100
AcDbEntity
  8
_U+30EC_U+30A4_U+30E4_U+30FC 1
 62
   179
420
  2234388
370
     9
100
AcDbVertex
100
AcDb2dVertex
 10
81.20538542827802
 20
-139.9521655205674
 30
0.0
  0
VERTEX
  5
1A7
330
1A5
100
AcDbEntity
  8
_U+30EC_U+30A4_U+30E4_U+30FC 1
 62
   179
420
  2234388
370
     9
100
AcDbVertex
100
AcDb2dVertex
 10
82.4352745635676
 20
-139.9521655205674
 30
0.0
  0
SEQEND
  5
1A8
330
1A5
100
AcDbEntity
  8
_U+30EC_U+30A4_U+30E4_U+30FC 1
 62
   179
420
  2234388
370
     9
  0
SPLINE
  5
1A9
330
1F
100
AcDbEntity
  8
_U+30EC_U+30A4_U+30E4_U+30FC 1
 62
   179
420
  2234388
370
     9
100
AcDbSpline
210
0.0
220
0.0
230
1.0
 70
    11
 71
     3
 72
    17
 73
    13
 74
     0
 42
0.0000000001
 43
0.0000000001
 12
1.0
 22
0.0
 32
0.0
 13
1.0
 23
0.0
 33
0.0
 40
0.0
 40
0.0
 40
0.0
 40
0.0
 40
1.0
 40
1.0
 40
1.0
 40
2.0
 40
2.0
 40
2.0
 40
3.0
 40
3.0
 40
3.0
 40
4.0
 40
4.0
 40
4.0
 40
4.0
 10
81.98498901949979
 20
-139.9521655205674
 30
0.0
 10
81.98498901949979
 20
-139.9246135761296
 30
0.0
 10
81.9622722017316
 20
-139.9025649650241
 30
0.0
 10
81.93471818744896
 20
-139.9025649650241
 30
0.0
 10
81.90713096593056
 20
-139.9025649650241
 30
0.0
 10
81.88508235538195
 20
-139.9246135761296
 30
0.0
 10
81.88508235538195
 20
-139.9521655205674
 30
0.0
 10
81.88508235538195
 20
-139.9797527427827
 30
0.0
 10
81.90713096593056
 20
-140.0024716316663
 30
0.0
 10
81.93471818744896
 20
-140.0024716316663
 30
0.0
 10
81.9622722017316
 20
-140.0024716316663
 30
0.0
 10
81.98498901949979
 20
-139.9797527427827
 30
0.0
 10
81.98498901949979
 20
-139.9521655205674
 30
0.0
  0
SPLINE
  5
1AA
330
1F
100
AcDbEntity
  8
_U+30EC_U+30A4_U+30E4_U+30FC 1
 62
   179
420
  2234388
370
     9
100
AcDbSpline
210
0.0
220
0.0
230
1.0
 70
    11
 71
     3
 72
    17
 73
    13
 74
     0
 42
0.0000000001
 43
0.0000000001
 12
1.0
 22
0.0
 32
0.0
 13
1.0
 23
0.0
 33
0.0
 40
0.0
 40
0.0
 40
0.0
 40
0.0
 40
1.0
 40
1.0
 40
1.0
 40
2.0
 40
2.0
 40
2.0
 40
3.0
 40
3.0
 40
3.0
 40
4.0
 40
4.0
 40
4.0
 40
4.0
 10
81.98534179726856
 20
-139.252818854076
 30
0.0
 10
81.98534179726856
 20
-139.2252669096382
 30
0.0
 10
81.96294040895118
 20
-139.2025127429771
 30
0.0
 10
81.93538846520964
 20
-139.2025127429771
 30
0.0
 10
81.90783652146811
 20
-139.2025127429771
 30
0.0
 10
81.88543513315074
 20
-139.2252669096382
 30
0.0
 10
81.88543513315074
 20
-139.252818854076
 30
0.0
 10
81.88543513315074
 20
-139.2803707985131
 30
0.0
 10
81.90783652146811
 20
-139.3024194096187
 30
0.0
 10
81.93538846520964
 20
-139.3024194096187
 30
0.0
 10
81.96294040895118
 20
-139.3024194096187
 30
0.0
 10
81.98534179726856
 20
-139.2803707985131
 30
0.0
 10
81.98534179726856
 20
-139.252818854076
 30
0.0
  0
ENDSEC
  0
SECTION
  2
OBJECTS
  0
DICTIONARY
  5
C
330
0
100
AcDbDictionary
281
     1
  3
ACAD_GROUP
350
D
  3
ACAD_LAYOUT
350
1A
  3
ACAD_MATERIAL
350
3B
  3
ACAD_MLEADERSTYLE
350
1AC
  3
ACAD_MLINESTYLE
350
17
  3
ACAD_PLOTSETTINGS
350
19
  3
ACAD_PLOTSTYLENAME
350
E
  3
ACAD_TABLESTYLE
350
1AB
  3
ACAD_VISUALSTYLE
350
2A
  0
SUN
  5
3F
330
29
100
AcDbSun
 90
        1
290
     0
 63
     7
421
 16777215
 40
1.0
291
     1
 91
  2455826
 92
 54000000
292
     0
 70
     2
 71
   256
280
     1
  0
DICTIONARY
  5
D
102
{ACAD_REACTORS
330
C
102
}
330
C
100
AcDbDictionary
281
     1
  0
DICTIONARY
  5
1A
102
{ACAD_REACTORS
330
C
102
}
330
C
100
AcDbDictionary
281
     1
  3
Layout1
350
1E
  3
Layout2
350
26
  3
Model
350
22
  0
DICTIONARY
  5
3B
102
{ACAD_REACTORS
330
C
102
}
330
C
100
AcDbDictionary
281
     1
  3
ByBlock
350
3D
  3
ByLayer
350
3C
  3
Global
350
3E
  0
DICTIONARY
  5
1AC
102
{ACAD_REACTORS
330
C
102
}
330
C
100
AcDbDictionary
281
     1
  0
DICTIONARY
  5
17
102
{ACAD_REACTORS
330
C
102
}
330
C
100
AcDbDictionary
281
     1
  3
Standard
350
18
  0
DICTIONARY
  5
19
102
{ACAD_REACTORS
330
C
102
}
330
C
100
AcDbDictionary
281
     1
  0
ACDBDICTIONARYWDFLT
  5
E
102
{ACAD_REACTORS
330
C
102
}
330
C
100
AcDbDictionary
281
     1
  3
Normal
350
F
100
AcDbDictionaryWithDefault
340
F
  0
DICTIONARY
  5
1AB
102
{ACAD_REACTORS
330
C
102
}
330
C
100
AcDbDictionary
281
     1
  0
DICTIONARY
  5
2A
102
{ACAD_REACTORS
330
C
102
}
330
C
100
AcDbDictionary
281
     1
  3
2dWireframe
350
2F
  3
3D Hidden
350
31
  3
3dWireframe
350
30
  3
Basic
350
32
  3
Brighten
350
36
  3
ColorChange
350
3A
  3
Conceptual
350
34
  3
Dim
350
35
  3
Facepattern
350
39
  3
Flat
350
2B
  3
FlatWithEdges
350
2C
  3
Gouraud
350
2D
  3
GouraudWithEdges
350
2E
  3
Linepattern
350
38
  3
Realistic
350
33
  3
Thicken
350
37
  0
LAYOUT
  5
1E
102
{ACAD_REACTORS
330
1A
102
}
330
1A
100
AcDbPlotSettings
  1

  2
none_device
  4

  6

 40
0.0
 41
0.0
 42
0.0
 43
0.0
 44
0.0
 45
0.0
 46
0.0
 47
0.0
 48
0.0
 49
0.0
140
0.0
141
0.0
142
1.0
143
1.0
 70
   688
 72
     0
 73
     0
 74
     5
  7

 75
    16
 76
     0
 77
     2
 78
   300
147
1.0
148
0.0
149
0.0
100
AcDbLayout
  1
Layout1
 70
     1
 71
     1
 10
0.0
 20
0.0
 11
12.0
 21
9.0
 12
0.0
 22
0.0
 32
0.0
 14
1.000000000000000E+20
 24
1.000000000000000E+20
 34
1.000000000000000E+20
 15
-1.000000000000000E+20
 25
-1.000000000000000E+20
 35
-1.000000000000000E+20
146
0.0
 13
0.0
 23
0.0
 33
0.0
 16
1.0
 26
0.0
 36
0.0
 17
0.0
 27
1.0
 37
0.0
 76
     0
330
1B
  0
LAYOUT
  5
26
102
{ACAD_REACTORS
330
1A
102
}
330
1A
100
AcDbPlotSettings
  1

  2
none_device
  4

  6

 40
0.0
 41
0.0
 42
0.0
 43
0.0
 44
0.0
 45
0.0
 46
0.0
 47
0.0
 48
0.0
 49
0.0
140
0.0
141
0.0
142
1.0
143
1.0
 70
   688
 72
     0
 73
     0
 74
     5
  7

 75
    16
 76
     0
 77
     2
 78
   300
147
1.0
148
0.0
149
0.0
100
AcDbLayout
  1
Layout2
 70
     1
 71
     2
 10
0.0
 20
0.0
 11
0.0
 21
0.0
 12
0.0
 22
0.0
 32
0.0
 14
0.0
 24
0.0
 34
0.0
 15
0.0
 25
0.0
 35
0.0
146
0.0
 13
0.0
 23
0.0
 33
0.0
 16
1.0
 26
0.0
 36
0.0
 17
0.0
 27
1.0
 37
0.0
 76
     0
330
23
  0
LAYOUT
  5
22
102
{ACAD_REACTORS
330
1A
102
}
330
1A
100
AcDbPlotSettings
  1

  2
none_device
  4

  6

 40
0.0
 41
0.0
 42
0.0
 43
0.0
 44
0.0
 45
0.0
 46
0.0
 47
0.0
 48
0.0
 49
0.0
140
0.0
141
0.0
142
1.0
143
1.0
 70
  1712
 72
     0
 73
     0
 74
     0
  7

 75
     0
 76
     0
 77
     2
 78
   300
147
1.0
148
0.0
149
0.0
100
AcDbLayout
  1
Model
 70
     1
 71
     0
 10
0.0
 20
0.0
 11
12.0
 21
9.0
 12
0.0
 22
0.0
 32
0.0
 14
1.000000000000000E+20
 24
1.000000000000000E+20
 34
1.000000000000000E+20
 15
-1.000000000000000E+20
 25
-1.000000000000000E+20
 35
-1.000000000000000E+20
146
0.0
 13
0.0
 23
0.0
 33
0.0
 16
1.0
 26
0.0
 36
0.0
 17
0.0
 27
1.0
 37
0.0
 76
     0
330
1F
331
29
  0
MATERIAL
  5
3D
102
{ACAD_REACTORS
330
3B
102
}
330
3B
100
AcDbMaterial
  1
ByBlock
 72
     1
 94
      127
  0
MATERIAL
  5
3C
102
{ACAD_REACTORS
330
3B
102
}
330
3B
100
AcDbMaterial
  1
ByLayer
 72
     1
 94
      127
  0
MATERIAL
  5
3E
102
{ACAD_REACTORS
330
3B
102
}
330
3B
100
AcDbMaterial
  1
Global
 72
     1
 94
      127
  0
MLINESTYLE
  5
18
102
{ACAD_REACTORS
330
17
102
}
330
17
100
AcDbMlineStyle
  2
Standard
 70
     0
  3

 62
   256
 51
90.0
 52
90.0
 71
     2
 49
0.5
 62
   256
  6
BYLAYER
 49
-0.5
 62
   256
  6
BYLAYER
  0
ACDBPLACEHOLDER
  5
F
102
{ACAD_REACTORS
330
E
102
}
330
E
  0
VISUALSTYLE
  5
2F
102
{ACAD_REACTORS
330
2A
102
}
330
2A
100
AcDbVisualStyle
  2
2dWireframe
 70
     4
177
     2
291
     0
 71
     0
176
     1
 72
     2
176
     1
 73
     0
176
     1
 90
        0
176
     1
 40
-0.6
176
     1
 41
-30.0
176
     1
 62
     5
 63
     7
421
 16777215
176
     1
 74
     1
176
     1
 91
        4
176
     1
 64
     7
176
     1
 65
   257
176
     1
 75
     1
176
     1
175
     1
176
     1
 42
1.0
176
     1
 92
        0
176
     1
 66
   257
176
     1
 43
1.0
176
     1
 76
     1
176
     1
 77
     6
176
     1
 78
     2
176
     1
 67
     7
176
     1
 79
     5
176
     1
170
     0
176
     1
171
     0
176
     1
290
     0
176
     1
 93
        1
176
     1
 44
0.0
176
     1
173
     0
176
     1
  0
VISUALSTYLE
  5
31
102
{ACAD_REACTORS
330
2A
102
}
330
2A
100
AcDbVisualStyle
  2
3D Hidden
 70
     6
177
     2
291
     0
 71
     1
176
     1
 72
     2
176
     1
 73
     2
176
     1
 90
        0
176
     1
 40
-0.6
176
     1
 41
-30.0
176
     1
 62
     5
 63
     7
421
 16777215
176
     1
 74
     2
176
     1
 91
        2
176
     1
 64
     7
176
     1
 65
   257
176
     1
 75
     2
176
     1
175
     1
176
     1
 42
40.0
176
     1
 92
        0
176
     1
 66
   257
176
     1
 43
1.0
176
     1
 76
     1
176
     1
 77
     6
176
     1
 78
     2
176
     1
 67
     7
176
     1
 79
     3
176
     1
170
     0
176
     1
171
     0
176
     1
290
     0
176
     1
 93
        1
176
     1
 44
0.0
176
     1
173
     0
176
     1
  0
VISUALSTYLE
  5
30
102
{ACAD_REACTORS
330
2A
102
}
330
2A
100
AcDbVisualStyle
  2
3dWireframe
 70
     5
177
     2
291
     0
 71
     0
176
     1
 72
     2
176
     1
 73
     0
176
     1
 90
        0
176
     1
 40
-0.6
176
     1
 41
-30.0
176
     1
 62
     5
 63
     7
421
 16777215
176
     1
 74
     1
176
     1
 91
        4
176
     1
 64
     7
176
     1
 65
   257
176
     1
 75
     1
176
     1
175
     1
176
     1
 42
1.0
176
     1
 92
        0
176
     1
 66
   257
176
     1
 43
1.0
176
     1
 76
     1
176
     1
 77
     6
176
     1
 78
     2
176
     1
 67
     7
176
     1
 79
     5
176
     1
170
     0
176
     1
171
     0
176
     1
290
     0
176
     1
 93
        1
176
     1
 44
0.0
176
     1
173
     0
176
     1
  0
VISUALSTYLE
  5
32
102
{ACAD_REACTORS
330
2A
102
}
330
2A
100
AcDbVisualStyle
  2
Basic
 70
     7
177
     2
291
     1
 71
     1
176
     1
 72
     0
176
     1
 73
     1
176
     1
 90
        0
176
     1
 40
-0.6
176
     1
 41
-30.0
176
     1
 62
     5
 63
     7
421
 16777215
176
     1
 74
     0
176
     1
 91
        4
176
     1
 64
     7
176
     1
 65
   257
176
     1
 75
     1
176
     1
175
     1
176
     1
 42
1.0
176
     1
 92
        8
176
     1
 66
     7
176
     1
 43
1.0
176
     1
 76
     1
176
     1
 77
     6
176
     1
 78
     2
176
     1
 67
     7
176
     1
 79
     5
176
     1
170
     0
176
     1
171
     0
176
     1
290
     0
176
     1
 93
        1
176
     1
 44
0.0
176
     1
173
     0
176
     1
  0
VISUALSTYLE
  5
36
102
{ACAD_REACTORS
330
2A
102
}
330
2A
100
AcDbVisualStyle
  2
Brighten
 70
    12
177
     2
291
     1
 71
     2
176
     1
 72
     2
176
     1
 73
     0
176
     1
 90
        0
176
     1
 40
-0.6
176
     1
 41
-30.0
176
     1
 62
     5
 63
     7
421
 16777215
176
     1
 74
     1
176
     1
 91
        4
176
     1
 64
     7
176
     1
 65
   257
176
     1
 75
     1
176
     1
175
     1
176
     1
 42
1.0
176
     1
 92
        8
176
     1
 66
     7
176
     1
 43
1.0
176
     1
 76
     1
176
     1
 77
     6
176
     1
 78
     2
176
     1
 67
     7
176
     1
 79
     5
176
     1
170
     0
176
     1
171
     0
176
     1
290
     0
176
     1
 93
        1
176
     1
 44
50.0
176
     1
173
     0
176
     1
  0
VISUALSTYLE
  5
3A
102
{ACAD_REACTORS
330
2A
102
}
330
2A
100
AcDbVisualStyle
  2
ColorChange
 70
    16
177
     2
291
     1
 71
     2
176
     1
 72
     2
176
     1
 73
     3
176
     1
 90
        0
176
     1
 40
-0.6
176
     1
 41
-30.0
176
     1
 62
     5
 63
     8
421
  8421504
176
     1
 74
     1
176
     1
 91
        4
176
     1
 64
     7
176
     1
 65
   257
176
     1
 75
     1
176
     1
175
     1
176
     1
 42
1.0
176
     1
 92
        8
176
     1
 66
     8
424
  8421504
176
     1
 43
1.0
176
     1
 76
     1
176
     1
 77
     6
176
     1
 78
     2
176
     1
 67
     7
176
     1
 79
     5
176
     1
170
     0
176
     1
171
     0
176
     1
290
     0
176
     1
 93
        1
176
     1
 44
0.0
176
     1
173
     0
176
     1
  0
VISUALSTYLE
  5
34
102
{ACAD_REACTORS
330
2A
102
}
330
2A
100
AcDbVisualStyle
  2
Conceptual
 70
     9
177
     2
291
     0
 71
     3
176
     1
 72
     2
176
     1
 73
     0
176
     1
 90
        0
176
     1
 40
-0.6
176
     1
 41
-30.0
176
     1
 62
     5
 63
     7
421
 16777215
176
     1
 74
     2
176
     1
 91
        2
176
     1
 64
     7
176
     1
 65
   257
176
     1
 75
     1
176
     1
175
     1
176
     1
 42
40.0
176
     1
 92
        8
176
     1
 66
     7
176
     1
 43
1.0
176
     1
 76
     1
176
     1
 77
     6
176
     1
 78
     2
176
     1
 67
     7
176
     1
 79
     3
176
     1
170
     0
176
     1
171
     0
176
     1
290
     0
176
     1
 93
        1
176
     1
 44
0.0
176
     1
173
     0
176
     1
  0
VISUALSTYLE
  5
35
102
{ACAD_REACTORS
330
2A
102
}
330
2A
100
AcDbVisualStyle
  2
Dim
 70
    11
177
     2
291
     1
 71
     2
176
     1
 72
     2
176
     1
 73
     0
176
     1
 90
        0
176
     1
 40
-0.6
176
     1
 41
-30.0
176
     1
 62
     5
 63
     7
421
 16777215
176
     1
 74
     1
176
     1
 91
        4
176
     1
 64
     7
176
     1
 65
   257
176
     1
 75
     1
176
     1
175
     1
176
     1
 42
1.0
176
     1
 92
        8
176
     1
 66
     7
176
     1
 43
1.0
176
     1
 76
     1
176
     1
 77
     6
176
     1
 78
     2
176
     1
 67
     7
176
     1
 79
     5
176
     1
170
     0
176
     1
171
     0
176
     1
290
     0
176
     1
 93
        1
176
     1
 44
-50.0
176
     1
173
     0
176
     1
  0
VISUALSTYLE
  5
39
102
{ACAD_REACTORS
330
2A
102
}
330
2A
100
AcDbVisualStyle
  2
Facepattern
 70
    15
177
     2
291
     1
 71
     2
176
     1
 72
     2
176
     1
 73
     0
176
     1
 90
        0
176
     1
 40
-0.6
176
     1
 41
-30.0
176
     1
 62
     5
 63
     7
421
 16777215
176
     1
 74
     1
176
     1
 91
        4
176
     1
 64
     7
176
     1
 65
   257
176
     1
 75
     1
176
     1
175
     1
176
     1
 42
1.0
176
     1
 92
        8
176
     1
 66
     7
176
     1
 43
1.0
176
     1
 76
     1
176
     1
 77
     6
176
     1
 78
     2
176
     1
 67
     7
176
     1
 79
     5
176
     1
170
     0
176
     1
171
     0
176
     1
290
     0
176
     1
 93
        1
176
     1
 44
0.0
176
     1
173
     0
176
     1
  0
VISUALSTYLE
  5
2B
102
{ACAD_REACTORS
330
2A
102
}
330
2A
100
AcDbVisualStyle
  2
Flat
 70
     0
177
     2
291
     1
 71
     2
176
     1
 72
     1
176
     1
 73
     1
176
     1
 90
        2
176
     1
 40
-0.6
176
     1
 41
30.0
176
     1
 62
     5
 63
     7
421
 16777215
176
     1
 74
     0
176
     1
 91
        4
176
     1
 64
     7
176
     1
 65
   257
176
     1
 75
     1
176
     1
175
     1
176
     1
 42
1.0
176
     1
 92
        8
176
     1
 66
     7
176
     1
 43
1.0
176
     1
 76
     1
176
     1
 77
     6
176
     1
 78
     2
176
     1
 67
     7
176
     1
 79
     5
176
     1
170
     0
176
     1
171
     0
176
     1
290
     0
176
     1
 93
       13
176
     1
 44
0.0
176
     1
173
     0
176
     1
  0
VISUALSTYLE
  5
2C
102
{ACAD_REACTORS
330
2A
102
}
330
2A
100
AcDbVisualStyle
  2
FlatWithEdges
 70
     1
177
     2
291
     1
 71
     2
176
     1
 72
     1
176
     1
 73
     1
176
     1
 90
        2
176
     1
 40
-0.6
176
     1
 41
30.0
176
     1
 62
     5
 63
     7
421
 16777215
176
     1
 74
     1
176
     1
 91
        4
176
     1
 64
     7
176
     1
 65
   257
176
     1
 75
     1
176
     1
175
     1
176
     1
 42
1.0
176
     1
 92
        0
176
     1
 66
   257
176
     1
 43
1.0
176
     1
 76
     1
176
     1
 77
     6
176
     1
 78
     2
176
     1
 67
     7
176
     1
 79
     5
176
     1
170
     0
176
     1
171
     0
176
     1
290
     0
176
     1
 93
       13
176
     1
 44
0.0
176
     1
173
     0
176
     1
  0
VISUALSTYLE
  5
2D
102
{ACAD_REACTORS
330
2A
102
}
330
2A
100
AcDbVisualStyle
  2
Gouraud
 70
     2
177
     2
291
     1
 71
     2
176
     1
 72
     2
176
     1
 73
     1
176
     1
 90
        2
176
     1
 40
-0.6
176
     1
 41
30.0
176
     1
 62
     5
 63
     7
421
 16777215
176
     1
 74
     0
176
     1
 91
        4
176
     1
 64
     7
176
     1
 65
   257
176
     1
 75
     1
176
     1
175
     1
176
     1
 42
1.0
176
     1
 92
        0
176
     1
 66
     7
176
     1
 43
1.0
176
     1
 76
     1
176
     1
 77
     6
176
     1
 78
     2
176
     1
 67
     7
176
     1
 79
     5
176
     1
170
     0
176
     1
171
     0
176
     1
290
     0
176
     1
 93
       13
176
     1
 44
0.0
176
     1
173
     0
176
     1
  0
VISUALSTYLE
  5
2E
102
{ACAD_REACTORS
330
2A
102
}
330
2A
100
AcDbVisualStyle
  2
GouraudWithEdges
 70
     3
177
     2
291
     1
 71
     2
176
     1
 72
     2
176
     1
 73
     1
176
     1
 90
        2
176
     1
 40
-0.6
176
     1
 41
30.0
176
     1
 62
     5
 63
     7
421
 16777215
176
     1
 74
     1
176
     1
 91
        4
176
     1
 64
     7
176
     1
 65
   257
176
     1
 75
     1
176
     1
175
     1
176
     1
 42
1.0
176
     1
 92
        0
176
     1
 66
   257
176
     1
 43
1.0
176
     1
 76
     1
176
     1
 77
     6
176
     1
 78
     2
176
     1
 67
     7
176
     1
 79
     5
176
     1
170
     0
176
     1
171
     0
176
     1
290
     0
176
     1
 93
       13
176
     1
 44
0.0
176
     1
173
     0
176
     1
  0
VISUALSTYLE
  5
38
102
{ACAD_REACTORS
330
2A
102
}
330
2A
100
AcDbVisualStyle
  2
Linepattern
 70
    14
177
     2
291
     1
 71
     2
176
     1
 72
     2
176
     1
 73
     0
176
     1
 90
        0
176
     1
 40
-0.6
176
     1
 41
-30.0
176
     1
 62
     5
 63
     7
421
 16777215
176
     1
 74
     1
176
     1
 91
        4
176
     1
 64
     7
176
     1
 65
   257
176
     1
 75
     7
176
     1
175
     7
176
     1
 42
1.0
176
     1
 92
        8
176
     1
 66
     7
176
     1
 43
1.0
176
     1
 76
     1
176
     1
 77
     6
176
     1
 78
     2
176
     1
 67
     7
176
     1
 79
     5
176
     1
170
     0
176
     1
171
     0
176
     1
290
     0
176
     1
 93
        1
176
     1
 44
0.0
176
     1
173
     0
176
     1
  0
VISUALSTYLE
  5
33
102
{ACAD_REACTORS
330
2A
102
}
330
2A
100
AcDbVisualStyle
  2
Realistic
 70
     8
177
     2
291
     0
 71
     2
176
     1
 72
     2
176
     1
 73
     0
176
     1
 90
        0
176
     1
 40
-0.6
176
     1
 41
-30.0
176
     1
 62
     5
 63
     7
421
 16777215
176
     1
 74
     1
176
     1
 91
        0
176
     1
 64
     7
176
     1
 65
   257
176
     1
 75
     1
176
     1
175
     1
176
     1
 42
1.0
176
     1
 92
        8
176
     1
 66
     8
424
  7895160
176
     1
 43
1.0
176
     1
 76
     1
176
     1
 77
     6
176
     1
 78
     2
176
     1
 67
     7
176
     1
 79
     5
176
     1
170
     0
176
     1
171
     0
176
     1
290
     0
176
     1
 93
       13
176
     1
 44
0.0
176
     1
173
     0
176
     1
  0
VISUALSTYLE
  5
37
102
{ACAD_REACTORS
330
2A
102
}
330
2A
100
AcDbVisualStyle
  2
Thicken
 70
    13
177
     2
291
     1
 71
     2
176
     1
 72
     2
176
     1
 73
     0
176
     1
 90
        0
176
     1
 40
-0.6
176
     1
 41
-30.0
176
     1
 62
     5
 63
     7
421
 16777215
176
     1
 74
     1
176
     1
 91
        4
176
     1
 64
     7
176
     1
 65
   257
176
     1
 75
     1
176
     1
175
     1
176
     1
 42
1.0
176
     1
 92
       12
176
     1
 66
     7
176
     1
 43
1.0
176
     1
 76
     1
176
     1
 77
     6
176
     1
 78
     2
176
     1
 67
     7
176
     1
 79
     5
176
     1
170
     0
176
     1
171
     0
176
     1
290
     0
176
     1
 93
        1
176
     1
 44
0.0
176
     1
173
     0
176
     1
  0
ENDSEC
  0
EOF
