  0
SECTION
  2
HEADER
  9
$ACADVER
  1
AC1024
  9
$ACADMAINTVER
 70
     6
  9
$DWGCODEPAGE
  3
UNDEFINED
  9
$INSBASE
 10
0.0
 20
0.0
 30
0.0
  9
$EXTMIN
 10
1.000000000000000E+20
 20
1.000000000000000E+20
 30
1.000000000000000E+20
  9
$EXTMAX
 10
-1.000000000000000E+20
 20
-1.000000000000000E+20
 30
-1.000000000000000E+20
  9
$LIMMIN
 10
0.0
 20
0.0
  9
$LIMMAX
 10
12.0
 20
9.0
  9
$ORTHOMODE
 70
     0
  9
$REGENMODE
 70
     1
  9
$FILLMODE
 70
     1
  9
$QTEXTMODE
 70
     0
  9
$MIRRTEXT
 70
     1
  9
$LTSCALE
 40
1.0
  9
$ATTMODE
 70
     1
  9
$TEXTSIZE
 40
0.2
  9
$TRACEWID
 40
0.05
  9
$TEXTSTYLE
  7
Standard
  9
$CLAYER
  8
0
  9
$CELTYPE
  6
ByLayer
  9
$CECOLOR
 62
   256
  9
$CELTSCALE
 40
1.0
  9
$DISPSILH
 70
     0
  9
$DIMSCALE
 40
1.0
  9
$DIMASZ
 40
0.18
  9
$DIMEXO
 40
0.0625
  9
$DIMDLI
 40
0.38
  9
$DIMRND
 40
0.0
  9
$DIMDLE
 40
0.0
  9
$DIMEXE
 40
0.18
  9
$DIMTP
 40
0.0
  9
$DIMTM
 40
0.0
  9
$DIMTXT
 40
0.18
  9
$DIMCEN
 40
0.09
  9
$DIMTSZ
 40
0.0
  9
$DIMTOL
 70
     0
  9
$DIMLIM
 70
     0
  9
$DIMTIH
 70
     1
  9
$DIMTOH
 70
     1
  9
$DIMSE1
 70
     0
  9
$DIMSE2
 70
     0
  9
$DIMTAD
 70
     0
  9
$DIMZIN
 70
     0
  9
$DIMBLK
  1

  9
$DIMASO
 70
     1
  9
$DIMSHO
 70
     1
  9
$DIMPOST
  1

  9
$DIMAPOST
  1

  9
$DIMALT
 70
     0
  9
$DIMALTD
 70
     2
  9
$DIMALTF
 40
25.4
  9
$DIMLFAC
 40
1.0
  9
$DIMTOFL
 70
     0
  9
$DIMTVP
 40
0.0
  9
$DIMTIX
 70
     0
  9
$DIMSOXD
 70
     0
  9
$DIMSAH
 70
     0
  9
$DIMBLK1
  1

  9
$DIMBLK2
  1

  9
$DIMSTYLE
  2
Standard
  9
$DIMCLRD
 70
     0
  9
$DIMCLRE
 70
     0
  9
$DIMCLRT
 70
     0
  9
$DIMTFAC
 40
1.0
  9
$DIMGAP
 40
0.09
  9
$DIMJUST
 70
     0
  9
$DIMSD1
 70
     0
  9
$DIMSD2
 70
     0
  9
$DIMTOLJ
 70
     1
  9
$DIMTZIN
 70
     0
  9
$DIMALTZ
 70
     0
  9
$DIMALTTZ
 70
     0
  9
$DIMUPT
 70
     0
  9
$DIMDEC
 70
     4
  9
$DIMTDEC
 70
     4
  9
$DIMALTU
 70
     2
  9
$DIMALTTD
 70
     2
  9
$DIMTXSTY
  7
Standard
  9
$DIMAUNIT
 70
     0
  9
$DIMADEC
 70
     0
  9
$DIMALTRND
 40
0.0
  9
$DIMAZIN
 70
     0
  9
$DIMDSEP
 70
    46
  9
$DIMATFIT
 70
     3
  9
$DIMFRAC
 70
     0
  9
$DIMLDRBLK
  1

  9
$DIMLUNIT
 70
     2
  9
$DIMLWD
 70
    -2
  9
$DIMLWE
 70
    -2
  9
$DIMTMOVE
 70
     0
  9
$DIMFXL
 40
1.0
  9
$DIMFXLON
 70
     0
  9
$DIMJOGANG
 40
0.7853981633974483
  9
$DIMTFILL
 70
     0
  9
$DIMTFILLCLR
 70
     0
  9
$DIMARCSYM
 70
     0
  9
$DIMLTYPE
  6

  9
$DIMLTEX1
  6

  9
$DIMLTEX2
  6

  9
$DIMTXTDIRECTION
 70
     0
  9
$LUNITS
 70
     2
  9
$LUPREC
 70
     4
  9
$SKETCHINC
 40
0.1
  9
$FILLETRAD
 40
0.5
  9
$AUNITS
 70
     0
  9
$AUPREC
 70
     0
  9
$MENU
  1
.
  9
$ELEVATION
 40
0.0
  9
$PELEVATION
 40
0.0
  9
$THICKNESS
 40
0.0
  9
$LIMCHECK
 70
     0
  9
$CHAMFERA
 40
0.5
  9
$CHAMFERB
 40
0.5
  9
$CHAMFERC
 40
1.0
  9
$CHAMFERD
 40
0.0
  9
$SKPOLY
 70
     0
  9
$TDCREATE
 40
2457917.628449062
  9
$TDUCREATE
 40
2457917.253449074
  9
$TDUPDATE
 40
2457917.628449062
  9
$TDUUPDATE
 40
2457917.253449074
  9
$TDINDWG
 40
0.0000000116
  9
$TDUSRTIMER
 40
0.0000000116
  9
$USRTIMER
 70
     1
  9
$ANGBASE
 50
0.0
  9
$ANGDIR
 70
     0
  9
$PDMODE
 70
     0
  9
$PDSIZE
 40
0.0
  9
$PLINEWID
 40
0.0
  9
$SPLFRAME
 70
     0
  9
$SPLINETYPE
 70
     6
  9
$SPLINESEGS
 70
     8
  9
$HANDSEED
  5
C0
  9
$SURFTAB1
 70
     6
  9
$SURFTAB2
 70
     6
  9
$SURFTYPE
 70
     6
  9
$SURFU
 70
     6
  9
$SURFV
 70
     6
  9
$UCSBASE
  2

  9
$UCSNAME
  2

  9
$UCSORG
 10
0.0
 20
0.0
 30
0.0
  9
$UCSXDIR
 10
1.0
 20
0.0
 30
0.0
  9
$UCSYDIR
 10
0.0
 20
1.0
 30
0.0
  9
$UCSORTHOREF
  2

  9
$UCSORTHOVIEW
 70
     0
  9
$UCSORGTOP
 10
0.0
 20
0.0
 30
0.0
  9
$UCSORGBOTTOM
 10
0.0
 20
0.0
 30
0.0
  9
$UCSORGLEFT
 10
0.0
 20
0.0
 30
0.0
  9
$UCSORGRIGHT
 10
0.0
 20
0.0
 30
0.0
  9
$UCSORGFRONT
 10
0.0
 20
0.0
 30
0.0
  9
$UCSORGBACK
 10
0.0
 20
0.0
 30
0.0
  9
$PUCSBASE
  2

  9
$PUCSNAME
  2

  9
$PUCSORG
 10
0.0
 20
0.0
 30
0.0
  9
$PUCSXDIR
 10
1.0
 20
0.0
 30
0.0
  9
$PUCSYDIR
 10
0.0
 20
1.0
 30
0.0
  9
$PUCSORTHOREF
  2

  9
$PUCSORTHOVIEW
 70
     0
  9
$PUCSORGTOP
 10
0.0
 20
0.0
 30
0.0
  9
$PUCSORGBOTTOM
 10
0.0
 20
0.0
 30
0.0
  9
$PUCSORGLEFT
 10
0.0
 20
0.0
 30
0.0
  9
$PUCSORGRIGHT
 10
0.0
 20
0.0
 30
0.0
  9
$PUCSORGFRONT
 10
0.0
 20
0.0
 30
0.0
  9
$PUCSORGBACK
 10
0.0
 20
0.0
 30
0.0
  9
$USERI1
 70
     0
  9
$USERI2
 70
     0
  9
$USERI3
 70
     0
  9
$USERI4
 70
     0
  9
$USERI5
 70
     0
  9
$USERR1
 40
0.0
  9
$USERR2
 40
0.0
  9
$USERR3
 40
0.0
  9
$USERR4
 40
0.0
  9
$USERR5
 40
0.0
  9
$WORLDVIEW
 70
     1
  9
$SHADEDGE
 70
     3
  9
$SHADEDIF
 70
    70
  9
$TILEMODE
 70
     1
  9
$MAXACTVP
 70
    64
  9
$PINSBASE
 10
0.0
 20
0.0
 30
0.0
  9
$PLIMCHECK
 70
     0
  9
$PEXTMIN
 10
1.000000000000000E+20
 20
1.000000000000000E+20
 30
1.000000000000000E+20
  9
$PEXTMAX
 10
-1.000000000000000E+20
 20
-1.000000000000000E+20
 30
-1.000000000000000E+20
  9
$PLIMMIN
 10
0.0
 20
0.0
  9
$PLIMMAX
 10
12.0
 20
9.0
  9
$UNITMODE
 70
     0
  9
$VISRETAIN
 70
     1
  9
$PLINEGEN
 70
     0
  9
$PSLTSCALE
 70
     1
  9
$TREEDEPTH
 70
  3020
  9
$CMLSTYLE
  2
Standard
  9
$CMLJUST
 70
     0
  9
$CMLSCALE
 40
1.0
  9
$PROXYGRAPHICS
 70
     1
  9
$MEASUREMENT
 70
     0
  9
$CELWEIGHT
370
    -1
  9
$ENDCAPS
280
     0
  9
$JOINSTYLE
280
     0
  9
$LWDISPLAY
290
     1
  9
$INSUNITS
 70
     1
  9
$HYPERLINKBASE
  1

  9
$STYLESHEET
  1

  9
$XEDIT
290
     1
  9
$CEPSNTYPE
380
     0
  9
$PSTYLEMODE
290
     1
  9
$FINGERPRINTGUID
  2
{DD72D9A8-BA81-846F-1C91-20A4974FE51B}
  9
$VERSIONGUID
  2
{FAEB1C32-E019-11D5-929B-00C0DF256EC4}
  9
$EXTNAMES
290
     1
  9
$PSVPSCALE
 40
0.0
  9
$OLESTARTUP
290
     0
  9
$SORTENTS
280
   127
  9
$INDEXCTL
280
     0
  9
$HIDETEXT
280
     1
  9
$XCLIPFRAME
280
     2
  9
$HALOGAP
280
     0
  9
$OBSCOLOR
 70
   257
  9
$OBSLTYPE
280
     0
  9
$INTERSECTIONDISPLAY
280
     0
  9
$INTERSECTIONCOLOR
 70
   257
  9
$DIMASSOC
280
     2
  9
$PROJECTNAME
  1

  9
$CAMERADISPLAY
290
     0
  9
$LENSLENGTH
 40
50.0
  9
$CAMERAHEIGHT
 40
0.0
  9
$STEPSPERSEC
 40
2.0
  9
$STEPSIZE
 40
6.0
  9
$3DDWFPREC
 40
2.0
  9
$PSOLWIDTH
 40
0.25
  9
$PSOLHEIGHT
 40
4.0
  9
$LOFTANG1
 40
1.570796326794897
  9
$LOFTANG2
 40
1.570796326794897
  9
$LOFTMAG1
 40
0.0
  9
$LOFTMAG2
 40
0.0
  9
$LOFTPARAM
 70
     7
  9
$LOFTNORMALS
280
     1
  9
$LATITUDE
 40
37.795
  9
$LONGITUDE
 40
-122.394
  9
$NORTHDIRECTION
 40
0.0
  9
$TIMEZONE
 70
 -8000
  9
$LIGHTGLYPHDISPLAY
280
     1
  9
$TILEMODELIGHTSYNCH
280
     1
  9
$CMATERIAL
347
3C
  9
$SOLIDHIST
280
     1
  9
$SHOWHIST
280
     1
  9
$DWFFRAME
280
     2
  9
$DGNFRAME
280
     2
  9
$REALWORLDSCALE
290
     1
  9
$INTERFERECOLOR
 62
   256
  9
$CSHADOW
280
     0
  9
$SHADOWPLANELOCATION
 40
0.0
  0
ENDSEC
  0
SECTION
  2
CLASSES
  0
CLASS
  1
ACDBDICTIONARYWDFLT
  2
AcDbDictionaryWithDefault
  3
ObjectDBX Classes
 90
        0
 91
        4
280
     0
281
     0
  0
CLASS
  1
VISUALSTYLE
  2
AcDbVisualStyle
  3
ObjectDBX Classes
 90
     4095
 91
        4
280
     0
281
     0
  0
CLASS
  1
MATERIAL
  2
AcDbMaterial
  3
ObjectDBX Classes
 90
     1153
 91
        4
280
     0
281
     0
  0
CLASS
  1
SUN
  2
AcDbSun
  3
SCENEOE
 90
     1024
 91
        4
280
     0
281
     0
  0
ENDSEC
  0
SECTION
  2
TABLES
  0
TABLE
  2
VPORT
  5
8
330
0
100
AcDbSymbolTable
 70
     1
  0
VPORT
  5
29
330
8
100
AcDbSymbolTableRecord
100
AcDbViewportTableRecord
  2
*Active
 70
     0
 10
0.0
 20
0.0
 11
1.0
 21
1.0
 12
0.0
 22
0.0
 13
0.0
 23
0.0
 14
0.5
 24
0.5
 15
0.5
 25
0.5
 16
0.0
 26
0.0
 36
1.0
 17
91.00082462281999
 27
-128.4993055234307
 37
0.0
 40
256.9986110468615
 41
0.7081814508812795
 42
50.0
 43
0.0
 44
0.0
 50
0.0
 51
0.0
 71
     0
 72
   100
 73
     1
 74
     3
 75
     0
 76
     0
 77
     0
 78
     0
281
     0
 65
     1
110
0.0
120
0.0
130
0.0
111
1.0
121
0.0
131
0.0
112
0.0
122
1.0
132
0.0
 79
     0
146
0.0
 60
     3
 61
     5
292
     1
282
     1
141
0.0
142
0.0
 63
   250
361
3F
  0
ENDTAB
  0
TABLE
  2
LTYPE
  5
5
330
0
100
AcDbSymbolTable
 70
     1
  0
LTYPE
  5
14
330
5
100
AcDbSymbolTableRecord
100
AcDbLinetypeTableRecord
  2
ByBlock
 70
     0
  3

 72
    65
 73
     0
 40
0.0
  0
LTYPE
  5
15
330
5
100
AcDbSymbolTableRecord
100
AcDbLinetypeTableRecord
  2
ByLayer
 70
     0
  3

 72
    65
 73
     0
 40
0.0
  0
LTYPE
  5
16
330
5
100
AcDbSymbolTableRecord
100
AcDbLinetypeTableRecord
  2
Continuous
 70
     0
  3
Solid line
 72
    65
 73
     0
 40
0.0
  0
ENDTAB
  0
TABLE
  2
LAYER
  5
2
330
0
100
AcDbSymbolTable
 70
     2
  0
LAYER
  5
10
330
2
100
AcDbSymbolTableRecord
100
AcDbLayerTableRecord
  2
0
 70
     0
 62
     7
  6
Continuous
370
    -3
390
F
347
3E
  0
LAYER
  5
40
330
2
100
AcDbSymbolTableRecord
100
AcDbLayerTableRecord
  2
_U+30EC_U+30A4_U+30E4_U+30FC 1
 70
     0
 62
     7
  6
Continuous
370
    -3
390
F
347
3E
  0
ENDTAB
  0
TABLE
  2
STYLE
  5
3
330
0
100
AcDbSymbolTable
 70
     1
  0
STYLE
  5
11
330
3
100
AcDbSymbolTableRecord
100
AcDbTextStyleTableRecord
  2
Standard
 70
     0
 40
0.0
 41
1.0
 50
0.0
 71
     0
 42
0.2
  3
txt
  4

  0
ENDTAB
  0
TABLE
  2
VIEW
  5
6
330
0
100
AcDbSymbolTable
 70
     0
  0
ENDTAB
  0
TABLE
  2
UCS
  5
7
330
0
100
AcDbSymbolTable
 70
     0
  0
ENDTAB
  0
TABLE
  2
APPID
  5
9
330
0
100
AcDbSymbolTable
 70
     1
  0
APPID
  5
12
330
9
100
AcDbSymbolTableRecord
100
AcDbRegAppTableRecord
  2
ACAD
 70
     0
  0
ENDTAB
  0
TABLE
  2
DIMSTYLE
  5
A
330
0
100
AcDbSymbolTable
 70
     1
100
AcDbDimStyleTable
  0
DIMSTYLE
105
27
330
A
100
AcDbSymbolTableRecord
100
AcDbDimStyleTableRecord
  2
Standard
 70
     0
178
     0
340
11
  0
ENDTAB
  0
TABLE
  2
BLOCK_RECORD
  5
1
330
0
100
AcDbSymbolTable
 70
     5
  0
BLOCK_RECORD
  5
1F
330
1
100
AcDbSymbolTableRecord
100
AcDbBlockTableRecord
  2
*Model_Space
340
22
 70
     0
280
     1
281
     0
  0
BLOCK_RECORD
  5
1B
330
1
100
AcDbSymbolTableRecord
100
AcDbBlockTableRecord
  2
*Paper_Space
340
1E
 70
     0
280
     1
281
     0
  0
BLOCK_RECORD
  5
23
330
1
100
AcDbSymbolTableRecord
100
AcDbBlockTableRecord
  2
*Paper_Space0
340
26
 70
     0
280
     1
281
     0
  0
BLOCK_RECORD
  5
5B
330
1
100
AcDbSymbolTableRecord
100
AcDbBlockTableRecord
  2
block 2
340
0
102
{BLKREFS
331
5C
102
}
 70
     0
280
     1
281
     0
  0
BLOCK_RECORD
  5
7A
330
1
100
AcDbSymbolTableRecord
100
AcDbBlockTableRecord
  2
block 3
340
0
102
{BLKREFS
331
7B
102
}
 70
     0
280
     1
281
     0
  0
BLOCK_RECORD
  5
8E
330
1
100
AcDbSymbolTableRecord
100
AcDbBlockTableRecord
  2
block 4
340
0
102
{BLKREFS
331
8F
102
}
 70
     0
280
     1
281
     0
  0
BLOCK_RECORD
  5
AA
330
1
100
AcDbSymbolTableRecord
100
AcDbBlockTableRecord
  2
block 5
340
0
102
{BLKREFS
331
AB
102
}
 70
     0
280
     1
281
     0
  0
ENDTAB
  0
ENDSEC
  0
SECTION
  2
BLOCKS
  0
BLOCK
  5
20
330
1F
100
AcDbEntity
  8
0
100
AcDbBlockBegin
  2
*Model_Space
 70
     0
 10
0.0
 20
0.0
 30
0.0
  3
*Model_Space
  1

  0
ENDBLK
  5
21
330
1F
100
AcDbEntity
  8
0
100
AcDbBlockEnd
  0
BLOCK
  5
1C
330
1B
100
AcDbEntity
 67
     1
  8
0
100
AcDbBlockBegin
  2
*Paper_Space
 70
     0
 10
0.0
 20
0.0
 30
0.0
  3
*Paper_Space
  1

  0
ENDBLK
  5
1D
330
1B
100
AcDbEntity
 67
     1
  8
0
100
AcDbBlockEnd
  0
BLOCK
  5
24
330
23
100
AcDbEntity
  8
0
100
AcDbBlockBegin
  2
*Paper_Space0
 70
     0
 10
0.0
 20
0.0
 30
0.0
  3
*Paper_Space0
  1

  0
ENDBLK
  5
25
330
23
100
AcDbEntity
  8
0
100
AcDbBlockEnd
  0
BLOCK
  5
5D
330
5B
100
AcDbEntity
  8
0
100
AcDbBlockBegin
  2
block 2
 70
     0
 10
0.0
 20
0.0
 30
0.0
  3
block 2
  1

  0
SPLINE
  5
5F
330
5B
100
AcDbEntity
  8
_U+30EC_U+30A4_U+30E4_U+30FC 1
370
     0
100
AcDbSpline
210
0.0
220
0.0
230
1.0
 70
    11
 71
     3
 72
    44
 73
    40
 74
     0
 42
0.0000000001
 43
0.0000000001
 12
1.0
 22
0.0
 32
0.0
 13
1.0
 23
0.0
 33
0.0
 40
0.0
 40
0.0
 40
0.0
 40
0.0
 40
1.0
 40
1.0
 40
1.0
 40
2.0
 40
2.0
 40
2.0
 40
3.0
 40
3.0
 40
3.0
 40
4.0
 40
4.0
 40
4.0
 40
5.0
 40
5.0
 40
5.0
 40
6.0
 40
6.0
 40
6.0
 40
7.0
 40
7.0
 40
7.0
 40
8.0
 40
8.0
 40
8.0
 40
9.0
 40
9.0
 40
9.0
 40
10.0
 40
10.0
 40
10.0
 40
11.0
 40
11.0
 40
11.0
 40
12.0
 40
12.0
 40
12.0
 40
13.0
 40
13.0
 40
13.0
 40
13.0
 10
92.2162488918765
 20
-77.0459431773531
 30
0.0
 10
92.1928222425768
 20
-77.00150144559338
 30
0.0
 10
92.17180716011677
 20
-76.94879148466906
 30
0.0
 10
92.16974010282563
 20
-76.71797008715731
 30
0.0
 10
92.16560598824333
 20
-76.47474634589868
 30
0.0
 10
92.10635034589703
 20
-76.40481090754811
 30
0.0
 10
91.92858341885814
 20
-76.40481090754811
 30
0.0
 10
91.92858341885814
 20
-76.40481090754811
 30
0.0
 10
91.52033960385603
 20
-76.40481090754811
 30
0.0
 10
91.52033960385603
 20
-76.40481090754811
 30
0.0
 10
91.52033960385603
 20
-76.40481090754811
 30
0.0
 10
91.52033960385603
 20
-77.0459431773531
 30
0.0
 10
91.52033960385603
 20
-77.0459431773531
 30
0.0
 10
91.52033960385603
 20
-77.0459431773531
 30
0.0
 10
91.28555634653625
 20
-77.0459431773531
 30
0.0
 10
91.28555634653625
 20
-77.0459431773531
 30
0.0
 10
91.28555634653625
 20
-77.0459431773531
 30
0.0
 10
91.28555634653625
 20
-75.5015068713156
 30
0.0
 10
91.28555634653625
 20
-75.5015068713156
 30
0.0
 10
91.28555634653625
 20
-75.5015068713156
 30
0.0
 10
91.96027829732243
 20
-75.5015068713156
 30
0.0
 10
91.96027829732243
 20
-75.5015068713156
 30
0.0
 10
92.26689179550966
 20
-75.5015068713156
 30
0.0
 10
92.43432343609281
 20
-75.67307262648104
 30
0.0
 10
92.43432343609281
 20
-75.9290432210351
 30
0.0
 10
92.43432343609281
 20
-75.97968612466828
 30
0.0
 10
92.42571069737969
 20
-76.06236841631427
 30
0.0
 10
92.38126896561997
 20
-76.1426391411206
 30
0.0
 10
92.32201332327367
 20
-76.24633651522662
 30
0.0
 10
92.25655650905392
 20
-76.26528454039548
 30
0.0
 10
92.19523380941648
 20
-76.28216550827321
 30
0.0
 10
92.33269311927795
 20
-76.32454018274179
 30
0.0
 10
92.40021699078883
 20
-76.3731160290838
 30
0.0
 10
92.40469561491966
 20
-76.68834226598416
 30
0.0
 10
92.40882972950196
 20
-76.9591267711248
 30
0.0
 10
92.44465872254857
 20
-76.99082164958911
 30
0.0
 10
92.51252710360798
 20
-77.0459431773531
 30
0.0
 10
92.51252710360798
 20
-77.0459431773531
 30
0.0
 10
92.2162488918765
 20
-77.0459431773531
 30
0.0
 10
92.2162488918765
 20
-77.0459431773531
 30
0.0
  0
SPLINE
  5
60
330
5B
100
AcDbEntity
  8
_U+30EC_U+30A4_U+30E4_U+30FC 1
370
     0
100
AcDbSpline
210
0.0
220
0.0
230
1.0
 70
    11
 71
     3
 72
    20
 73
    16
 74
     0
 42
0.0000000001
 43
0.0000000001
 12
1.0
 22
0.0
 32
0.0
 13
1.0
 23
0.0
 33
0.0
 40
0.0
 40
0.0
 40
0.0
 40
0.0
 40
1.0
 40
1.0
 40
1.0
 40
2.0
 40
2.0
 40
2.0
 40
3.0
 40
3.0
 40
3.0
 40
4.0
 40
4.0
 40
4.0
 40
5.0
 40
5.0
 40
5.0
 40
5.0
 10
91.96441241190473
 20
-75.71303573410994
 30
0.0
 10
91.96441241190473
 20
-75.71303573410994
 30
0.0
 10
91.52033960385603
 20
-75.71303573410994
 30
0.0
 10
91.52033960385603
 20
-75.71303573410994
 30
0.0
 10
91.52033960385603
 20
-75.71303573410994
 30
0.0
 10
91.52033960385603
 20
-76.19328204475377
 30
0.0
 10
91.52033960385603
 20
-76.19328204475377
 30
0.0
 10
91.52033960385603
 20
-76.19328204475377
 30
0.0
 10
91.96234535461359
 20
-76.19328204475377
 30
0.0
 10
91.96234535461359
 20
-76.19328204475377
 30
0.0
 10
92.06190861413731
 20
-76.19328204475377
 30
0.0
 10
92.19730086670762
 20
-76.11714543452975
 30
0.0
 10
92.19730086670762
 20
-75.94592418891283
 30
0.0
 10
92.19730086670762
 20
-75.86772052139766
 30
0.0
 10
92.16353893095217
 20
-75.71303573410994
 30
0.0
 10
91.96441241190473
 20
-75.71303573410994
 30
0.0
  0
HATCH
  5
61
330
5B
100
AcDbEntity
  8
_U+30EC_U+30A4_U+30E4_U+30FC 1
 62
   179
420
  2234388
100
AcDbHatch
 10
0.0
 20
0.0
 30
0.0
210
0.0
220
0.0
230
1.0
  2
SOLID
 70
     1
 71
     0
 91
        2
 92
        1
 93
        1
 72
     4
 94
        3
 73
     0
 74
     1
 95
       44
 96
       40
 40
0.0
 40
0.0
 40
0.0
 40
0.0
 40
1.0
 40
1.0
 40
1.0
 40
2.0
 40
2.0
 40
2.0
 40
3.0
 40
3.0
 40
3.0
 40
4.0
 40
4.0
 40
4.0
 40
5.0
 40
5.0
 40
5.0
 40
6.0
 40
6.0
 40
6.0
 40
7.0
 40
7.0
 40
7.0
 40
8.0
 40
8.0
 40
8.0
 40
9.0
 40
9.0
 40
9.0
 40
10.0
 40
10.0
 40
10.0
 40
11.0
 40
11.0
 40
11.0
 40
12.0
 40
12.0
 40
12.0
 40
13.0
 40
13.0
 40
13.0
 40
13.0
 10
92.2162488918765
 20
-77.0459431773531
 10
92.1928222425768
 20
-77.00150144559338
 10
92.17180716011677
 20
-76.94879148466906
 10
92.16974010282563
 20
-76.71797008715731
 10
92.16560598824333
 20
-76.47474634589868
 10
92.10635034589703
 20
-76.40481090754811
 10
91.92858341885814
 20
-76.40481090754811
 10
91.92858341885814
 20
-76.40481090754811
 10
91.52033960385603
 20
-76.40481090754811
 10
91.52033960385603
 20
-76.40481090754811
 10
91.52033960385603
 20
-76.40481090754811
 10
91.52033960385603
 20
-77.0459431773531
 10
91.52033960385603
 20
-77.0459431773531
 10
91.52033960385603
 20
-77.0459431773531
 10
91.28555634653625
 20
-77.0459431773531
 10
91.28555634653625
 20
-77.0459431773531
 10
91.28555634653625
 20
-77.0459431773531
 10
91.28555634653625
 20
-75.5015068713156
 10
91.28555634653625
 20
-75.5015068713156
 10
91.28555634653625
 20
-75.5015068713156
 10
91.96027829732243
 20
-75.5015068713156
 10
91.96027829732243
 20
-75.5015068713156
 10
92.26689179550966
 20
-75.5015068713156
 10
92.43432343609281
 20
-75.67307262648104
 10
92.43432343609281
 20
-75.9290432210351
 10
92.43432343609281
 20
-75.97968612466828
 10
92.42571069737969
 20
-76.06236841631427
 10
92.38126896561997
 20
-76.1426391411206
 10
92.32201332327367
 20
-76.24633651522662
 10
92.25655650905392
 20
-76.26528454039548
 10
92.19523380941648
 20
-76.28216550827321
 10
92.33269311927795
 20
-76.32454018274179
 10
92.40021699078883
 20
-76.3731160290838
 10
92.40469561491966
 20
-76.68834226598416
 10
92.40882972950196
 20
-76.9591267711248
 10
92.44465872254857
 20
-76.99082164958911
 10
92.51252710360798
 20
-77.0459431773531
 10
92.51252710360798
 20
-77.0459431773531
 10
92.2162488918765
 20
-77.0459431773531
 10
92.2162488918765
 20
-77.0459431773531
 97
        0
 97
        0
 92
        1
 93
        1
 72
     4
 94
        3
 73
     0
 74
     1
 95
       20
 96
       16
 40
0.0
 40
0.0
 40
0.0
 40
0.0
 40
1.0
 40
1.0
 40
1.0
 40
2.0
 40
2.0
 40
2.0
 40
3.0
 40
3.0
 40
3.0
 40
4.0
 40
4.0
 40
4.0
 40
5.0
 40
5.0
 40
5.0
 40
5.0
 10
91.96441241190473
 20
-75.71303573410994
 10
91.96441241190473
 20
-75.71303573410994
 10
91.52033960385603
 20
-75.71303573410994
 10
91.52033960385603
 20
-75.71303573410994
 10
91.52033960385603
 20
-75.71303573410994
 10
91.52033960385603
 20
-76.19328204475377
 10
91.52033960385603
 20
-76.19328204475377
 10
91.52033960385603
 20
-76.19328204475377
 10
91.96234535461359
 20
-76.19328204475377
 10
91.96234535461359
 20
-76.19328204475377
 10
92.06190861413731
 20
-76.19328204475377
 10
92.19730086670762
 20
-76.11714543452975
 10
92.19730086670762
 20
-75.94592418891283
 10
92.19730086670762
 20
-75.86772052139766
 10
92.16353893095217
 20
-75.71303573410994
 10
91.96441241190473
 20
-75.71303573410994
 97
        0
 97
        0
 75
     2
 76
     1
 98
        0
  0
SPLINE
  5
62
330
5B
100
AcDbEntity
  8
_U+30EC_U+30A4_U+30E4_U+30FC 1
370
     0
100
AcDbSpline
210
0.0
220
0.0
230
1.0
 70
    11
 71
     3
 72
    26
 73
    22
 74
     0
 42
0.0000000001
 43
0.0000000001
 12
1.0
 22
0.0
 32
0.0
 13
1.0
 23
0.0
 33
0.0
 40
0.0
 40
0.0
 40
0.0
 40
0.0
 40
1.0
 40
1.0
 40
1.0
 40
2.0
 40
2.0
 40
2.0
 40
3.0
 40
3.0
 40
3.0
 40
4.0
 40
4.0
 40
4.0
 40
5.0
 40
5.0
 40
5.0
 40
6.0
 40
6.0
 40
6.0
 40
7.0
 40
7.0
 40
7.0
 40
7.0
 10
93.10336097932833
 20
-77.0459431773531
 30
0.0
 10
93.10336097932833
 20
-77.0459431773531
 30
0.0
 10
93.10336097932833
 20
-75.94179007433053
 30
0.0
 10
93.10336097932833
 20
-75.94179007433053
 30
0.0
 10
93.10336097932833
 20
-75.94179007433053
 30
0.0
 10
92.7733208318414
 20
-75.94179007433053
 30
0.0
 10
92.7733208318414
 20
-75.94179007433053
 30
0.0
 10
92.7733208318414
 20
-75.94179007433053
 30
0.0
 10
92.7733208318414
 20
-75.79365096846479
 30
0.0
 10
92.7733208318414
 20
-75.79365096846479
 30
0.0
 10
93.10542803661949
 20
-75.7788370578782
 30
0.0
 10
93.15193682567035
 20
-75.6158840414259
 30
0.0
 10
93.1815646468435
 20
-75.5015068713156
 30
0.0
 10
93.1815646468435
 20
-75.5015068713156
 30
0.0
 10
93.3276366954181
 20
-75.5015068713156
 30
0.0
 10
93.3276366954181
 20
-75.5015068713156
 30
0.0
 10
93.3276366954181
 20
-75.5015068713156
 30
0.0
 10
93.3276366954181
 20
-77.0459431773531
 30
0.0
 10
93.3276366954181
 20
-77.0459431773531
 30
0.0
 10
93.3276366954181
 20
-77.0459431773531
 30
0.0
 10
93.10336097932833
 20
-77.0459431773531
 30
0.0
 10
93.10336097932833
 20
-77.0459431773531
 30
0.0
  0
HATCH
  5
63
330
5B
100
AcDbEntity
  8
_U+30EC_U+30A4_U+30E4_U+30FC 1
 62
   179
420
  2234388
100
AcDbHatch
 10
0.0
 20
0.0
 30
0.0
210
0.0
220
0.0
230
1.0
  2
SOLID
 70
     1
 71
     0
 91
        1
 92
        1
 93
        1
 72
     4
 94
        3
 73
     0
 74
     1
 95
       26
 96
       22
 40
0.0
 40
0.0
 40
0.0
 40
0.0
 40
1.0
 40
1.0
 40
1.0
 40
2.0
 40
2.0
 40
2.0
 40
3.0
 40
3.0
 40
3.0
 40
4.0
 40
4.0
 40
4.0
 40
5.0
 40
5.0
 40
5.0
 40
6.0
 40
6.0
 40
6.0
 40
7.0
 40
7.0
 40
7.0
 40
7.0
 10
93.10336097932833
 20
-77.0459431773531
 10
93.10336097932833
 20
-77.0459431773531
 10
93.10336097932833
 20
-75.94179007433053
 10
93.10336097932833
 20
-75.94179007433053
 10
93.10336097932833
 20
-75.94179007433053
 10
92.7733208318414
 20
-75.94179007433053
 10
92.7733208318414
 20
-75.94179007433053
 10
92.7733208318414
 20
-75.94179007433053
 10
92.7733208318414
 20
-75.79365096846479
 10
92.7733208318414
 20
-75.79365096846479
 10
93.10542803661949
 20
-75.7788370578782
 10
93.15193682567035
 20
-75.6158840414259
 10
93.1815646468435
 20
-75.5015068713156
 10
93.1815646468435
 20
-75.5015068713156
 10
93.3276366954181
 20
-75.5015068713156
 10
93.3276366954181
 20
-75.5015068713156
 10
93.3276366954181
 20
-75.5015068713156
 10
93.3276366954181
 20
-77.0459431773531
 10
93.3276366954181
 20
-77.0459431773531
 10
93.3276366954181
 20
-77.0459431773531
 10
93.10336097932833
 20
-77.0459431773531
 10
93.10336097932833
 20
-77.0459431773531
 97
        0
 97
        0
 75
     2
 76
     1
 98
        0
  0
POLYLINE
  5
64
330
5B
100
AcDbEntity
  8
_U+30EC_U+30A4_U+30E4_U+30FC 1
370
     0
100
AcDb2dPolyline
 66
     1
 10
0.0
 20
0.0
 30
0.0
  0
VERTEX
  5
65
330
64
100
AcDbEntity
  8
_U+30EC_U+30A4_U+30E4_U+30FC 1
370
     0
100
AcDbVertex
100
AcDb2dVertex
 10
93.88918725951382
 20
-77.0459431773531
 30
0.0
  0
VERTEX
  5
66
330
64
100
AcDbEntity
  8
_U+30EC_U+30A4_U+30E4_U+30FC 1
370
     0
100
AcDbVertex
100
AcDb2dVertex
 10
93.88918725951382
 20
-76.79410669738134
 30
0.0
  0
VERTEX
  5
67
330
64
100
AcDbEntity
  8
_U+30EC_U+30A4_U+30E4_U+30FC 1
370
     0
100
AcDbVertex
100
AcDb2dVertex
 10
94.14102373948558
 20
-76.79410669738134
 30
0.0
  0
VERTEX
  5
68
330
64
100
AcDbEntity
  8
_U+30EC_U+30A4_U+30E4_U+30FC 1
370
     0
100
AcDbVertex
100
AcDb2dVertex
 10
94.14102373948558
 20
-77.0459431773531
 30
0.0
  0
VERTEX
  5
69
330
64
100
AcDbEntity
  8
_U+30EC_U+30A4_U+30E4_U+30FC 1
370
     0
100
AcDbVertex
100
AcDb2dVertex
 10
93.88918725951382
 20
-77.0459431773531
 30
0.0
  0
SEQEND
  5
6A
330
64
100
AcDbEntity
  8
_U+30EC_U+30A4_U+30E4_U+30FC 1
370
     0
  0
HATCH
  5
6B
330
5B
100
AcDbEntity
  8
_U+30EC_U+30A4_U+30E4_U+30FC 1
 62
   179
420
  2234388
100
AcDbHatch
 10
0.0
 20
0.0
 30
0.0
210
0.0
220
0.0
230
1.0
  2
SOLID
 70
     1
 71
     0
 91
        1
 92
        1
 93
        4
 72
     1
 10
93.88918725951382
 20
-77.0459431773531
 11
93.88918725951382
 21
-76.79410669738134
 72
     1
 10
93.88918725951382
 20
-76.79410669738134
 11
94.14102373948558
 21
-76.79410669738134
 72
     1
 10
94.14102373948558
 20
-76.79410669738134
 11
94.14102373948558
 21
-77.0459431773531
 72
     1
 10
94.14102373948558
 20
-77.0459431773531
 11
93.88918725951382
 21
-77.0459431773531
 97
        0
 75
     2
 76
     1
 98
        0
  0
SPLINE
  5
6C
330
5B
100
AcDbEntity
  8
_U+30EC_U+30A4_U+30E4_U+30FC 1
370
     0
100
AcDbSpline
210
0.0
220
0.0
230
1.0
 70
    11
 71
     3
 72
    53
 73
    49
 74
     0
 42
0.0000000001
 43
0.0000000001
 12
1.0
 22
0.0
 32
0.0
 13
1.0
 23
0.0
 33
0.0
 40
0.0
 40
0.0
 40
0.0
 40
0.0
 40
1.0
 40
1.0
 40
1.0
 40
2.0
 40
2.0
 40
2.0
 40
3.0
 40
3.0
 40
3.0
 40
4.0
 40
4.0
 40
4.0
 40
5.0
 40
5.0
 40
5.0
 40
6.0
 40
6.0
 40
6.0
 40
7.0
 40
7.0
 40
7.0
 40
8.0
 40
8.0
 40
8.0
 40
9.0
 40
9.0
 40
9.0
 40
10.0
 40
10.0
 40
10.0
 40
11.0
 40
11.0
 40
11.0
 40
12.0
 40
12.0
 40
12.0
 40
13.0
 40
13.0
 40
13.0
 40
14.0
 40
14.0
 40
14.0
 40
15.0
 40
15.0
 40
15.0
 40
16.0
 40
16.0
 40
16.0
 40
16.0
 10
94.8582926195146
 20
-77.09658608098627
 30
0.0
 10
94.78008895199943
 20
-77.09658608098627
 30
0.0
 10
94.67845863518455
 20
-77.07970511310855
 30
0.0
 10
94.57682831836969
 20
-77.01631535617996
 30
0.0
 10
94.40354001546162
 20
-76.90641681020048
 30
0.0
 10
94.38218042345306
 20
-76.77515867221247
 30
0.0
 10
94.3632323982842
 20
-76.66732718352415
 30
0.0
 10
94.3632323982842
 20
-76.66732718352415
 30
0.0
 10
94.5854410570828
 20
-76.66732718352415
 30
0.0
 10
94.5854410570828
 20
-76.66732718352415
 30
0.0
 10
94.64021807529828
 20
-76.86610919302306
 30
0.0
 10
94.767342098704
 20
-76.89573701419621
 30
0.0
 10
94.86035967680574
 20
-76.89573701419621
 30
0.0
 10
94.99988604395837
 20
-76.89573701419621
 30
0.0
 10
95.15215926440641
 20
-76.7961737546725
 30
0.0
 10
95.15215926440641
 20
-76.56362980941812
 30
0.0
 10
95.15215926440641
 20
-76.30765921486406
 30
0.0
 10
94.97232528007636
 20
-76.23772377651349
 30
0.0
 10
94.85174693809262
 20
-76.23772377651349
 30
0.0
 10
94.82005205962832
 20
-76.23772377651349
 30
0.0
 10
94.67845863518455
 20
-76.23772377651349
 30
0.0
 10
94.5895751716651
 20
-76.36691485721036
 30
0.0
 10
94.5895751716651
 20
-76.36691485721036
 30
0.0
 10
94.41387530191737
 20
-76.34796683204148
 30
0.0
 10
94.41387530191737
 20
-76.34796683204148
 30
0.0
 10
94.41387530191737
 20
-76.34796683204148
 30
0.0
 10
94.53445364390112
 20
-75.5015068713156
 30
0.0
 10
94.53445364390112
 20
-75.5015068713156
 30
0.0
 10
94.53445364390112
 20
-75.5015068713156
 30
0.0
 10
95.31304522356757
 20
-75.5015068713156
 30
0.0
 10
95.31304522356757
 20
-75.5015068713156
 30
0.0
 10
95.31304522356757
 20
-75.5015068713156
 30
0.0
 10
95.31304522356757
 20
-75.69615476623221
 30
0.0
 10
95.31304522356757
 20
-75.69615476623221
 30
0.0
 10
95.31304522356757
 20
-75.69615476623221
 30
0.0
 10
94.69740666035344
 20
-75.69615476623221
 30
0.0
 10
94.69740666035344
 20
-75.69615476623221
 30
0.0
 10
94.69740666035344
 20
-75.69615476623221
 30
0.0
 10
94.63194984613368
 20
-76.11921249182089
 30
0.0
 10
94.63194984613368
 20
-76.11921249182089
 30
0.0
 10
94.69327254577114
 20
-76.08545055606545
 30
0.0
 10
94.7756103278686
 20
-76.04514293888802
 30
0.0
 10
94.8941216125612
 20
-76.04514293888802
 30
0.0
 10
95.14802514982411
 20
-76.04514293888802
 30
0.0
 10
95.3850477192093
 20
-76.23152260464003
 30
0.0
 10
95.3850477192093
 20
-76.54468178424925
 30
0.0
 10
95.3850477192093
 20
-76.86197507844076
 30
0.0
 10
95.16077200311953
 20
-77.09658608098627
 30
0.0
 10
94.8582926195146
 20
-77.09658608098627
 30
0.0
  0
HATCH
  5
6D
330
5B
100
AcDbEntity
  8
_U+30EC_U+30A4_U+30E4_U+30FC 1
 62
   179
420
  2234388
100
AcDbHatch
 10
0.0
 20
0.0
 30
0.0
210
0.0
220
0.0
230
1.0
  2
SOLID
 70
     1
 71
     0
 91
        1
 92
        1
 93
        1
 72
     4
 94
        3
 73
     0
 74
     1
 95
       53
 96
       49
 40
0.0
 40
0.0
 40
0.0
 40
0.0
 40
1.0
 40
1.0
 40
1.0
 40
2.0
 40
2.0
 40
2.0
 40
3.0
 40
3.0
 40
3.0
 40
4.0
 40
4.0
 40
4.0
 40
5.0
 40
5.0
 40
5.0
 40
6.0
 40
6.0
 40
6.0
 40
7.0
 40
7.0
 40
7.0
 40
8.0
 40
8.0
 40
8.0
 40
9.0
 40
9.0
 40
9.0
 40
10.0
 40
10.0
 40
10.0
 40
11.0
 40
11.0
 40
11.0
 40
12.0
 40
12.0
 40
12.0
 40
13.0
 40
13.0
 40
13.0
 40
14.0
 40
14.0
 40
14.0
 40
15.0
 40
15.0
 40
15.0
 40
16.0
 40
16.0
 40
16.0
 40
16.0
 10
94.8582926195146
 20
-77.09658608098627
 10
94.78008895199943
 20
-77.09658608098627
 10
94.67845863518455
 20
-77.07970511310855
 10
94.57682831836969
 20
-77.01631535617996
 10
94.40354001546162
 20
-76.90641681020048
 10
94.38218042345306
 20
-76.77515867221247
 10
94.3632323982842
 20
-76.66732718352415
 10
94.3632323982842
 20
-76.66732718352415
 10
94.5854410570828
 20
-76.66732718352415
 10
94.5854410570828
 20
-76.66732718352415
 10
94.64021807529828
 20
-76.86610919302306
 10
94.767342098704
 20
-76.89573701419621
 10
94.86035967680574
 20
-76.89573701419621
 10
94.99988604395837
 20
-76.89573701419621
 10
95.15215926440641
 20
-76.7961737546725
 10
95.15215926440641
 20
-76.56362980941812
 10
95.15215926440641
 20
-76.30765921486406
 10
94.97232528007636
 20
-76.23772377651349
 10
94.85174693809262
 20
-76.23772377651349
 10
94.82005205962832
 20
-76.23772377651349
 10
94.67845863518455
 20
-76.23772377651349
 10
94.5895751716651
 20
-76.36691485721036
 10
94.5895751716651
 20
-76.36691485721036
 10
94.41387530191737
 20
-76.34796683204148
 10
94.41387530191737
 20
-76.34796683204148
 10
94.41387530191737
 20
-76.34796683204148
 10
94.53445364390112
 20
-75.5015068713156
 10
94.53445364390112
 20
-75.5015068713156
 10
94.53445364390112
 20
-75.5015068713156
 10
95.31304522356757
 20
-75.5015068713156
 10
95.31304522356757
 20
-75.5015068713156
 10
95.31304522356757
 20
-75.5015068713156
 10
95.31304522356757
 20
-75.69615476623221
 10
95.31304522356757
 20
-75.69615476623221
 10
95.31304522356757
 20
-75.69615476623221
 10
94.69740666035344
 20
-75.69615476623221
 10
94.69740666035344
 20
-75.69615476623221
 10
94.69740666035344
 20
-75.69615476623221
 10
94.63194984613368
 20
-76.11921249182089
 10
94.63194984613368
 20
-76.11921249182089
 10
94.69327254577114
 20
-76.08545055606545
 10
94.7756103278686
 20
-76.04514293888802
 10
94.8941216125612
 20
-76.04514293888802
 10
95.14802514982411
 20
-76.04514293888802
 10
95.3850477192093
 20
-76.23152260464003
 10
95.3850477192093
 20
-76.54468178424925
 10
95.3850477192093
 20
-76.86197507844076
 10
95.16077200311953
 20
-77.09658608098627
 10
94.8582926195146
 20
-77.09658608098627
 97
        0
 97
        0
 75
     2
 76
     1
 98
        0
  0
ENDBLK
  5
5E
330
5B
100
AcDbEntity
  8
0
100
AcDbBlockEnd
  0
BLOCK
  5
7C
330
7A
100
AcDbEntity
  8
0
100
AcDbBlockBegin
  2
block 3
 70
     0
 10
0.0
 20
0.0
 30
0.0
  3
block 3
  1

  0
SPLINE
  5
7E
330
7A
100
AcDbEntity
  8
_U+30EC_U+30A4_U+30E4_U+30FC 1
370
     0
100
AcDbSpline
210
0.0
220
0.0
230
1.0
 70
    11
 71
     3
 72
    44
 73
    40
 74
     0
 42
0.0000000001
 43
0.0000000001
 12
1.0
 22
0.0
 32
0.0
 13
1.0
 23
0.0
 33
0.0
 40
0.0
 40
0.0
 40
0.0
 40
0.0
 40
1.0
 40
1.0
 40
1.0
 40
2.0
 40
2.0
 40
2.0
 40
3.0
 40
3.0
 40
3.0
 40
4.0
 40
4.0
 40
4.0
 40
5.0
 40
5.0
 40
5.0
 40
6.0
 40
6.0
 40
6.0
 40
7.0
 40
7.0
 40
7.0
 40
8.0
 40
8.0
 40
8.0
 40
9.0
 40
9.0
 40
9.0
 40
10.0
 40
10.0
 40
10.0
 40
11.0
 40
11.0
 40
11.0
 40
12.0
 40
12.0
 40
12.0
 40
13.0
 40
13.0
 40
13.0
 40
13.0
 10
92.83671058876999
 20
-184.3319009955837
 30
0.0
 10
92.8132839394703
 20
-184.2871147542754
 30
0.0
 10
92.79226885701027
 20
-184.2347493028996
 30
0.0
 10
92.79020179971911
 20
-184.0039279053879
 30
0.0
 10
92.78606768513681
 20
-183.7607041641293
 30
0.0
 10
92.72681204279053
 20
-183.6904242162302
 30
0.0
 10
92.54904511575162
 20
-183.6904242162302
 30
0.0
 10
92.54904511575162
 20
-183.6904242162302
 30
0.0
 10
92.14080130074953
 20
-183.6904242162302
 30
0.0
 10
92.14080130074953
 20
-183.6904242162302
 30
0.0
 10
92.14080130074953
 20
-183.6904242162302
 30
0.0
 10
92.14080130074953
 20
-184.3319009955837
 30
0.0
 10
92.14080130074953
 20
-184.3319009955837
 30
0.0
 10
92.14080130074953
 20
-184.3319009955837
 30
0.0
 10
91.90584578865548
 20
-184.3319009955837
 30
0.0
 10
91.90584578865548
 20
-184.3319009955837
 30
0.0
 10
91.90584578865548
 20
-184.3319009955837
 30
0.0
 10
91.90584578865548
 20
-182.7871201799977
 30
0.0
 10
91.90584578865548
 20
-182.7871201799977
 30
0.0
 10
91.90584578865548
 20
-182.7871201799977
 30
0.0
 10
92.58073999421593
 20
-182.7871201799977
 30
0.0
 10
92.58073999421593
 20
-182.7871201799977
 30
0.0
 10
92.88735349240316
 20
-182.7871201799977
 30
0.0
 10
93.05478513298631
 20
-182.9586859351631
 30
0.0
 10
93.05478513298631
 20
-183.2150010392657
 30
0.0
 10
93.05478513298631
 20
-183.2652994333504
 30
0.0
 10
93.04617239427319
 20
-183.3479817249963
 30
0.0
 10
93.00173066251347
 20
-183.4285969593512
 30
0.0
 10
92.94247502016717
 20
-183.5319498239087
 30
0.0
 10
92.87701820594742
 20
-183.5512423586261
 30
0.0
 10
92.81569550630996
 20
-183.5677788169553
 30
0.0
 10
92.95315481617143
 20
-183.6104980009724
 30
0.0
 10
93.02067868768233
 20
-183.6587293377659
 30
0.0
 10
93.02515731181316
 20
-183.9743000842148
 30
0.0
 10
93.02929142639546
 20
-184.2450845893554
 30
0.0
 10
93.06512041944205
 20
-184.2767794678197
 30
0.0
 10
93.13298880050148
 20
-184.3319009955837
 30
0.0
 10
93.13298880050148
 20
-184.3319009955837
 30
0.0
 10
92.83671058876999
 20
-184.3319009955837
 30
0.0
 10
92.83671058876999
 20
-184.3319009955837
 30
0.0
  0
SPLINE
  5
7F
330
7A
100
AcDbEntity
  8
_U+30EC_U+30A4_U+30E4_U+30FC 1
370
     0
100
AcDbSpline
210
0.0
220
0.0
230
1.0
 70
    11
 71
     3
 72
    20
 73
    16
 74
     0
 42
0.0000000001
 43
0.0000000001
 12
1.0
 22
0.0
 32
0.0
 13
1.0
 23
0.0
 33
0.0
 40
0.0
 40
0.0
 40
0.0
 40
0.0
 40
1.0
 40
1.0
 40
1.0
 40
2.0
 40
2.0
 40
2.0
 40
3.0
 40
3.0
 40
3.0
 40
4.0
 40
4.0
 40
4.0
 40
5.0
 40
5.0
 40
5.0
 40
5.0
 10
92.58487410879823
 20
-182.998649042792
 30
0.0
 10
92.58487410879823
 20
-182.998649042792
 30
0.0
 10
92.14080130074953
 20
-182.998649042792
 30
0.0
 10
92.14080130074953
 20
-182.998649042792
 30
0.0
 10
92.14080130074953
 20
-182.998649042792
 30
0.0
 10
92.14080130074953
 20
-183.4788953534358
 30
0.0
 10
92.14080130074953
 20
-183.4788953534358
 30
0.0
 10
92.14080130074953
 20
-183.4788953534358
 30
0.0
 10
92.58280705150707
 20
-183.4788953534358
 30
0.0
 10
92.58280705150707
 20
-183.4788953534358
 30
0.0
 10
92.6823703110308
 20
-183.4788953534358
 30
0.0
 10
92.81776256360112
 20
-183.4031032527603
 30
0.0
 10
92.81776256360112
 20
-183.2315374975949
 30
0.0
 10
92.81776256360112
 20
-183.1536783396282
 30
0.0
 10
92.78400062784567
 20
-182.998649042792
 30
0.0
 10
92.58487410879823
 20
-182.998649042792
 30
0.0
  0
HATCH
  5
80
330
7A
100
AcDbEntity
  8
_U+30EC_U+30A4_U+30E4_U+30FC 1
 62
   179
420
  2234388
100
AcDbHatch
 10
0.0
 20
0.0
 30
0.0
210
0.0
220
0.0
230
1.0
  2
SOLID
 70
     1
 71
     0
 91
        2
 92
        1
 93
        1
 72
     4
 94
        3
 73
     0
 74
     1
 95
       44
 96
       40
 40
0.0
 40
0.0
 40
0.0
 40
0.0
 40
1.0
 40
1.0
 40
1.0
 40
2.0
 40
2.0
 40
2.0
 40
3.0
 40
3.0
 40
3.0
 40
4.0
 40
4.0
 40
4.0
 40
5.0
 40
5.0
 40
5.0
 40
6.0
 40
6.0
 40
6.0
 40
7.0
 40
7.0
 40
7.0
 40
8.0
 40
8.0
 40
8.0
 40
9.0
 40
9.0
 40
9.0
 40
10.0
 40
10.0
 40
10.0
 40
11.0
 40
11.0
 40
11.0
 40
12.0
 40
12.0
 40
12.0
 40
13.0
 40
13.0
 40
13.0
 40
13.0
 10
92.83671058876999
 20
-184.3319009955837
 10
92.8132839394703
 20
-184.2871147542754
 10
92.79226885701027
 20
-184.2347493028996
 10
92.79020179971911
 20
-184.0039279053879
 10
92.78606768513681
 20
-183.7607041641293
 10
92.72681204279053
 20
-183.6904242162302
 10
92.54904511575162
 20
-183.6904242162302
 10
92.54904511575162
 20
-183.6904242162302
 10
92.14080130074953
 20
-183.6904242162302
 10
92.14080130074953
 20
-183.6904242162302
 10
92.14080130074953
 20
-183.6904242162302
 10
92.14080130074953
 20
-184.3319009955837
 10
92.14080130074953
 20
-184.3319009955837
 10
92.14080130074953
 20
-184.3319009955837
 10
91.90584578865548
 20
-184.3319009955837
 10
91.90584578865548
 20
-184.3319009955837
 10
91.90584578865548
 20
-184.3319009955837
 10
91.90584578865548
 20
-182.7871201799977
 10
91.90584578865548
 20
-182.7871201799977
 10
91.90584578865548
 20
-182.7871201799977
 10
92.58073999421593
 20
-182.7871201799977
 10
92.58073999421593
 20
-182.7871201799977
 10
92.88735349240316
 20
-182.7871201799977
 10
93.05478513298631
 20
-182.9586859351631
 10
93.05478513298631
 20
-183.2150010392657
 10
93.05478513298631
 20
-183.2652994333504
 10
93.04617239427319
 20
-183.3479817249963
 10
93.00173066251347
 20
-183.4285969593512
 10
92.94247502016717
 20
-183.5319498239087
 10
92.87701820594742
 20
-183.5512423586261
 10
92.81569550630996
 20
-183.5677788169553
 10
92.95315481617143
 20
-183.6104980009724
 10
93.02067868768233
 20
-183.6587293377659
 10
93.02515731181316
 20
-183.9743000842148
 10
93.02929142639546
 20
-184.2450845893554
 10
93.06512041944205
 20
-184.2767794678197
 10
93.13298880050148
 20
-184.3319009955837
 10
93.13298880050148
 20
-184.3319009955837
 10
92.83671058876999
 20
-184.3319009955837
 10
92.83671058876999
 20
-184.3319009955837
 97
        0
 97
        0
 92
        1
 93
        1
 72
     4
 94
        3
 73
     0
 74
     1
 95
       20
 96
       16
 40
0.0
 40
0.0
 40
0.0
 40
0.0
 40
1.0
 40
1.0
 40
1.0
 40
2.0
 40
2.0
 40
2.0
 40
3.0
 40
3.0
 40
3.0
 40
4.0
 40
4.0
 40
4.0
 40
5.0
 40
5.0
 40
5.0
 40
5.0
 10
92.58487410879823
 20
-182.998649042792
 10
92.58487410879823
 20
-182.998649042792
 10
92.14080130074953
 20
-182.998649042792
 10
92.14080130074953
 20
-182.998649042792
 10
92.14080130074953
 20
-182.998649042792
 10
92.14080130074953
 20
-183.4788953534358
 10
92.14080130074953
 20
-183.4788953534358
 10
92.14080130074953
 20
-183.4788953534358
 10
92.58280705150707
 20
-183.4788953534358
 10
92.58280705150707
 20
-183.4788953534358
 10
92.6823703110308
 20
-183.4788953534358
 10
92.81776256360112
 20
-183.4031032527603
 10
92.81776256360112
 20
-183.2315374975949
 10
92.81776256360112
 20
-183.1536783396282
 10
92.78400062784567
 20
-182.998649042792
 10
92.58487410879823
 20
-182.998649042792
 97
        0
 97
        0
 75
     2
 76
     1
 98
        0
  0
SPLINE
  5
81
330
7A
100
AcDbEntity
  8
_U+30EC_U+30A4_U+30E4_U+30FC 1
370
     0
100
AcDbSpline
210
0.0
220
0.0
230
1.0
 70
    11
 71
     3
 72
    29
 73
    25
 74
     0
 42
0.0000000001
 43
0.0000000001
 12
1.0
 22
0.0
 32
0.0
 13
1.0
 23
0.0
 33
0.0
 40
0.0
 40
0.0
 40
0.0
 40
0.0
 40
1.0
 40
1.0
 40
1.0
 40
2.0
 40
2.0
 40
2.0
 40
3.0
 40
3.0
 40
3.0
 40
4.0
 40
4.0
 40
4.0
 40
5.0
 40
5.0
 40
5.0
 40
6.0
 40
6.0
 40
6.0
 40
7.0
 40
7.0
 40
7.0
 40
8.0
 40
8.0
 40
8.0
 40
8.0
 10
94.1703070511102
 20
-184.1541340685448
 30
0.0
 10
94.06247556242188
 20
-184.363595874048
 30
0.0
 10
93.88884274996529
 20
-184.3821993896684
 30
0.0
 10
93.77239852256385
 20
-184.3821993896684
 30
0.0
 10
93.61185707295121
 20
-184.3821993896684
 30
0.0
 10
93.46991913895891
 20
-184.336035110166
 30
0.0
 10
93.37483450356602
 20
-184.1541340685448
 30
0.0
 10
93.27113712946
 20
-183.9591416640797
 30
0.0
 10
93.25218910429112
 20
-183.7228081137915
 30
0.0
 10
93.25218910429112
 20
-183.5595105877907
 30
0.0
 10
93.25218910429112
 20
-183.4155055965072
 30
0.0
 10
93.26907007216884
 20
-183.164013626084
 30
0.0
 10
93.37483450356602
 20
-182.9648871070366
 30
0.0
 10
93.48266599225434
 20
-182.7623154925039
 30
0.0
 10
93.6435519514155
 20
-182.7388888432042
 30
0.0
 10
93.77239852256385
 20
-182.7388888432042
 30
0.0
 10
93.93121742443387
 20
-182.7388888432042
 30
0.0
 10
94.07487790616878
 20
-182.7829860654154
 30
0.0
 10
94.1703070511102
 20
-182.9648871070366
 30
0.0
 10
94.26987031063392
 20
-183.1578124542106
 30
0.0
 10
94.2929524503851
 20
-183.3858777753341
 30
0.0
 10
94.2929524503851
 20
-183.5595105877907
 30
0.0
 10
94.2929524503851
 20
-183.7310763429561
 30
0.0
 10
94.27193736792508
 20
-183.9612087213708
 30
0.0
 10
94.1703070511102
 20
-184.1541340685448
 30
0.0
  0
SPLINE
  5
82
330
7A
100
AcDbEntity
  8
_U+30EC_U+30A4_U+30E4_U+30FC 1
370
     0
100
AcDbSpline
210
0.0
220
0.0
230
1.0
 70
    11
 71
     3
 72
    17
 73
    13
 74
     0
 42
0.0000000001
 43
0.0000000001
 12
1.0
 22
0.0
 32
0.0
 13
1.0
 23
0.0
 33
0.0
 40
0.0
 40
0.0
 40
0.0
 40
0.0
 40
1.0
 40
1.0
 40
1.0
 40
2.0
 40
2.0
 40
2.0
 40
3.0
 40
3.0
 40
3.0
 40
4.0
 40
4.0
 40
4.0
 40
4.0
 10
93.77239852256385
 20
-182.9311251712811
 30
0.0
 10
93.52297360943176
 20
-182.9311251712811
 30
0.0
 10
93.47646482038088
 20
-183.2150010392657
 30
0.0
 10
93.47646482038088
 20
-183.5595105877907
 30
0.0
 10
93.47646482038088
 20
-183.8792154488219
 30
0.0
 10
93.51229381342749
 20
-184.1878960043003
 30
0.0
 10
93.77239852256385
 20
-184.1878960043003
 30
0.0
 10
94.02010088795332
 20
-184.1878960043003
 30
0.0
 10
94.06867673429534
 20
-183.9067762127039
 30
0.0
 10
94.06867673429534
 20
-183.5595105877907
 30
0.0
 10
94.06867673429534
 20
-183.2398057267595
 30
0.0
 10
94.03078068395759
 20
-182.9311251712811
 30
0.0
 10
93.77239852256385
 20
-182.9311251712811
 30
0.0
  0
HATCH
  5
83
330
7A
100
AcDbEntity
  8
_U+30EC_U+30A4_U+30E4_U+30FC 1
 62
   179
420
  2234388
100
AcDbHatch
 10
0.0
 20
0.0
 30
0.0
210
0.0
220
0.0
230
1.0
  2
SOLID
 70
     1
 71
     0
 91
        2
 92
        1
 93
        1
 72
     4
 94
        3
 73
     0
 74
     1
 95
       29
 96
       25
 40
0.0
 40
0.0
 40
0.0
 40
0.0
 40
1.0
 40
1.0
 40
1.0
 40
2.0
 40
2.0
 40
2.0
 40
3.0
 40
3.0
 40
3.0
 40
4.0
 40
4.0
 40
4.0
 40
5.0
 40
5.0
 40
5.0
 40
6.0
 40
6.0
 40
6.0
 40
7.0
 40
7.0
 40
7.0
 40
8.0
 40
8.0
 40
8.0
 40
8.0
 10
94.1703070511102
 20
-184.1541340685448
 10
94.06247556242188
 20
-184.363595874048
 10
93.88884274996529
 20
-184.3821993896684
 10
93.77239852256385
 20
-184.3821993896684
 10
93.61185707295121
 20
-184.3821993896684
 10
93.46991913895891
 20
-184.336035110166
 10
93.37483450356602
 20
-184.1541340685448
 10
93.27113712946
 20
-183.9591416640797
 10
93.25218910429112
 20
-183.7228081137915
 10
93.25218910429112
 20
-183.5595105877907
 10
93.25218910429112
 20
-183.4155055965072
 10
93.26907007216884
 20
-183.164013626084
 10
93.37483450356602
 20
-182.9648871070366
 10
93.48266599225434
 20
-182.7623154925039
 10
93.6435519514155
 20
-182.7388888432042
 10
93.77239852256385
 20
-182.7388888432042
 10
93.93121742443387
 20
-182.7388888432042
 10
94.07487790616878
 20
-182.7829860654154
 10
94.1703070511102
 20
-182.9648871070366
 10
94.26987031063392
 20
-183.1578124542106
 10
94.2929524503851
 20
-183.3858777753341
 10
94.2929524503851
 20
-183.5595105877907
 10
94.2929524503851
 20
-183.7310763429561
 10
94.27193736792508
 20
-183.9612087213708
 10
94.1703070511102
 20
-184.1541340685448
 97
        0
 97
        0
 92
        1
 93
        1
 72
     4
 94
        3
 73
     0
 74
     1
 95
       17
 96
       13
 40
0.0
 40
0.0
 40
0.0
 40
0.0
 40
1.0
 40
1.0
 40
1.0
 40
2.0
 40
2.0
 40
2.0
 40
3.0
 40
3.0
 40
3.0
 40
4.0
 40
4.0
 40
4.0
 40
4.0
 10
93.77239852256385
 20
-182.9311251712811
 10
93.52297360943176
 20
-182.9311251712811
 10
93.47646482038088
 20
-183.2150010392657
 10
93.47646482038088
 20
-183.5595105877907
 10
93.47646482038088
 20
-183.8792154488219
 10
93.51229381342749
 20
-184.1878960043003
 10
93.77239852256385
 20
-184.1878960043003
 10
94.02010088795332
 20
-184.1878960043003
 10
94.06867673429534
 20
-183.9067762127039
 10
94.06867673429534
 20
-183.5595105877907
 10
94.06867673429534
 20
-183.2398057267595
 10
94.03078068395759
 20
-182.9311251712811
 10
93.77239852256385
 20
-182.9311251712811
 97
        0
 97
        0
 75
     2
 76
     1
 98
        0
  0
POLYLINE
  5
84
330
7A
100
AcDbEntity
  8
_U+30EC_U+30A4_U+30E4_U+30FC 1
370
     0
100
AcDb2dPolyline
 66
     1
 10
0.0
 20
0.0
 30
0.0
  0
VERTEX
  5
85
330
84
100
AcDbEntity
  8
_U+30EC_U+30A4_U+30E4_U+30FC 1
370
     0
100
AcDbVertex
100
AcDb2dVertex
 10
94.50964895640732
 20
-184.3319009955837
 30
0.0
  0
VERTEX
  5
86
330
84
100
AcDbEntity
  8
_U+30EC_U+30A4_U+30E4_U+30FC 1
370
     0
100
AcDbVertex
100
AcDb2dVertex
 10
94.50964895640732
 20
-184.0797200060634
 30
0.0
  0
VERTEX
  5
87
330
84
100
AcDbEntity
  8
_U+30EC_U+30A4_U+30E4_U+30FC 1
370
     0
100
AcDbVertex
100
AcDb2dVertex
 10
94.76148543637908
 20
-184.0797200060634
 30
0.0
  0
VERTEX
  5
88
330
84
100
AcDbEntity
  8
_U+30EC_U+30A4_U+30E4_U+30FC 1
370
     0
100
AcDbVertex
100
AcDb2dVertex
 10
94.76148543637908
 20
-184.3319009955837
 30
0.0
  0
VERTEX
  5
89
330
84
100
AcDbEntity
  8
_U+30EC_U+30A4_U+30E4_U+30FC 1
370
     0
100
AcDbVertex
100
AcDb2dVertex
 10
94.50964895640732
 20
-184.3319009955837
 30
0.0
  0
SEQEND
  5
8A
330
84
100
AcDbEntity
  8
_U+30EC_U+30A4_U+30E4_U+30FC 1
370
     0
  0
HATCH
  5
8B
330
7A
100
AcDbEntity
  8
_U+30EC_U+30A4_U+30E4_U+30FC 1
 62
   179
420
  2234388
100
AcDbHatch
 10
0.0
 20
0.0
 30
0.0
210
0.0
220
0.0
230
1.0
  2
SOLID
 70
     1
 71
     0
 91
        1
 92
        1
 93
        4
 72
     1
 10
94.50964895640732
 20
-184.3319009955837
 11
94.50964895640732
 21
-184.0797200060634
 72
     1
 10
94.50964895640732
 20
-184.0797200060634
 11
94.76148543637908
 21
-184.0797200060634
 72
     1
 10
94.76148543637908
 20
-184.0797200060634
 11
94.76148543637908
 21
-184.3319009955837
 72
     1
 10
94.76148543637908
 20
-184.3319009955837
 11
94.50964895640732
 21
-184.3319009955837
 97
        0
 75
     2
 76
     1
 98
        0
  0
SPLINE
  5
8C
330
7A
100
AcDbEntity
  8
_U+30EC_U+30A4_U+30E4_U+30FC 1
370
     0
100
AcDbSpline
210
0.0
220
0.0
230
1.0
 70
    11
 71
     3
 72
    53
 73
    49
 74
     0
 42
0.0000000001
 43
0.0000000001
 12
1.0
 22
0.0
 32
0.0
 13
1.0
 23
0.0
 33
0.0
 40
0.0
 40
0.0
 40
0.0
 40
0.0
 40
1.0
 40
1.0
 40
1.0
 40
2.0
 40
2.0
 40
2.0
 40
3.0
 40
3.0
 40
3.0
 40
4.0
 40
4.0
 40
4.0
 40
5.0
 40
5.0
 40
5.0
 40
6.0
 40
6.0
 40
6.0
 40
7.0
 40
7.0
 40
7.0
 40
8.0
 40
8.0
 40
8.0
 40
9.0
 40
9.0
 40
9.0
 40
10.0
 40
10.0
 40
10.0
 40
11.0
 40
11.0
 40
11.0
 40
12.0
 40
12.0
 40
12.0
 40
13.0
 40
13.0
 40
13.0
 40
14.0
 40
14.0
 40
14.0
 40
15.0
 40
15.0
 40
15.0
 40
16.0
 40
16.0
 40
16.0
 40
16.0
 10
95.4787543164081
 20
-184.3821993896684
 30
0.0
 10
95.40055064889292
 20
-184.3821993896684
 30
0.0
 10
95.29892033207805
 20
-184.3656629313392
 30
0.0
 10
95.19729001526318
 20
-184.3022731744105
 30
0.0
 10
95.02400171235512
 20
-184.1920301188826
 30
0.0
 10
95.00264212034656
 20
-184.0611164904431
 30
0.0
 10
94.9836940951777
 20
-183.9529404922062
 30
0.0
 10
94.9836940951777
 20
-183.9529404922062
 30
0.0
 10
95.2059027539763
 20
-183.9529404922062
 30
0.0
 10
95.2059027539763
 20
-183.9529404922062
 30
0.0
 10
95.26067977219178
 20
-184.1520670112536
 30
0.0
 10
95.38780379559749
 20
-184.1816948324268
 30
0.0
 10
95.48082137369924
 20
-184.1816948324268
 30
0.0
 10
95.62034774085186
 20
-184.1816948324268
 30
0.0
 10
95.7726209612999
 20
-184.0817870633546
 30
0.0
 10
95.7726209612999
 20
-183.8495876276487
 30
0.0
 10
95.7726209612999
 20
-183.5932725235461
 30
0.0
 10
95.59278697696986
 20
-183.5236815947441
 30
0.0
 10
95.47220863498612
 20
-183.5236815947441
 30
0.0
 10
95.44051375652182
 20
-183.5236815947441
 30
0.0
 10
95.29892033207805
 20
-183.5236815947441
 30
0.0
 10
95.2100368685586
 20
-183.6525281658924
 30
0.0
 10
95.2100368685586
 20
-183.6525281658924
 30
0.0
 10
95.03433699881086
 20
-183.6339246502721
 30
0.0
 10
95.03433699881086
 20
-183.6339246502721
 30
0.0
 10
95.03433699881086
 20
-183.6339246502721
 30
0.0
 10
95.1549153407946
 20
-182.7871201799977
 30
0.0
 10
95.1549153407946
 20
-182.7871201799977
 30
0.0
 10
95.1549153407946
 20
-182.7871201799977
 30
0.0
 10
95.93350692046107
 20
-182.7871201799977
 30
0.0
 10
95.93350692046107
 20
-182.7871201799977
 30
0.0
 10
95.93350692046107
 20
-182.7871201799977
 30
0.0
 10
95.93350692046107
 20
-182.9821125844628
 30
0.0
 10
95.93350692046107
 20
-182.9821125844628
 30
0.0
 10
95.93350692046107
 20
-182.9821125844628
 30
0.0
 10
95.31786835724692
 20
-182.9821125844628
 30
0.0
 10
95.31786835724692
 20
-182.9821125844628
 30
0.0
 10
95.31786835724692
 20
-182.9821125844628
 30
0.0
 10
95.25241154302718
 20
-183.4051703100515
 30
0.0
 10
95.25241154302718
 20
-183.4051703100515
 30
0.0
 10
95.31373424266462
 20
-183.371408374296
 30
0.0
 10
95.39607202476209
 20
-183.3307562475701
 30
0.0
 10
95.5145833094547
 20
-183.3307562475701
 30
0.0
 10
95.76848684671761
 20
-183.3307562475701
 30
0.0
 10
96.0055094161028
 20
-183.5174804228706
 30
0.0
 10
96.0055094161028
 20
-183.8302950929313
 30
0.0
 10
96.0055094161028
 20
-184.1479328966714
 30
0.0
 10
95.78123370001303
 20
-184.3821993896684
 30
0.0
 10
95.4787543164081
 20
-184.3821993896684
 30
0.0
  0
HATCH
  5
8D
330
7A
100
AcDbEntity
  8
_U+30EC_U+30A4_U+30E4_U+30FC 1
 62
   179
420
  2234388
100
AcDbHatch
 10
0.0
 20
0.0
 30
0.0
210
0.0
220
0.0
230
1.0
  2
SOLID
 70
     1
 71
     0
 91
        1
 92
        1
 93
        1
 72
     4
 94
        3
 73
     0
 74
     1
 95
       53
 96
       49
 40
0.0
 40
0.0
 40
0.0
 40
0.0
 40
1.0
 40
1.0
 40
1.0
 40
2.0
 40
2.0
 40
2.0
 40
3.0
 40
3.0
 40
3.0
 40
4.0
 40
4.0
 40
4.0
 40
5.0
 40
5.0
 40
5.0
 40
6.0
 40
6.0
 40
6.0
 40
7.0
 40
7.0
 40
7.0
 40
8.0
 40
8.0
 40
8.0
 40
9.0
 40
9.0
 40
9.0
 40
10.0
 40
10.0
 40
10.0
 40
11.0
 40
11.0
 40
11.0
 40
12.0
 40
12.0
 40
12.0
 40
13.0
 40
13.0
 40
13.0
 40
14.0
 40
14.0
 40
14.0
 40
15.0
 40
15.0
 40
15.0
 40
16.0
 40
16.0
 40
16.0
 40
16.0
 10
95.4787543164081
 20
-184.3821993896684
 10
95.40055064889292
 20
-184.3821993896684
 10
95.29892033207805
 20
-184.3656629313392
 10
95.19729001526318
 20
-184.3022731744105
 10
95.02400171235512
 20
-184.1920301188826
 10
95.00264212034656
 20
-184.0611164904431
 10
94.9836940951777
 20
-183.9529404922062
 10
94.9836940951777
 20
-183.9529404922062
 10
95.2059027539763
 20
-183.9529404922062
 10
95.2059027539763
 20
-183.9529404922062
 10
95.26067977219178
 20
-184.1520670112536
 10
95.38780379559749
 20
-184.1816948324268
 10
95.48082137369924
 20
-184.1816948324268
 10
95.62034774085186
 20
-184.1816948324268
 10
95.7726209612999
 20
-184.0817870633546
 10
95.7726209612999
 20
-183.8495876276487
 10
95.7726209612999
 20
-183.5932725235461
 10
95.59278697696986
 20
-183.5236815947441
 10
95.47220863498612
 20
-183.5236815947441
 10
95.44051375652182
 20
-183.5236815947441
 10
95.29892033207805
 20
-183.5236815947441
 10
95.2100368685586
 20
-183.6525281658924
 10
95.2100368685586
 20
-183.6525281658924
 10
95.03433699881086
 20
-183.6339246502721
 10
95.03433699881086
 20
-183.6339246502721
 10
95.03433699881086
 20
-183.6339246502721
 10
95.1549153407946
 20
-182.7871201799977
 10
95.1549153407946
 20
-182.7871201799977
 10
95.1549153407946
 20
-182.7871201799977
 10
95.93350692046107
 20
-182.7871201799977
 10
95.93350692046107
 20
-182.7871201799977
 10
95.93350692046107
 20
-182.7871201799977
 10
95.93350692046107
 20
-182.9821125844628
 10
95.93350692046107
 20
-182.9821125844628
 10
95.93350692046107
 20
-182.9821125844628
 10
95.31786835724692
 20
-182.9821125844628
 10
95.31786835724692
 20
-182.9821125844628
 10
95.31786835724692
 20
-182.9821125844628
 10
95.25241154302718
 20
-183.4051703100515
 10
95.25241154302718
 20
-183.4051703100515
 10
95.31373424266462
 20
-183.371408374296
 10
95.39607202476209
 20
-183.3307562475701
 10
95.5145833094547
 20
-183.3307562475701
 10
95.76848684671761
 20
-183.3307562475701
 10
96.0055094161028
 20
-183.5174804228706
 10
96.0055094161028
 20
-183.8302950929313
 10
96.0055094161028
 20
-184.1479328966714
 10
95.78123370001303
 20
-184.3821993896684
 10
95.4787543164081
 20
-184.3821993896684
 97
        0
 97
        0
 75
     2
 76
     1
 98
        0
  0
ENDBLK
  5
7D
330
7A
100
AcDbEntity
  8
0
100
AcDbBlockEnd
  0
BLOCK
  5
90
330
8E
100
AcDbEntity
  8
0
100
AcDbBlockBegin
  2
block 4
 70
     0
 10
0.0
 20
0.0
 30
0.0
  3
block 4
  1

  0
SPLINE
  5
92
330
8E
100
AcDbEntity
  8
_U+30EC_U+30A4_U+30E4_U+30FC 1
370
     0
100
AcDbSpline
210
0.0
220
0.0
230
1.0
 70
    11
 71
     3
 72
    44
 73
    40
 74
     0
 42
0.0000000001
 43
0.0000000001
 12
1.0
 22
0.0
 32
0.0
 13
1.0
 23
0.0
 33
0.0
 40
0.0
 40
0.0
 40
0.0
 40
0.0
 40
1.0
 40
1.0
 40
1.0
 40
2.0
 40
2.0
 40
2.0
 40
3.0
 40
3.0
 40
3.0
 40
4.0
 40
4.0
 40
4.0
 40
5.0
 40
5.0
 40
5.0
 40
6.0
 40
6.0
 40
6.0
 40
7.0
 40
7.0
 40
7.0
 40
8.0
 40
8.0
 40
8.0
 40
9.0
 40
9.0
 40
9.0
 40
10.0
 40
10.0
 40
10.0
 40
11.0
 40
11.0
 40
11.0
 40
12.0
 40
12.0
 40
12.0
 40
13.0
 40
13.0
 40
13.0
 40
13.0
 10
85.92567679058456
 20
-73.33316377289935
 30
0.0
 10
85.70777450114251
 20
-73.49198267476937
 30
0.0
 10
85.6145846682665
 20
-73.56605222770224
 30
0.0
 10
85.56600882192447
 20
-73.70971270943716
 30
0.0
 10
85.56600882192447
 20
-73.70971270943716
 30
0.0
 10
86.34442814681667
 20
-73.70971270943716
 30
0.0
 10
86.34442814681667
 20
-73.70971270943716
 30
0.0
 10
86.34442814681667
 20
-73.70971270943716
 30
0.0
 10
86.34442814681667
 20
-73.91504040035805
 30
0.0
 10
86.34442814681667
 20
-73.91504040035805
 30
0.0
 10
86.34442814681667
 20
-73.91504040035805
 30
0.0
 10
85.31641165401813
 20
-73.91504040035805
 30
0.0
 10
85.31641165401813
 20
-73.91504040035805
 30
0.0
 10
85.34810653248242
 20
-73.55743948898912
 30
0.0
 10
85.41373560147643
 20
-73.47923582147395
 30
0.0
 10
85.7987250219531
 20
-73.1808905524513
 30
0.0
 10
86.05469561650716
 20
-72.98210854295239
 30
0.0
 10
86.1201524307269
 20
-72.91424016189298
 30
0.0
 10
86.1201524307269
 20
-72.77678085203151
 30
0.0
 10
86.1201524307269
 20
-72.6582695673389
 30
0.0
 10
86.04832218985945
 20
-72.52735593889942
 30
0.0
 10
85.85160723765169
 20
-72.52735593889942
 30
0.0
 10
85.59133027374106
 20
-72.52735593889942
 30
0.0
 10
85.5828897898022
 20
-72.75783282686263
 30
0.0
 10
85.57858342044564
 20
-72.87427705426407
 30
0.0
 10
85.57858342044564
 20
-72.87427705426407
 30
0.0
 10
85.35447995913013
 20
-72.87427705426407
 30
0.0
 10
85.35447995913013
 20
-72.87427705426407
 30
0.0
 10
85.362920443069
 20
-72.74715303085836
 30
0.0
 10
85.37342798429901
 20
-72.63518742758774
 30
0.0
 10
85.4538709638796
 20
-72.51667614289514
 30
0.0
 10
85.56376950985906
 20
-72.35579018373397
 30
0.0
 10
85.74997692083681
 20
-72.32202824797852
 30
0.0
 10
85.86642114823826
 20
-72.32202824797852
 30
0.0
 10
86.14357908002661
 20
-72.32202824797852
 30
0.0
 10
86.35080157346438
 20
-72.50599634689087
 30
0.0
 10
86.35080157346438
 20
-72.77884790932265
 30
0.0
 10
86.35080157346438
 20
-73.00760224954324
 30
0.0
 10
86.2345296008372
 20
-73.10682099951843
 30
0.0
 10
85.92567679058456
 20
-73.33316377289935
 30
0.0
  0
HATCH
  5
93
330
8E
100
AcDbEntity
  8
_U+30EC_U+30A4_U+30E4_U+30FC 1
 62
   179
420
  2234388
100
AcDbHatch
 10
0.0
 20
0.0
 30
0.0
210
0.0
220
0.0
230
1.0
  2
SOLID
 70
     1
 71
     0
 91
        1
 92
        1
 93
        1
 72
     4
 94
        3
 73
     0
 74
     1
 95
       44
 96
       40
 40
0.0
 40
0.0
 40
0.0
 40
0.0
 40
1.0
 40
1.0
 40
1.0
 40
2.0
 40
2.0
 40
2.0
 40
3.0
 40
3.0
 40
3.0
 40
4.0
 40
4.0
 40
4.0
 40
5.0
 40
5.0
 40
5.0
 40
6.0
 40
6.0
 40
6.0
 40
7.0
 40
7.0
 40
7.0
 40
8.0
 40
8.0
 40
8.0
 40
9.0
 40
9.0
 40
9.0
 40
10.0
 40
10.0
 40
10.0
 40
11.0
 40
11.0
 40
11.0
 40
12.0
 40
12.0
 40
12.0
 40
13.0
 40
13.0
 40
13.0
 40
13.0
 10
85.92567679058456
 20
-73.33316377289935
 10
85.70777450114251
 20
-73.49198267476937
 10
85.6145846682665
 20
-73.56605222770224
 10
85.56600882192447
 20
-73.70971270943716
 10
85.56600882192447
 20
-73.70971270943716
 10
86.34442814681667
 20
-73.70971270943716
 10
86.34442814681667
 20
-73.70971270943716
 10
86.34442814681667
 20
-73.70971270943716
 10
86.34442814681667
 20
-73.91504040035805
 10
86.34442814681667
 20
-73.91504040035805
 10
86.34442814681667
 20
-73.91504040035805
 10
85.31641165401813
 20
-73.91504040035805
 10
85.31641165401813
 20
-73.91504040035805
 10
85.34810653248242
 20
-73.55743948898912
 10
85.41373560147643
 20
-73.47923582147395
 10
85.7987250219531
 20
-73.1808905524513
 10
86.05469561650716
 20
-72.98210854295239
 10
86.1201524307269
 20
-72.91424016189298
 10
86.1201524307269
 20
-72.77678085203151
 10
86.1201524307269
 20
-72.6582695673389
 10
86.04832218985945
 20
-72.52735593889942
 10
85.85160723765169
 20
-72.52735593889942
 10
85.59133027374106
 20
-72.52735593889942
 10
85.5828897898022
 20
-72.75783282686263
 10
85.57858342044564
 20
-72.87427705426407
 10
85.57858342044564
 20
-72.87427705426407
 10
85.35447995913013
 20
-72.87427705426407
 10
85.35447995913013
 20
-72.87427705426407
 10
85.362920443069
 20
-72.74715303085836
 10
85.37342798429901
 20
-72.63518742758774
 10
85.4538709638796
 20
-72.51667614289514
 10
85.56376950985906
 20
-72.35579018373397
 10
85.74997692083681
 20
-72.32202824797852
 10
85.86642114823826
 20
-72.32202824797852
 10
86.14357908002661
 20
-72.32202824797852
 10
86.35080157346438
 20
-72.50599634689087
 10
86.35080157346438
 20
-72.77884790932265
 10
86.35080157346438
 20
-73.00760224954324
 10
86.2345296008372
 20
-73.10682099951843
 10
85.92567679058456
 20
-73.33316377289935
 97
        0
 97
        0
 75
     2
 76
     1
 98
        0
  0
POLYLINE
  5
94
330
8E
100
AcDbEntity
  8
_U+30EC_U+30A4_U+30E4_U+30FC 1
370
     0
100
AcDb2dPolyline
 66
     1
 10
0.0
 20
0.0
 30
0.0
  0
VERTEX
  5
95
330
94
100
AcDbEntity
  8
_U+30EC_U+30A4_U+30E4_U+30FC 1
370
     0
100
AcDbVertex
100
AcDb2dVertex
 10
86.56939288200348
 20
-73.91504040035805
 30
0.0
  0
VERTEX
  5
96
330
94
100
AcDbEntity
  8
_U+30EC_U+30A4_U+30E4_U+30FC 1
370
     0
100
AcDbVertex
100
AcDb2dVertex
 10
86.56939288200348
 20
-73.66320392038628
 30
0.0
  0
VERTEX
  5
97
330
94
100
AcDbEntity
  8
_U+30EC_U+30A4_U+30E4_U+30FC 1
370
     0
100
AcDbVertex
100
AcDb2dVertex
 10
86.82105710720099
 20
-73.66320392038628
 30
0.0
  0
VERTEX
  5
98
330
94
100
AcDbEntity
  8
_U+30EC_U+30A4_U+30E4_U+30FC 1
370
     0
100
AcDbVertex
100
AcDb2dVertex
 10
86.82105710720099
 20
-73.91504040035805
 30
0.0
  0
VERTEX
  5
99
330
94
100
AcDbEntity
  8
_U+30EC_U+30A4_U+30E4_U+30FC 1
370
     0
100
AcDbVertex
100
AcDb2dVertex
 10
86.56939288200348
 20
-73.91504040035805
 30
0.0
  0
SEQEND
  5
9A
330
94
100
AcDbEntity
  8
_U+30EC_U+30A4_U+30E4_U+30FC 1
370
     0
  0
HATCH
  5
9B
330
8E
100
AcDbEntity
  8
_U+30EC_U+30A4_U+30E4_U+30FC 1
 62
   179
420
  2234388
100
AcDbHatch
 10
0.0
 20
0.0
 30
0.0
210
0.0
220
0.0
230
1.0
  2
SOLID
 70
     1
 71
     0
 91
        1
 92
        1
 93
        4
 72
     1
 10
86.56939288200348
 20
-73.91504040035805
 11
86.56939288200348
 21
-73.66320392038628
 72
     1
 10
86.56939288200348
 20
-73.66320392038628
 11
86.82105710720099
 21
-73.66320392038628
 72
     1
 10
86.82105710720099
 20
-73.66320392038628
 11
86.82105710720099
 21
-73.91504040035805
 72
     1
 10
86.82105710720099
 20
-73.91504040035805
 11
86.56939288200348
 21
-73.91504040035805
 97
        0
 75
     2
 76
     1
 98
        0
  0
SPLINE
  5
9C
330
8E
100
AcDbEntity
  8
_U+30EC_U+30A4_U+30E4_U+30FC 1
370
     0
100
AcDbSpline
210
0.0
220
0.0
230
1.0
 70
    11
 71
     3
 72
    44
 73
    40
 74
     0
 42
0.0000000001
 43
0.0000000001
 12
1.0
 22
0.0
 32
0.0
 13
1.0
 23
0.0
 33
0.0
 40
0.0
 40
0.0
 40
0.0
 40
0.0
 40
1.0
 40
1.0
 40
1.0
 40
2.0
 40
2.0
 40
2.0
 40
3.0
 40
3.0
 40
3.0
 40
4.0
 40
4.0
 40
4.0
 40
5.0
 40
5.0
 40
5.0
 40
6.0
 40
6.0
 40
6.0
 40
7.0
 40
7.0
 40
7.0
 40
8.0
 40
8.0
 40
8.0
 40
9.0
 40
9.0
 40
9.0
 40
10.0
 40
10.0
 40
10.0
 40
11.0
 40
11.0
 40
11.0
 40
12.0
 40
12.0
 40
12.0
 40
13.0
 40
13.0
 40
13.0
 40
13.0
 10
87.65080835482341
 20
-73.33316377289935
 30
0.0
 10
87.43290606538136
 20
-73.49198267476937
 30
0.0
 10
87.33971623250535
 20
-73.56605222770224
 30
0.0
 10
87.29114038616333
 20
-73.70971270943716
 30
0.0
 10
87.29114038616333
 20
-73.70971270943716
 30
0.0
 10
88.06955971105553
 20
-73.70971270943716
 30
0.0
 10
88.06955971105553
 20
-73.70971270943716
 30
0.0
 10
88.06955971105553
 20
-73.70971270943716
 30
0.0
 10
88.06955971105553
 20
-73.91504040035805
 30
0.0
 10
88.06955971105553
 20
-73.91504040035805
 30
0.0
 10
88.06955971105553
 20
-73.91504040035805
 30
0.0
 10
87.04154321825698
 20
-73.91504040035805
 30
0.0
 10
87.04154321825698
 20
-73.91504040035805
 30
0.0
 10
87.07323809672128
 20
-73.55743948898912
 30
0.0
 10
87.13869491094103
 20
-73.47923582147395
 30
0.0
 10
87.52385658619195
 20
-73.1808905524513
 30
0.0
 10
87.77982718074603
 20
-72.98210854295239
 30
0.0
 10
87.84528399496577
 20
-72.91424016189298
 30
0.0
 10
87.84528399496577
 20
-72.77678085203151
 30
0.0
 10
87.84528399496577
 20
-72.6582695673389
 30
0.0
 10
87.77345375409831
 20
-72.52735593889942
 30
0.0
 10
87.57673880189054
 20
-72.52735593889942
 30
0.0
 10
87.31646183797992
 20
-72.52735593889942
 30
0.0
 10
87.30802135404106
 20
-72.75783282686263
 30
0.0
 10
87.30371498468449
 20
-72.87427705426407
 30
0.0
 10
87.30371498468449
 20
-72.87427705426407
 30
0.0
 10
87.079611523369
 20
-72.87427705426407
 30
0.0
 10
87.079611523369
 20
-72.87427705426407
 30
0.0
 10
87.08805200730785
 20
-72.74715303085836
 30
0.0
 10
87.09855954853786
 20
-72.63518742758774
 30
0.0
 10
87.17900252811845
 20
-72.51667614289514
 30
0.0
 10
87.28890107409792
 20
-72.35579018373397
 30
0.0
 10
87.47510848507567
 20
-72.32202824797852
 30
0.0
 10
87.59155271247711
 20
-72.32202824797852
 30
0.0
 10
87.86871064426546
 20
-72.32202824797852
 30
0.0
 10
88.07593313770325
 20
-72.50599634689087
 30
0.0
 10
88.07593313770325
 20
-72.77884790932265
 30
0.0
 10
88.07593313770325
 20
-73.00760224954324
 30
0.0
 10
87.95966116507606
 20
-73.10682099951843
 30
0.0
 10
87.65080835482341
 20
-73.33316377289935
 30
0.0
  0
HATCH
  5
9D
330
8E
100
AcDbEntity
  8
_U+30EC_U+30A4_U+30E4_U+30FC 1
 62
   179
420
  2234388
100
AcDbHatch
 10
0.0
 20
0.0
 30
0.0
210
0.0
220
0.0
230
1.0
  2
SOLID
 70
     1
 71
     0
 91
        1
 92
        1
 93
        1
 72
     4
 94
        3
 73
     0
 74
     1
 95
       44
 96
       40
 40
0.0
 40
0.0
 40
0.0
 40
0.0
 40
1.0
 40
1.0
 40
1.0
 40
2.0
 40
2.0
 40
2.0
 40
3.0
 40
3.0
 40
3.0
 40
4.0
 40
4.0
 40
4.0
 40
5.0
 40
5.0
 40
5.0
 40
6.0
 40
6.0
 40
6.0
 40
7.0
 40
7.0
 40
7.0
 40
8.0
 40
8.0
 40
8.0
 40
9.0
 40
9.0
 40
9.0
 40
10.0
 40
10.0
 40
10.0
 40
11.0
 40
11.0
 40
11.0
 40
12.0
 40
12.0
 40
12.0
 40
13.0
 40
13.0
 40
13.0
 40
13.0
 10
87.65080835482341
 20
-73.33316377289935
 10
87.43290606538136
 20
-73.49198267476937
 10
87.33971623250535
 20
-73.56605222770224
 10
87.29114038616333
 20
-73.70971270943716
 10
87.29114038616333
 20
-73.70971270943716
 10
88.06955971105553
 20
-73.70971270943716
 10
88.06955971105553
 20
-73.70971270943716
 10
88.06955971105553
 20
-73.70971270943716
 10
88.06955971105553
 20
-73.91504040035805
 10
88.06955971105553
 20
-73.91504040035805
 10
88.06955971105553
 20
-73.91504040035805
 10
87.04154321825698
 20
-73.91504040035805
 10
87.04154321825698
 20
-73.91504040035805
 10
87.07323809672128
 20
-73.55743948898912
 10
87.13869491094103
 20
-73.47923582147395
 10
87.52385658619195
 20
-73.1808905524513
 10
87.77982718074603
 20
-72.98210854295239
 10
87.84528399496577
 20
-72.91424016189298
 10
87.84528399496577
 20
-72.77678085203151
 10
87.84528399496577
 20
-72.6582695673389
 10
87.77345375409831
 20
-72.52735593889942
 10
87.57673880189054
 20
-72.52735593889942
 10
87.31646183797992
 20
-72.52735593889942
 10
87.30802135404106
 20
-72.75783282686263
 10
87.30371498468449
 20
-72.87427705426407
 10
87.30371498468449
 20
-72.87427705426407
 10
87.079611523369
 20
-72.87427705426407
 10
87.079611523369
 20
-72.87427705426407
 10
87.08805200730785
 20
-72.74715303085836
 10
87.09855954853786
 20
-72.63518742758774
 10
87.17900252811845
 20
-72.51667614289514
 10
87.28890107409792
 20
-72.35579018373397
 10
87.47510848507567
 20
-72.32202824797852
 10
87.59155271247711
 20
-72.32202824797852
 10
87.86871064426546
 20
-72.32202824797852
 10
88.07593313770325
 20
-72.50599634689087
 10
88.07593313770325
 20
-72.77884790932265
 10
88.07593313770325
 20
-73.00760224954324
 10
87.95966116507606
 20
-73.10682099951843
 10
87.65080835482341
 20
-73.33316377289935
 97
        0
 97
        0
 75
     2
 76
     1
 98
        0
  0
ENDBLK
  5
91
330
8E
100
AcDbEntity
  8
0
100
AcDbBlockEnd
  0
BLOCK
  5
AC
330
AA
100
AcDbEntity
  8
0
100
AcDbBlockBegin
  2
block 5
 70
     0
 10
0.0
 20
0.0
 30
0.0
  3
block 5
  1

  0
SPLINE
  5
AE
330
AA
100
AcDbEntity
  8
_U+30EC_U+30A4_U+30E4_U+30FC 1
370
     0
100
AcDbSpline
210
0.0
220
0.0
230
1.0
 70
    11
 71
     3
 72
    26
 73
    22
 74
     0
 42
0.0000000001
 43
0.0000000001
 12
1.0
 22
0.0
 32
0.0
 13
1.0
 23
0.0
 33
0.0
 40
0.0
 40
0.0
 40
0.0
 40
0.0
 40
1.0
 40
1.0
 40
1.0
 40
2.0
 40
2.0
 40
2.0
 40
3.0
 40
3.0
 40
3.0
 40
4.0
 40
4.0
 40
4.0
 40
5.0
 40
5.0
 40
5.0
 40
6.0
 40
6.0
 40
6.0
 40
7.0
 40
7.0
 40
7.0
 40
7.0
 10
91.58235132259053
 20
-130.9239637259496
 30
0.0
 10
91.58235132259053
 20
-130.9239637259496
 30
0.0
 10
90.47819821956796
 20
-130.9239637259496
 30
0.0
 10
90.47819821956796
 20
-130.9239637259496
 30
0.0
 10
90.47819821956796
 20
-130.9239637259496
 30
0.0
 10
90.47819821956796
 20
-131.2540038734365
 30
0.0
 10
90.47819821956796
 20
-131.2540038734365
 30
0.0
 10
90.47819821956796
 20
-131.2540038734365
 30
0.0
 10
90.3300591137022
 20
-131.2540038734365
 30
0.0
 10
90.3300591137022
 20
-131.2540038734365
 30
0.0
 10
90.31524520311564
 20
-130.9218966686584
 30
0.0
 10
90.15229218666332
 20
-130.875043370059
 30
0.0
 10
90.03791501655303
 20
-130.8454155488859
 30
0.0
 10
90.03791501655303
 20
-130.8454155488859
 30
0.0
 10
90.03791501655303
 20
-130.6993435003113
 30
0.0
 10
90.03791501655303
 20
-130.6993435003113
 30
0.0
 10
90.03791501655303
 20
-130.6993435003113
 30
0.0
 10
91.58235132259053
 20
-130.6993435003113
 30
0.0
 10
91.58235132259053
 20
-130.6993435003113
 30
0.0
 10
91.58235132259053
 20
-130.6993435003113
 30
0.0
 10
91.58235132259053
 20
-130.9239637259496
 30
0.0
 10
91.58235132259053
 20
-130.9239637259496
 30
0.0
  0
HATCH
  5
AF
330
AA
100
AcDbEntity
  8
_U+30EC_U+30A4_U+30E4_U+30FC 1
 62
   179
420
  2234388
100
AcDbHatch
 10
0.0
 20
0.0
 30
0.0
210
0.0
220
0.0
230
1.0
  2
SOLID
 70
     1
 71
     0
 91
        1
 92
        1
 93
        1
 72
     4
 94
        3
 73
     0
 74
     1
 95
       26
 96
       22
 40
0.0
 40
0.0
 40
0.0
 40
0.0
 40
1.0
 40
1.0
 40
1.0
 40
2.0
 40
2.0
 40
2.0
 40
3.0
 40
3.0
 40
3.0
 40
4.0
 40
4.0
 40
4.0
 40
5.0
 40
5.0
 40
5.0
 40
6.0
 40
6.0
 40
6.0
 40
7.0
 40
7.0
 40
7.0
 40
7.0
 10
91.58235132259053
 20
-130.9239637259496
 10
91.58235132259053
 20
-130.9239637259496
 10
90.47819821956796
 20
-130.9239637259496
 10
90.47819821956796
 20
-130.9239637259496
 10
90.47819821956796
 20
-130.9239637259496
 10
90.47819821956796
 20
-131.2540038734365
 10
90.47819821956796
 20
-131.2540038734365
 10
90.47819821956796
 20
-131.2540038734365
 10
90.3300591137022
 20
-131.2540038734365
 10
90.3300591137022
 20
-131.2540038734365
 10
90.31524520311564
 20
-130.9218966686584
 10
90.15229218666332
 20
-130.875043370059
 10
90.03791501655303
 20
-130.8454155488859
 10
90.03791501655303
 20
-130.8454155488859
 10
90.03791501655303
 20
-130.6993435003113
 10
90.03791501655303
 20
-130.6993435003113
 10
90.03791501655303
 20
-130.6993435003113
 10
91.58235132259053
 20
-130.6993435003113
 10
91.58235132259053
 20
-130.6993435003113
 10
91.58235132259053
 20
-130.6993435003113
 10
91.58235132259053
 20
-130.9239637259496
 10
91.58235132259053
 20
-130.9239637259496
 97
        0
 97
        0
 75
     2
 76
     1
 98
        0
  0
SPLINE
  5
B0
330
AA
100
AcDbEntity
  8
_U+30EC_U+30A4_U+30E4_U+30FC 1
370
     0
100
AcDbSpline
210
0.0
220
0.0
230
1.0
 70
    11
 71
     3
 72
    29
 73
    25
 74
     0
 42
0.0000000001
 43
0.0000000001
 12
1.0
 22
0.0
 32
0.0
 13
1.0
 23
0.0
 33
0.0
 40
0.0
 40
0.0
 40
0.0
 40
0.0
 40
1.0
 40
1.0
 40
1.0
 40
2.0
 40
2.0
 40
2.0
 40
3.0
 40
3.0
 40
3.0
 40
4.0
 40
4.0
 40
4.0
 40
5.0
 40
5.0
 40
5.0
 40
6.0
 40
6.0
 40
6.0
 40
7.0
 40
7.0
 40
7.0
 40
8.0
 40
8.0
 40
8.0
 40
8.0
 10
91.40458439555164
 20
-129.3006347332999
 30
0.0
 10
91.61404620105482
 20
-129.4088107315367
 30
0.0
 10
91.6329942262237
 20
-129.5817545248962
 30
0.0
 10
91.6329942262237
 20
-129.6981987522977
 30
0.0
 10
91.6329942262237
 20
-129.8594292210074
 30
0.0
 10
91.58648543717283
 20
-130.0006781359026
 30
0.0
 10
91.40458439555164
 20
-130.0957627712955
 30
0.0
 10
91.20993650063502
 20
-130.19980465495
 30
0.0
 10
90.97291393124983
 20
-130.2190971896675
 30
0.0
 10
90.81030542434604
 20
-130.2190971896675
 30
0.0
 10
90.6663004330626
 20
-130.2190971896675
 30
0.0
 10
90.41446395309083
 20
-130.2018717122412
 30
0.0
 10
90.21568194359192
 20
-130.0957627712955
 30
0.0
 10
90.0127658195107
 20
-129.9882757921557
 30
0.0
 10
89.989339170211
 20
-129.827045323446
 30
0.0
 10
89.989339170211
 20
-129.6981987522977
 30
0.0
 10
89.989339170211
 20
-129.5397243599762
 30
0.0
 10
90.03378090197073
 20
-129.3957193686927
 30
0.0
 10
90.21568194359192
 20
-129.3006347332999
 30
0.0
 10
90.40826278121739
 20
-129.2014159833247
 30
0.0
 10
90.63667261188945
 20
-129.1779893340249
 30
0.0
 10
90.81030542434604
 20
-129.1779893340249
 30
0.0
 10
90.98152666996296
 20
-129.1779893340249
 30
0.0
 10
91.21200355792617
 20
-129.1993489260335
 30
0.0
 10
91.40458439555164
 20
-129.3006347332999
 30
0.0
  0
SPLINE
  5
B1
330
AA
100
AcDbEntity
  8
_U+30EC_U+30A4_U+30E4_U+30FC 1
370
     0
100
AcDbSpline
210
0.0
220
0.0
230
1.0
 70
    11
 71
     3
 72
    17
 73
    13
 74
     0
 42
0.0000000001
 43
0.0000000001
 12
1.0
 22
0.0
 32
0.0
 13
1.0
 23
0.0
 33
0.0
 40
0.0
 40
0.0
 40
0.0
 40
0.0
 40
1.0
 40
1.0
 40
1.0
 40
2.0
 40
2.0
 40
2.0
 40
3.0
 40
3.0
 40
3.0
 40
4.0
 40
4.0
 40
4.0
 40
4.0
 10
90.18192000783647
 20
-129.6981987522977
 30
0.0
 10
90.18192000783647
 20
-129.9483126845268
 30
0.0
 10
90.46545136627253
 20
-129.9944769640292
 30
0.0
 10
90.81030542434604
 20
-129.9944769640292
 30
0.0
 10
91.1296657758287
 20
-129.9944769640292
 30
0.0
 10
91.43834633130709
 20
-129.9586479709826
 30
0.0
 10
91.43834633130709
 20
-129.6981987522977
 30
0.0
 10
91.43834633130709
 20
-129.4508408964568
 30
0.0
 10
91.15722653971069
 20
-129.4019205405662
 30
0.0
 10
90.81030542434604
 20
-129.4019205405662
 30
0.0
 10
90.49060056331486
 20
-129.4019205405662
 30
0.0
 10
90.18192000783647
 20
-129.440505610001
 30
0.0
 10
90.18192000783647
 20
-129.6981987522977
 30
0.0
  0
HATCH
  5
B2
330
AA
100
AcDbEntity
  8
_U+30EC_U+30A4_U+30E4_U+30FC 1
 62
   179
420
  2234388
100
AcDbHatch
 10
0.0
 20
0.0
 30
0.0
210
0.0
220
0.0
230
1.0
  2
SOLID
 70
     1
 71
     0
 91
        2
 92
        1
 93
        1
 72
     4
 94
        3
 73
     0
 74
     1
 95
       29
 96
       25
 40
0.0
 40
0.0
 40
0.0
 40
0.0
 40
1.0
 40
1.0
 40
1.0
 40
2.0
 40
2.0
 40
2.0
 40
3.0
 40
3.0
 40
3.0
 40
4.0
 40
4.0
 40
4.0
 40
5.0
 40
5.0
 40
5.0
 40
6.0
 40
6.0
 40
6.0
 40
7.0
 40
7.0
 40
7.0
 40
8.0
 40
8.0
 40
8.0
 40
8.0
 10
91.40458439555164
 20
-129.3006347332999
 10
91.61404620105482
 20
-129.4088107315367
 10
91.6329942262237
 20
-129.5817545248962
 10
91.6329942262237
 20
-129.6981987522977
 10
91.6329942262237
 20
-129.8594292210074
 10
91.58648543717283
 20
-130.0006781359026
 10
91.40458439555164
 20
-130.0957627712955
 10
91.20993650063502
 20
-130.19980465495
 10
90.97291393124983
 20
-130.2190971896675
 10
90.81030542434604
 20
-130.2190971896675
 10
90.6663004330626
 20
-130.2190971896675
 10
90.41446395309083
 20
-130.2018717122412
 10
90.21568194359192
 20
-130.0957627712955
 10
90.0127658195107
 20
-129.9882757921557
 10
89.989339170211
 20
-129.827045323446
 10
89.989339170211
 20
-129.6981987522977
 10
89.989339170211
 20
-129.5397243599762
 10
90.03378090197073
 20
-129.3957193686927
 10
90.21568194359192
 20
-129.3006347332999
 10
90.40826278121739
 20
-129.2014159833247
 10
90.63667261188945
 20
-129.1779893340249
 10
90.81030542434604
 20
-129.1779893340249
 10
90.98152666996296
 20
-129.1779893340249
 10
91.21200355792617
 20
-129.1993489260335
 10
91.40458439555164
 20
-129.3006347332999
 97
        0
 97
        0
 92
        1
 93
        1
 72
     4
 94
        3
 73
     0
 74
     1
 95
       17
 96
       13
 40
0.0
 40
0.0
 40
0.0
 40
0.0
 40
1.0
 40
1.0
 40
1.0
 40
2.0
 40
2.0
 40
2.0
 40
3.0
 40
3.0
 40
3.0
 40
4.0
 40
4.0
 40
4.0
 40
4.0
 10
90.18192000783647
 20
-129.6981987522977
 10
90.18192000783647
 20
-129.9483126845268
 10
90.46545136627253
 20
-129.9944769640292
 10
90.81030542434604
 20
-129.9944769640292
 10
91.1296657758287
 20
-129.9944769640292
 10
91.43834633130709
 20
-129.9586479709826
 10
91.43834633130709
 20
-129.6981987522977
 10
91.43834633130709
 20
-129.4508408964568
 10
91.15722653971069
 20
-129.4019205405662
 10
90.81030542434604
 20
-129.4019205405662
 10
90.49060056331486
 20
-129.4019205405662
 10
90.18192000783647
 20
-129.440505610001
 10
90.18192000783647
 20
-129.6981987522977
 97
        0
 97
        0
 75
     2
 76
     1
 98
        0
  0
SPLINE
  5
B3
330
AA
100
AcDbEntity
  8
_U+30EC_U+30A4_U+30E4_U+30FC 1
370
     0
100
AcDbSpline
210
0.0
220
0.0
230
1.0
 70
    11
 71
     3
 72
    29
 73
    25
 74
     0
 42
0.0000000001
 43
0.0000000001
 12
1.0
 22
0.0
 32
0.0
 13
1.0
 23
0.0
 33
0.0
 40
0.0
 40
0.0
 40
0.0
 40
0.0
 40
1.0
 40
1.0
 40
1.0
 40
2.0
 40
2.0
 40
2.0
 40
3.0
 40
3.0
 40
3.0
 40
4.0
 40
4.0
 40
4.0
 40
5.0
 40
5.0
 40
5.0
 40
6.0
 40
6.0
 40
6.0
 40
7.0
 40
7.0
 40
7.0
 40
8.0
 40
8.0
 40
8.0
 40
8.0
 10
91.40458439555164
 20
-128.1236178607642
 30
0.0
 10
91.61404620105482
 20
-128.2317938590011
 30
0.0
 10
91.6329942262237
 20
-128.4050821619091
 30
0.0
 10
91.6329942262237
 20
-128.5215263893106
 30
0.0
 10
91.6329942262237
 20
-128.6824123484718
 30
0.0
 10
91.58648543717283
 20
-128.8238335181413
 30
0.0
 10
91.40458439555164
 20
-128.9189181535342
 30
0.0
 10
91.20993650063502
 20
-129.0229600371887
 30
0.0
 10
90.97291393124983
 20
-129.0422525719061
 30
0.0
 10
90.81030542434604
 20
-129.0422525719061
 30
0.0
 10
90.6663004330626
 20
-129.0422525719061
 30
0.0
 10
90.41446395309083
 20
-129.0250270944799
 30
0.0
 10
90.21568194359192
 20
-128.9189181535342
 30
0.0
 10
90.0127658195107
 20
-128.8114311743944
 30
0.0
 10
89.989339170211
 20
-128.650372960459
 30
0.0
 10
89.989339170211
 20
-128.5215263893106
 30
0.0
 10
89.989339170211
 20
-128.3627074874406
 30
0.0
 10
90.03378090197073
 20
-128.2190470057056
 30
0.0
 10
90.21568194359192
 20
-128.1236178607642
 30
0.0
 10
90.40826278121739
 20
-128.024399110789
 30
0.0
 10
90.63667261188945
 20
-128.0009724614893
 30
0.0
 10
90.81030542434604
 20
-128.0009724614893
 30
0.0
 10
90.98152666996296
 20
-128.0009724614893
 30
0.0
 10
91.21200355792617
 20
-128.0223320534979
 30
0.0
 10
91.40458439555164
 20
-128.1236178607642
 30
0.0
  0
SPLINE
  5
B4
330
AA
100
AcDbEntity
  8
_U+30EC_U+30A4_U+30E4_U+30FC 1
370
     0
100
AcDbSpline
210
0.0
220
0.0
230
1.0
 70
    11
 71
     3
 72
    17
 73
    13
 74
     0
 42
0.0000000001
 43
0.0000000001
 12
1.0
 22
0.0
 32
0.0
 13
1.0
 23
0.0
 33
0.0
 40
0.0
 40
0.0
 40
0.0
 40
0.0
 40
1.0
 40
1.0
 40
1.0
 40
2.0
 40
2.0
 40
2.0
 40
3.0
 40
3.0
 40
3.0
 40
4.0
 40
4.0
 40
4.0
 40
4.0
 10
90.18192000783647
 20
-128.5215263893106
 30
0.0
 10
90.18192000783647
 20
-128.7714680667655
 30
0.0
 10
90.46545136627253
 20
-128.8176323462678
 30
0.0
 10
90.81030542434604
 20
-128.8176323462678
 30
0.0
 10
91.1296657758287
 20
-128.8176323462678
 30
0.0
 10
91.43834633130709
 20
-128.7818033532212
 30
0.0
 10
91.43834633130709
 20
-128.5215263893106
 30
0.0
 10
91.43834633130709
 20
-128.2738240239211
 30
0.0
 10
91.15722653971069
 20
-128.2252481775791
 30
0.0
 10
90.81030542434604
 20
-128.2252481775791
 30
0.0
 10
90.49060056331486
 20
-128.2252481775791
 30
0.0
 10
90.18192000783647
 20
-128.2634887374654
 30
0.0
 10
90.18192000783647
 20
-128.5215263893106
 30
0.0
  0
HATCH
  5
B5
330
AA
100
AcDbEntity
  8
_U+30EC_U+30A4_U+30E4_U+30FC 1
 62
   179
420
  2234388
100
AcDbHatch
 10
0.0
 20
0.0
 30
0.0
210
0.0
220
0.0
230
1.0
  2
SOLID
 70
     1
 71
     0
 91
        2
 92
        1
 93
        1
 72
     4
 94
        3
 73
     0
 74
     1
 95
       29
 96
       25
 40
0.0
 40
0.0
 40
0.0
 40
0.0
 40
1.0
 40
1.0
 40
1.0
 40
2.0
 40
2.0
 40
2.0
 40
3.0
 40
3.0
 40
3.0
 40
4.0
 40
4.0
 40
4.0
 40
5.0
 40
5.0
 40
5.0
 40
6.0
 40
6.0
 40
6.0
 40
7.0
 40
7.0
 40
7.0
 40
8.0
 40
8.0
 40
8.0
 40
8.0
 10
91.40458439555164
 20
-128.1236178607642
 10
91.61404620105482
 20
-128.2317938590011
 10
91.6329942262237
 20
-128.4050821619091
 10
91.6329942262237
 20
-128.5215263893106
 10
91.6329942262237
 20
-128.6824123484718
 10
91.58648543717283
 20
-128.8238335181413
 10
91.40458439555164
 20
-128.9189181535342
 10
91.20993650063502
 20
-129.0229600371887
 10
90.97291393124983
 20
-129.0422525719061
 10
90.81030542434604
 20
-129.0422525719061
 10
90.6663004330626
 20
-129.0422525719061
 10
90.41446395309083
 20
-129.0250270944799
 10
90.21568194359192
 20
-128.9189181535342
 10
90.0127658195107
 20
-128.8114311743944
 10
89.989339170211
 20
-128.650372960459
 10
89.989339170211
 20
-128.5215263893106
 10
89.989339170211
 20
-128.3627074874406
 10
90.03378090197073
 20
-128.2190470057056
 10
90.21568194359192
 20
-128.1236178607642
 10
90.40826278121739
 20
-128.024399110789
 10
90.63667261188945
 20
-128.0009724614893
 10
90.81030542434604
 20
-128.0009724614893
 10
90.98152666996296
 20
-128.0009724614893
 10
91.21200355792617
 20
-128.0223320534979
 10
91.40458439555164
 20
-128.1236178607642
 97
        0
 97
        0
 92
        1
 93
        1
 72
     4
 94
        3
 73
     0
 74
     1
 95
       17
 96
       13
 40
0.0
 40
0.0
 40
0.0
 40
0.0
 40
1.0
 40
1.0
 40
1.0
 40
2.0
 40
2.0
 40
2.0
 40
3.0
 40
3.0
 40
3.0
 40
4.0
 40
4.0
 40
4.0
 40
4.0
 10
90.18192000783647
 20
-128.5215263893106
 10
90.18192000783647
 20
-128.7714680667655
 10
90.46545136627253
 20
-128.8176323462678
 10
90.81030542434604
 20
-128.8176323462678
 10
91.1296657758287
 20
-128.8176323462678
 10
91.43834633130709
 20
-128.7818033532212
 10
91.43834633130709
 20
-128.5215263893106
 10
91.43834633130709
 20
-128.2738240239211
 10
91.15722653971069
 20
-128.2252481775791
 10
90.81030542434604
 20
-128.2252481775791
 10
90.49060056331486
 20
-128.2252481775791
 10
90.18192000783647
 20
-128.2634887374654
 10
90.18192000783647
 20
-128.5215263893106
 97
        0
 97
        0
 75
     2
 76
     1
 98
        0
  0
ENDBLK
  5
AD
330
AA
100
AcDbEntity
  8
0
100
AcDbBlockEnd
  0
ENDSEC
  0
SECTION
  2
ENTITIES
  0
SPLINE
  5
41
330
1F
100
AcDbEntity
  8
_U+30EC_U+30A4_U+30E4_U+30FC 1
 62
   179
420
  2234388
370
    25
100
AcDbSpline
210
0.0
220
0.0
230
1.0
 70
    11
 71
     3
 72
  1127
 73
  1123
 74
     0
 42
0.0000000001
 43
0.0000000001
 12
1.0
 22
0.0
 32
0.0
 13
1.0
 23
0.0
 33
0.0
 40
0.0
 40
0.0
 40
0.0
 40
0.0
 40
1.0
 40
1.0
 40
1.0
 40
2.0
 40
2.0
 40
2.0
 40
3.0
 40
3.0
 40
3.0
 40
4.0
 40
4.0
 40
4.0
 40
5.0
 40
5.0
 40
5.0
 40
6.0
 40
6.0
 40
6.0
 40
7.0
 40
7.0
 40
7.0
 40
8.0
 40
8.0
 40
8.0
 40
9.0
 40
9.0
 40
9.0
 40
10.0
 40
10.0
 40
10.0
 40
11.0
 40
11.0
 40
11.0
 40
12.0
 40
12.0
 40
12.0
 40
13.0
 40
13.0
 40
13.0
 40
14.0
 40
14.0
 40
14.0
 40
15.0
 40
15.0
 40
15.0
 40
16.0
 40
16.0
 40
16.0
 40
17.0
 40
17.0
 40
17.0
 40
18.0
 40
18.0
 40
18.0
 40
19.0
 40
19.0
 40
19.0
 40
20.0
 40
20.0
 40
20.0
 40
21.0
 40
21.0
 40
21.0
 40
22.0
 40
22.0
 40
22.0
 40
23.0
 40
23.0
 40
23.0
 40
24.0
 40
24.0
 40
24.0
 40
25.0
 40
25.0
 40
25.0
 40
26.0
 40
26.0
 40
26.0
 40
27.0
 40
27.0
 40
27.0
 40
28.0
 40
28.0
 40
28.0
 40
29.0
 40
29.0
 40
29.0
 40
30.0
 40
30.0
 40
30.0
 40
31.0
 40
31.0
 40
31.0
 40
32.0
 40
32.0
 40
32.0
 40
33.0
 40
33.0
 40
33.0
 40
34.0
 40
34.0
 40
34.0
 40
35.0
 40
35.0
 40
35.0
 40
36.0
 40
36.0
 40
36.0
 40
37.0
 40
37.0
 40
37.0
 40
38.0
 40
38.0
 40
38.0
 40
39.0
 40
39.0
 40
39.0
 40
40.0
 40
40.0
 40
40.0
 40
41.0
 40
41.0
 40
41.0
 40
42.0
 40
42.0
 40
42.0
 40
43.0
 40
43.0
 40
43.0
 40
44.0
 40
44.0
 40
44.0
 40
45.0
 40
45.0
 40
45.0
 40
46.0
 40
46.0
 40
46.0
 40
47.0
 40
47.0
 40
47.0
 40
48.0
 40
48.0
 40
48.0
 40
49.0
 40
49.0
 40
49.0
 40
50.0
 40
50.0
 40
50.0
 40
51.0
 40
51.0
 40
51.0
 40
52.0
 40
52.0
 40
52.0
 40
53.0
 40
53.0
 40
53.0
 40
54.0
 40
54.0
 40
54.0
 40
55.0
 40
55.0
 40
55.0
 40
56.0
 40
56.0
 40
56.0
 40
57.0
 40
57.0
 40
57.0
 40
58.0
 40
58.0
 40
58.0
 40
59.0
 40
59.0
 40
59.0
 40
60.0
 40
60.0
 40
60.0
 40
61.0
 40
61.0
 40
61.0
 40
62.0
 40
62.0
 40
62.0
 40
63.0
 40
63.0
 40
63.0
 40
64.0
 40
64.0
 40
64.0
 40
65.0
 40
65.0
 40
65.0
 40
66.0
 40
66.0
 40
66.0
 40
67.0
 40
67.0
 40
67.0
 40
68.0
 40
68.0
 40
68.0
 40
69.0
 40
69.0
 40
69.0
 40
70.0
 40
70.0
 40
70.0
 40
71.0
 40
71.0
 40
71.0
 40
72.0
 40
72.0
 40
72.0
 40
73.0
 40
73.0
 40
73.0
 40
74.0
 40
74.0
 40
74.0
 40
75.0
 40
75.0
 40
75.0
 40
76.0
 40
76.0
 40
76.0
 40
77.0
 40
77.0
 40
77.0
 40
78.0
 40
78.0
 40
78.0
 40
79.0
 40
79.0
 40
79.0
 40
80.0
 40
80.0
 40
80.0
 40
81.0
 40
81.0
 40
81.0
 40
82.0
 40
82.0
 40
82.0
 40
83.0
 40
83.0
 40
83.0
 40
84.0
 40
84.0
 40
84.0
 40
85.0
 40
85.0
 40
85.0
 40
86.0
 40
86.0
 40
86.0
 40
87.0
 40
87.0
 40
87.0
 40
88.0
 40
88.0
 40
88.0
 40
89.0
 40
89.0
 40
89.0
 40
90.0
 40
90.0
 40
90.0
 40
91.0
 40
91.0
 40
91.0
 40
92.0
 40
92.0
 40
92.0
 40
93.0
 40
93.0
 40
93.0
 40
94.0
 40
94.0
 40
94.0
 40
95.0
 40
95.0
 40
95.0
 40
96.0
 40
96.0
 40
96.0
 40
97.0
 40
97.0
 40
97.0
 40
98.0
 40
98.0
 40
98.0
 40
99.0
 40
99.0
 40
99.0
 40
100.0
 40
100.0
 40
100.0
 40
101.0
 40
101.0
 40
101.0
 40
102.0
 40
102.0
 40
102.0
 40
103.0
 40
103.0
 40
103.0
 40
104.0
 40
104.0
 40
104.0
 40
105.0
 40
105.0
 40
105.0
 40
106.0
 40
106.0
 40
106.0
 40
107.0
 40
107.0
 40
107.0
 40
108.0
 40
108.0
 40
108.0
 40
109.0
 40
109.0
 40
109.0
 40
110.0
 40
110.0
 40
110.0
 40
111.0
 40
111.0
 40
111.0
 40
112.0
 40
112.0
 40
112.0
 40
113.0
 40
113.0
 40
113.0
 40
114.0
 40
114.0
 40
114.0
 40
115.0
 40
115.0
 40
115.0
 40
116.0
 40
116.0
 40
116.0
 40
117.0
 40
117.0
 40
117.0
 40
118.0
 40
118.0
 40
118.0
 40
119.0
 40
119.0
 40
119.0
 40
120.0
 40
120.0
 40
120.0
 40
121.0
 40
121.0
 40
121.0
 40
122.0
 40
122.0
 40
122.0
 40
123.0
 40
123.0
 40
123.0
 40
124.0
 40
124.0
 40
124.0
 40
125.0
 40
125.0
 40
125.0
 40
126.0
 40
126.0
 40
126.0
 40
127.0
 40
127.0
 40
127.0
 40
128.0
 40
128.0
 40
128.0
 40
129.0
 40
129.0
 40
129.0
 40
130.0
 40
130.0
 40
130.0
 40
131.0
 40
131.0
 40
131.0
 40
132.0
 40
132.0
 40
132.0
 40
133.0
 40
133.0
 40
133.0
 40
134.0
 40
134.0
 40
134.0
 40
135.0
 40
135.0
 40
135.0
 40
136.0
 40
136.0
 40
136.0
 40
137.0
 40
137.0
 40
137.0
 40
138.0
 40
138.0
 40
138.0
 40
139.0
 40
139.0
 40
139.0
 40
140.0
 40
140.0
 40
140.0
 40
141.0
 40
141.0
 40
141.0
 40
142.0
 40
142.0
 40
142.0
 40
143.0
 40
143.0
 40
143.0
 40
144.0
 40
144.0
 40
144.0
 40
145.0
 40
145.0
 40
145.0
 40
146.0
 40
146.0
 40
146.0
 40
147.0
 40
147.0
 40
147.0
 40
148.0
 40
148.0
 40
148.0
 40
149.0
 40
149.0
 40
149.0
 40
150.0
 40
150.0
 40
150.0
 40
151.0
 40
151.0
 40
151.0
 40
152.0
 40
152.0
 40
152.0
 40
153.0
 40
153.0
 40
153.0
 40
154.0
 40
154.0
 40
154.0
 40
155.0
 40
155.0
 40
155.0
 40
156.0
 40
156.0
 40
156.0
 40
157.0
 40
157.0
 40
157.0
 40
158.0
 40
158.0
 40
158.0
 40
159.0
 40
159.0
 40
159.0
 40
160.0
 40
160.0
 40
160.0
 40
161.0
 40
161.0
 40
161.0
 40
162.0
 40
162.0
 40
162.0
 40
163.0
 40
163.0
 40
163.0
 40
164.0
 40
164.0
 40
164.0
 40
165.0
 40
165.0
 40
165.0
 40
166.0
 40
166.0
 40
166.0
 40
167.0
 40
167.0
 40
167.0
 40
168.0
 40
168.0
 40
168.0
 40
169.0
 40
169.0
 40
169.0
 40
170.0
 40
170.0
 40
170.0
 40
171.0
 40
171.0
 40
171.0
 40
172.0
 40
172.0
 40
172.0
 40
173.0
 40
173.0
 40
173.0
 40
174.0
 40
174.0
 40
174.0
 40
175.0
 40
175.0
 40
175.0
 40
176.0
 40
176.0
 40
176.0
 40
177.0
 40
177.0
 40
177.0
 40
178.0
 40
178.0
 40
178.0
 40
179.0
 40
179.0
 40
179.0
 40
180.0
 40
180.0
 40
180.0
 40
181.0
 40
181.0
 40
181.0
 40
182.0
 40
182.0
 40
182.0
 40
183.0
 40
183.0
 40
183.0
 40
184.0
 40
184.0
 40
184.0
 40
185.0
 40
185.0
 40
185.0
 40
186.0
 40
186.0
 40
186.0
 40
187.0
 40
187.0
 40
187.0
 40
188.0
 40
188.0
 40
188.0
 40
189.0
 40
189.0
 40
189.0
 40
190.0
 40
190.0
 40
190.0
 40
191.0
 40
191.0
 40
191.0
 40
192.0
 40
192.0
 40
192.0
 40
193.0
 40
193.0
 40
193.0
 40
194.0
 40
194.0
 40
194.0
 40
195.0
 40
195.0
 40
195.0
 40
196.0
 40
196.0
 40
196.0
 40
197.0
 40
197.0
 40
197.0
 40
198.0
 40
198.0
 40
198.0
 40
199.0
 40
199.0
 40
199.0
 40
200.0
 40
200.0
 40
200.0
 40
201.0
 40
201.0
 40
201.0
 40
202.0
 40
202.0
 40
202.0
 40
203.0
 40
203.0
 40
203.0
 40
204.0
 40
204.0
 40
204.0
 40
205.0
 40
205.0
 40
205.0
 40
206.0
 40
206.0
 40
206.0
 40
207.0
 40
207.0
 40
207.0
 40
208.0
 40
208.0
 40
208.0
 40
209.0
 40
209.0
 40
209.0
 40
210.0
 40
210.0
 40
210.0
 40
211.0
 40
211.0
 40
211.0
 40
212.0
 40
212.0
 40
212.0
 40
213.0
 40
213.0
 40
213.0
 40
214.0
 40
214.0
 40
214.0
 40
215.0
 40
215.0
 40
215.0
 40
216.0
 40
216.0
 40
216.0
 40
217.0
 40
217.0
 40
217.0
 40
218.0
 40
218.0
 40
218.0
 40
219.0
 40
219.0
 40
219.0
 40
220.0
 40
220.0
 40
220.0
 40
221.0
 40
221.0
 40
221.0
 40
222.0
 40
222.0
 40
222.0
 40
223.0
 40
223.0
 40
223.0
 40
224.0
 40
224.0
 40
224.0
 40
225.0
 40
225.0
 40
225.0
 40
226.0
 40
226.0
 40
226.0
 40
227.0
 40
227.0
 40
227.0
 40
228.0
 40
228.0
 40
228.0
 40
229.0
 40
229.0
 40
229.0
 40
230.0
 40
230.0
 40
230.0
 40
231.0
 40
231.0
 40
231.0
 40
232.0
 40
232.0
 40
232.0
 40
233.0
 40
233.0
 40
233.0
 40
234.0
 40
234.0
 40
234.0
 40
235.0
 40
235.0
 40
235.0
 40
236.0
 40
236.0
 40
236.0
 40
237.0
 40
237.0
 40
237.0
 40
238.0
 40
238.0
 40
238.0
 40
239.0
 40
239.0
 40
239.0
 40
240.0
 40
240.0
 40
240.0
 40
241.0
 40
241.0
 40
241.0
 40
242.0
 40
242.0
 40
242.0
 40
243.0
 40
243.0
 40
243.0
 40
244.0
 40
244.0
 40
244.0
 40
245.0
 40
245.0
 40
245.0
 40
246.0
 40
246.0
 40
246.0
 40
247.0
 40
247.0
 40
247.0
 40
248.0
 40
248.0
 40
248.0
 40
249.0
 40
249.0
 40
249.0
 40
250.0
 40
250.0
 40
250.0
 40
251.0
 40
251.0
 40
251.0
 40
252.0
 40
252.0
 40
252.0
 40
253.0
 40
253.0
 40
253.0
 40
254.0
 40
254.0
 40
254.0
 40
255.0
 40
255.0
 40
255.0
 40
256.0
 40
256.0
 40
256.0
 40
257.0
 40
257.0
 40
257.0
 40
258.0
 40
258.0
 40
258.0
 40
259.0
 40
259.0
 40
259.0
 40
260.0
 40
260.0
 40
260.0
 40
261.0
 40
261.0
 40
261.0
 40
262.0
 40
262.0
 40
262.0
 40
263.0
 40
263.0
 40
263.0
 40
264.0
 40
264.0
 40
264.0
 40
265.0
 40
265.0
 40
265.0
 40
266.0
 40
266.0
 40
266.0
 40
267.0
 40
267.0
 40
267.0
 40
268.0
 40
268.0
 40
268.0
 40
269.0
 40
269.0
 40
269.0
 40
270.0
 40
270.0
 40
270.0
 40
271.0
 40
271.0
 40
271.0
 40
272.0
 40
272.0
 40
272.0
 40
273.0
 40
273.0
 40
273.0
 40
274.0
 40
274.0
 40
274.0
 40
275.0
 40
275.0
 40
275.0
 40
276.0
 40
276.0
 40
276.0
 40
277.0
 40
277.0
 40
277.0
 40
278.0
 40
278.0
 40
278.0
 40
279.0
 40
279.0
 40
279.0
 40
280.0
 40
280.0
 40
280.0
 40
281.0
 40
281.0
 40
281.0
 40
282.0
 40
282.0
 40
282.0
 40
283.0
 40
283.0
 40
283.0
 40
284.0
 40
284.0
 40
284.0
 40
285.0
 40
285.0
 40
285.0
 40
286.0
 40
286.0
 40
286.0
 40
287.0
 40
287.0
 40
287.0
 40
288.0
 40
288.0
 40
288.0
 40
289.0
 40
289.0
 40
289.0
 40
290.0
 40
290.0
 40
290.0
 40
291.0
 40
291.0
 40
291.0
 40
292.0
 40
292.0
 40
292.0
 40
293.0
 40
293.0
 40
293.0
 40
294.0
 40
294.0
 40
294.0
 40
295.0
 40
295.0
 40
295.0
 40
296.0
 40
296.0
 40
296.0
 40
297.0
 40
297.0
 40
297.0
 40
298.0
 40
298.0
 40
298.0
 40
299.0
 40
299.0
 40
299.0
 40
300.0
 40
300.0
 40
300.0
 40
301.0
 40
301.0
 40
301.0
 40
302.0
 40
302.0
 40
302.0
 40
303.0
 40
303.0
 40
303.0
 40
304.0
 40
304.0
 40
304.0
 40
305.0
 40
305.0
 40
305.0
 40
306.0
 40
306.0
 40
306.0
 40
307.0
 40
307.0
 40
307.0
 40
308.0
 40
308.0
 40
308.0
 40
309.0
 40
309.0
 40
309.0
 40
310.0
 40
310.0
 40
310.0
 40
311.0
 40
311.0
 40
311.0
 40
312.0
 40
312.0
 40
312.0
 40
313.0
 40
313.0
 40
313.0
 40
314.0
 40
314.0
 40
314.0
 40
315.0
 40
315.0
 40
315.0
 40
316.0
 40
316.0
 40
316.0
 40
317.0
 40
317.0
 40
317.0
 40
318.0
 40
318.0
 40
318.0
 40
319.0
 40
319.0
 40
319.0
 40
320.0
 40
320.0
 40
320.0
 40
321.0
 40
321.0
 40
321.0
 40
322.0
 40
322.0
 40
322.0
 40
323.0
 40
323.0
 40
323.0
 40
324.0
 40
324.0
 40
324.0
 40
325.0
 40
325.0
 40
325.0
 40
326.0
 40
326.0
 40
326.0
 40
327.0
 40
327.0
 40
327.0
 40
328.0
 40
328.0
 40
328.0
 40
329.0
 40
329.0
 40
329.0
 40
330.0
 40
330.0
 40
330.0
 40
331.0
 40
331.0
 40
331.0
 40
332.0
 40
332.0
 40
332.0
 40
333.0
 40
333.0
 40
333.0
 40
334.0
 40
334.0
 40
334.0
 40
335.0
 40
335.0
 40
335.0
 40
336.0
 40
336.0
 40
336.0
 40
337.0
 40
337.0
 40
337.0
 40
338.0
 40
338.0
 40
338.0
 40
339.0
 40
339.0
 40
339.0
 40
340.0
 40
340.0
 40
340.0
 40
341.0
 40
341.0
 40
341.0
 40
342.0
 40
342.0
 40
342.0
 40
343.0
 40
343.0
 40
343.0
 40
344.0
 40
344.0
 40
344.0
 40
345.0
 40
345.0
 40
345.0
 40
346.0
 40
346.0
 40
346.0
 40
347.0
 40
347.0
 40
347.0
 40
348.0
 40
348.0
 40
348.0
 40
349.0
 40
349.0
 40
349.0
 40
350.0
 40
350.0
 40
350.0
 40
351.0
 40
351.0
 40
351.0
 40
352.0
 40
352.0
 40
352.0
 40
353.0
 40
353.0
 40
353.0
 40
354.0
 40
354.0
 40
354.0
 40
355.0
 40
355.0
 40
355.0
 40
356.0
 40
356.0
 40
356.0
 40
357.0
 40
357.0
 40
357.0
 40
358.0
 40
358.0
 40
358.0
 40
359.0
 40
359.0
 40
359.0
 40
360.0
 40
360.0
 40
360.0
 40
361.0
 40
361.0
 40
361.0
 40
362.0
 40
362.0
 40
362.0
 40
363.0
 40
363.0
 40
363.0
 40
364.0
 40
364.0
 40
364.0
 40
365.0
 40
365.0
 40
365.0
 40
366.0
 40
366.0
 40
366.0
 40
367.0
 40
367.0
 40
367.0
 40
368.0
 40
368.0
 40
368.0
 40
369.0
 40
369.0
 40
369.0
 40
370.0
 40
370.0
 40
370.0
 40
371.0
 40
371.0
 40
371.0
 40
372.0
 40
372.0
 40
372.0
 40
373.0
 40
373.0
 40
373.0
 40
374.0
 40
374.0
 40
374.0
 40
374.0
 10
87.82857637041745
 20
-179.3055143996178
 30
0.0
 10
87.82857637041745
 20
-179.3055143996178
 30
0.0
 10
87.82857637041745
 20
-81.00677359085945
 30
0.0
 10
87.82857637041745
 20
-81.00677359085945
 30
0.0
 10
87.82857637041745
 20
-80.28364970215142
 30
0.0
 10
87.24084860763386
 20
-79.69796803563109
 30
0.0
 10
86.51599612612638
 20
-79.69796803563109
 30
0.0
 10
86.51599612612638
 20
-79.69796803563109
 30
0.0
 10
85.56240253934348
 20
-79.69796803563109
 30
0.0
 10
85.56240253934348
 20
-79.69796803563109
 30
0.0
 10
85.56240253934348
 20
-79.69796803563109
 30
0.0
 10
85.56240253934348
 20
-81.77226609066804
 30
0.0
 10
85.56240253934348
 20
-81.77226609066804
 30
0.0
 10
85.56240253934348
 20
-81.77226609066804
 30
0.0
 10
86.0226716942677
 20
-81.77226609066804
 30
0.0
 10
86.0226716942677
 20
-81.77226609066804
 30
0.0
 10
86.0226716942677
 20
-81.77226609066804
 30
0.0
 10
85.76013447874335
 20
-82.02997025727016
 30
0.0
 10
85.76013447874335
 20
-82.02997025727016
 30
0.0
 10
85.76013447874335
 20
-82.02997025727016
 30
0.0
 10
86.0226716942677
 20
-82.28763914609476
 30
0.0
 10
86.0226716942677
 20
-82.28763914609476
 30
0.0
 10
86.0226716942677
 20
-82.28763914609476
 30
0.0
 10
85.76013447874335
 20
-82.54534331269689
 30
0.0
 10
85.76013447874335
 20
-82.54534331269689
 30
0.0
 10
85.76013447874335
 20
-82.54534331269689
 30
0.0
 10
86.0226716942677
 20
-82.80269470152157
 30
0.0
 10
86.0226716942677
 20
-82.80269470152157
 30
0.0
 10
86.0226716942677
 20
-82.80269470152157
 30
0.0
 10
85.76013447874335
 20
-83.06039886812368
 30
0.0
 10
85.76013447874335
 20
-83.06039886812368
 30
0.0
 10
85.76013447874335
 20
-83.06039886812368
 30
0.0
 10
86.0226716942677
 20
-83.31842053472606
 30
0.0
 10
86.0226716942677
 20
-83.31842053472606
 30
0.0
 10
86.0226716942677
 20
-83.31842053472606
 30
0.0
 10
85.76013447874335
 20
-83.57577192355042
 30
0.0
 10
85.76013447874335
 20
-83.57577192355042
 30
0.0
 10
85.76013447874335
 20
-83.57577192355042
 30
0.0
 10
86.0226716942677
 20
-83.83347609015286
 30
0.0
 10
86.0226716942677
 20
-83.83347609015286
 30
0.0
 10
86.0226716942677
 20
-83.83347609015286
 30
0.0
 10
85.76013447874335
 20
-84.09185053453267
 30
0.0
 10
85.76013447874335
 20
-84.09185053453267
 30
0.0
 10
85.76013447874335
 20
-84.09185053453267
 30
0.0
 10
86.0226716942677
 20
-84.34990747891256
 30
0.0
 10
86.0226716942677
 20
-84.34990747891256
 30
0.0
 10
86.0226716942677
 20
-84.34990747891256
 30
0.0
 10
85.76013447874335
 20
-84.60828192329235
 30
0.0
 10
85.76013447874335
 20
-84.60828192329235
 30
0.0
 10
85.76013447874335
 20
-84.60828192329235
 30
0.0
 10
86.0226716942677
 20
-84.86700914544993
 30
0.0
 10
86.0226716942677
 20
-84.86700914544993
 30
0.0
 10
86.0226716942677
 20
-84.86700914544993
 30
0.0
 10
85.76013447874335
 20
-85.12538358982972
 30
0.0
 10
85.76013447874335
 20
-85.12538358982972
 30
0.0
 10
85.76013447874335
 20
-85.12538358982972
 30
0.0
 10
86.0226716942677
 20
-85.3841108119873
 30
0.0
 10
86.0226716942677
 20
-85.3841108119873
 30
0.0
 10
86.0226716942677
 20
-85.3841108119873
 30
0.0
 10
85.76013447874335
 20
-85.6424852563671
 30
0.0
 10
85.76013447874335
 20
-85.6424852563671
 30
0.0
 10
85.76013447874335
 20
-85.6424852563671
 30
0.0
 10
86.0226716942677
 20
-85.9008597007469
 30
0.0
 10
86.0226716942677
 20
-85.9008597007469
 30
0.0
 10
86.0226716942677
 20
-85.9008597007469
 30
0.0
 10
85.76013447874335
 20
-86.1589166451268
 30
0.0
 10
85.76013447874335
 20
-86.1589166451268
 30
0.0
 10
85.76013447874335
 20
-86.1589166451268
 30
0.0
 10
86.0226716942677
 20
-86.41658553395139
 30
0.0
 10
86.0226716942677
 20
-86.41658553395139
 30
0.0
 10
86.0226716942677
 20
-86.41658553395139
 30
0.0
 10
85.76013447874335
 20
-86.67464247833128
 30
0.0
 10
85.76013447874335
 20
-86.67464247833128
 30
0.0
 10
85.76013447874335
 20
-86.67464247833128
 30
0.0
 10
86.0226716942677
 20
-86.93266414493364
 30
0.0
 10
86.0226716942677
 20
-86.93266414493364
 30
0.0
 10
86.0226716942677
 20
-86.93266414493364
 30
0.0
 10
85.76013447874335
 20
-87.19072108931353
 30
0.0
 10
85.76013447874335
 20
-87.19072108931353
 30
0.0
 10
85.76013447874335
 20
-87.19072108931353
 30
0.0
 10
86.0226716942677
 20
-87.44842525591565
 30
0.0
 10
86.0226716942677
 20
-87.44842525591565
 30
0.0
 10
86.0226716942677
 20
-87.44842525591565
 30
0.0
 10
85.76013447874335
 20
-87.70679970029545
 30
0.0
 10
85.76013447874335
 20
-87.70679970029545
 30
0.0
 10
85.76013447874335
 20
-87.70679970029545
 30
0.0
 10
86.0226716942677
 20
-87.96446858912006
 30
0.0
 10
86.0226716942677
 20
-87.96446858912006
 30
0.0
 10
86.0226716942677
 20
-87.96446858912006
 30
0.0
 10
85.76013447874335
 20
-88.2228783112777
 30
0.0
 10
85.76013447874335
 20
-88.2228783112777
 30
0.0
 10
85.76013447874335
 20
-88.2228783112777
 30
0.0
 10
86.0226716942677
 20
-88.48054720010198
 30
0.0
 10
86.0226716942677
 20
-88.48054720010198
 30
0.0
 10
86.0226716942677
 20
-88.48054720010198
 30
0.0
 10
85.76013447874335
 20
-88.73895692225963
 30
0.0
 10
85.76013447874335
 20
-88.73895692225963
 30
0.0
 10
85.76013447874335
 20
-88.73895692225963
 30
0.0
 10
86.0226716942677
 20
-88.99697858886199
 30
0.0
 10
86.0226716942677
 20
-88.99697858886199
 30
0.0
 10
86.0226716942677
 20
-88.99697858886199
 30
0.0
 10
85.76013447874335
 20
-89.2553530332418
 30
0.0
 10
85.76013447874335
 20
-89.2553530332418
 30
0.0
 10
85.76013447874335
 20
-89.2553530332418
 30
0.0
 10
86.0226716942677
 20
-89.51408025539936
 30
0.0
 10
86.0226716942677
 20
-89.51408025539936
 30
0.0
 10
86.0226716942677
 20
-89.51408025539936
 30
0.0
 10
85.76013447874335
 20
-89.77280747755692
 30
0.0
 10
85.76013447874335
 20
-89.77280747755692
 30
0.0
 10
85.76013447874335
 20
-89.77280747755692
 30
0.0
 10
86.0226716942677
 20
-90.03118192193674
 30
0.0
 10
86.0226716942677
 20
-90.03118192193674
 30
0.0
 10
86.0226716942677
 20
-90.03118192193674
 30
0.0
 10
85.76013447874335
 20
-90.29026192187175
 30
0.0
 10
85.76013447874335
 20
-90.29026192187175
 30
0.0
 10
85.76013447874335
 20
-90.29026192187175
 30
0.0
 10
86.0226716942677
 20
-90.54863636625187
 30
0.0
 10
86.0226716942677
 20
-90.54863636625187
 30
0.0
 10
86.0226716942677
 20
-90.54863636625187
 30
0.0
 10
85.76013447874335
 20
-90.80669331063176
 30
0.0
 10
85.76013447874335
 20
-90.80669331063176
 30
0.0
 10
85.76013447874335
 20
-90.80669331063176
 30
0.0
 10
86.0226716942677
 20
-91.06506775501155
 30
0.0
 10
86.0226716942677
 20
-91.06506775501155
 30
0.0
 10
86.0226716942677
 20
-91.06506775501155
 30
0.0
 10
85.76013447874335
 20
-91.32312469939144
 30
0.0
 10
85.76013447874335
 20
-91.32312469939144
 30
0.0
 10
85.76013447874335
 20
-91.32312469939144
 30
0.0
 10
86.0226716942677
 20
-91.581851921549
 30
0.0
 10
86.0226716942677
 20
-91.581851921549
 30
0.0
 10
86.0226716942677
 20
-91.581851921549
 30
0.0
 10
85.76013447874335
 20
-91.83987358815105
 30
0.0
 10
85.76013447874335
 20
-91.83987358815105
 30
0.0
 10
85.76013447874335
 20
-91.83987358815105
 30
0.0
 10
86.0226716942677
 20
-92.0975777547535
 30
0.0
 10
86.0226716942677
 20
-92.0975777547535
 30
0.0
 10
86.0226716942677
 20
-92.0975777547535
 30
0.0
 10
85.76013447874335
 20
-92.35630497691106
 30
0.0
 10
85.76013447874335
 20
-92.35630497691106
 30
0.0
 10
85.76013447874335
 20
-92.35630497691106
 30
0.0
 10
86.0226716942677
 20
-92.61467942129087
 30
0.0
 10
86.0226716942677
 20
-92.61467942129087
 30
0.0
 10
86.0226716942677
 20
-92.61467942129087
 30
0.0
 10
85.76013447874335
 20
-92.87340664344843
 30
0.0
 10
85.76013447874335
 20
-92.87340664344843
 30
0.0
 10
85.76013447874335
 20
-92.87340664344843
 30
0.0
 10
86.0226716942677
 20
-93.13248664338344
 30
0.0
 10
86.0226716942677
 20
-93.13248664338344
 30
0.0
 10
86.0226716942677
 20
-93.13248664338344
 30
0.0
 10
85.76013447874335
 20
-93.39086108776324
 30
0.0
 10
85.76013447874335
 20
-93.39086108776324
 30
0.0
 10
85.76013447874335
 20
-93.39086108776324
 30
0.0
 10
86.0226716942677
 20
-93.64958830992082
 30
0.0
 10
86.0226716942677
 20
-93.64958830992082
 30
0.0
 10
86.0226716942677
 20
-93.64958830992082
 30
0.0
 10
85.76013447874335
 20
-93.90831553207838
 30
0.0
 10
85.76013447874335
 20
-93.90831553207838
 30
0.0
 10
85.76013447874335
 20
-93.90831553207838
 30
0.0
 10
86.0226716942677
 20
-94.16633719868075
 30
0.0
 10
86.0226716942677
 20
-94.16633719868075
 30
0.0
 10
86.0226716942677
 20
-94.16633719868075
 30
0.0
 10
85.76013447874335
 20
-94.42471164306055
 30
0.0
 10
85.76013447874335
 20
-94.42471164306055
 30
0.0
 10
85.76013447874335
 20
-94.42471164306055
 30
0.0
 10
86.0226716942677
 20
-94.6831213652182
 30
0.0
 10
86.0226716942677
 20
-94.6831213652182
 30
0.0
 10
86.0226716942677
 20
-94.6831213652182
 30
0.0
 10
85.76013447874335
 20
-94.941495809598
 30
0.0
 10
85.76013447874335
 20
-94.941495809598
 30
0.0
 10
85.76013447874335
 20
-94.941495809598
 30
0.0
 10
86.0226716942677
 20
-95.1998702539778
 30
0.0
 10
86.0226716942677
 20
-95.1998702539778
 30
0.0
 10
86.0226716942677
 20
-95.1998702539778
 30
0.0
 10
85.76013447874335
 20
-95.45895025391313
 30
0.0
 10
85.76013447874335
 20
-95.45895025391313
 30
0.0
 10
85.76013447874335
 20
-95.45895025391313
 30
0.0
 10
86.0226716942677
 20
-95.71803025384814
 30
0.0
 10
86.0226716942677
 20
-95.71803025384814
 30
0.0
 10
86.0226716942677
 20
-95.71803025384814
 30
0.0
 10
85.76013447874335
 20
-95.97640469822827
 30
0.0
 10
85.76013447874335
 20
-95.97640469822827
 30
0.0
 10
85.76013447874335
 20
-95.97640469822827
 30
0.0
 10
86.0226716942677
 20
-96.23548469816328
 30
0.0
 10
86.0226716942677
 20
-96.23548469816328
 30
0.0
 10
86.0226716942677
 20
-96.23548469816328
 30
0.0
 10
85.76013447874335
 20
-96.49385914254307
 30
0.0
 10
85.76013447874335
 20
-96.49385914254307
 30
0.0
 10
85.76013447874335
 20
-96.49385914254307
 30
0.0
 10
86.0226716942677
 20
-96.75223358692321
 30
0.0
 10
86.0226716942677
 20
-96.75223358692321
 30
0.0
 10
86.0226716942677
 20
-96.75223358692321
 30
0.0
 10
85.76013447874335
 20
-97.01096080908077
 30
0.0
 10
85.76013447874335
 20
-97.01096080908077
 30
0.0
 10
85.76013447874335
 20
-97.01096080908077
 30
0.0
 10
86.0226716942677
 20
-97.26933525346058
 30
0.0
 10
86.0226716942677
 20
-97.26933525346058
 30
0.0
 10
86.0226716942677
 20
-97.26933525346058
 30
0.0
 10
85.76013447874335
 20
-97.52841525339558
 30
0.0
 10
85.76013447874335
 20
-97.52841525339558
 30
0.0
 10
85.76013447874335
 20
-97.52841525339558
 30
0.0
 10
86.0226716942677
 20
-97.78714247555315
 30
0.0
 10
86.0226716942677
 20
-97.78714247555315
 30
0.0
 10
86.0226716942677
 20
-97.78714247555315
 30
0.0
 10
85.76013447874335
 20
-98.04586969771071
 30
0.0
 10
85.76013447874335
 20
-98.04586969771071
 30
0.0
 10
85.76013447874335
 20
-98.04586969771071
 30
0.0
 10
86.0226716942677
 20
-98.30477330875716
 30
0.0
 10
86.0226716942677
 20
-98.30477330875716
 30
0.0
 10
86.0226716942677
 20
-98.30477330875716
 30
0.0
 10
85.76013447874335
 20
-98.56314775313697
 30
0.0
 10
85.76013447874335
 20
-98.56314775313697
 30
0.0
 10
85.76013447874335
 20
-98.56314775313697
 30
0.0
 10
86.0226716942677
 20
-98.8208519197391
 30
0.0
 10
86.0226716942677
 20
-98.8208519197391
 30
0.0
 10
86.0226716942677
 20
-98.8208519197391
 30
0.0
 10
85.76013447874335
 20
-99.0785208085637
 30
0.0
 10
85.76013447874335
 20
-99.0785208085637
 30
0.0
 10
85.76013447874335
 20
-99.0785208085637
 30
0.0
 10
86.0226716942677
 20
-99.33657775294358
 30
0.0
 10
86.0226716942677
 20
-99.33657775294358
 30
0.0
 10
86.0226716942677
 20
-99.33657775294358
 30
0.0
 10
85.76013447874335
 20
-99.59428191954602
 30
0.0
 10
85.76013447874335
 20
-99.59428191954602
 30
0.0
 10
85.76013447874335
 20
-99.59428191954602
 30
0.0
 10
86.0226716942677
 20
-99.85265636392583
 30
0.0
 10
86.0226716942677
 20
-99.85265636392583
 30
0.0
 10
86.0226716942677
 20
-99.85265636392583
 30
0.0
 10
85.76013447874335
 20
-100.1113835860834
 30
0.0
 10
85.76013447874335
 20
-100.1113835860834
 30
0.0
 10
85.76013447874335
 20
-100.1113835860834
 30
0.0
 10
86.0226716942677
 20
-100.3707810860183
 30
0.0
 10
86.0226716942677
 20
-100.3707810860183
 30
0.0
 10
86.0226716942677
 20
-100.3707810860183
 30
0.0
 10
85.76013447874335
 20
-100.6295083081759
 30
0.0
 10
85.76013447874335
 20
-100.6295083081759
 30
0.0
 10
85.76013447874335
 20
-100.6295083081759
 30
0.0
 10
86.0226716942677
 20
-100.8878827525557
 30
0.0
 10
86.0226716942677
 20
-100.8878827525557
 30
0.0
 10
86.0226716942677
 20
-100.8878827525557
 30
0.0
 10
85.76013447874335
 20
-101.1466099747133
 30
0.0
 10
85.76013447874335
 20
-101.1466099747133
 30
0.0
 10
85.76013447874335
 20
-101.1466099747133
 30
0.0
 10
86.0226716942677
 20
-101.4046669190931
 30
0.0
 10
86.0226716942677
 20
-101.4046669190931
 30
0.0
 10
86.0226716942677
 20
-101.4046669190931
 30
0.0
 10
85.76013447874335
 20
-101.6633941412507
 30
0.0
 10
85.76013447874335
 20
-101.6633941412507
 30
0.0
 10
85.76013447874335
 20
-101.6633941412507
 30
0.0
 10
86.0226716942677
 20
-101.922474141186
 30
0.0
 10
86.0226716942677
 20
-101.922474141186
 30
0.0
 10
86.0226716942677
 20
-101.922474141186
 30
0.0
 10
85.76013447874335
 20
-102.1812013633436
 30
0.0
 10
85.76013447874335
 20
-102.1812013633436
 30
0.0
 10
85.76013447874335
 20
-102.1812013633436
 30
0.0
 10
86.0226716942677
 20
-102.4402460855011
 30
0.0
 10
86.0226716942677
 20
-102.4402460855011
 30
0.0
 10
86.0226716942677
 20
-102.4402460855011
 30
0.0
 10
85.76013447874335
 20
-102.6986558076587
 30
0.0
 10
85.76013447874335
 20
-102.6986558076587
 30
0.0
 10
85.76013447874335
 20
-102.6986558076587
 30
0.0
 10
86.0226716942677
 20
-102.9577005298162
 30
0.0
 10
86.0226716942677
 20
-102.9577005298162
 30
0.0
 10
86.0226716942677
 20
-102.9577005298162
 30
0.0
 10
85.76013447874335
 20
-103.2167805297512
 30
0.0
 10
85.76013447874335
 20
-103.2167805297512
 30
0.0
 10
85.76013447874335
 20
-103.2167805297512
 30
0.0
 10
86.0226716942677
 20
-103.4758605296866
 30
0.0
 10
86.0226716942677
 20
-103.4758605296866
 30
0.0
 10
86.0226716942677
 20
-103.4758605296866
 30
0.0
 10
85.76013447874335
 20
-103.7349405296219
 30
0.0
 10
85.76013447874335
 20
-103.7349405296219
 30
0.0
 10
85.76013447874335
 20
-103.7349405296219
 30
0.0
 10
86.0226716942677
 20
-103.9939852517794
 30
0.0
 10
86.0226716942677
 20
-103.9939852517794
 30
0.0
 10
86.0226716942677
 20
-103.9939852517794
 30
0.0
 10
85.76013447874335
 20
-104.2537708072699
 30
0.0
 10
85.76013447874335
 20
-104.2537708072699
 30
0.0
 10
85.76013447874335
 20
-104.2537708072699
 30
0.0
 10
86.0226716942677
 20
-104.5124980294275
 30
0.0
 10
86.0226716942677
 20
-104.5124980294275
 30
0.0
 10
86.0226716942677
 20
-104.5124980294275
 30
0.0
 10
85.76013447874335
 20
-104.7722483071402
 30
0.0
 10
85.76013447874335
 20
-104.7722483071402
 30
0.0
 10
85.76013447874335
 20
-104.7722483071402
 30
0.0
 10
86.0226716942677
 20
-105.0313283070755
 30
0.0
 10
86.0226716942677
 20
-105.0313283070755
 30
0.0
 10
86.0226716942677
 20
-105.0313283070755
 30
0.0
 10
85.76013447874335
 20
-105.2910785847885
 30
0.0
 10
85.76013447874335
 20
-105.2910785847885
 30
0.0
 10
85.76013447874335
 20
-105.2910785847885
 30
0.0
 10
86.0226716942677
 20
-105.5498058069458
 30
0.0
 10
86.0226716942677
 20
-105.5498058069458
 30
0.0
 10
86.0226716942677
 20
-105.5498058069458
 30
0.0
 10
85.76013447874335
 20
-105.8085330291033
 30
0.0
 10
85.76013447874335
 20
-105.8085330291033
 30
0.0
 10
85.76013447874335
 20
-105.8085330291033
 30
0.0
 10
86.0226716942677
 20
-106.0682833068163
 30
0.0
 10
86.0226716942677
 20
-106.0682833068163
 30
0.0
 10
86.0226716942677
 20
-106.0682833068163
 30
0.0
 10
85.76013447874335
 20
-106.3273633067516
 30
0.0
 10
85.76013447874335
 20
-106.3273633067516
 30
0.0
 10
85.76013447874335
 20
-106.3273633067516
 30
0.0
 10
86.0226716942677
 20
-106.5871135844643
 30
0.0
 10
86.0226716942677
 20
-106.5871135844643
 30
0.0
 10
86.0226716942677
 20
-106.5871135844643
 30
0.0
 10
85.76013447874335
 20
-106.846863862177
 30
0.0
 10
85.76013447874335
 20
-106.846863862177
 30
0.0
 10
85.76013447874335
 20
-106.846863862177
 30
0.0
 10
86.0226716942677
 20
-107.1062966398901
 30
0.0
 10
86.0226716942677
 20
-107.1062966398901
 30
0.0
 10
86.0226716942677
 20
-107.1062966398901
 30
0.0
 10
85.76013447874335
 20
-107.3667524731583
 30
0.0
 10
85.76013447874335
 20
-107.3667524731583
 30
0.0
 10
85.76013447874335
 20
-107.3667524731583
 30
0.0
 10
86.0226716942677
 20
-107.6272083064266
 30
0.0
 10
86.0226716942677
 20
-107.6272083064266
 30
0.0
 10
86.0226716942677
 20
-107.6272083064266
 30
0.0
 10
85.76013447874335
 20
-107.8876288619169
 30
0.0
 10
85.76013447874335
 20
-107.8876288619169
 30
0.0
 10
85.76013447874335
 20
-107.8876288619169
 30
0.0
 10
86.0226716942677
 20
-108.1453330285194
 30
0.0
 10
86.0226716942677
 20
-108.1453330285194
 30
0.0
 10
86.0226716942677
 20
-108.1453330285194
 30
0.0
 10
85.76013447874335
 20
-108.4030371951215
 30
0.0
 10
85.76013447874335
 20
-108.4030371951215
 30
0.0
 10
85.76013447874335
 20
-108.4030371951215
 30
0.0
 10
86.0226716942677
 20
-108.6607060839461
 30
0.0
 10
86.0226716942677
 20
-108.6607060839461
 30
0.0
 10
86.0226716942677
 20
-108.6607060839461
 30
0.0
 10
85.76013447874335
 20
-108.9184102505482
 30
0.0
 10
85.76013447874335
 20
-108.9184102505482
 30
0.0
 10
85.76013447874335
 20
-108.9184102505482
 30
0.0
 10
86.0226716942677
 20
-109.1761144171503
 30
0.0
 10
86.0226716942677
 20
-109.1761144171503
 30
0.0
 10
86.0226716942677
 20
-109.1761144171503
 30
0.0
 10
85.76013447874335
 20
-109.433465805975
 30
0.0
 10
85.76013447874335
 20
-109.433465805975
 30
0.0
 10
85.76013447874335
 20
-109.433465805975
 30
0.0
 10
86.0226716942677
 20
-109.6918402503548
 30
0.0
 10
86.0226716942677
 20
-109.6918402503548
 30
0.0
 10
86.0226716942677
 20
-109.6918402503548
 30
0.0
 10
85.76013447874335
 20
-109.9495444169569
 30
0.0
 10
85.76013447874335
 20
-109.9495444169569
 30
0.0
 10
85.76013447874335
 20
-109.9495444169569
 30
0.0
 10
86.0226716942677
 20
-110.2079188613371
 30
0.0
 10
86.0226716942677
 20
-110.2079188613371
 30
0.0
 10
86.0226716942677
 20
-110.2079188613371
 30
0.0
 10
85.76013447874335
 20
-110.4662933057169
 30
0.0
 10
85.76013447874335
 20
-110.4662933057169
 30
0.0
 10
85.76013447874335
 20
-110.4662933057169
 30
0.0
 10
86.0226716942677
 20
-110.7246677500967
 30
0.0
 10
86.0226716942677
 20
-110.7246677500967
 30
0.0
 10
86.0226716942677
 20
-110.7246677500967
 30
0.0
 10
85.76013447874335
 20
-110.9837477500317
 30
0.0
 10
85.76013447874335
 20
-110.9837477500317
 30
0.0
 10
85.76013447874335
 20
-110.9837477500317
 30
0.0
 10
86.0226716942677
 20
-111.2418046944119
 30
0.0
 10
86.0226716942677
 20
-111.2418046944119
 30
0.0
 10
86.0226716942677
 20
-111.2418046944119
 30
0.0
 10
85.76013447874335
 20
-111.5005319165695
 30
0.0
 10
85.76013447874335
 20
-111.5005319165695
 30
0.0
 10
85.76013447874335
 20
-111.5005319165695
 30
0.0
 10
86.0226716942677
 20
-111.7589063609493
 30
0.0
 10
86.0226716942677
 20
-111.7589063609493
 30
0.0
 10
86.0226716942677
 20
-111.7589063609493
 30
0.0
 10
85.76013447874335
 20
-112.0165752497736
 30
0.0
 10
85.76013447874335
 20
-112.0165752497736
 30
0.0
 10
85.76013447874335
 20
-112.0165752497736
 30
0.0
 10
86.0226716942677
 20
-112.2746321941534
 30
0.0
 10
86.0226716942677
 20
-112.2746321941534
 30
0.0
 10
86.0226716942677
 20
-112.2746321941534
 30
0.0
 10
85.76013447874335
 20
-112.5330066385336
 30
0.0
 10
85.76013447874335
 20
-112.5330066385336
 30
0.0
 10
85.76013447874335
 20
-112.5330066385336
 30
0.0
 10
86.0226716942677
 20
-112.7907108051357
 30
0.0
 10
86.0226716942677
 20
-112.7907108051357
 30
0.0
 10
86.0226716942677
 20
-112.7907108051357
 30
0.0
 10
85.76013447874335
 20
-113.0487324717377
 30
0.0
 10
85.76013447874335
 20
-113.0487324717377
 30
0.0
 10
85.76013447874335
 20
-113.0487324717377
 30
0.0
 10
86.0226716942677
 20
-113.3067894161176
 30
0.0
 10
86.0226716942677
 20
-113.3067894161176
 30
0.0
 10
86.0226716942677
 20
-113.3067894161176
 30
0.0
 10
85.76013447874335
 20
-113.5644583049422
 30
0.0
 10
85.76013447874335
 20
-113.5644583049422
 30
0.0
 10
85.76013447874335
 20
-113.5644583049422
 30
0.0
 10
86.0226716942677
 20
-113.8228680270999
 30
0.0
 10
86.0226716942677
 20
-113.8228680270999
 30
0.0
 10
86.0226716942677
 20
-113.8228680270999
 30
0.0
 10
85.76013447874335
 20
-114.0805369159245
 30
0.0
 10
85.76013447874335
 20
-114.0805369159245
 30
0.0
 10
85.76013447874335
 20
-114.0805369159245
 30
0.0
 10
86.0226716942677
 20
-114.3389466380818
 30
0.0
 10
86.0226716942677
 20
-114.3389466380818
 30
0.0
 10
86.0226716942677
 20
-114.3389466380818
 30
0.0
 10
85.76013447874335
 20
-114.5969683046842
 30
0.0
 10
85.76013447874335
 20
-114.5969683046842
 30
0.0
 10
85.76013447874335
 20
-114.5969683046842
 30
0.0
 10
86.0226716942677
 20
-114.8549899712862
 30
0.0
 10
86.0226716942677
 20
-114.8549899712862
 30
0.0
 10
86.0226716942677
 20
-114.8549899712862
 30
0.0
 10
85.76013447874335
 20
-115.1130469156661
 30
0.0
 10
85.76013447874335
 20
-115.1130469156661
 30
0.0
 10
85.76013447874335
 20
-115.1130469156661
 30
0.0
 10
86.0226716942677
 20
-115.3717741378236
 30
0.0
 10
86.0226716942677
 20
-115.3717741378236
 30
0.0
 10
86.0226716942677
 20
-115.3717741378236
 30
0.0
 10
85.76013447874335
 20
-115.6305013599812
 30
0.0
 10
85.76013447874335
 20
-115.6305013599812
 30
0.0
 10
85.76013447874335
 20
-115.6305013599812
 30
0.0
 10
86.0226716942677
 20
-115.8892285821388
 30
0.0
 10
86.0226716942677
 20
-115.8892285821388
 30
0.0
 10
86.0226716942677
 20
-115.8892285821388
 30
0.0
 10
85.76013447874335
 20
-116.1479558042963
 30
0.0
 10
85.76013447874335
 20
-116.1479558042963
 30
0.0
 10
85.76013447874335
 20
-116.1479558042963
 30
0.0
 10
86.0226716942677
 20
-116.4063302486761
 30
0.0
 10
86.0226716942677
 20
-116.4063302486761
 30
0.0
 10
86.0226716942677
 20
-116.4063302486761
 30
0.0
 10
85.76013447874335
 20
-116.664704693056
 30
0.0
 10
85.76013447874335
 20
-116.664704693056
 30
0.0
 10
85.76013447874335
 20
-116.664704693056
 30
0.0
 10
86.0226716942677
 20
-116.9230791374358
 30
0.0
 10
86.0226716942677
 20
-116.9230791374358
 30
0.0
 10
86.0226716942677
 20
-116.9230791374358
 30
0.0
 10
85.76013447874335
 20
-117.1814888595934
 30
0.0
 10
85.76013447874335
 20
-117.1814888595934
 30
0.0
 10
85.76013447874335
 20
-117.1814888595934
 30
0.0
 10
86.0226716942677
 20
-117.4388402484181
 30
0.0
 10
86.0226716942677
 20
-117.4388402484181
 30
0.0
 10
86.0226716942677
 20
-117.4388402484181
 30
0.0
 10
85.76013447874335
 20
-117.6972146927979
 30
0.0
 10
85.76013447874335
 20
-117.6972146927979
 30
0.0
 10
85.76013447874335
 20
-117.6972146927979
 30
0.0
 10
86.0226716942677
 20
-117.9555891371777
 30
0.0
 10
86.0226716942677
 20
-117.9555891371777
 30
0.0
 10
86.0226716942677
 20
-117.9555891371777
 30
0.0
 10
85.76013447874335
 20
-118.2139635815575
 30
0.0
 10
85.76013447874335
 20
-118.2139635815575
 30
0.0
 10
85.76013447874335
 20
-118.2139635815575
 30
0.0
 10
86.0226716942677
 20
-118.4723380259376
 30
0.0
 10
86.0226716942677
 20
-118.4723380259376
 30
0.0
 10
86.0226716942677
 20
-118.4723380259376
 30
0.0
 10
85.76013447874335
 20
-118.730747748095
 30
0.0
 10
85.76013447874335
 20
-118.730747748095
 30
0.0
 10
85.76013447874335
 20
-118.730747748095
 30
0.0
 10
86.0226716942677
 20
-118.9897924702524
 30
0.0
 10
86.0226716942677
 20
-118.9897924702524
 30
0.0
 10
86.0226716942677
 20
-118.9897924702524
 30
0.0
 10
85.76013447874335
 20
-119.2488724701878
 30
0.0
 10
85.76013447874335
 20
-119.2488724701878
 30
0.0
 10
85.76013447874335
 20
-119.2488724701878
 30
0.0
 10
86.0226716942677
 20
-119.5072469145676
 30
0.0
 10
86.0226716942677
 20
-119.5072469145676
 30
0.0
 10
86.0226716942677
 20
-119.5072469145676
 30
0.0
 10
85.76013447874335
 20
-119.7656566367252
 30
0.0
 10
85.76013447874335
 20
-119.7656566367252
 30
0.0
 10
85.76013447874335
 20
-119.7656566367252
 30
0.0
 10
86.0226716942677
 20
-120.024031081105
 30
0.0
 10
86.0226716942677
 20
-120.024031081105
 30
0.0
 10
86.0226716942677
 20
-120.024031081105
 30
0.0
 10
85.76013447874335
 20
-120.2820527477074
 30
0.0
 10
85.76013447874335
 20
-120.2820527477074
 30
0.0
 10
85.76013447874335
 20
-120.2820527477074
 30
0.0
 10
86.0226716942677
 20
-120.540779969865
 30
0.0
 10
86.0226716942677
 20
-120.540779969865
 30
0.0
 10
86.0226716942677
 20
-120.540779969865
 30
0.0
 10
85.76013447874335
 20
-120.7995071920225
 30
0.0
 10
85.76013447874335
 20
-120.7995071920225
 30
0.0
 10
85.76013447874335
 20
-120.7995071920225
 30
0.0
 10
86.0226716942677
 20
-121.0579169141798
 30
0.0
 10
86.0226716942677
 20
-121.0579169141798
 30
0.0
 10
86.0226716942677
 20
-121.0579169141798
 30
0.0
 10
85.76013447874335
 20
-121.3166088585599
 30
0.0
 10
85.76013447874335
 20
-121.3166088585599
 30
0.0
 10
85.76013447874335
 20
-121.3166088585599
 30
0.0
 10
86.0226716942677
 20
-121.5753360807171
 30
0.0
 10
86.0226716942677
 20
-121.5753360807171
 30
0.0
 10
86.0226716942677
 20
-121.5753360807171
 30
0.0
 10
85.76013447874335
 20
-121.8344160806525
 30
0.0
 10
85.76013447874335
 20
-121.8344160806525
 30
0.0
 10
85.76013447874335
 20
-121.8344160806525
 30
0.0
 10
86.0226716942677
 20
-122.09314330281
 30
0.0
 10
86.0226716942677
 20
-122.09314330281
 30
0.0
 10
86.0226716942677
 20
-122.09314330281
 30
0.0
 10
85.76013447874335
 20
-122.3515177471898
 30
0.0
 10
85.76013447874335
 20
-122.3515177471898
 30
0.0
 10
85.76013447874335
 20
-122.3515177471898
 30
0.0
 10
86.0226716942677
 20
-122.6099274693475
 30
0.0
 10
86.0226716942677
 20
-122.6099274693475
 30
0.0
 10
86.0226716942677
 20
-122.6099274693475
 30
0.0
 10
85.76013447874335
 20
-122.8683019137273
 30
0.0
 10
85.76013447874335
 20
-122.8683019137273
 30
0.0
 10
85.76013447874335
 20
-122.8683019137273
 30
0.0
 10
86.0226716942677
 20
-123.1273819136626
 30
0.0
 10
86.0226716942677
 20
-123.1273819136626
 30
0.0
 10
86.0226716942677
 20
-123.1273819136626
 30
0.0
 10
85.76013447874335
 20
-123.3861091358202
 30
0.0
 10
85.76013447874335
 20
-123.3861091358202
 30
0.0
 10
85.76013447874335
 20
-123.3861091358202
 30
0.0
 10
86.0226716942677
 20
-123.6451538579777
 30
0.0
 10
86.0226716942677
 20
-123.6451538579777
 30
0.0
 10
86.0226716942677
 20
-123.6451538579777
 30
0.0
 10
85.76013447874335
 20
-123.9038810801352
 30
0.0
 10
85.76013447874335
 20
-123.9038810801352
 30
0.0
 10
85.76013447874335
 20
-123.9038810801352
 30
0.0
 10
86.0226716942677
 20
-124.1626083022928
 30
0.0
 10
86.0226716942677
 20
-124.1626083022928
 30
0.0
 10
86.0226716942677
 20
-124.1626083022928
 30
0.0
 10
85.76013447874335
 20
-124.4213355244504
 30
0.0
 10
85.76013447874335
 20
-124.4213355244504
 30
0.0
 10
85.76013447874335
 20
-124.4213355244504
 30
0.0
 10
86.0226716942677
 20
-124.6790396910525
 30
0.0
 10
86.0226716942677
 20
-124.6790396910525
 30
0.0
 10
86.0226716942677
 20
-124.6790396910525
 30
0.0
 10
85.76013447874335
 20
-124.9367438576546
 30
0.0
 10
85.76013447874335
 20
-124.9367438576546
 30
0.0
 10
85.76013447874335
 20
-124.9367438576546
 30
0.0
 10
86.0226716942677
 20
-125.1940952464793
 30
0.0
 10
86.0226716942677
 20
-125.1940952464793
 30
0.0
 10
86.0226716942677
 20
-125.1940952464793
 30
0.0
 10
85.76013447874335
 20
-125.4524696908591
 30
0.0
 10
85.76013447874335
 20
-125.4524696908591
 30
0.0
 10
85.76013447874335
 20
-125.4524696908591
 30
0.0
 10
86.0226716942677
 20
-125.7104913574612
 30
0.0
 10
86.0226716942677
 20
-125.7104913574612
 30
0.0
 10
86.0226716942677
 20
-125.7104913574612
 30
0.0
 10
85.76013447874335
 20
-125.9692185796187
 30
0.0
 10
85.76013447874335
 20
-125.9692185796187
 30
0.0
 10
85.76013447874335
 20
-125.9692185796187
 30
0.0
 10
86.0226716942677
 20
-126.228298579554
 30
0.0
 10
86.0226716942677
 20
-126.228298579554
 30
0.0
 10
86.0226716942677
 20
-126.228298579554
 30
0.0
 10
85.76013447874335
 20
-126.4873785794894
 30
0.0
 10
85.76013447874335
 20
-126.4873785794894
 30
0.0
 10
85.76013447874335
 20
-126.4873785794894
 30
0.0
 10
86.0226716942677
 20
-126.7457530238692
 30
0.0
 10
86.0226716942677
 20
-126.7457530238692
 30
0.0
 10
86.0226716942677
 20
-126.7457530238692
 30
0.0
 10
85.76013447874335
 20
-127.004127468249
 30
0.0
 10
85.76013447874335
 20
-127.004127468249
 30
0.0
 10
85.76013447874335
 20
-127.004127468249
 30
0.0
 10
86.0226716942677
 20
-127.2625019126288
 30
0.0
 10
86.0226716942677
 20
-127.2625019126288
 30
0.0
 10
86.0226716942677
 20
-127.2625019126288
 30
0.0
 10
85.76013447874335
 20
-127.5209116347864
 30
0.0
 10
85.76013447874335
 20
-127.5209116347864
 30
0.0
 10
85.76013447874335
 20
-127.5209116347864
 30
0.0
 10
86.0226716942677
 20
-127.779638856944
 30
0.0
 10
86.0226716942677
 20
-127.779638856944
 30
0.0
 10
86.0226716942677
 20
-127.779638856944
 30
0.0
 10
85.76013447874335
 20
-128.0393891346567
 30
0.0
 10
85.76013447874335
 20
-128.0393891346567
 30
0.0
 10
85.76013447874335
 20
-128.0393891346567
 30
0.0
 10
86.0226716942677
 20
-128.2977635790368
 30
0.0
 10
86.0226716942677
 20
-128.2977635790368
 30
0.0
 10
86.0226716942677
 20
-128.2977635790368
 30
0.0
 10
85.76013447874335
 20
-128.5568435789718
 30
0.0
 10
85.76013447874335
 20
-128.5568435789718
 30
0.0
 10
85.76013447874335
 20
-128.5568435789718
 30
0.0
 10
86.0226716942677
 20
-128.8152180233519
 30
0.0
 10
86.0226716942677
 20
-128.8152180233519
 30
0.0
 10
86.0226716942677
 20
-128.8152180233519
 30
0.0
 10
85.76013447874335
 20
-129.0749683010643
 30
0.0
 10
85.76013447874335
 20
-129.0749683010643
 30
0.0
 10
85.76013447874335
 20
-129.0749683010643
 30
0.0
 10
86.0226716942677
 20
-129.334048301
 30
0.0
 10
86.0226716942677
 20
-129.334048301
 30
0.0
 10
86.0226716942677
 20
-129.334048301
 30
0.0
 10
85.76013447874335
 20
-129.5927755231572
 30
0.0
 10
85.76013447874335
 20
-129.5927755231572
 30
0.0
 10
85.76013447874335
 20
-129.5927755231572
 30
0.0
 10
86.0226716942677
 20
-129.85220830087
 30
0.0
 10
86.0226716942677
 20
-129.85220830087
 30
0.0
 10
86.0226716942677
 20
-129.85220830087
 30
0.0
 10
85.76013447874335
 20
-130.1116058008052
 30
0.0
 10
85.76013447874335
 20
-130.1116058008052
 30
0.0
 10
85.76013447874335
 20
-130.1116058008052
 30
0.0
 10
86.0226716942677
 20
-130.3706858007409
 30
0.0
 10
86.0226716942677
 20
-130.3706858007409
 30
0.0
 10
86.0226716942677
 20
-130.3706858007409
 30
0.0
 10
85.76013447874335
 20
-130.6297658006759
 30
0.0
 10
85.76013447874335
 20
-130.6297658006759
 30
0.0
 10
85.76013447874335
 20
-130.6297658006759
 30
0.0
 10
86.0226716942677
 20
-130.8895160783889
 30
0.0
 10
86.0226716942677
 20
-130.8895160783889
 30
0.0
 10
86.0226716942677
 20
-130.8895160783889
 30
0.0
 10
85.76013447874335
 20
-131.1492663561013
 30
0.0
 10
85.76013447874335
 20
-131.1492663561013
 30
0.0
 10
85.76013447874335
 20
-131.1492663561013
 30
0.0
 10
86.0226716942677
 20
-131.4076408004814
 30
0.0
 10
86.0226716942677
 20
-131.4076408004814
 30
0.0
 10
86.0226716942677
 20
-131.4076408004814
 30
0.0
 10
85.76013447874335
 20
-131.666050522639
 30
0.0
 10
85.76013447874335
 20
-131.666050522639
 30
0.0
 10
85.76013447874335
 20
-131.666050522639
 30
0.0
 10
86.0226716942677
 20
-131.9258008003521
 30
0.0
 10
86.0226716942677
 20
-131.9258008003521
 30
0.0
 10
86.0226716942677
 20
-131.9258008003521
 30
0.0
 10
85.76013447874335
 20
-132.1855510780644
 30
0.0
 10
85.76013447874335
 20
-132.1855510780644
 30
0.0
 10
85.76013447874335
 20
-132.1855510780644
 30
0.0
 10
86.0226716942677
 20
-132.4453013557774
 30
0.0
 10
86.0226716942677
 20
-132.4453013557774
 30
0.0
 10
86.0226716942677
 20
-132.4453013557774
 30
0.0
 10
85.76013447874335
 20
-132.705086911268
 30
0.0
 10
85.76013447874335
 20
-132.705086911268
 30
0.0
 10
85.76013447874335
 20
-132.705086911268
 30
0.0
 10
86.0226716942677
 20
-132.9641669112036
 30
0.0
 10
86.0226716942677
 20
-132.9641669112036
 30
0.0
 10
86.0226716942677
 20
-132.9641669112036
 30
0.0
 10
85.76013447874335
 20
-133.224587466694
 30
0.0
 10
85.76013447874335
 20
-133.224587466694
 30
0.0
 10
85.76013447874335
 20
-133.224587466694
 30
0.0
 10
86.0226716942677
 20
-133.4850432999619
 30
0.0
 10
86.0226716942677
 20
-133.4850432999619
 30
0.0
 10
86.0226716942677
 20
-133.4850432999619
 30
0.0
 10
85.76013447874335
 20
-133.7454991332304
 30
0.0
 10
85.76013447874335
 20
-133.7454991332304
 30
0.0
 10
85.76013447874335
 20
-133.7454991332304
 30
0.0
 10
86.0226716942677
 20
-134.0032032998325
 30
0.0
 10
86.0226716942677
 20
-134.0032032998325
 30
0.0
 10
86.0226716942677
 20
-134.0032032998325
 30
0.0
 10
85.76013447874335
 20
-134.2608721886571
 30
0.0
 10
85.76013447874335
 20
-134.2608721886571
 30
0.0
 10
85.76013447874335
 20
-134.2608721886571
 30
0.0
 10
86.0226716942677
 20
-134.5185763552593
 30
0.0
 10
86.0226716942677
 20
-134.5185763552593
 30
0.0
 10
86.0226716942677
 20
-134.5185763552593
 30
0.0
 10
85.76013447874335
 20
-134.7762805218614
 30
0.0
 10
85.76013447874335
 20
-134.7762805218614
 30
0.0
 10
85.76013447874335
 20
-134.7762805218614
 30
0.0
 10
86.0226716942677
 20
-135.033949410686
 30
0.0
 10
86.0226716942677
 20
-135.033949410686
 30
0.0
 10
86.0226716942677
 20
-135.033949410686
 30
0.0
 10
85.76013447874335
 20
-135.2916535772881
 30
0.0
 10
85.76013447874335
 20
-135.2916535772881
 30
0.0
 10
85.76013447874335
 20
-135.2916535772881
 30
0.0
 10
86.0226716942677
 20
-135.5493577438902
 30
0.0
 10
86.0226716942677
 20
-135.5493577438902
 30
0.0
 10
86.0226716942677
 20
-135.5493577438902
 30
0.0
 10
85.76013447874335
 20
-135.8077321882703
 30
0.0
 10
85.76013447874335
 20
-135.8077321882703
 30
0.0
 10
85.76013447874335
 20
-135.8077321882703
 30
0.0
 10
86.0226716942677
 20
-136.0654363548725
 30
0.0
 10
86.0226716942677
 20
-136.0654363548725
 30
0.0
 10
86.0226716942677
 20
-136.0654363548725
 30
0.0
 10
85.76013447874335
 20
-136.32448107703
 30
0.0
 10
85.76013447874335
 20
-136.32448107703
 30
0.0
 10
85.76013447874335
 20
-136.32448107703
 30
0.0
 10
86.0226716942677
 20
-136.5828907991876
 30
0.0
 10
86.0226716942677
 20
-136.5828907991876
 30
0.0
 10
86.0226716942677
 20
-136.5828907991876
 30
0.0
 10
85.76013447874335
 20
-136.8412652435677
 30
0.0
 10
85.76013447874335
 20
-136.8412652435677
 30
0.0
 10
85.76013447874335
 20
-136.8412652435677
 30
0.0
 10
86.0226716942677
 20
-137.1003452435027
 30
0.0
 10
86.0226716942677
 20
-137.1003452435027
 30
0.0
 10
86.0226716942677
 20
-137.1003452435027
 30
0.0
 10
85.76013447874335
 20
-137.3580141323273
 30
0.0
 10
85.76013447874335
 20
-137.3580141323273
 30
0.0
 10
85.76013447874335
 20
-137.3580141323273
 30
0.0
 10
86.0226716942677
 20
-137.6170941322623
 30
0.0
 10
86.0226716942677
 20
-137.6170941322623
 30
0.0
 10
86.0226716942677
 20
-137.6170941322623
 30
0.0
 10
85.76013447874335
 20
-137.8747982988645
 30
0.0
 10
85.76013447874335
 20
-137.8747982988645
 30
0.0
 10
85.76013447874335
 20
-137.8747982988645
 30
0.0
 10
86.0226716942677
 20
-138.1324671876891
 30
0.0
 10
86.0226716942677
 20
-138.1324671876891
 30
0.0
 10
86.0226716942677
 20
-138.1324671876891
 30
0.0
 10
85.76013447874335
 20
-138.3908769098467
 30
0.0
 10
85.76013447874335
 20
-138.3908769098467
 30
0.0
 10
85.76013447874335
 20
-138.3908769098467
 30
0.0
 10
86.0226716942677
 20
-138.6485457986713
 30
0.0
 10
86.0226716942677
 20
-138.6485457986713
 30
0.0
 10
86.0226716942677
 20
-138.6485457986713
 30
0.0
 10
85.76013447874335
 20
-138.906955520829
 30
0.0
 10
85.76013447874335
 20
-138.906955520829
 30
0.0
 10
85.76013447874335
 20
-138.906955520829
 30
0.0
 10
86.0226716942677
 20
-139.1646244096536
 30
0.0
 10
86.0226716942677
 20
-139.1646244096536
 30
0.0
 10
86.0226716942677
 20
-139.1646244096536
 30
0.0
 10
85.76013447874335
 20
-139.4223285762557
 30
0.0
 10
85.76013447874335
 20
-139.4223285762557
 30
0.0
 10
85.76013447874335
 20
-139.4223285762557
 30
0.0
 10
86.0226716942677
 20
-139.6807030206352
 30
0.0
 10
86.0226716942677
 20
-139.6807030206352
 30
0.0
 10
86.0226716942677
 20
-139.6807030206352
 30
0.0
 10
85.76013447874335
 20
-139.9384071872379
 30
0.0
 10
85.76013447874335
 20
-139.9384071872379
 30
0.0
 10
85.76013447874335
 20
-139.9384071872379
 30
0.0
 10
86.0226716942677
 20
-140.1967816316174
 30
0.0
 10
86.0226716942677
 20
-140.1967816316174
 30
0.0
 10
86.0226716942677
 20
-140.1967816316174
 30
0.0
 10
85.76013447874335
 20
-140.4544857982195
 30
0.0
 10
85.76013447874335
 20
-140.4544857982195
 30
0.0
 10
85.76013447874335
 20
-140.4544857982195
 30
0.0
 10
86.0226716942677
 20
-140.7128602425997
 30
0.0
 10
86.0226716942677
 20
-140.7128602425997
 30
0.0
 10
86.0226716942677
 20
-140.7128602425997
 30
0.0
 10
85.76013447874335
 20
-140.9712346869792
 30
0.0
 10
85.76013447874335
 20
-140.9712346869792
 30
0.0
 10
85.76013447874335
 20
-140.9712346869792
 30
0.0
 10
86.0226716942677
 20
-141.2296091313593
 30
0.0
 10
86.0226716942677
 20
-141.2296091313593
 30
0.0
 10
86.0226716942677
 20
-141.2296091313593
 30
0.0
 10
85.76013447874335
 20
-141.4886891312943
 30
0.0
 10
85.76013447874335
 20
-141.4886891312943
 30
0.0
 10
85.76013447874335
 20
-141.4886891312943
 30
0.0
 10
86.0226716942677
 20
-141.7470635756744
 30
0.0
 10
86.0226716942677
 20
-141.7470635756744
 30
0.0
 10
86.0226716942677
 20
-141.7470635756744
 30
0.0
 10
85.76013447874335
 20
-142.0054732978321
 30
0.0
 10
85.76013447874335
 20
-142.0054732978321
 30
0.0
 10
85.76013447874335
 20
-142.0054732978321
 30
0.0
 10
86.0226716942677
 20
-142.2638477422115
 30
0.0
 10
86.0226716942677
 20
-142.2638477422115
 30
0.0
 10
86.0226716942677
 20
-142.2638477422115
 30
0.0
 10
85.76013447874335
 20
-142.5222221865917
 30
0.0
 10
85.76013447874335
 20
-142.5222221865917
 30
0.0
 10
85.76013447874335
 20
-142.5222221865917
 30
0.0
 10
86.0226716942677
 20
-142.7805966309718
 30
0.0
 10
86.0226716942677
 20
-142.7805966309718
 30
0.0
 10
86.0226716942677
 20
-142.7805966309718
 30
0.0
 10
85.76013447874335
 20
-143.0389710753513
 30
0.0
 10
85.76013447874335
 20
-143.0389710753513
 30
0.0
 10
85.76013447874335
 20
-143.0389710753513
 30
0.0
 10
86.0226716942677
 20
-143.2966752419534
 30
0.0
 10
86.0226716942677
 20
-143.2966752419534
 30
0.0
 10
86.0226716942677
 20
-143.2966752419534
 30
0.0
 10
85.76013447874335
 20
-143.5550496863335
 30
0.0
 10
85.76013447874335
 20
-143.5550496863335
 30
0.0
 10
85.76013447874335
 20
-143.5550496863335
 30
0.0
 10
86.0226716942677
 20
-143.8134594084912
 30
0.0
 10
86.0226716942677
 20
-143.8134594084912
 30
0.0
 10
86.0226716942677
 20
-143.8134594084912
 30
0.0
 10
85.76013447874335
 20
-144.0718338528707
 30
0.0
 10
85.76013447874335
 20
-144.0718338528707
 30
0.0
 10
85.76013447874335
 20
-144.0718338528707
 30
0.0
 10
86.0226716942677
 20
-144.3302082972508
 30
0.0
 10
86.0226716942677
 20
-144.3302082972508
 30
0.0
 10
86.0226716942677
 20
-144.3302082972508
 30
0.0
 10
85.76013447874335
 20
-144.5892882971858
 30
0.0
 10
85.76013447874335
 20
-144.5892882971858
 30
0.0
 10
85.76013447874335
 20
-144.5892882971858
 30
0.0
 10
86.0226716942677
 20
-144.8476627415659
 30
0.0
 10
86.0226716942677
 20
-144.8476627415659
 30
0.0
 10
86.0226716942677
 20
-144.8476627415659
 30
0.0
 10
85.76013447874335
 20
-145.1067427415009
 30
0.0
 10
85.76013447874335
 20
-145.1067427415009
 30
0.0
 10
85.76013447874335
 20
-145.1067427415009
 30
0.0
 10
86.0226716942677
 20
-145.365117185881
 30
0.0
 10
86.0226716942677
 20
-145.365117185881
 30
0.0
 10
86.0226716942677
 20
-145.365117185881
 30
0.0
 10
85.76013447874335
 20
-145.6228213524832
 30
0.0
 10
85.76013447874335
 20
-145.6228213524832
 30
0.0
 10
85.76013447874335
 20
-145.6228213524832
 30
0.0
 10
86.0226716942677
 20
-145.8818660746407
 30
0.0
 10
86.0226716942677
 20
-145.8818660746407
 30
0.0
 10
86.0226716942677
 20
-145.8818660746407
 30
0.0
 10
85.76013447874335
 20
-146.1402757967983
 30
0.0
 10
85.76013447874335
 20
-146.1402757967983
 30
0.0
 10
85.76013447874335
 20
-146.1402757967983
 30
0.0
 10
86.0226716942677
 20
-146.3986502411784
 30
0.0
 10
86.0226716942677
 20
-146.3986502411784
 30
0.0
 10
86.0226716942677
 20
-146.3986502411784
 30
0.0
 10
85.76013447874335
 20
-146.6570246855579
 30
0.0
 10
85.76013447874335
 20
-146.6570246855579
 30
0.0
 10
85.76013447874335
 20
-146.6570246855579
 30
0.0
 10
86.0226716942677
 20
-146.915399129938
 30
0.0
 10
86.0226716942677
 20
-146.915399129938
 30
0.0
 10
86.0226716942677
 20
-146.915399129938
 30
0.0
 10
85.76013447874335
 20
-147.174479129873
 30
0.0
 10
85.76013447874335
 20
-147.174479129873
 30
0.0
 10
85.76013447874335
 20
-147.174479129873
 30
0.0
 10
86.0226716942677
 20
-147.4335591298081
 30
0.0
 10
86.0226716942677
 20
-147.4335591298081
 30
0.0
 10
86.0226716942677
 20
-147.4335591298081
 30
0.0
 10
85.76013447874335
 20
-147.6919335741882
 30
0.0
 10
85.76013447874335
 20
-147.6919335741882
 30
0.0
 10
85.76013447874335
 20
-147.6919335741882
 30
0.0
 10
86.0226716942677
 20
-147.9510135741232
 30
0.0
 10
86.0226716942677
 20
-147.9510135741232
 30
0.0
 10
86.0226716942677
 20
-147.9510135741232
 30
0.0
 10
85.76013447874335
 20
-148.2093880185033
 30
0.0
 10
85.76013447874335
 20
-148.2093880185033
 30
0.0
 10
85.76013447874335
 20
-148.2093880185033
 30
0.0
 10
86.0226716942677
 20
-148.4677624628828
 30
0.0
 10
86.0226716942677
 20
-148.4677624628828
 30
0.0
 10
86.0226716942677
 20
-148.4677624628828
 30
0.0
 10
85.76013447874335
 20
-148.7261369072629
 30
0.0
 10
85.76013447874335
 20
-148.7261369072629
 30
0.0
 10
85.76013447874335
 20
-148.7261369072629
 30
0.0
 10
86.0226716942677
 20
-148.9845466294206
 30
0.0
 10
86.0226716942677
 20
-148.9845466294206
 30
0.0
 10
86.0226716942677
 20
-148.9845466294206
 30
0.0
 10
85.76013447874335
 20
-149.2435913515781
 30
0.0
 10
85.76013447874335
 20
-149.2435913515781
 30
0.0
 10
85.76013447874335
 20
-149.2435913515781
 30
0.0
 10
86.0226716942677
 20
-149.5026713515131
 30
0.0
 10
86.0226716942677
 20
-149.5026713515131
 30
0.0
 10
86.0226716942677
 20
-149.5026713515131
 30
0.0
 10
85.76013447874335
 20
-149.7617513514487
 30
0.0
 10
85.76013447874335
 20
-149.7617513514487
 30
0.0
 10
85.76013447874335
 20
-149.7617513514487
 30
0.0
 10
86.0226716942677
 20
-150.0201257958282
 30
0.0
 10
86.0226716942677
 20
-150.0201257958282
 30
0.0
 10
86.0226716942677
 20
-150.0201257958282
 30
0.0
 10
85.76013447874335
 20
-150.2792057957639
 30
0.0
 10
85.76013447874335
 20
-150.2792057957639
 30
0.0
 10
85.76013447874335
 20
-150.2792057957639
 30
0.0
 10
86.0226716942677
 20
-150.536909962366
 30
0.0
 10
86.0226716942677
 20
-150.536909962366
 30
0.0
 10
86.0226716942677
 20
-150.536909962366
 30
0.0
 10
85.76013447874335
 20
-150.7939085734126
 30
0.0
 10
85.76013447874335
 20
-150.7939085734126
 30
0.0
 10
85.76013447874335
 20
-150.7939085734126
 30
0.0
 10
86.0226716942677
 20
-151.0515774622372
 30
0.0
 10
86.0226716942677
 20
-151.0515774622372
 30
0.0
 10
86.0226716942677
 20
-151.0515774622372
 30
0.0
 10
85.76013447874335
 20
-151.3099871843948
 30
0.0
 10
85.76013447874335
 20
-151.3099871843948
 30
0.0
 10
85.76013447874335
 20
-151.3099871843948
 30
0.0
 10
86.0226716942677
 20
-151.5683616287743
 30
0.0
 10
86.0226716942677
 20
-151.5683616287743
 30
0.0
 10
86.0226716942677
 20
-151.5683616287743
 30
0.0
 10
85.76013447874335
 20
-151.8274416287099
 30
0.0
 10
85.76013447874335
 20
-151.8274416287099
 30
0.0
 10
85.76013447874335
 20
-151.8274416287099
 30
0.0
 10
86.0226716942677
 20
-152.0864863508674
 30
0.0
 10
86.0226716942677
 20
-152.0864863508674
 30
0.0
 10
86.0226716942677
 20
-152.0864863508674
 30
0.0
 10
85.76013447874335
 20
-152.3455663508024
 30
0.0
 10
85.76013447874335
 20
-152.3455663508024
 30
0.0
 10
85.76013447874335
 20
-152.3455663508024
 30
0.0
 10
86.0226716942677
 20
-152.6032705174046
 30
0.0
 10
86.0226716942677
 20
-152.6032705174046
 30
0.0
 10
86.0226716942677
 20
-152.6032705174046
 30
0.0
 10
85.76013447874335
 20
-152.8616449617847
 30
0.0
 10
85.76013447874335
 20
-152.8616449617847
 30
0.0
 10
85.76013447874335
 20
-152.8616449617847
 30
0.0
 10
86.0226716942677
 20
-153.1207249617197
 30
0.0
 10
86.0226716942677
 20
-153.1207249617197
 30
0.0
 10
86.0226716942677
 20
-153.1207249617197
 30
0.0
 10
85.76013447874335
 20
-153.3783938505443
 30
0.0
 10
85.76013447874335
 20
-153.3783938505443
 30
0.0
 10
85.76013447874335
 20
-153.3783938505443
 30
0.0
 10
86.0226716942677
 20
-153.6374738504793
 30
0.0
 10
86.0226716942677
 20
-153.6374738504793
 30
0.0
 10
86.0226716942677
 20
-153.6374738504793
 30
0.0
 10
85.76013447874335
 20
-153.8972241281923
 30
0.0
 10
85.76013447874335
 20
-153.8972241281923
 30
0.0
 10
85.76013447874335
 20
-153.8972241281923
 30
0.0
 10
86.0226716942677
 20
-154.15563385035
 30
0.0
 10
86.0226716942677
 20
-154.15563385035
 30
0.0
 10
86.0226716942677
 20
-154.15563385035
 30
0.0
 10
85.76013447874335
 20
-154.4146785725075
 30
0.0
 10
85.76013447874335
 20
-154.4146785725075
 30
0.0
 10
85.76013447874335
 20
-154.4146785725075
 30
0.0
 10
86.0226716942677
 20
-154.6737585724425
 30
0.0
 10
86.0226716942677
 20
-154.6737585724425
 30
0.0
 10
86.0226716942677
 20
-154.6737585724425
 30
0.0
 10
85.76013447874335
 20
-154.9328385723781
 30
0.0
 10
85.76013447874335
 20
-154.9328385723781
 30
0.0
 10
85.76013447874335
 20
-154.9328385723781
 30
0.0
 10
86.0226716942677
 20
-155.1919185723131
 30
0.0
 10
86.0226716942677
 20
-155.1919185723131
 30
0.0
 10
86.0226716942677
 20
-155.1919185723131
 30
0.0
 10
85.76013447874335
 20
-155.4509632944706
 30
0.0
 10
85.76013447874335
 20
-155.4509632944706
 30
0.0
 10
85.76013447874335
 20
-155.4509632944706
 30
0.0
 10
86.0226716942677
 20
-155.7100432944056
 30
0.0
 10
86.0226716942677
 20
-155.7100432944056
 30
0.0
 10
86.0226716942677
 20
-155.7100432944056
 30
0.0
 10
85.76013447874335
 20
-155.9691232943413
 30
0.0
 10
85.76013447874335
 20
-155.9691232943413
 30
0.0
 10
85.76013447874335
 20
-155.9691232943413
 30
0.0
 10
86.0226716942677
 20
-156.2282032942763
 30
0.0
 10
86.0226716942677
 20
-156.2282032942763
 30
0.0
 10
86.0226716942677
 20
-156.2282032942763
 30
0.0
 10
85.76013447874335
 20
-156.4879535719893
 30
0.0
 10
85.76013447874335
 20
-156.4879535719893
 30
0.0
 10
85.76013447874335
 20
-156.4879535719893
 30
0.0
 10
86.0226716942677
 20
-156.7470335719243
 30
0.0
 10
86.0226716942677
 20
-156.7470335719243
 30
0.0
 10
86.0226716942677
 20
-156.7470335719243
 30
0.0
 10
85.76013447874335
 20
-157.0067838496373
 30
0.0
 10
85.76013447874335
 20
-157.0067838496373
 30
0.0
 10
85.76013447874335
 20
-157.0067838496373
 30
0.0
 10
86.0226716942677
 20
-157.2658638495723
 30
0.0
 10
86.0226716942677
 20
-157.2658638495723
 30
0.0
 10
86.0226716942677
 20
-157.2658638495723
 30
0.0
 10
85.76013447874335
 20
-157.5242382939524
 30
0.0
 10
85.76013447874335
 20
-157.5242382939524
 30
0.0
 10
85.76013447874335
 20
-157.5242382939524
 30
0.0
 10
86.0226716942677
 20
-157.7846941272203
 30
0.0
 10
86.0226716942677
 20
-157.7846941272203
 30
0.0
 10
86.0226716942677
 20
-157.7846941272203
 30
0.0
 10
85.76013447874335
 20
-158.0430685716005
 30
0.0
 10
85.76013447874335
 20
-158.0430685716005
 30
0.0
 10
85.76013447874335
 20
-158.0430685716005
 30
0.0
 10
86.0226716942677
 20
-158.3028188493135
 30
0.0
 10
86.0226716942677
 20
-158.3028188493135
 30
0.0
 10
86.0226716942677
 20
-158.3028188493135
 30
0.0
 10
85.76013447874335
 20
-158.562604404804
 30
0.0
 10
85.76013447874335
 20
-158.562604404804
 30
0.0
 10
85.76013447874335
 20
-158.562604404804
 30
0.0
 10
86.0226716942677
 20
-158.8223546825164
 30
0.0
 10
86.0226716942677
 20
-158.8223546825164
 30
0.0
 10
86.0226716942677
 20
-158.8223546825164
 30
0.0
 10
85.76013447874335
 20
-159.0828105157849
 30
0.0
 10
85.76013447874335
 20
-159.0828105157849
 30
0.0
 10
85.76013447874335
 20
-159.0828105157849
 30
0.0
 10
86.0226716942677
 20
-159.3432310712753
 30
0.0
 10
86.0226716942677
 20
-159.3432310712753
 30
0.0
 10
86.0226716942677
 20
-159.3432310712753
 30
0.0
 10
85.76013447874335
 20
-159.6036869045438
 30
0.0
 10
85.76013447874335
 20
-159.6036869045438
 30
0.0
 10
85.76013447874335
 20
-159.6036869045438
 30
0.0
 10
86.0226716942677
 20
-159.8613910711459
 30
0.0
 10
86.0226716942677
 20
-159.8613910711459
 30
0.0
 10
86.0226716942677
 20
-159.8613910711459
 30
0.0
 10
85.76013447874335
 20
-160.119095237748
 30
0.0
 10
85.76013447874335
 20
-160.119095237748
 30
0.0
 10
85.76013447874335
 20
-160.119095237748
 30
0.0
 10
86.0226716942677
 20
-160.3760938487947
 30
0.0
 10
86.0226716942677
 20
-160.3760938487947
 30
0.0
 10
86.0226716942677
 20
-160.3760938487947
 30
0.0
 10
85.76013447874335
 20
-160.6344682931748
 30
0.0
 10
85.76013447874335
 20
-160.6344682931748
 30
0.0
 10
85.76013447874335
 20
-160.6344682931748
 30
0.0
 10
86.0226716942677
 20
-160.8914669042214
 30
0.0
 10
86.0226716942677
 20
-160.8914669042214
 30
0.0
 10
86.0226716942677
 20
-160.8914669042214
 30
0.0
 10
85.76013447874335
 20
-161.1491710708241
 30
0.0
 10
85.76013447874335
 20
-161.1491710708241
 30
0.0
 10
85.76013447874335
 20
-161.1491710708241
 30
0.0
 10
86.0226716942677
 20
-161.4075455152036
 30
0.0
 10
86.0226716942677
 20
-161.4075455152036
 30
0.0
 10
86.0226716942677
 20
-161.4075455152036
 30
0.0
 10
85.76013447874335
 20
-161.6659199595838
 30
0.0
 10
85.76013447874335
 20
-161.6659199595838
 30
0.0
 10
85.76013447874335
 20
-161.6659199595838
 30
0.0
 10
86.0226716942677
 20
-161.9236241261859
 30
0.0
 10
86.0226716942677
 20
-161.9236241261859
 30
0.0
 10
86.0226716942677
 20
-161.9236241261859
 30
0.0
 10
85.76013447874335
 20
-162.1819985705654
 30
0.0
 10
85.76013447874335
 20
-162.1819985705654
 30
0.0
 10
85.76013447874335
 20
-162.1819985705654
 30
0.0
 10
86.0226716942677
 20
-162.4403730149455
 30
0.0
 10
86.0226716942677
 20
-162.4403730149455
 30
0.0
 10
86.0226716942677
 20
-162.4403730149455
 30
0.0
 10
85.76013447874335
 20
-162.6994530148805
 30
0.0
 10
85.76013447874335
 20
-162.6994530148805
 30
0.0
 10
85.76013447874335
 20
-162.6994530148805
 30
0.0
 10
86.0226716942677
 20
-162.9578274592606
 30
0.0
 10
86.0226716942677
 20
-162.9578274592606
 30
0.0
 10
86.0226716942677
 20
-162.9578274592606
 30
0.0
 10
85.76013447874335
 20
-163.2162371814183
 30
0.0
 10
85.76013447874335
 20
-163.2162371814183
 30
0.0
 10
85.76013447874335
 20
-163.2162371814183
 30
0.0
 10
86.0226716942677
 20
-163.4739060702429
 30
0.0
 10
86.0226716942677
 20
-163.4739060702429
 30
0.0
 10
86.0226716942677
 20
-163.4739060702429
 30
0.0
 10
85.76013447874335
 20
-163.7322805146223
 30
0.0
 10
85.76013447874335
 20
-163.7322805146223
 30
0.0
 10
85.76013447874335
 20
-163.7322805146223
 30
0.0
 10
86.0226716942677
 20
-163.99069023678
 30
0.0
 10
86.0226716942677
 20
-163.99069023678
 30
0.0
 10
86.0226716942677
 20
-163.99069023678
 30
0.0
 10
85.76013447874335
 20
-164.2483591256046
 30
0.0
 10
85.76013447874335
 20
-164.2483591256046
 30
0.0
 10
85.76013447874335
 20
-164.2483591256046
 30
0.0
 10
86.0226716942677
 20
-164.5067688477622
 30
0.0
 10
86.0226716942677
 20
-164.5067688477622
 30
0.0
 10
86.0226716942677
 20
-164.5067688477622
 30
0.0
 10
85.76013447874335
 20
-164.7644377365868
 30
0.0
 10
85.76013447874335
 20
-164.7644377365868
 30
0.0
 10
85.76013447874335
 20
-164.7644377365868
 30
0.0
 10
86.0226716942677
 20
-165.022141903189
 30
0.0
 10
86.0226716942677
 20
-165.022141903189
 30
0.0
 10
86.0226716942677
 20
-165.022141903189
 30
0.0
 10
85.76013447874335
 20
-165.2805163475685
 30
0.0
 10
85.76013447874335
 20
-165.2805163475685
 30
0.0
 10
85.76013447874335
 20
-165.2805163475685
 30
0.0
 10
86.0226716942677
 20
-165.5382205141712
 30
0.0
 10
86.0226716942677
 20
-165.5382205141712
 30
0.0
 10
86.0226716942677
 20
-165.5382205141712
 30
0.0
 10
85.76013447874335
 20
-165.7965949585507
 30
0.0
 10
85.76013447874335
 20
-165.7965949585507
 30
0.0
 10
85.76013447874335
 20
-165.7965949585507
 30
0.0
 10
86.0226716942677
 20
-166.0542991251528
 30
0.0
 10
86.0226716942677
 20
-166.0542991251528
 30
0.0
 10
86.0226716942677
 20
-166.0542991251528
 30
0.0
 10
85.76013447874335
 20
-166.3119680139774
 30
0.0
 10
85.76013447874335
 20
-166.3119680139774
 30
0.0
 10
85.76013447874335
 20
-166.3119680139774
 30
0.0
 10
86.0226716942677
 20
-166.5703777361351
 30
0.0
 10
86.0226716942677
 20
-166.5703777361351
 30
0.0
 10
86.0226716942677
 20
-166.5703777361351
 30
0.0
 10
85.76013447874335
 20
-166.8287521805152
 30
0.0
 10
85.76013447874335
 20
-166.8287521805152
 30
0.0
 10
85.76013447874335
 20
-166.8287521805152
 30
0.0
 10
86.0226716942677
 20
-167.0871266248947
 30
0.0
 10
86.0226716942677
 20
-167.0871266248947
 30
0.0
 10
86.0226716942677
 20
-167.0871266248947
 30
0.0
 10
85.76013447874335
 20
-167.3462066248303
 30
0.0
 10
85.76013447874335
 20
-167.3462066248303
 30
0.0
 10
85.76013447874335
 20
-167.3462066248303
 30
0.0
 10
86.0226716942677
 20
-167.6052866247653
 30
0.0
 10
86.0226716942677
 20
-167.6052866247653
 30
0.0
 10
86.0226716942677
 20
-167.6052866247653
 30
0.0
 10
85.76013447874335
 20
-167.8636610691455
 30
0.0
 10
85.76013447874335
 20
-167.8636610691455
 30
0.0
 10
85.76013447874335
 20
-167.8636610691455
 30
0.0
 10
86.0226716942677
 20
-168.122035513525
 30
0.0
 10
86.0226716942677
 20
-168.122035513525
 30
0.0
 10
86.0226716942677
 20
-168.122035513525
 30
0.0
 10
85.76013447874335
 20
-168.3804099579051
 30
0.0
 10
85.76013447874335
 20
-168.3804099579051
 30
0.0
 10
85.76013447874335
 20
-168.3804099579051
 30
0.0
 10
86.0226716942677
 20
-168.6388196800627
 30
0.0
 10
86.0226716942677
 20
-168.6388196800627
 30
0.0
 10
86.0226716942677
 20
-168.6388196800627
 30
0.0
 10
85.76013447874335
 20
-168.8964885688867
 30
0.0
 10
85.76013447874335
 20
-168.8964885688867
 30
0.0
 10
85.76013447874335
 20
-168.8964885688867
 30
0.0
 10
86.0226716942677
 20
-169.1548630132668
 30
0.0
 10
86.0226716942677
 20
-169.1548630132668
 30
0.0
 10
86.0226716942677
 20
-169.1548630132668
 30
0.0
 10
85.76013447874335
 20
-169.4125671798689
 30
0.0
 10
85.76013447874335
 20
-169.4125671798689
 30
0.0
 10
85.76013447874335
 20
-169.4125671798689
 30
0.0
 10
86.0226716942677
 20
-169.6709416242491
 30
0.0
 10
86.0226716942677
 20
-169.6709416242491
 30
0.0
 10
86.0226716942677
 20
-169.6709416242491
 30
0.0
 10
85.76013447874335
 20
-169.9293513464067
 30
0.0
 10
85.76013447874335
 20
-169.9293513464067
 30
0.0
 10
85.76013447874335
 20
-169.9293513464067
 30
0.0
 10
86.0226716942677
 20
-170.1877257907862
 30
0.0
 10
86.0226716942677
 20
-170.1877257907862
 30
0.0
 10
86.0226716942677
 20
-170.1877257907862
 30
0.0
 10
85.76013447874335
 20
-170.4468057907218
 30
0.0
 10
85.76013447874335
 20
-170.4468057907218
 30
0.0
 10
85.76013447874335
 20
-170.4468057907218
 30
0.0
 10
86.0226716942677
 20
-170.7051802351013
 30
0.0
 10
86.0226716942677
 20
-170.7051802351013
 30
0.0
 10
86.0226716942677
 20
-170.7051802351013
 30
0.0
 10
85.76013447874335
 20
-170.9642249572588
 30
0.0
 10
85.76013447874335
 20
-170.9642249572588
 30
0.0
 10
85.76013447874335
 20
-170.9642249572588
 30
0.0
 10
86.0226716942677
 20
-171.2226346794164
 30
0.0
 10
86.0226716942677
 20
-171.2226346794164
 30
0.0
 10
86.0226716942677
 20
-171.2226346794164
 30
0.0
 10
85.76013447874335
 20
-171.4810091237966
 30
0.0
 10
85.76013447874335
 20
-171.4810091237966
 30
0.0
 10
85.76013447874335
 20
-171.4810091237966
 30
0.0
 10
86.0226716942677
 20
-171.7393835681761
 30
0.0
 10
86.0226716942677
 20
-171.7393835681761
 30
0.0
 10
86.0226716942677
 20
-171.7393835681761
 30
0.0
 10
85.76013447874335
 20
-171.9977580125562
 30
0.0
 10
85.76013447874335
 20
-171.9977580125562
 30
0.0
 10
85.76013447874335
 20
-171.9977580125562
 30
0.0
 10
86.0226716942677
 20
-172.2561677347138
 30
0.0
 10
86.0226716942677
 20
-172.2561677347138
 30
0.0
 10
86.0226716942677
 20
-172.2561677347138
 30
0.0
 10
85.76013447874335
 20
-172.5145421790933
 30
0.0
 10
85.76013447874335
 20
-172.5145421790933
 30
0.0
 10
85.76013447874335
 20
-172.5145421790933
 30
0.0
 10
86.0226716942677
 20
-172.773622179029
 30
0.0
 10
86.0226716942677
 20
-172.773622179029
 30
0.0
 10
86.0226716942677
 20
-172.773622179029
 30
0.0
 10
85.76013447874335
 20
-173.0319966234084
 30
0.0
 10
85.76013447874335
 20
-173.0319966234084
 30
0.0
 10
85.76013447874335
 20
-173.0319966234084
 30
0.0
 10
86.0226716942677
 20
-173.2910766233441
 30
0.0
 10
86.0226716942677
 20
-173.2910766233441
 30
0.0
 10
86.0226716942677
 20
-173.2910766233441
 30
0.0
 10
85.76013447874335
 20
-173.5501213455016
 30
0.0
 10
85.76013447874335
 20
-173.5501213455016
 30
0.0
 10
85.76013447874335
 20
-173.5501213455016
 30
0.0
 10
86.0226716942677
 20
-173.8084957898811
 30
0.0
 10
86.0226716942677
 20
-173.8084957898811
 30
0.0
 10
86.0226716942677
 20
-173.8084957898811
 30
0.0
 10
85.76013447874335
 20
-174.0669055120387
 30
0.0
 10
85.76013447874335
 20
-174.0669055120387
 30
0.0
 10
85.76013447874335
 20
-174.0669055120387
 30
0.0
 10
86.0226716942677
 20
-174.3252799564189
 30
0.0
 10
86.0226716942677
 20
-174.3252799564189
 30
0.0
 10
86.0226716942677
 20
-174.3252799564189
 30
0.0
 10
85.76013447874335
 20
-174.5843599563539
 30
0.0
 10
85.76013447874335
 20
-174.5843599563539
 30
0.0
 10
85.76013447874335
 20
-174.5843599563539
 30
0.0
 10
86.0226716942677
 20
-174.842734400734
 30
0.0
 10
86.0226716942677
 20
-174.842734400734
 30
0.0
 10
86.0226716942677
 20
-174.842734400734
 30
0.0
 10
85.76013447874335
 20
-175.101814400669
 30
0.0
 10
85.76013447874335
 20
-175.101814400669
 30
0.0
 10
85.76013447874335
 20
-175.101814400669
 30
0.0
 10
86.0226716942677
 20
-175.3608591228265
 30
0.0
 10
86.0226716942677
 20
-175.3608591228265
 30
0.0
 10
86.0226716942677
 20
-175.3608591228265
 30
0.0
 10
85.76013447874335
 20
-175.6199391227615
 30
0.0
 10
85.76013447874335
 20
-175.6199391227615
 30
0.0
 10
85.76013447874335
 20
-175.6199391227615
 30
0.0
 10
86.0226716942677
 20
-175.8783135671416
 30
0.0
 10
86.0226716942677
 20
-175.8783135671416
 30
0.0
 10
86.0226716942677
 20
-175.8783135671416
 30
0.0
 10
85.56240253934348
 20
-175.8783135671416
 30
0.0
 10
85.56240253934348
 20
-175.8783135671416
 30
0.0
 10
85.56240253934348
 20
-175.8783135671416
 30
0.0
 10
85.56240253934348
 20
-177.886113011084
 30
0.0
 10
85.56240253934348
 20
-177.886113011084
 30
0.0
 10
85.56240253934348
 20
-177.886113011084
 30
0.0
 10
86.98589611413824
 20
-179.6982618995199
 30
0.0
 10
86.98589611413824
 20
-179.6982618995199
 30
0.0
 10
86.98589611413824
 20
-179.6982618995199
 30
0.0
 10
87.43480582490783
 20
-179.6982618995199
 30
0.0
 10
87.43480582490783
 20
-179.6982618995199
 30
0.0
 10
87.65218748602862
 20
-179.6982618995199
 30
0.0
 10
87.82857637041745
 20
-179.5225432884525
 30
0.0
 10
87.82857637041745
 20
-179.3055143996178
 30
0.0
  0
HATCH
  5
42
330
1F
100
AcDbEntity
  8
_U+30EC_U+30A4_U+30E4_U+30FC 1
 62
     9
420
 13224394
100
AcDbHatch
 10
0.0
 20
0.0
 30
0.0
210
0.0
220
0.0
230
1.0
  2
SOLID
 70
     1
 71
     0
 91
        1
 92
        1
 93
        1
 72
     4
 94
        3
 73
     0
 74
     1
 95
     1127
 96
     1123
 40
0.0
 40
0.0
 40
0.0
 40
0.0
 40
1.0
 40
1.0
 40
1.0
 40
2.0
 40
2.0
 40
2.0
 40
3.0
 40
3.0
 40
3.0
 40
4.0
 40
4.0
 40
4.0
 40
5.0
 40
5.0
 40
5.0
 40
6.0
 40
6.0
 40
6.0
 40
7.0
 40
7.0
 40
7.0
 40
8.0
 40
8.0
 40
8.0
 40
9.0
 40
9.0
 40
9.0
 40
10.0
 40
10.0
 40
10.0
 40
11.0
 40
11.0
 40
11.0
 40
12.0
 40
12.0
 40
12.0
 40
13.0
 40
13.0
 40
13.0
 40
14.0
 40
14.0
 40
14.0
 40
15.0
 40
15.0
 40
15.0
 40
16.0
 40
16.0
 40
16.0
 40
17.0
 40
17.0
 40
17.0
 40
18.0
 40
18.0
 40
18.0
 40
19.0
 40
19.0
 40
19.0
 40
20.0
 40
20.0
 40
20.0
 40
21.0
 40
21.0
 40
21.0
 40
22.0
 40
22.0
 40
22.0
 40
23.0
 40
23.0
 40
23.0
 40
24.0
 40
24.0
 40
24.0
 40
25.0
 40
25.0
 40
25.0
 40
26.0
 40
26.0
 40
26.0
 40
27.0
 40
27.0
 40
27.0
 40
28.0
 40
28.0
 40
28.0
 40
29.0
 40
29.0
 40
29.0
 40
30.0
 40
30.0
 40
30.0
 40
31.0
 40
31.0
 40
31.0
 40
32.0
 40
32.0
 40
32.0
 40
33.0
 40
33.0
 40
33.0
 40
34.0
 40
34.0
 40
34.0
 40
35.0
 40
35.0
 40
35.0
 40
36.0
 40
36.0
 40
36.0
 40
37.0
 40
37.0
 40
37.0
 40
38.0
 40
38.0
 40
38.0
 40
39.0
 40
39.0
 40
39.0
 40
40.0
 40
40.0
 40
40.0
 40
41.0
 40
41.0
 40
41.0
 40
42.0
 40
42.0
 40
42.0
 40
43.0
 40
43.0
 40
43.0
 40
44.0
 40
44.0
 40
44.0
 40
45.0
 40
45.0
 40
45.0
 40
46.0
 40
46.0
 40
46.0
 40
47.0
 40
47.0
 40
47.0
 40
48.0
 40
48.0
 40
48.0
 40
49.0
 40
49.0
 40
49.0
 40
50.0
 40
50.0
 40
50.0
 40
51.0
 40
51.0
 40
51.0
 40
52.0
 40
52.0
 40
52.0
 40
53.0
 40
53.0
 40
53.0
 40
54.0
 40
54.0
 40
54.0
 40
55.0
 40
55.0
 40
55.0
 40
56.0
 40
56.0
 40
56.0
 40
57.0
 40
57.0
 40
57.0
 40
58.0
 40
58.0
 40
58.0
 40
59.0
 40
59.0
 40
59.0
 40
60.0
 40
60.0
 40
60.0
 40
61.0
 40
61.0
 40
61.0
 40
62.0
 40
62.0
 40
62.0
 40
63.0
 40
63.0
 40
63.0
 40
64.0
 40
64.0
 40
64.0
 40
65.0
 40
65.0
 40
65.0
 40
66.0
 40
66.0
 40
66.0
 40
67.0
 40
67.0
 40
67.0
 40
68.0
 40
68.0
 40
68.0
 40
69.0
 40
69.0
 40
69.0
 40
70.0
 40
70.0
 40
70.0
 40
71.0
 40
71.0
 40
71.0
 40
72.0
 40
72.0
 40
72.0
 40
73.0
 40
73.0
 40
73.0
 40
74.0
 40
74.0
 40
74.0
 40
75.0
 40
75.0
 40
75.0
 40
76.0
 40
76.0
 40
76.0
 40
77.0
 40
77.0
 40
77.0
 40
78.0
 40
78.0
 40
78.0
 40
79.0
 40
79.0
 40
79.0
 40
80.0
 40
80.0
 40
80.0
 40
81.0
 40
81.0
 40
81.0
 40
82.0
 40
82.0
 40
82.0
 40
83.0
 40
83.0
 40
83.0
 40
84.0
 40
84.0
 40
84.0
 40
85.0
 40
85.0
 40
85.0
 40
86.0
 40
86.0
 40
86.0
 40
87.0
 40
87.0
 40
87.0
 40
88.0
 40
88.0
 40
88.0
 40
89.0
 40
89.0
 40
89.0
 40
90.0
 40
90.0
 40
90.0
 40
91.0
 40
91.0
 40
91.0
 40
92.0
 40
92.0
 40
92.0
 40
93.0
 40
93.0
 40
93.0
 40
94.0
 40
94.0
 40
94.0
 40
95.0
 40
95.0
 40
95.0
 40
96.0
 40
96.0
 40
96.0
 40
97.0
 40
97.0
 40
97.0
 40
98.0
 40
98.0
 40
98.0
 40
99.0
 40
99.0
 40
99.0
 40
100.0
 40
100.0
 40
100.0
 40
101.0
 40
101.0
 40
101.0
 40
102.0
 40
102.0
 40
102.0
 40
103.0
 40
103.0
 40
103.0
 40
104.0
 40
104.0
 40
104.0
 40
105.0
 40
105.0
 40
105.0
 40
106.0
 40
106.0
 40
106.0
 40
107.0
 40
107.0
 40
107.0
 40
108.0
 40
108.0
 40
108.0
 40
109.0
 40
109.0
 40
109.0
 40
110.0
 40
110.0
 40
110.0
 40
111.0
 40
111.0
 40
111.0
 40
112.0
 40
112.0
 40
112.0
 40
113.0
 40
113.0
 40
113.0
 40
114.0
 40
114.0
 40
114.0
 40
115.0
 40
115.0
 40
115.0
 40
116.0
 40
116.0
 40
116.0
 40
117.0
 40
117.0
 40
117.0
 40
118.0
 40
118.0
 40
118.0
 40
119.0
 40
119.0
 40
119.0
 40
120.0
 40
120.0
 40
120.0
 40
121.0
 40
121.0
 40
121.0
 40
122.0
 40
122.0
 40
122.0
 40
123.0
 40
123.0
 40
123.0
 40
124.0
 40
124.0
 40
124.0
 40
125.0
 40
125.0
 40
125.0
 40
126.0
 40
126.0
 40
126.0
 40
127.0
 40
127.0
 40
127.0
 40
128.0
 40
128.0
 40
128.0
 40
129.0
 40
129.0
 40
129.0
 40
130.0
 40
130.0
 40
130.0
 40
131.0
 40
131.0
 40
131.0
 40
132.0
 40
132.0
 40
132.0
 40
133.0
 40
133.0
 40
133.0
 40
134.0
 40
134.0
 40
134.0
 40
135.0
 40
135.0
 40
135.0
 40
136.0
 40
136.0
 40
136.0
 40
137.0
 40
137.0
 40
137.0
 40
138.0
 40
138.0
 40
138.0
 40
139.0
 40
139.0
 40
139.0
 40
140.0
 40
140.0
 40
140.0
 40
141.0
 40
141.0
 40
141.0
 40
142.0
 40
142.0
 40
142.0
 40
143.0
 40
143.0
 40
143.0
 40
144.0
 40
144.0
 40
144.0
 40
145.0
 40
145.0
 40
145.0
 40
146.0
 40
146.0
 40
146.0
 40
147.0
 40
147.0
 40
147.0
 40
148.0
 40
148.0
 40
148.0
 40
149.0
 40
149.0
 40
149.0
 40
150.0
 40
150.0
 40
150.0
 40
151.0
 40
151.0
 40
151.0
 40
152.0
 40
152.0
 40
152.0
 40
153.0
 40
153.0
 40
153.0
 40
154.0
 40
154.0
 40
154.0
 40
155.0
 40
155.0
 40
155.0
 40
156.0
 40
156.0
 40
156.0
 40
157.0
 40
157.0
 40
157.0
 40
158.0
 40
158.0
 40
158.0
 40
159.0
 40
159.0
 40
159.0
 40
160.0
 40
160.0
 40
160.0
 40
161.0
 40
161.0
 40
161.0
 40
162.0
 40
162.0
 40
162.0
 40
163.0
 40
163.0
 40
163.0
 40
164.0
 40
164.0
 40
164.0
 40
165.0
 40
165.0
 40
165.0
 40
166.0
 40
166.0
 40
166.0
 40
167.0
 40
167.0
 40
167.0
 40
168.0
 40
168.0
 40
168.0
 40
169.0
 40
169.0
 40
169.0
 40
170.0
 40
170.0
 40
170.0
 40
171.0
 40
171.0
 40
171.0
 40
172.0
 40
172.0
 40
172.0
 40
173.0
 40
173.0
 40
173.0
 40
174.0
 40
174.0
 40
174.0
 40
175.0
 40
175.0
 40
175.0
 40
176.0
 40
176.0
 40
176.0
 40
177.0
 40
177.0
 40
177.0
 40
178.0
 40
178.0
 40
178.0
 40
179.0
 40
179.0
 40
179.0
 40
180.0
 40
180.0
 40
180.0
 40
181.0
 40
181.0
 40
181.0
 40
182.0
 40
182.0
 40
182.0
 40
183.0
 40
183.0
 40
183.0
 40
184.0
 40
184.0
 40
184.0
 40
185.0
 40
185.0
 40
185.0
 40
186.0
 40
186.0
 40
186.0
 40
187.0
 40
187.0
 40
187.0
 40
188.0
 40
188.0
 40
188.0
 40
189.0
 40
189.0
 40
189.0
 40
190.0
 40
190.0
 40
190.0
 40
191.0
 40
191.0
 40
191.0
 40
192.0
 40
192.0
 40
192.0
 40
193.0
 40
193.0
 40
193.0
 40
194.0
 40
194.0
 40
194.0
 40
195.0
 40
195.0
 40
195.0
 40
196.0
 40
196.0
 40
196.0
 40
197.0
 40
197.0
 40
197.0
 40
198.0
 40
198.0
 40
198.0
 40
199.0
 40
199.0
 40
199.0
 40
200.0
 40
200.0
 40
200.0
 40
201.0
 40
201.0
 40
201.0
 40
202.0
 40
202.0
 40
202.0
 40
203.0
 40
203.0
 40
203.0
 40
204.0
 40
204.0
 40
204.0
 40
205.0
 40
205.0
 40
205.0
 40
206.0
 40
206.0
 40
206.0
 40
207.0
 40
207.0
 40
207.0
 40
208.0
 40
208.0
 40
208.0
 40
209.0
 40
209.0
 40
209.0
 40
210.0
 40
210.0
 40
210.0
 40
211.0
 40
211.0
 40
211.0
 40
212.0
 40
212.0
 40
212.0
 40
213.0
 40
213.0
 40
213.0
 40
214.0
 40
214.0
 40
214.0
 40
215.0
 40
215.0
 40
215.0
 40
216.0
 40
216.0
 40
216.0
 40
217.0
 40
217.0
 40
217.0
 40
218.0
 40
218.0
 40
218.0
 40
219.0
 40
219.0
 40
219.0
 40
220.0
 40
220.0
 40
220.0
 40
221.0
 40
221.0
 40
221.0
 40
222.0
 40
222.0
 40
222.0
 40
223.0
 40
223.0
 40
223.0
 40
224.0
 40
224.0
 40
224.0
 40
225.0
 40
225.0
 40
225.0
 40
226.0
 40
226.0
 40
226.0
 40
227.0
 40
227.0
 40
227.0
 40
228.0
 40
228.0
 40
228.0
 40
229.0
 40
229.0
 40
229.0
 40
230.0
 40
230.0
 40
230.0
 40
231.0
 40
231.0
 40
231.0
 40
232.0
 40
232.0
 40
232.0
 40
233.0
 40
233.0
 40
233.0
 40
234.0
 40
234.0
 40
234.0
 40
235.0
 40
235.0
 40
235.0
 40
236.0
 40
236.0
 40
236.0
 40
237.0
 40
237.0
 40
237.0
 40
238.0
 40
238.0
 40
238.0
 40
239.0
 40
239.0
 40
239.0
 40
240.0
 40
240.0
 40
240.0
 40
241.0
 40
241.0
 40
241.0
 40
242.0
 40
242.0
 40
242.0
 40
243.0
 40
243.0
 40
243.0
 40
244.0
 40
244.0
 40
244.0
 40
245.0
 40
245.0
 40
245.0
 40
246.0
 40
246.0
 40
246.0
 40
247.0
 40
247.0
 40
247.0
 40
248.0
 40
248.0
 40
248.0
 40
249.0
 40
249.0
 40
249.0
 40
250.0
 40
250.0
 40
250.0
 40
251.0
 40
251.0
 40
251.0
 40
252.0
 40
252.0
 40
252.0
 40
253.0
 40
253.0
 40
253.0
 40
254.0
 40
254.0
 40
254.0
 40
255.0
 40
255.0
 40
255.0
 40
256.0
 40
256.0
 40
256.0
 40
257.0
 40
257.0
 40
257.0
 40
258.0
 40
258.0
 40
258.0
 40
259.0
 40
259.0
 40
259.0
 40
260.0
 40
260.0
 40
260.0
 40
261.0
 40
261.0
 40
261.0
 40
262.0
 40
262.0
 40
262.0
 40
263.0
 40
263.0
 40
263.0
 40
264.0
 40
264.0
 40
264.0
 40
265.0
 40
265.0
 40
265.0
 40
266.0
 40
266.0
 40
266.0
 40
267.0
 40
267.0
 40
267.0
 40
268.0
 40
268.0
 40
268.0
 40
269.0
 40
269.0
 40
269.0
 40
270.0
 40
270.0
 40
270.0
 40
271.0
 40
271.0
 40
271.0
 40
272.0
 40
272.0
 40
272.0
 40
273.0
 40
273.0
 40
273.0
 40
274.0
 40
274.0
 40
274.0
 40
275.0
 40
275.0
 40
275.0
 40
276.0
 40
276.0
 40
276.0
 40
277.0
 40
277.0
 40
277.0
 40
278.0
 40
278.0
 40
278.0
 40
279.0
 40
279.0
 40
279.0
 40
280.0
 40
280.0
 40
280.0
 40
281.0
 40
281.0
 40
281.0
 40
282.0
 40
282.0
 40
282.0
 40
283.0
 40
283.0
 40
283.0
 40
284.0
 40
284.0
 40
284.0
 40
285.0
 40
285.0
 40
285.0
 40
286.0
 40
286.0
 40
286.0
 40
287.0
 40
287.0
 40
287.0
 40
288.0
 40
288.0
 40
288.0
 40
289.0
 40
289.0
 40
289.0
 40
290.0
 40
290.0
 40
290.0
 40
291.0
 40
291.0
 40
291.0
 40
292.0
 40
292.0
 40
292.0
 40
293.0
 40
293.0
 40
293.0
 40
294.0
 40
294.0
 40
294.0
 40
295.0
 40
295.0
 40
295.0
 40
296.0
 40
296.0
 40
296.0
 40
297.0
 40
297.0
 40
297.0
 40
298.0
 40
298.0
 40
298.0
 40
299.0
 40
299.0
 40
299.0
 40
300.0
 40
300.0
 40
300.0
 40
301.0
 40
301.0
 40
301.0
 40
302.0
 40
302.0
 40
302.0
 40
303.0
 40
303.0
 40
303.0
 40
304.0
 40
304.0
 40
304.0
 40
305.0
 40
305.0
 40
305.0
 40
306.0
 40
306.0
 40
306.0
 40
307.0
 40
307.0
 40
307.0
 40
308.0
 40
308.0
 40
308.0
 40
309.0
 40
309.0
 40
309.0
 40
310.0
 40
310.0
 40
310.0
 40
311.0
 40
311.0
 40
311.0
 40
312.0
 40
312.0
 40
312.0
 40
313.0
 40
313.0
 40
313.0
 40
314.0
 40
314.0
 40
314.0
 40
315.0
 40
315.0
 40
315.0
 40
316.0
 40
316.0
 40
316.0
 40
317.0
 40
317.0
 40
317.0
 40
318.0
 40
318.0
 40
318.0
 40
319.0
 40
319.0
 40
319.0
 40
320.0
 40
320.0
 40
320.0
 40
321.0
 40
321.0
 40
321.0
 40
322.0
 40
322.0
 40
322.0
 40
323.0
 40
323.0
 40
323.0
 40
324.0
 40
324.0
 40
324.0
 40
325.0
 40
325.0
 40
325.0
 40
326.0
 40
326.0
 40
326.0
 40
327.0
 40
327.0
 40
327.0
 40
328.0
 40
328.0
 40
328.0
 40
329.0
 40
329.0
 40
329.0
 40
330.0
 40
330.0
 40
330.0
 40
331.0
 40
331.0
 40
331.0
 40
332.0
 40
332.0
 40
332.0
 40
333.0
 40
333.0
 40
333.0
 40
334.0
 40
334.0
 40
334.0
 40
335.0
 40
335.0
 40
335.0
 40
336.0
 40
336.0
 40
336.0
 40
337.0
 40
337.0
 40
337.0
 40
338.0
 40
338.0
 40
338.0
 40
339.0
 40
339.0
 40
339.0
 40
340.0
 40
340.0
 40
340.0
 40
341.0
 40
341.0
 40
341.0
 40
342.0
 40
342.0
 40
342.0
 40
343.0
 40
343.0
 40
343.0
 40
344.0
 40
344.0
 40
344.0
 40
345.0
 40
345.0
 40
345.0
 40
346.0
 40
346.0
 40
346.0
 40
347.0
 40
347.0
 40
347.0
 40
348.0
 40
348.0
 40
348.0
 40
349.0
 40
349.0
 40
349.0
 40
350.0
 40
350.0
 40
350.0
 40
351.0
 40
351.0
 40
351.0
 40
352.0
 40
352.0
 40
352.0
 40
353.0
 40
353.0
 40
353.0
 40
354.0
 40
354.0
 40
354.0
 40
355.0
 40
355.0
 40
355.0
 40
356.0
 40
356.0
 40
356.0
 40
357.0
 40
357.0
 40
357.0
 40
358.0
 40
358.0
 40
358.0
 40
359.0
 40
359.0
 40
359.0
 40
360.0
 40
360.0
 40
360.0
 40
361.0
 40
361.0
 40
361.0
 40
362.0
 40
362.0
 40
362.0
 40
363.0
 40
363.0
 40
363.0
 40
364.0
 40
364.0
 40
364.0
 40
365.0
 40
365.0
 40
365.0
 40
366.0
 40
366.0
 40
366.0
 40
367.0
 40
367.0
 40
367.0
 40
368.0
 40
368.0
 40
368.0
 40
369.0
 40
369.0
 40
369.0
 40
370.0
 40
370.0
 40
370.0
 40
371.0
 40
371.0
 40
371.0
 40
372.0
 40
372.0
 40
372.0
 40
373.0
 40
373.0
 40
373.0
 40
374.0
 40
374.0
 40
374.0
 40
374.0
 10
87.82857637041745
 20
-179.3055143996178
 10
87.82857637041745
 20
-179.3055143996178
 10
87.82857637041745
 20
-81.00677359085945
 10
87.82857637041745
 20
-81.00677359085945
 10
87.82857637041745
 20
-80.28364970215142
 10
87.24084860763386
 20
-79.69796803563109
 10
86.51599612612638
 20
-79.69796803563109
 10
86.51599612612638
 20
-79.69796803563109
 10
85.56240253934348
 20
-79.69796803563109
 10
85.56240253934348
 20
-79.69796803563109
 10
85.56240253934348
 20
-79.69796803563109
 10
85.56240253934348
 20
-81.77226609066804
 10
85.56240253934348
 20
-81.77226609066804
 10
85.56240253934348
 20
-81.77226609066804
 10
86.0226716942677
 20
-81.77226609066804
 10
86.0226716942677
 20
-81.77226609066804
 10
86.0226716942677
 20
-81.77226609066804
 10
85.76013447874335
 20
-82.02997025727016
 10
85.76013447874335
 20
-82.02997025727016
 10
85.76013447874335
 20
-82.02997025727016
 10
86.0226716942677
 20
-82.28763914609476
 10
86.0226716942677
 20
-82.28763914609476
 10
86.0226716942677
 20
-82.28763914609476
 10
85.76013447874335
 20
-82.54534331269689
 10
85.76013447874335
 20
-82.54534331269689
 10
85.76013447874335
 20
-82.54534331269689
 10
86.0226716942677
 20
-82.80269470152157
 10
86.0226716942677
 20
-82.80269470152157
 10
86.0226716942677
 20
-82.80269470152157
 10
85.76013447874335
 20
-83.06039886812368
 10
85.76013447874335
 20
-83.06039886812368
 10
85.76013447874335
 20
-83.06039886812368
 10
86.0226716942677
 20
-83.31842053472606
 10
86.0226716942677
 20
-83.31842053472606
 10
86.0226716942677
 20
-83.31842053472606
 10
85.76013447874335
 20
-83.57577192355042
 10
85.76013447874335
 20
-83.57577192355042
 10
85.76013447874335
 20
-83.57577192355042
 10
86.0226716942677
 20
-83.83347609015286
 10
86.0226716942677
 20
-83.83347609015286
 10
86.0226716942677
 20
-83.83347609015286
 10
85.76013447874335
 20
-84.09185053453267
 10
85.76013447874335
 20
-84.09185053453267
 10
85.76013447874335
 20
-84.09185053453267
 10
86.0226716942677
 20
-84.34990747891256
 10
86.0226716942677
 20
-84.34990747891256
 10
86.0226716942677
 20
-84.34990747891256
 10
85.76013447874335
 20
-84.60828192329235
 10
85.76013447874335
 20
-84.60828192329235
 10
85.76013447874335
 20
-84.60828192329235
 10
86.0226716942677
 20
-84.86700914544993
 10
86.0226716942677
 20
-84.86700914544993
 10
86.0226716942677
 20
-84.86700914544993
 10
85.76013447874335
 20
-85.12538358982972
 10
85.76013447874335
 20
-85.12538358982972
 10
85.76013447874335
 20
-85.12538358982972
 10
86.0226716942677
 20
-85.3841108119873
 10
86.0226716942677
 20
-85.3841108119873
 10
86.0226716942677
 20
-85.3841108119873
 10
85.76013447874335
 20
-85.6424852563671
 10
85.76013447874335
 20
-85.6424852563671
 10
85.76013447874335
 20
-85.6424852563671
 10
86.0226716942677
 20
-85.9008597007469
 10
86.0226716942677
 20
-85.9008597007469
 10
86.0226716942677
 20
-85.9008597007469
 10
85.76013447874335
 20
-86.1589166451268
 10
85.76013447874335
 20
-86.1589166451268
 10
85.76013447874335
 20
-86.1589166451268
 10
86.0226716942677
 20
-86.41658553395139
 10
86.0226716942677
 20
-86.41658553395139
 10
86.0226716942677
 20
-86.41658553395139
 10
85.76013447874335
 20
-86.67464247833128
 10
85.76013447874335
 20
-86.67464247833128
 10
85.76013447874335
 20
-86.67464247833128
 10
86.0226716942677
 20
-86.93266414493364
 10
86.0226716942677
 20
-86.93266414493364
 10
86.0226716942677
 20
-86.93266414493364
 10
85.76013447874335
 20
-87.19072108931353
 10
85.76013447874335
 20
-87.19072108931353
 10
85.76013447874335
 20
-87.19072108931353
 10
86.0226716942677
 20
-87.44842525591565
 10
86.0226716942677
 20
-87.44842525591565
 10
86.0226716942677
 20
-87.44842525591565
 10
85.76013447874335
 20
-87.70679970029545
 10
85.76013447874335
 20
-87.70679970029545
 10
85.76013447874335
 20
-87.70679970029545
 10
86.0226716942677
 20
-87.96446858912006
 10
86.0226716942677
 20
-87.96446858912006
 10
86.0226716942677
 20
-87.96446858912006
 10
85.76013447874335
 20
-88.2228783112777
 10
85.76013447874335
 20
-88.2228783112777
 10
85.76013447874335
 20
-88.2228783112777
 10
86.0226716942677
 20
-88.48054720010198
 10
86.0226716942677
 20
-88.48054720010198
 10
86.0226716942677
 20
-88.48054720010198
 10
85.76013447874335
 20
-88.73895692225963
 10
85.76013447874335
 20
-88.73895692225963
 10
85.76013447874335
 20
-88.73895692225963
 10
86.0226716942677
 20
-88.99697858886199
 10
86.0226716942677
 20
-88.99697858886199
 10
86.0226716942677
 20
-88.99697858886199
 10
85.76013447874335
 20
-89.2553530332418
 10
85.76013447874335
 20
-89.2553530332418
 10
85.76013447874335
 20
-89.2553530332418
 10
86.0226716942677
 20
-89.51408025539936
 10
86.0226716942677
 20
-89.51408025539936
 10
86.0226716942677
 20
-89.51408025539936
 10
85.76013447874335
 20
-89.77280747755692
 10
85.76013447874335
 20
-89.77280747755692
 10
85.76013447874335
 20
-89.77280747755692
 10
86.0226716942677
 20
-90.03118192193674
 10
86.0226716942677
 20
-90.03118192193674
 10
86.0226716942677
 20
-90.03118192193674
 10
85.76013447874335
 20
-90.29026192187175
 10
85.76013447874335
 20
-90.29026192187175
 10
85.76013447874335
 20
-90.29026192187175
 10
86.0226716942677
 20
-90.54863636625187
 10
86.0226716942677
 20
-90.54863636625187
 10
86.0226716942677
 20
-90.54863636625187
 10
85.76013447874335
 20
-90.80669331063176
 10
85.76013447874335
 20
-90.80669331063176
 10
85.76013447874335
 20
-90.80669331063176
 10
86.0226716942677
 20
-91.06506775501155
 10
86.0226716942677
 20
-91.06506775501155
 10
86.0226716942677
 20
-91.06506775501155
 10
85.76013447874335
 20
-91.32312469939144
 10
85.76013447874335
 20
-91.32312469939144
 10
85.76013447874335
 20
-91.32312469939144
 10
86.0226716942677
 20
-91.581851921549
 10
86.0226716942677
 20
-91.581851921549
 10
86.0226716942677
 20
-91.581851921549
 10
85.76013447874335
 20
-91.83987358815105
 10
85.76013447874335
 20
-91.83987358815105
 10
85.76013447874335
 20
-91.83987358815105
 10
86.0226716942677
 20
-92.0975777547535
 10
86.0226716942677
 20
-92.0975777547535
 10
86.0226716942677
 20
-92.0975777547535
 10
85.76013447874335
 20
-92.35630497691106
 10
85.76013447874335
 20
-92.35630497691106
 10
85.76013447874335
 20
-92.35630497691106
 10
86.0226716942677
 20
-92.61467942129087
 10
86.0226716942677
 20
-92.61467942129087
 10
86.0226716942677
 20
-92.61467942129087
 10
85.76013447874335
 20
-92.87340664344843
 10
85.76013447874335
 20
-92.87340664344843
 10
85.76013447874335
 20
-92.87340664344843
 10
86.0226716942677
 20
-93.13248664338344
 10
86.0226716942677
 20
-93.13248664338344
 10
86.0226716942677
 20
-93.13248664338344
 10
85.76013447874335
 20
-93.39086108776324
 10
85.76013447874335
 20
-93.39086108776324
 10
85.76013447874335
 20
-93.39086108776324
 10
86.0226716942677
 20
-93.64958830992082
 10
86.0226716942677
 20
-93.64958830992082
 10
86.0226716942677
 20
-93.64958830992082
 10
85.76013447874335
 20
-93.90831553207838
 10
85.76013447874335
 20
-93.90831553207838
 10
85.76013447874335
 20
-93.90831553207838
 10
86.0226716942677
 20
-94.16633719868075
 10
86.0226716942677
 20
-94.16633719868075
 10
86.0226716942677
 20
-94.16633719868075
 10
85.76013447874335
 20
-94.42471164306055
 10
85.76013447874335
 20
-94.42471164306055
 10
85.76013447874335
 20
-94.42471164306055
 10
86.0226716942677
 20
-94.6831213652182
 10
86.0226716942677
 20
-94.6831213652182
 10
86.0226716942677
 20
-94.6831213652182
 10
85.76013447874335
 20
-94.941495809598
 10
85.76013447874335
 20
-94.941495809598
 10
85.76013447874335
 20
-94.941495809598
 10
86.0226716942677
 20
-95.1998702539778
 10
86.0226716942677
 20
-95.1998702539778
 10
86.0226716942677
 20
-95.1998702539778
 10
85.76013447874335
 20
-95.45895025391313
 10
85.76013447874335
 20
-95.45895025391313
 10
85.76013447874335
 20
-95.45895025391313
 10
86.0226716942677
 20
-95.71803025384814
 10
86.0226716942677
 20
-95.71803025384814
 10
86.0226716942677
 20
-95.71803025384814
 10
85.76013447874335
 20
-95.97640469822827
 10
85.76013447874335
 20
-95.97640469822827
 10
85.76013447874335
 20
-95.97640469822827
 10
86.0226716942677
 20
-96.23548469816328
 10
86.0226716942677
 20
-96.23548469816328
 10
86.0226716942677
 20
-96.23548469816328
 10
85.76013447874335
 20
-96.49385914254307
 10
85.76013447874335
 20
-96.49385914254307
 10
85.76013447874335
 20
-96.49385914254307
 10
86.0226716942677
 20
-96.75223358692321
 10
86.0226716942677
 20
-96.75223358692321
 10
86.0226716942677
 20
-96.75223358692321
 10
85.76013447874335
 20
-97.01096080908077
 10
85.76013447874335
 20
-97.01096080908077
 10
85.76013447874335
 20
-97.01096080908077
 10
86.0226716942677
 20
-97.26933525346058
 10
86.0226716942677
 20
-97.26933525346058
 10
86.0226716942677
 20
-97.26933525346058
 10
85.76013447874335
 20
-97.52841525339558
 10
85.76013447874335
 20
-97.52841525339558
 10
85.76013447874335
 20
-97.52841525339558
 10
86.0226716942677
 20
-97.78714247555315
 10
86.0226716942677
 20
-97.78714247555315
 10
86.0226716942677
 20
-97.78714247555315
 10
85.76013447874335
 20
-98.04586969771071
 10
85.76013447874335
 20
-98.04586969771071
 10
85.76013447874335
 20
-98.04586969771071
 10
86.0226716942677
 20
-98.30477330875716
 10
86.0226716942677
 20
-98.30477330875716
 10
86.0226716942677
 20
-98.30477330875716
 10
85.76013447874335
 20
-98.56314775313697
 10
85.76013447874335
 20
-98.56314775313697
 10
85.76013447874335
 20
-98.56314775313697
 10
86.0226716942677
 20
-98.8208519197391
 10
86.0226716942677
 20
-98.8208519197391
 10
86.0226716942677
 20
-98.8208519197391
 10
85.76013447874335
 20
-99.0785208085637
 10
85.76013447874335
 20
-99.0785208085637
 10
85.76013447874335
 20
-99.0785208085637
 10
86.0226716942677
 20
-99.33657775294358
 10
86.0226716942677
 20
-99.33657775294358
 10
86.0226716942677
 20
-99.33657775294358
 10
85.76013447874335
 20
-99.59428191954602
 10
85.76013447874335
 20
-99.59428191954602
 10
85.76013447874335
 20
-99.59428191954602
 10
86.0226716942677
 20
-99.85265636392583
 10
86.0226716942677
 20
-99.85265636392583
 10
86.0226716942677
 20
-99.85265636392583
 10
85.76013447874335
 20
-100.1113835860834
 10
85.76013447874335
 20
-100.1113835860834
 10
85.76013447874335
 20
-100.1113835860834
 10
86.0226716942677
 20
-100.3707810860183
 10
86.0226716942677
 20
-100.3707810860183
 10
86.0226716942677
 20
-100.3707810860183
 10
85.76013447874335
 20
-100.6295083081759
 10
85.76013447874335
 20
-100.6295083081759
 10
85.76013447874335
 20
-100.6295083081759
 10
86.0226716942677
 20
-100.8878827525557
 10
86.0226716942677
 20
-100.8878827525557
 10
86.0226716942677
 20
-100.8878827525557
 10
85.76013447874335
 20
-101.1466099747133
 10
85.76013447874335
 20
-101.1466099747133
 10
85.76013447874335
 20
-101.1466099747133
 10
86.0226716942677
 20
-101.4046669190931
 10
86.0226716942677
 20
-101.4046669190931
 10
86.0226716942677
 20
-101.4046669190931
 10
85.76013447874335
 20
-101.6633941412507
 10
85.76013447874335
 20
-101.6633941412507
 10
85.76013447874335
 20
-101.6633941412507
 10
86.0226716942677
 20
-101.922474141186
 10
86.0226716942677
 20
-101.922474141186
 10
86.0226716942677
 20
-101.922474141186
 10
85.76013447874335
 20
-102.1812013633436
 10
85.76013447874335
 20
-102.1812013633436
 10
85.76013447874335
 20
-102.1812013633436
 10
86.0226716942677
 20
-102.4402460855011
 10
86.0226716942677
 20
-102.4402460855011
 10
86.0226716942677
 20
-102.4402460855011
 10
85.76013447874335
 20
-102.6986558076587
 10
85.76013447874335
 20
-102.6986558076587
 10
85.76013447874335
 20
-102.6986558076587
 10
86.0226716942677
 20
-102.9577005298162
 10
86.0226716942677
 20
-102.9577005298162
 10
86.0226716942677
 20
-102.9577005298162
 10
85.76013447874335
 20
-103.2167805297512
 10
85.76013447874335
 20
-103.2167805297512
 10
85.76013447874335
 20
-103.2167805297512
 10
86.0226716942677
 20
-103.4758605296866
 10
86.0226716942677
 20
-103.4758605296866
 10
86.0226716942677
 20
-103.4758605296866
 10
85.76013447874335
 20
-103.7349405296219
 10
85.76013447874335
 20
-103.7349405296219
 10
85.76013447874335
 20
-103.7349405296219
 10
86.0226716942677
 20
-103.9939852517794
 10
86.0226716942677
 20
-103.9939852517794
 10
86.0226716942677
 20
-103.9939852517794
 10
85.76013447874335
 20
-104.2537708072699
 10
85.76013447874335
 20
-104.2537708072699
 10
85.76013447874335
 20
-104.2537708072699
 10
86.0226716942677
 20
-104.5124980294275
 10
86.0226716942677
 20
-104.5124980294275
 10
86.0226716942677
 20
-104.5124980294275
 10
85.76013447874335
 20
-104.7722483071402
 10
85.76013447874335
 20
-104.7722483071402
 10
85.76013447874335
 20
-104.7722483071402
 10
86.0226716942677
 20
-105.0313283070755
 10
86.0226716942677
 20
-105.0313283070755
 10
86.0226716942677
 20
-105.0313283070755
 10
85.76013447874335
 20
-105.2910785847885
 10
85.76013447874335
 20
-105.2910785847885
 10
85.76013447874335
 20
-105.2910785847885
 10
86.0226716942677
 20
-105.5498058069458
 10
86.0226716942677
 20
-105.5498058069458
 10
86.0226716942677
 20
-105.5498058069458
 10
85.76013447874335
 20
-105.8085330291033
 10
85.76013447874335
 20
-105.8085330291033
 10
85.76013447874335
 20
-105.8085330291033
 10
86.0226716942677
 20
-106.0682833068163
 10
86.0226716942677
 20
-106.0682833068163
 10
86.0226716942677
 20
-106.0682833068163
 10
85.76013447874335
 20
-106.3273633067516
 10
85.76013447874335
 20
-106.3273633067516
 10
85.76013447874335
 20
-106.3273633067516
 10
86.0226716942677
 20
-106.5871135844643
 10
86.0226716942677
 20
-106.5871135844643
 10
86.0226716942677
 20
-106.5871135844643
 10
85.76013447874335
 20
-106.846863862177
 10
85.76013447874335
 20
-106.846863862177
 10
85.76013447874335
 20
-106.846863862177
 10
86.0226716942677
 20
-107.1062966398901
 10
86.0226716942677
 20
-107.1062966398901
 10
86.0226716942677
 20
-107.1062966398901
 10
85.76013447874335
 20
-107.3667524731583
 10
85.76013447874335
 20
-107.3667524731583
 10
85.76013447874335
 20
-107.3667524731583
 10
86.0226716942677
 20
-107.6272083064266
 10
86.0226716942677
 20
-107.6272083064266
 10
86.0226716942677
 20
-107.6272083064266
 10
85.76013447874335
 20
-107.8876288619169
 10
85.76013447874335
 20
-107.8876288619169
 10
85.76013447874335
 20
-107.8876288619169
 10
86.0226716942677
 20
-108.1453330285194
 10
86.0226716942677
 20
-108.1453330285194
 10
86.0226716942677
 20
-108.1453330285194
 10
85.76013447874335
 20
-108.4030371951215
 10
85.76013447874335
 20
-108.4030371951215
 10
85.76013447874335
 20
-108.4030371951215
 10
86.0226716942677
 20
-108.6607060839461
 10
86.0226716942677
 20
-108.6607060839461
 10
86.0226716942677
 20
-108.6607060839461
 10
85.76013447874335
 20
-108.9184102505482
 10
85.76013447874335
 20
-108.9184102505482
 10
85.76013447874335
 20
-108.9184102505482
 10
86.0226716942677
 20
-109.1761144171503
 10
86.0226716942677
 20
-109.1761144171503
 10
86.0226716942677
 20
-109.1761144171503
 10
85.76013447874335
 20
-109.433465805975
 10
85.76013447874335
 20
-109.433465805975
 10
85.76013447874335
 20
-109.433465805975
 10
86.0226716942677
 20
-109.6918402503548
 10
86.0226716942677
 20
-109.6918402503548
 10
86.0226716942677
 20
-109.6918402503548
 10
85.76013447874335
 20
-109.9495444169569
 10
85.76013447874335
 20
-109.9495444169569
 10
85.76013447874335
 20
-109.9495444169569
 10
86.0226716942677
 20
-110.2079188613371
 10
86.0226716942677
 20
-110.2079188613371
 10
86.0226716942677
 20
-110.2079188613371
 10
85.76013447874335
 20
-110.4662933057169
 10
85.76013447874335
 20
-110.4662933057169
 10
85.76013447874335
 20
-110.4662933057169
 10
86.0226716942677
 20
-110.7246677500967
 10
86.0226716942677
 20
-110.7246677500967
 10
86.0226716942677
 20
-110.7246677500967
 10
85.76013447874335
 20
-110.9837477500317
 10
85.76013447874335
 20
-110.9837477500317
 10
85.76013447874335
 20
-110.9837477500317
 10
86.0226716942677
 20
-111.2418046944119
 10
86.0226716942677
 20
-111.2418046944119
 10
86.0226716942677
 20
-111.2418046944119
 10
85.76013447874335
 20
-111.5005319165695
 10
85.76013447874335
 20
-111.5005319165695
 10
85.76013447874335
 20
-111.5005319165695
 10
86.0226716942677
 20
-111.7589063609493
 10
86.0226716942677
 20
-111.7589063609493
 10
86.0226716942677
 20
-111.7589063609493
 10
85.76013447874335
 20
-112.0165752497736
 10
85.76013447874335
 20
-112.0165752497736
 10
85.76013447874335
 20
-112.0165752497736
 10
86.0226716942677
 20
-112.2746321941534
 10
86.0226716942677
 20
-112.2746321941534
 10
86.0226716942677
 20
-112.2746321941534
 10
85.76013447874335
 20
-112.5330066385336
 10
85.76013447874335
 20
-112.5330066385336
 10
85.76013447874335
 20
-112.5330066385336
 10
86.0226716942677
 20
-112.7907108051357
 10
86.0226716942677
 20
-112.7907108051357
 10
86.0226716942677
 20
-112.7907108051357
 10
85.76013447874335
 20
-113.0487324717377
 10
85.76013447874335
 20
-113.0487324717377
 10
85.76013447874335
 20
-113.0487324717377
 10
86.0226716942677
 20
-113.3067894161176
 10
86.0226716942677
 20
-113.3067894161176
 10
86.0226716942677
 20
-113.3067894161176
 10
85.76013447874335
 20
-113.5644583049422
 10
85.76013447874335
 20
-113.5644583049422
 10
85.76013447874335
 20
-113.5644583049422
 10
86.0226716942677
 20
-113.8228680270999
 10
86.0226716942677
 20
-113.8228680270999
 10
86.0226716942677
 20
-113.8228680270999
 10
85.76013447874335
 20
-114.0805369159245
 10
85.76013447874335
 20
-114.0805369159245
 10
85.76013447874335
 20
-114.0805369159245
 10
86.0226716942677
 20
-114.3389466380818
 10
86.0226716942677
 20
-114.3389466380818
 10
86.0226716942677
 20
-114.3389466380818
 10
85.76013447874335
 20
-114.5969683046842
 10
85.76013447874335
 20
-114.5969683046842
 10
85.76013447874335
 20
-114.5969683046842
 10
86.0226716942677
 20
-114.8549899712862
 10
86.0226716942677
 20
-114.8549899712862
 10
86.0226716942677
 20
-114.8549899712862
 10
85.76013447874335
 20
-115.1130469156661
 10
85.76013447874335
 20
-115.1130469156661
 10
85.76013447874335
 20
-115.1130469156661
 10
86.0226716942677
 20
-115.3717741378236
 10
86.0226716942677
 20
-115.3717741378236
 10
86.0226716942677
 20
-115.3717741378236
 10
85.76013447874335
 20
-115.6305013599812
 10
85.76013447874335
 20
-115.6305013599812
 10
85.76013447874335
 20
-115.6305013599812
 10
86.0226716942677
 20
-115.8892285821388
 10
86.0226716942677
 20
-115.8892285821388
 10
86.0226716942677
 20
-115.8892285821388
 10
85.76013447874335
 20
-116.1479558042963
 10
85.76013447874335
 20
-116.1479558042963
 10
85.76013447874335
 20
-116.1479558042963
 10
86.0226716942677
 20
-116.4063302486761
 10
86.0226716942677
 20
-116.4063302486761
 10
86.0226716942677
 20
-116.4063302486761
 10
85.76013447874335
 20
-116.664704693056
 10
85.76013447874335
 20
-116.664704693056
 10
85.76013447874335
 20
-116.664704693056
 10
86.0226716942677
 20
-116.9230791374358
 10
86.0226716942677
 20
-116.9230791374358
 10
86.0226716942677
 20
-116.9230791374358
 10
85.76013447874335
 20
-117.1814888595934
 10
85.76013447874335
 20
-117.1814888595934
 10
85.76013447874335
 20
-117.1814888595934
 10
86.0226716942677
 20
-117.4388402484181
 10
86.0226716942677
 20
-117.4388402484181
 10
86.0226716942677
 20
-117.4388402484181
 10
85.76013447874335
 20
-117.6972146927979
 10
85.76013447874335
 20
-117.6972146927979
 10
85.76013447874335
 20
-117.6972146927979
 10
86.0226716942677
 20
-117.9555891371777
 10
86.0226716942677
 20
-117.9555891371777
 10
86.0226716942677
 20
-117.9555891371777
 10
85.76013447874335
 20
-118.2139635815575
 10
85.76013447874335
 20
-118.2139635815575
 10
85.76013447874335
 20
-118.2139635815575
 10
86.0226716942677
 20
-118.4723380259376
 10
86.0226716942677
 20
-118.4723380259376
 10
86.0226716942677
 20
-118.4723380259376
 10
85.76013447874335
 20
-118.730747748095
 10
85.76013447874335
 20
-118.730747748095
 10
85.76013447874335
 20
-118.730747748095
 10
86.0226716942677
 20
-118.9897924702524
 10
86.0226716942677
 20
-118.9897924702524
 10
86.0226716942677
 20
-118.9897924702524
 10
85.76013447874335
 20
-119.2488724701878
 10
85.76013447874335
 20
-119.2488724701878
 10
85.76013447874335
 20
-119.2488724701878
 10
86.0226716942677
 20
-119.5072469145676
 10
86.0226716942677
 20
-119.5072469145676
 10
86.0226716942677
 20
-119.5072469145676
 10
85.76013447874335
 20
-119.7656566367252
 10
85.76013447874335
 20
-119.7656566367252
 10
85.76013447874335
 20
-119.7656566367252
 10
86.0226716942677
 20
-120.024031081105
 10
86.0226716942677
 20
-120.024031081105
 10
86.0226716942677
 20
-120.024031081105
 10
85.76013447874335
 20
-120.2820527477074
 10
85.76013447874335
 20
-120.2820527477074
 10
85.76013447874335
 20
-120.2820527477074
 10
86.0226716942677
 20
-120.540779969865
 10
86.0226716942677
 20
-120.540779969865
 10
86.0226716942677
 20
-120.540779969865
 10
85.76013447874335
 20
-120.7995071920225
 10
85.76013447874335
 20
-120.7995071920225
 10
85.76013447874335
 20
-120.7995071920225
 10
86.0226716942677
 20
-121.0579169141798
 10
86.0226716942677
 20
-121.0579169141798
 10
86.0226716942677
 20
-121.0579169141798
 10
85.76013447874335
 20
-121.3166088585599
 10
85.76013447874335
 20
-121.3166088585599
 10
85.76013447874335
 20
-121.3166088585599
 10
86.0226716942677
 20
-121.5753360807171
 10
86.0226716942677
 20
-121.5753360807171
 10
86.0226716942677
 20
-121.5753360807171
 10
85.76013447874335
 20
-121.8344160806525
 10
85.76013447874335
 20
-121.8344160806525
 10
85.76013447874335
 20
-121.8344160806525
 10
86.0226716942677
 20
-122.09314330281
 10
86.0226716942677
 20
-122.09314330281
 10
86.0226716942677
 20
-122.09314330281
 10
85.76013447874335
 20
-122.3515177471898
 10
85.76013447874335
 20
-122.3515177471898
 10
85.76013447874335
 20
-122.3515177471898
 10
86.0226716942677
 20
-122.6099274693475
 10
86.0226716942677
 20
-122.6099274693475
 10
86.0226716942677
 20
-122.6099274693475
 10
85.76013447874335
 20
-122.8683019137273
 10
85.76013447874335
 20
-122.8683019137273
 10
85.76013447874335
 20
-122.8683019137273
 10
86.0226716942677
 20
-123.1273819136626
 10
86.0226716942677
 20
-123.1273819136626
 10
86.0226716942677
 20
-123.1273819136626
 10
85.76013447874335
 20
-123.3861091358202
 10
85.76013447874335
 20
-123.3861091358202
 10
85.76013447874335
 20
-123.3861091358202
 10
86.0226716942677
 20
-123.6451538579777
 10
86.0226716942677
 20
-123.6451538579777
 10
86.0226716942677
 20
-123.6451538579777
 10
85.76013447874335
 20
-123.9038810801352
 10
85.76013447874335
 20
-123.9038810801352
 10
85.76013447874335
 20
-123.9038810801352
 10
86.0226716942677
 20
-124.1626083022928
 10
86.0226716942677
 20
-124.1626083022928
 10
86.0226716942677
 20
-124.1626083022928
 10
85.76013447874335
 20
-124.4213355244504
 10
85.76013447874335
 20
-124.4213355244504
 10
85.76013447874335
 20
-124.4213355244504
 10
86.0226716942677
 20
-124.6790396910525
 10
86.0226716942677
 20
-124.6790396910525
 10
86.0226716942677
 20
-124.6790396910525
 10
85.76013447874335
 20
-124.9367438576546
 10
85.76013447874335
 20
-124.9367438576546
 10
85.76013447874335
 20
-124.9367438576546
 10
86.0226716942677
 20
-125.1940952464793
 10
86.0226716942677
 20
-125.1940952464793
 10
86.0226716942677
 20
-125.1940952464793
 10
85.76013447874335
 20
-125.4524696908591
 10
85.76013447874335
 20
-125.4524696908591
 10
85.76013447874335
 20
-125.4524696908591
 10
86.0226716942677
 20
-125.7104913574612
 10
86.0226716942677
 20
-125.7104913574612
 10
86.0226716942677
 20
-125.7104913574612
 10
85.76013447874335
 20
-125.9692185796187
 10
85.76013447874335
 20
-125.9692185796187
 10
85.76013447874335
 20
-125.9692185796187
 10
86.0226716942677
 20
-126.228298579554
 10
86.0226716942677
 20
-126.228298579554
 10
86.0226716942677
 20
-126.228298579554
 10
85.76013447874335
 20
-126.4873785794894
 10
85.76013447874335
 20
-126.4873785794894
 10
85.76013447874335
 20
-126.4873785794894
 10
86.0226716942677
 20
-126.7457530238692
 10
86.0226716942677
 20
-126.7457530238692
 10
86.0226716942677
 20
-126.7457530238692
 10
85.76013447874335
 20
-127.004127468249
 10
85.76013447874335
 20
-127.004127468249
 10
85.76013447874335
 20
-127.004127468249
 10
86.0226716942677
 20
-127.2625019126288
 10
86.0226716942677
 20
-127.2625019126288
 10
86.0226716942677
 20
-127.2625019126288
 10
85.76013447874335
 20
-127.5209116347864
 10
85.76013447874335
 20
-127.5209116347864
 10
85.76013447874335
 20
-127.5209116347864
 10
86.0226716942677
 20
-127.779638856944
 10
86.0226716942677
 20
-127.779638856944
 10
86.0226716942677
 20
-127.779638856944
 10
85.76013447874335
 20
-128.0393891346567
 10
85.76013447874335
 20
-128.0393891346567
 10
85.76013447874335
 20
-128.0393891346567
 10
86.0226716942677
 20
-128.2977635790368
 10
86.0226716942677
 20
-128.2977635790368
 10
86.0226716942677
 20
-128.2977635790368
 10
85.76013447874335
 20
-128.5568435789718
 10
85.76013447874335
 20
-128.5568435789718
 10
85.76013447874335
 20
-128.5568435789718
 10
86.0226716942677
 20
-128.8152180233519
 10
86.0226716942677
 20
-128.8152180233519
 10
86.0226716942677
 20
-128.8152180233519
 10
85.76013447874335
 20
-129.0749683010643
 10
85.76013447874335
 20
-129.0749683010643
 10
85.76013447874335
 20
-129.0749683010643
 10
86.0226716942677
 20
-129.334048301
 10
86.0226716942677
 20
-129.334048301
 10
86.0226716942677
 20
-129.334048301
 10
85.76013447874335
 20
-129.5927755231572
 10
85.76013447874335
 20
-129.5927755231572
 10
85.76013447874335
 20
-129.5927755231572
 10
86.0226716942677
 20
-129.85220830087
 10
86.0226716942677
 20
-129.85220830087
 10
86.0226716942677
 20
-129.85220830087
 10
85.76013447874335
 20
-130.1116058008052
 10
85.76013447874335
 20
-130.1116058008052
 10
85.76013447874335
 20
-130.1116058008052
 10
86.0226716942677
 20
-130.3706858007409
 10
86.0226716942677
 20
-130.3706858007409
 10
86.0226716942677
 20
-130.3706858007409
 10
85.76013447874335
 20
-130.6297658006759
 10
85.76013447874335
 20
-130.6297658006759
 10
85.76013447874335
 20
-130.6297658006759
 10
86.0226716942677
 20
-130.8895160783889
 10
86.0226716942677
 20
-130.8895160783889
 10
86.0226716942677
 20
-130.8895160783889
 10
85.76013447874335
 20
-131.1492663561013
 10
85.76013447874335
 20
-131.1492663561013
 10
85.76013447874335
 20
-131.1492663561013
 10
86.0226716942677
 20
-131.4076408004814
 10
86.0226716942677
 20
-131.4076408004814
 10
86.0226716942677
 20
-131.4076408004814
 10
85.76013447874335
 20
-131.666050522639
 10
85.76013447874335
 20
-131.666050522639
 10
85.76013447874335
 20
-131.666050522639
 10
86.0226716942677
 20
-131.9258008003521
 10
86.0226716942677
 20
-131.9258008003521
 10
86.0226716942677
 20
-131.9258008003521
 10
85.76013447874335
 20
-132.1855510780644
 10
85.76013447874335
 20
-132.1855510780644
 10
85.76013447874335
 20
-132.1855510780644
 10
86.0226716942677
 20
-132.4453013557774
 10
86.0226716942677
 20
-132.4453013557774
 10
86.0226716942677
 20
-132.4453013557774
 10
85.76013447874335
 20
-132.705086911268
 10
85.76013447874335
 20
-132.705086911268
 10
85.76013447874335
 20
-132.705086911268
 10
86.0226716942677
 20
-132.9641669112036
 10
86.0226716942677
 20
-132.9641669112036
 10
86.0226716942677
 20
-132.9641669112036
 10
85.76013447874335
 20
-133.224587466694
 10
85.76013447874335
 20
-133.224587466694
 10
85.76013447874335
 20
-133.224587466694
 10
86.0226716942677
 20
-133.4850432999619
 10
86.0226716942677
 20
-133.4850432999619
 10
86.0226716942677
 20
-133.4850432999619
 10
85.76013447874335
 20
-133.7454991332304
 10
85.76013447874335
 20
-133.7454991332304
 10
85.76013447874335
 20
-133.7454991332304
 10
86.0226716942677
 20
-134.0032032998325
 10
86.0226716942677
 20
-134.0032032998325
 10
86.0226716942677
 20
-134.0032032998325
 10
85.76013447874335
 20
-134.2608721886571
 10
85.76013447874335
 20
-134.2608721886571
 10
85.76013447874335
 20
-134.2608721886571
 10
86.0226716942677
 20
-134.5185763552593
 10
86.0226716942677
 20
-134.5185763552593
 10
86.0226716942677
 20
-134.5185763552593
 10
85.76013447874335
 20
-134.7762805218614
 10
85.76013447874335
 20
-134.7762805218614
 10
85.76013447874335
 20
-134.7762805218614
 10
86.0226716942677
 20
-135.033949410686
 10
86.0226716942677
 20
-135.033949410686
 10
86.0226716942677
 20
-135.033949410686
 10
85.76013447874335
 20
-135.2916535772881
 10
85.76013447874335
 20
-135.2916535772881
 10
85.76013447874335
 20
-135.2916535772881
 10
86.0226716942677
 20
-135.5493577438902
 10
86.0226716942677
 20
-135.5493577438902
 10
86.0226716942677
 20
-135.5493577438902
 10
85.76013447874335
 20
-135.8077321882703
 10
85.76013447874335
 20
-135.8077321882703
 10
85.76013447874335
 20
-135.8077321882703
 10
86.0226716942677
 20
-136.0654363548725
 10
86.0226716942677
 20
-136.0654363548725
 10
86.0226716942677
 20
-136.0654363548725
 10
85.76013447874335
 20
-136.32448107703
 10
85.76013447874335
 20
-136.32448107703
 10
85.76013447874335
 20
-136.32448107703
 10
86.0226716942677
 20
-136.5828907991876
 10
86.0226716942677
 20
-136.5828907991876
 10
86.0226716942677
 20
-136.5828907991876
 10
85.76013447874335
 20
-136.8412652435677
 10
85.76013447874335
 20
-136.8412652435677
 10
85.76013447874335
 20
-136.8412652435677
 10
86.0226716942677
 20
-137.1003452435027
 10
86.0226716942677
 20
-137.1003452435027
 10
86.0226716942677
 20
-137.1003452435027
 10
85.76013447874335
 20
-137.3580141323273
 10
85.76013447874335
 20
-137.3580141323273
 10
85.76013447874335
 20
-137.3580141323273
 10
86.0226716942677
 20
-137.6170941322623
 10
86.0226716942677
 20
-137.6170941322623
 10
86.0226716942677
 20
-137.6170941322623
 10
85.76013447874335
 20
-137.8747982988645
 10
85.76013447874335
 20
-137.8747982988645
 10
85.76013447874335
 20
-137.8747982988645
 10
86.0226716942677
 20
-138.1324671876891
 10
86.0226716942677
 20
-138.1324671876891
 10
86.0226716942677
 20
-138.1324671876891
 10
85.76013447874335
 20
-138.3908769098467
 10
85.76013447874335
 20
-138.3908769098467
 10
85.76013447874335
 20
-138.3908769098467
 10
86.0226716942677
 20
-138.6485457986713
 10
86.0226716942677
 20
-138.6485457986713
 10
86.0226716942677
 20
-138.6485457986713
 10
85.76013447874335
 20
-138.906955520829
 10
85.76013447874335
 20
-138.906955520829
 10
85.76013447874335
 20
-138.906955520829
 10
86.0226716942677
 20
-139.1646244096536
 10
86.0226716942677
 20
-139.1646244096536
 10
86.0226716942677
 20
-139.1646244096536
 10
85.76013447874335
 20
-139.4223285762557
 10
85.76013447874335
 20
-139.4223285762557
 10
85.76013447874335
 20
-139.4223285762557
 10
86.0226716942677
 20
-139.6807030206352
 10
86.0226716942677
 20
-139.6807030206352
 10
86.0226716942677
 20
-139.6807030206352
 10
85.76013447874335
 20
-139.9384071872379
 10
85.76013447874335
 20
-139.9384071872379
 10
85.76013447874335
 20
-139.9384071872379
 10
86.0226716942677
 20
-140.1967816316174
 10
86.0226716942677
 20
-140.1967816316174
 10
86.0226716942677
 20
-140.1967816316174
 10
85.76013447874335
 20
-140.4544857982195
 10
85.76013447874335
 20
-140.4544857982195
 10
85.76013447874335
 20
-140.4544857982195
 10
86.0226716942677
 20
-140.7128602425997
 10
86.0226716942677
 20
-140.7128602425997
 10
86.0226716942677
 20
-140.7128602425997
 10
85.76013447874335
 20
-140.9712346869792
 10
85.76013447874335
 20
-140.9712346869792
 10
85.76013447874335
 20
-140.9712346869792
 10
86.0226716942677
 20
-141.2296091313593
 10
86.0226716942677
 20
-141.2296091313593
 10
86.0226716942677
 20
-141.2296091313593
 10
85.76013447874335
 20
-141.4886891312943
 10
85.76013447874335
 20
-141.4886891312943
 10
85.76013447874335
 20
-141.4886891312943
 10
86.0226716942677
 20
-141.7470635756744
 10
86.0226716942677
 20
-141.7470635756744
 10
86.0226716942677
 20
-141.7470635756744
 10
85.76013447874335
 20
-142.0054732978321
 10
85.76013447874335
 20
-142.0054732978321
 10
85.76013447874335
 20
-142.0054732978321
 10
86.0226716942677
 20
-142.2638477422115
 10
86.0226716942677
 20
-142.2638477422115
 10
86.0226716942677
 20
-142.2638477422115
 10
85.76013447874335
 20
-142.5222221865917
 10
85.76013447874335
 20
-142.5222221865917
 10
85.76013447874335
 20
-142.5222221865917
 10
86.0226716942677
 20
-142.7805966309718
 10
86.0226716942677
 20
-142.7805966309718
 10
86.0226716942677
 20
-142.7805966309718
 10
85.76013447874335
 20
-143.0389710753513
 10
85.76013447874335
 20
-143.0389710753513
 10
85.76013447874335
 20
-143.0389710753513
 10
86.0226716942677
 20
-143.2966752419534
 10
86.0226716942677
 20
-143.2966752419534
 10
86.0226716942677
 20
-143.2966752419534
 10
85.76013447874335
 20
-143.5550496863335
 10
85.76013447874335
 20
-143.5550496863335
 10
85.76013447874335
 20
-143.5550496863335
 10
86.0226716942677
 20
-143.8134594084912
 10
86.0226716942677
 20
-143.8134594084912
 10
86.0226716942677
 20
-143.8134594084912
 10
85.76013447874335
 20
-144.0718338528707
 10
85.76013447874335
 20
-144.0718338528707
 10
85.76013447874335
 20
-144.0718338528707
 10
86.0226716942677
 20
-144.3302082972508
 10
86.0226716942677
 20
-144.3302082972508
 10
86.0226716942677
 20
-144.3302082972508
 10
85.76013447874335
 20
-144.5892882971858
 10
85.76013447874335
 20
-144.5892882971858
 10
85.76013447874335
 20
-144.5892882971858
 10
86.0226716942677
 20
-144.8476627415659
 10
86.0226716942677
 20
-144.8476627415659
 10
86.0226716942677
 20
-144.8476627415659
 10
85.76013447874335
 20
-145.1067427415009
 10
85.76013447874335
 20
-145.1067427415009
 10
85.76013447874335
 20
-145.1067427415009
 10
86.0226716942677
 20
-145.365117185881
 10
86.0226716942677
 20
-145.365117185881
 10
86.0226716942677
 20
-145.365117185881
 10
85.76013447874335
 20
-145.6228213524832
 10
85.76013447874335
 20
-145.6228213524832
 10
85.76013447874335
 20
-145.6228213524832
 10
86.0226716942677
 20
-145.8818660746407
 10
86.0226716942677
 20
-145.8818660746407
 10
86.0226716942677
 20
-145.8818660746407
 10
85.76013447874335
 20
-146.1402757967983
 10
85.76013447874335
 20
-146.1402757967983
 10
85.76013447874335
 20
-146.1402757967983
 10
86.0226716942677
 20
-146.3986502411784
 10
86.0226716942677
 20
-146.3986502411784
 10
86.0226716942677
 20
-146.3986502411784
 10
85.76013447874335
 20
-146.6570246855579
 10
85.76013447874335
 20
-146.6570246855579
 10
85.76013447874335
 20
-146.6570246855579
 10
86.0226716942677
 20
-146.915399129938
 10
86.0226716942677
 20
-146.915399129938
 10
86.0226716942677
 20
-146.915399129938
 10
85.76013447874335
 20
-147.174479129873
 10
85.76013447874335
 20
-147.174479129873
 10
85.76013447874335
 20
-147.174479129873
 10
86.0226716942677
 20
-147.4335591298081
 10
86.0226716942677
 20
-147.4335591298081
 10
86.0226716942677
 20
-147.4335591298081
 10
85.76013447874335
 20
-147.6919335741882
 10
85.76013447874335
 20
-147.6919335741882
 10
85.76013447874335
 20
-147.6919335741882
 10
86.0226716942677
 20
-147.9510135741232
 10
86.0226716942677
 20
-147.9510135741232
 10
86.0226716942677
 20
-147.9510135741232
 10
85.76013447874335
 20
-148.2093880185033
 10
85.76013447874335
 20
-148.2093880185033
 10
85.76013447874335
 20
-148.2093880185033
 10
86.0226716942677
 20
-148.4677624628828
 10
86.0226716942677
 20
-148.4677624628828
 10
86.0226716942677
 20
-148.4677624628828
 10
85.76013447874335
 20
-148.7261369072629
 10
85.76013447874335
 20
-148.7261369072629
 10
85.76013447874335
 20
-148.7261369072629
 10
86.0226716942677
 20
-148.9845466294206
 10
86.0226716942677
 20
-148.9845466294206
 10
86.0226716942677
 20
-148.9845466294206
 10
85.76013447874335
 20
-149.2435913515781
 10
85.76013447874335
 20
-149.2435913515781
 10
85.76013447874335
 20
-149.2435913515781
 10
86.0226716942677
 20
-149.5026713515131
 10
86.0226716942677
 20
-149.5026713515131
 10
86.0226716942677
 20
-149.5026713515131
 10
85.76013447874335
 20
-149.7617513514487
 10
85.76013447874335
 20
-149.7617513514487
 10
85.76013447874335
 20
-149.7617513514487
 10
86.0226716942677
 20
-150.0201257958282
 10
86.0226716942677
 20
-150.0201257958282
 10
86.0226716942677
 20
-150.0201257958282
 10
85.76013447874335
 20
-150.2792057957639
 10
85.76013447874335
 20
-150.2792057957639
 10
85.76013447874335
 20
-150.2792057957639
 10
86.0226716942677
 20
-150.536909962366
 10
86.0226716942677
 20
-150.536909962366
 10
86.0226716942677
 20
-150.536909962366
 10
85.76013447874335
 20
-150.7939085734126
 10
85.76013447874335
 20
-150.7939085734126
 10
85.76013447874335
 20
-150.7939085734126
 10
86.0226716942677
 20
-151.0515774622372
 10
86.0226716942677
 20
-151.0515774622372
 10
86.0226716942677
 20
-151.0515774622372
 10
85.76013447874335
 20
-151.3099871843948
 10
85.76013447874335
 20
-151.3099871843948
 10
85.76013447874335
 20
-151.3099871843948
 10
86.0226716942677
 20
-151.5683616287743
 10
86.0226716942677
 20
-151.5683616287743
 10
86.0226716942677
 20
-151.5683616287743
 10
85.76013447874335
 20
-151.8274416287099
 10
85.76013447874335
 20
-151.8274416287099
 10
85.76013447874335
 20
-151.8274416287099
 10
86.0226716942677
 20
-152.0864863508674
 10
86.0226716942677
 20
-152.0864863508674
 10
86.0226716942677
 20
-152.0864863508674
 10
85.76013447874335
 20
-152.3455663508024
 10
85.76013447874335
 20
-152.3455663508024
 10
85.76013447874335
 20
-152.3455663508024
 10
86.0226716942677
 20
-152.6032705174046
 10
86.0226716942677
 20
-152.6032705174046
 10
86.0226716942677
 20
-152.6032705174046
 10
85.76013447874335
 20
-152.8616449617847
 10
85.76013447874335
 20
-152.8616449617847
 10
85.76013447874335
 20
-152.8616449617847
 10
86.0226716942677
 20
-153.1207249617197
 10
86.0226716942677
 20
-153.1207249617197
 10
86.0226716942677
 20
-153.1207249617197
 10
85.76013447874335
 20
-153.3783938505443
 10
85.76013447874335
 20
-153.3783938505443
 10
85.76013447874335
 20
-153.3783938505443
 10
86.0226716942677
 20
-153.6374738504793
 10
86.0226716942677
 20
-153.6374738504793
 10
86.0226716942677
 20
-153.6374738504793
 10
85.76013447874335
 20
-153.8972241281923
 10
85.76013447874335
 20
-153.8972241281923
 10
85.76013447874335
 20
-153.8972241281923
 10
86.0226716942677
 20
-154.15563385035
 10
86.0226716942677
 20
-154.15563385035
 10
86.0226716942677
 20
-154.15563385035
 10
85.76013447874335
 20
-154.4146785725075
 10
85.76013447874335
 20
-154.4146785725075
 10
85.76013447874335
 20
-154.4146785725075
 10
86.0226716942677
 20
-154.6737585724425
 10
86.0226716942677
 20
-154.6737585724425
 10
86.0226716942677
 20
-154.6737585724425
 10
85.76013447874335
 20
-154.9328385723781
 10
85.76013447874335
 20
-154.9328385723781
 10
85.76013447874335
 20
-154.9328385723781
 10
86.0226716942677
 20
-155.1919185723131
 10
86.0226716942677
 20
-155.1919185723131
 10
86.0226716942677
 20
-155.1919185723131
 10
85.76013447874335
 20
-155.4509632944706
 10
85.76013447874335
 20
-155.4509632944706
 10
85.76013447874335
 20
-155.4509632944706
 10
86.0226716942677
 20
-155.7100432944056
 10
86.0226716942677
 20
-155.7100432944056
 10
86.0226716942677
 20
-155.7100432944056
 10
85.76013447874335
 20
-155.9691232943413
 10
85.76013447874335
 20
-155.9691232943413
 10
85.76013447874335
 20
-155.9691232943413
 10
86.0226716942677
 20
-156.2282032942763
 10
86.0226716942677
 20
-156.2282032942763
 10
86.0226716942677
 20
-156.2282032942763
 10
85.76013447874335
 20
-156.4879535719893
 10
85.76013447874335
 20
-156.4879535719893
 10
85.76013447874335
 20
-156.4879535719893
 10
86.0226716942677
 20
-156.7470335719243
 10
86.0226716942677
 20
-156.7470335719243
 10
86.0226716942677
 20
-156.7470335719243
 10
85.76013447874335
 20
-157.0067838496373
 10
85.76013447874335
 20
-157.0067838496373
 10
85.76013447874335
 20
-157.0067838496373
 10
86.0226716942677
 20
-157.2658638495723
 10
86.0226716942677
 20
-157.2658638495723
 10
86.0226716942677
 20
-157.2658638495723
 10
85.76013447874335
 20
-157.5242382939524
 10
85.76013447874335
 20
-157.5242382939524
 10
85.76013447874335
 20
-157.5242382939524
 10
86.0226716942677
 20
-157.7846941272203
 10
86.0226716942677
 20
-157.7846941272203
 10
86.0226716942677
 20
-157.7846941272203
 10
85.76013447874335
 20
-158.0430685716005
 10
85.76013447874335
 20
-158.0430685716005
 10
85.76013447874335
 20
-158.0430685716005
 10
86.0226716942677
 20
-158.3028188493135
 10
86.0226716942677
 20
-158.3028188493135
 10
86.0226716942677
 20
-158.3028188493135
 10
85.76013447874335
 20
-158.562604404804
 10
85.76013447874335
 20
-158.562604404804
 10
85.76013447874335
 20
-158.562604404804
 10
86.0226716942677
 20
-158.8223546825164
 10
86.0226716942677
 20
-158.8223546825164
 10
86.0226716942677
 20
-158.8223546825164
 10
85.76013447874335
 20
-159.0828105157849
 10
85.76013447874335
 20
-159.0828105157849
 10
85.76013447874335
 20
-159.0828105157849
 10
86.0226716942677
 20
-159.3432310712753
 10
86.0226716942677
 20
-159.3432310712753
 10
86.0226716942677
 20
-159.3432310712753
 10
85.76013447874335
 20
-159.6036869045438
 10
85.76013447874335
 20
-159.6036869045438
 10
85.76013447874335
 20
-159.6036869045438
 10
86.0226716942677
 20
-159.8613910711459
 10
86.0226716942677
 20
-159.8613910711459
 10
86.0226716942677
 20
-159.8613910711459
 10
85.76013447874335
 20
-160.119095237748
 10
85.76013447874335
 20
-160.119095237748
 10
85.76013447874335
 20
-160.119095237748
 10
86.0226716942677
 20
-160.3760938487947
 10
86.0226716942677
 20
-160.3760938487947
 10
86.0226716942677
 20
-160.3760938487947
 10
85.76013447874335
 20
-160.6344682931748
 10
85.76013447874335
 20
-160.6344682931748
 10
85.76013447874335
 20
-160.6344682931748
 10
86.0226716942677
 20
-160.8914669042214
 10
86.0226716942677
 20
-160.8914669042214
 10
86.0226716942677
 20
-160.8914669042214
 10
85.76013447874335
 20
-161.1491710708241
 10
85.76013447874335
 20
-161.1491710708241
 10
85.76013447874335
 20
-161.1491710708241
 10
86.0226716942677
 20
-161.4075455152036
 10
86.0226716942677
 20
-161.4075455152036
 10
86.0226716942677
 20
-161.4075455152036
 10
85.76013447874335
 20
-161.6659199595838
 10
85.76013447874335
 20
-161.6659199595838
 10
85.76013447874335
 20
-161.6659199595838
 10
86.0226716942677
 20
-161.9236241261859
 10
86.0226716942677
 20
-161.9236241261859
 10
86.0226716942677
 20
-161.9236241261859
 10
85.76013447874335
 20
-162.1819985705654
 10
85.76013447874335
 20
-162.1819985705654
 10
85.76013447874335
 20
-162.1819985705654
 10
86.0226716942677
 20
-162.4403730149455
 10
86.0226716942677
 20
-162.4403730149455
 10
86.0226716942677
 20
-162.4403730149455
 10
85.76013447874335
 20
-162.6994530148805
 10
85.76013447874335
 20
-162.6994530148805
 10
85.76013447874335
 20
-162.6994530148805
 10
86.0226716942677
 20
-162.9578274592606
 10
86.0226716942677
 20
-162.9578274592606
 10
86.0226716942677
 20
-162.9578274592606
 10
85.76013447874335
 20
-163.2162371814183
 10
85.76013447874335
 20
-163.2162371814183
 10
85.76013447874335
 20
-163.2162371814183
 10
86.0226716942677
 20
-163.4739060702429
 10
86.0226716942677
 20
-163.4739060702429
 10
86.0226716942677
 20
-163.4739060702429
 10
85.76013447874335
 20
-163.7322805146223
 10
85.76013447874335
 20
-163.7322805146223
 10
85.76013447874335
 20
-163.7322805146223
 10
86.0226716942677
 20
-163.99069023678
 10
86.0226716942677
 20
-163.99069023678
 10
86.0226716942677
 20
-163.99069023678
 10
85.76013447874335
 20
-164.2483591256046
 10
85.76013447874335
 20
-164.2483591256046
 10
85.76013447874335
 20
-164.2483591256046
 10
86.0226716942677
 20
-164.5067688477622
 10
86.0226716942677
 20
-164.5067688477622
 10
86.0226716942677
 20
-164.5067688477622
 10
85.76013447874335
 20
-164.7644377365868
 10
85.76013447874335
 20
-164.7644377365868
 10
85.76013447874335
 20
-164.7644377365868
 10
86.0226716942677
 20
-165.022141903189
 10
86.0226716942677
 20
-165.022141903189
 10
86.0226716942677
 20
-165.022141903189
 10
85.76013447874335
 20
-165.2805163475685
 10
85.76013447874335
 20
-165.2805163475685
 10
85.76013447874335
 20
-165.2805163475685
 10
86.0226716942677
 20
-165.5382205141712
 10
86.0226716942677
 20
-165.5382205141712
 10
86.0226716942677
 20
-165.5382205141712
 10
85.76013447874335
 20
-165.7965949585507
 10
85.76013447874335
 20
-165.7965949585507
 10
85.76013447874335
 20
-165.7965949585507
 10
86.0226716942677
 20
-166.0542991251528
 10
86.0226716942677
 20
-166.0542991251528
 10
86.0226716942677
 20
-166.0542991251528
 10
85.76013447874335
 20
-166.3119680139774
 10
85.76013447874335
 20
-166.3119680139774
 10
85.76013447874335
 20
-166.3119680139774
 10
86.0226716942677
 20
-166.5703777361351
 10
86.0226716942677
 20
-166.5703777361351
 10
86.0226716942677
 20
-166.5703777361351
 10
85.76013447874335
 20
-166.8287521805152
 10
85.76013447874335
 20
-166.8287521805152
 10
85.76013447874335
 20
-166.8287521805152
 10
86.0226716942677
 20
-167.0871266248947
 10
86.0226716942677
 20
-167.0871266248947
 10
86.0226716942677
 20
-167.0871266248947
 10
85.76013447874335
 20
-167.3462066248303
 10
85.76013447874335
 20
-167.3462066248303
 10
85.76013447874335
 20
-167.3462066248303
 10
86.0226716942677
 20
-167.6052866247653
 10
86.0226716942677
 20
-167.6052866247653
 10
86.0226716942677
 20
-167.6052866247653
 10
85.76013447874335
 20
-167.8636610691455
 10
85.76013447874335
 20
-167.8636610691455
 10
85.76013447874335
 20
-167.8636610691455
 10
86.0226716942677
 20
-168.122035513525
 10
86.0226716942677
 20
-168.122035513525
 10
86.0226716942677
 20
-168.122035513525
 10
85.76013447874335
 20
-168.3804099579051
 10
85.76013447874335
 20
-168.3804099579051
 10
85.76013447874335
 20
-168.3804099579051
 10
86.0226716942677
 20
-168.6388196800627
 10
86.0226716942677
 20
-168.6388196800627
 10
86.0226716942677
 20
-168.6388196800627
 10
85.76013447874335
 20
-168.8964885688867
 10
85.76013447874335
 20
-168.8964885688867
 10
85.76013447874335
 20
-168.8964885688867
 10
86.0226716942677
 20
-169.1548630132668
 10
86.0226716942677
 20
-169.1548630132668
 10
86.0226716942677
 20
-169.1548630132668
 10
85.76013447874335
 20
-169.4125671798689
 10
85.76013447874335
 20
-169.4125671798689
 10
85.76013447874335
 20
-169.4125671798689
 10
86.0226716942677
 20
-169.6709416242491
 10
86.0226716942677
 20
-169.6709416242491
 10
86.0226716942677
 20
-169.6709416242491
 10
85.76013447874335
 20
-169.9293513464067
 10
85.76013447874335
 20
-169.9293513464067
 10
85.76013447874335
 20
-169.9293513464067
 10
86.0226716942677
 20
-170.1877257907862
 10
86.0226716942677
 20
-170.1877257907862
 10
86.0226716942677
 20
-170.1877257907862
 10
85.76013447874335
 20
-170.4468057907218
 10
85.76013447874335
 20
-170.4468057907218
 10
85.76013447874335
 20
-170.4468057907218
 10
86.0226716942677
 20
-170.7051802351013
 10
86.0226716942677
 20
-170.7051802351013
 10
86.0226716942677
 20
-170.7051802351013
 10
85.76013447874335
 20
-170.9642249572588
 10
85.76013447874335
 20
-170.9642249572588
 10
85.76013447874335
 20
-170.9642249572588
 10
86.0226716942677
 20
-171.2226346794164
 10
86.0226716942677
 20
-171.2226346794164
 10
86.0226716942677
 20
-171.2226346794164
 10
85.76013447874335
 20
-171.4810091237966
 10
85.76013447874335
 20
-171.4810091237966
 10
85.76013447874335
 20
-171.4810091237966
 10
86.0226716942677
 20
-171.7393835681761
 10
86.0226716942677
 20
-171.7393835681761
 10
86.0226716942677
 20
-171.7393835681761
 10
85.76013447874335
 20
-171.9977580125562
 10
85.76013447874335
 20
-171.9977580125562
 10
85.76013447874335
 20
-171.9977580125562
 10
86.0226716942677
 20
-172.2561677347138
 10
86.0226716942677
 20
-172.2561677347138
 10
86.0226716942677
 20
-172.2561677347138
 10
85.76013447874335
 20
-172.5145421790933
 10
85.76013447874335
 20
-172.5145421790933
 10
85.76013447874335
 20
-172.5145421790933
 10
86.0226716942677
 20
-172.773622179029
 10
86.0226716942677
 20
-172.773622179029
 10
86.0226716942677
 20
-172.773622179029
 10
85.76013447874335
 20
-173.0319966234084
 10
85.76013447874335
 20
-173.0319966234084
 10
85.76013447874335
 20
-173.0319966234084
 10
86.0226716942677
 20
-173.2910766233441
 10
86.0226716942677
 20
-173.2910766233441
 10
86.0226716942677
 20
-173.2910766233441
 10
85.76013447874335
 20
-173.5501213455016
 10
85.76013447874335
 20
-173.5501213455016
 10
85.76013447874335
 20
-173.5501213455016
 10
86.0226716942677
 20
-173.8084957898811
 10
86.0226716942677
 20
-173.8084957898811
 10
86.0226716942677
 20
-173.8084957898811
 10
85.76013447874335
 20
-174.0669055120387
 10
85.76013447874335
 20
-174.0669055120387
 10
85.76013447874335
 20
-174.0669055120387
 10
86.0226716942677
 20
-174.3252799564189
 10
86.0226716942677
 20
-174.3252799564189
 10
86.0226716942677
 20
-174.3252799564189
 10
85.76013447874335
 20
-174.5843599563539
 10
85.76013447874335
 20
-174.5843599563539
 10
85.76013447874335
 20
-174.5843599563539
 10
86.0226716942677
 20
-174.842734400734
 10
86.0226716942677
 20
-174.842734400734
 10
86.0226716942677
 20
-174.842734400734
 10
85.76013447874335
 20
-175.101814400669
 10
85.76013447874335
 20
-175.101814400669
 10
85.76013447874335
 20
-175.101814400669
 10
86.0226716942677
 20
-175.3608591228265
 10
86.0226716942677
 20
-175.3608591228265
 10
86.0226716942677
 20
-175.3608591228265
 10
85.76013447874335
 20
-175.6199391227615
 10
85.76013447874335
 20
-175.6199391227615
 10
85.76013447874335
 20
-175.6199391227615
 10
86.0226716942677
 20
-175.8783135671416
 10
86.0226716942677
 20
-175.8783135671416
 10
86.0226716942677
 20
-175.8783135671416
 10
85.56240253934348
 20
-175.8783135671416
 10
85.56240253934348
 20
-175.8783135671416
 10
85.56240253934348
 20
-175.8783135671416
 10
85.56240253934348
 20
-177.886113011084
 10
85.56240253934348
 20
-177.886113011084
 10
85.56240253934348
 20
-177.886113011084
 10
86.98589611413824
 20
-179.6982618995199
 10
86.98589611413824
 20
-179.6982618995199
 10
86.98589611413824
 20
-179.6982618995199
 10
87.43480582490783
 20
-179.6982618995199
 10
87.43480582490783
 20
-179.6982618995199
 10
87.65218748602862
 20
-179.6982618995199
 10
87.82857637041745
 20
-179.5225432884525
 10
87.82857637041745
 20
-179.3055143996178
 97
        0
 97
        0
 75
     2
 76
     1
 98
        0
  0
POLYLINE
  5
43
330
1F
100
AcDbEntity
  8
_U+30EC_U+30A4_U+30E4_U+30FC 1
 62
   179
420
  2234388
370
     9
100
AcDb2dPolyline
 66
     1
 10
0.0
 20
0.0
 30
0.0
  0
VERTEX
  5
44
330
43
100
AcDbEntity
  8
_U+30EC_U+30A4_U+30E4_U+30FC 1
 62
   179
420
  2234388
370
     9
100
AcDbVertex
100
AcDb2dVertex
 10
91.1034829535343
 20
-76.51506581420465
 30
0.0
  0
VERTEX
  5
45
330
43
100
AcDbEntity
  8
_U+30EC_U+30A4_U+30E4_U+30FC 1
 62
   179
420
  2234388
370
     9
100
AcDbVertex
100
AcDb2dVertex
 10
88.06454941995284
 20
-79.54948386900152
 30
0.0
  0
SEQEND
  5
46
330
43
100
AcDbEntity
  8
_U+30EC_U+30A4_U+30E4_U+30FC 1
 62
   179
420
  2234388
370
     9
  0
POLYLINE
  5
47
330
1F
100
AcDbEntity
  8
_U+30EC_U+30A4_U+30E4_U+30FC 1
 62
   179
420
  2234388
370
     9
100
AcDb2dPolyline
 66
     1
 10
0.0
 20
0.0
 30
0.0
  0
VERTEX
  5
48
330
47
100
AcDbEntity
  8
_U+30EC_U+30A4_U+30E4_U+30FC 1
 62
   179
420
  2234388
370
     9
100
AcDbVertex
100
AcDb2dVertex
 10
89.10393856010248
 20
-78.94937359137369
 30
0.0
  0
VERTEX
  5
49
330
47
100
AcDbEntity
  8
_U+30EC_U+30A4_U+30E4_U+30FC 1
 62
   179
420
  2234388
370
     9
100
AcDbVertex
100
AcDb2dVertex
 10
88.06454941995284
 20
-79.54948386900152
 30
0.0
  0
SEQEND
  5
4A
330
47
100
AcDbEntity
  8
_U+30EC_U+30A4_U+30E4_U+30FC 1
 62
   179
420
  2234388
370
     9
  0
POLYLINE
  5
4B
330
1F
100
AcDbEntity
  8
_U+30EC_U+30A4_U+30E4_U+30FC 1
 62
   179
420
  2234388
370
     9
100
AcDb2dPolyline
 66
     1
 10
0.0
 20
0.0
 30
0.0
  0
VERTEX
  5
4C
330
4B
100
AcDbEntity
  8
_U+30EC_U+30A4_U+30E4_U+30FC 1
 62
   179
420
  2234388
370
     9
100
AcDbVertex
100
AcDb2dVertex
 10
88.66434442227848
 20
-78.51044748037228
 30
0.0
  0
VERTEX
  5
4D
330
4B
100
AcDbEntity
  8
_U+30EC_U+30A4_U+30E4_U+30FC 1
 62
   179
420
  2234388
370
     9
100
AcDbVertex
100
AcDb2dVertex
 10
88.06454941995284
 20
-79.54948386900152
 30
0.0
  0
SEQEND
  5
4E
330
4B
100
AcDbEntity
  8
_U+30EC_U+30A4_U+30E4_U+30FC 1
 62
   179
420
  2234388
370
     9
  0
POLYLINE
  5
4F
330
1F
100
AcDbEntity
  8
_U+30EC_U+30A4_U+30E4_U+30FC 1
 62
   179
420
  2234388
370
     9
100
AcDb2dPolyline
 66
     1
 10
0.0
 20
0.0
 30
0.0
  0
VERTEX
  5
50
330
4F
100
AcDbEntity
  8
_U+30EC_U+30A4_U+30E4_U+30FC 1
 62
   179
420
  2234388
370
     9
100
AcDbVertex
100
AcDb2dVertex
 10
88.9723524523484
 20
-179.6982618995199
 30
0.0
  0
VERTEX
  5
51
330
4F
100
AcDbEntity
  8
_U+30EC_U+30A4_U+30E4_U+30FC 1
 62
   179
420
  2234388
370
     9
100
AcDbVertex
100
AcDb2dVertex
 10
93.6004792787195
 20
-179.6982618995199
 30
0.0
  0
SEQEND
  5
52
330
4F
100
AcDbEntity
  8
_U+30EC_U+30A4_U+30E4_U+30FC 1
 62
   179
420
  2234388
370
     9
  0
POLYLINE
  5
53
330
1F
100
AcDbEntity
  8
_U+30EC_U+30A4_U+30E4_U+30FC 1
 62
   179
420
  2234388
370
     9
100
AcDb2dPolyline
 66
     1
 10
0.0
 20
0.0
 30
0.0
  0
VERTEX
  5
54
330
53
100
AcDbEntity
  8
_U+30EC_U+30A4_U+30E4_U+30FC 1
 62
   179
420
  2234388
370
     9
100
AcDbVertex
100
AcDb2dVertex
 10
88.9723524523484
 20
-79.69796803563109
 30
0.0
  0
VERTEX
  5
55
330
53
100
AcDbEntity
  8
_U+30EC_U+30A4_U+30E4_U+30FC 1
 62
   179
420
  2234388
370
     9
100
AcDbVertex
100
AcDb2dVertex
 10
93.6004792787195
 20
-79.69796803563109
 30
0.0
  0
SEQEND
  5
56
330
53
100
AcDbEntity
  8
_U+30EC_U+30A4_U+30E4_U+30FC 1
 62
   179
420
  2234388
370
     9
  0
POLYLINE
  5
57
330
1F
100
AcDbEntity
  8
_U+30EC_U+30A4_U+30E4_U+30FC 1
 62
   179
420
  2234388
370
     9
100
AcDb2dPolyline
 66
     1
 10
0.0
 20
0.0
 30
0.0
  0
VERTEX
  5
58
330
57
100
AcDbEntity
  8
_U+30EC_U+30A4_U+30E4_U+30FC 1
 62
   179
420
  2234388
370
     9
100
AcDbVertex
100
AcDb2dVertex
 10
85.56240253934348
 20
-75.5821097033266
 30
0.0
  0
VERTEX
  5
59
330
57
100
AcDbEntity
  8
_U+30EC_U+30A4_U+30E4_U+30FC 1
 62
   179
420
  2234388
370
     9
100
AcDbVertex
100
AcDb2dVertex
 10
87.82857637041745
 20
-75.5821097033266
 30
0.0
  0
SEQEND
  5
5A
330
57
100
AcDbEntity
  8
_U+30EC_U+30A4_U+30E4_U+30FC 1
 62
   179
420
  2234388
370
     9
  0
INSERT
  5
5C
330
1F
100
AcDbEntity
  8
_U+30EC_U+30A4_U+30E4_U+30FC 1
100
AcDbBlockReference
  2
block 2
 10
0.0
 20
0.0
 30
0.0
  0
POLYLINE
  5
6E
330
1F
100
AcDbEntity
  8
_U+30EC_U+30A4_U+30E4_U+30FC 1
 62
   179
420
  2234388
370
     9
100
AcDb2dPolyline
 66
     1
 10
0.0
 20
0.0
 30
0.0
  0
VERTEX
  5
6F
330
6E
100
AcDbEntity
  8
_U+30EC_U+30A4_U+30E4_U+30FC 1
 62
   179
420
  2234388
370
     9
100
AcDbVertex
100
AcDb2dVertex
 10
91.32396905902033
 20
-182.9435352320416
 30
0.0
  0
VERTEX
  5
70
330
6E
100
AcDbEntity
  8
_U+30EC_U+30A4_U+30E4_U+30FC 1
 62
   179
420
  2234388
370
     9
100
AcDbVertex
100
AcDb2dVertex
 10
88.28503552543887
 20
-179.9090818994669
 30
0.0
  0
SEQEND
  5
71
330
6E
100
AcDbEntity
  8
_U+30EC_U+30A4_U+30E4_U+30FC 1
 62
   179
420
  2234388
370
     9
  0
POLYLINE
  5
72
330
1F
100
AcDbEntity
  8
_U+30EC_U+30A4_U+30E4_U+30FC 1
 62
   179
420
  2234388
370
     9
100
AcDb2dPolyline
 66
     1
 10
0.0
 20
0.0
 30
0.0
  0
VERTEX
  5
73
330
72
100
AcDbEntity
  8
_U+30EC_U+30A4_U+30E4_U+30FC 1
 62
   179
420
  2234388
370
     9
100
AcDbVertex
100
AcDb2dVertex
 10
89.32442466558852
 20
-180.5092274548729
 30
0.0
  0
VERTEX
  5
74
330
72
100
AcDbEntity
  8
_U+30EC_U+30A4_U+30E4_U+30FC 1
 62
   179
420
  2234388
370
     9
100
AcDbVertex
100
AcDb2dVertex
 10
88.28503552543887
 20
-179.9090818994669
 30
0.0
  0
SEQEND
  5
75
330
72
100
AcDbEntity
  8
_U+30EC_U+30A4_U+30E4_U+30FC 1
 62
   179
420
  2234388
370
     9
  0
POLYLINE
  5
76
330
1F
100
AcDbEntity
  8
_U+30EC_U+30A4_U+30E4_U+30FC 1
 62
   179
420
  2234388
370
     9
100
AcDb2dPolyline
 66
     1
 10
0.0
 20
0.0
 30
0.0
  0
VERTEX
  5
77
330
76
100
AcDbEntity
  8
_U+30EC_U+30A4_U+30E4_U+30FC 1
 62
   179
420
  2234388
370
     9
100
AcDbVertex
100
AcDb2dVertex
 10
88.88483053333447
 20
-180.9481182880965
 30
0.0
  0
VERTEX
  5
78
330
76
100
AcDbEntity
  8
_U+30EC_U+30A4_U+30E4_U+30FC 1
 62
   179
420
  2234388
370
     9
100
AcDbVertex
100
AcDb2dVertex
 10
88.28503552543887
 20
-179.9090818994669
 30
0.0
  0
SEQEND
  5
79
330
76
100
AcDbEntity
  8
_U+30EC_U+30A4_U+30E4_U+30FC 1
 62
   179
420
  2234388
370
     9
  0
INSERT
  5
7B
330
1F
100
AcDbEntity
  8
_U+30EC_U+30A4_U+30E4_U+30FC 1
100
AcDbBlockReference
  2
block 3
 10
0.0
 20
0.0
 30
0.0
  0
INSERT
  5
8F
330
1F
100
AcDbEntity
  8
_U+30EC_U+30A4_U+30E4_U+30FC 1
100
AcDbBlockReference
  2
block 4
 10
0.0
 20
0.0
 30
0.0
  0
POLYLINE
  5
9E
330
1F
100
AcDbEntity
  8
_U+30EC_U+30A4_U+30E4_U+30FC 1
 62
   179
420
  2234388
370
     9
100
AcDb2dPolyline
 66
     1
 10
0.0
 20
0.0
 30
0.0
  0
VERTEX
  5
9F
330
9E
100
AcDbEntity
  8
_U+30EC_U+30A4_U+30E4_U+30FC 1
 62
   179
420
  2234388
370
     9
100
AcDbVertex
100
AcDb2dVertex
 10
85.56240253934348
 20
-74.34396553696959
 30
0.0
  0
VERTEX
  5
A0
330
9E
100
AcDbEntity
  8
_U+30EC_U+30A4_U+30E4_U+30FC 1
 62
   179
420
  2234388
370
     9
100
AcDbVertex
100
AcDb2dVertex
 10
85.56240253934348
 20
-78.7695274803076
 30
0.0
  0
SEQEND
  5
A1
330
9E
100
AcDbEntity
  8
_U+30EC_U+30A4_U+30E4_U+30FC 1
 62
   179
420
  2234388
370
     9
  0
POLYLINE
  5
A2
330
1F
100
AcDbEntity
  8
_U+30EC_U+30A4_U+30E4_U+30FC 1
 62
   179
420
  2234388
370
     9
100
AcDb2dPolyline
 66
     1
 10
0.0
 20
0.0
 30
0.0
  0
VERTEX
  5
A3
330
A2
100
AcDbEntity
  8
_U+30EC_U+30A4_U+30E4_U+30FC 1
 62
   179
420
  2234388
370
     9
100
AcDbVertex
100
AcDb2dVertex
 10
87.82857637041745
 20
-74.34396553696959
 30
0.0
  0
VERTEX
  5
A4
330
A2
100
AcDbEntity
  8
_U+30EC_U+30A4_U+30E4_U+30FC 1
 62
   179
420
  2234388
370
     9
100
AcDbVertex
100
AcDb2dVertex
 10
87.82857637041745
 20
-78.7695274803076
 30
0.0
  0
SEQEND
  5
A5
330
A2
100
AcDbEntity
  8
_U+30EC_U+30A4_U+30E4_U+30FC 1
 62
   179
420
  2234388
370
     9
  0
POLYLINE
  5
A6
330
1F
100
AcDbEntity
  8
_U+30EC_U+30A4_U+30E4_U+30FC 1
 62
   179
420
  2234388
370
     9
100
AcDb2dPolyline
 66
     1
 10
0.0
 20
0.0
 30
0.0
  0
VERTEX
  5
A7
330
A6
100
AcDbEntity
  8
_U+30EC_U+30A4_U+30E4_U+30FC 1
 62
   179
420
  2234388
370
     9
100
AcDbVertex
100
AcDb2dVertex
 10
92.00987487485476
 20
-79.69796803563109
 30
0.0
  0
VERTEX
  5
A8
330
A6
100
AcDbEntity
  8
_U+30EC_U+30A4_U+30E4_U+30FC 1
 62
   179
420
  2234388
370
     9
100
AcDbVertex
100
AcDb2dVertex
 10
92.00987487485476
 20
-179.6982618995199
 30
0.0
  0
SEQEND
  5
A9
330
A6
100
AcDbEntity
  8
_U+30EC_U+30A4_U+30E4_U+30FC 1
 62
   179
420
  2234388
370
     9
  0
INSERT
  5
AB
330
1F
100
AcDbEntity
  8
_U+30EC_U+30A4_U+30E4_U+30FC 1
100
AcDbBlockReference
  2
block 5
 10
0.0
 20
0.0
 30
0.0
  0
SPLINE
  5
B6
330
1F
100
AcDbEntity
  8
_U+30EC_U+30A4_U+30E4_U+30FC 1
370
     0
100
AcDbSpline
210
0.0
220
0.0
230
1.0
 70
    11
 71
     3
 72
    17
 73
    13
 74
     0
 42
0.0000000001
 43
0.0000000001
 12
1.0
 22
0.0
 32
0.0
 13
1.0
 23
0.0
 33
0.0
 40
0.0
 40
0.0
 40
0.0
 40
0.0
 40
1.0
 40
1.0
 40
1.0
 40
2.0
 40
2.0
 40
2.0
 40
3.0
 40
3.0
 40
3.0
 40
4.0
 40
4.0
 40
4.0
 40
4.0
 10
85.71258003551213
 20
-75.5821097033266
 30
0.0
 10
85.71258003551213
 20
-75.66515359219488
 30
0.0
 10
85.64505837056808
 20
-75.7323224810668
 30
0.0
 10
85.56240253934348
 20
-75.7323224810668
 30
0.0
 10
85.479711430342
 20
-75.7323224810668
 30
0.0
 10
85.41218976539794
 20
-75.66515359219488
 30
0.0
 10
85.41218976539794
 20
-75.5821097033266
 30
0.0
 10
85.41218976539794
 20
-75.4994538700139
 30
0.0
 10
85.479711430342
 20
-75.43224970336414
 30
0.0
 10
85.56240253934348
 20
-75.43224970336414
 30
0.0
 10
85.64505837056808
 20
-75.43224970336414
 30
0.0
 10
85.71258003551213
 20
-75.4994538700139
 30
0.0
 10
85.71258003551213
 20
-75.5821097033266
 30
0.0
  0
HATCH
  5
B7
330
1F
100
AcDbEntity
  8
_U+30EC_U+30A4_U+30E4_U+30FC 1
 62
   179
420
  2234388
100
AcDbHatch
 10
0.0
 20
0.0
 30
0.0
210
0.0
220
0.0
230
1.0
  2
SOLID
 70
     1
 71
     0
 91
        1
 92
        1
 93
        1
 72
     4
 94
        3
 73
     0
 74
     1
 95
       17
 96
       13
 40
0.0
 40
0.0
 40
0.0
 40
0.0
 40
1.0
 40
1.0
 40
1.0
 40
2.0
 40
2.0
 40
2.0
 40
3.0
 40
3.0
 40
3.0
 40
4.0
 40
4.0
 40
4.0
 40
4.0
 10
85.71258003551213
 20
-75.5821097033266
 10
85.71258003551213
 20
-75.66515359219488
 10
85.64505837056808
 20
-75.7323224810668
 10
85.56240253934348
 20
-75.7323224810668
 10
85.479711430342
 20
-75.7323224810668
 10
85.41218976539794
 20
-75.66515359219488
 10
85.41218976539794
 20
-75.5821097033266
 10
85.41218976539794
 20
-75.4994538700139
 10
85.479711430342
 20
-75.43224970336414
 10
85.56240253934348
 20
-75.43224970336414
 10
85.64505837056808
 20
-75.43224970336414
 10
85.71258003551213
 20
-75.4994538700139
 10
85.71258003551213
 20
-75.5821097033266
 97
        0
 97
        0
 75
     2
 76
     1
 98
        0
  0
SPLINE
  5
B8
330
1F
100
AcDbEntity
  8
_U+30EC_U+30A4_U+30E4_U+30FC 1
370
     0
100
AcDbSpline
210
0.0
220
0.0
230
1.0
 70
    11
 71
     3
 72
    17
 73
    13
 74
     0
 42
0.0000000001
 43
0.0000000001
 12
1.0
 22
0.0
 32
0.0
 13
1.0
 23
0.0
 33
0.0
 40
0.0
 40
0.0
 40
0.0
 40
0.0
 40
1.0
 40
1.0
 40
1.0
 40
2.0
 40
2.0
 40
2.0
 40
3.0
 40
3.0
 40
3.0
 40
4.0
 40
4.0
 40
4.0
 40
4.0
 10
87.97878914436299
 20
-75.5821097033266
 30
0.0
 10
87.97878914436299
 20
-75.66515359219488
 30
0.0
 10
87.91126747941894
 20
-75.7323224810668
 30
0.0
 10
87.82857637041745
 20
-75.7323224810668
 30
0.0
 10
87.74588526141596
 20
-75.7323224810668
 30
0.0
 10
87.67836359647193
 20
-75.66515359219488
 30
0.0
 10
87.67836359647193
 20
-75.5821097033266
 30
0.0
 10
87.67836359647193
 20
-75.4994538700139
 30
0.0
 10
87.74588526141596
 20
-75.43224970336414
 30
0.0
 10
87.82857637041745
 20
-75.43224970336414
 30
0.0
 10
87.91126747941894
 20
-75.43224970336414
 30
0.0
 10
87.97878914436299
 20
-75.4994538700139
 30
0.0
 10
87.97878914436299
 20
-75.5821097033266
 30
0.0
  0
HATCH
  5
B9
330
1F
100
AcDbEntity
  8
_U+30EC_U+30A4_U+30E4_U+30FC 1
 62
   179
420
  2234388
100
AcDbHatch
 10
0.0
 20
0.0
 30
0.0
210
0.0
220
0.0
230
1.0
  2
SOLID
 70
     1
 71
     0
 91
        1
 92
        1
 93
        1
 72
     4
 94
        3
 73
     0
 74
     1
 95
       17
 96
       13
 40
0.0
 40
0.0
 40
0.0
 40
0.0
 40
1.0
 40
1.0
 40
1.0
 40
2.0
 40
2.0
 40
2.0
 40
3.0
 40
3.0
 40
3.0
 40
4.0
 40
4.0
 40
4.0
 40
4.0
 10
87.97878914436299
 20
-75.5821097033266
 10
87.97878914436299
 20
-75.66515359219488
 10
87.91126747941894
 20
-75.7323224810668
 10
87.82857637041745
 20
-75.7323224810668
 10
87.74588526141596
 20
-75.7323224810668
 10
87.67836359647193
 20
-75.66515359219488
 10
87.67836359647193
 20
-75.5821097033266
 10
87.67836359647193
 20
-75.4994538700139
 10
87.74588526141596
 20
-75.43224970336414
 10
87.82857637041745
 20
-75.43224970336414
 10
87.91126747941894
 20
-75.43224970336414
 10
87.97878914436299
 20
-75.4994538700139
 10
87.97878914436299
 20
-75.5821097033266
 97
        0
 97
        0
 75
     2
 76
     1
 98
        0
  0
SPLINE
  5
BA
330
1F
100
AcDbEntity
  8
_U+30EC_U+30A4_U+30E4_U+30FC 1
370
     0
100
AcDbSpline
210
0.0
220
0.0
230
1.0
 70
    11
 71
     3
 72
    17
 73
    13
 74
     0
 42
0.0000000001
 43
0.0000000001
 12
1.0
 22
0.0
 32
0.0
 13
1.0
 23
0.0
 33
0.0
 40
0.0
 40
0.0
 40
0.0
 40
0.0
 40
1.0
 40
1.0
 40
1.0
 40
2.0
 40
2.0
 40
2.0
 40
3.0
 40
3.0
 40
3.0
 40
4.0
 40
4.0
 40
4.0
 40
4.0
 10
92.1597348710315
 20
-79.69765053563117
 30
0.0
 10
92.1597348710315
 20
-79.78101192449907
 30
0.0
 10
92.09291876162501
 20
-79.84782803559355
 30
0.0
 10
92.00987487485476
 20
-79.84782803559355
 30
0.0
 10
91.92686626586136
 20
-79.84782803559355
 30
0.0
 10
91.860014878678
 20
-79.78101192449907
 30
0.0
 10
91.860014878678
 20
-79.69765053563117
 30
0.0
 10
91.860014878678
 20
-79.61495942454063
 30
0.0
 10
91.92686626586136
 20
-79.54810803566863
 30
0.0
 10
92.00987487485476
 20
-79.54810803566863
 30
0.0
 10
92.09291876162501
 20
-79.54810803566863
 30
0.0
 10
92.1597348710315
 20
-79.61495942454063
 30
0.0
 10
92.1597348710315
 20
-79.69765053563117
 30
0.0
  0
HATCH
  5
BB
330
1F
100
AcDbEntity
  8
_U+30EC_U+30A4_U+30E4_U+30FC 1
 62
   179
420
  2234388
100
AcDbHatch
 10
0.0
 20
0.0
 30
0.0
210
0.0
220
0.0
230
1.0
  2
SOLID
 70
     1
 71
     0
 91
        1
 92
        1
 93
        1
 72
     4
 94
        3
 73
     0
 74
     1
 95
       17
 96
       13
 40
0.0
 40
0.0
 40
0.0
 40
0.0
 40
1.0
 40
1.0
 40
1.0
 40
2.0
 40
2.0
 40
2.0
 40
3.0
 40
3.0
 40
3.0
 40
4.0
 40
4.0
 40
4.0
 40
4.0
 10
92.1597348710315
 20
-79.69765053563117
 10
92.1597348710315
 20
-79.78101192449907
 10
92.09291876162501
 20
-79.84782803559355
 10
92.00987487485476
 20
-79.84782803559355
 10
91.92686626586136
 20
-79.84782803559355
 10
91.860014878678
 20
-79.78101192449907
 10
91.860014878678
 20
-79.69765053563117
 10
91.860014878678
 20
-79.61495942454063
 10
91.92686626586136
 20
-79.54810803566863
 10
92.00987487485476
 20
-79.54810803566863
 10
92.09291876162501
 20
-79.54810803566863
 10
92.1597348710315
 20
-79.61495942454063
 10
92.1597348710315
 20
-79.69765053563117
 97
        0
 97
        0
 75
     2
 76
     1
 98
        0
  0
SPLINE
  5
BC
330
1F
100
AcDbEntity
  8
_U+30EC_U+30A4_U+30E4_U+30FC 1
370
     0
100
AcDbSpline
210
0.0
220
0.0
230
1.0
 70
    11
 71
     3
 72
    17
 73
    13
 74
     0
 42
0.0000000001
 43
0.0000000001
 12
1.0
 22
0.0
 32
0.0
 13
1.0
 23
0.0
 33
0.0
 40
0.0
 40
0.0
 40
0.0
 40
0.0
 40
1.0
 40
1.0
 40
1.0
 40
2.0
 40
2.0
 40
2.0
 40
3.0
 40
3.0
 40
3.0
 40
4.0
 40
4.0
 40
4.0
 40
4.0
 10
92.1597348710315
 20
-179.6982618995199
 30
0.0
 10
92.1597348710315
 20
-179.7816232883881
 30
0.0
 10
92.09291876162501
 20
-179.8484393994823
 30
0.0
 10
92.00987487485476
 20
-179.8484393994823
 30
0.0
 10
91.92686626586136
 20
-179.8484393994823
 30
0.0
 10
91.860014878678
 20
-179.7816232883881
 30
0.0
 10
91.860014878678
 20
-179.6982618995199
 30
0.0
 10
91.860014878678
 20
-179.6155707884297
 30
0.0
 10
91.92686626586136
 20
-179.5487193995574
 30
0.0
 10
92.00987487485476
 20
-179.5487193995574
 30
0.0
 10
92.09291876162501
 20
-179.5487193995574
 30
0.0
 10
92.1597348710315
 20
-179.6155707884297
 30
0.0
 10
92.1597348710315
 20
-179.6982618995199
 30
0.0
  0
HATCH
  5
BD
330
1F
100
AcDbEntity
  8
_U+30EC_U+30A4_U+30E4_U+30FC 1
 62
   179
420
  2234388
100
AcDbHatch
 10
0.0
 20
0.0
 30
0.0
210
0.0
220
0.0
230
1.0
  2
SOLID
 70
     1
 71
     0
 91
        1
 92
        1
 93
        1
 72
     4
 94
        3
 73
     0
 74
     1
 95
       17
 96
       13
 40
0.0
 40
0.0
 40
0.0
 40
0.0
 40
1.0
 40
1.0
 40
1.0
 40
2.0
 40
2.0
 40
2.0
 40
3.0
 40
3.0
 40
3.0
 40
4.0
 40
4.0
 40
4.0
 40
4.0
 10
92.1597348710315
 20
-179.6982618995199
 10
92.1597348710315
 20
-179.7816232883881
 10
92.09291876162501
 20
-179.8484393994823
 10
92.00987487485476
 20
-179.8484393994823
 10
91.92686626586136
 20
-179.8484393994823
 10
91.860014878678
 20
-179.7816232883881
 10
91.860014878678
 20
-179.6982618995199
 10
91.860014878678
 20
-179.6155707884297
 10
91.92686626586136
 20
-179.5487193995574
 10
92.00987487485476
 20
-179.5487193995574
 10
92.09291876162501
 20
-179.5487193995574
 10
92.1597348710315
 20
-179.6155707884297
 10
92.1597348710315
 20
-179.6982618995199
 97
        0
 97
        0
 75
     2
 76
     1
 98
        0
  0
ENDSEC
  0
SECTION
  2
OBJECTS
  0
DICTIONARY
  5
C
330
0
100
AcDbDictionary
281
     1
  3
ACAD_GROUP
350
D
  3
ACAD_LAYOUT
350
1A
  3
ACAD_MATERIAL
350
3B
  3
ACAD_MLEADERSTYLE
350
BF
  3
ACAD_MLINESTYLE
350
17
  3
ACAD_PLOTSETTINGS
350
19
  3
ACAD_PLOTSTYLENAME
350
E
  3
ACAD_TABLESTYLE
350
BE
  3
ACAD_VISUALSTYLE
350
2A
  0
SUN
  5
3F
330
29
100
AcDbSun
 90
        1
290
     0
 63
     7
421
 16777215
 40
1.0
291
     1
 91
  2455826
 92
 54000000
292
     0
 70
     2
 71
   256
280
     1
  0
DICTIONARY
  5
D
102
{ACAD_REACTORS
330
C
102
}
330
C
100
AcDbDictionary
281
     1
  0
DICTIONARY
  5
1A
102
{ACAD_REACTORS
330
C
102
}
330
C
100
AcDbDictionary
281
     1
  3
Layout1
350
1E
  3
Layout2
350
26
  3
Model
350
22
  0
DICTIONARY
  5
3B
102
{ACAD_REACTORS
330
C
102
}
330
C
100
AcDbDictionary
281
     1
  3
ByBlock
350
3D
  3
ByLayer
350
3C
  3
Global
350
3E
  0
DICTIONARY
  5
BF
102
{ACAD_REACTORS
330
C
102
}
330
C
100
AcDbDictionary
281
     1
  0
DICTIONARY
  5
17
102
{ACAD_REACTORS
330
C
102
}
330
C
100
AcDbDictionary
281
     1
  3
Standard
350
18
  0
DICTIONARY
  5
19
102
{ACAD_REACTORS
330
C
102
}
330
C
100
AcDbDictionary
281
     1
  0
ACDBDICTIONARYWDFLT
  5
E
102
{ACAD_REACTORS
330
C
102
}
330
C
100
AcDbDictionary
281
     1
  3
Normal
350
F
100
AcDbDictionaryWithDefault
340
F
  0
DICTIONARY
  5
BE
102
{ACAD_REACTORS
330
C
102
}
330
C
100
AcDbDictionary
281
     1
  0
DICTIONARY
  5
2A
102
{ACAD_REACTORS
330
C
102
}
330
C
100
AcDbDictionary
281
     1
  3
2dWireframe
350
2F
  3
3D Hidden
350
31
  3
3dWireframe
350
30
  3
Basic
350
32
  3
Brighten
350
36
  3
ColorChange
350
3A
  3
Conceptual
350
34
  3
Dim
350
35
  3
Facepattern
350
39
  3
Flat
350
2B
  3
FlatWithEdges
350
2C
  3
Gouraud
350
2D
  3
GouraudWithEdges
350
2E
  3
Linepattern
350
38
  3
Realistic
350
33
  3
Thicken
350
37
  0
LAYOUT
  5
1E
102
{ACAD_REACTORS
330
1A
102
}
330
1A
100
AcDbPlotSettings
  1

  2
none_device
  4

  6

 40
0.0
 41
0.0
 42
0.0
 43
0.0
 44
0.0
 45
0.0
 46
0.0
 47
0.0
 48
0.0
 49
0.0
140
0.0
141
0.0
142
1.0
143
1.0
 70
   688
 72
     0
 73
     0
 74
     5
  7

 75
    16
 76
     0
 77
     2
 78
   300
147
1.0
148
0.0
149
0.0
100
AcDbLayout
  1
Layout1
 70
     1
 71
     1
 10
0.0
 20
0.0
 11
12.0
 21
9.0
 12
0.0
 22
0.0
 32
0.0
 14
1.000000000000000E+20
 24
1.000000000000000E+20
 34
1.000000000000000E+20
 15
-1.000000000000000E+20
 25
-1.000000000000000E+20
 35
-1.000000000000000E+20
146
0.0
 13
0.0
 23
0.0
 33
0.0
 16
1.0
 26
0.0
 36
0.0
 17
0.0
 27
1.0
 37
0.0
 76
     0
330
1B
  0
LAYOUT
  5
26
102
{ACAD_REACTORS
330
1A
102
}
330
1A
100
AcDbPlotSettings
  1

  2
none_device
  4

  6

 40
0.0
 41
0.0
 42
0.0
 43
0.0
 44
0.0
 45
0.0
 46
0.0
 47
0.0
 48
0.0
 49
0.0
140
0.0
141
0.0
142
1.0
143
1.0
 70
   688
 72
     0
 73
     0
 74
     5
  7

 75
    16
 76
     0
 77
     2
 78
   300
147
1.0
148
0.0
149
0.0
100
AcDbLayout
  1
Layout2
 70
     1
 71
     2
 10
0.0
 20
0.0
 11
0.0
 21
0.0
 12
0.0
 22
0.0
 32
0.0
 14
0.0
 24
0.0
 34
0.0
 15
0.0
 25
0.0
 35
0.0
146
0.0
 13
0.0
 23
0.0
 33
0.0
 16
1.0
 26
0.0
 36
0.0
 17
0.0
 27
1.0
 37
0.0
 76
     0
330
23
  0
LAYOUT
  5
22
102
{ACAD_REACTORS
330
1A
102
}
330
1A
100
AcDbPlotSettings
  1

  2
none_device
  4

  6

 40
0.0
 41
0.0
 42
0.0
 43
0.0
 44
0.0
 45
0.0
 46
0.0
 47
0.0
 48
0.0
 49
0.0
140
0.0
141
0.0
142
1.0
143
1.0
 70
  1712
 72
     0
 73
     0
 74
     0
  7

 75
     0
 76
     0
 77
     2
 78
   300
147
1.0
148
0.0
149
0.0
100
AcDbLayout
  1
Model
 70
     1
 71
     0
 10
0.0
 20
0.0
 11
12.0
 21
9.0
 12
0.0
 22
0.0
 32
0.0
 14
1.000000000000000E+20
 24
1.000000000000000E+20
 34
1.000000000000000E+20
 15
-1.000000000000000E+20
 25
-1.000000000000000E+20
 35
-1.000000000000000E+20
146
0.0
 13
0.0
 23
0.0
 33
0.0
 16
1.0
 26
0.0
 36
0.0
 17
0.0
 27
1.0
 37
0.0
 76
     0
330
1F
331
29
  0
MATERIAL
  5
3D
102
{ACAD_REACTORS
330
3B
102
}
330
3B
100
AcDbMaterial
  1
ByBlock
 72
     1
 94
      127
  0
MATERIAL
  5
3C
102
{ACAD_REACTORS
330
3B
102
}
330
3B
100
AcDbMaterial
  1
ByLayer
 72
     1
 94
      127
  0
MATERIAL
  5
3E
102
{ACAD_REACTORS
330
3B
102
}
330
3B
100
AcDbMaterial
  1
Global
 72
     1
 94
      127
  0
MLINESTYLE
  5
18
102
{ACAD_REACTORS
330
17
102
}
330
17
100
AcDbMlineStyle
  2
Standard
 70
     0
  3

 62
   256
 51
90.0
 52
90.0
 71
     2
 49
0.5
 62
   256
  6
BYLAYER
 49
-0.5
 62
   256
  6
BYLAYER
  0
ACDBPLACEHOLDER
  5
F
102
{ACAD_REACTORS
330
E
102
}
330
E
  0
VISUALSTYLE
  5
2F
102
{ACAD_REACTORS
330
2A
102
}
330
2A
100
AcDbVisualStyle
  2
2dWireframe
 70
     4
177
     2
291
     0
 71
     0
176
     1
 72
     2
176
     1
 73
     0
176
     1
 90
        0
176
     1
 40
-0.6
176
     1
 41
-30.0
176
     1
 62
     5
 63
     7
421
 16777215
176
     1
 74
     1
176
     1
 91
        4
176
     1
 64
     7
176
     1
 65
   257
176
     1
 75
     1
176
     1
175
     1
176
     1
 42
1.0
176
     1
 92
        0
176
     1
 66
   257
176
     1
 43
1.0
176
     1
 76
     1
176
     1
 77
     6
176
     1
 78
     2
176
     1
 67
     7
176
     1
 79
     5
176
     1
170
     0
176
     1
171
     0
176
     1
290
     0
176
     1
 93
        1
176
     1
 44
0.0
176
     1
173
     0
176
     1
  0
VISUALSTYLE
  5
31
102
{ACAD_REACTORS
330
2A
102
}
330
2A
100
AcDbVisualStyle
  2
3D Hidden
 70
     6
177
     2
291
     0
 71
     1
176
     1
 72
     2
176
     1
 73
     2
176
     1
 90
        0
176
     1
 40
-0.6
176
     1
 41
-30.0
176
     1
 62
     5
 63
     7
421
 16777215
176
     1
 74
     2
176
     1
 91
        2
176
     1
 64
     7
176
     1
 65
   257
176
     1
 75
     2
176
     1
175
     1
176
     1
 42
40.0
176
     1
 92
        0
176
     1
 66
   257
176
     1
 43
1.0
176
     1
 76
     1
176
     1
 77
     6
176
     1
 78
     2
176
     1
 67
     7
176
     1
 79
     3
176
     1
170
     0
176
     1
171
     0
176
     1
290
     0
176
     1
 93
        1
176
     1
 44
0.0
176
     1
173
     0
176
     1
  0
VISUALSTYLE
  5
30
102
{ACAD_REACTORS
330
2A
102
}
330
2A
100
AcDbVisualStyle
  2
3dWireframe
 70
     5
177
     2
291
     0
 71
     0
176
     1
 72
     2
176
     1
 73
     0
176
     1
 90
        0
176
     1
 40
-0.6
176
     1
 41
-30.0
176
     1
 62
     5
 63
     7
421
 16777215
176
     1
 74
     1
176
     1
 91
        4
176
     1
 64
     7
176
     1
 65
   257
176
     1
 75
     1
176
     1
175
     1
176
     1
 42
1.0
176
     1
 92
        0
176
     1
 66
   257
176
     1
 43
1.0
176
     1
 76
     1
176
     1
 77
     6
176
     1
 78
     2
176
     1
 67
     7
176
     1
 79
     5
176
     1
170
     0
176
     1
171
     0
176
     1
290
     0
176
     1
 93
        1
176
     1
 44
0.0
176
     1
173
     0
176
     1
  0
VISUALSTYLE
  5
32
102
{ACAD_REACTORS
330
2A
102
}
330
2A
100
AcDbVisualStyle
  2
Basic
 70
     7
177
     2
291
     1
 71
     1
176
     1
 72
     0
176
     1
 73
     1
176
     1
 90
        0
176
     1
 40
-0.6
176
     1
 41
-30.0
176
     1
 62
     5
 63
     7
421
 16777215
176
     1
 74
     0
176
     1
 91
        4
176
     1
 64
     7
176
     1
 65
   257
176
     1
 75
     1
176
     1
175
     1
176
     1
 42
1.0
176
     1
 92
        8
176
     1
 66
     7
176
     1
 43
1.0
176
     1
 76
     1
176
     1
 77
     6
176
     1
 78
     2
176
     1
 67
     7
176
     1
 79
     5
176
     1
170
     0
176
     1
171
     0
176
     1
290
     0
176
     1
 93
        1
176
     1
 44
0.0
176
     1
173
     0
176
     1
  0
VISUALSTYLE
  5
36
102
{ACAD_REACTORS
330
2A
102
}
330
2A
100
AcDbVisualStyle
  2
Brighten
 70
    12
177
     2
291
     1
 71
     2
176
     1
 72
     2
176
     1
 73
     0
176
     1
 90
        0
176
     1
 40
-0.6
176
     1
 41
-30.0
176
     1
 62
     5
 63
     7
421
 16777215
176
     1
 74
     1
176
     1
 91
        4
176
     1
 64
     7
176
     1
 65
   257
176
     1
 75
     1
176
     1
175
     1
176
     1
 42
1.0
176
     1
 92
        8
176
     1
 66
     7
176
     1
 43
1.0
176
     1
 76
     1
176
     1
 77
     6
176
     1
 78
     2
176
     1
 67
     7
176
     1
 79
     5
176
     1
170
     0
176
     1
171
     0
176
     1
290
     0
176
     1
 93
        1
176
     1
 44
50.0
176
     1
173
     0
176
     1
  0
VISUALSTYLE
  5
3A
102
{ACAD_REACTORS
330
2A
102
}
330
2A
100
AcDbVisualStyle
  2
ColorChange
 70
    16
177
     2
291
     1
 71
     2
176
     1
 72
     2
176
     1
 73
     3
176
     1
 90
        0
176
     1
 40
-0.6
176
     1
 41
-30.0
176
     1
 62
     5
 63
     8
421
  8421504
176
     1
 74
     1
176
     1
 91
        4
176
     1
 64
     7
176
     1
 65
   257
176
     1
 75
     1
176
     1
175
     1
176
     1
 42
1.0
176
     1
 92
        8
176
     1
 66
     8
424
  8421504
176
     1
 43
1.0
176
     1
 76
     1
176
     1
 77
     6
176
     1
 78
     2
176
     1
 67
     7
176
     1
 79
     5
176
     1
170
     0
176
     1
171
     0
176
     1
290
     0
176
     1
 93
        1
176
     1
 44
0.0
176
     1
173
     0
176
     1
  0
VISUALSTYLE
  5
34
102
{ACAD_REACTORS
330
2A
102
}
330
2A
100
AcDbVisualStyle
  2
Conceptual
 70
     9
177
     2
291
     0
 71
     3
176
     1
 72
     2
176
     1
 73
     0
176
     1
 90
        0
176
     1
 40
-0.6
176
     1
 41
-30.0
176
     1
 62
     5
 63
     7
421
 16777215
176
     1
 74
     2
176
     1
 91
        2
176
     1
 64
     7
176
     1
 65
   257
176
     1
 75
     1
176
     1
175
     1
176
     1
 42
40.0
176
     1
 92
        8
176
     1
 66
     7
176
     1
 43
1.0
176
     1
 76
     1
176
     1
 77
     6
176
     1
 78
     2
176
     1
 67
     7
176
     1
 79
     3
176
     1
170
     0
176
     1
171
     0
176
     1
290
     0
176
     1
 93
        1
176
     1
 44
0.0
176
     1
173
     0
176
     1
  0
VISUALSTYLE
  5
35
102
{ACAD_REACTORS
330
2A
102
}
330
2A
100
AcDbVisualStyle
  2
Dim
 70
    11
177
     2
291
     1
 71
     2
176
     1
 72
     2
176
     1
 73
     0
176
     1
 90
        0
176
     1
 40
-0.6
176
     1
 41
-30.0
176
     1
 62
     5
 63
     7
421
 16777215
176
     1
 74
     1
176
     1
 91
        4
176
     1
 64
     7
176
     1
 65
   257
176
     1
 75
     1
176
     1
175
     1
176
     1
 42
1.0
176
     1
 92
        8
176
     1
 66
     7
176
     1
 43
1.0
176
     1
 76
     1
176
     1
 77
     6
176
     1
 78
     2
176
     1
 67
     7
176
     1
 79
     5
176
     1
170
     0
176
     1
171
     0
176
     1
290
     0
176
     1
 93
        1
176
     1
 44
-50.0
176
     1
173
     0
176
     1
  0
VISUALSTYLE
  5
39
102
{ACAD_REACTORS
330
2A
102
}
330
2A
100
AcDbVisualStyle
  2
Facepattern
 70
    15
177
     2
291
     1
 71
     2
176
     1
 72
     2
176
     1
 73
     0
176
     1
 90
        0
176
     1
 40
-0.6
176
     1
 41
-30.0
176
     1
 62
     5
 63
     7
421
 16777215
176
     1
 74
     1
176
     1
 91
        4
176
     1
 64
     7
176
     1
 65
   257
176
     1
 75
     1
176
     1
175
     1
176
     1
 42
1.0
176
     1
 92
        8
176
     1
 66
     7
176
     1
 43
1.0
176
     1
 76
     1
176
     1
 77
     6
176
     1
 78
     2
176
     1
 67
     7
176
     1
 79
     5
176
     1
170
     0
176
     1
171
     0
176
     1
290
     0
176
     1
 93
        1
176
     1
 44
0.0
176
     1
173
     0
176
     1
  0
VISUALSTYLE
  5
2B
102
{ACAD_REACTORS
330
2A
102
}
330
2A
100
AcDbVisualStyle
  2
Flat
 70
     0
177
     2
291
     1
 71
     2
176
     1
 72
     1
176
     1
 73
     1
176
     1
 90
        2
176
     1
 40
-0.6
176
     1
 41
30.0
176
     1
 62
     5
 63
     7
421
 16777215
176
     1
 74
     0
176
     1
 91
        4
176
     1
 64
     7
176
     1
 65
   257
176
     1
 75
     1
176
     1
175
     1
176
     1
 42
1.0
176
     1
 92
        8
176
     1
 66
     7
176
     1
 43
1.0
176
     1
 76
     1
176
     1
 77
     6
176
     1
 78
     2
176
     1
 67
     7
176
     1
 79
     5
176
     1
170
     0
176
     1
171
     0
176
     1
290
     0
176
     1
 93
       13
176
     1
 44
0.0
176
     1
173
     0
176
     1
  0
VISUALSTYLE
  5
2C
102
{ACAD_REACTORS
330
2A
102
}
330
2A
100
AcDbVisualStyle
  2
FlatWithEdges
 70
     1
177
     2
291
     1
 71
     2
176
     1
 72
     1
176
     1
 73
     1
176
     1
 90
        2
176
     1
 40
-0.6
176
     1
 41
30.0
176
     1
 62
     5
 63
     7
421
 16777215
176
     1
 74
     1
176
     1
 91
        4
176
     1
 64
     7
176
     1
 65
   257
176
     1
 75
     1
176
     1
175
     1
176
     1
 42
1.0
176
     1
 92
        0
176
     1
 66
   257
176
     1
 43
1.0
176
     1
 76
     1
176
     1
 77
     6
176
     1
 78
     2
176
     1
 67
     7
176
     1
 79
     5
176
     1
170
     0
176
     1
171
     0
176
     1
290
     0
176
     1
 93
       13
176
     1
 44
0.0
176
     1
173
     0
176
     1
  0
VISUALSTYLE
  5
2D
102
{ACAD_REACTORS
330
2A
102
}
330
2A
100
AcDbVisualStyle
  2
Gouraud
 70
     2
177
     2
291
     1
 71
     2
176
     1
 72
     2
176
     1
 73
     1
176
     1
 90
        2
176
     1
 40
-0.6
176
     1
 41
30.0
176
     1
 62
     5
 63
     7
421
 16777215
176
     1
 74
     0
176
     1
 91
        4
176
     1
 64
     7
176
     1
 65
   257
176
     1
 75
     1
176
     1
175
     1
176
     1
 42
1.0
176
     1
 92
        0
176
     1
 66
     7
176
     1
 43
1.0
176
     1
 76
     1
176
     1
 77
     6
176
     1
 78
     2
176
     1
 67
     7
176
     1
 79
     5
176
     1
170
     0
176
     1
171
     0
176
     1
290
     0
176
     1
 93
       13
176
     1
 44
0.0
176
     1
173
     0
176
     1
  0
VISUALSTYLE
  5
2E
102
{ACAD_REACTORS
330
2A
102
}
330
2A
100
AcDbVisualStyle
  2
GouraudWithEdges
 70
     3
177
     2
291
     1
 71
     2
176
     1
 72
     2
176
     1
 73
     1
176
     1
 90
        2
176
     1
 40
-0.6
176
     1
 41
30.0
176
     1
 62
     5
 63
     7
421
 16777215
176
     1
 74
     1
176
     1
 91
        4
176
     1
 64
     7
176
     1
 65
   257
176
     1
 75
     1
176
     1
175
     1
176
     1
 42
1.0
176
     1
 92
        0
176
     1
 66
   257
176
     1
 43
1.0
176
     1
 76
     1
176
     1
 77
     6
176
     1
 78
     2
176
     1
 67
     7
176
     1
 79
     5
176
     1
170
     0
176
     1
171
     0
176
     1
290
     0
176
     1
 93
       13
176
     1
 44
0.0
176
     1
173
     0
176
     1
  0
VISUALSTYLE
  5
38
102
{ACAD_REACTORS
330
2A
102
}
330
2A
100
AcDbVisualStyle
  2
Linepattern
 70
    14
177
     2
291
     1
 71
     2
176
     1
 72
     2
176
     1
 73
     0
176
     1
 90
        0
176
     1
 40
-0.6
176
     1
 41
-30.0
176
     1
 62
     5
 63
     7
421
 16777215
176
     1
 74
     1
176
     1
 91
        4
176
     1
 64
     7
176
     1
 65
   257
176
     1
 75
     7
176
     1
175
     7
176
     1
 42
1.0
176
     1
 92
        8
176
     1
 66
     7
176
     1
 43
1.0
176
     1
 76
     1
176
     1
 77
     6
176
     1
 78
     2
176
     1
 67
     7
176
     1
 79
     5
176
     1
170
     0
176
     1
171
     0
176
     1
290
     0
176
     1
 93
        1
176
     1
 44
0.0
176
     1
173
     0
176
     1
  0
VISUALSTYLE
  5
33
102
{ACAD_REACTORS
330
2A
102
}
330
2A
100
AcDbVisualStyle
  2
Realistic
 70
     8
177
     2
291
     0
 71
     2
176
     1
 72
     2
176
     1
 73
     0
176
     1
 90
        0
176
     1
 40
-0.6
176
     1
 41
-30.0
176
     1
 62
     5
 63
     7
421
 16777215
176
     1
 74
     1
176
     1
 91
        0
176
     1
 64
     7
176
     1
 65
   257
176
     1
 75
     1
176
     1
175
     1
176
     1
 42
1.0
176
     1
 92
        8
176
     1
 66
     8
424
  7895160
176
     1
 43
1.0
176
     1
 76
     1
176
     1
 77
     6
176
     1
 78
     2
176
     1
 67
     7
176
     1
 79
     5
176
     1
170
     0
176
     1
171
     0
176
     1
290
     0
176
     1
 93
       13
176
     1
 44
0.0
176
     1
173
     0
176
     1
  0
VISUALSTYLE
  5
37
102
{ACAD_REACTORS
330
2A
102
}
330
2A
100
AcDbVisualStyle
  2
Thicken
 70
    13
177
     2
291
     1
 71
     2
176
     1
 72
     2
176
     1
 73
     0
176
     1
 90
        0
176
     1
 40
-0.6
176
     1
 41
-30.0
176
     1
 62
     5
 63
     7
421
 16777215
176
     1
 74
     1
176
     1
 91
        4
176
     1
 64
     7
176
     1
 65
   257
176
     1
 75
     1
176
     1
175
     1
176
     1
 42
1.0
176
     1
 92
       12
176
     1
 66
     7
176
     1
 43
1.0
176
     1
 76
     1
176
     1
 77
     6
176
     1
 78
     2
176
     1
 67
     7
176
     1
 79
     5
176
     1
170
     0
176
     1
171
     0
176
     1
290
     0
176
     1
 93
        1
176
     1
 44
0.0
176
     1
173
     0
176
     1
  0
ENDSEC
  0
EOF
