  0
SECTION
  2
HEADER
  9
$ACADVER
  1
AC1024
  9
$ACADMAINTVER
 70
     6
  9
$DWGCODEPAGE
  3
UNDEFINED
  9
$INSBASE
 10
0.0
 20
0.0
 30
0.0
  9
$EXTMIN
 10
1.000000000000000E+20
 20
1.000000000000000E+20
 30
1.000000000000000E+20
  9
$EXTMAX
 10
-1.000000000000000E+20
 20
-1.000000000000000E+20
 30
-1.000000000000000E+20
  9
$LIMMIN
 10
0.0
 20
0.0
  9
$LIMMAX
 10
12.0
 20
9.0
  9
$ORTHOMODE
 70
     0
  9
$REGENMODE
 70
     1
  9
$FILLMODE
 70
     1
  9
$QTEXTMODE
 70
     0
  9
$MIRRTEXT
 70
     1
  9
$LTSCALE
 40
1.0
  9
$ATTMODE
 70
     1
  9
$TEXTSIZE
 40
0.2
  9
$TRACEWID
 40
0.05
  9
$TEXTSTYLE
  7
Standard
  9
$CLAYER
  8
0
  9
$CELTYPE
  6
ByLayer
  9
$CECOLOR
 62
   256
  9
$CELTSCALE
 40
1.0
  9
$DISPSILH
 70
     0
  9
$DIMSCALE
 40
1.0
  9
$DIMASZ
 40
0.18
  9
$DIMEXO
 40
0.0625
  9
$DIMDLI
 40
0.38
  9
$DIMRND
 40
0.0
  9
$DIMDLE
 40
0.0
  9
$DIMEXE
 40
0.18
  9
$DIMTP
 40
0.0
  9
$DIMTM
 40
0.0
  9
$DIMTXT
 40
0.18
  9
$DIMCEN
 40
0.09
  9
$DIMTSZ
 40
0.0
  9
$DIMTOL
 70
     0
  9
$DIMLIM
 70
     0
  9
$DIMTIH
 70
     1
  9
$DIMTOH
 70
     1
  9
$DIMSE1
 70
     0
  9
$DIMSE2
 70
     0
  9
$DIMTAD
 70
     0
  9
$DIMZIN
 70
     0
  9
$DIMBLK
  1

  9
$DIMASO
 70
     1
  9
$DIMSHO
 70
     1
  9
$DIMPOST
  1

  9
$DIMAPOST
  1

  9
$DIMALT
 70
     0
  9
$DIMALTD
 70
     2
  9
$DIMALTF
 40
25.4
  9
$DIMLFAC
 40
1.0
  9
$DIMTOFL
 70
     0
  9
$DIMTVP
 40
0.0
  9
$DIMTIX
 70
     0
  9
$DIMSOXD
 70
     0
  9
$DIMSAH
 70
     0
  9
$DIMBLK1
  1

  9
$DIMBLK2
  1

  9
$DIMSTYLE
  2
Standard
  9
$DIMCLRD
 70
     0
  9
$DIMCLRE
 70
     0
  9
$DIMCLRT
 70
     0
  9
$DIMTFAC
 40
1.0
  9
$DIMGAP
 40
0.09
  9
$DIMJUST
 70
     0
  9
$DIMSD1
 70
     0
  9
$DIMSD2
 70
     0
  9
$DIMTOLJ
 70
     1
  9
$DIMTZIN
 70
     0
  9
$DIMALTZ
 70
     0
  9
$DIMALTTZ
 70
     0
  9
$DIMUPT
 70
     0
  9
$DIMDEC
 70
     4
  9
$DIMTDEC
 70
     4
  9
$DIMALTU
 70
     2
  9
$DIMALTTD
 70
     2
  9
$DIMTXSTY
  7
Standard
  9
$DIMAUNIT
 70
     0
  9
$DIMADEC
 70
     0
  9
$DIMALTRND
 40
0.0
  9
$DIMAZIN
 70
     0
  9
$DIMDSEP
 70
    46
  9
$DIMATFIT
 70
     3
  9
$DIMFRAC
 70
     0
  9
$DIMLDRBLK
  1

  9
$DIMLUNIT
 70
     2
  9
$DIMLWD
 70
    -2
  9
$DIMLWE
 70
    -2
  9
$DIMTMOVE
 70
     0
  9
$DIMFXL
 40
1.0
  9
$DIMFXLON
 70
     0
  9
$DIMJOGANG
 40
0.7853981633974483
  9
$DIMTFILL
 70
     0
  9
$DIMTFILLCLR
 70
     0
  9
$DIMARCSYM
 70
     0
  9
$DIMLTYPE
  6

  9
$DIMLTEX1
  6

  9
$DIMLTEX2
  6

  9
$DIMTXTDIRECTION
 70
     0
  9
$LUNITS
 70
     2
  9
$LUPREC
 70
     4
  9
$SKETCHINC
 40
0.1
  9
$FILLETRAD
 40
0.5
  9
$AUNITS
 70
     0
  9
$AUPREC
 70
     0
  9
$MENU
  1
.
  9
$ELEVATION
 40
0.0
  9
$PELEVATION
 40
0.0
  9
$THICKNESS
 40
0.0
  9
$LIMCHECK
 70
     0
  9
$CHAMFERA
 40
0.5
  9
$CHAMFERB
 40
0.5
  9
$CHAMFERC
 40
1.0
  9
$CHAMFERD
 40
0.0
  9
$SKPOLY
 70
     0
  9
$TDCREATE
 40
2457917.628333333
  9
$TDUCREATE
 40
2457917.253333333
  9
$TDUPDATE
 40
2457917.628333333
  9
$TDUUPDATE
 40
2457917.253333333
  9
$TDINDWG
 40
0.0000000116
  9
$TDUSRTIMER
 40
0.0000000116
  9
$USRTIMER
 70
     1
  9
$ANGBASE
 50
0.0
  9
$ANGDIR
 70
     0
  9
$PDMODE
 70
     0
  9
$PDSIZE
 40
0.0
  9
$PLINEWID
 40
0.0
  9
$SPLFRAME
 70
     0
  9
$SPLINETYPE
 70
     6
  9
$SPLINESEGS
 70
     8
  9
$HANDSEED
  5
C0
  9
$SURFTAB1
 70
     6
  9
$SURFTAB2
 70
     6
  9
$SURFTYPE
 70
     6
  9
$SURFU
 70
     6
  9
$SURFV
 70
     6
  9
$UCSBASE
  2

  9
$UCSNAME
  2

  9
$UCSORG
 10
0.0
 20
0.0
 30
0.0
  9
$UCSXDIR
 10
1.0
 20
0.0
 30
0.0
  9
$UCSYDIR
 10
0.0
 20
1.0
 30
0.0
  9
$UCSORTHOREF
  2

  9
$UCSORTHOVIEW
 70
     0
  9
$UCSORGTOP
 10
0.0
 20
0.0
 30
0.0
  9
$UCSORGBOTTOM
 10
0.0
 20
0.0
 30
0.0
  9
$UCSORGLEFT
 10
0.0
 20
0.0
 30
0.0
  9
$UCSORGRIGHT
 10
0.0
 20
0.0
 30
0.0
  9
$UCSORGFRONT
 10
0.0
 20
0.0
 30
0.0
  9
$UCSORGBACK
 10
0.0
 20
0.0
 30
0.0
  9
$PUCSBASE
  2

  9
$PUCSNAME
  2

  9
$PUCSORG
 10
0.0
 20
0.0
 30
0.0
  9
$PUCSXDIR
 10
1.0
 20
0.0
 30
0.0
  9
$PUCSYDIR
 10
0.0
 20
1.0
 30
0.0
  9
$PUCSORTHOREF
  2

  9
$PUCSORTHOVIEW
 70
     0
  9
$PUCSORGTOP
 10
0.0
 20
0.0
 30
0.0
  9
$PUCSORGBOTTOM
 10
0.0
 20
0.0
 30
0.0
  9
$PUCSORGLEFT
 10
0.0
 20
0.0
 30
0.0
  9
$PUCSORGRIGHT
 10
0.0
 20
0.0
 30
0.0
  9
$PUCSORGFRONT
 10
0.0
 20
0.0
 30
0.0
  9
$PUCSORGBACK
 10
0.0
 20
0.0
 30
0.0
  9
$USERI1
 70
     0
  9
$USERI2
 70
     0
  9
$USERI3
 70
     0
  9
$USERI4
 70
     0
  9
$USERI5
 70
     0
  9
$USERR1
 40
0.0
  9
$USERR2
 40
0.0
  9
$USERR3
 40
0.0
  9
$USERR4
 40
0.0
  9
$USERR5
 40
0.0
  9
$WORLDVIEW
 70
     1
  9
$SHADEDGE
 70
     3
  9
$SHADEDIF
 70
    70
  9
$TILEMODE
 70
     1
  9
$MAXACTVP
 70
    64
  9
$PINSBASE
 10
0.0
 20
0.0
 30
0.0
  9
$PLIMCHECK
 70
     0
  9
$PEXTMIN
 10
1.000000000000000E+20
 20
1.000000000000000E+20
 30
1.000000000000000E+20
  9
$PEXTMAX
 10
-1.000000000000000E+20
 20
-1.000000000000000E+20
 30
-1.000000000000000E+20
  9
$PLIMMIN
 10
0.0
 20
0.0
  9
$PLIMMAX
 10
12.0
 20
9.0
  9
$UNITMODE
 70
     0
  9
$VISRETAIN
 70
     1
  9
$PLINEGEN
 70
     0
  9
$PSLTSCALE
 70
     1
  9
$TREEDEPTH
 70
  3020
  9
$CMLSTYLE
  2
Standard
  9
$CMLJUST
 70
     0
  9
$CMLSCALE
 40
1.0
  9
$PROXYGRAPHICS
 70
     1
  9
$MEASUREMENT
 70
     0
  9
$CELWEIGHT
370
    -1
  9
$ENDCAPS
280
     0
  9
$JOINSTYLE
280
     0
  9
$LWDISPLAY
290
     1
  9
$INSUNITS
 70
     1
  9
$HYPERLINKBASE
  1

  9
$STYLESHEET
  1

  9
$XEDIT
290
     1
  9
$CEPSNTYPE
380
     0
  9
$PSTYLEMODE
290
     1
  9
$FINGERPRINTGUID
  2
{EA8CC9E8-3D59-FCC5-3C60-7B3DA32600C1}
  9
$VERSIONGUID
  2
{FAEB1C32-E019-11D5-929B-00C0DF256EC4}
  9
$EXTNAMES
290
     1
  9
$PSVPSCALE
 40
0.0
  9
$OLESTARTUP
290
     0
  9
$SORTENTS
280
   127
  9
$INDEXCTL
280
     0
  9
$HIDETEXT
280
     1
  9
$XCLIPFRAME
280
     2
  9
$HALOGAP
280
     0
  9
$OBSCOLOR
 70
   257
  9
$OBSLTYPE
280
     0
  9
$INTERSECTIONDISPLAY
280
     0
  9
$INTERSECTIONCOLOR
 70
   257
  9
$DIMASSOC
280
     2
  9
$PROJECTNAME
  1

  9
$CAMERADISPLAY
290
     0
  9
$LENSLENGTH
 40
50.0
  9
$CAMERAHEIGHT
 40
0.0
  9
$STEPSPERSEC
 40
2.0
  9
$STEPSIZE
 40
6.0
  9
$3DDWFPREC
 40
2.0
  9
$PSOLWIDTH
 40
0.25
  9
$PSOLHEIGHT
 40
4.0
  9
$LOFTANG1
 40
1.570796326794897
  9
$LOFTANG2
 40
1.570796326794897
  9
$LOFTMAG1
 40
0.0
  9
$LOFTMAG2
 40
0.0
  9
$LOFTPARAM
 70
     7
  9
$LOFTNORMALS
280
     1
  9
$LATITUDE
 40
37.795
  9
$LONGITUDE
 40
-122.394
  9
$NORTHDIRECTION
 40
0.0
  9
$TIMEZONE
 70
 -8000
  9
$LIGHTGLYPHDISPLAY
280
     1
  9
$TILEMODELIGHTSYNCH
280
     1
  9
$CMATERIAL
347
3C
  9
$SOLIDHIST
280
     1
  9
$SHOWHIST
280
     1
  9
$DWFFRAME
280
     2
  9
$DGNFRAME
280
     2
  9
$REALWORLDSCALE
290
     1
  9
$INTERFERECOLOR
 62
   256
  9
$CSHADOW
280
     0
  9
$SHADOWPLANELOCATION
 40
0.0
  0
ENDSEC
  0
SECTION
  2
CLASSES
  0
CLASS
  1
ACDBDICTIONARYWDFLT
  2
AcDbDictionaryWithDefault
  3
ObjectDBX Classes
 90
        0
 91
        4
280
     0
281
     0
  0
CLASS
  1
VISUALSTYLE
  2
AcDbVisualStyle
  3
ObjectDBX Classes
 90
     4095
 91
        4
280
     0
281
     0
  0
CLASS
  1
MATERIAL
  2
AcDbMaterial
  3
ObjectDBX Classes
 90
     1153
 91
        4
280
     0
281
     0
  0
CLASS
  1
SUN
  2
AcDbSun
  3
SCENEOE
 90
     1024
 91
        4
280
     0
281
     0
  0
ENDSEC
  0
SECTION
  2
TABLES
  0
TABLE
  2
VPORT
  5
8
330
0
100
AcDbSymbolTable
 70
     1
  0
VPORT
  5
29
330
8
100
AcDbSymbolTableRecord
100
AcDbViewportTableRecord
  2
*Active
 70
     0
 10
0.0
 20
0.0
 11
1.0
 21
1.0
 12
0.0
 22
0.0
 13
0.0
 23
0.0
 14
0.5
 24
0.5
 15
0.5
 25
0.5
 16
0.0
 26
0.0
 36
1.0
 17
91.00082462281999
 27
-128.4993055234307
 37
0.0
 40
256.9986110468615
 41
0.7081814508812795
 42
50.0
 43
0.0
 44
0.0
 50
0.0
 51
0.0
 71
     0
 72
   100
 73
     1
 74
     3
 75
     0
 76
     0
 77
     0
 78
     0
281
     0
 65
     1
110
0.0
120
0.0
130
0.0
111
1.0
121
0.0
131
0.0
112
0.0
122
1.0
132
0.0
 79
     0
146
0.0
 60
     3
 61
     5
292
     1
282
     1
141
0.0
142
0.0
 63
   250
361
3F
  0
ENDTAB
  0
TABLE
  2
LTYPE
  5
5
330
0
100
AcDbSymbolTable
 70
     1
  0
LTYPE
  5
14
330
5
100
AcDbSymbolTableRecord
100
AcDbLinetypeTableRecord
  2
ByBlock
 70
     0
  3

 72
    65
 73
     0
 40
0.0
  0
LTYPE
  5
15
330
5
100
AcDbSymbolTableRecord
100
AcDbLinetypeTableRecord
  2
ByLayer
 70
     0
  3

 72
    65
 73
     0
 40
0.0
  0
LTYPE
  5
16
330
5
100
AcDbSymbolTableRecord
100
AcDbLinetypeTableRecord
  2
Continuous
 70
     0
  3
Solid line
 72
    65
 73
     0
 40
0.0
  0
ENDTAB
  0
TABLE
  2
LAYER
  5
2
330
0
100
AcDbSymbolTable
 70
     2
  0
LAYER
  5
10
330
2
100
AcDbSymbolTableRecord
100
AcDbLayerTableRecord
  2
0
 70
     0
 62
     7
  6
Continuous
370
    -3
390
F
347
3E
  0
LAYER
  5
40
330
2
100
AcDbSymbolTableRecord
100
AcDbLayerTableRecord
  2
_U+30EC_U+30A4_U+30E4_U+30FC 1
 70
     0
 62
     7
  6
Continuous
370
    -3
390
F
347
3E
  0
ENDTAB
  0
TABLE
  2
STYLE
  5
3
330
0
100
AcDbSymbolTable
 70
     1
  0
STYLE
  5
11
330
3
100
AcDbSymbolTableRecord
100
AcDbTextStyleTableRecord
  2
Standard
 70
     0
 40
0.0
 41
1.0
 50
0.0
 71
     0
 42
0.2
  3
txt
  4

  0
ENDTAB
  0
TABLE
  2
VIEW
  5
6
330
0
100
AcDbSymbolTable
 70
     0
  0
ENDTAB
  0
TABLE
  2
UCS
  5
7
330
0
100
AcDbSymbolTable
 70
     0
  0
ENDTAB
  0
TABLE
  2
APPID
  5
9
330
0
100
AcDbSymbolTable
 70
     1
  0
APPID
  5
12
330
9
100
AcDbSymbolTableRecord
100
AcDbRegAppTableRecord
  2
ACAD
 70
     0
  0
ENDTAB
  0
TABLE
  2
DIMSTYLE
  5
A
330
0
100
AcDbSymbolTable
 70
     1
100
AcDbDimStyleTable
  0
DIMSTYLE
105
27
330
A
100
AcDbSymbolTableRecord
100
AcDbDimStyleTableRecord
  2
Standard
 70
     0
178
     0
340
11
  0
ENDTAB
  0
TABLE
  2
BLOCK_RECORD
  5
1
330
0
100
AcDbSymbolTable
 70
     5
  0
BLOCK_RECORD
  5
1F
330
1
100
AcDbSymbolTableRecord
100
AcDbBlockTableRecord
  2
*Model_Space
340
22
 70
     0
280
     1
281
     0
  0
BLOCK_RECORD
  5
1B
330
1
100
AcDbSymbolTableRecord
100
AcDbBlockTableRecord
  2
*Paper_Space
340
1E
 70
     0
280
     1
281
     0
  0
BLOCK_RECORD
  5
23
330
1
100
AcDbSymbolTableRecord
100
AcDbBlockTableRecord
  2
*Paper_Space0
340
26
 70
     0
280
     1
281
     0
  0
BLOCK_RECORD
  5
5B
330
1
100
AcDbSymbolTableRecord
100
AcDbBlockTableRecord
  2
block 2
340
0
102
{BLKREFS
331
5C
102
}
 70
     0
280
     1
281
     0
  0
BLOCK_RECORD
  5
7A
330
1
100
AcDbSymbolTableRecord
100
AcDbBlockTableRecord
  2
block 3
340
0
102
{BLKREFS
331
7B
102
}
 70
     0
280
     1
281
     0
  0
BLOCK_RECORD
  5
8E
330
1
100
AcDbSymbolTableRecord
100
AcDbBlockTableRecord
  2
block 4
340
0
102
{BLKREFS
331
8F
102
}
 70
     0
280
     1
281
     0
  0
BLOCK_RECORD
  5
AC
330
1
100
AcDbSymbolTableRecord
100
AcDbBlockTableRecord
  2
block 5
340
0
102
{BLKREFS
331
AD
102
}
 70
     0
280
     1
281
     0
  0
ENDTAB
  0
ENDSEC
  0
SECTION
  2
BLOCKS
  0
BLOCK
  5
20
330
1F
100
AcDbEntity
  8
0
100
AcDbBlockBegin
  2
*Model_Space
 70
     0
 10
0.0
 20
0.0
 30
0.0
  3
*Model_Space
  1

  0
ENDBLK
  5
21
330
1F
100
AcDbEntity
  8
0
100
AcDbBlockEnd
  0
BLOCK
  5
1C
330
1B
100
AcDbEntity
 67
     1
  8
0
100
AcDbBlockBegin
  2
*Paper_Space
 70
     0
 10
0.0
 20
0.0
 30
0.0
  3
*Paper_Space
  1

  0
ENDBLK
  5
1D
330
1B
100
AcDbEntity
 67
     1
  8
0
100
AcDbBlockEnd
  0
BLOCK
  5
24
330
23
100
AcDbEntity
  8
0
100
AcDbBlockBegin
  2
*Paper_Space0
 70
     0
 10
0.0
 20
0.0
 30
0.0
  3
*Paper_Space0
  1

  0
ENDBLK
  5
25
330
23
100
AcDbEntity
  8
0
100
AcDbBlockEnd
  0
BLOCK
  5
5D
330
5B
100
AcDbEntity
  8
0
100
AcDbBlockBegin
  2
block 2
 70
     0
 10
0.0
 20
0.0
 30
0.0
  3
block 2
  1

  0
SPLINE
  5
5F
330
5B
100
AcDbEntity
  8
_U+30EC_U+30A4_U+30E4_U+30FC 1
370
     0
100
AcDbSpline
210
0.0
220
0.0
230
1.0
 70
    11
 71
     3
 72
    44
 73
    40
 74
     0
 42
0.0000000001
 43
0.0000000001
 12
1.0
 22
0.0
 32
0.0
 13
1.0
 23
0.0
 33
0.0
 40
0.0
 40
0.0
 40
0.0
 40
0.0
 40
1.0
 40
1.0
 40
1.0
 40
2.0
 40
2.0
 40
2.0
 40
3.0
 40
3.0
 40
3.0
 40
4.0
 40
4.0
 40
4.0
 40
5.0
 40
5.0
 40
5.0
 40
6.0
 40
6.0
 40
6.0
 40
7.0
 40
7.0
 40
7.0
 40
8.0
 40
8.0
 40
8.0
 40
9.0
 40
9.0
 40
9.0
 40
10.0
 40
10.0
 40
10.0
 40
11.0
 40
11.0
 40
11.0
 40
12.0
 40
12.0
 40
12.0
 40
13.0
 40
13.0
 40
13.0
 40
13.0
 10
92.35336369218945
 20
-96.91949324833958
 30
0.0
 10
92.32993704288974
 20
-96.87505151657986
 30
0.0
 10
92.30892196042971
 20
-96.82234155565553
 30
0.0
 10
92.30685490313857
 20
-96.5915201581438
 30
0.0
 10
92.30272078855627
 20
-96.34829641688515
 30
0.0
 10
92.24346514620997
 20
-96.27836097853458
 30
0.0
 10
92.06569821917108
 20
-96.27836097853458
 30
0.0
 10
92.06569821917108
 20
-96.27836097853458
 30
0.0
 10
91.65745440416897
 20
-96.27836097853458
 30
0.0
 10
91.65745440416897
 20
-96.27836097853458
 30
0.0
 10
91.65745440416897
 20
-96.27836097853458
 30
0.0
 10
91.65745440416897
 20
-96.91949324833958
 30
0.0
 10
91.65745440416897
 20
-96.91949324833958
 30
0.0
 10
91.65745440416897
 20
-96.91949324833958
 30
0.0
 10
91.42249889207494
 20
-96.91949324833958
 30
0.0
 10
91.42249889207494
 20
-96.91949324833958
 30
0.0
 10
91.42249889207494
 20
-96.91949324833958
 30
0.0
 10
91.42249889207494
 20
-95.37505694230207
 30
0.0
 10
91.42249889207494
 20
-95.37505694230207
 30
0.0
 10
91.42249889207494
 20
-95.37505694230207
 30
0.0
 10
92.09739309763538
 20
-95.37505694230207
 30
0.0
 10
92.09739309763538
 20
-95.37505694230207
 30
0.0
 10
92.40400659582261
 20
-95.37505694230207
 30
0.0
 10
92.57143823640575
 20
-95.54662269746751
 30
0.0
 10
92.57143823640575
 20
-95.80259329202158
 30
0.0
 10
92.57143823640575
 20
-95.85323619565474
 30
0.0
 10
92.56282549769263
 20
-95.93591848730075
 30
0.0
 10
92.51838376593291
 20
-96.01618921210707
 30
0.0
 10
92.45912812358661
 20
-96.11988658621308
 30
0.0
 10
92.39367130936687
 20
-96.13883461138197
 30
0.0
 10
92.33234860972942
 20
-96.15571557925969
 30
0.0
 10
92.46980791959089
 20
-96.19809025372825
 30
0.0
 10
92.53733179110178
 20
-96.24666610007029
 30
0.0
 10
92.5418104152326
 20
-96.56189233697064
 30
0.0
 10
92.5459445298149
 20
-96.83267684211128
 30
0.0
 10
92.58177352286151
 20
-96.86437172057558
 30
0.0
 10
92.64964190392092
 20
-96.91949324833958
 30
0.0
 10
92.64964190392092
 20
-96.91949324833958
 30
0.0
 10
92.35336369218945
 20
-96.91949324833958
 30
0.0
 10
92.35336369218945
 20
-96.91949324833958
 30
0.0
  0
SPLINE
  5
60
330
5B
100
AcDbEntity
  8
_U+30EC_U+30A4_U+30E4_U+30FC 1
370
     0
100
AcDbSpline
210
0.0
220
0.0
230
1.0
 70
    11
 71
     3
 72
    20
 73
    16
 74
     0
 42
0.0000000001
 43
0.0000000001
 12
1.0
 22
0.0
 32
0.0
 13
1.0
 23
0.0
 33
0.0
 40
0.0
 40
0.0
 40
0.0
 40
0.0
 40
1.0
 40
1.0
 40
1.0
 40
2.0
 40
2.0
 40
2.0
 40
3.0
 40
3.0
 40
3.0
 40
4.0
 40
4.0
 40
4.0
 40
5.0
 40
5.0
 40
5.0
 40
5.0
 10
92.10152721221768
 20
-95.58658580509642
 30
0.0
 10
92.10152721221768
 20
-95.58658580509642
 30
0.0
 10
91.65745440416897
 20
-95.58658580509642
 30
0.0
 10
91.65745440416897
 20
-95.58658580509642
 30
0.0
 10
91.65745440416897
 20
-95.58658580509642
 30
0.0
 10
91.65745440416897
 20
-96.06683211574024
 30
0.0
 10
91.65745440416897
 20
-96.06683211574024
 30
0.0
 10
91.65745440416897
 20
-96.06683211574024
 30
0.0
 10
92.09946015492653
 20
-96.06683211574024
 30
0.0
 10
92.09946015492653
 20
-96.06683211574024
 30
0.0
 10
92.19902341445025
 20
-96.06683211574024
 30
0.0
 10
92.33441566702056
 20
-95.99069550551621
 30
0.0
 10
92.33441566702056
 20
-95.81947425989931
 30
0.0
 10
92.33441566702056
 20
-95.74127059238413
 30
0.0
 10
92.30065373126511
 20
-95.58658580509642
 30
0.0
 10
92.10152721221768
 20
-95.58658580509642
 30
0.0
  0
HATCH
  5
61
330
5B
100
AcDbEntity
  8
_U+30EC_U+30A4_U+30E4_U+30FC 1
 62
   179
420
  2234388
100
AcDbHatch
 10
0.0
 20
0.0
 30
0.0
210
0.0
220
0.0
230
1.0
  2
SOLID
 70
     1
 71
     0
 91
        2
 92
        1
 93
        1
 72
     4
 94
        3
 73
     0
 74
     1
 95
       44
 96
       40
 40
0.0
 40
0.0
 40
0.0
 40
0.0
 40
1.0
 40
1.0
 40
1.0
 40
2.0
 40
2.0
 40
2.0
 40
3.0
 40
3.0
 40
3.0
 40
4.0
 40
4.0
 40
4.0
 40
5.0
 40
5.0
 40
5.0
 40
6.0
 40
6.0
 40
6.0
 40
7.0
 40
7.0
 40
7.0
 40
8.0
 40
8.0
 40
8.0
 40
9.0
 40
9.0
 40
9.0
 40
10.0
 40
10.0
 40
10.0
 40
11.0
 40
11.0
 40
11.0
 40
12.0
 40
12.0
 40
12.0
 40
13.0
 40
13.0
 40
13.0
 40
13.0
 10
92.35336369218945
 20
-96.91949324833958
 10
92.32993704288974
 20
-96.87505151657986
 10
92.30892196042971
 20
-96.82234155565553
 10
92.30685490313857
 20
-96.5915201581438
 10
92.30272078855627
 20
-96.34829641688515
 10
92.24346514620997
 20
-96.27836097853458
 10
92.06569821917108
 20
-96.27836097853458
 10
92.06569821917108
 20
-96.27836097853458
 10
91.65745440416897
 20
-96.27836097853458
 10
91.65745440416897
 20
-96.27836097853458
 10
91.65745440416897
 20
-96.27836097853458
 10
91.65745440416897
 20
-96.91949324833958
 10
91.65745440416897
 20
-96.91949324833958
 10
91.65745440416897
 20
-96.91949324833958
 10
91.42249889207494
 20
-96.91949324833958
 10
91.42249889207494
 20
-96.91949324833958
 10
91.42249889207494
 20
-96.91949324833958
 10
91.42249889207494
 20
-95.37505694230207
 10
91.42249889207494
 20
-95.37505694230207
 10
91.42249889207494
 20
-95.37505694230207
 10
92.09739309763538
 20
-95.37505694230207
 10
92.09739309763538
 20
-95.37505694230207
 10
92.40400659582261
 20
-95.37505694230207
 10
92.57143823640575
 20
-95.54662269746751
 10
92.57143823640575
 20
-95.80259329202158
 10
92.57143823640575
 20
-95.85323619565474
 10
92.56282549769263
 20
-95.93591848730075
 10
92.51838376593291
 20
-96.01618921210707
 10
92.45912812358661
 20
-96.11988658621308
 10
92.39367130936687
 20
-96.13883461138197
 10
92.33234860972942
 20
-96.15571557925969
 10
92.46980791959089
 20
-96.19809025372825
 10
92.53733179110178
 20
-96.24666610007029
 10
92.5418104152326
 20
-96.56189233697064
 10
92.5459445298149
 20
-96.83267684211128
 10
92.58177352286151
 20
-96.86437172057558
 10
92.64964190392092
 20
-96.91949324833958
 10
92.64964190392092
 20
-96.91949324833958
 10
92.35336369218945
 20
-96.91949324833958
 10
92.35336369218945
 20
-96.91949324833958
 97
        0
 97
        0
 92
        1
 93
        1
 72
     4
 94
        3
 73
     0
 74
     1
 95
       20
 96
       16
 40
0.0
 40
0.0
 40
0.0
 40
0.0
 40
1.0
 40
1.0
 40
1.0
 40
2.0
 40
2.0
 40
2.0
 40
3.0
 40
3.0
 40
3.0
 40
4.0
 40
4.0
 40
4.0
 40
5.0
 40
5.0
 40
5.0
 40
5.0
 10
92.10152721221768
 20
-95.58658580509642
 10
92.10152721221768
 20
-95.58658580509642
 10
91.65745440416897
 20
-95.58658580509642
 10
91.65745440416897
 20
-95.58658580509642
 10
91.65745440416897
 20
-95.58658580509642
 10
91.65745440416897
 20
-96.06683211574024
 10
91.65745440416897
 20
-96.06683211574024
 10
91.65745440416897
 20
-96.06683211574024
 10
92.09946015492653
 20
-96.06683211574024
 10
92.09946015492653
 20
-96.06683211574024
 10
92.19902341445025
 20
-96.06683211574024
 10
92.33441566702056
 20
-95.99069550551621
 10
92.33441566702056
 20
-95.81947425989931
 10
92.33441566702056
 20
-95.74127059238413
 10
92.30065373126511
 20
-95.58658580509642
 10
92.10152721221768
 20
-95.58658580509642
 97
        0
 97
        0
 75
     2
 76
     1
 98
        0
  0
SPLINE
  5
62
330
5B
100
AcDbEntity
  8
_U+30EC_U+30A4_U+30E4_U+30FC 1
370
     0
100
AcDbSpline
210
0.0
220
0.0
230
1.0
 70
    11
 71
     3
 72
    26
 73
    22
 74
     0
 42
0.0000000001
 43
0.0000000001
 12
1.0
 22
0.0
 32
0.0
 13
1.0
 23
0.0
 33
0.0
 40
0.0
 40
0.0
 40
0.0
 40
0.0
 40
1.0
 40
1.0
 40
1.0
 40
2.0
 40
2.0
 40
2.0
 40
3.0
 40
3.0
 40
3.0
 40
4.0
 40
4.0
 40
4.0
 40
5.0
 40
5.0
 40
5.0
 40
6.0
 40
6.0
 40
6.0
 40
7.0
 40
7.0
 40
7.0
 40
7.0
 10
93.24047577964127
 20
-96.91949324833958
 30
0.0
 10
93.24047577964127
 20
-96.91949324833958
 30
0.0
 10
93.24047577964127
 20
-95.81534014531701
 30
0.0
 10
93.24047577964127
 20
-95.81534014531701
 30
0.0
 10
93.24047577964127
 20
-95.81534014531701
 30
0.0
 10
92.91043563215435
 20
-95.81534014531701
 30
0.0
 10
92.91043563215435
 20
-95.81534014531701
 30
0.0
 10
92.91043563215435
 20
-95.81534014531701
 30
0.0
 10
92.91043563215435
 20
-95.66720103945126
 30
0.0
 10
92.91043563215435
 20
-95.66720103945126
 30
0.0
 10
93.24254283693243
 20
-95.65238712886469
 30
0.0
 10
93.28905162598329
 20
-95.48943411241237
 30
0.0
 10
93.31867944715644
 20
-95.37505694230207
 30
0.0
 10
93.31867944715644
 20
-95.37505694230207
 30
0.0
 10
93.46475149573104
 20
-95.37505694230207
 30
0.0
 10
93.46475149573104
 20
-95.37505694230207
 30
0.0
 10
93.46475149573104
 20
-95.37505694230207
 30
0.0
 10
93.46475149573104
 20
-96.91949324833958
 30
0.0
 10
93.46475149573104
 20
-96.91949324833958
 30
0.0
 10
93.46475149573104
 20
-96.91949324833958
 30
0.0
 10
93.24047577964127
 20
-96.91949324833958
 30
0.0
 10
93.24047577964127
 20
-96.91949324833958
 30
0.0
  0
HATCH
  5
63
330
5B
100
AcDbEntity
  8
_U+30EC_U+30A4_U+30E4_U+30FC 1
 62
   179
420
  2234388
100
AcDbHatch
 10
0.0
 20
0.0
 30
0.0
210
0.0
220
0.0
230
1.0
  2
SOLID
 70
     1
 71
     0
 91
        1
 92
        1
 93
        1
 72
     4
 94
        3
 73
     0
 74
     1
 95
       26
 96
       22
 40
0.0
 40
0.0
 40
0.0
 40
0.0
 40
1.0
 40
1.0
 40
1.0
 40
2.0
 40
2.0
 40
2.0
 40
3.0
 40
3.0
 40
3.0
 40
4.0
 40
4.0
 40
4.0
 40
5.0
 40
5.0
 40
5.0
 40
6.0
 40
6.0
 40
6.0
 40
7.0
 40
7.0
 40
7.0
 40
7.0
 10
93.24047577964127
 20
-96.91949324833958
 10
93.24047577964127
 20
-96.91949324833958
 10
93.24047577964127
 20
-95.81534014531701
 10
93.24047577964127
 20
-95.81534014531701
 10
93.24047577964127
 20
-95.81534014531701
 10
92.91043563215435
 20
-95.81534014531701
 10
92.91043563215435
 20
-95.81534014531701
 10
92.91043563215435
 20
-95.81534014531701
 10
92.91043563215435
 20
-95.66720103945126
 10
92.91043563215435
 20
-95.66720103945126
 10
93.24254283693243
 20
-95.65238712886469
 10
93.28905162598329
 20
-95.48943411241237
 10
93.31867944715644
 20
-95.37505694230207
 10
93.31867944715644
 20
-95.37505694230207
 10
93.46475149573104
 20
-95.37505694230207
 10
93.46475149573104
 20
-95.37505694230207
 10
93.46475149573104
 20
-95.37505694230207
 10
93.46475149573104
 20
-96.91949324833958
 10
93.46475149573104
 20
-96.91949324833958
 10
93.46475149573104
 20
-96.91949324833958
 10
93.24047577964127
 20
-96.91949324833958
 10
93.24047577964127
 20
-96.91949324833958
 97
        0
 97
        0
 75
     2
 76
     1
 98
        0
  0
POLYLINE
  5
64
330
5B
100
AcDbEntity
  8
_U+30EC_U+30A4_U+30E4_U+30FC 1
370
     0
100
AcDb2dPolyline
 66
     1
 10
0.0
 20
0.0
 30
0.0
  0
VERTEX
  5
65
330
64
100
AcDbEntity
  8
_U+30EC_U+30A4_U+30E4_U+30FC 1
370
     0
100
AcDbVertex
100
AcDb2dVertex
 10
94.02630205982676
 20
-96.91949324833958
 30
0.0
  0
VERTEX
  5
66
330
64
100
AcDbEntity
  8
_U+30EC_U+30A4_U+30E4_U+30FC 1
370
     0
100
AcDbVertex
100
AcDb2dVertex
 10
94.02630205982676
 20
-96.6676567683678
 30
0.0
  0
VERTEX
  5
67
330
64
100
AcDbEntity
  8
_U+30EC_U+30A4_U+30E4_U+30FC 1
370
     0
100
AcDbVertex
100
AcDb2dVertex
 10
94.27813853979852
 20
-96.6676567683678
 30
0.0
  0
VERTEX
  5
68
330
64
100
AcDbEntity
  8
_U+30EC_U+30A4_U+30E4_U+30FC 1
370
     0
100
AcDbVertex
100
AcDb2dVertex
 10
94.27813853979852
 20
-96.91949324833958
 30
0.0
  0
VERTEX
  5
69
330
64
100
AcDbEntity
  8
_U+30EC_U+30A4_U+30E4_U+30FC 1
370
     0
100
AcDbVertex
100
AcDb2dVertex
 10
94.02630205982676
 20
-96.91949324833958
 30
0.0
  0
SEQEND
  5
6A
330
64
100
AcDbEntity
  8
_U+30EC_U+30A4_U+30E4_U+30FC 1
370
     0
  0
HATCH
  5
6B
330
5B
100
AcDbEntity
  8
_U+30EC_U+30A4_U+30E4_U+30FC 1
 62
   179
420
  2234388
100
AcDbHatch
 10
0.0
 20
0.0
 30
0.0
210
0.0
220
0.0
230
1.0
  2
SOLID
 70
     1
 71
     0
 91
        1
 92
        1
 93
        4
 72
     1
 10
94.02630205982676
 20
-96.91949324833958
 11
94.02630205982676
 21
-96.6676567683678
 72
     1
 10
94.02630205982676
 20
-96.6676567683678
 11
94.27813853979852
 21
-96.6676567683678
 72
     1
 10
94.27813853979852
 20
-96.6676567683678
 11
94.27813853979852
 21
-96.91949324833958
 72
     1
 10
94.27813853979852
 20
-96.91949324833958
 11
94.02630205982676
 21
-96.91949324833958
 97
        0
 75
     2
 76
     1
 98
        0
  0
SPLINE
  5
6C
330
5B
100
AcDbEntity
  8
_U+30EC_U+30A4_U+30E4_U+30FC 1
370
     0
100
AcDbSpline
210
0.0
220
0.0
230
1.0
 70
    11
 71
     3
 72
    53
 73
    49
 74
     0
 42
0.0000000001
 43
0.0000000001
 12
1.0
 22
0.0
 32
0.0
 13
1.0
 23
0.0
 33
0.0
 40
0.0
 40
0.0
 40
0.0
 40
0.0
 40
1.0
 40
1.0
 40
1.0
 40
2.0
 40
2.0
 40
2.0
 40
3.0
 40
3.0
 40
3.0
 40
4.0
 40
4.0
 40
4.0
 40
5.0
 40
5.0
 40
5.0
 40
6.0
 40
6.0
 40
6.0
 40
7.0
 40
7.0
 40
7.0
 40
8.0
 40
8.0
 40
8.0
 40
9.0
 40
9.0
 40
9.0
 40
10.0
 40
10.0
 40
10.0
 40
11.0
 40
11.0
 40
11.0
 40
12.0
 40
12.0
 40
12.0
 40
13.0
 40
13.0
 40
13.0
 40
14.0
 40
14.0
 40
14.0
 40
15.0
 40
15.0
 40
15.0
 40
16.0
 40
16.0
 40
16.0
 40
16.0
 10
94.99540741982754
 20
-96.97013615197275
 30
0.0
 10
94.91720375231237
 20
-96.97013615197275
 30
0.0
 10
94.8155734354975
 20
-96.95325518409503
 30
0.0
 10
94.71394311868264
 20
-96.88986542716643
 30
0.0
 10
94.54065481577456
 20
-96.77996688118695
 30
0.0
 10
94.51929522376601
 20
-96.64870874319894
 30
0.0
 10
94.50034719859714
 20
-96.54087725451062
 30
0.0
 10
94.50034719859714
 20
-96.54087725451062
 30
0.0
 10
94.72255585739576
 20
-96.54087725451062
 30
0.0
 10
94.72255585739576
 20
-96.54087725451062
 30
0.0
 10
94.77733287561122
 20
-96.73965926400953
 30
0.0
 10
94.90445689901695
 20
-96.76928708518268
 30
0.0
 10
94.99747447711869
 20
-96.76928708518268
 30
0.0
 10
95.13700084427131
 20
-96.76928708518268
 30
0.0
 10
95.28927406471935
 20
-96.66972382565896
 30
0.0
 10
95.28927406471935
 20
-96.4371798804046
 30
0.0
 10
95.28927406471935
 20
-96.18120928585054
 30
0.0
 10
95.1094400803893
 20
-96.11127384749996
 30
0.0
 10
94.98886173840556
 20
-96.11127384749996
 30
0.0
 10
94.95716685994127
 20
-96.11127384749996
 30
0.0
 10
94.8155734354975
 20
-96.11127384749996
 30
0.0
 10
94.72668997197806
 20
-96.24046492819683
 30
0.0
 10
94.72668997197806
 20
-96.24046492819683
 30
0.0
 10
94.55099010223032
 20
-96.22151690302796
 30
0.0
 10
94.55099010223032
 20
-96.22151690302796
 30
0.0
 10
94.55099010223032
 20
-96.22151690302796
 30
0.0
 10
94.67156844421406
 20
-95.37505694230207
 30
0.0
 10
94.67156844421406
 20
-95.37505694230207
 30
0.0
 10
94.67156844421406
 20
-95.37505694230207
 30
0.0
 10
95.45016002388051
 20
-95.37505694230207
 30
0.0
 10
95.45016002388051
 20
-95.37505694230207
 30
0.0
 10
95.45016002388051
 20
-95.37505694230207
 30
0.0
 10
95.45016002388051
 20
-95.5697048372187
 30
0.0
 10
95.45016002388051
 20
-95.5697048372187
 30
0.0
 10
95.45016002388051
 20
-95.5697048372187
 30
0.0
 10
94.83452146066638
 20
-95.5697048372187
 30
0.0
 10
94.83452146066638
 20
-95.5697048372187
 30
0.0
 10
94.83452146066638
 20
-95.5697048372187
 30
0.0
 10
94.76906464644662
 20
-95.99276256280737
 30
0.0
 10
94.76906464644662
 20
-95.99276256280737
 30
0.0
 10
94.83038734608408
 20
-95.95900062705192
 30
0.0
 10
94.91272512818155
 20
-95.9186930098745
 30
0.0
 10
95.03123641287414
 20
-95.9186930098745
 30
0.0
 10
95.28513995013705
 20
-95.9186930098745
 30
0.0
 10
95.52216251952224
 20
-96.10507267562652
 30
0.0
 10
95.52216251952224
 20
-96.41823185523572
 30
0.0
 10
95.52216251952224
 20
-96.73552514942723
 30
0.0
 10
95.29788680343248
 20
-96.97013615197275
 30
0.0
 10
94.99540741982754
 20
-96.97013615197275
 30
0.0
  0
HATCH
  5
6D
330
5B
100
AcDbEntity
  8
_U+30EC_U+30A4_U+30E4_U+30FC 1
 62
   179
420
  2234388
100
AcDbHatch
 10
0.0
 20
0.0
 30
0.0
210
0.0
220
0.0
230
1.0
  2
SOLID
 70
     1
 71
     0
 91
        1
 92
        1
 93
        1
 72
     4
 94
        3
 73
     0
 74
     1
 95
       53
 96
       49
 40
0.0
 40
0.0
 40
0.0
 40
0.0
 40
1.0
 40
1.0
 40
1.0
 40
2.0
 40
2.0
 40
2.0
 40
3.0
 40
3.0
 40
3.0
 40
4.0
 40
4.0
 40
4.0
 40
5.0
 40
5.0
 40
5.0
 40
6.0
 40
6.0
 40
6.0
 40
7.0
 40
7.0
 40
7.0
 40
8.0
 40
8.0
 40
8.0
 40
9.0
 40
9.0
 40
9.0
 40
10.0
 40
10.0
 40
10.0
 40
11.0
 40
11.0
 40
11.0
 40
12.0
 40
12.0
 40
12.0
 40
13.0
 40
13.0
 40
13.0
 40
14.0
 40
14.0
 40
14.0
 40
15.0
 40
15.0
 40
15.0
 40
16.0
 40
16.0
 40
16.0
 40
16.0
 10
94.99540741982754
 20
-96.97013615197275
 10
94.91720375231237
 20
-96.97013615197275
 10
94.8155734354975
 20
-96.95325518409503
 10
94.71394311868264
 20
-96.88986542716643
 10
94.54065481577456
 20
-96.77996688118695
 10
94.51929522376601
 20
-96.64870874319894
 10
94.50034719859714
 20
-96.54087725451062
 10
94.50034719859714
 20
-96.54087725451062
 10
94.72255585739576
 20
-96.54087725451062
 10
94.72255585739576
 20
-96.54087725451062
 10
94.77733287561122
 20
-96.73965926400953
 10
94.90445689901695
 20
-96.76928708518268
 10
94.99747447711869
 20
-96.76928708518268
 10
95.13700084427131
 20
-96.76928708518268
 10
95.28927406471935
 20
-96.66972382565896
 10
95.28927406471935
 20
-96.4371798804046
 10
95.28927406471935
 20
-96.18120928585054
 10
95.1094400803893
 20
-96.11127384749996
 10
94.98886173840556
 20
-96.11127384749996
 10
94.95716685994127
 20
-96.11127384749996
 10
94.8155734354975
 20
-96.11127384749996
 10
94.72668997197806
 20
-96.24046492819683
 10
94.72668997197806
 20
-96.24046492819683
 10
94.55099010223032
 20
-96.22151690302796
 10
94.55099010223032
 20
-96.22151690302796
 10
94.55099010223032
 20
-96.22151690302796
 10
94.67156844421406
 20
-95.37505694230207
 10
94.67156844421406
 20
-95.37505694230207
 10
94.67156844421406
 20
-95.37505694230207
 10
95.45016002388051
 20
-95.37505694230207
 10
95.45016002388051
 20
-95.37505694230207
 10
95.45016002388051
 20
-95.37505694230207
 10
95.45016002388051
 20
-95.5697048372187
 10
95.45016002388051
 20
-95.5697048372187
 10
95.45016002388051
 20
-95.5697048372187
 10
94.83452146066638
 20
-95.5697048372187
 10
94.83452146066638
 20
-95.5697048372187
 10
94.83452146066638
 20
-95.5697048372187
 10
94.76906464644662
 20
-95.99276256280737
 10
94.76906464644662
 20
-95.99276256280737
 10
94.83038734608408
 20
-95.95900062705192
 10
94.91272512818155
 20
-95.9186930098745
 10
95.03123641287414
 20
-95.9186930098745
 10
95.28513995013705
 20
-95.9186930098745
 10
95.52216251952224
 20
-96.10507267562652
 10
95.52216251952224
 20
-96.41823185523572
 10
95.52216251952224
 20
-96.73552514942723
 10
95.29788680343248
 20
-96.97013615197275
 10
94.99540741982754
 20
-96.97013615197275
 97
        0
 97
        0
 75
     2
 76
     1
 98
        0
  0
ENDBLK
  5
5E
330
5B
100
AcDbEntity
  8
0
100
AcDbBlockEnd
  0
BLOCK
  5
7C
330
7A
100
AcDbEntity
  8
0
100
AcDbBlockBegin
  2
block 3
 70
     0
 10
0.0
 20
0.0
 30
0.0
  3
block 3
  1

  0
SPLINE
  5
7E
330
7A
100
AcDbEntity
  8
_U+30EC_U+30A4_U+30E4_U+30FC 1
370
     0
100
AcDbSpline
210
0.0
220
0.0
230
1.0
 70
    11
 71
     3
 72
    44
 73
    40
 74
     0
 42
0.0000000001
 43
0.0000000001
 12
1.0
 22
0.0
 32
0.0
 13
1.0
 23
0.0
 33
0.0
 40
0.0
 40
0.0
 40
0.0
 40
0.0
 40
1.0
 40
1.0
 40
1.0
 40
2.0
 40
2.0
 40
2.0
 40
3.0
 40
3.0
 40
3.0
 40
4.0
 40
4.0
 40
4.0
 40
5.0
 40
5.0
 40
5.0
 40
6.0
 40
6.0
 40
6.0
 40
7.0
 40
7.0
 40
7.0
 40
8.0
 40
8.0
 40
8.0
 40
9.0
 40
9.0
 40
9.0
 40
10.0
 40
10.0
 40
10.0
 40
11.0
 40
11.0
 40
11.0
 40
12.0
 40
12.0
 40
12.0
 40
13.0
 40
13.0
 40
13.0
 40
13.0
 10
92.37368975555242
 20
-164.2235676672775
 30
0.0
 10
92.35026310625271
 20
-164.1791259355177
 30
0.0
 10
92.32924802379269
 20
-164.1264159745934
 30
0.0
 10
92.32718096650154
 20
-163.8955945770817
 30
0.0
 10
92.32304685191924
 20
-163.652370835823
 30
0.0
 10
92.26379120957294
 20
-163.5824353974725
 30
0.0
 10
92.08602428253405
 20
-163.5824353974725
 30
0.0
 10
92.08602428253405
 20
-163.5824353974725
 30
0.0
 10
91.67778046753195
 20
-163.5824353974725
 30
0.0
 10
91.67778046753195
 20
-163.5824353974725
 30
0.0
 10
91.67778046753195
 20
-163.5824353974725
 30
0.0
 10
91.67778046753195
 20
-164.2235676672775
 30
0.0
 10
91.67778046753195
 20
-164.2235676672775
 30
0.0
 10
91.67778046753195
 20
-164.2235676672775
 30
0.0
 10
91.44282495543791
 20
-164.2235676672775
 30
0.0
 10
91.44282495543791
 20
-164.2235676672775
 30
0.0
 10
91.44282495543791
 20
-164.2235676672775
 30
0.0
 10
91.44282495543791
 20
-162.6791313612399
 30
0.0
 10
91.44282495543791
 20
-162.6791313612399
 30
0.0
 10
91.44282495543791
 20
-162.6791313612399
 30
0.0
 10
92.11771916099835
 20
-162.6791313612399
 30
0.0
 10
92.11771916099835
 20
-162.6791313612399
 30
0.0
 10
92.4243326591856
 20
-162.6791313612399
 30
0.0
 10
92.59176429976873
 20
-162.8506971164054
 30
0.0
 10
92.59176429976873
 20
-163.1066677109594
 30
0.0
 10
92.59176429976873
 20
-163.1573106145926
 30
0.0
 10
92.5831515610556
 20
-163.2399929062386
 30
0.0
 10
92.53870982929588
 20
-163.320263631045
 30
0.0
 10
92.47945418694958
 20
-163.423961005151
 30
0.0
 10
92.41399737272984
 20
-163.4429090303198
 30
0.0
 10
92.3526746730924
 20
-163.4597899981976
 30
0.0
 10
92.49013398295386
 20
-163.5021646726661
 30
0.0
 10
92.55765785446475
 20
-163.5507405190081
 30
0.0
 10
92.56213647859558
 20
-163.8659667559085
 30
0.0
 10
92.56627059317788
 20
-164.1367512610491
 30
0.0
 10
92.60209958622448
 20
-164.1684461395135
 30
0.0
 10
92.6699679672839
 20
-164.2235676672775
 30
0.0
 10
92.6699679672839
 20
-164.2235676672775
 30
0.0
 10
92.37368975555242
 20
-164.2235676672775
 30
0.0
 10
92.37368975555242
 20
-164.2235676672775
 30
0.0
  0
SPLINE
  5
7F
330
7A
100
AcDbEntity
  8
_U+30EC_U+30A4_U+30E4_U+30FC 1
370
     0
100
AcDbSpline
210
0.0
220
0.0
230
1.0
 70
    11
 71
     3
 72
    20
 73
    16
 74
     0
 42
0.0000000001
 43
0.0000000001
 12
1.0
 22
0.0
 32
0.0
 13
1.0
 23
0.0
 33
0.0
 40
0.0
 40
0.0
 40
0.0
 40
0.0
 40
1.0
 40
1.0
 40
1.0
 40
2.0
 40
2.0
 40
2.0
 40
3.0
 40
3.0
 40
3.0
 40
4.0
 40
4.0
 40
4.0
 40
5.0
 40
5.0
 40
5.0
 40
5.0
 10
92.12185327558065
 20
-162.8906602240343
 30
0.0
 10
92.12185327558065
 20
-162.8906602240343
 30
0.0
 10
91.67778046753195
 20
-162.8906602240343
 30
0.0
 10
91.67778046753195
 20
-162.8906602240343
 30
0.0
 10
91.67778046753195
 20
-162.8906602240343
 30
0.0
 10
91.67778046753195
 20
-163.3709065346781
 30
0.0
 10
91.67778046753195
 20
-163.3709065346781
 30
0.0
 10
91.67778046753195
 20
-163.3709065346781
 30
0.0
 10
92.1197862182895
 20
-163.3709065346781
 30
0.0
 10
92.1197862182895
 20
-163.3709065346781
 30
0.0
 10
92.21934947781322
 20
-163.3709065346781
 30
0.0
 10
92.35474173038354
 20
-163.2947699244541
 30
0.0
 10
92.35474173038354
 20
-163.1235486788372
 30
0.0
 10
92.35474173038354
 20
-163.045345011322
 30
0.0
 10
92.32097979462809
 20
-162.8906602240343
 30
0.0
 10
92.12185327558065
 20
-162.8906602240343
 30
0.0
  0
HATCH
  5
80
330
7A
100
AcDbEntity
  8
_U+30EC_U+30A4_U+30E4_U+30FC 1
 62
   179
420
  2234388
100
AcDbHatch
 10
0.0
 20
0.0
 30
0.0
210
0.0
220
0.0
230
1.0
  2
SOLID
 70
     1
 71
     0
 91
        2
 92
        1
 93
        1
 72
     4
 94
        3
 73
     0
 74
     1
 95
       44
 96
       40
 40
0.0
 40
0.0
 40
0.0
 40
0.0
 40
1.0
 40
1.0
 40
1.0
 40
2.0
 40
2.0
 40
2.0
 40
3.0
 40
3.0
 40
3.0
 40
4.0
 40
4.0
 40
4.0
 40
5.0
 40
5.0
 40
5.0
 40
6.0
 40
6.0
 40
6.0
 40
7.0
 40
7.0
 40
7.0
 40
8.0
 40
8.0
 40
8.0
 40
9.0
 40
9.0
 40
9.0
 40
10.0
 40
10.0
 40
10.0
 40
11.0
 40
11.0
 40
11.0
 40
12.0
 40
12.0
 40
12.0
 40
13.0
 40
13.0
 40
13.0
 40
13.0
 10
92.37368975555242
 20
-164.2235676672775
 10
92.35026310625271
 20
-164.1791259355177
 10
92.32924802379269
 20
-164.1264159745934
 10
92.32718096650154
 20
-163.8955945770817
 10
92.32304685191924
 20
-163.652370835823
 10
92.26379120957294
 20
-163.5824353974725
 10
92.08602428253405
 20
-163.5824353974725
 10
92.08602428253405
 20
-163.5824353974725
 10
91.67778046753195
 20
-163.5824353974725
 10
91.67778046753195
 20
-163.5824353974725
 10
91.67778046753195
 20
-163.5824353974725
 10
91.67778046753195
 20
-164.2235676672775
 10
91.67778046753195
 20
-164.2235676672775
 10
91.67778046753195
 20
-164.2235676672775
 10
91.44282495543791
 20
-164.2235676672775
 10
91.44282495543791
 20
-164.2235676672775
 10
91.44282495543791
 20
-164.2235676672775
 10
91.44282495543791
 20
-162.6791313612399
 10
91.44282495543791
 20
-162.6791313612399
 10
91.44282495543791
 20
-162.6791313612399
 10
92.11771916099835
 20
-162.6791313612399
 10
92.11771916099835
 20
-162.6791313612399
 10
92.4243326591856
 20
-162.6791313612399
 10
92.59176429976873
 20
-162.8506971164054
 10
92.59176429976873
 20
-163.1066677109594
 10
92.59176429976873
 20
-163.1573106145926
 10
92.5831515610556
 20
-163.2399929062386
 10
92.53870982929588
 20
-163.320263631045
 10
92.47945418694958
 20
-163.423961005151
 10
92.41399737272984
 20
-163.4429090303198
 10
92.3526746730924
 20
-163.4597899981976
 10
92.49013398295386
 20
-163.5021646726661
 10
92.55765785446475
 20
-163.5507405190081
 10
92.56213647859558
 20
-163.8659667559085
 10
92.56627059317788
 20
-164.1367512610491
 10
92.60209958622448
 20
-164.1684461395135
 10
92.6699679672839
 20
-164.2235676672775
 10
92.6699679672839
 20
-164.2235676672775
 10
92.37368975555242
 20
-164.2235676672775
 10
92.37368975555242
 20
-164.2235676672775
 97
        0
 97
        0
 92
        1
 93
        1
 72
     4
 94
        3
 73
     0
 74
     1
 95
       20
 96
       16
 40
0.0
 40
0.0
 40
0.0
 40
0.0
 40
1.0
 40
1.0
 40
1.0
 40
2.0
 40
2.0
 40
2.0
 40
3.0
 40
3.0
 40
3.0
 40
4.0
 40
4.0
 40
4.0
 40
5.0
 40
5.0
 40
5.0
 40
5.0
 10
92.12185327558065
 20
-162.8906602240343
 10
92.12185327558065
 20
-162.8906602240343
 10
91.67778046753195
 20
-162.8906602240343
 10
91.67778046753195
 20
-162.8906602240343
 10
91.67778046753195
 20
-162.8906602240343
 10
91.67778046753195
 20
-163.3709065346781
 10
91.67778046753195
 20
-163.3709065346781
 10
91.67778046753195
 20
-163.3709065346781
 10
92.1197862182895
 20
-163.3709065346781
 10
92.1197862182895
 20
-163.3709065346781
 10
92.21934947781322
 20
-163.3709065346781
 10
92.35474173038354
 20
-163.2947699244541
 10
92.35474173038354
 20
-163.1235486788372
 10
92.35474173038354
 20
-163.045345011322
 10
92.32097979462809
 20
-162.8906602240343
 10
92.12185327558065
 20
-162.8906602240343
 97
        0
 97
        0
 75
     2
 76
     1
 98
        0
  0
SPLINE
  5
81
330
7A
100
AcDbEntity
  8
_U+30EC_U+30A4_U+30E4_U+30FC 1
370
     0
100
AcDbSpline
210
0.0
220
0.0
230
1.0
 70
    11
 71
     3
 72
    29
 73
    25
 74
     0
 42
0.0000000001
 43
0.0000000001
 12
1.0
 22
0.0
 32
0.0
 13
1.0
 23
0.0
 33
0.0
 40
0.0
 40
0.0
 40
0.0
 40
0.0
 40
1.0
 40
1.0
 40
1.0
 40
2.0
 40
2.0
 40
2.0
 40
3.0
 40
3.0
 40
3.0
 40
4.0
 40
4.0
 40
4.0
 40
5.0
 40
5.0
 40
5.0
 40
6.0
 40
6.0
 40
6.0
 40
7.0
 40
7.0
 40
7.0
 40
8.0
 40
8.0
 40
8.0
 40
8.0
 10
93.70728621789263
 20
-164.0458007402385
 30
0.0
 10
93.59945472920431
 20
-164.2552625457417
 30
0.0
 10
93.42582191674772
 20
-164.2742105709106
 30
0.0
 10
93.30937768934628
 20
-164.2742105709106
 30
0.0
 10
93.14883623973363
 20
-164.2742105709106
 30
0.0
 10
93.00689830574133
 20
-164.2277017818597
 30
0.0
 10
92.91181367034844
 20
-164.0458007402385
 30
0.0
 10
92.80811629624242
 20
-163.8511528453219
 30
0.0
 10
92.78916827107355
 20
-163.6144747854853
 30
0.0
 10
92.78916827107355
 20
-163.451521769033
 30
0.0
 10
92.78916827107355
 20
-163.3075167777495
 30
0.0
 10
92.80604923895127
 20
-163.0556802977777
 30
0.0
 10
92.91181367034844
 20
-162.8568982882788
 30
0.0
 10
93.01964515903676
 20
-162.6539821641976
 30
0.0
 10
93.18053111819793
 20
-162.6305555148979
 30
0.0
 10
93.30937768934628
 20
-162.6305555148979
 30
0.0
 10
93.46819659121628
 20
-162.6305555148979
 30
0.0
 10
93.61185707295121
 20
-162.6749972466577
 30
0.0
 10
93.70728621789263
 20
-162.8568982882788
 30
0.0
 10
93.80684947741635
 20
-163.0494791259043
 30
0.0
 10
93.82993161716752
 20
-163.2778889565764
 30
0.0
 10
93.82993161716752
 20
-163.451521769033
 30
0.0
 10
93.82993161716752
 20
-163.6227430146499
 30
0.0
 10
93.80891653470749
 20
-163.8532199026131
 30
0.0
 10
93.70728621789263
 20
-164.0458007402385
 30
0.0
  0
SPLINE
  5
82
330
7A
100
AcDbEntity
  8
_U+30EC_U+30A4_U+30E4_U+30FC 1
370
     0
100
AcDbSpline
210
0.0
220
0.0
230
1.0
 70
    11
 71
     3
 72
    17
 73
    13
 74
     0
 42
0.0000000001
 43
0.0000000001
 12
1.0
 22
0.0
 32
0.0
 13
1.0
 23
0.0
 33
0.0
 40
0.0
 40
0.0
 40
0.0
 40
0.0
 40
1.0
 40
1.0
 40
1.0
 40
2.0
 40
2.0
 40
2.0
 40
3.0
 40
3.0
 40
3.0
 40
4.0
 40
4.0
 40
4.0
 40
4.0
 10
93.30937768934628
 20
-162.8231363525234
 30
0.0
 10
93.05995277621419
 20
-162.8231363525234
 30
0.0
 10
93.01344398716331
 20
-163.1066677109594
 30
0.0
 10
93.01344398716331
 20
-163.451521769033
 30
0.0
 10
93.01344398716331
 20
-163.7708821205156
 30
0.0
 10
93.0492729802099
 20
-164.079562675994
 30
0.0
 10
93.30937768934628
 20
-164.079562675994
 30
0.0
 10
93.55708005473574
 20
-164.079562675994
 30
0.0
 10
93.60565590107775
 20
-163.7984428843976
 30
0.0
 10
93.60565590107775
 20
-163.451521769033
 30
0.0
 10
93.60565590107775
 20
-163.1318169080018
 30
0.0
 10
93.56775985074
 20
-162.8231363525234
 30
0.0
 10
93.30937768934628
 20
-162.8231363525234
 30
0.0
  0
HATCH
  5
83
330
7A
100
AcDbEntity
  8
_U+30EC_U+30A4_U+30E4_U+30FC 1
 62
   179
420
  2234388
100
AcDbHatch
 10
0.0
 20
0.0
 30
0.0
210
0.0
220
0.0
230
1.0
  2
SOLID
 70
     1
 71
     0
 91
        2
 92
        1
 93
        1
 72
     4
 94
        3
 73
     0
 74
     1
 95
       29
 96
       25
 40
0.0
 40
0.0
 40
0.0
 40
0.0
 40
1.0
 40
1.0
 40
1.0
 40
2.0
 40
2.0
 40
2.0
 40
3.0
 40
3.0
 40
3.0
 40
4.0
 40
4.0
 40
4.0
 40
5.0
 40
5.0
 40
5.0
 40
6.0
 40
6.0
 40
6.0
 40
7.0
 40
7.0
 40
7.0
 40
8.0
 40
8.0
 40
8.0
 40
8.0
 10
93.70728621789263
 20
-164.0458007402385
 10
93.59945472920431
 20
-164.2552625457417
 10
93.42582191674772
 20
-164.2742105709106
 10
93.30937768934628
 20
-164.2742105709106
 10
93.14883623973363
 20
-164.2742105709106
 10
93.00689830574133
 20
-164.2277017818597
 10
92.91181367034844
 20
-164.0458007402385
 10
92.80811629624242
 20
-163.8511528453219
 10
92.78916827107355
 20
-163.6144747854853
 10
92.78916827107355
 20
-163.451521769033
 10
92.78916827107355
 20
-163.3075167777495
 10
92.80604923895127
 20
-163.0556802977777
 10
92.91181367034844
 20
-162.8568982882788
 10
93.01964515903676
 20
-162.6539821641976
 10
93.18053111819793
 20
-162.6305555148979
 10
93.30937768934628
 20
-162.6305555148979
 10
93.46819659121628
 20
-162.6305555148979
 10
93.61185707295121
 20
-162.6749972466577
 10
93.70728621789263
 20
-162.8568982882788
 10
93.80684947741635
 20
-163.0494791259043
 10
93.82993161716752
 20
-163.2778889565764
 10
93.82993161716752
 20
-163.451521769033
 10
93.82993161716752
 20
-163.6227430146499
 10
93.80891653470749
 20
-163.8532199026131
 10
93.70728621789263
 20
-164.0458007402385
 97
        0
 97
        0
 92
        1
 93
        1
 72
     4
 94
        3
 73
     0
 74
     1
 95
       17
 96
       13
 40
0.0
 40
0.0
 40
0.0
 40
0.0
 40
1.0
 40
1.0
 40
1.0
 40
2.0
 40
2.0
 40
2.0
 40
3.0
 40
3.0
 40
3.0
 40
4.0
 40
4.0
 40
4.0
 40
4.0
 10
93.30937768934628
 20
-162.8231363525234
 10
93.05995277621419
 20
-162.8231363525234
 10
93.01344398716331
 20
-163.1066677109594
 10
93.01344398716331
 20
-163.451521769033
 10
93.01344398716331
 20
-163.7708821205156
 10
93.0492729802099
 20
-164.079562675994
 10
93.30937768934628
 20
-164.079562675994
 10
93.55708005473574
 20
-164.079562675994
 10
93.60565590107775
 20
-163.7984428843976
 10
93.60565590107775
 20
-163.451521769033
 10
93.60565590107775
 20
-163.1318169080018
 10
93.56775985074
 20
-162.8231363525234
 10
93.30937768934628
 20
-162.8231363525234
 97
        0
 97
        0
 75
     2
 76
     1
 98
        0
  0
POLYLINE
  5
84
330
7A
100
AcDbEntity
  8
_U+30EC_U+30A4_U+30E4_U+30FC 1
370
     0
100
AcDb2dPolyline
 66
     1
 10
0.0
 20
0.0
 30
0.0
  0
VERTEX
  5
85
330
84
100
AcDbEntity
  8
_U+30EC_U+30A4_U+30E4_U+30FC 1
370
     0
100
AcDbVertex
100
AcDb2dVertex
 10
94.04662812318973
 20
-164.2235676672775
 30
0.0
  0
VERTEX
  5
86
330
84
100
AcDbEntity
  8
_U+30EC_U+30A4_U+30E4_U+30FC 1
370
     0
100
AcDbVertex
100
AcDb2dVertex
 10
94.04662812318973
 20
-163.9717311873057
 30
0.0
  0
VERTEX
  5
87
330
84
100
AcDbEntity
  8
_U+30EC_U+30A4_U+30E4_U+30FC 1
370
     0
100
AcDbVertex
100
AcDb2dVertex
 10
94.2984646031615
 20
-163.9717311873057
 30
0.0
  0
VERTEX
  5
88
330
84
100
AcDbEntity
  8
_U+30EC_U+30A4_U+30E4_U+30FC 1
370
     0
100
AcDbVertex
100
AcDb2dVertex
 10
94.2984646031615
 20
-164.2235676672775
 30
0.0
  0
VERTEX
  5
89
330
84
100
AcDbEntity
  8
_U+30EC_U+30A4_U+30E4_U+30FC 1
370
     0
100
AcDbVertex
100
AcDb2dVertex
 10
94.04662812318973
 20
-164.2235676672775
 30
0.0
  0
SEQEND
  5
8A
330
84
100
AcDbEntity
  8
_U+30EC_U+30A4_U+30E4_U+30FC 1
370
     0
  0
HATCH
  5
8B
330
7A
100
AcDbEntity
  8
_U+30EC_U+30A4_U+30E4_U+30FC 1
 62
   179
420
  2234388
100
AcDbHatch
 10
0.0
 20
0.0
 30
0.0
210
0.0
220
0.0
230
1.0
  2
SOLID
 70
     1
 71
     0
 91
        1
 92
        1
 93
        4
 72
     1
 10
94.04662812318973
 20
-164.2235676672775
 11
94.04662812318973
 21
-163.9717311873057
 72
     1
 10
94.04662812318973
 20
-163.9717311873057
 11
94.2984646031615
 21
-163.9717311873057
 72
     1
 10
94.2984646031615
 20
-163.9717311873057
 11
94.2984646031615
 21
-164.2235676672775
 72
     1
 10
94.2984646031615
 20
-164.2235676672775
 11
94.04662812318973
 21
-164.2235676672775
 97
        0
 75
     2
 76
     1
 98
        0
  0
SPLINE
  5
8C
330
7A
100
AcDbEntity
  8
_U+30EC_U+30A4_U+30E4_U+30FC 1
370
     0
100
AcDbSpline
210
0.0
220
0.0
230
1.0
 70
    11
 71
     3
 72
    53
 73
    49
 74
     0
 42
0.0000000001
 43
0.0000000001
 12
1.0
 22
0.0
 32
0.0
 13
1.0
 23
0.0
 33
0.0
 40
0.0
 40
0.0
 40
0.0
 40
0.0
 40
1.0
 40
1.0
 40
1.0
 40
2.0
 40
2.0
 40
2.0
 40
3.0
 40
3.0
 40
3.0
 40
4.0
 40
4.0
 40
4.0
 40
5.0
 40
5.0
 40
5.0
 40
6.0
 40
6.0
 40
6.0
 40
7.0
 40
7.0
 40
7.0
 40
8.0
 40
8.0
 40
8.0
 40
9.0
 40
9.0
 40
9.0
 40
10.0
 40
10.0
 40
10.0
 40
11.0
 40
11.0
 40
11.0
 40
12.0
 40
12.0
 40
12.0
 40
13.0
 40
13.0
 40
13.0
 40
14.0
 40
14.0
 40
14.0
 40
15.0
 40
15.0
 40
15.0
 40
16.0
 40
16.0
 40
16.0
 40
16.0
 10
95.01573348319052
 20
-164.2742105709106
 30
0.0
 10
94.93752981567535
 20
-164.2742105709106
 30
0.0
 10
94.83589949886047
 20
-164.2573296030329
 30
0.0
 10
94.73426918204561
 20
-164.1939398461043
 30
0.0
 10
94.56098087913753
 20
-164.0840413001248
 30
0.0
 10
94.539621287129
 20
-163.9527831621368
 30
0.0
 10
94.52067326196011
 20
-163.8449516734485
 30
0.0
 10
94.52067326196011
 20
-163.8449516734485
 30
0.0
 10
94.74288192075873
 20
-163.8449516734485
 30
0.0
 10
94.74288192075873
 20
-163.8449516734485
 30
0.0
 10
94.7976589389742
 20
-164.0437336829474
 30
0.0
 10
94.92478296237992
 20
-164.0733615041206
 30
0.0
 10
95.01780054048166
 20
-164.0733615041206
 30
0.0
 10
95.15732690763429
 20
-164.0733615041206
 30
0.0
 10
95.30960012808232
 20
-163.9737982445968
 30
0.0
 10
95.30960012808232
 20
-163.7412542993425
 30
0.0
 10
95.30960012808232
 20
-163.4852837047884
 30
0.0
 10
95.12976614375229
 20
-163.4153482664378
 30
0.0
 10
95.00918780176855
 20
-163.4153482664378
 30
0.0
 10
94.97749292330424
 20
-163.4153482664378
 30
0.0
 10
94.83589949886047
 20
-163.4153482664378
 30
0.0
 10
94.74701603534103
 20
-163.5445393471347
 30
0.0
 10
94.74701603534103
 20
-163.5445393471347
 30
0.0
 10
94.57131616559329
 20
-163.5255913219658
 30
0.0
 10
94.57131616559329
 20
-163.5255913219658
 30
0.0
 10
94.57131616559329
 20
-163.5255913219658
 30
0.0
 10
94.69189450757703
 20
-162.6791313612399
 30
0.0
 10
94.69189450757703
 20
-162.6791313612399
 30
0.0
 10
94.69189450757703
 20
-162.6791313612399
 30
0.0
 10
95.4704860872435
 20
-162.6791313612399
 30
0.0
 10
95.4704860872435
 20
-162.6791313612399
 30
0.0
 10
95.4704860872435
 20
-162.6791313612399
 30
0.0
 10
95.4704860872435
 20
-162.8737792561566
 30
0.0
 10
95.4704860872435
 20
-162.8737792561566
 30
0.0
 10
95.4704860872435
 20
-162.8737792561566
 30
0.0
 10
94.85484752402935
 20
-162.8737792561566
 30
0.0
 10
94.85484752402935
 20
-162.8737792561566
 30
0.0
 10
94.85484752402935
 20
-162.8737792561566
 30
0.0
 10
94.7893907098096
 20
-163.2968369817452
 30
0.0
 10
94.7893907098096
 20
-163.2968369817452
 30
0.0
 10
94.85071340944705
 20
-163.2630750459898
 30
0.0
 10
94.93305119154452
 20
-163.2227674288124
 30
0.0
 10
95.05156247623711
 20
-163.2227674288124
 30
0.0
 10
95.30546601350002
 20
-163.2227674288124
 30
0.0
 10
95.54248858288521
 20
-163.4091470945644
 30
0.0
 10
95.54248858288521
 20
-163.7223062741736
 30
0.0
 10
95.54248858288521
 20
-164.0395995683651
 30
0.0
 10
95.31821286679545
 20
-164.2742105709106
 30
0.0
 10
95.01573348319052
 20
-164.2742105709106
 30
0.0
  0
HATCH
  5
8D
330
7A
100
AcDbEntity
  8
_U+30EC_U+30A4_U+30E4_U+30FC 1
 62
   179
420
  2234388
100
AcDbHatch
 10
0.0
 20
0.0
 30
0.0
210
0.0
220
0.0
230
1.0
  2
SOLID
 70
     1
 71
     0
 91
        1
 92
        1
 93
        1
 72
     4
 94
        3
 73
     0
 74
     1
 95
       53
 96
       49
 40
0.0
 40
0.0
 40
0.0
 40
0.0
 40
1.0
 40
1.0
 40
1.0
 40
2.0
 40
2.0
 40
2.0
 40
3.0
 40
3.0
 40
3.0
 40
4.0
 40
4.0
 40
4.0
 40
5.0
 40
5.0
 40
5.0
 40
6.0
 40
6.0
 40
6.0
 40
7.0
 40
7.0
 40
7.0
 40
8.0
 40
8.0
 40
8.0
 40
9.0
 40
9.0
 40
9.0
 40
10.0
 40
10.0
 40
10.0
 40
11.0
 40
11.0
 40
11.0
 40
12.0
 40
12.0
 40
12.0
 40
13.0
 40
13.0
 40
13.0
 40
14.0
 40
14.0
 40
14.0
 40
15.0
 40
15.0
 40
15.0
 40
16.0
 40
16.0
 40
16.0
 40
16.0
 10
95.01573348319052
 20
-164.2742105709106
 10
94.93752981567535
 20
-164.2742105709106
 10
94.83589949886047
 20
-164.2573296030329
 10
94.73426918204561
 20
-164.1939398461043
 10
94.56098087913753
 20
-164.0840413001248
 10
94.539621287129
 20
-163.9527831621368
 10
94.52067326196011
 20
-163.8449516734485
 10
94.52067326196011
 20
-163.8449516734485
 10
94.74288192075873
 20
-163.8449516734485
 10
94.74288192075873
 20
-163.8449516734485
 10
94.7976589389742
 20
-164.0437336829474
 10
94.92478296237992
 20
-164.0733615041206
 10
95.01780054048166
 20
-164.0733615041206
 10
95.15732690763429
 20
-164.0733615041206
 10
95.30960012808232
 20
-163.9737982445968
 10
95.30960012808232
 20
-163.7412542993425
 10
95.30960012808232
 20
-163.4852837047884
 10
95.12976614375229
 20
-163.4153482664378
 10
95.00918780176855
 20
-163.4153482664378
 10
94.97749292330424
 20
-163.4153482664378
 10
94.83589949886047
 20
-163.4153482664378
 10
94.74701603534103
 20
-163.5445393471347
 10
94.74701603534103
 20
-163.5445393471347
 10
94.57131616559329
 20
-163.5255913219658
 10
94.57131616559329
 20
-163.5255913219658
 10
94.57131616559329
 20
-163.5255913219658
 10
94.69189450757703
 20
-162.6791313612399
 10
94.69189450757703
 20
-162.6791313612399
 10
94.69189450757703
 20
-162.6791313612399
 10
95.4704860872435
 20
-162.6791313612399
 10
95.4704860872435
 20
-162.6791313612399
 10
95.4704860872435
 20
-162.6791313612399
 10
95.4704860872435
 20
-162.8737792561566
 10
95.4704860872435
 20
-162.8737792561566
 10
95.4704860872435
 20
-162.8737792561566
 10
94.85484752402935
 20
-162.8737792561566
 10
94.85484752402935
 20
-162.8737792561566
 10
94.85484752402935
 20
-162.8737792561566
 10
94.7893907098096
 20
-163.2968369817452
 10
94.7893907098096
 20
-163.2968369817452
 10
94.85071340944705
 20
-163.2630750459898
 10
94.93305119154452
 20
-163.2227674288124
 10
95.05156247623711
 20
-163.2227674288124
 10
95.30546601350002
 20
-163.2227674288124
 10
95.54248858288521
 20
-163.4091470945644
 10
95.54248858288521
 20
-163.7223062741736
 10
95.54248858288521
 20
-164.0395995683651
 10
95.31821286679545
 20
-164.2742105709106
 10
95.01573348319052
 20
-164.2742105709106
 97
        0
 97
        0
 75
     2
 76
     1
 98
        0
  0
ENDBLK
  5
7D
330
7A
100
AcDbEntity
  8
0
100
AcDbBlockEnd
  0
BLOCK
  5
90
330
8E
100
AcDbEntity
  8
0
100
AcDbBlockBegin
  2
block 4
 70
     0
 10
0.0
 20
0.0
 30
0.0
  3
block 4
  1

  0
SPLINE
  5
92
330
8E
100
AcDbEntity
  8
_U+30EC_U+30A4_U+30E4_U+30FC 1
370
     0
100
AcDbSpline
210
0.0
220
0.0
230
1.0
 70
    11
 71
     3
 72
    26
 73
    22
 74
     0
 42
0.0000000001
 43
0.0000000001
 12
1.0
 22
0.0
 32
0.0
 13
1.0
 23
0.0
 33
0.0
 40
0.0
 40
0.0
 40
0.0
 40
0.0
 40
1.0
 40
1.0
 40
1.0
 40
2.0
 40
2.0
 40
2.0
 40
3.0
 40
3.0
 40
3.0
 40
4.0
 40
4.0
 40
4.0
 40
5.0
 40
5.0
 40
5.0
 40
6.0
 40
6.0
 40
6.0
 40
7.0
 40
7.0
 40
7.0
 40
7.0
 10
86.03678111998387
 20
-93.78859047134452
 30
0.0
 10
86.03678111998387
 20
-93.78859047134452
 30
0.0
 10
86.03678111998387
 20
-92.68443736832195
 30
0.0
 10
86.03678111998387
 20
-92.68443736832195
 30
0.0
 10
86.03678111998387
 20
-92.68443736832195
 30
0.0
 10
85.70674097249693
 20
-92.68443736832195
 30
0.0
 10
85.70674097249693
 20
-92.68443736832195
 30
0.0
 10
85.70674097249693
 20
-92.68443736832195
 30
0.0
 10
85.70674097249693
 20
-92.53629826245621
 30
0.0
 10
85.70674097249693
 20
-92.53629826245621
 30
0.0
 10
86.03884817727501
 20
-92.52148435186963
 30
0.0
 10
86.08535696632589
 20
-92.35853133541731
 30
0.0
 10
86.11498478749904
 20
-92.24415416530702
 30
0.0
 10
86.11498478749904
 20
-92.24415416530702
 30
0.0
 10
86.26105683607364
 20
-92.24415416530702
 30
0.0
 10
86.26105683607364
 20
-92.24415416530702
 30
0.0
 10
86.26105683607364
 20
-92.24415416530702
 30
0.0
 10
86.26105683607364
 20
-93.78859047134452
 30
0.0
 10
86.26105683607364
 20
-93.78859047134452
 30
0.0
 10
86.26105683607364
 20
-93.78859047134452
 30
0.0
 10
86.03678111998387
 20
-93.78859047134452
 30
0.0
 10
86.03678111998387
 20
-93.78859047134452
 30
0.0
  0
HATCH
  5
93
330
8E
100
AcDbEntity
  8
_U+30EC_U+30A4_U+30E4_U+30FC 1
 62
   179
420
  2234388
100
AcDbHatch
 10
0.0
 20
0.0
 30
0.0
210
0.0
220
0.0
230
1.0
  2
SOLID
 70
     1
 71
     0
 91
        1
 92
        1
 93
        1
 72
     4
 94
        3
 73
     0
 74
     1
 95
       26
 96
       22
 40
0.0
 40
0.0
 40
0.0
 40
0.0
 40
1.0
 40
1.0
 40
1.0
 40
2.0
 40
2.0
 40
2.0
 40
3.0
 40
3.0
 40
3.0
 40
4.0
 40
4.0
 40
4.0
 40
5.0
 40
5.0
 40
5.0
 40
6.0
 40
6.0
 40
6.0
 40
7.0
 40
7.0
 40
7.0
 40
7.0
 10
86.03678111998387
 20
-93.78859047134452
 10
86.03678111998387
 20
-93.78859047134452
 10
86.03678111998387
 20
-92.68443736832195
 10
86.03678111998387
 20
-92.68443736832195
 10
86.03678111998387
 20
-92.68443736832195
 10
85.70674097249693
 20
-92.68443736832195
 10
85.70674097249693
 20
-92.68443736832195
 10
85.70674097249693
 20
-92.68443736832195
 10
85.70674097249693
 20
-92.53629826245621
 10
85.70674097249693
 20
-92.53629826245621
 10
86.03884817727501
 20
-92.52148435186963
 10
86.08535696632589
 20
-92.35853133541731
 10
86.11498478749904
 20
-92.24415416530702
 10
86.11498478749904
 20
-92.24415416530702
 10
86.26105683607364
 20
-92.24415416530702
 10
86.26105683607364
 20
-92.24415416530702
 10
86.26105683607364
 20
-92.24415416530702
 10
86.26105683607364
 20
-93.78859047134452
 10
86.26105683607364
 20
-93.78859047134452
 10
86.26105683607364
 20
-93.78859047134452
 10
86.03678111998387
 20
-93.78859047134452
 10
86.03678111998387
 20
-93.78859047134452
 97
        0
 97
        0
 75
     2
 76
     1
 98
        0
  0
POLYLINE
  5
94
330
8E
100
AcDbEntity
  8
_U+30EC_U+30A4_U+30E4_U+30FC 1
370
     0
100
AcDb2dPolyline
 66
     1
 10
0.0
 20
0.0
 30
0.0
  0
VERTEX
  5
95
330
94
100
AcDbEntity
  8
_U+30EC_U+30A4_U+30E4_U+30FC 1
370
     0
100
AcDbVertex
100
AcDb2dVertex
 10
86.82226289062082
 20
-93.78859047134452
 30
0.0
  0
VERTEX
  5
96
330
94
100
AcDbEntity
  8
_U+30EC_U+30A4_U+30E4_U+30FC 1
370
     0
100
AcDbVertex
100
AcDb2dVertex
 10
86.82226289062082
 20
-93.53675399137276
 30
0.0
  0
VERTEX
  5
97
330
94
100
AcDbEntity
  8
_U+30EC_U+30A4_U+30E4_U+30FC 1
370
     0
100
AcDbVertex
100
AcDb2dVertex
 10
87.07392711581832
 20
-93.53675399137276
 30
0.0
  0
VERTEX
  5
98
330
94
100
AcDbEntity
  8
_U+30EC_U+30A4_U+30E4_U+30FC 1
370
     0
100
AcDbVertex
100
AcDb2dVertex
 10
87.07392711581832
 20
-93.78859047134452
 30
0.0
  0
VERTEX
  5
99
330
94
100
AcDbEntity
  8
_U+30EC_U+30A4_U+30E4_U+30FC 1
370
     0
100
AcDbVertex
100
AcDb2dVertex
 10
86.82226289062082
 20
-93.78859047134452
 30
0.0
  0
SEQEND
  5
9A
330
94
100
AcDbEntity
  8
_U+30EC_U+30A4_U+30E4_U+30FC 1
370
     0
  0
HATCH
  5
9B
330
8E
100
AcDbEntity
  8
_U+30EC_U+30A4_U+30E4_U+30FC 1
 62
   179
420
  2234388
100
AcDbHatch
 10
0.0
 20
0.0
 30
0.0
210
0.0
220
0.0
230
1.0
  2
SOLID
 70
     1
 71
     0
 91
        1
 92
        1
 93
        4
 72
     1
 10
86.82226289062082
 20
-93.78859047134452
 11
86.82226289062082
 21
-93.53675399137276
 72
     1
 10
86.82226289062082
 20
-93.53675399137276
 11
87.07392711581832
 21
-93.53675399137276
 72
     1
 10
87.07392711581832
 20
-93.53675399137276
 11
87.07392711581832
 21
-93.78859047134452
 72
     1
 10
87.07392711581832
 20
-93.78859047134452
 11
86.82226289062082
 21
-93.78859047134452
 97
        0
 75
     2
 76
     1
 98
        0
  0
SPLINE
  5
9C
330
8E
100
AcDbEntity
  8
_U+30EC_U+30A4_U+30E4_U+30FC 1
370
     0
100
AcDbSpline
210
0.0
220
0.0
230
1.0
 70
    11
 71
     3
 72
    29
 73
    25
 74
     0
 42
0.0000000001
 43
0.0000000001
 12
1.0
 22
0.0
 32
0.0
 13
1.0
 23
0.0
 33
0.0
 40
0.0
 40
0.0
 40
0.0
 40
0.0
 40
1.0
 40
1.0
 40
1.0
 40
2.0
 40
2.0
 40
2.0
 40
3.0
 40
3.0
 40
3.0
 40
4.0
 40
4.0
 40
4.0
 40
5.0
 40
5.0
 40
5.0
 40
6.0
 40
6.0
 40
6.0
 40
7.0
 40
7.0
 40
7.0
 40
8.0
 40
8.0
 40
8.0
 40
8.0
 10
87.81048853056474
 20
-93.8392333749777
 30
0.0
 10
87.54401039478067
 20
-93.8392333749777
 30
0.0
 10
87.29010685751776
 20
-93.70177406511623
 30
0.0
 10
87.29010685751776
 20
-93.35278589246042
 30
0.0
 10
87.29010685751776
 20
-93.09681529790636
 30
0.0
 10
87.43187253673578
 20
-93.00173066251347
 30
0.0
 10
87.53763696813296
 20
-92.94040796287601
 30
0.0
 10
87.41275225679264
 20
-92.88115232052972
 30
0.0
 10
87.33661564656863
 20
-92.76677515041942
 30
0.0
 10
87.33661564656863
 20
-92.60588919125826
 30
0.0
 10
87.33661564656863
 20
-92.33097057153532
 30
0.0
 10
87.5355699108418
 20
-92.195578318965
 30
0.0
 10
87.81048853056474
 20
-92.195578318965
 30
0.0
 10
88.0940198890008
 20
-92.195578318965
 30
0.0
 10
88.28436141456086
 20
-92.33958331024844
 30
0.0
 10
88.28436141456086
 20
-92.60588919125826
 30
0.0
 10
88.28436141456086
 20
-92.76677515041942
 30
0.0
 10
88.2061577470457
 20
-92.88115232052972
 30
0.0
 10
88.08127303570538
 20
-92.94040796287601
 30
0.0
 10
88.17015649922483
 20
-92.99105086650918
 30
0.0
 10
88.32880314632058
 20
-93.08613550190208
 30
0.0
 10
88.32880314632058
 20
-93.34865177787812
 30
0.0
 10
88.32880314632058
 20
-93.72313365712478
 30
0.0
 10
88.04957815724109
 20
-93.8392333749777
 30
0.0
 10
87.81048853056474
 20
-93.8392333749777
 30
0.0
  0
SPLINE
  5
9D
330
8E
100
AcDbEntity
  8
_U+30EC_U+30A4_U+30E4_U+30FC 1
370
     0
100
AcDbSpline
210
0.0
220
0.0
230
1.0
 70
    11
 71
     3
 72
    17
 73
    13
 74
     0
 42
0.0000000001
 43
0.0000000001
 12
1.0
 22
0.0
 32
0.0
 13
1.0
 23
0.0
 33
0.0
 40
0.0
 40
0.0
 40
0.0
 40
0.0
 40
1.0
 40
1.0
 40
1.0
 40
2.0
 40
2.0
 40
2.0
 40
3.0
 40
3.0
 40
3.0
 40
4.0
 40
4.0
 40
4.0
 40
4.0
 10
87.81048853056474
 20
-93.04823945156433
 30
0.0
 10
87.66665579405556
 20
-93.04823945156433
 30
0.0
 10
87.51438257360752
 20
-93.13505585779262
 30
0.0
 10
87.51438257360752
 20
-93.33797198187385
 30
0.0
 10
87.51438257360752
 20
-93.54329967279473
 30
0.0
 10
87.64133434223898
 20
-93.64458548006108
 30
0.0
 10
87.81048853056474
 20
-93.64458548006108
 30
0.0
 10
87.9966959415425
 20
-93.64458548006108
 30
0.0
 10
88.10676674229623
 20
-93.52194008078618
 30
0.0
 10
88.10676674229623
 20
-93.34417315374729
 30
0.0
 10
88.10676674229623
 20
-93.12230900449721
 30
0.0
 10
87.94381372584391
 20
-93.04823945156433
 30
0.0
 10
87.81048853056474
 20
-93.04823945156433
 30
0.0
  0
SPLINE
  5
9E
330
8E
100
AcDbEntity
  8
_U+30EC_U+30A4_U+30E4_U+30FC 1
370
     0
100
AcDbSpline
210
0.0
220
0.0
230
1.0
 70
    11
 71
     3
 72
    17
 73
    13
 74
     0
 42
0.0000000001
 43
0.0000000001
 12
1.0
 22
0.0
 32
0.0
 13
1.0
 23
0.0
 33
0.0
 40
0.0
 40
0.0
 40
0.0
 40
0.0
 40
1.0
 40
1.0
 40
1.0
 40
2.0
 40
2.0
 40
2.0
 40
3.0
 40
3.0
 40
3.0
 40
4.0
 40
4.0
 40
4.0
 40
4.0
 10
87.81048853056474
 20
-92.38815915659046
 30
0.0
 10
87.64546845682128
 20
-92.38815915659046
 30
0.0
 10
87.5608913626584
 20
-92.48324379198336
 30
0.0
 10
87.5608913626584
 20
-92.61863604455368
 30
0.0
 10
87.5608913626584
 20
-92.74128144382857
 30
0.0
 10
87.63289385830011
 20
-92.85979272852117
 30
0.0
 10
87.81048853056474
 20
-92.85979272852117
 30
0.0
 10
87.98825545760363
 20
-92.85979272852117
 30
0.0
 10
88.0600856984711
 20
-92.74128144382857
 30
0.0
 10
88.0600856984711
 20
-92.61863604455368
 30
0.0
 10
88.0600856984711
 20
-92.48324379198336
 30
0.0
 10
87.97344154701706
 20
-92.38815915659046
 30
0.0
 10
87.81048853056474
 20
-92.38815915659046
 30
0.0
  0
HATCH
  5
9F
330
8E
100
AcDbEntity
  8
_U+30EC_U+30A4_U+30E4_U+30FC 1
 62
   179
420
  2234388
100
AcDbHatch
 10
0.0
 20
0.0
 30
0.0
210
0.0
220
0.0
230
1.0
  2
SOLID
 70
     1
 71
     0
 91
        3
 92
        1
 93
        1
 72
     4
 94
        3
 73
     0
 74
     1
 95
       29
 96
       25
 40
0.0
 40
0.0
 40
0.0
 40
0.0
 40
1.0
 40
1.0
 40
1.0
 40
2.0
 40
2.0
 40
2.0
 40
3.0
 40
3.0
 40
3.0
 40
4.0
 40
4.0
 40
4.0
 40
5.0
 40
5.0
 40
5.0
 40
6.0
 40
6.0
 40
6.0
 40
7.0
 40
7.0
 40
7.0
 40
8.0
 40
8.0
 40
8.0
 40
8.0
 10
87.81048853056474
 20
-93.8392333749777
 10
87.54401039478067
 20
-93.8392333749777
 10
87.29010685751776
 20
-93.70177406511623
 10
87.29010685751776
 20
-93.35278589246042
 10
87.29010685751776
 20
-93.09681529790636
 10
87.43187253673578
 20
-93.00173066251347
 10
87.53763696813296
 20
-92.94040796287601
 10
87.41275225679264
 20
-92.88115232052972
 10
87.33661564656863
 20
-92.76677515041942
 10
87.33661564656863
 20
-92.60588919125826
 10
87.33661564656863
 20
-92.33097057153532
 10
87.5355699108418
 20
-92.195578318965
 10
87.81048853056474
 20
-92.195578318965
 10
88.0940198890008
 20
-92.195578318965
 10
88.28436141456086
 20
-92.33958331024844
 10
88.28436141456086
 20
-92.60588919125826
 10
88.28436141456086
 20
-92.76677515041942
 10
88.2061577470457
 20
-92.88115232052972
 10
88.08127303570538
 20
-92.94040796287601
 10
88.17015649922483
 20
-92.99105086650918
 10
88.32880314632058
 20
-93.08613550190208
 10
88.32880314632058
 20
-93.34865177787812
 10
88.32880314632058
 20
-93.72313365712478
 10
88.04957815724109
 20
-93.8392333749777
 10
87.81048853056474
 20
-93.8392333749777
 97
        0
 97
        0
 92
        1
 93
        1
 72
     4
 94
        3
 73
     0
 74
     1
 95
       17
 96
       13
 40
0.0
 40
0.0
 40
0.0
 40
0.0
 40
1.0
 40
1.0
 40
1.0
 40
2.0
 40
2.0
 40
2.0
 40
3.0
 40
3.0
 40
3.0
 40
4.0
 40
4.0
 40
4.0
 40
4.0
 10
87.81048853056474
 20
-93.04823945156433
 10
87.66665579405556
 20
-93.04823945156433
 10
87.51438257360752
 20
-93.13505585779262
 10
87.51438257360752
 20
-93.33797198187385
 10
87.51438257360752
 20
-93.54329967279473
 10
87.64133434223898
 20
-93.64458548006108
 10
87.81048853056474
 20
-93.64458548006108
 10
87.9966959415425
 20
-93.64458548006108
 10
88.10676674229623
 20
-93.52194008078618
 10
88.10676674229623
 20
-93.34417315374729
 10
88.10676674229623
 20
-93.12230900449721
 10
87.94381372584391
 20
-93.04823945156433
 10
87.81048853056474
 20
-93.04823945156433
 97
        0
 97
        0
 92
        1
 93
        1
 72
     4
 94
        3
 73
     0
 74
     1
 95
       17
 96
       13
 40
0.0
 40
0.0
 40
0.0
 40
0.0
 40
1.0
 40
1.0
 40
1.0
 40
2.0
 40
2.0
 40
2.0
 40
3.0
 40
3.0
 40
3.0
 40
4.0
 40
4.0
 40
4.0
 40
4.0
 10
87.81048853056474
 20
-92.38815915659046
 10
87.64546845682128
 20
-92.38815915659046
 10
87.5608913626584
 20
-92.48324379198336
 10
87.5608913626584
 20
-92.61863604455368
 10
87.5608913626584
 20
-92.74128144382857
 10
87.63289385830011
 20
-92.85979272852117
 10
87.81048853056474
 20
-92.85979272852117
 10
87.98825545760363
 20
-92.85979272852117
 10
88.0600856984711
 20
-92.74128144382857
 10
88.0600856984711
 20
-92.61863604455368
 10
88.0600856984711
 20
-92.48324379198336
 10
87.97344154701706
 20
-92.38815915659046
 10
87.81048853056474
 20
-92.38815915659046
 97
        0
 97
        0
 75
     2
 76
     1
 98
        0
  0
ENDBLK
  5
91
330
8E
100
AcDbEntity
  8
0
100
AcDbBlockEnd
  0
BLOCK
  5
AE
330
AC
100
AcDbEntity
  8
0
100
AcDbBlockBegin
  2
block 5
 70
     0
 10
0.0
 20
0.0
 30
0.0
  3
block 5
  1

  0
SPLINE
  5
B0
330
AC
100
AcDbEntity
  8
_U+30EC_U+30A4_U+30E4_U+30FC 1
370
     0
100
AcDbSpline
210
0.0
220
0.0
230
1.0
 70
    11
 71
     3
 72
    32
 73
    28
 74
     0
 42
0.0000000001
 43
0.0000000001
 12
1.0
 22
0.0
 32
0.0
 13
1.0
 23
0.0
 33
0.0
 40
0.0
 40
0.0
 40
0.0
 40
0.0
 40
1.0
 40
1.0
 40
1.0
 40
2.0
 40
2.0
 40
2.0
 40
3.0
 40
3.0
 40
3.0
 40
4.0
 40
4.0
 40
4.0
 40
5.0
 40
5.0
 40
5.0
 40
6.0
 40
6.0
 40
6.0
 40
7.0
 40
7.0
 40
7.0
 40
8.0
 40
8.0
 40
8.0
 40
9.0
 40
9.0
 40
9.0
 40
9.0
 10
91.76976451698812
 20
-130.1563964518359
 30
0.0
 10
91.76976451698812
 20
-130.6724717555263
 30
0.0
 10
91.21579316295994
 20
-130.6807399846909
 30
0.0
 10
91.00185273332593
 20
-130.6807399846909
 30
0.0
 10
90.77137584536271
 20
-130.6807399846909
 30
0.0
 10
90.12404240368427
 20
-130.6614474499735
 30
0.0
 10
90.12404240368427
 20
-130.1178113824011
 30
0.0
 10
90.12404240368427
 20
-129.9448675890416
 30
0.0
 10
90.19397784203484
 20
-129.6988877713947
 30
0.0
 10
90.52608504681292
 20
-129.660991721057
 30
0.0
 10
90.52608504681292
 20
-129.660991721057
 30
0.0
 10
90.52608504681292
 20
-129.8745876411425
 30
0.0
 10
90.52608504681292
 20
-129.8745876411425
 30
0.0
 10
90.46889646175778
 20
-129.8856119466953
 30
0.0
 10
90.32075735589204
 20
-129.9173068251596
 30
0.0
 10
90.32075735589204
 20
-130.1198784396923
 30
0.0
 10
90.32075735589204
 20
-130.4120225368414
 30
0.0
 10
90.64873044608782
 20
-130.4519856444703
 30
0.0
 10
90.85371362746018
 20
-130.4650770073143
 30
0.0
 10
90.77550995994501
 20
-130.3720594292126
 30
0.0
 10
90.71625431759873
 20
-130.3038465386046
 30
0.0
 10
90.71625431759873
 20
-130.1219454969834
 30
0.0
 10
90.71625431759873
 20
-129.9421115126534
 30
0.0
 10
90.82443031583556
 20
-129.6396321290484
 30
0.0
 10
91.23060707354652
 20
-129.6396321290484
 30
0.0
 10
91.54996742502918
 20
-129.6396321290484
 30
0.0
 10
91.76976451698812
 20
-129.8387586480959
 30
0.0
 10
91.76976451698812
 20
-130.1563964518359
 30
0.0
  0
SPLINE
  5
B1
330
AC
100
AcDbEntity
  8
_U+30EC_U+30A4_U+30E4_U+30FC 1
370
     0
100
AcDbSpline
210
0.0
220
0.0
230
1.0
 70
    11
 71
     3
 72
    17
 73
    13
 74
     0
 42
0.0000000001
 43
0.0000000001
 12
1.0
 22
0.0
 32
0.0
 13
1.0
 23
0.0
 33
0.0
 40
0.0
 40
0.0
 40
0.0
 40
0.0
 40
1.0
 40
1.0
 40
1.0
 40
2.0
 40
2.0
 40
2.0
 40
3.0
 40
3.0
 40
3.0
 40
4.0
 40
4.0
 40
4.0
 40
4.0
 10
90.91090221251534
 20
-130.1391709744097
 30
0.0
 10
90.91090221251534
 20
-130.4016872503857
 30
0.0
 10
91.12243107530968
 20
-130.4395833007235
 30
0.0
 10
91.23887530271112
 20
-130.4395833007235
 30
0.0
 10
91.41457517245885
 20
-130.4395833007235
 30
0.0
 10
91.57752818891117
 20
-130.3444986653305
 30
0.0
 10
91.57752818891117
 20
-130.1605305664182
 30
0.0
 10
91.57752818891117
 20
-130.0399522244345
 30
0.0
 10
91.51827254656489
 20
-129.8642523546867
 30
0.0
 10
91.23267413083767
 20
-129.8642523546867
 30
0.0
 10
91.0083984147479
 20
-129.8642523546867
 30
0.0
 10
90.91090221251534
 20
-130.0034342122908
 30
0.0
 10
90.91090221251534
 20
-130.1391709744097
 30
0.0
  0
HATCH
  5
B2
330
AC
100
AcDbEntity
  8
_U+30EC_U+30A4_U+30E4_U+30FC 1
 62
   179
420
  2234388
100
AcDbHatch
 10
0.0
 20
0.0
 30
0.0
210
0.0
220
0.0
230
1.0
  2
SOLID
 70
     1
 71
     0
 91
        2
 92
        1
 93
        1
 72
     4
 94
        3
 73
     0
 74
     1
 95
       32
 96
       28
 40
0.0
 40
0.0
 40
0.0
 40
0.0
 40
1.0
 40
1.0
 40
1.0
 40
2.0
 40
2.0
 40
2.0
 40
3.0
 40
3.0
 40
3.0
 40
4.0
 40
4.0
 40
4.0
 40
5.0
 40
5.0
 40
5.0
 40
6.0
 40
6.0
 40
6.0
 40
7.0
 40
7.0
 40
7.0
 40
8.0
 40
8.0
 40
8.0
 40
9.0
 40
9.0
 40
9.0
 40
9.0
 10
91.76976451698812
 20
-130.1563964518359
 10
91.76976451698812
 20
-130.6724717555263
 10
91.21579316295994
 20
-130.6807399846909
 10
91.00185273332593
 20
-130.6807399846909
 10
90.77137584536271
 20
-130.6807399846909
 10
90.12404240368427
 20
-130.6614474499735
 10
90.12404240368427
 20
-130.1178113824011
 10
90.12404240368427
 20
-129.9448675890416
 10
90.19397784203484
 20
-129.6988877713947
 10
90.52608504681292
 20
-129.660991721057
 10
90.52608504681292
 20
-129.660991721057
 10
90.52608504681292
 20
-129.8745876411425
 10
90.52608504681292
 20
-129.8745876411425
 10
90.46889646175778
 20
-129.8856119466953
 10
90.32075735589204
 20
-129.9173068251596
 10
90.32075735589204
 20
-130.1198784396923
 10
90.32075735589204
 20
-130.4120225368414
 10
90.64873044608782
 20
-130.4519856444703
 10
90.85371362746018
 20
-130.4650770073143
 10
90.77550995994501
 20
-130.3720594292126
 10
90.71625431759873
 20
-130.3038465386046
 10
90.71625431759873
 20
-130.1219454969834
 10
90.71625431759873
 20
-129.9421115126534
 10
90.82443031583556
 20
-129.6396321290484
 10
91.23060707354652
 20
-129.6396321290484
 10
91.54996742502918
 20
-129.6396321290484
 10
91.76976451698812
 20
-129.8387586480959
 10
91.76976451698812
 20
-130.1563964518359
 97
        0
 97
        0
 92
        1
 93
        1
 72
     4
 94
        3
 73
     0
 74
     1
 95
       17
 96
       13
 40
0.0
 40
0.0
 40
0.0
 40
0.0
 40
1.0
 40
1.0
 40
1.0
 40
2.0
 40
2.0
 40
2.0
 40
3.0
 40
3.0
 40
3.0
 40
4.0
 40
4.0
 40
4.0
 40
4.0
 10
90.91090221251534
 20
-130.1391709744097
 10
90.91090221251534
 20
-130.4016872503857
 10
91.12243107530968
 20
-130.4395833007235
 10
91.23887530271112
 20
-130.4395833007235
 10
91.41457517245885
 20
-130.4395833007235
 10
91.57752818891117
 20
-130.3444986653305
 10
91.57752818891117
 20
-130.1605305664182
 10
91.57752818891117
 20
-130.0399522244345
 10
91.51827254656489
 20
-129.8642523546867
 10
91.23267413083767
 20
-129.8642523546867
 10
91.0083984147479
 20
-129.8642523546867
 10
90.91090221251534
 20
-130.0034342122908
 10
90.91090221251534
 20
-130.1391709744097
 97
        0
 97
        0
 75
     2
 76
     1
 98
        0
  0
SPLINE
  5
B3
330
AC
100
AcDbEntity
  8
_U+30EC_U+30A4_U+30E4_U+30FC 1
370
     0
100
AcDbSpline
210
0.0
220
0.0
230
1.0
 70
    11
 71
     3
 72
    29
 73
    25
 74
     0
 42
0.0000000001
 43
0.0000000001
 12
1.0
 22
0.0
 32
0.0
 13
1.0
 23
0.0
 33
0.0
 40
0.0
 40
0.0
 40
0.0
 40
0.0
 40
1.0
 40
1.0
 40
1.0
 40
2.0
 40
2.0
 40
2.0
 40
3.0
 40
3.0
 40
3.0
 40
4.0
 40
4.0
 40
4.0
 40
5.0
 40
5.0
 40
5.0
 40
6.0
 40
6.0
 40
6.0
 40
7.0
 40
7.0
 40
7.0
 40
8.0
 40
8.0
 40
8.0
 40
8.0
 10
91.54135468631605
 20
-128.5856051653362
 30
0.0
 10
91.75081649181925
 20
-128.6937811635731
 30
0.0
 10
91.76976451698812
 20
-128.8672417212554
 30
0.0
 10
91.76976451698812
 20
-128.9836859486569
 30
0.0
 10
91.76976451698812
 20
-129.1442273982695
 30
0.0
 10
91.72325572793724
 20
-129.2861653322618
 30
0.0
 10
91.54135468631605
 20
-129.3812499676547
 30
0.0
 10
91.34670679139944
 20
-129.4846028322122
 30
0.0
 10
91.10968422201425
 20
-129.5038953669296
 30
0.0
 10
90.94707571511046
 20
-129.5038953669296
 30
0.0
 10
90.80307072382702
 20
-129.5038953669296
 30
0.0
 10
90.55123424385525
 20
-129.4866698895033
 30
0.0
 10
90.35245223435633
 20
-129.3812499676547
 30
0.0
 10
90.14953611027512
 20
-129.2730739694179
 30
0.0
 10
90.12610946097543
 20
-129.1125325198052
 30
0.0
 10
90.12610946097543
 20
-128.9836859486569
 30
0.0
 10
90.12610946097543
 20
-128.8245225372383
 30
0.0
 10
90.17055119273515
 20
-128.6810343102777
 30
0.0
 10
90.35245223435633
 20
-128.5856051653362
 30
0.0
 10
90.5450330719818
 20
-128.486386415361
 30
0.0
 10
90.77344290265387
 20
-128.4629597660613
 30
0.0
 10
90.94707571511046
 20
-128.4629597660613
 30
0.0
 10
91.11829696072738
 20
-128.4629597660613
 30
0.0
 10
91.34877384869058
 20
-128.4843193580699
 30
0.0
 10
91.54135468631605
 20
-128.5856051653362
 30
0.0
  0
SPLINE
  5
B4
330
AC
100
AcDbEntity
  8
_U+30EC_U+30A4_U+30E4_U+30FC 1
370
     0
100
AcDbSpline
210
0.0
220
0.0
230
1.0
 70
    11
 71
     3
 72
    17
 73
    13
 74
     0
 42
0.0000000001
 43
0.0000000001
 12
1.0
 22
0.0
 32
0.0
 13
1.0
 23
0.0
 33
0.0
 40
0.0
 40
0.0
 40
0.0
 40
0.0
 40
1.0
 40
1.0
 40
1.0
 40
2.0
 40
2.0
 40
2.0
 40
3.0
 40
3.0
 40
3.0
 40
4.0
 40
4.0
 40
4.0
 40
4.0
 10
90.31869029860088
 20
-128.9836859486569
 30
0.0
 10
90.31869029860088
 20
-129.233110861789
 30
0.0
 10
90.60222165703695
 20
-129.2799641603883
 30
0.0
 10
90.94707571511046
 20
-129.2799641603883
 30
0.0
 10
91.26643606659312
 20
-129.2799641603883
 30
0.0
 10
91.5751166220715
 20
-129.2434461482447
 30
0.0
 10
91.5751166220715
 20
-128.9836859486569
 30
0.0
 10
91.5751166220715
 20
-128.7358113284931
 30
0.0
 10
91.29399683047511
 20
-128.6872354821511
 30
0.0
 10
90.94707571511046
 20
-128.6872354821511
 30
0.0
 10
90.62737085407927
 20
-128.6872354821511
 30
0.0
 10
90.31869029860088
 20
-128.7254760420374
 30
0.0
 10
90.31869029860088
 20
-128.9836859486569
 30
0.0
  0
HATCH
  5
B5
330
AC
100
AcDbEntity
  8
_U+30EC_U+30A4_U+30E4_U+30FC 1
 62
   179
420
  2234388
100
AcDbHatch
 10
0.0
 20
0.0
 30
0.0
210
0.0
220
0.0
230
1.0
  2
SOLID
 70
     1
 71
     0
 91
        2
 92
        1
 93
        1
 72
     4
 94
        3
 73
     0
 74
     1
 95
       29
 96
       25
 40
0.0
 40
0.0
 40
0.0
 40
0.0
 40
1.0
 40
1.0
 40
1.0
 40
2.0
 40
2.0
 40
2.0
 40
3.0
 40
3.0
 40
3.0
 40
4.0
 40
4.0
 40
4.0
 40
5.0
 40
5.0
 40
5.0
 40
6.0
 40
6.0
 40
6.0
 40
7.0
 40
7.0
 40
7.0
 40
8.0
 40
8.0
 40
8.0
 40
8.0
 10
91.54135468631605
 20
-128.5856051653362
 10
91.75081649181925
 20
-128.6937811635731
 10
91.76976451698812
 20
-128.8672417212554
 10
91.76976451698812
 20
-128.9836859486569
 10
91.76976451698812
 20
-129.1442273982695
 10
91.72325572793724
 20
-129.2861653322618
 10
91.54135468631605
 20
-129.3812499676547
 10
91.34670679139944
 20
-129.4846028322122
 10
91.10968422201425
 20
-129.5038953669296
 10
90.94707571511046
 20
-129.5038953669296
 10
90.80307072382702
 20
-129.5038953669296
 10
90.55123424385525
 20
-129.4866698895033
 10
90.35245223435633
 20
-129.3812499676547
 10
90.14953611027512
 20
-129.2730739694179
 10
90.12610946097543
 20
-129.1125325198052
 10
90.12610946097543
 20
-128.9836859486569
 10
90.12610946097543
 20
-128.8245225372383
 10
90.17055119273515
 20
-128.6810343102777
 10
90.35245223435633
 20
-128.5856051653362
 10
90.5450330719818
 20
-128.486386415361
 10
90.77344290265387
 20
-128.4629597660613
 10
90.94707571511046
 20
-128.4629597660613
 10
91.11829696072738
 20
-128.4629597660613
 10
91.34877384869058
 20
-128.4843193580699
 10
91.54135468631605
 20
-128.5856051653362
 97
        0
 97
        0
 92
        1
 93
        1
 72
     4
 94
        3
 73
     0
 74
     1
 95
       17
 96
       13
 40
0.0
 40
0.0
 40
0.0
 40
0.0
 40
1.0
 40
1.0
 40
1.0
 40
2.0
 40
2.0
 40
2.0
 40
3.0
 40
3.0
 40
3.0
 40
4.0
 40
4.0
 40
4.0
 40
4.0
 10
90.31869029860088
 20
-128.9836859486569
 10
90.31869029860088
 20
-129.233110861789
 10
90.60222165703695
 20
-129.2799641603883
 10
90.94707571511046
 20
-129.2799641603883
 10
91.26643606659312
 20
-129.2799641603883
 10
91.5751166220715
 20
-129.2434461482447
 10
91.5751166220715
 20
-128.9836859486569
 10
91.5751166220715
 20
-128.7358113284931
 10
91.29399683047511
 20
-128.6872354821511
 10
90.94707571511046
 20
-128.6872354821511
 10
90.62737085407927
 20
-128.6872354821511
 10
90.31869029860088
 20
-128.7254760420374
 10
90.31869029860088
 20
-128.9836859486569
 97
        0
 97
        0
 75
     2
 76
     1
 98
        0
  0
ENDBLK
  5
AF
330
AC
100
AcDbEntity
  8
0
100
AcDbBlockEnd
  0
ENDSEC
  0
SECTION
  2
ENTITIES
  0
SPLINE
  5
41
330
1F
100
AcDbEntity
  8
_U+30EC_U+30A4_U+30E4_U+30FC 1
 62
   179
420
  2234388
370
    25
100
AcDbSpline
210
0.0
220
0.0
230
1.0
 70
    11
 71
     3
 72
   665
 73
   661
 74
     0
 42
0.0000000001
 43
0.0000000001
 12
1.0
 22
0.0
 32
0.0
 13
1.0
 23
0.0
 33
0.0
 40
0.0
 40
0.0
 40
0.0
 40
0.0
 40
1.0
 40
1.0
 40
1.0
 40
2.0
 40
2.0
 40
2.0
 40
3.0
 40
3.0
 40
3.0
 40
4.0
 40
4.0
 40
4.0
 40
5.0
 40
5.0
 40
5.0
 40
6.0
 40
6.0
 40
6.0
 40
7.0
 40
7.0
 40
7.0
 40
8.0
 40
8.0
 40
8.0
 40
9.0
 40
9.0
 40
9.0
 40
10.0
 40
10.0
 40
10.0
 40
11.0
 40
11.0
 40
11.0
 40
12.0
 40
12.0
 40
12.0
 40
13.0
 40
13.0
 40
13.0
 40
14.0
 40
14.0
 40
14.0
 40
15.0
 40
15.0
 40
15.0
 40
16.0
 40
16.0
 40
16.0
 40
17.0
 40
17.0
 40
17.0
 40
18.0
 40
18.0
 40
18.0
 40
19.0
 40
19.0
 40
19.0
 40
20.0
 40
20.0
 40
20.0
 40
21.0
 40
21.0
 40
21.0
 40
22.0
 40
22.0
 40
22.0
 40
23.0
 40
23.0
 40
23.0
 40
24.0
 40
24.0
 40
24.0
 40
25.0
 40
25.0
 40
25.0
 40
26.0
 40
26.0
 40
26.0
 40
27.0
 40
27.0
 40
27.0
 40
28.0
 40
28.0
 40
28.0
 40
29.0
 40
29.0
 40
29.0
 40
30.0
 40
30.0
 40
30.0
 40
31.0
 40
31.0
 40
31.0
 40
32.0
 40
32.0
 40
32.0
 40
33.0
 40
33.0
 40
33.0
 40
34.0
 40
34.0
 40
34.0
 40
35.0
 40
35.0
 40
35.0
 40
36.0
 40
36.0
 40
36.0
 40
37.0
 40
37.0
 40
37.0
 40
38.0
 40
38.0
 40
38.0
 40
39.0
 40
39.0
 40
39.0
 40
40.0
 40
40.0
 40
40.0
 40
41.0
 40
41.0
 40
41.0
 40
42.0
 40
42.0
 40
42.0
 40
43.0
 40
43.0
 40
43.0
 40
44.0
 40
44.0
 40
44.0
 40
45.0
 40
45.0
 40
45.0
 40
46.0
 40
46.0
 40
46.0
 40
47.0
 40
47.0
 40
47.0
 40
48.0
 40
48.0
 40
48.0
 40
49.0
 40
49.0
 40
49.0
 40
50.0
 40
50.0
 40
50.0
 40
51.0
 40
51.0
 40
51.0
 40
52.0
 40
52.0
 40
52.0
 40
53.0
 40
53.0
 40
53.0
 40
54.0
 40
54.0
 40
54.0
 40
55.0
 40
55.0
 40
55.0
 40
56.0
 40
56.0
 40
56.0
 40
57.0
 40
57.0
 40
57.0
 40
58.0
 40
58.0
 40
58.0
 40
59.0
 40
59.0
 40
59.0
 40
60.0
 40
60.0
 40
60.0
 40
61.0
 40
61.0
 40
61.0
 40
62.0
 40
62.0
 40
62.0
 40
63.0
 40
63.0
 40
63.0
 40
64.0
 40
64.0
 40
64.0
 40
65.0
 40
65.0
 40
65.0
 40
66.0
 40
66.0
 40
66.0
 40
67.0
 40
67.0
 40
67.0
 40
68.0
 40
68.0
 40
68.0
 40
69.0
 40
69.0
 40
69.0
 40
70.0
 40
70.0
 40
70.0
 40
71.0
 40
71.0
 40
71.0
 40
72.0
 40
72.0
 40
72.0
 40
73.0
 40
73.0
 40
73.0
 40
74.0
 40
74.0
 40
74.0
 40
75.0
 40
75.0
 40
75.0
 40
76.0
 40
76.0
 40
76.0
 40
77.0
 40
77.0
 40
77.0
 40
78.0
 40
78.0
 40
78.0
 40
79.0
 40
79.0
 40
79.0
 40
80.0
 40
80.0
 40
80.0
 40
81.0
 40
81.0
 40
81.0
 40
82.0
 40
82.0
 40
82.0
 40
83.0
 40
83.0
 40
83.0
 40
84.0
 40
84.0
 40
84.0
 40
85.0
 40
85.0
 40
85.0
 40
86.0
 40
86.0
 40
86.0
 40
87.0
 40
87.0
 40
87.0
 40
88.0
 40
88.0
 40
88.0
 40
89.0
 40
89.0
 40
89.0
 40
90.0
 40
90.0
 40
90.0
 40
91.0
 40
91.0
 40
91.0
 40
92.0
 40
92.0
 40
92.0
 40
93.0
 40
93.0
 40
93.0
 40
94.0
 40
94.0
 40
94.0
 40
95.0
 40
95.0
 40
95.0
 40
96.0
 40
96.0
 40
96.0
 40
97.0
 40
97.0
 40
97.0
 40
98.0
 40
98.0
 40
98.0
 40
99.0
 40
99.0
 40
99.0
 40
100.0
 40
100.0
 40
100.0
 40
101.0
 40
101.0
 40
101.0
 40
102.0
 40
102.0
 40
102.0
 40
103.0
 40
103.0
 40
103.0
 40
104.0
 40
104.0
 40
104.0
 40
105.0
 40
105.0
 40
105.0
 40
106.0
 40
106.0
 40
106.0
 40
107.0
 40
107.0
 40
107.0
 40
108.0
 40
108.0
 40
108.0
 40
109.0
 40
109.0
 40
109.0
 40
110.0
 40
110.0
 40
110.0
 40
111.0
 40
111.0
 40
111.0
 40
112.0
 40
112.0
 40
112.0
 40
113.0
 40
113.0
 40
113.0
 40
114.0
 40
114.0
 40
114.0
 40
115.0
 40
115.0
 40
115.0
 40
116.0
 40
116.0
 40
116.0
 40
117.0
 40
117.0
 40
117.0
 40
118.0
 40
118.0
 40
118.0
 40
119.0
 40
119.0
 40
119.0
 40
120.0
 40
120.0
 40
120.0
 40
121.0
 40
121.0
 40
121.0
 40
122.0
 40
122.0
 40
122.0
 40
123.0
 40
123.0
 40
123.0
 40
124.0
 40
124.0
 40
124.0
 40
125.0
 40
125.0
 40
125.0
 40
126.0
 40
126.0
 40
126.0
 40
127.0
 40
127.0
 40
127.0
 40
128.0
 40
128.0
 40
128.0
 40
129.0
 40
129.0
 40
129.0
 40
130.0
 40
130.0
 40
130.0
 40
131.0
 40
131.0
 40
131.0
 40
132.0
 40
132.0
 40
132.0
 40
133.0
 40
133.0
 40
133.0
 40
134.0
 40
134.0
 40
134.0
 40
135.0
 40
135.0
 40
135.0
 40
136.0
 40
136.0
 40
136.0
 40
137.0
 40
137.0
 40
137.0
 40
138.0
 40
138.0
 40
138.0
 40
139.0
 40
139.0
 40
139.0
 40
140.0
 40
140.0
 40
140.0
 40
141.0
 40
141.0
 40
141.0
 40
142.0
 40
142.0
 40
142.0
 40
143.0
 40
143.0
 40
143.0
 40
144.0
 40
144.0
 40
144.0
 40
145.0
 40
145.0
 40
145.0
 40
146.0
 40
146.0
 40
146.0
 40
147.0
 40
147.0
 40
147.0
 40
148.0
 40
148.0
 40
148.0
 40
149.0
 40
149.0
 40
149.0
 40
150.0
 40
150.0
 40
150.0
 40
151.0
 40
151.0
 40
151.0
 40
152.0
 40
152.0
 40
152.0
 40
153.0
 40
153.0
 40
153.0
 40
154.0
 40
154.0
 40
154.0
 40
155.0
 40
155.0
 40
155.0
 40
156.0
 40
156.0
 40
156.0
 40
157.0
 40
157.0
 40
157.0
 40
158.0
 40
158.0
 40
158.0
 40
159.0
 40
159.0
 40
159.0
 40
160.0
 40
160.0
 40
160.0
 40
161.0
 40
161.0
 40
161.0
 40
162.0
 40
162.0
 40
162.0
 40
163.0
 40
163.0
 40
163.0
 40
164.0
 40
164.0
 40
164.0
 40
165.0
 40
165.0
 40
165.0
 40
166.0
 40
166.0
 40
166.0
 40
167.0
 40
167.0
 40
167.0
 40
168.0
 40
168.0
 40
168.0
 40
169.0
 40
169.0
 40
169.0
 40
170.0
 40
170.0
 40
170.0
 40
171.0
 40
171.0
 40
171.0
 40
172.0
 40
172.0
 40
172.0
 40
173.0
 40
173.0
 40
173.0
 40
174.0
 40
174.0
 40
174.0
 40
175.0
 40
175.0
 40
175.0
 40
176.0
 40
176.0
 40
176.0
 40
177.0
 40
177.0
 40
177.0
 40
178.0
 40
178.0
 40
178.0
 40
179.0
 40
179.0
 40
179.0
 40
180.0
 40
180.0
 40
180.0
 40
181.0
 40
181.0
 40
181.0
 40
182.0
 40
182.0
 40
182.0
 40
183.0
 40
183.0
 40
183.0
 40
184.0
 40
184.0
 40
184.0
 40
185.0
 40
185.0
 40
185.0
 40
186.0
 40
186.0
 40
186.0
 40
187.0
 40
187.0
 40
187.0
 40
188.0
 40
188.0
 40
188.0
 40
189.0
 40
189.0
 40
189.0
 40
190.0
 40
190.0
 40
190.0
 40
191.0
 40
191.0
 40
191.0
 40
192.0
 40
192.0
 40
192.0
 40
193.0
 40
193.0
 40
193.0
 40
194.0
 40
194.0
 40
194.0
 40
195.0
 40
195.0
 40
195.0
 40
196.0
 40
196.0
 40
196.0
 40
197.0
 40
197.0
 40
197.0
 40
198.0
 40
198.0
 40
198.0
 40
199.0
 40
199.0
 40
199.0
 40
200.0
 40
200.0
 40
200.0
 40
201.0
 40
201.0
 40
201.0
 40
202.0
 40
202.0
 40
202.0
 40
203.0
 40
203.0
 40
203.0
 40
204.0
 40
204.0
 40
204.0
 40
205.0
 40
205.0
 40
205.0
 40
206.0
 40
206.0
 40
206.0
 40
207.0
 40
207.0
 40
207.0
 40
208.0
 40
208.0
 40
208.0
 40
209.0
 40
209.0
 40
209.0
 40
210.0
 40
210.0
 40
210.0
 40
211.0
 40
211.0
 40
211.0
 40
212.0
 40
212.0
 40
212.0
 40
213.0
 40
213.0
 40
213.0
 40
214.0
 40
214.0
 40
214.0
 40
215.0
 40
215.0
 40
215.0
 40
216.0
 40
216.0
 40
216.0
 40
217.0
 40
217.0
 40
217.0
 40
218.0
 40
218.0
 40
218.0
 40
219.0
 40
219.0
 40
219.0
 40
220.0
 40
220.0
 40
220.0
 40
220.0
 10
87.50370553367976
 20
-159.5720074601067
 30
0.0
 10
87.50370553367976
 20
-159.5720074601067
 30
0.0
 10
87.42238804744684
 20
-159.5720074601067
 30
0.0
 10
87.42238804744684
 20
-159.5720074601067
 30
0.0
 10
87.42238804744684
 20
-159.5720074601067
 30
0.0
 10
85.99921197264398
 20
-157.7653971827811
 30
0.0
 10
85.99921197264398
 20
-157.7653971827811
 30
0.0
 10
85.99921197264398
 20
-157.7653971827811
 30
0.0
 10
85.99921197264398
 20
-155.7631010721703
 30
0.0
 10
85.99921197264398
 20
-155.7631010721703
 30
0.0
 10
85.99921197264398
 20
-155.7631010721703
 30
0.0
 10
86.45930473868381
 20
-155.7631010721703
 30
0.0
 10
86.45930473868381
 20
-155.7631010721703
 30
0.0
 10
86.45930473868381
 20
-155.7631010721703
 30
0.0
 10
86.19662641205197
 20
-155.506772738901
 30
0.0
 10
86.19662641205197
 20
-155.506772738901
 30
0.0
 10
86.19662641205197
 20
-155.506772738901
 30
0.0
 10
86.45930473868381
 20
-155.2491038500764
 30
0.0
 10
86.45930473868381
 20
-155.2491038500764
 30
0.0
 10
86.45930473868381
 20
-155.2491038500764
 30
0.0
 10
86.19662641205197
 20
-154.9913996834743
 30
0.0
 10
86.19662641205197
 20
-154.9913996834743
 30
0.0
 10
86.19662641205197
 20
-154.9913996834743
 30
0.0
 10
86.45930473868381
 20
-154.7344010724277
 30
0.0
 10
86.45930473868381
 20
-154.7344010724277
 30
0.0
 10
86.45930473868381
 20
-154.7344010724277
 30
0.0
 10
86.19662641205197
 20
-154.4774024613805
 30
0.0
 10
86.19662641205197
 20
-154.4774024613805
 30
0.0
 10
86.19662641205197
 20
-154.4774024613805
 30
0.0
 10
86.45930473868381
 20
-154.2210741281112
 30
0.0
 10
86.45930473868381
 20
-154.2210741281112
 30
0.0
 10
86.45930473868381
 20
-154.2210741281112
 30
0.0
 10
86.19662641205197
 20
-153.9640755170647
 30
0.0
 10
86.19662641205197
 20
-153.9640755170647
 30
0.0
 10
86.19662641205197
 20
-153.9640755170647
 30
0.0
 10
86.45930473868381
 20
-153.7070769060174
 30
0.0
 10
86.45930473868381
 20
-153.7070769060174
 30
0.0
 10
86.45930473868381
 20
-153.7070769060174
 30
0.0
 10
86.19662641205197
 20
-153.4507485727482
 30
0.0
 10
86.19662641205197
 20
-153.4507485727482
 30
0.0
 10
86.19662641205197
 20
-153.4507485727482
 30
0.0
 10
86.45930473868381
 20
-153.1909982950358
 30
0.0
 10
86.45930473868381
 20
-153.1909982950358
 30
0.0
 10
86.45930473868381
 20
-153.1909982950358
 30
0.0
 10
86.19662641205197
 20
-152.9312480173228
 30
0.0
 10
86.19662641205197
 20
-152.9312480173228
 30
0.0
 10
86.19662641205197
 20
-152.9312480173228
 30
0.0
 10
86.45930473868381
 20
-152.6714624618322
 30
0.0
 10
86.45930473868381
 20
-152.6714624618322
 30
0.0
 10
86.45930473868381
 20
-152.6714624618322
 30
0.0
 10
86.19662641205197
 20
-152.4130880174521
 30
0.0
 10
86.19662641205197
 20
-152.4130880174521
 30
0.0
 10
86.19662641205197
 20
-152.4130880174521
 30
0.0
 10
86.45930473868381
 20
-152.1540080175171
 30
0.0
 10
86.45930473868381
 20
-152.1540080175171
 30
0.0
 10
86.45930473868381
 20
-152.1540080175171
 30
0.0
 10
86.19662641205197
 20
-151.895633573137
 30
0.0
 10
86.19662641205197
 20
-151.895633573137
 30
0.0
 10
86.19662641205197
 20
-151.895633573137
 30
0.0
 10
86.45930473868381
 20
-151.636553573202
 30
0.0
 10
86.45930473868381
 20
-151.636553573202
 30
0.0
 10
86.45930473868381
 20
-151.636553573202
 30
0.0
 10
86.19662641205197
 20
-151.3775088510445
 30
0.0
 10
86.19662641205197
 20
-151.3775088510445
 30
0.0
 10
86.19662641205197
 20
-151.3775088510445
 30
0.0
 10
86.45930473868381
 20
-151.1198046844424
 30
0.0
 10
86.45930473868381
 20
-151.1198046844424
 30
0.0
 10
86.45930473868381
 20
-151.1198046844424
 30
0.0
 10
86.19662641205197
 20
-150.8621005178402
 30
0.0
 10
86.19662641205197
 20
-150.8621005178402
 30
0.0
 10
86.19662641205197
 20
-150.8621005178402
 30
0.0
 10
86.45930473868381
 20
-150.6030557956828
 30
0.0
 10
86.45930473868381
 20
-150.6030557956828
 30
0.0
 10
86.45930473868381
 20
-150.6030557956828
 30
0.0
 10
86.19662641205197
 20
-150.3446460735251
 30
0.0
 10
86.19662641205197
 20
-150.3446460735251
 30
0.0
 10
86.19662641205197
 20
-150.3446460735251
 30
0.0
 10
86.45930473868381
 20
-150.086271629145
 30
0.0
 10
86.45930473868381
 20
-150.086271629145
 30
0.0
 10
86.45930473868381
 20
-150.086271629145
 30
0.0
 10
86.19662641205197
 20
-149.8278971847655
 30
0.0
 10
86.19662641205197
 20
-149.8278971847655
 30
0.0
 10
86.19662641205197
 20
-149.8278971847655
 30
0.0
 10
86.45930473868381
 20
-149.5695227403854
 30
0.0
 10
86.45930473868381
 20
-149.5695227403854
 30
0.0
 10
86.45930473868381
 20
-149.5695227403854
 30
0.0
 10
86.19662641205197
 20
-149.3104427404504
 30
0.0
 10
86.19662641205197
 20
-149.3104427404504
 30
0.0
 10
86.19662641205197
 20
-149.3104427404504
 30
0.0
 10
86.45930473868381
 20
-149.0527385738476
 30
0.0
 10
86.45930473868381
 20
-149.0527385738476
 30
0.0
 10
86.45930473868381
 20
-149.0527385738476
 30
0.0
 10
86.19662641205197
 20
-148.7943641294681
 30
0.0
 10
86.19662641205197
 20
-148.7943641294681
 30
0.0
 10
86.19662641205197
 20
-148.7943641294681
 30
0.0
 10
86.45930473868381
 20
-148.535989685088
 30
0.0
 10
86.45930473868381
 20
-148.535989685088
 30
0.0
 10
86.45930473868381
 20
-148.535989685088
 30
0.0
 10
86.19662641205197
 20
-148.2782855184859
 30
0.0
 10
86.19662641205197
 20
-148.2782855184859
 30
0.0
 10
86.19662641205197
 20
-148.2782855184859
 30
0.0
 10
86.45930473868381
 20
-148.0199110741064
 30
0.0
 10
86.45930473868381
 20
-148.0199110741064
 30
0.0
 10
86.45930473868381
 20
-148.0199110741064
 30
0.0
 10
86.19662641205197
 20
-147.7622069075036
 30
0.0
 10
86.19662641205197
 20
-147.7622069075036
 30
0.0
 10
86.19662641205197
 20
-147.7622069075036
 30
0.0
 10
86.45930473868381
 20
-147.5031269075686
 30
0.0
 10
86.45930473868381
 20
-147.5031269075686
 30
0.0
 10
86.45930473868381
 20
-147.5031269075686
 30
0.0
 10
86.19662641205197
 20
-147.245458018744
 30
0.0
 10
86.19662641205197
 20
-147.245458018744
 30
0.0
 10
86.19662641205197
 20
-147.245458018744
 30
0.0
 10
86.45930473868381
 20
-146.9877538521419
 30
0.0
 10
86.45930473868381
 20
-146.9877538521419
 30
0.0
 10
86.45930473868381
 20
-146.9877538521419
 30
0.0
 10
86.19662641205197
 20
-146.7300496855398
 30
0.0
 10
86.19662641205197
 20
-146.7300496855398
 30
0.0
 10
86.19662641205197
 20
-146.7300496855398
 30
0.0
 10
86.45930473868381
 20
-146.4723807967152
 30
0.0
 10
86.45930473868381
 20
-146.4723807967152
 30
0.0
 10
86.45930473868381
 20
-146.4723807967152
 30
0.0
 10
86.19662641205197
 20
-146.2153821856686
 30
0.0
 10
86.19662641205197
 20
-146.2153821856686
 30
0.0
 10
86.19662641205197
 20
-146.2153821856686
 30
0.0
 10
86.45930473868381
 20
-145.9569724635109
 30
0.0
 10
86.45930473868381
 20
-145.9569724635109
 30
0.0
 10
86.45930473868381
 20
-145.9569724635109
 30
0.0
 10
86.19662641205197
 20
-145.6985980191308
 30
0.0
 10
86.19662641205197
 20
-145.6985980191308
 30
0.0
 10
86.19662641205197
 20
-145.6985980191308
 30
0.0
 10
86.45930473868381
 20
-145.4408938525287
 30
0.0
 10
86.45930473868381
 20
-145.4408938525287
 30
0.0
 10
86.45930473868381
 20
-145.4408938525287
 30
0.0
 10
86.19662641205197
 20
-145.1832249637041
 30
0.0
 10
86.19662641205197
 20
-145.1832249637041
 30
0.0
 10
86.19662641205197
 20
-145.1832249637041
 30
0.0
 10
86.45930473868381
 20
-144.9262263526575
 30
0.0
 10
86.45930473868381
 20
-144.9262263526575
 30
0.0
 10
86.45930473868381
 20
-144.9262263526575
 30
0.0
 10
86.19662641205197
 20
-144.6691924638327
 30
0.0
 10
86.19662641205197
 20
-144.6691924638327
 30
0.0
 10
86.19662641205197
 20
-144.6691924638327
 30
0.0
 10
86.45930473868381
 20
-144.4121938527861
 30
0.0
 10
86.45930473868381
 20
-144.4121938527861
 30
0.0
 10
86.45930473868381
 20
-144.4121938527861
 30
0.0
 10
86.19662641205197
 20
-144.1551952417389
 30
0.0
 10
86.19662641205197
 20
-144.1551952417389
 30
0.0
 10
86.19662641205197
 20
-144.1551952417389
 30
0.0
 10
86.45930473868381
 20
-143.8974910751368
 30
0.0
 10
86.45930473868381
 20
-143.8974910751368
 30
0.0
 10
86.45930473868381
 20
-143.8974910751368
 30
0.0
 10
86.19662641205197
 20
-143.6398221863122
 30
0.0
 10
86.19662641205197
 20
-143.6398221863122
 30
0.0
 10
86.19662641205197
 20
-143.6398221863122
 30
0.0
 10
86.45930473868381
 20
-143.3814124641545
 30
0.0
 10
86.45930473868381
 20
-143.3814124641545
 30
0.0
 10
86.45930473868381
 20
-143.3814124641545
 30
0.0
 10
86.19662641205197
 20
-143.1237435753299
 30
0.0
 10
86.19662641205197
 20
-143.1237435753299
 30
0.0
 10
86.19662641205197
 20
-143.1237435753299
 30
0.0
 10
86.45930473868381
 20
-142.8653691309504
 30
0.0
 10
86.45930473868381
 20
-142.8653691309504
 30
0.0
 10
86.45930473868381
 20
-142.8653691309504
 30
0.0
 10
86.19662641205197
 20
-142.6076649643483
 30
0.0
 10
86.19662641205197
 20
-142.6076649643483
 30
0.0
 10
86.19662641205197
 20
-142.6076649643483
 30
0.0
 10
86.45930473868381
 20
-142.3499607977455
 30
0.0
 10
86.45930473868381
 20
-142.3499607977455
 30
0.0
 10
86.45930473868381
 20
-142.3499607977455
 30
0.0
 10
86.19662641205197
 20
-142.0922919089216
 30
0.0
 10
86.19662641205197
 20
-142.0922919089216
 30
0.0
 10
86.19662641205197
 20
-142.0922919089216
 30
0.0
 10
86.45930473868381
 20
-141.8345877423195
 30
0.0
 10
86.45930473868381
 20
-141.8345877423195
 30
0.0
 10
86.45930473868381
 20
-141.8345877423195
 30
0.0
 10
86.19662641205197
 20
-141.5768835757167
 30
0.0
 10
86.19662641205197
 20
-141.5768835757167
 30
0.0
 10
86.19662641205197
 20
-141.5768835757167
 30
0.0
 10
86.45930473868381
 20
-141.3185091313372
 30
0.0
 10
86.45930473868381
 20
-141.3185091313372
 30
0.0
 10
86.45930473868381
 20
-141.3185091313372
 30
0.0
 10
86.19662641205197
 20
-141.0601346869571
 30
0.0
 10
86.19662641205197
 20
-141.0601346869571
 30
0.0
 10
86.19662641205197
 20
-141.0601346869571
 30
0.0
 10
86.45930473868381
 20
-140.802430520355
 30
0.0
 10
86.45930473868381
 20
-140.802430520355
 30
0.0
 10
86.45930473868381
 20
-140.802430520355
 30
0.0
 10
86.19662641205197
 20
-140.5447263537528
 30
0.0
 10
86.19662641205197
 20
-140.5447263537528
 30
0.0
 10
86.19662641205197
 20
-140.5447263537528
 30
0.0
 10
86.45930473868381
 20
-140.2870574649282
 30
0.0
 10
86.45930473868381
 20
-140.2870574649282
 30
0.0
 10
86.45930473868381
 20
-140.2870574649282
 30
0.0
 10
86.19662641205197
 20
-140.0293532983261
 30
0.0
 10
86.19662641205197
 20
-140.0293532983261
 30
0.0
 10
86.19662641205197
 20
-140.0293532983261
 30
0.0
 10
86.45930473868381
 20
-139.7723546872789
 30
0.0
 10
86.45930473868381
 20
-139.7723546872789
 30
0.0
 10
86.45930473868381
 20
-139.7723546872789
 30
0.0
 10
86.19662641205197
 20
-139.5139802428994
 30
0.0
 10
86.19662641205197
 20
-139.5139802428994
 30
0.0
 10
86.19662641205197
 20
-139.5139802428994
 30
0.0
 10
86.45930473868381
 20
-139.2562760762973
 30
0.0
 10
86.45930473868381
 20
-139.2562760762973
 30
0.0
 10
86.45930473868381
 20
-139.2562760762973
 30
0.0
 10
86.19662641205197
 20
-138.99927746525
 30
0.0
 10
86.19662641205197
 20
-138.99927746525
 30
0.0
 10
86.19662641205197
 20
-138.99927746525
 30
0.0
 10
86.45930473868381
 20
-138.7409030208705
 30
0.0
 10
86.45930473868381
 20
-138.7409030208705
 30
0.0
 10
86.45930473868381
 20
-138.7409030208705
 30
0.0
 10
86.19662641205197
 20
-138.4824932987129
 30
0.0
 10
86.19662641205197
 20
-138.4824932987129
 30
0.0
 10
86.19662641205197
 20
-138.4824932987129
 30
0.0
 10
86.45930473868381
 20
-138.2248244098883
 30
0.0
 10
86.45930473868381
 20
-138.2248244098883
 30
0.0
 10
86.45930473868381
 20
-138.2248244098883
 30
0.0
 10
86.19662641205197
 20
-137.9677905210635
 30
0.0
 10
86.19662641205197
 20
-137.9677905210635
 30
0.0
 10
86.19662641205197
 20
-137.9677905210635
 30
0.0
 10
86.45930473868381
 20
-137.7101216322389
 30
0.0
 10
86.45930473868381
 20
-137.7101216322389
 30
0.0
 10
86.45930473868381
 20
-137.7101216322389
 30
0.0
 10
86.19662641205197
 20
-137.4524174656368
 30
0.0
 10
86.19662641205197
 20
-137.4524174656368
 30
0.0
 10
86.19662641205197
 20
-137.4524174656368
 30
0.0
 10
86.45930473868381
 20
-137.1947132990347
 30
0.0
 10
86.45930473868381
 20
-137.1947132990347
 30
0.0
 10
86.45930473868381
 20
-137.1947132990347
 30
0.0
 10
86.19662641205197
 20
-136.9377146879881
 30
0.0
 10
86.19662641205197
 20
-136.9377146879881
 30
0.0
 10
86.19662641205197
 20
-136.9377146879881
 30
0.0
 10
86.45930473868381
 20
-136.6807160769408
 30
0.0
 10
86.45930473868381
 20
-136.6807160769408
 30
0.0
 10
86.45930473868381
 20
-136.6807160769408
 30
0.0
 10
86.19662641205197
 20
-136.4230119103387
 30
0.0
 10
86.19662641205197
 20
-136.4230119103387
 30
0.0
 10
86.19662641205197
 20
-136.4230119103387
 30
0.0
 10
86.45930473868381
 20
-136.1653430215141
 30
0.0
 10
86.45930473868381
 20
-136.1653430215141
 30
0.0
 10
86.45930473868381
 20
-136.1653430215141
 30
0.0
 10
86.19662641205197
 20
-135.907638854912
 30
0.0
 10
86.19662641205197
 20
-135.907638854912
 30
0.0
 10
86.19662641205197
 20
-135.907638854912
 30
0.0
 10
86.45930473868381
 20
-135.6499346883099
 30
0.0
 10
86.45930473868381
 20
-135.6499346883099
 30
0.0
 10
86.45930473868381
 20
-135.6499346883099
 30
0.0
 10
86.19662641205197
 20
-135.3922657994853
 30
0.0
 10
86.19662641205197
 20
-135.3922657994853
 30
0.0
 10
86.19662641205197
 20
-135.3922657994853
 30
0.0
 10
86.45930473868381
 20
-135.1338560773276
 30
0.0
 10
86.45930473868381
 20
-135.1338560773276
 30
0.0
 10
86.45930473868381
 20
-135.1338560773276
 30
0.0
 10
86.19662641205197
 20
-134.876187188503
 30
0.0
 10
86.19662641205197
 20
-134.876187188503
 30
0.0
 10
86.19662641205197
 20
-134.876187188503
 30
0.0
 10
86.45930473868381
 20
-134.6191885774564
 30
0.0
 10
86.45930473868381
 20
-134.6191885774564
 30
0.0
 10
86.45930473868381
 20
-134.6191885774564
 30
0.0
 10
86.19662641205197
 20
-134.3614844108543
 30
0.0
 10
86.19662641205197
 20
-134.3614844108543
 30
0.0
 10
86.19662641205197
 20
-134.3614844108543
 30
0.0
 10
86.45930473868381
 20
-134.104485799807
 30
0.0
 10
86.45930473868381
 20
-134.104485799807
 30
0.0
 10
86.45930473868381
 20
-134.104485799807
 30
0.0
 10
86.19662641205197
 20
-133.8467816332049
 30
0.0
 10
86.19662641205197
 20
-133.8467816332049
 30
0.0
 10
86.19662641205197
 20
-133.8467816332049
 30
0.0
 10
86.45930473868381
 20
-133.5897830221583
 30
0.0
 10
86.45930473868381
 20
-133.5897830221583
 30
0.0
 10
86.45930473868381
 20
-133.5897830221583
 30
0.0
 10
86.19662641205197
 20
-133.3327844111111
 30
0.0
 10
86.19662641205197
 20
-133.3327844111111
 30
0.0
 10
86.19662641205197
 20
-133.3327844111111
 30
0.0
 10
86.45930473868381
 20
-133.0757858000645
 30
0.0
 10
86.45930473868381
 20
-133.0757858000645
 30
0.0
 10
86.45930473868381
 20
-133.0757858000645
 30
0.0
 10
86.19662641205197
 20
-132.8180816334624
 30
0.0
 10
86.19662641205197
 20
-132.8180816334624
 30
0.0
 10
86.19662641205197
 20
-132.8180816334624
 30
0.0
 10
86.45930473868381
 20
-132.5610830224151
 30
0.0
 10
86.45930473868381
 20
-132.5610830224151
 30
0.0
 10
86.45930473868381
 20
-132.5610830224151
 30
0.0
 10
86.19662641205197
 20
-132.3040844113685
 30
0.0
 10
86.19662641205197
 20
-132.3040844113685
 30
0.0
 10
86.19662641205197
 20
-132.3040844113685
 30
0.0
 10
86.45930473868381
 20
-132.0470505225438
 30
0.0
 10
86.45930473868381
 20
-132.0470505225438
 30
0.0
 10
86.45930473868381
 20
-132.0470505225438
 30
0.0
 10
86.19662641205197
 20
-131.7893816337192
 30
0.0
 10
86.19662641205197
 20
-131.7893816337192
 30
0.0
 10
86.19662641205197
 20
-131.7893816337192
 30
0.0
 10
86.45930473868381
 20
-131.5323830226725
 30
0.0
 10
86.45930473868381
 20
-131.5323830226725
 30
0.0
 10
86.45930473868381
 20
-131.5323830226725
 30
0.0
 10
86.19662641205197
 20
-131.2746788560704
 30
0.0
 10
86.19662641205197
 20
-131.2746788560704
 30
0.0
 10
86.19662641205197
 20
-131.2746788560704
 30
0.0
 10
86.45930473868381
 20
-131.0169746894677
 30
0.0
 10
86.45930473868381
 20
-131.0169746894677
 30
0.0
 10
86.45930473868381
 20
-131.0169746894677
 30
0.0
 10
86.19662641205197
 20
-130.7599760784211
 30
0.0
 10
86.19662641205197
 20
-130.7599760784211
 30
0.0
 10
86.19662641205197
 20
-130.7599760784211
 30
0.0
 10
86.45930473868381
 20
-130.5016016340416
 30
0.0
 10
86.45930473868381
 20
-130.5016016340416
 30
0.0
 10
86.45930473868381
 20
-130.5016016340416
 30
0.0
 10
86.19662641205197
 20
-130.2438974674388
 30
0.0
 10
86.19662641205197
 20
-130.2438974674388
 30
0.0
 10
86.19662641205197
 20
-130.2438974674388
 30
0.0
 10
86.45930473868381
 20
-129.9861933008367
 30
0.0
 10
86.45930473868381
 20
-129.9861933008367
 30
0.0
 10
86.45930473868381
 20
-129.9861933008367
 30
0.0
 10
86.19662641205197
 20
-129.7291946897901
 30
0.0
 10
86.19662641205197
 20
-129.7291946897901
 30
0.0
 10
86.19662641205197
 20
-129.7291946897901
 30
0.0
 10
86.45930473868381
 20
-129.4721960787429
 30
0.0
 10
86.45930473868381
 20
-129.4721960787429
 30
0.0
 10
86.45930473868381
 20
-129.4721960787429
 30
0.0
 10
86.19662641205197
 20
-129.2144919121407
 30
0.0
 10
86.19662641205197
 20
-129.2144919121407
 30
0.0
 10
86.19662641205197
 20
-129.2144919121407
 30
0.0
 10
86.45930473868381
 20
-128.9574933010941
 30
0.0
 10
86.45930473868381
 20
-128.9574933010941
 30
0.0
 10
86.45930473868381
 20
-128.9574933010941
 30
0.0
 10
86.19662641205197
 20
-128.7004946900472
 30
0.0
 10
86.19662641205197
 20
-128.7004946900472
 30
0.0
 10
86.19662641205197
 20
-128.7004946900472
 30
0.0
 10
86.45930473868381
 20
-128.4442016345555
 30
0.0
 10
86.45930473868381
 20
-128.4442016345555
 30
0.0
 10
86.45930473868381
 20
-128.4442016345555
 30
0.0
 10
86.19662641205197
 20
-128.187167745731
 30
0.0
 10
86.19662641205197
 20
-128.187167745731
 30
0.0
 10
86.19662641205197
 20
-128.187167745731
 30
0.0
 10
86.45930473868381
 20
-127.9301691346841
 30
0.0
 10
86.45930473868381
 20
-127.9301691346841
 30
0.0
 10
86.45930473868381
 20
-127.9301691346841
 30
0.0
 10
86.19662641205197
 20
-127.6731705236372
 30
0.0
 10
86.19662641205197
 20
-127.6731705236372
 30
0.0
 10
86.19662641205197
 20
-127.6731705236372
 30
0.0
 10
86.45930473868381
 20
-127.4134202459245
 30
0.0
 10
86.45930473868381
 20
-127.4134202459245
 30
0.0
 10
86.45930473868381
 20
-127.4134202459245
 30
0.0
 10
86.19662641205197
 20
-127.1543402459892
 30
0.0
 10
86.19662641205197
 20
-127.1543402459892
 30
0.0
 10
86.19662641205197
 20
-127.1543402459892
 30
0.0
 10
86.45930473868381
 20
-126.8945899682765
 30
0.0
 10
86.45930473868381
 20
-126.8945899682765
 30
0.0
 10
86.45930473868381
 20
-126.8945899682765
 30
0.0
 10
86.19662641205197
 20
-126.6362155238964
 30
0.0
 10
86.19662641205197
 20
-126.6362155238964
 30
0.0
 10
86.19662641205197
 20
-126.6362155238964
 30
0.0
 10
86.45930473868381
 20
-126.3764299684059
 30
0.0
 10
86.45930473868381
 20
-126.3764299684059
 30
0.0
 10
86.45930473868381
 20
-126.3764299684059
 30
0.0
 10
86.19662641205197
 20
-126.118055524026
 30
0.0
 10
86.19662641205197
 20
-126.118055524026
 30
0.0
 10
86.19662641205197
 20
-126.118055524026
 30
0.0
 10
86.45930473868381
 20
-125.8596810796462
 30
0.0
 10
86.45930473868381
 20
-125.8596810796462
 30
0.0
 10
86.45930473868381
 20
-125.8596810796462
 30
0.0
 10
86.19662641205197
 20
-125.6006010797109
 30
0.0
 10
86.19662641205197
 20
-125.6006010797109
 30
0.0
 10
86.19662641205197
 20
-125.6006010797109
 30
0.0
 10
86.45930473868381
 20
-125.3428969131088
 30
0.0
 10
86.45930473868381
 20
-125.3428969131088
 30
0.0
 10
86.45930473868381
 20
-125.3428969131088
 30
0.0
 10
86.19662641205197
 20
-125.0852280242842
 30
0.0
 10
86.19662641205197
 20
-125.0852280242842
 30
0.0
 10
86.19662641205197
 20
-125.0852280242842
 30
0.0
 10
86.45930473868381
 20
-124.8261480243492
 30
0.0
 10
86.45930473868381
 20
-124.8261480243492
 30
0.0
 10
86.45930473868381
 20
-124.8261480243492
 30
0.0
 10
86.19662641205197
 20
-124.5677735799691
 30
0.0
 10
86.19662641205197
 20
-124.5677735799691
 30
0.0
 10
86.19662641205197
 20
-124.5677735799691
 30
0.0
 10
86.45930473868381
 20
-124.308693580034
 30
0.0
 10
86.45930473868381
 20
-124.308693580034
 30
0.0
 10
86.45930473868381
 20
-124.308693580034
 30
0.0
 10
86.19662641205197
 20
-124.0503191356542
 30
0.0
 10
86.19662641205197
 20
-124.0503191356542
 30
0.0
 10
86.19662641205197
 20
-124.0503191356542
 30
0.0
 10
86.45930473868381
 20
-123.7919446912741
 30
0.0
 10
86.45930473868381
 20
-123.7919446912741
 30
0.0
 10
86.45930473868381
 20
-123.7919446912741
 30
0.0
 10
86.19662641205197
 20
-123.5335349691168
 30
0.0
 10
86.19662641205197
 20
-123.5335349691168
 30
0.0
 10
86.19662641205197
 20
-123.5335349691168
 30
0.0
 10
86.45930473868381
 20
-123.2751605247367
 30
0.0
 10
86.45930473868381
 20
-123.2751605247367
 30
0.0
 10
86.45930473868381
 20
-123.2751605247367
 30
0.0
 10
86.19662641205197
 20
-123.0167860803569
 30
0.0
 10
86.19662641205197
 20
-123.0167860803569
 30
0.0
 10
86.19662641205197
 20
-123.0167860803569
 30
0.0
 10
86.45930473868381
 20
-122.7590819137547
 30
0.0
 10
86.45930473868381
 20
-122.7590819137547
 30
0.0
 10
86.45930473868381
 20
-122.7590819137547
 30
0.0
 10
86.19662641205197
 20
-122.5007074693749
 30
0.0
 10
86.19662641205197
 20
-122.5007074693749
 30
0.0
 10
86.19662641205197
 20
-122.5007074693749
 30
0.0
 10
86.45930473868381
 20
-122.2430033027725
 30
0.0
 10
86.45930473868381
 20
-122.2430033027725
 30
0.0
 10
86.45930473868381
 20
-122.2430033027725
 30
0.0
 10
86.19662641205197
 20
-121.9846288583927
 30
0.0
 10
86.19662641205197
 20
-121.9846288583927
 30
0.0
 10
86.19662641205197
 20
-121.9846288583927
 30
0.0
 10
86.45930473868381
 20
-121.7262544140129
 30
0.0
 10
86.45930473868381
 20
-121.7262544140129
 30
0.0
 10
86.45930473868381
 20
-121.7262544140129
 30
0.0
 10
86.19662641205197
 20
-121.4685502474108
 30
0.0
 10
86.19662641205197
 20
-121.4685502474108
 30
0.0
 10
86.19662641205197
 20
-121.4685502474108
 30
0.0
 10
86.45930473868381
 20
-121.2101758030309
 30
0.0
 10
86.45930473868381
 20
-121.2101758030309
 30
0.0
 10
86.45930473868381
 20
-121.2101758030309
 30
0.0
 10
86.19662641205197
 20
-120.953177191984
 30
0.0
 10
86.19662641205197
 20
-120.953177191984
 30
0.0
 10
86.19662641205197
 20
-120.953177191984
 30
0.0
 10
86.45930473868381
 20
-120.6954730253816
 30
0.0
 10
86.45930473868381
 20
-120.6954730253816
 30
0.0
 10
86.45930473868381
 20
-120.6954730253816
 30
0.0
 10
86.19662641205197
 20
-120.4377688587795
 30
0.0
 10
86.19662641205197
 20
-120.4377688587795
 30
0.0
 10
86.19662641205197
 20
-120.4377688587795
 30
0.0
 10
86.45930473868381
 20
-120.1800999699549
 30
0.0
 10
86.45930473868381
 20
-120.1800999699549
 30
0.0
 10
86.45930473868381
 20
-120.1800999699549
 30
0.0
 10
86.19662641205197
 20
-119.9216902477972
 30
0.0
 10
86.19662641205197
 20
-119.9216902477972
 30
0.0
 10
86.19662641205197
 20
-119.9216902477972
 30
0.0
 10
86.45930473868381
 20
-119.6633158034174
 30
0.0
 10
86.45930473868381
 20
-119.6633158034174
 30
0.0
 10
86.45930473868381
 20
-119.6633158034174
 30
0.0
 10
86.19662641205197
 20
-119.4056469145931
 30
0.0
 10
86.19662641205197
 20
-119.4056469145931
 30
0.0
 10
86.19662641205197
 20
-119.4056469145931
 30
0.0
 10
86.45930473868381
 20
-119.1486130257684
 30
0.0
 10
86.45930473868381
 20
-119.1486130257684
 30
0.0
 10
86.45930473868381
 20
-119.1486130257684
 30
0.0
 10
86.19662641205197
 20
-118.8916144147214
 30
0.0
 10
86.19662641205197
 20
-118.8916144147214
 30
0.0
 10
86.19662641205197
 20
-118.8916144147214
 30
0.0
 10
86.45930473868381
 20
-118.6346158036745
 30
0.0
 10
86.45930473868381
 20
-118.6346158036745
 30
0.0
 10
86.45930473868381
 20
-118.6346158036745
 30
0.0
 10
86.19662641205197
 20
-118.3776171926279
 30
0.0
 10
86.19662641205197
 20
-118.3776171926279
 30
0.0
 10
86.19662641205197
 20
-118.3776171926279
 30
0.0
 10
86.45930473868381
 20
-118.120618581581
 30
0.0
 10
86.45930473868381
 20
-118.120618581581
 30
0.0
 10
86.45930473868381
 20
-118.120618581581
 30
0.0
 10
86.19662641205197
 20
-117.8622441372012
 30
0.0
 10
86.19662641205197
 20
-117.8622441372012
 30
0.0
 10
86.19662641205197
 20
-117.8622441372012
 30
0.0
 10
86.45930473868381
 20
-117.6038344150436
 30
0.0
 10
86.45930473868381
 20
-117.6038344150436
 30
0.0
 10
86.45930473868381
 20
-117.6038344150436
 30
0.0
 10
86.19662641205197
 20
-117.346165526219
 30
0.0
 10
86.19662641205197
 20
-117.346165526219
 30
0.0
 10
86.19662641205197
 20
-117.346165526219
 30
0.0
 10
86.45930473868381
 20
-117.0877558040613
 30
0.0
 10
86.45930473868381
 20
-117.0877558040613
 30
0.0
 10
86.45930473868381
 20
-117.0877558040613
 30
0.0
 10
86.19662641205197
 20
-116.8307571930147
 30
0.0
 10
86.19662641205197
 20
-116.8307571930147
 30
0.0
 10
86.19662641205197
 20
-116.8307571930147
 30
0.0
 10
86.45930473868381
 20
-116.5723827486346
 30
0.0
 10
86.45930473868381
 20
-116.5723827486346
 30
0.0
 10
86.45930473868381
 20
-116.5723827486346
 30
0.0
 10
86.19662641205197
 20
-116.3146785820325
 30
0.0
 10
86.19662641205197
 20
-116.3146785820325
 30
0.0
 10
86.19662641205197
 20
-116.3146785820325
 30
0.0
 10
86.45930473868381
 20
-116.0570096932079
 30
0.0
 10
86.45930473868381
 20
-116.0570096932079
 30
0.0
 10
86.45930473868381
 20
-116.0570096932079
 30
0.0
 10
86.19662641205197
 20
-115.7993055266057
 30
0.0
 10
86.19662641205197
 20
-115.7993055266057
 30
0.0
 10
86.19662641205197
 20
-115.7993055266057
 30
0.0
 10
86.45930473868381
 20
-115.5416013600036
 30
0.0
 10
86.45930473868381
 20
-115.5416013600036
 30
0.0
 10
86.45930473868381
 20
-115.5416013600036
 30
0.0
 10
86.19662641205197
 20
-115.2832269156235
 30
0.0
 10
86.19662641205197
 20
-115.2832269156235
 30
0.0
 10
86.19662641205197
 20
-115.2832269156235
 30
0.0
 10
86.45930473868381
 20
-115.0248524712437
 30
0.0
 10
86.45930473868381
 20
-115.0248524712437
 30
0.0
 10
86.45930473868381
 20
-115.0248524712437
 30
0.0
 10
86.19662641205197
 20
-114.7671483046416
 30
0.0
 10
86.19662641205197
 20
-114.7671483046416
 30
0.0
 10
86.19662641205197
 20
-114.7671483046416
 30
0.0
 10
86.45930473868381
 20
-114.5101496935946
 30
0.0
 10
86.45930473868381
 20
-114.5101496935946
 30
0.0
 10
86.45930473868381
 20
-114.5101496935946
 30
0.0
 10
86.19662641205197
 20
-114.2524455269925
 30
0.0
 10
86.19662641205197
 20
-114.2524455269925
 30
0.0
 10
86.19662641205197
 20
-114.2524455269925
 30
0.0
 10
86.45930473868381
 20
-113.9947766381679
 30
0.0
 10
86.45930473868381
 20
-113.9947766381679
 30
0.0
 10
86.45930473868381
 20
-113.9947766381679
 30
0.0
 10
86.19662641205197
 20
-113.7370724715658
 30
0.0
 10
86.19662641205197
 20
-113.7370724715658
 30
0.0
 10
86.19662641205197
 20
-113.7370724715658
 30
0.0
 10
86.45930473868381
 20
-113.4793683049637
 30
0.0
 10
86.45930473868381
 20
-113.4793683049637
 30
0.0
 10
86.45930473868381
 20
-113.4793683049637
 30
0.0
 10
86.19662641205197
 20
-113.2216994161391
 30
0.0
 10
86.19662641205197
 20
-113.2216994161391
 30
0.0
 10
86.19662641205197
 20
-113.2216994161391
 30
0.0
 10
86.45930473868381
 20
-112.9639952495369
 30
0.0
 10
86.45930473868381
 20
-112.9639952495369
 30
0.0
 10
86.45930473868381
 20
-112.9639952495369
 30
0.0
 10
86.19662641205197
 20
-112.7056208051568
 30
0.0
 10
86.19662641205197
 20
-112.7056208051568
 30
0.0
 10
86.19662641205197
 20
-112.7056208051568
 30
0.0
 10
86.45930473868381
 20
-112.4479166385547
 30
0.0
 10
86.45930473868381
 20
-112.4479166385547
 30
0.0
 10
86.45930473868381
 20
-112.4479166385547
 30
0.0
 10
86.19662641205197
 20
-112.1902124719526
 30
0.0
 10
86.19662641205197
 20
-112.1902124719526
 30
0.0
 10
86.19662641205197
 20
-112.1902124719526
 30
0.0
 10
86.45930473868381
 20
-111.932543583128
 30
0.0
 10
86.45930473868381
 20
-111.932543583128
 30
0.0
 10
86.45930473868381
 20
-111.932543583128
 30
0.0
 10
86.19662641205197
 20
-111.6755096943032
 30
0.0
 10
86.19662641205197
 20
-111.6755096943032
 30
0.0
 10
86.19662641205197
 20
-111.6755096943032
 30
0.0
 10
86.45930473868381
 20
-111.4178408054789
 30
0.0
 10
86.45930473868381
 20
-111.4178408054789
 30
0.0
 10
86.45930473868381
 20
-111.4178408054789
 30
0.0
 10
86.19662641205197
 20
-111.1601366388765
 30
0.0
 10
86.19662641205197
 20
-111.1601366388765
 30
0.0
 10
86.19662641205197
 20
-111.1601366388765
 30
0.0
 10
86.45930473868381
 20
-110.9031380278299
 30
0.0
 10
86.45930473868381
 20
-110.9031380278299
 30
0.0
 10
86.45930473868381
 20
-110.9031380278299
 30
0.0
 10
86.19662641205197
 20
-110.6454338612274
 30
0.0
 10
86.19662641205197
 20
-110.6454338612274
 30
0.0
 10
86.19662641205197
 20
-110.6454338612274
 30
0.0
 10
86.45930473868381
 20
-110.3884352501805
 30
0.0
 10
86.45930473868381
 20
-110.3884352501805
 30
0.0
 10
86.45930473868381
 20
-110.3884352501805
 30
0.0
 10
86.19662641205197
 20
-110.1307310835784
 30
0.0
 10
86.19662641205197
 20
-110.1307310835784
 30
0.0
 10
86.19662641205197
 20
-110.1307310835784
 30
0.0
 10
86.45930473868381
 20
-109.8727094169763
 30
0.0
 10
86.45930473868381
 20
-109.8727094169763
 30
0.0
 10
86.45930473868381
 20
-109.8727094169763
 30
0.0
 10
86.19662641205197
 20
-109.6150052503739
 30
0.0
 10
86.19662641205197
 20
-109.6150052503739
 30
0.0
 10
86.19662641205197
 20
-109.6150052503739
 30
0.0
 10
86.45930473868381
 20
-109.3569835837719
 30
0.0
 10
86.45930473868381
 20
-109.3569835837719
 30
0.0
 10
86.45930473868381
 20
-109.3569835837719
 30
0.0
 10
86.19662641205197
 20
-109.0992794171697
 30
0.0
 10
86.19662641205197
 20
-109.0992794171697
 30
0.0
 10
86.19662641205197
 20
-109.0992794171697
 30
0.0
 10
86.45930473868381
 20
-108.8415752505673
 30
0.0
 10
86.45930473868381
 20
-108.8415752505673
 30
0.0
 10
86.45930473868381
 20
-108.8415752505673
 30
0.0
 10
86.19662641205197
 20
-108.5842591395205
 30
0.0
 10
86.19662641205197
 20
-108.5842591395205
 30
0.0
 10
86.19662641205197
 20
-108.5842591395205
 30
0.0
 10
86.45930473868381
 20
-108.3265549729183
 30
0.0
 10
86.45930473868381
 20
-108.3265549729183
 30
0.0
 10
86.45930473868381
 20
-108.3265549729183
 30
0.0
 10
86.19662641205197
 20
-108.0698738618713
 30
0.0
 10
86.19662641205197
 20
-108.0698738618713
 30
0.0
 10
86.19662641205197
 20
-108.0698738618713
 30
0.0
 10
86.45930473868381
 20
-107.812204973047
 30
0.0
 10
86.45930473868381
 20
-107.812204973047
 30
0.0
 10
86.45930473868381
 20
-107.812204973047
 30
0.0
 10
86.19662641205197
 20
-107.5552063620001
 30
0.0
 10
86.19662641205197
 20
-107.5552063620001
 30
0.0
 10
86.19662641205197
 20
-107.5552063620001
 30
0.0
 10
86.45930473868381
 20
-107.2978549731754
 30
0.0
 10
86.45930473868381
 20
-107.2978549731754
 30
0.0
 10
86.45930473868381
 20
-107.2978549731754
 30
0.0
 10
86.19662641205197
 20
-107.0408563621285
 30
0.0
 10
86.19662641205197
 20
-107.0408563621285
 30
0.0
 10
86.19662641205197
 20
-107.0408563621285
 30
0.0
 10
86.45930473868381
 20
-106.7838224733041
 30
0.0
 10
86.45930473868381
 20
-106.7838224733041
 30
0.0
 10
86.45930473868381
 20
-106.7838224733041
 30
0.0
 10
86.19662641205197
 20
-106.5264710844794
 30
0.0
 10
86.19662641205197
 20
-106.5264710844794
 30
0.0
 10
86.19662641205197
 20
-106.5264710844794
 30
0.0
 10
86.45930473868381
 20
-106.2694724734328
 30
0.0
 10
86.45930473868381
 20
-106.2694724734328
 30
0.0
 10
86.45930473868381
 20
-106.2694724734328
 30
0.0
 10
86.19662641205197
 20
-106.0121210846081
 30
0.0
 10
86.19662641205197
 20
-106.0121210846081
 30
0.0
 10
86.19662641205197
 20
-106.0121210846081
 30
0.0
 10
86.45930473868381
 20
-105.7547696957834
 30
0.0
 10
86.45930473868381
 20
-105.7547696957834
 30
0.0
 10
86.45930473868381
 20
-105.7547696957834
 30
0.0
 10
86.19662641205197
 20
-105.4974535847366
 30
0.0
 10
86.19662641205197
 20
-105.4974535847366
 30
0.0
 10
86.19662641205197
 20
-105.4974535847366
 30
0.0
 10
86.45930473868381
 20
-105.2397494181345
 30
0.0
 10
86.45930473868381
 20
-105.2397494181345
 30
0.0
 10
86.45930473868381
 20
-105.2397494181345
 30
0.0
 10
86.19662641205197
 20
-104.9820452515324
 30
0.0
 10
86.19662641205197
 20
-104.9820452515324
 30
0.0
 10
86.19662641205197
 20
-104.9820452515324
 30
0.0
 10
86.45930473868381
 20
-104.7243410849299
 30
0.0
 10
86.45930473868381
 20
-104.7243410849299
 30
0.0
 10
86.45930473868381
 20
-104.7243410849299
 30
0.0
 10
86.19662641205197
 20
-104.4666721961056
 30
0.0
 10
86.19662641205197
 20
-104.4666721961056
 30
0.0
 10
86.19662641205197
 20
-104.4666721961056
 30
0.0
 10
86.45930473868381
 20
-104.2089680295032
 30
0.0
 10
86.45930473868381
 20
-104.2089680295032
 30
0.0
 10
86.45930473868381
 20
-104.2089680295032
 30
0.0
 10
86.19662641205197
 20
-103.9519694184566
 30
0.0
 10
86.19662641205197
 20
-103.9519694184566
 30
0.0
 10
86.19662641205197
 20
-103.9519694184566
 30
0.0
 10
86.45930473868381
 20
-103.6942652518541
 30
0.0
 10
86.45930473868381
 20
-103.6942652518541
 30
0.0
 10
86.45930473868381
 20
-103.6942652518541
 30
0.0
 10
86.19662641205197
 20
-103.4372666408072
 30
0.0
 10
86.19662641205197
 20
-103.4372666408072
 30
0.0
 10
86.19662641205197
 20
-103.4372666408072
 30
0.0
 10
86.45930473868381
 20
-103.1806208075381
 30
0.0
 10
86.45930473868381
 20
-103.1806208075381
 30
0.0
 10
86.45930473868381
 20
-103.1806208075381
 30
0.0
 10
86.19662641205197
 20
-102.9232694187137
 30
0.0
 10
86.19662641205197
 20
-102.9232694187137
 30
0.0
 10
86.19662641205197
 20
-102.9232694187137
 30
0.0
 10
86.45930473868381
 20
-102.6665883076667
 30
0.0
 10
86.45930473868381
 20
-102.6665883076667
 30
0.0
 10
86.45930473868381
 20
-102.6665883076667
 30
0.0
 10
86.19662641205197
 20
-102.4099424743975
 30
0.0
 10
86.19662641205197
 20
-102.4099424743975
 30
0.0
 10
86.19662641205197
 20
-102.4099424743975
 30
0.0
 10
86.45930473868381
 20
-102.1532966411284
 30
0.0
 10
86.45930473868381
 20
-102.1532966411284
 30
0.0
 10
86.45930473868381
 20
-102.1532966411284
 30
0.0
 10
86.19662641205197
 20
-101.8962627523036
 30
0.0
 10
86.19662641205197
 20
-101.8962627523036
 30
0.0
 10
86.19662641205197
 20
-101.8962627523036
 30
0.0
 10
86.45930473868381
 20
-101.639264141257
 30
0.0
 10
86.45930473868381
 20
-101.639264141257
 30
0.0
 10
86.45930473868381
 20
-101.639264141257
 30
0.0
 10
85.99921197264398
 20
-101.639264141257
 30
0.0
 10
85.99921197264398
 20
-101.639264141257
 30
0.0
 10
85.99921197264398
 20
-101.639264141257
 30
0.0
 10
85.99921197264398
 20
-99.5715277528849
 30
0.0
 10
85.99921197264398
 20
-99.5715277528849
 30
0.0
 10
85.99921197264398
 20
-99.5715277528849
 30
0.0
 10
86.58471942279823
 20
-99.5715277528849
 30
0.0
 10
86.58471942279823
 20
-99.5715277528849
 30
0.0
 10
87.30974610587614
 20
-99.5715277528849
 30
0.0
 10
87.89729747977535
 20
-100.1554808082946
 30
0.0
 10
87.89729747977535
 20
-100.8765233081142
 30
0.0
 10
87.89729747977535
 20
-100.8765233081142
 30
0.0
 10
87.89729747977535
 20
-159.1799655157608
 30
0.0
 10
87.89729747977535
 20
-159.1799655157608
 30
0.0
 10
87.89729747977535
 20
-159.3962888490399
 30
0.0
 10
87.7209085953865
 20
-159.5720074601067
 30
0.0
 10
87.50370553367976
 20
-159.5720074601067
 30
0.0
  0
HATCH
  5
42
330
1F
100
AcDbEntity
  8
_U+30EC_U+30A4_U+30E4_U+30FC 1
 62
     9
420
 13224394
100
AcDbHatch
 10
0.0
 20
0.0
 30
0.0
210
0.0
220
0.0
230
1.0
  2
SOLID
 70
     1
 71
     0
 91
        1
 92
        1
 93
        1
 72
     4
 94
        3
 73
     0
 74
     1
 95
      665
 96
      661
 40
0.0
 40
0.0
 40
0.0
 40
0.0
 40
1.0
 40
1.0
 40
1.0
 40
2.0
 40
2.0
 40
2.0
 40
3.0
 40
3.0
 40
3.0
 40
4.0
 40
4.0
 40
4.0
 40
5.0
 40
5.0
 40
5.0
 40
6.0
 40
6.0
 40
6.0
 40
7.0
 40
7.0
 40
7.0
 40
8.0
 40
8.0
 40
8.0
 40
9.0
 40
9.0
 40
9.0
 40
10.0
 40
10.0
 40
10.0
 40
11.0
 40
11.0
 40
11.0
 40
12.0
 40
12.0
 40
12.0
 40
13.0
 40
13.0
 40
13.0
 40
14.0
 40
14.0
 40
14.0
 40
15.0
 40
15.0
 40
15.0
 40
16.0
 40
16.0
 40
16.0
 40
17.0
 40
17.0
 40
17.0
 40
18.0
 40
18.0
 40
18.0
 40
19.0
 40
19.0
 40
19.0
 40
20.0
 40
20.0
 40
20.0
 40
21.0
 40
21.0
 40
21.0
 40
22.0
 40
22.0
 40
22.0
 40
23.0
 40
23.0
 40
23.0
 40
24.0
 40
24.0
 40
24.0
 40
25.0
 40
25.0
 40
25.0
 40
26.0
 40
26.0
 40
26.0
 40
27.0
 40
27.0
 40
27.0
 40
28.0
 40
28.0
 40
28.0
 40
29.0
 40
29.0
 40
29.0
 40
30.0
 40
30.0
 40
30.0
 40
31.0
 40
31.0
 40
31.0
 40
32.0
 40
32.0
 40
32.0
 40
33.0
 40
33.0
 40
33.0
 40
34.0
 40
34.0
 40
34.0
 40
35.0
 40
35.0
 40
35.0
 40
36.0
 40
36.0
 40
36.0
 40
37.0
 40
37.0
 40
37.0
 40
38.0
 40
38.0
 40
38.0
 40
39.0
 40
39.0
 40
39.0
 40
40.0
 40
40.0
 40
40.0
 40
41.0
 40
41.0
 40
41.0
 40
42.0
 40
42.0
 40
42.0
 40
43.0
 40
43.0
 40
43.0
 40
44.0
 40
44.0
 40
44.0
 40
45.0
 40
45.0
 40
45.0
 40
46.0
 40
46.0
 40
46.0
 40
47.0
 40
47.0
 40
47.0
 40
48.0
 40
48.0
 40
48.0
 40
49.0
 40
49.0
 40
49.0
 40
50.0
 40
50.0
 40
50.0
 40
51.0
 40
51.0
 40
51.0
 40
52.0
 40
52.0
 40
52.0
 40
53.0
 40
53.0
 40
53.0
 40
54.0
 40
54.0
 40
54.0
 40
55.0
 40
55.0
 40
55.0
 40
56.0
 40
56.0
 40
56.0
 40
57.0
 40
57.0
 40
57.0
 40
58.0
 40
58.0
 40
58.0
 40
59.0
 40
59.0
 40
59.0
 40
60.0
 40
60.0
 40
60.0
 40
61.0
 40
61.0
 40
61.0
 40
62.0
 40
62.0
 40
62.0
 40
63.0
 40
63.0
 40
63.0
 40
64.0
 40
64.0
 40
64.0
 40
65.0
 40
65.0
 40
65.0
 40
66.0
 40
66.0
 40
66.0
 40
67.0
 40
67.0
 40
67.0
 40
68.0
 40
68.0
 40
68.0
 40
69.0
 40
69.0
 40
69.0
 40
70.0
 40
70.0
 40
70.0
 40
71.0
 40
71.0
 40
71.0
 40
72.0
 40
72.0
 40
72.0
 40
73.0
 40
73.0
 40
73.0
 40
74.0
 40
74.0
 40
74.0
 40
75.0
 40
75.0
 40
75.0
 40
76.0
 40
76.0
 40
76.0
 40
77.0
 40
77.0
 40
77.0
 40
78.0
 40
78.0
 40
78.0
 40
79.0
 40
79.0
 40
79.0
 40
80.0
 40
80.0
 40
80.0
 40
81.0
 40
81.0
 40
81.0
 40
82.0
 40
82.0
 40
82.0
 40
83.0
 40
83.0
 40
83.0
 40
84.0
 40
84.0
 40
84.0
 40
85.0
 40
85.0
 40
85.0
 40
86.0
 40
86.0
 40
86.0
 40
87.0
 40
87.0
 40
87.0
 40
88.0
 40
88.0
 40
88.0
 40
89.0
 40
89.0
 40
89.0
 40
90.0
 40
90.0
 40
90.0
 40
91.0
 40
91.0
 40
91.0
 40
92.0
 40
92.0
 40
92.0
 40
93.0
 40
93.0
 40
93.0
 40
94.0
 40
94.0
 40
94.0
 40
95.0
 40
95.0
 40
95.0
 40
96.0
 40
96.0
 40
96.0
 40
97.0
 40
97.0
 40
97.0
 40
98.0
 40
98.0
 40
98.0
 40
99.0
 40
99.0
 40
99.0
 40
100.0
 40
100.0
 40
100.0
 40
101.0
 40
101.0
 40
101.0
 40
102.0
 40
102.0
 40
102.0
 40
103.0
 40
103.0
 40
103.0
 40
104.0
 40
104.0
 40
104.0
 40
105.0
 40
105.0
 40
105.0
 40
106.0
 40
106.0
 40
106.0
 40
107.0
 40
107.0
 40
107.0
 40
108.0
 40
108.0
 40
108.0
 40
109.0
 40
109.0
 40
109.0
 40
110.0
 40
110.0
 40
110.0
 40
111.0
 40
111.0
 40
111.0
 40
112.0
 40
112.0
 40
112.0
 40
113.0
 40
113.0
 40
113.0
 40
114.0
 40
114.0
 40
114.0
 40
115.0
 40
115.0
 40
115.0
 40
116.0
 40
116.0
 40
116.0
 40
117.0
 40
117.0
 40
117.0
 40
118.0
 40
118.0
 40
118.0
 40
119.0
 40
119.0
 40
119.0
 40
120.0
 40
120.0
 40
120.0
 40
121.0
 40
121.0
 40
121.0
 40
122.0
 40
122.0
 40
122.0
 40
123.0
 40
123.0
 40
123.0
 40
124.0
 40
124.0
 40
124.0
 40
125.0
 40
125.0
 40
125.0
 40
126.0
 40
126.0
 40
126.0
 40
127.0
 40
127.0
 40
127.0
 40
128.0
 40
128.0
 40
128.0
 40
129.0
 40
129.0
 40
129.0
 40
130.0
 40
130.0
 40
130.0
 40
131.0
 40
131.0
 40
131.0
 40
132.0
 40
132.0
 40
132.0
 40
133.0
 40
133.0
 40
133.0
 40
134.0
 40
134.0
 40
134.0
 40
135.0
 40
135.0
 40
135.0
 40
136.0
 40
136.0
 40
136.0
 40
137.0
 40
137.0
 40
137.0
 40
138.0
 40
138.0
 40
138.0
 40
139.0
 40
139.0
 40
139.0
 40
140.0
 40
140.0
 40
140.0
 40
141.0
 40
141.0
 40
141.0
 40
142.0
 40
142.0
 40
142.0
 40
143.0
 40
143.0
 40
143.0
 40
144.0
 40
144.0
 40
144.0
 40
145.0
 40
145.0
 40
145.0
 40
146.0
 40
146.0
 40
146.0
 40
147.0
 40
147.0
 40
147.0
 40
148.0
 40
148.0
 40
148.0
 40
149.0
 40
149.0
 40
149.0
 40
150.0
 40
150.0
 40
150.0
 40
151.0
 40
151.0
 40
151.0
 40
152.0
 40
152.0
 40
152.0
 40
153.0
 40
153.0
 40
153.0
 40
154.0
 40
154.0
 40
154.0
 40
155.0
 40
155.0
 40
155.0
 40
156.0
 40
156.0
 40
156.0
 40
157.0
 40
157.0
 40
157.0
 40
158.0
 40
158.0
 40
158.0
 40
159.0
 40
159.0
 40
159.0
 40
160.0
 40
160.0
 40
160.0
 40
161.0
 40
161.0
 40
161.0
 40
162.0
 40
162.0
 40
162.0
 40
163.0
 40
163.0
 40
163.0
 40
164.0
 40
164.0
 40
164.0
 40
165.0
 40
165.0
 40
165.0
 40
166.0
 40
166.0
 40
166.0
 40
167.0
 40
167.0
 40
167.0
 40
168.0
 40
168.0
 40
168.0
 40
169.0
 40
169.0
 40
169.0
 40
170.0
 40
170.0
 40
170.0
 40
171.0
 40
171.0
 40
171.0
 40
172.0
 40
172.0
 40
172.0
 40
173.0
 40
173.0
 40
173.0
 40
174.0
 40
174.0
 40
174.0
 40
175.0
 40
175.0
 40
175.0
 40
176.0
 40
176.0
 40
176.0
 40
177.0
 40
177.0
 40
177.0
 40
178.0
 40
178.0
 40
178.0
 40
179.0
 40
179.0
 40
179.0
 40
180.0
 40
180.0
 40
180.0
 40
181.0
 40
181.0
 40
181.0
 40
182.0
 40
182.0
 40
182.0
 40
183.0
 40
183.0
 40
183.0
 40
184.0
 40
184.0
 40
184.0
 40
185.0
 40
185.0
 40
185.0
 40
186.0
 40
186.0
 40
186.0
 40
187.0
 40
187.0
 40
187.0
 40
188.0
 40
188.0
 40
188.0
 40
189.0
 40
189.0
 40
189.0
 40
190.0
 40
190.0
 40
190.0
 40
191.0
 40
191.0
 40
191.0
 40
192.0
 40
192.0
 40
192.0
 40
193.0
 40
193.0
 40
193.0
 40
194.0
 40
194.0
 40
194.0
 40
195.0
 40
195.0
 40
195.0
 40
196.0
 40
196.0
 40
196.0
 40
197.0
 40
197.0
 40
197.0
 40
198.0
 40
198.0
 40
198.0
 40
199.0
 40
199.0
 40
199.0
 40
200.0
 40
200.0
 40
200.0
 40
201.0
 40
201.0
 40
201.0
 40
202.0
 40
202.0
 40
202.0
 40
203.0
 40
203.0
 40
203.0
 40
204.0
 40
204.0
 40
204.0
 40
205.0
 40
205.0
 40
205.0
 40
206.0
 40
206.0
 40
206.0
 40
207.0
 40
207.0
 40
207.0
 40
208.0
 40
208.0
 40
208.0
 40
209.0
 40
209.0
 40
209.0
 40
210.0
 40
210.0
 40
210.0
 40
211.0
 40
211.0
 40
211.0
 40
212.0
 40
212.0
 40
212.0
 40
213.0
 40
213.0
 40
213.0
 40
214.0
 40
214.0
 40
214.0
 40
215.0
 40
215.0
 40
215.0
 40
216.0
 40
216.0
 40
216.0
 40
217.0
 40
217.0
 40
217.0
 40
218.0
 40
218.0
 40
218.0
 40
219.0
 40
219.0
 40
219.0
 40
220.0
 40
220.0
 40
220.0
 40
220.0
 10
87.50370553367976
 20
-159.5720074601067
 10
87.50370553367976
 20
-159.5720074601067
 10
87.42238804744684
 20
-159.5720074601067
 10
87.42238804744684
 20
-159.5720074601067
 10
87.42238804744684
 20
-159.5720074601067
 10
85.99921197264398
 20
-157.7653971827811
 10
85.99921197264398
 20
-157.7653971827811
 10
85.99921197264398
 20
-157.7653971827811
 10
85.99921197264398
 20
-155.7631010721703
 10
85.99921197264398
 20
-155.7631010721703
 10
85.99921197264398
 20
-155.7631010721703
 10
86.45930473868381
 20
-155.7631010721703
 10
86.45930473868381
 20
-155.7631010721703
 10
86.45930473868381
 20
-155.7631010721703
 10
86.19662641205197
 20
-155.506772738901
 10
86.19662641205197
 20
-155.506772738901
 10
86.19662641205197
 20
-155.506772738901
 10
86.45930473868381
 20
-155.2491038500764
 10
86.45930473868381
 20
-155.2491038500764
 10
86.45930473868381
 20
-155.2491038500764
 10
86.19662641205197
 20
-154.9913996834743
 10
86.19662641205197
 20
-154.9913996834743
 10
86.19662641205197
 20
-154.9913996834743
 10
86.45930473868381
 20
-154.7344010724277
 10
86.45930473868381
 20
-154.7344010724277
 10
86.45930473868381
 20
-154.7344010724277
 10
86.19662641205197
 20
-154.4774024613805
 10
86.19662641205197
 20
-154.4774024613805
 10
86.19662641205197
 20
-154.4774024613805
 10
86.45930473868381
 20
-154.2210741281112
 10
86.45930473868381
 20
-154.2210741281112
 10
86.45930473868381
 20
-154.2210741281112
 10
86.19662641205197
 20
-153.9640755170647
 10
86.19662641205197
 20
-153.9640755170647
 10
86.19662641205197
 20
-153.9640755170647
 10
86.45930473868381
 20
-153.7070769060174
 10
86.45930473868381
 20
-153.7070769060174
 10
86.45930473868381
 20
-153.7070769060174
 10
86.19662641205197
 20
-153.4507485727482
 10
86.19662641205197
 20
-153.4507485727482
 10
86.19662641205197
 20
-153.4507485727482
 10
86.45930473868381
 20
-153.1909982950358
 10
86.45930473868381
 20
-153.1909982950358
 10
86.45930473868381
 20
-153.1909982950358
 10
86.19662641205197
 20
-152.9312480173228
 10
86.19662641205197
 20
-152.9312480173228
 10
86.19662641205197
 20
-152.9312480173228
 10
86.45930473868381
 20
-152.6714624618322
 10
86.45930473868381
 20
-152.6714624618322
 10
86.45930473868381
 20
-152.6714624618322
 10
86.19662641205197
 20
-152.4130880174521
 10
86.19662641205197
 20
-152.4130880174521
 10
86.19662641205197
 20
-152.4130880174521
 10
86.45930473868381
 20
-152.1540080175171
 10
86.45930473868381
 20
-152.1540080175171
 10
86.45930473868381
 20
-152.1540080175171
 10
86.19662641205197
 20
-151.895633573137
 10
86.19662641205197
 20
-151.895633573137
 10
86.19662641205197
 20
-151.895633573137
 10
86.45930473868381
 20
-151.636553573202
 10
86.45930473868381
 20
-151.636553573202
 10
86.45930473868381
 20
-151.636553573202
 10
86.19662641205197
 20
-151.3775088510445
 10
86.19662641205197
 20
-151.3775088510445
 10
86.19662641205197
 20
-151.3775088510445
 10
86.45930473868381
 20
-151.1198046844424
 10
86.45930473868381
 20
-151.1198046844424
 10
86.45930473868381
 20
-151.1198046844424
 10
86.19662641205197
 20
-150.8621005178402
 10
86.19662641205197
 20
-150.8621005178402
 10
86.19662641205197
 20
-150.8621005178402
 10
86.45930473868381
 20
-150.6030557956828
 10
86.45930473868381
 20
-150.6030557956828
 10
86.45930473868381
 20
-150.6030557956828
 10
86.19662641205197
 20
-150.3446460735251
 10
86.19662641205197
 20
-150.3446460735251
 10
86.19662641205197
 20
-150.3446460735251
 10
86.45930473868381
 20
-150.086271629145
 10
86.45930473868381
 20
-150.086271629145
 10
86.45930473868381
 20
-150.086271629145
 10
86.19662641205197
 20
-149.8278971847655
 10
86.19662641205197
 20
-149.8278971847655
 10
86.19662641205197
 20
-149.8278971847655
 10
86.45930473868381
 20
-149.5695227403854
 10
86.45930473868381
 20
-149.5695227403854
 10
86.45930473868381
 20
-149.5695227403854
 10
86.19662641205197
 20
-149.3104427404504
 10
86.19662641205197
 20
-149.3104427404504
 10
86.19662641205197
 20
-149.3104427404504
 10
86.45930473868381
 20
-149.0527385738476
 10
86.45930473868381
 20
-149.0527385738476
 10
86.45930473868381
 20
-149.0527385738476
 10
86.19662641205197
 20
-148.7943641294681
 10
86.19662641205197
 20
-148.7943641294681
 10
86.19662641205197
 20
-148.7943641294681
 10
86.45930473868381
 20
-148.535989685088
 10
86.45930473868381
 20
-148.535989685088
 10
86.45930473868381
 20
-148.535989685088
 10
86.19662641205197
 20
-148.2782855184859
 10
86.19662641205197
 20
-148.2782855184859
 10
86.19662641205197
 20
-148.2782855184859
 10
86.45930473868381
 20
-148.0199110741064
 10
86.45930473868381
 20
-148.0199110741064
 10
86.45930473868381
 20
-148.0199110741064
 10
86.19662641205197
 20
-147.7622069075036
 10
86.19662641205197
 20
-147.7622069075036
 10
86.19662641205197
 20
-147.7622069075036
 10
86.45930473868381
 20
-147.5031269075686
 10
86.45930473868381
 20
-147.5031269075686
 10
86.45930473868381
 20
-147.5031269075686
 10
86.19662641205197
 20
-147.245458018744
 10
86.19662641205197
 20
-147.245458018744
 10
86.19662641205197
 20
-147.245458018744
 10
86.45930473868381
 20
-146.9877538521419
 10
86.45930473868381
 20
-146.9877538521419
 10
86.45930473868381
 20
-146.9877538521419
 10
86.19662641205197
 20
-146.7300496855398
 10
86.19662641205197
 20
-146.7300496855398
 10
86.19662641205197
 20
-146.7300496855398
 10
86.45930473868381
 20
-146.4723807967152
 10
86.45930473868381
 20
-146.4723807967152
 10
86.45930473868381
 20
-146.4723807967152
 10
86.19662641205197
 20
-146.2153821856686
 10
86.19662641205197
 20
-146.2153821856686
 10
86.19662641205197
 20
-146.2153821856686
 10
86.45930473868381
 20
-145.9569724635109
 10
86.45930473868381
 20
-145.9569724635109
 10
86.45930473868381
 20
-145.9569724635109
 10
86.19662641205197
 20
-145.6985980191308
 10
86.19662641205197
 20
-145.6985980191308
 10
86.19662641205197
 20
-145.6985980191308
 10
86.45930473868381
 20
-145.4408938525287
 10
86.45930473868381
 20
-145.4408938525287
 10
86.45930473868381
 20
-145.4408938525287
 10
86.19662641205197
 20
-145.1832249637041
 10
86.19662641205197
 20
-145.1832249637041
 10
86.19662641205197
 20
-145.1832249637041
 10
86.45930473868381
 20
-144.9262263526575
 10
86.45930473868381
 20
-144.9262263526575
 10
86.45930473868381
 20
-144.9262263526575
 10
86.19662641205197
 20
-144.6691924638327
 10
86.19662641205197
 20
-144.6691924638327
 10
86.19662641205197
 20
-144.6691924638327
 10
86.45930473868381
 20
-144.4121938527861
 10
86.45930473868381
 20
-144.4121938527861
 10
86.45930473868381
 20
-144.4121938527861
 10
86.19662641205197
 20
-144.1551952417389
 10
86.19662641205197
 20
-144.1551952417389
 10
86.19662641205197
 20
-144.1551952417389
 10
86.45930473868381
 20
-143.8974910751368
 10
86.45930473868381
 20
-143.8974910751368
 10
86.45930473868381
 20
-143.8974910751368
 10
86.19662641205197
 20
-143.6398221863122
 10
86.19662641205197
 20
-143.6398221863122
 10
86.19662641205197
 20
-143.6398221863122
 10
86.45930473868381
 20
-143.3814124641545
 10
86.45930473868381
 20
-143.3814124641545
 10
86.45930473868381
 20
-143.3814124641545
 10
86.19662641205197
 20
-143.1237435753299
 10
86.19662641205197
 20
-143.1237435753299
 10
86.19662641205197
 20
-143.1237435753299
 10
86.45930473868381
 20
-142.8653691309504
 10
86.45930473868381
 20
-142.8653691309504
 10
86.45930473868381
 20
-142.8653691309504
 10
86.19662641205197
 20
-142.6076649643483
 10
86.19662641205197
 20
-142.6076649643483
 10
86.19662641205197
 20
-142.6076649643483
 10
86.45930473868381
 20
-142.3499607977455
 10
86.45930473868381
 20
-142.3499607977455
 10
86.45930473868381
 20
-142.3499607977455
 10
86.19662641205197
 20
-142.0922919089216
 10
86.19662641205197
 20
-142.0922919089216
 10
86.19662641205197
 20
-142.0922919089216
 10
86.45930473868381
 20
-141.8345877423195
 10
86.45930473868381
 20
-141.8345877423195
 10
86.45930473868381
 20
-141.8345877423195
 10
86.19662641205197
 20
-141.5768835757167
 10
86.19662641205197
 20
-141.5768835757167
 10
86.19662641205197
 20
-141.5768835757167
 10
86.45930473868381
 20
-141.3185091313372
 10
86.45930473868381
 20
-141.3185091313372
 10
86.45930473868381
 20
-141.3185091313372
 10
86.19662641205197
 20
-141.0601346869571
 10
86.19662641205197
 20
-141.0601346869571
 10
86.19662641205197
 20
-141.0601346869571
 10
86.45930473868381
 20
-140.802430520355
 10
86.45930473868381
 20
-140.802430520355
 10
86.45930473868381
 20
-140.802430520355
 10
86.19662641205197
 20
-140.5447263537528
 10
86.19662641205197
 20
-140.5447263537528
 10
86.19662641205197
 20
-140.5447263537528
 10
86.45930473868381
 20
-140.2870574649282
 10
86.45930473868381
 20
-140.2870574649282
 10
86.45930473868381
 20
-140.2870574649282
 10
86.19662641205197
 20
-140.0293532983261
 10
86.19662641205197
 20
-140.0293532983261
 10
86.19662641205197
 20
-140.0293532983261
 10
86.45930473868381
 20
-139.7723546872789
 10
86.45930473868381
 20
-139.7723546872789
 10
86.45930473868381
 20
-139.7723546872789
 10
86.19662641205197
 20
-139.5139802428994
 10
86.19662641205197
 20
-139.5139802428994
 10
86.19662641205197
 20
-139.5139802428994
 10
86.45930473868381
 20
-139.2562760762973
 10
86.45930473868381
 20
-139.2562760762973
 10
86.45930473868381
 20
-139.2562760762973
 10
86.19662641205197
 20
-138.99927746525
 10
86.19662641205197
 20
-138.99927746525
 10
86.19662641205197
 20
-138.99927746525
 10
86.45930473868381
 20
-138.7409030208705
 10
86.45930473868381
 20
-138.7409030208705
 10
86.45930473868381
 20
-138.7409030208705
 10
86.19662641205197
 20
-138.4824932987129
 10
86.19662641205197
 20
-138.4824932987129
 10
86.19662641205197
 20
-138.4824932987129
 10
86.45930473868381
 20
-138.2248244098883
 10
86.45930473868381
 20
-138.2248244098883
 10
86.45930473868381
 20
-138.2248244098883
 10
86.19662641205197
 20
-137.9677905210635
 10
86.19662641205197
 20
-137.9677905210635
 10
86.19662641205197
 20
-137.9677905210635
 10
86.45930473868381
 20
-137.7101216322389
 10
86.45930473868381
 20
-137.7101216322389
 10
86.45930473868381
 20
-137.7101216322389
 10
86.19662641205197
 20
-137.4524174656368
 10
86.19662641205197
 20
-137.4524174656368
 10
86.19662641205197
 20
-137.4524174656368
 10
86.45930473868381
 20
-137.1947132990347
 10
86.45930473868381
 20
-137.1947132990347
 10
86.45930473868381
 20
-137.1947132990347
 10
86.19662641205197
 20
-136.9377146879881
 10
86.19662641205197
 20
-136.9377146879881
 10
86.19662641205197
 20
-136.9377146879881
 10
86.45930473868381
 20
-136.6807160769408
 10
86.45930473868381
 20
-136.6807160769408
 10
86.45930473868381
 20
-136.6807160769408
 10
86.19662641205197
 20
-136.4230119103387
 10
86.19662641205197
 20
-136.4230119103387
 10
86.19662641205197
 20
-136.4230119103387
 10
86.45930473868381
 20
-136.1653430215141
 10
86.45930473868381
 20
-136.1653430215141
 10
86.45930473868381
 20
-136.1653430215141
 10
86.19662641205197
 20
-135.907638854912
 10
86.19662641205197
 20
-135.907638854912
 10
86.19662641205197
 20
-135.907638854912
 10
86.45930473868381
 20
-135.6499346883099
 10
86.45930473868381
 20
-135.6499346883099
 10
86.45930473868381
 20
-135.6499346883099
 10
86.19662641205197
 20
-135.3922657994853
 10
86.19662641205197
 20
-135.3922657994853
 10
86.19662641205197
 20
-135.3922657994853
 10
86.45930473868381
 20
-135.1338560773276
 10
86.45930473868381
 20
-135.1338560773276
 10
86.45930473868381
 20
-135.1338560773276
 10
86.19662641205197
 20
-134.876187188503
 10
86.19662641205197
 20
-134.876187188503
 10
86.19662641205197
 20
-134.876187188503
 10
86.45930473868381
 20
-134.6191885774564
 10
86.45930473868381
 20
-134.6191885774564
 10
86.45930473868381
 20
-134.6191885774564
 10
86.19662641205197
 20
-134.3614844108543
 10
86.19662641205197
 20
-134.3614844108543
 10
86.19662641205197
 20
-134.3614844108543
 10
86.45930473868381
 20
-134.104485799807
 10
86.45930473868381
 20
-134.104485799807
 10
86.45930473868381
 20
-134.104485799807
 10
86.19662641205197
 20
-133.8467816332049
 10
86.19662641205197
 20
-133.8467816332049
 10
86.19662641205197
 20
-133.8467816332049
 10
86.45930473868381
 20
-133.5897830221583
 10
86.45930473868381
 20
-133.5897830221583
 10
86.45930473868381
 20
-133.5897830221583
 10
86.19662641205197
 20
-133.3327844111111
 10
86.19662641205197
 20
-133.3327844111111
 10
86.19662641205197
 20
-133.3327844111111
 10
86.45930473868381
 20
-133.0757858000645
 10
86.45930473868381
 20
-133.0757858000645
 10
86.45930473868381
 20
-133.0757858000645
 10
86.19662641205197
 20
-132.8180816334624
 10
86.19662641205197
 20
-132.8180816334624
 10
86.19662641205197
 20
-132.8180816334624
 10
86.45930473868381
 20
-132.5610830224151
 10
86.45930473868381
 20
-132.5610830224151
 10
86.45930473868381
 20
-132.5610830224151
 10
86.19662641205197
 20
-132.3040844113685
 10
86.19662641205197
 20
-132.3040844113685
 10
86.19662641205197
 20
-132.3040844113685
 10
86.45930473868381
 20
-132.0470505225438
 10
86.45930473868381
 20
-132.0470505225438
 10
86.45930473868381
 20
-132.0470505225438
 10
86.19662641205197
 20
-131.7893816337192
 10
86.19662641205197
 20
-131.7893816337192
 10
86.19662641205197
 20
-131.7893816337192
 10
86.45930473868381
 20
-131.5323830226725
 10
86.45930473868381
 20
-131.5323830226725
 10
86.45930473868381
 20
-131.5323830226725
 10
86.19662641205197
 20
-131.2746788560704
 10
86.19662641205197
 20
-131.2746788560704
 10
86.19662641205197
 20
-131.2746788560704
 10
86.45930473868381
 20
-131.0169746894677
 10
86.45930473868381
 20
-131.0169746894677
 10
86.45930473868381
 20
-131.0169746894677
 10
86.19662641205197
 20
-130.7599760784211
 10
86.19662641205197
 20
-130.7599760784211
 10
86.19662641205197
 20
-130.7599760784211
 10
86.45930473868381
 20
-130.5016016340416
 10
86.45930473868381
 20
-130.5016016340416
 10
86.45930473868381
 20
-130.5016016340416
 10
86.19662641205197
 20
-130.2438974674388
 10
86.19662641205197
 20
-130.2438974674388
 10
86.19662641205197
 20
-130.2438974674388
 10
86.45930473868381
 20
-129.9861933008367
 10
86.45930473868381
 20
-129.9861933008367
 10
86.45930473868381
 20
-129.9861933008367
 10
86.19662641205197
 20
-129.7291946897901
 10
86.19662641205197
 20
-129.7291946897901
 10
86.19662641205197
 20
-129.7291946897901
 10
86.45930473868381
 20
-129.4721960787429
 10
86.45930473868381
 20
-129.4721960787429
 10
86.45930473868381
 20
-129.4721960787429
 10
86.19662641205197
 20
-129.2144919121407
 10
86.19662641205197
 20
-129.2144919121407
 10
86.19662641205197
 20
-129.2144919121407
 10
86.45930473868381
 20
-128.9574933010941
 10
86.45930473868381
 20
-128.9574933010941
 10
86.45930473868381
 20
-128.9574933010941
 10
86.19662641205197
 20
-128.7004946900472
 10
86.19662641205197
 20
-128.7004946900472
 10
86.19662641205197
 20
-128.7004946900472
 10
86.45930473868381
 20
-128.4442016345555
 10
86.45930473868381
 20
-128.4442016345555
 10
86.45930473868381
 20
-128.4442016345555
 10
86.19662641205197
 20
-128.187167745731
 10
86.19662641205197
 20
-128.187167745731
 10
86.19662641205197
 20
-128.187167745731
 10
86.45930473868381
 20
-127.9301691346841
 10
86.45930473868381
 20
-127.9301691346841
 10
86.45930473868381
 20
-127.9301691346841
 10
86.19662641205197
 20
-127.6731705236372
 10
86.19662641205197
 20
-127.6731705236372
 10
86.19662641205197
 20
-127.6731705236372
 10
86.45930473868381
 20
-127.4134202459245
 10
86.45930473868381
 20
-127.4134202459245
 10
86.45930473868381
 20
-127.4134202459245
 10
86.19662641205197
 20
-127.1543402459892
 10
86.19662641205197
 20
-127.1543402459892
 10
86.19662641205197
 20
-127.1543402459892
 10
86.45930473868381
 20
-126.8945899682765
 10
86.45930473868381
 20
-126.8945899682765
 10
86.45930473868381
 20
-126.8945899682765
 10
86.19662641205197
 20
-126.6362155238964
 10
86.19662641205197
 20
-126.6362155238964
 10
86.19662641205197
 20
-126.6362155238964
 10
86.45930473868381
 20
-126.3764299684059
 10
86.45930473868381
 20
-126.3764299684059
 10
86.45930473868381
 20
-126.3764299684059
 10
86.19662641205197
 20
-126.118055524026
 10
86.19662641205197
 20
-126.118055524026
 10
86.19662641205197
 20
-126.118055524026
 10
86.45930473868381
 20
-125.8596810796462
 10
86.45930473868381
 20
-125.8596810796462
 10
86.45930473868381
 20
-125.8596810796462
 10
86.19662641205197
 20
-125.6006010797109
 10
86.19662641205197
 20
-125.6006010797109
 10
86.19662641205197
 20
-125.6006010797109
 10
86.45930473868381
 20
-125.3428969131088
 10
86.45930473868381
 20
-125.3428969131088
 10
86.45930473868381
 20
-125.3428969131088
 10
86.19662641205197
 20
-125.0852280242842
 10
86.19662641205197
 20
-125.0852280242842
 10
86.19662641205197
 20
-125.0852280242842
 10
86.45930473868381
 20
-124.8261480243492
 10
86.45930473868381
 20
-124.8261480243492
 10
86.45930473868381
 20
-124.8261480243492
 10
86.19662641205197
 20
-124.5677735799691
 10
86.19662641205197
 20
-124.5677735799691
 10
86.19662641205197
 20
-124.5677735799691
 10
86.45930473868381
 20
-124.308693580034
 10
86.45930473868381
 20
-124.308693580034
 10
86.45930473868381
 20
-124.308693580034
 10
86.19662641205197
 20
-124.0503191356542
 10
86.19662641205197
 20
-124.0503191356542
 10
86.19662641205197
 20
-124.0503191356542
 10
86.45930473868381
 20
-123.7919446912741
 10
86.45930473868381
 20
-123.7919446912741
 10
86.45930473868381
 20
-123.7919446912741
 10
86.19662641205197
 20
-123.5335349691168
 10
86.19662641205197
 20
-123.5335349691168
 10
86.19662641205197
 20
-123.5335349691168
 10
86.45930473868381
 20
-123.2751605247367
 10
86.45930473868381
 20
-123.2751605247367
 10
86.45930473868381
 20
-123.2751605247367
 10
86.19662641205197
 20
-123.0167860803569
 10
86.19662641205197
 20
-123.0167860803569
 10
86.19662641205197
 20
-123.0167860803569
 10
86.45930473868381
 20
-122.7590819137547
 10
86.45930473868381
 20
-122.7590819137547
 10
86.45930473868381
 20
-122.7590819137547
 10
86.19662641205197
 20
-122.5007074693749
 10
86.19662641205197
 20
-122.5007074693749
 10
86.19662641205197
 20
-122.5007074693749
 10
86.45930473868381
 20
-122.2430033027725
 10
86.45930473868381
 20
-122.2430033027725
 10
86.45930473868381
 20
-122.2430033027725
 10
86.19662641205197
 20
-121.9846288583927
 10
86.19662641205197
 20
-121.9846288583927
 10
86.19662641205197
 20
-121.9846288583927
 10
86.45930473868381
 20
-121.7262544140129
 10
86.45930473868381
 20
-121.7262544140129
 10
86.45930473868381
 20
-121.7262544140129
 10
86.19662641205197
 20
-121.4685502474108
 10
86.19662641205197
 20
-121.4685502474108
 10
86.19662641205197
 20
-121.4685502474108
 10
86.45930473868381
 20
-121.2101758030309
 10
86.45930473868381
 20
-121.2101758030309
 10
86.45930473868381
 20
-121.2101758030309
 10
86.19662641205197
 20
-120.953177191984
 10
86.19662641205197
 20
-120.953177191984
 10
86.19662641205197
 20
-120.953177191984
 10
86.45930473868381
 20
-120.6954730253816
 10
86.45930473868381
 20
-120.6954730253816
 10
86.45930473868381
 20
-120.6954730253816
 10
86.19662641205197
 20
-120.4377688587795
 10
86.19662641205197
 20
-120.4377688587795
 10
86.19662641205197
 20
-120.4377688587795
 10
86.45930473868381
 20
-120.1800999699549
 10
86.45930473868381
 20
-120.1800999699549
 10
86.45930473868381
 20
-120.1800999699549
 10
86.19662641205197
 20
-119.9216902477972
 10
86.19662641205197
 20
-119.9216902477972
 10
86.19662641205197
 20
-119.9216902477972
 10
86.45930473868381
 20
-119.6633158034174
 10
86.45930473868381
 20
-119.6633158034174
 10
86.45930473868381
 20
-119.6633158034174
 10
86.19662641205197
 20
-119.4056469145931
 10
86.19662641205197
 20
-119.4056469145931
 10
86.19662641205197
 20
-119.4056469145931
 10
86.45930473868381
 20
-119.1486130257684
 10
86.45930473868381
 20
-119.1486130257684
 10
86.45930473868381
 20
-119.1486130257684
 10
86.19662641205197
 20
-118.8916144147214
 10
86.19662641205197
 20
-118.8916144147214
 10
86.19662641205197
 20
-118.8916144147214
 10
86.45930473868381
 20
-118.6346158036745
 10
86.45930473868381
 20
-118.6346158036745
 10
86.45930473868381
 20
-118.6346158036745
 10
86.19662641205197
 20
-118.3776171926279
 10
86.19662641205197
 20
-118.3776171926279
 10
86.19662641205197
 20
-118.3776171926279
 10
86.45930473868381
 20
-118.120618581581
 10
86.45930473868381
 20
-118.120618581581
 10
86.45930473868381
 20
-118.120618581581
 10
86.19662641205197
 20
-117.8622441372012
 10
86.19662641205197
 20
-117.8622441372012
 10
86.19662641205197
 20
-117.8622441372012
 10
86.45930473868381
 20
-117.6038344150436
 10
86.45930473868381
 20
-117.6038344150436
 10
86.45930473868381
 20
-117.6038344150436
 10
86.19662641205197
 20
-117.346165526219
 10
86.19662641205197
 20
-117.346165526219
 10
86.19662641205197
 20
-117.346165526219
 10
86.45930473868381
 20
-117.0877558040613
 10
86.45930473868381
 20
-117.0877558040613
 10
86.45930473868381
 20
-117.0877558040613
 10
86.19662641205197
 20
-116.8307571930147
 10
86.19662641205197
 20
-116.8307571930147
 10
86.19662641205197
 20
-116.8307571930147
 10
86.45930473868381
 20
-116.5723827486346
 10
86.45930473868381
 20
-116.5723827486346
 10
86.45930473868381
 20
-116.5723827486346
 10
86.19662641205197
 20
-116.3146785820325
 10
86.19662641205197
 20
-116.3146785820325
 10
86.19662641205197
 20
-116.3146785820325
 10
86.45930473868381
 20
-116.0570096932079
 10
86.45930473868381
 20
-116.0570096932079
 10
86.45930473868381
 20
-116.0570096932079
 10
86.19662641205197
 20
-115.7993055266057
 10
86.19662641205197
 20
-115.7993055266057
 10
86.19662641205197
 20
-115.7993055266057
 10
86.45930473868381
 20
-115.5416013600036
 10
86.45930473868381
 20
-115.5416013600036
 10
86.45930473868381
 20
-115.5416013600036
 10
86.19662641205197
 20
-115.2832269156235
 10
86.19662641205197
 20
-115.2832269156235
 10
86.19662641205197
 20
-115.2832269156235
 10
86.45930473868381
 20
-115.0248524712437
 10
86.45930473868381
 20
-115.0248524712437
 10
86.45930473868381
 20
-115.0248524712437
 10
86.19662641205197
 20
-114.7671483046416
 10
86.19662641205197
 20
-114.7671483046416
 10
86.19662641205197
 20
-114.7671483046416
 10
86.45930473868381
 20
-114.5101496935946
 10
86.45930473868381
 20
-114.5101496935946
 10
86.45930473868381
 20
-114.5101496935946
 10
86.19662641205197
 20
-114.2524455269925
 10
86.19662641205197
 20
-114.2524455269925
 10
86.19662641205197
 20
-114.2524455269925
 10
86.45930473868381
 20
-113.9947766381679
 10
86.45930473868381
 20
-113.9947766381679
 10
86.45930473868381
 20
-113.9947766381679
 10
86.19662641205197
 20
-113.7370724715658
 10
86.19662641205197
 20
-113.7370724715658
 10
86.19662641205197
 20
-113.7370724715658
 10
86.45930473868381
 20
-113.4793683049637
 10
86.45930473868381
 20
-113.4793683049637
 10
86.45930473868381
 20
-113.4793683049637
 10
86.19662641205197
 20
-113.2216994161391
 10
86.19662641205197
 20
-113.2216994161391
 10
86.19662641205197
 20
-113.2216994161391
 10
86.45930473868381
 20
-112.9639952495369
 10
86.45930473868381
 20
-112.9639952495369
 10
86.45930473868381
 20
-112.9639952495369
 10
86.19662641205197
 20
-112.7056208051568
 10
86.19662641205197
 20
-112.7056208051568
 10
86.19662641205197
 20
-112.7056208051568
 10
86.45930473868381
 20
-112.4479166385547
 10
86.45930473868381
 20
-112.4479166385547
 10
86.45930473868381
 20
-112.4479166385547
 10
86.19662641205197
 20
-112.1902124719526
 10
86.19662641205197
 20
-112.1902124719526
 10
86.19662641205197
 20
-112.1902124719526
 10
86.45930473868381
 20
-111.932543583128
 10
86.45930473868381
 20
-111.932543583128
 10
86.45930473868381
 20
-111.932543583128
 10
86.19662641205197
 20
-111.6755096943032
 10
86.19662641205197
 20
-111.6755096943032
 10
86.19662641205197
 20
-111.6755096943032
 10
86.45930473868381
 20
-111.4178408054789
 10
86.45930473868381
 20
-111.4178408054789
 10
86.45930473868381
 20
-111.4178408054789
 10
86.19662641205197
 20
-111.1601366388765
 10
86.19662641205197
 20
-111.1601366388765
 10
86.19662641205197
 20
-111.1601366388765
 10
86.45930473868381
 20
-110.9031380278299
 10
86.45930473868381
 20
-110.9031380278299
 10
86.45930473868381
 20
-110.9031380278299
 10
86.19662641205197
 20
-110.6454338612274
 10
86.19662641205197
 20
-110.6454338612274
 10
86.19662641205197
 20
-110.6454338612274
 10
86.45930473868381
 20
-110.3884352501805
 10
86.45930473868381
 20
-110.3884352501805
 10
86.45930473868381
 20
-110.3884352501805
 10
86.19662641205197
 20
-110.1307310835784
 10
86.19662641205197
 20
-110.1307310835784
 10
86.19662641205197
 20
-110.1307310835784
 10
86.45930473868381
 20
-109.8727094169763
 10
86.45930473868381
 20
-109.8727094169763
 10
86.45930473868381
 20
-109.8727094169763
 10
86.19662641205197
 20
-109.6150052503739
 10
86.19662641205197
 20
-109.6150052503739
 10
86.19662641205197
 20
-109.6150052503739
 10
86.45930473868381
 20
-109.3569835837719
 10
86.45930473868381
 20
-109.3569835837719
 10
86.45930473868381
 20
-109.3569835837719
 10
86.19662641205197
 20
-109.0992794171697
 10
86.19662641205197
 20
-109.0992794171697
 10
86.19662641205197
 20
-109.0992794171697
 10
86.45930473868381
 20
-108.8415752505673
 10
86.45930473868381
 20
-108.8415752505673
 10
86.45930473868381
 20
-108.8415752505673
 10
86.19662641205197
 20
-108.5842591395205
 10
86.19662641205197
 20
-108.5842591395205
 10
86.19662641205197
 20
-108.5842591395205
 10
86.45930473868381
 20
-108.3265549729183
 10
86.45930473868381
 20
-108.3265549729183
 10
86.45930473868381
 20
-108.3265549729183
 10
86.19662641205197
 20
-108.0698738618713
 10
86.19662641205197
 20
-108.0698738618713
 10
86.19662641205197
 20
-108.0698738618713
 10
86.45930473868381
 20
-107.812204973047
 10
86.45930473868381
 20
-107.812204973047
 10
86.45930473868381
 20
-107.812204973047
 10
86.19662641205197
 20
-107.5552063620001
 10
86.19662641205197
 20
-107.5552063620001
 10
86.19662641205197
 20
-107.5552063620001
 10
86.45930473868381
 20
-107.2978549731754
 10
86.45930473868381
 20
-107.2978549731754
 10
86.45930473868381
 20
-107.2978549731754
 10
86.19662641205197
 20
-107.0408563621285
 10
86.19662641205197
 20
-107.0408563621285
 10
86.19662641205197
 20
-107.0408563621285
 10
86.45930473868381
 20
-106.7838224733041
 10
86.45930473868381
 20
-106.7838224733041
 10
86.45930473868381
 20
-106.7838224733041
 10
86.19662641205197
 20
-106.5264710844794
 10
86.19662641205197
 20
-106.5264710844794
 10
86.19662641205197
 20
-106.5264710844794
 10
86.45930473868381
 20
-106.2694724734328
 10
86.45930473868381
 20
-106.2694724734328
 10
86.45930473868381
 20
-106.2694724734328
 10
86.19662641205197
 20
-106.0121210846081
 10
86.19662641205197
 20
-106.0121210846081
 10
86.19662641205197
 20
-106.0121210846081
 10
86.45930473868381
 20
-105.7547696957834
 10
86.45930473868381
 20
-105.7547696957834
 10
86.45930473868381
 20
-105.7547696957834
 10
86.19662641205197
 20
-105.4974535847366
 10
86.19662641205197
 20
-105.4974535847366
 10
86.19662641205197
 20
-105.4974535847366
 10
86.45930473868381
 20
-105.2397494181345
 10
86.45930473868381
 20
-105.2397494181345
 10
86.45930473868381
 20
-105.2397494181345
 10
86.19662641205197
 20
-104.9820452515324
 10
86.19662641205197
 20
-104.9820452515324
 10
86.19662641205197
 20
-104.9820452515324
 10
86.45930473868381
 20
-104.7243410849299
 10
86.45930473868381
 20
-104.7243410849299
 10
86.45930473868381
 20
-104.7243410849299
 10
86.19662641205197
 20
-104.4666721961056
 10
86.19662641205197
 20
-104.4666721961056
 10
86.19662641205197
 20
-104.4666721961056
 10
86.45930473868381
 20
-104.2089680295032
 10
86.45930473868381
 20
-104.2089680295032
 10
86.45930473868381
 20
-104.2089680295032
 10
86.19662641205197
 20
-103.9519694184566
 10
86.19662641205197
 20
-103.9519694184566
 10
86.19662641205197
 20
-103.9519694184566
 10
86.45930473868381
 20
-103.6942652518541
 10
86.45930473868381
 20
-103.6942652518541
 10
86.45930473868381
 20
-103.6942652518541
 10
86.19662641205197
 20
-103.4372666408072
 10
86.19662641205197
 20
-103.4372666408072
 10
86.19662641205197
 20
-103.4372666408072
 10
86.45930473868381
 20
-103.1806208075381
 10
86.45930473868381
 20
-103.1806208075381
 10
86.45930473868381
 20
-103.1806208075381
 10
86.19662641205197
 20
-102.9232694187137
 10
86.19662641205197
 20
-102.9232694187137
 10
86.19662641205197
 20
-102.9232694187137
 10
86.45930473868381
 20
-102.6665883076667
 10
86.45930473868381
 20
-102.6665883076667
 10
86.45930473868381
 20
-102.6665883076667
 10
86.19662641205197
 20
-102.4099424743975
 10
86.19662641205197
 20
-102.4099424743975
 10
86.19662641205197
 20
-102.4099424743975
 10
86.45930473868381
 20
-102.1532966411284
 10
86.45930473868381
 20
-102.1532966411284
 10
86.45930473868381
 20
-102.1532966411284
 10
86.19662641205197
 20
-101.8962627523036
 10
86.19662641205197
 20
-101.8962627523036
 10
86.19662641205197
 20
-101.8962627523036
 10
86.45930473868381
 20
-101.639264141257
 10
86.45930473868381
 20
-101.639264141257
 10
86.45930473868381
 20
-101.639264141257
 10
85.99921197264398
 20
-101.639264141257
 10
85.99921197264398
 20
-101.639264141257
 10
85.99921197264398
 20
-101.639264141257
 10
85.99921197264398
 20
-99.5715277528849
 10
85.99921197264398
 20
-99.5715277528849
 10
85.99921197264398
 20
-99.5715277528849
 10
86.58471942279823
 20
-99.5715277528849
 10
86.58471942279823
 20
-99.5715277528849
 10
87.30974610587614
 20
-99.5715277528849
 10
87.89729747977535
 20
-100.1554808082946
 10
87.89729747977535
 20
-100.8765233081142
 10
87.89729747977535
 20
-100.8765233081142
 10
87.89729747977535
 20
-159.1799655157608
 10
87.89729747977535
 20
-159.1799655157608
 10
87.89729747977535
 20
-159.3962888490399
 10
87.7209085953865
 20
-159.5720074601067
 10
87.50370553367976
 20
-159.5720074601067
 97
        0
 97
        0
 75
     2
 76
     1
 98
        0
  0
POLYLINE
  5
43
330
1F
100
AcDbEntity
  8
_U+30EC_U+30A4_U+30E4_U+30FC 1
 62
   179
420
  2234388
370
     9
100
AcDb2dPolyline
 66
     1
 10
0.0
 20
0.0
 30
0.0
  0
VERTEX
  5
44
330
43
100
AcDbEntity
  8
_U+30EC_U+30A4_U+30E4_U+30FC 1
 62
   179
420
  2234388
370
     9
100
AcDbVertex
100
AcDb2dVertex
 10
91.24007850560501
 20
-96.38859025368062
 30
0.0
  0
VERTEX
  5
45
330
43
100
AcDbEntity
  8
_U+30EC_U+30A4_U+30E4_U+30FC 1
 62
   179
420
  2234388
370
     9
100
AcDbVertex
100
AcDb2dVertex
 10
88.20114720017202
 20
-99.42304358625533
 30
0.0
  0
SEQEND
  5
46
330
43
100
AcDbEntity
  8
_U+30EC_U+30A4_U+30E4_U+30FC 1
 62
   179
420
  2234388
370
     9
  0
POLYLINE
  5
47
330
1F
100
AcDbEntity
  8
_U+30EC_U+30A4_U+30E4_U+30FC 1
 62
   179
420
  2234388
370
     9
100
AcDb2dPolyline
 66
     1
 10
0.0
 20
0.0
 30
0.0
  0
VERTEX
  5
48
330
47
100
AcDbEntity
  8
_U+30EC_U+30A4_U+30E4_U+30FC 1
 62
   179
420
  2234388
370
     9
100
AcDbVertex
100
AcDb2dVertex
 10
89.2403577232888
 20
-98.82289803084998
 30
0.0
  0
VERTEX
  5
49
330
47
100
AcDbEntity
  8
_U+30EC_U+30A4_U+30E4_U+30FC 1
 62
   179
420
  2234388
370
     9
100
AcDbVertex
100
AcDb2dVertex
 10
88.20114720017202
 20
-99.42304358625533
 30
0.0
  0
SEQEND
  5
4A
330
47
100
AcDbEntity
  8
_U+30EC_U+30A4_U+30E4_U+30FC 1
 62
   179
420
  2234388
370
     9
  0
POLYLINE
  5
4B
330
1F
100
AcDbEntity
  8
_U+30EC_U+30A4_U+30E4_U+30FC 1
 62
   179
420
  2234388
370
     9
100
AcDb2dPolyline
 66
     1
 10
0.0
 20
0.0
 30
0.0
  0
VERTEX
  5
4C
330
4B
100
AcDbEntity
  8
_U+30EC_U+30A4_U+30E4_U+30FC 1
 62
   179
420
  2234388
370
     9
100
AcDbVertex
100
AcDb2dVertex
 10
88.80111412338373
 20
-98.38400719762609
 30
0.0
  0
VERTEX
  5
4D
330
4B
100
AcDbEntity
  8
_U+30EC_U+30A4_U+30E4_U+30FC 1
 62
   179
420
  2234388
370
     9
100
AcDbVertex
100
AcDb2dVertex
 10
88.20114720017202
 20
-99.42304358625533
 30
0.0
  0
SEQEND
  5
4E
330
4B
100
AcDbEntity
  8
_U+30EC_U+30A4_U+30E4_U+30FC 1
 62
   179
420
  2234388
370
     9
  0
POLYLINE
  5
4F
330
1F
100
AcDbEntity
  8
_U+30EC_U+30A4_U+30E4_U+30FC 1
 62
   179
420
  2234388
370
     9
100
AcDb2dPolyline
 66
     1
 10
0.0
 20
0.0
 30
0.0
  0
VERTEX
  5
50
330
4F
100
AcDbEntity
  8
_U+30EC_U+30A4_U+30E4_U+30FC 1
 62
   179
420
  2234388
370
     9
100
AcDbVertex
100
AcDb2dVertex
 10
89.10877161553474
 20
-159.5720074601067
 30
0.0
  0
VERTEX
  5
51
330
4F
100
AcDbEntity
  8
_U+30EC_U+30A4_U+30E4_U+30FC 1
 62
   179
420
  2234388
370
     9
100
AcDbVertex
100
AcDb2dVertex
 10
93.73689844190582
 20
-159.5720074601067
 30
0.0
  0
SEQEND
  5
52
330
4F
100
AcDbEntity
  8
_U+30EC_U+30A4_U+30E4_U+30FC 1
 62
   179
420
  2234388
370
     9
  0
POLYLINE
  5
53
330
1F
100
AcDbEntity
  8
_U+30EC_U+30A4_U+30E4_U+30FC 1
 62
   179
420
  2234388
370
     9
100
AcDb2dPolyline
 66
     1
 10
0.0
 20
0.0
 30
0.0
  0
VERTEX
  5
54
330
53
100
AcDbEntity
  8
_U+30EC_U+30A4_U+30E4_U+30FC 1
 62
   179
420
  2234388
370
     9
100
AcDbVertex
100
AcDb2dVertex
 10
89.10877161553474
 20
-99.5715277528849
 30
0.0
  0
VERTEX
  5
55
330
53
100
AcDbEntity
  8
_U+30EC_U+30A4_U+30E4_U+30FC 1
 62
   179
420
  2234388
370
     9
100
AcDbVertex
100
AcDb2dVertex
 10
93.73689844190582
 20
-99.5715277528849
 30
0.0
  0
SEQEND
  5
56
330
53
100
AcDbEntity
  8
_U+30EC_U+30A4_U+30E4_U+30FC 1
 62
   179
420
  2234388
370
     9
  0
POLYLINE
  5
57
330
1F
100
AcDbEntity
  8
_U+30EC_U+30A4_U+30E4_U+30FC 1
 62
   179
420
  2234388
370
     9
100
AcDb2dPolyline
 66
     1
 10
0.0
 20
0.0
 30
0.0
  0
VERTEX
  5
58
330
57
100
AcDbEntity
  8
_U+30EC_U+30A4_U+30E4_U+30FC 1
 62
   179
420
  2234388
370
     9
100
AcDbVertex
100
AcDb2dVertex
 10
85.99921197264398
 20
-95.4556694205804
 30
0.0
  0
VERTEX
  5
59
330
57
100
AcDbEntity
  8
_U+30EC_U+30A4_U+30E4_U+30FC 1
 62
   179
420
  2234388
370
     9
100
AcDbVertex
100
AcDb2dVertex
 10
87.89729747977535
 20
-95.4556694205804
 30
0.0
  0
SEQEND
  5
5A
330
57
100
AcDbEntity
  8
_U+30EC_U+30A4_U+30E4_U+30FC 1
 62
   179
420
  2234388
370
     9
  0
INSERT
  5
5C
330
1F
100
AcDbEntity
  8
_U+30EC_U+30A4_U+30E4_U+30FC 1
100
AcDbBlockReference
  2
block 2
 10
0.0
 20
0.0
 30
0.0
  0
POLYLINE
  5
6E
330
1F
100
AcDbEntity
  8
_U+30EC_U+30A4_U+30E4_U+30FC 1
 62
   179
420
  2234388
370
     9
100
AcDb2dPolyline
 66
     1
 10
0.0
 20
0.0
 30
0.0
  0
VERTEX
  5
6F
330
6E
100
AcDbEntity
  8
_U+30EC_U+30A4_U+30E4_U+30FC 1
 62
   179
420
  2234388
370
     9
100
AcDbVertex
100
AcDb2dVertex
 10
90.96014934607993
 20
-162.8352019037354
 30
0.0
  0
VERTEX
  5
70
330
6E
100
AcDbEntity
  8
_U+30EC_U+30A4_U+30E4_U+30FC 1
 62
   179
420
  2234388
370
     9
100
AcDbVertex
100
AcDb2dVertex
 10
87.92125109027535
 20
-159.8007485711607
 30
0.0
  0
SEQEND
  5
71
330
6E
100
AcDbEntity
  8
_U+30EC_U+30A4_U+30E4_U+30FC 1
 62
   179
420
  2234388
370
     9
  0
POLYLINE
  5
72
330
1F
100
AcDbEntity
  8
_U+30EC_U+30A4_U+30E4_U+30FC 1
 62
   179
420
  2234388
370
     9
100
AcDb2dPolyline
 66
     1
 10
0.0
 20
0.0
 30
0.0
  0
VERTEX
  5
73
330
72
100
AcDbEntity
  8
_U+30EC_U+30A4_U+30E4_U+30FC 1
 62
   179
420
  2234388
370
     9
100
AcDbVertex
100
AcDb2dVertex
 10
88.9604638415406
 20
-160.4008941265667
 30
0.0
  0
VERTEX
  5
74
330
72
100
AcDbEntity
  8
_U+30EC_U+30A4_U+30E4_U+30FC 1
 62
   179
420
  2234388
370
     9
100
AcDbVertex
100
AcDb2dVertex
 10
87.92125109027535
 20
-159.8007485711607
 30
0.0
  0
SEQEND
  5
75
330
72
100
AcDbEntity
  8
_U+30EC_U+30A4_U+30E4_U+30FC 1
 62
   179
420
  2234388
370
     9
  0
POLYLINE
  5
76
330
1F
100
AcDbEntity
  8
_U+30EC_U+30A4_U+30E4_U+30FC 1
 62
   179
420
  2234388
370
     9
100
AcDb2dPolyline
 66
     1
 10
0.0
 20
0.0
 30
0.0
  0
VERTEX
  5
77
330
76
100
AcDbEntity
  8
_U+30EC_U+30A4_U+30E4_U+30FC 1
 62
   179
420
  2234388
370
     9
100
AcDbVertex
100
AcDb2dVertex
 10
88.52122024163553
 20
-160.8397849597902
 30
0.0
  0
VERTEX
  5
78
330
76
100
AcDbEntity
  8
_U+30EC_U+30A4_U+30E4_U+30FC 1
 62
   179
420
  2234388
370
     9
100
AcDbVertex
100
AcDb2dVertex
 10
87.92125109027535
 20
-159.8007485711607
 30
0.0
  0
SEQEND
  5
79
330
76
100
AcDbEntity
  8
_U+30EC_U+30A4_U+30E4_U+30FC 1
 62
   179
420
  2234388
370
     9
  0
INSERT
  5
7B
330
1F
100
AcDbEntity
  8
_U+30EC_U+30A4_U+30E4_U+30FC 1
100
AcDbBlockReference
  2
block 3
 10
0.0
 20
0.0
 30
0.0
  0
INSERT
  5
8F
330
1F
100
AcDbEntity
  8
_U+30EC_U+30A4_U+30E4_U+30FC 1
100
AcDbBlockReference
  2
block 4
 10
0.0
 20
0.0
 30
0.0
  0
POLYLINE
  5
A0
330
1F
100
AcDbEntity
  8
_U+30EC_U+30A4_U+30E4_U+30FC 1
 62
   179
420
  2234388
370
     9
100
AcDb2dPolyline
 66
     1
 10
0.0
 20
0.0
 30
0.0
  0
VERTEX
  5
A1
330
A0
100
AcDbEntity
  8
_U+30EC_U+30A4_U+30E4_U+30FC 1
 62
   179
420
  2234388
370
     9
100
AcDbVertex
100
AcDb2dVertex
 10
85.99921197264398
 20
-94.21748997644556
 30
0.0
  0
VERTEX
  5
A2
330
A0
100
AcDbEntity
  8
_U+30EC_U+30A4_U+30E4_U+30FC 1
 62
   179
420
  2234388
370
     9
100
AcDbVertex
100
AcDb2dVertex
 10
85.99921197264398
 20
-98.64308719756141
 30
0.0
  0
SEQEND
  5
A3
330
A0
100
AcDbEntity
  8
_U+30EC_U+30A4_U+30E4_U+30FC 1
 62
   179
420
  2234388
370
     9
  0
POLYLINE
  5
A4
330
1F
100
AcDbEntity
  8
_U+30EC_U+30A4_U+30E4_U+30FC 1
 62
   179
420
  2234388
370
     9
100
AcDb2dPolyline
 66
     1
 10
0.0
 20
0.0
 30
0.0
  0
VERTEX
  5
A5
330
A4
100
AcDbEntity
  8
_U+30EC_U+30A4_U+30E4_U+30FC 1
 62
   179
420
  2234388
370
     9
100
AcDbVertex
100
AcDb2dVertex
 10
87.89729747977535
 20
-94.21748997644556
 30
0.0
  0
VERTEX
  5
A6
330
A4
100
AcDbEntity
  8
_U+30EC_U+30A4_U+30E4_U+30FC 1
 62
   179
420
  2234388
370
     9
100
AcDbVertex
100
AcDb2dVertex
 10
87.89729747977535
 20
-98.64308719756141
 30
0.0
  0
SEQEND
  5
A7
330
A4
100
AcDbEntity
  8
_U+30EC_U+30A4_U+30E4_U+30FC 1
 62
   179
420
  2234388
370
     9
  0
POLYLINE
  5
A8
330
1F
100
AcDbEntity
  8
_U+30EC_U+30A4_U+30E4_U+30FC 1
 62
   179
420
  2234388
370
     9
100
AcDb2dPolyline
 66
     1
 10
0.0
 20
0.0
 30
0.0
  0
VERTEX
  5
A9
330
A8
100
AcDbEntity
  8
_U+30EC_U+30A4_U+30E4_U+30FC 1
 62
   179
420
  2234388
370
     9
100
AcDbVertex
100
AcDb2dVertex
 10
92.14629403804108
 20
-99.5715277528849
 30
0.0
  0
VERTEX
  5
AA
330
A8
100
AcDbEntity
  8
_U+30EC_U+30A4_U+30E4_U+30FC 1
 62
   179
420
  2234388
370
     9
100
AcDbVertex
100
AcDb2dVertex
 10
92.14629403804108
 20
-159.5720074601067
 30
0.0
  0
SEQEND
  5
AB
330
A8
100
AcDbEntity
  8
_U+30EC_U+30A4_U+30E4_U+30FC 1
 62
   179
420
  2234388
370
     9
  0
INSERT
  5
AD
330
1F
100
AcDbEntity
  8
_U+30EC_U+30A4_U+30E4_U+30FC 1
100
AcDbBlockReference
  2
block 5
 10
0.0
 20
0.0
 30
0.0
  0
SPLINE
  5
B6
330
1F
100
AcDbEntity
  8
_U+30EC_U+30A4_U+30E4_U+30FC 1
370
     0
100
AcDbSpline
210
0.0
220
0.0
230
1.0
 70
    11
 71
     3
 72
    17
 73
    13
 74
     0
 42
0.0000000001
 43
0.0000000001
 12
1.0
 22
0.0
 32
0.0
 13
1.0
 23
0.0
 33
0.0
 40
0.0
 40
0.0
 40
0.0
 40
0.0
 40
1.0
 40
1.0
 40
1.0
 40
2.0
 40
2.0
 40
2.0
 40
3.0
 40
3.0
 40
3.0
 40
4.0
 40
4.0
 40
4.0
 40
4.0
 10
86.14924835770512
 20
-95.4556694205804
 30
0.0
 10
86.14924835770512
 20
-95.5387133094487
 30
0.0
 10
86.08207947052986
 20
-95.60588219832061
 30
0.0
 10
85.99921197264398
 20
-95.60588219832061
 30
0.0
 10
85.916379752535
 20
-95.60588219832061
 30
0.0
 10
85.84921086535972
 20
-95.5387133094487
 30
0.0
 10
85.84921086535972
 20
-95.4556694205804
 30
0.0
 10
85.84921086535972
 20
-95.37297830949018
 30
0.0
 10
85.916379752535
 20
-95.30580942061795
 30
0.0
 10
85.99921197264398
 20
-95.30580942061795
 30
0.0
 10
86.08207947052986
 20
-95.30580942061795
 30
0.0
 10
86.14924835770512
 20
-95.37297830949018
 30
0.0
 10
86.14924835770512
 20
-95.4556694205804
 30
0.0
  0
HATCH
  5
B7
330
1F
100
AcDbEntity
  8
_U+30EC_U+30A4_U+30E4_U+30FC 1
 62
   179
420
  2234388
100
AcDbHatch
 10
0.0
 20
0.0
 30
0.0
210
0.0
220
0.0
230
1.0
  2
SOLID
 70
     1
 71
     0
 91
        1
 92
        1
 93
        1
 72
     4
 94
        3
 73
     0
 74
     1
 95
       17
 96
       13
 40
0.0
 40
0.0
 40
0.0
 40
0.0
 40
1.0
 40
1.0
 40
1.0
 40
2.0
 40
2.0
 40
2.0
 40
3.0
 40
3.0
 40
3.0
 40
4.0
 40
4.0
 40
4.0
 40
4.0
 10
86.14924835770512
 20
-95.4556694205804
 10
86.14924835770512
 20
-95.5387133094487
 10
86.08207947052986
 20
-95.60588219832061
 10
85.99921197264398
 20
-95.60588219832061
 10
85.916379752535
 20
-95.60588219832061
 10
85.84921086535972
 20
-95.5387133094487
 10
85.84921086535972
 20
-95.4556694205804
 10
85.84921086535972
 20
-95.37297830949018
 10
85.916379752535
 20
-95.30580942061795
 10
85.99921197264398
 20
-95.30580942061795
 10
86.08207947052986
 20
-95.30580942061795
 10
86.14924835770512
 20
-95.37297830949018
 10
86.14924835770512
 20
-95.4556694205804
 97
        0
 97
        0
 75
     2
 76
     1
 98
        0
  0
SPLINE
  5
B8
330
1F
100
AcDbEntity
  8
_U+30EC_U+30A4_U+30E4_U+30FC 1
370
     0
100
AcDbSpline
210
0.0
220
0.0
230
1.0
 70
    11
 71
     3
 72
    17
 73
    13
 74
     0
 42
0.0000000001
 43
0.0000000001
 12
1.0
 22
0.0
 32
0.0
 13
1.0
 23
0.0
 33
0.0
 40
0.0
 40
0.0
 40
0.0
 40
0.0
 40
1.0
 40
1.0
 40
1.0
 40
2.0
 40
2.0
 40
2.0
 40
3.0
 40
3.0
 40
3.0
 40
4.0
 40
4.0
 40
4.0
 40
4.0
 10
88.04733608909915
 20
-95.4556694205804
 30
0.0
 10
88.04733608909915
 20
-95.5387133094487
 30
0.0
 10
87.98016497766122
 20
-95.60588219832061
 30
0.0
 10
87.89729747977535
 20
-95.60588219832061
 30
0.0
 10
87.81446525966635
 20
-95.60588219832061
 30
0.0
 10
87.7472610947142
 20
-95.5387133094487
 30
0.0
 10
87.7472610947142
 20
-95.4556694205804
 30
0.0
 10
87.7472610947142
 20
-95.37297830949018
 30
0.0
 10
87.81446525966635
 20
-95.30580942061795
 30
0.0
 10
87.89729747977535
 20
-95.30580942061795
 30
0.0
 10
87.98016497766122
 20
-95.30580942061795
 30
0.0
 10
88.04733608909915
 20
-95.37297830949018
 30
0.0
 10
88.04733608909915
 20
-95.4556694205804
 30
0.0
  0
HATCH
  5
B9
330
1F
100
AcDbEntity
  8
_U+30EC_U+30A4_U+30E4_U+30FC 1
 62
   179
420
  2234388
100
AcDbHatch
 10
0.0
 20
0.0
 30
0.0
210
0.0
220
0.0
230
1.0
  2
SOLID
 70
     1
 71
     0
 91
        1
 92
        1
 93
        1
 72
     4
 94
        3
 73
     0
 74
     1
 95
       17
 96
       13
 40
0.0
 40
0.0
 40
0.0
 40
0.0
 40
1.0
 40
1.0
 40
1.0
 40
2.0
 40
2.0
 40
2.0
 40
3.0
 40
3.0
 40
3.0
 40
4.0
 40
4.0
 40
4.0
 40
4.0
 10
88.04733608909915
 20
-95.4556694205804
 10
88.04733608909915
 20
-95.5387133094487
 10
87.98016497766122
 20
-95.60588219832061
 10
87.89729747977535
 20
-95.60588219832061
 10
87.81446525966635
 20
-95.60588219832061
 10
87.7472610947142
 20
-95.5387133094487
 10
87.7472610947142
 20
-95.4556694205804
 10
87.7472610947142
 20
-95.37297830949018
 10
87.81446525966635
 20
-95.30580942061795
 10
87.89729747977535
 20
-95.30580942061795
 10
87.98016497766122
 20
-95.30580942061795
 10
88.04733608909915
 20
-95.37297830949018
 10
88.04733608909915
 20
-95.4556694205804
 97
        0
 97
        0
 75
     2
 76
     1
 98
        0
  0
SPLINE
  5
BA
330
1F
100
AcDbEntity
  8
_U+30EC_U+30A4_U+30E4_U+30FC 1
370
     0
100
AcDbSpline
210
0.0
220
0.0
230
1.0
 70
    11
 71
     3
 72
    17
 73
    13
 74
     0
 42
0.0000000001
 43
0.0000000001
 12
1.0
 22
0.0
 32
0.0
 13
1.0
 23
0.0
 33
0.0
 40
0.0
 40
0.0
 40
0.0
 40
0.0
 40
1.0
 40
1.0
 40
1.0
 40
2.0
 40
2.0
 40
2.0
 40
3.0
 40
3.0
 40
3.0
 40
4.0
 40
4.0
 40
4.0
 40
4.0
 10
92.2965068119866
 20
-99.57117497510714
 30
0.0
 10
92.2965068119866
 20
-99.65457164175288
 30
0.0
 10
92.22933792481135
 20
-99.72138775284736
 30
0.0
 10
92.14629403804108
 20
-99.72138775284736
 30
0.0
 10
92.06363820681646
 20
-99.72138775284736
 30
0.0
 10
91.99643404186432
 20
-99.65457164175288
 30
0.0
 10
91.99643404186432
 20
-99.57117497510714
 30
0.0
 10
91.99643404186432
 20
-99.48848386401693
 30
0.0
 10
92.06363820681646
 20
-99.42166775292245
 30
0.0
 10
92.14629403804108
 20
-99.42166775292245
 30
0.0
 10
92.22933792481135
 20
-99.42166775292245
 30
0.0
 10
92.2965068119866
 20
-99.48848386401693
 30
0.0
 10
92.2965068119866
 20
-99.57117497510714
 30
0.0
  0
HATCH
  5
BB
330
1F
100
AcDbEntity
  8
_U+30EC_U+30A4_U+30E4_U+30FC 1
 62
   179
420
  2234388
100
AcDbHatch
 10
0.0
 20
0.0
 30
0.0
210
0.0
220
0.0
230
1.0
  2
SOLID
 70
     1
 71
     0
 91
        1
 92
        1
 93
        1
 72
     4
 94
        3
 73
     0
 74
     1
 95
       17
 96
       13
 40
0.0
 40
0.0
 40
0.0
 40
0.0
 40
1.0
 40
1.0
 40
1.0
 40
2.0
 40
2.0
 40
2.0
 40
3.0
 40
3.0
 40
3.0
 40
4.0
 40
4.0
 40
4.0
 40
4.0
 10
92.2965068119866
 20
-99.57117497510714
 10
92.2965068119866
 20
-99.65457164175288
 10
92.22933792481135
 20
-99.72138775284736
 10
92.14629403804108
 20
-99.72138775284736
 10
92.06363820681646
 20
-99.72138775284736
 10
91.99643404186432
 20
-99.65457164175288
 10
91.99643404186432
 20
-99.57117497510714
 10
91.99643404186432
 20
-99.48848386401693
 10
92.06363820681646
 20
-99.42166775292245
 10
92.14629403804108
 20
-99.42166775292245
 10
92.22933792481135
 20
-99.42166775292245
 10
92.2965068119866
 20
-99.48848386401693
 10
92.2965068119866
 20
-99.57117497510714
 97
        0
 97
        0
 75
     2
 76
     1
 98
        0
  0
SPLINE
  5
BC
330
1F
100
AcDbEntity
  8
_U+30EC_U+30A4_U+30E4_U+30FC 1
370
     0
100
AcDbSpline
210
0.0
220
0.0
230
1.0
 70
    11
 71
     3
 72
    17
 73
    13
 74
     0
 42
0.0000000001
 43
0.0000000001
 12
1.0
 22
0.0
 32
0.0
 13
1.0
 23
0.0
 33
0.0
 40
0.0
 40
0.0
 40
0.0
 40
0.0
 40
1.0
 40
1.0
 40
1.0
 40
2.0
 40
2.0
 40
2.0
 40
3.0
 40
3.0
 40
3.0
 40
4.0
 40
4.0
 40
4.0
 40
4.0
 10
92.2965068119866
 20
-159.5713019045519
 30
0.0
 10
92.2965068119866
 20
-159.6546985711976
 30
0.0
 10
92.22933792481135
 20
-159.7215146822917
 30
0.0
 10
92.14629403804108
 20
-159.7215146822917
 30
0.0
 10
92.06363820681646
 20
-159.7215146822917
 30
0.0
 10
91.99643404186432
 20
-159.6546985711976
 30
0.0
 10
91.99643404186432
 20
-159.5713019045519
 30
0.0
 10
91.99643404186432
 20
-159.4886460712391
 30
0.0
 10
92.06363820681646
 20
-159.4217946823668
 30
0.0
 10
92.14629403804108
 20
-159.4217946823668
 30
0.0
 10
92.22933792481135
 20
-159.4217946823668
 30
0.0
 10
92.2965068119866
 20
-159.4886460712391
 30
0.0
 10
92.2965068119866
 20
-159.5713019045519
 30
0.0
  0
HATCH
  5
BD
330
1F
100
AcDbEntity
  8
_U+30EC_U+30A4_U+30E4_U+30FC 1
 62
   179
420
  2234388
100
AcDbHatch
 10
0.0
 20
0.0
 30
0.0
210
0.0
220
0.0
230
1.0
  2
SOLID
 70
     1
 71
     0
 91
        1
 92
        1
 93
        1
 72
     4
 94
        3
 73
     0
 74
     1
 95
       17
 96
       13
 40
0.0
 40
0.0
 40
0.0
 40
0.0
 40
1.0
 40
1.0
 40
1.0
 40
2.0
 40
2.0
 40
2.0
 40
3.0
 40
3.0
 40
3.0
 40
4.0
 40
4.0
 40
4.0
 40
4.0
 10
92.2965068119866
 20
-159.5713019045519
 10
92.2965068119866
 20
-159.6546985711976
 10
92.22933792481135
 20
-159.7215146822917
 10
92.14629403804108
 20
-159.7215146822917
 10
92.06363820681646
 20
-159.7215146822917
 10
91.99643404186432
 20
-159.6546985711976
 10
91.99643404186432
 20
-159.5713019045519
 10
91.99643404186432
 20
-159.4886460712391
 10
92.06363820681646
 20
-159.4217946823668
 10
92.14629403804108
 20
-159.4217946823668
 10
92.22933792481135
 20
-159.4217946823668
 10
92.2965068119866
 20
-159.4886460712391
 10
92.2965068119866
 20
-159.5713019045519
 97
        0
 97
        0
 75
     2
 76
     1
 98
        0
  0
ENDSEC
  0
SECTION
  2
OBJECTS
  0
DICTIONARY
  5
C
330
0
100
AcDbDictionary
281
     1
  3
ACAD_GROUP
350
D
  3
ACAD_LAYOUT
350
1A
  3
ACAD_MATERIAL
350
3B
  3
ACAD_MLEADERSTYLE
350
BF
  3
ACAD_MLINESTYLE
350
17
  3
ACAD_PLOTSETTINGS
350
19
  3
ACAD_PLOTSTYLENAME
350
E
  3
ACAD_TABLESTYLE
350
BE
  3
ACAD_VISUALSTYLE
350
2A
  0
SUN
  5
3F
330
29
100
AcDbSun
 90
        1
290
     0
 63
     7
421
 16777215
 40
1.0
291
     1
 91
  2455826
 92
 54000000
292
     0
 70
     2
 71
   256
280
     1
  0
DICTIONARY
  5
D
102
{ACAD_REACTORS
330
C
102
}
330
C
100
AcDbDictionary
281
     1
  0
DICTIONARY
  5
1A
102
{ACAD_REACTORS
330
C
102
}
330
C
100
AcDbDictionary
281
     1
  3
Layout1
350
1E
  3
Layout2
350
26
  3
Model
350
22
  0
DICTIONARY
  5
3B
102
{ACAD_REACTORS
330
C
102
}
330
C
100
AcDbDictionary
281
     1
  3
ByBlock
350
3D
  3
ByLayer
350
3C
  3
Global
350
3E
  0
DICTIONARY
  5
BF
102
{ACAD_REACTORS
330
C
102
}
330
C
100
AcDbDictionary
281
     1
  0
DICTIONARY
  5
17
102
{ACAD_REACTORS
330
C
102
}
330
C
100
AcDbDictionary
281
     1
  3
Standard
350
18
  0
DICTIONARY
  5
19
102
{ACAD_REACTORS
330
C
102
}
330
C
100
AcDbDictionary
281
     1
  0
ACDBDICTIONARYWDFLT
  5
E
102
{ACAD_REACTORS
330
C
102
}
330
C
100
AcDbDictionary
281
     1
  3
Normal
350
F
100
AcDbDictionaryWithDefault
340
F
  0
DICTIONARY
  5
BE
102
{ACAD_REACTORS
330
C
102
}
330
C
100
AcDbDictionary
281
     1
  0
DICTIONARY
  5
2A
102
{ACAD_REACTORS
330
C
102
}
330
C
100
AcDbDictionary
281
     1
  3
2dWireframe
350
2F
  3
3D Hidden
350
31
  3
3dWireframe
350
30
  3
Basic
350
32
  3
Brighten
350
36
  3
ColorChange
350
3A
  3
Conceptual
350
34
  3
Dim
350
35
  3
Facepattern
350
39
  3
Flat
350
2B
  3
FlatWithEdges
350
2C
  3
Gouraud
350
2D
  3
GouraudWithEdges
350
2E
  3
Linepattern
350
38
  3
Realistic
350
33
  3
Thicken
350
37
  0
LAYOUT
  5
1E
102
{ACAD_REACTORS
330
1A
102
}
330
1A
100
AcDbPlotSettings
  1

  2
none_device
  4

  6

 40
0.0
 41
0.0
 42
0.0
 43
0.0
 44
0.0
 45
0.0
 46
0.0
 47
0.0
 48
0.0
 49
0.0
140
0.0
141
0.0
142
1.0
143
1.0
 70
   688
 72
     0
 73
     0
 74
     5
  7

 75
    16
 76
     0
 77
     2
 78
   300
147
1.0
148
0.0
149
0.0
100
AcDbLayout
  1
Layout1
 70
     1
 71
     1
 10
0.0
 20
0.0
 11
12.0
 21
9.0
 12
0.0
 22
0.0
 32
0.0
 14
1.000000000000000E+20
 24
1.000000000000000E+20
 34
1.000000000000000E+20
 15
-1.000000000000000E+20
 25
-1.000000000000000E+20
 35
-1.000000000000000E+20
146
0.0
 13
0.0
 23
0.0
 33
0.0
 16
1.0
 26
0.0
 36
0.0
 17
0.0
 27
1.0
 37
0.0
 76
     0
330
1B
  0
LAYOUT
  5
26
102
{ACAD_REACTORS
330
1A
102
}
330
1A
100
AcDbPlotSettings
  1

  2
none_device
  4

  6

 40
0.0
 41
0.0
 42
0.0
 43
0.0
 44
0.0
 45
0.0
 46
0.0
 47
0.0
 48
0.0
 49
0.0
140
0.0
141
0.0
142
1.0
143
1.0
 70
   688
 72
     0
 73
     0
 74
     5
  7

 75
    16
 76
     0
 77
     2
 78
   300
147
1.0
148
0.0
149
0.0
100
AcDbLayout
  1
Layout2
 70
     1
 71
     2
 10
0.0
 20
0.0
 11
0.0
 21
0.0
 12
0.0
 22
0.0
 32
0.0
 14
0.0
 24
0.0
 34
0.0
 15
0.0
 25
0.0
 35
0.0
146
0.0
 13
0.0
 23
0.0
 33
0.0
 16
1.0
 26
0.0
 36
0.0
 17
0.0
 27
1.0
 37
0.0
 76
     0
330
23
  0
LAYOUT
  5
22
102
{ACAD_REACTORS
330
1A
102
}
330
1A
100
AcDbPlotSettings
  1

  2
none_device
  4

  6

 40
0.0
 41
0.0
 42
0.0
 43
0.0
 44
0.0
 45
0.0
 46
0.0
 47
0.0
 48
0.0
 49
0.0
140
0.0
141
0.0
142
1.0
143
1.0
 70
  1712
 72
     0
 73
     0
 74
     0
  7

 75
     0
 76
     0
 77
     2
 78
   300
147
1.0
148
0.0
149
0.0
100
AcDbLayout
  1
Model
 70
     1
 71
     0
 10
0.0
 20
0.0
 11
12.0
 21
9.0
 12
0.0
 22
0.0
 32
0.0
 14
1.000000000000000E+20
 24
1.000000000000000E+20
 34
1.000000000000000E+20
 15
-1.000000000000000E+20
 25
-1.000000000000000E+20
 35
-1.000000000000000E+20
146
0.0
 13
0.0
 23
0.0
 33
0.0
 16
1.0
 26
0.0
 36
0.0
 17
0.0
 27
1.0
 37
0.0
 76
     0
330
1F
331
29
  0
MATERIAL
  5
3D
102
{ACAD_REACTORS
330
3B
102
}
330
3B
100
AcDbMaterial
  1
ByBlock
 72
     1
 94
      127
  0
MATERIAL
  5
3C
102
{ACAD_REACTORS
330
3B
102
}
330
3B
100
AcDbMaterial
  1
ByLayer
 72
     1
 94
      127
  0
MATERIAL
  5
3E
102
{ACAD_REACTORS
330
3B
102
}
330
3B
100
AcDbMaterial
  1
Global
 72
     1
 94
      127
  0
MLINESTYLE
  5
18
102
{ACAD_REACTORS
330
17
102
}
330
17
100
AcDbMlineStyle
  2
Standard
 70
     0
  3

 62
   256
 51
90.0
 52
90.0
 71
     2
 49
0.5
 62
   256
  6
BYLAYER
 49
-0.5
 62
   256
  6
BYLAYER
  0
ACDBPLACEHOLDER
  5
F
102
{ACAD_REACTORS
330
E
102
}
330
E
  0
VISUALSTYLE
  5
2F
102
{ACAD_REACTORS
330
2A
102
}
330
2A
100
AcDbVisualStyle
  2
2dWireframe
 70
     4
177
     2
291
     0
 71
     0
176
     1
 72
     2
176
     1
 73
     0
176
     1
 90
        0
176
     1
 40
-0.6
176
     1
 41
-30.0
176
     1
 62
     5
 63
     7
421
 16777215
176
     1
 74
     1
176
     1
 91
        4
176
     1
 64
     7
176
     1
 65
   257
176
     1
 75
     1
176
     1
175
     1
176
     1
 42
1.0
176
     1
 92
        0
176
     1
 66
   257
176
     1
 43
1.0
176
     1
 76
     1
176
     1
 77
     6
176
     1
 78
     2
176
     1
 67
     7
176
     1
 79
     5
176
     1
170
     0
176
     1
171
     0
176
     1
290
     0
176
     1
 93
        1
176
     1
 44
0.0
176
     1
173
     0
176
     1
  0
VISUALSTYLE
  5
31
102
{ACAD_REACTORS
330
2A
102
}
330
2A
100
AcDbVisualStyle
  2
3D Hidden
 70
     6
177
     2
291
     0
 71
     1
176
     1
 72
     2
176
     1
 73
     2
176
     1
 90
        0
176
     1
 40
-0.6
176
     1
 41
-30.0
176
     1
 62
     5
 63
     7
421
 16777215
176
     1
 74
     2
176
     1
 91
        2
176
     1
 64
     7
176
     1
 65
   257
176
     1
 75
     2
176
     1
175
     1
176
     1
 42
40.0
176
     1
 92
        0
176
     1
 66
   257
176
     1
 43
1.0
176
     1
 76
     1
176
     1
 77
     6
176
     1
 78
     2
176
     1
 67
     7
176
     1
 79
     3
176
     1
170
     0
176
     1
171
     0
176
     1
290
     0
176
     1
 93
        1
176
     1
 44
0.0
176
     1
173
     0
176
     1
  0
VISUALSTYLE
  5
30
102
{ACAD_REACTORS
330
2A
102
}
330
2A
100
AcDbVisualStyle
  2
3dWireframe
 70
     5
177
     2
291
     0
 71
     0
176
     1
 72
     2
176
     1
 73
     0
176
     1
 90
        0
176
     1
 40
-0.6
176
     1
 41
-30.0
176
     1
 62
     5
 63
     7
421
 16777215
176
     1
 74
     1
176
     1
 91
        4
176
     1
 64
     7
176
     1
 65
   257
176
     1
 75
     1
176
     1
175
     1
176
     1
 42
1.0
176
     1
 92
        0
176
     1
 66
   257
176
     1
 43
1.0
176
     1
 76
     1
176
     1
 77
     6
176
     1
 78
     2
176
     1
 67
     7
176
     1
 79
     5
176
     1
170
     0
176
     1
171
     0
176
     1
290
     0
176
     1
 93
        1
176
     1
 44
0.0
176
     1
173
     0
176
     1
  0
VISUALSTYLE
  5
32
102
{ACAD_REACTORS
330
2A
102
}
330
2A
100
AcDbVisualStyle
  2
Basic
 70
     7
177
     2
291
     1
 71
     1
176
     1
 72
     0
176
     1
 73
     1
176
     1
 90
        0
176
     1
 40
-0.6
176
     1
 41
-30.0
176
     1
 62
     5
 63
     7
421
 16777215
176
     1
 74
     0
176
     1
 91
        4
176
     1
 64
     7
176
     1
 65
   257
176
     1
 75
     1
176
     1
175
     1
176
     1
 42
1.0
176
     1
 92
        8
176
     1
 66
     7
176
     1
 43
1.0
176
     1
 76
     1
176
     1
 77
     6
176
     1
 78
     2
176
     1
 67
     7
176
     1
 79
     5
176
     1
170
     0
176
     1
171
     0
176
     1
290
     0
176
     1
 93
        1
176
     1
 44
0.0
176
     1
173
     0
176
     1
  0
VISUALSTYLE
  5
36
102
{ACAD_REACTORS
330
2A
102
}
330
2A
100
AcDbVisualStyle
  2
Brighten
 70
    12
177
     2
291
     1
 71
     2
176
     1
 72
     2
176
     1
 73
     0
176
     1
 90
        0
176
     1
 40
-0.6
176
     1
 41
-30.0
176
     1
 62
     5
 63
     7
421
 16777215
176
     1
 74
     1
176
     1
 91
        4
176
     1
 64
     7
176
     1
 65
   257
176
     1
 75
     1
176
     1
175
     1
176
     1
 42
1.0
176
     1
 92
        8
176
     1
 66
     7
176
     1
 43
1.0
176
     1
 76
     1
176
     1
 77
     6
176
     1
 78
     2
176
     1
 67
     7
176
     1
 79
     5
176
     1
170
     0
176
     1
171
     0
176
     1
290
     0
176
     1
 93
        1
176
     1
 44
50.0
176
     1
173
     0
176
     1
  0
VISUALSTYLE
  5
3A
102
{ACAD_REACTORS
330
2A
102
}
330
2A
100
AcDbVisualStyle
  2
ColorChange
 70
    16
177
     2
291
     1
 71
     2
176
     1
 72
     2
176
     1
 73
     3
176
     1
 90
        0
176
     1
 40
-0.6
176
     1
 41
-30.0
176
     1
 62
     5
 63
     8
421
  8421504
176
     1
 74
     1
176
     1
 91
        4
176
     1
 64
     7
176
     1
 65
   257
176
     1
 75
     1
176
     1
175
     1
176
     1
 42
1.0
176
     1
 92
        8
176
     1
 66
     8
424
  8421504
176
     1
 43
1.0
176
     1
 76
     1
176
     1
 77
     6
176
     1
 78
     2
176
     1
 67
     7
176
     1
 79
     5
176
     1
170
     0
176
     1
171
     0
176
     1
290
     0
176
     1
 93
        1
176
     1
 44
0.0
176
     1
173
     0
176
     1
  0
VISUALSTYLE
  5
34
102
{ACAD_REACTORS
330
2A
102
}
330
2A
100
AcDbVisualStyle
  2
Conceptual
 70
     9
177
     2
291
     0
 71
     3
176
     1
 72
     2
176
     1
 73
     0
176
     1
 90
        0
176
     1
 40
-0.6
176
     1
 41
-30.0
176
     1
 62
     5
 63
     7
421
 16777215
176
     1
 74
     2
176
     1
 91
        2
176
     1
 64
     7
176
     1
 65
   257
176
     1
 75
     1
176
     1
175
     1
176
     1
 42
40.0
176
     1
 92
        8
176
     1
 66
     7
176
     1
 43
1.0
176
     1
 76
     1
176
     1
 77
     6
176
     1
 78
     2
176
     1
 67
     7
176
     1
 79
     3
176
     1
170
     0
176
     1
171
     0
176
     1
290
     0
176
     1
 93
        1
176
     1
 44
0.0
176
     1
173
     0
176
     1
  0
VISUALSTYLE
  5
35
102
{ACAD_REACTORS
330
2A
102
}
330
2A
100
AcDbVisualStyle
  2
Dim
 70
    11
177
     2
291
     1
 71
     2
176
     1
 72
     2
176
     1
 73
     0
176
     1
 90
        0
176
     1
 40
-0.6
176
     1
 41
-30.0
176
     1
 62
     5
 63
     7
421
 16777215
176
     1
 74
     1
176
     1
 91
        4
176
     1
 64
     7
176
     1
 65
   257
176
     1
 75
     1
176
     1
175
     1
176
     1
 42
1.0
176
     1
 92
        8
176
     1
 66
     7
176
     1
 43
1.0
176
     1
 76
     1
176
     1
 77
     6
176
     1
 78
     2
176
     1
 67
     7
176
     1
 79
     5
176
     1
170
     0
176
     1
171
     0
176
     1
290
     0
176
     1
 93
        1
176
     1
 44
-50.0
176
     1
173
     0
176
     1
  0
VISUALSTYLE
  5
39
102
{ACAD_REACTORS
330
2A
102
}
330
2A
100
AcDbVisualStyle
  2
Facepattern
 70
    15
177
     2
291
     1
 71
     2
176
     1
 72
     2
176
     1
 73
     0
176
     1
 90
        0
176
     1
 40
-0.6
176
     1
 41
-30.0
176
     1
 62
     5
 63
     7
421
 16777215
176
     1
 74
     1
176
     1
 91
        4
176
     1
 64
     7
176
     1
 65
   257
176
     1
 75
     1
176
     1
175
     1
176
     1
 42
1.0
176
     1
 92
        8
176
     1
 66
     7
176
     1
 43
1.0
176
     1
 76
     1
176
     1
 77
     6
176
     1
 78
     2
176
     1
 67
     7
176
     1
 79
     5
176
     1
170
     0
176
     1
171
     0
176
     1
290
     0
176
     1
 93
        1
176
     1
 44
0.0
176
     1
173
     0
176
     1
  0
VISUALSTYLE
  5
2B
102
{ACAD_REACTORS
330
2A
102
}
330
2A
100
AcDbVisualStyle
  2
Flat
 70
     0
177
     2
291
     1
 71
     2
176
     1
 72
     1
176
     1
 73
     1
176
     1
 90
        2
176
     1
 40
-0.6
176
     1
 41
30.0
176
     1
 62
     5
 63
     7
421
 16777215
176
     1
 74
     0
176
     1
 91
        4
176
     1
 64
     7
176
     1
 65
   257
176
     1
 75
     1
176
     1
175
     1
176
     1
 42
1.0
176
     1
 92
        8
176
     1
 66
     7
176
     1
 43
1.0
176
     1
 76
     1
176
     1
 77
     6
176
     1
 78
     2
176
     1
 67
     7
176
     1
 79
     5
176
     1
170
     0
176
     1
171
     0
176
     1
290
     0
176
     1
 93
       13
176
     1
 44
0.0
176
     1
173
     0
176
     1
  0
VISUALSTYLE
  5
2C
102
{ACAD_REACTORS
330
2A
102
}
330
2A
100
AcDbVisualStyle
  2
FlatWithEdges
 70
     1
177
     2
291
     1
 71
     2
176
     1
 72
     1
176
     1
 73
     1
176
     1
 90
        2
176
     1
 40
-0.6
176
     1
 41
30.0
176
     1
 62
     5
 63
     7
421
 16777215
176
     1
 74
     1
176
     1
 91
        4
176
     1
 64
     7
176
     1
 65
   257
176
     1
 75
     1
176
     1
175
     1
176
     1
 42
1.0
176
     1
 92
        0
176
     1
 66
   257
176
     1
 43
1.0
176
     1
 76
     1
176
     1
 77
     6
176
     1
 78
     2
176
     1
 67
     7
176
     1
 79
     5
176
     1
170
     0
176
     1
171
     0
176
     1
290
     0
176
     1
 93
       13
176
     1
 44
0.0
176
     1
173
     0
176
     1
  0
VISUALSTYLE
  5
2D
102
{ACAD_REACTORS
330
2A
102
}
330
2A
100
AcDbVisualStyle
  2
Gouraud
 70
     2
177
     2
291
     1
 71
     2
176
     1
 72
     2
176
     1
 73
     1
176
     1
 90
        2
176
     1
 40
-0.6
176
     1
 41
30.0
176
     1
 62
     5
 63
     7
421
 16777215
176
     1
 74
     0
176
     1
 91
        4
176
     1
 64
     7
176
     1
 65
   257
176
     1
 75
     1
176
     1
175
     1
176
     1
 42
1.0
176
     1
 92
        0
176
     1
 66
     7
176
     1
 43
1.0
176
     1
 76
     1
176
     1
 77
     6
176
     1
 78
     2
176
     1
 67
     7
176
     1
 79
     5
176
     1
170
     0
176
     1
171
     0
176
     1
290
     0
176
     1
 93
       13
176
     1
 44
0.0
176
     1
173
     0
176
     1
  0
VISUALSTYLE
  5
2E
102
{ACAD_REACTORS
330
2A
102
}
330
2A
100
AcDbVisualStyle
  2
GouraudWithEdges
 70
     3
177
     2
291
     1
 71
     2
176
     1
 72
     2
176
     1
 73
     1
176
     1
 90
        2
176
     1
 40
-0.6
176
     1
 41
30.0
176
     1
 62
     5
 63
     7
421
 16777215
176
     1
 74
     1
176
     1
 91
        4
176
     1
 64
     7
176
     1
 65
   257
176
     1
 75
     1
176
     1
175
     1
176
     1
 42
1.0
176
     1
 92
        0
176
     1
 66
   257
176
     1
 43
1.0
176
     1
 76
     1
176
     1
 77
     6
176
     1
 78
     2
176
     1
 67
     7
176
     1
 79
     5
176
     1
170
     0
176
     1
171
     0
176
     1
290
     0
176
     1
 93
       13
176
     1
 44
0.0
176
     1
173
     0
176
     1
  0
VISUALSTYLE
  5
38
102
{ACAD_REACTORS
330
2A
102
}
330
2A
100
AcDbVisualStyle
  2
Linepattern
 70
    14
177
     2
291
     1
 71
     2
176
     1
 72
     2
176
     1
 73
     0
176
     1
 90
        0
176
     1
 40
-0.6
176
     1
 41
-30.0
176
     1
 62
     5
 63
     7
421
 16777215
176
     1
 74
     1
176
     1
 91
        4
176
     1
 64
     7
176
     1
 65
   257
176
     1
 75
     7
176
     1
175
     7
176
     1
 42
1.0
176
     1
 92
        8
176
     1
 66
     7
176
     1
 43
1.0
176
     1
 76
     1
176
     1
 77
     6
176
     1
 78
     2
176
     1
 67
     7
176
     1
 79
     5
176
     1
170
     0
176
     1
171
     0
176
     1
290
     0
176
     1
 93
        1
176
     1
 44
0.0
176
     1
173
     0
176
     1
  0
VISUALSTYLE
  5
33
102
{ACAD_REACTORS
330
2A
102
}
330
2A
100
AcDbVisualStyle
  2
Realistic
 70
     8
177
     2
291
     0
 71
     2
176
     1
 72
     2
176
     1
 73
     0
176
     1
 90
        0
176
     1
 40
-0.6
176
     1
 41
-30.0
176
     1
 62
     5
 63
     7
421
 16777215
176
     1
 74
     1
176
     1
 91
        0
176
     1
 64
     7
176
     1
 65
   257
176
     1
 75
     1
176
     1
175
     1
176
     1
 42
1.0
176
     1
 92
        8
176
     1
 66
     8
424
  7895160
176
     1
 43
1.0
176
     1
 76
     1
176
     1
 77
     6
176
     1
 78
     2
176
     1
 67
     7
176
     1
 79
     5
176
     1
170
     0
176
     1
171
     0
176
     1
290
     0
176
     1
 93
       13
176
     1
 44
0.0
176
     1
173
     0
176
     1
  0
VISUALSTYLE
  5
37
102
{ACAD_REACTORS
330
2A
102
}
330
2A
100
AcDbVisualStyle
  2
Thicken
 70
    13
177
     2
291
     1
 71
     2
176
     1
 72
     2
176
     1
 73
     0
176
     1
 90
        0
176
     1
 40
-0.6
176
     1
 41
-30.0
176
     1
 62
     5
 63
     7
421
 16777215
176
     1
 74
     1
176
     1
 91
        4
176
     1
 64
     7
176
     1
 65
   257
176
     1
 75
     1
176
     1
175
     1
176
     1
 42
1.0
176
     1
 92
       12
176
     1
 66
     7
176
     1
 43
1.0
176
     1
 76
     1
176
     1
 77
     6
176
     1
 78
     2
176
     1
 67
     7
176
     1
 79
     5
176
     1
170
     0
176
     1
171
     0
176
     1
290
     0
176
     1
 93
        1
176
     1
 44
0.0
176
     1
173
     0
176
     1
  0
ENDSEC
  0
EOF
