  0
SECTION
  2
HEADER
  9
$ACADVER
  1
AC1024
  9
$ACADMAINTVER
 70
     6
  9
$DWGCODEPAGE
  3
UNDEFINED
  9
$INSBASE
 10
0.0
 20
0.0
 30
0.0
  9
$EXTMIN
 10
1.000000000000000E+20
 20
1.000000000000000E+20
 30
1.000000000000000E+20
  9
$EXTMAX
 10
-1.000000000000000E+20
 20
-1.000000000000000E+20
 30
-1.000000000000000E+20
  9
$LIMMIN
 10
0.0
 20
0.0
  9
$LIMMAX
 10
12.0
 20
9.0
  9
$ORTHOMODE
 70
     0
  9
$REGENMODE
 70
     1
  9
$FILLMODE
 70
     1
  9
$QTEXTMODE
 70
     0
  9
$MIRRTEXT
 70
     1
  9
$LTSCALE
 40
1.0
  9
$ATTMODE
 70
     1
  9
$TEXTSIZE
 40
0.2
  9
$TRACEWID
 40
0.05
  9
$TEXTSTYLE
  7
Standard
  9
$CLAYER
  8
0
  9
$CELTYPE
  6
ByLayer
  9
$CECOLOR
 62
   256
  9
$CELTSCALE
 40
1.0
  9
$DISPSILH
 70
     0
  9
$DIMSCALE
 40
1.0
  9
$DIMASZ
 40
0.18
  9
$DIMEXO
 40
0.0625
  9
$DIMDLI
 40
0.38
  9
$DIMRND
 40
0.0
  9
$DIMDLE
 40
0.0
  9
$DIMEXE
 40
0.18
  9
$DIMTP
 40
0.0
  9
$DIMTM
 40
0.0
  9
$DIMTXT
 40
0.18
  9
$DIMCEN
 40
0.09
  9
$DIMTSZ
 40
0.0
  9
$DIMTOL
 70
     0
  9
$DIMLIM
 70
     0
  9
$DIMTIH
 70
     1
  9
$DIMTOH
 70
     1
  9
$DIMSE1
 70
     0
  9
$DIMSE2
 70
     0
  9
$DIMTAD
 70
     0
  9
$DIMZIN
 70
     0
  9
$DIMBLK
  1

  9
$DIMASO
 70
     1
  9
$DIMSHO
 70
     1
  9
$DIMPOST
  1

  9
$DIMAPOST
  1

  9
$DIMALT
 70
     0
  9
$DIMALTD
 70
     2
  9
$DIMALTF
 40
25.4
  9
$DIMLFAC
 40
1.0
  9
$DIMTOFL
 70
     0
  9
$DIMTVP
 40
0.0
  9
$DIMTIX
 70
     0
  9
$DIMSOXD
 70
     0
  9
$DIMSAH
 70
     0
  9
$DIMBLK1
  1

  9
$DIMBLK2
  1

  9
$DIMSTYLE
  2
Standard
  9
$DIMCLRD
 70
     0
  9
$DIMCLRE
 70
     0
  9
$DIMCLRT
 70
     0
  9
$DIMTFAC
 40
1.0
  9
$DIMGAP
 40
0.09
  9
$DIMJUST
 70
     0
  9
$DIMSD1
 70
     0
  9
$DIMSD2
 70
     0
  9
$DIMTOLJ
 70
     1
  9
$DIMTZIN
 70
     0
  9
$DIMALTZ
 70
     0
  9
$DIMALTTZ
 70
     0
  9
$DIMUPT
 70
     0
  9
$DIMDEC
 70
     4
  9
$DIMTDEC
 70
     4
  9
$DIMALTU
 70
     2
  9
$DIMALTTD
 70
     2
  9
$DIMTXSTY
  7
Standard
  9
$DIMAUNIT
 70
     0
  9
$DIMADEC
 70
     0
  9
$DIMALTRND
 40
0.0
  9
$DIMAZIN
 70
     0
  9
$DIMDSEP
 70
    46
  9
$DIMATFIT
 70
     3
  9
$DIMFRAC
 70
     0
  9
$DIMLDRBLK
  1

  9
$DIMLUNIT
 70
     2
  9
$DIMLWD
 70
    -2
  9
$DIMLWE
 70
    -2
  9
$DIMTMOVE
 70
     0
  9
$DIMFXL
 40
1.0
  9
$DIMFXLON
 70
     0
  9
$DIMJOGANG
 40
0.7853981633974483
  9
$DIMTFILL
 70
     0
  9
$DIMTFILLCLR
 70
     0
  9
$DIMARCSYM
 70
     0
  9
$DIMLTYPE
  6

  9
$DIMLTEX1
  6

  9
$DIMLTEX2
  6

  9
$DIMTXTDIRECTION
 70
     0
  9
$LUNITS
 70
     2
  9
$LUPREC
 70
     4
  9
$SKETCHINC
 40
0.1
  9
$FILLETRAD
 40
0.5
  9
$AUNITS
 70
     0
  9
$AUPREC
 70
     0
  9
$MENU
  1
.
  9
$ELEVATION
 40
0.0
  9
$PELEVATION
 40
0.0
  9
$THICKNESS
 40
0.0
  9
$LIMCHECK
 70
     0
  9
$CHAMFERA
 40
0.5
  9
$CHAMFERB
 40
0.5
  9
$CHAMFERC
 40
1.0
  9
$CHAMFERD
 40
0.0
  9
$SKPOLY
 70
     0
  9
$TDCREATE
 40
2457917.628263877
  9
$TDUCREATE
 40
2457917.253263889
  9
$TDUPDATE
 40
2457917.628263877
  9
$TDUUPDATE
 40
2457917.253263889
  9
$TDINDWG
 40
0.0000000116
  9
$TDUSRTIMER
 40
0.0000000116
  9
$USRTIMER
 70
     1
  9
$ANGBASE
 50
0.0
  9
$ANGDIR
 70
     0
  9
$PDMODE
 70
     0
  9
$PDSIZE
 40
0.0
  9
$PLINEWID
 40
0.0
  9
$SPLFRAME
 70
     0
  9
$SPLINETYPE
 70
     6
  9
$SPLINESEGS
 70
     8
  9
$HANDSEED
  5
BD
  9
$SURFTAB1
 70
     6
  9
$SURFTAB2
 70
     6
  9
$SURFTYPE
 70
     6
  9
$SURFU
 70
     6
  9
$SURFV
 70
     6
  9
$UCSBASE
  2

  9
$UCSNAME
  2

  9
$UCSORG
 10
0.0
 20
0.0
 30
0.0
  9
$UCSXDIR
 10
1.0
 20
0.0
 30
0.0
  9
$UCSYDIR
 10
0.0
 20
1.0
 30
0.0
  9
$UCSORTHOREF
  2

  9
$UCSORTHOVIEW
 70
     0
  9
$UCSORGTOP
 10
0.0
 20
0.0
 30
0.0
  9
$UCSORGBOTTOM
 10
0.0
 20
0.0
 30
0.0
  9
$UCSORGLEFT
 10
0.0
 20
0.0
 30
0.0
  9
$UCSORGRIGHT
 10
0.0
 20
0.0
 30
0.0
  9
$UCSORGFRONT
 10
0.0
 20
0.0
 30
0.0
  9
$UCSORGBACK
 10
0.0
 20
0.0
 30
0.0
  9
$PUCSBASE
  2

  9
$PUCSNAME
  2

  9
$PUCSORG
 10
0.0
 20
0.0
 30
0.0
  9
$PUCSXDIR
 10
1.0
 20
0.0
 30
0.0
  9
$PUCSYDIR
 10
0.0
 20
1.0
 30
0.0
  9
$PUCSORTHOREF
  2

  9
$PUCSORTHOVIEW
 70
     0
  9
$PUCSORGTOP
 10
0.0
 20
0.0
 30
0.0
  9
$PUCSORGBOTTOM
 10
0.0
 20
0.0
 30
0.0
  9
$PUCSORGLEFT
 10
0.0
 20
0.0
 30
0.0
  9
$PUCSORGRIGHT
 10
0.0
 20
0.0
 30
0.0
  9
$PUCSORGFRONT
 10
0.0
 20
0.0
 30
0.0
  9
$PUCSORGBACK
 10
0.0
 20
0.0
 30
0.0
  9
$USERI1
 70
     0
  9
$USERI2
 70
     0
  9
$USERI3
 70
     0
  9
$USERI4
 70
     0
  9
$USERI5
 70
     0
  9
$USERR1
 40
0.0
  9
$USERR2
 40
0.0
  9
$USERR3
 40
0.0
  9
$USERR4
 40
0.0
  9
$USERR5
 40
0.0
  9
$WORLDVIEW
 70
     1
  9
$SHADEDGE
 70
     3
  9
$SHADEDIF
 70
    70
  9
$TILEMODE
 70
     1
  9
$MAXACTVP
 70
    64
  9
$PINSBASE
 10
0.0
 20
0.0
 30
0.0
  9
$PLIMCHECK
 70
     0
  9
$PEXTMIN
 10
1.000000000000000E+20
 20
1.000000000000000E+20
 30
1.000000000000000E+20
  9
$PEXTMAX
 10
-1.000000000000000E+20
 20
-1.000000000000000E+20
 30
-1.000000000000000E+20
  9
$PLIMMIN
 10
0.0
 20
0.0
  9
$PLIMMAX
 10
12.0
 20
9.0
  9
$UNITMODE
 70
     0
  9
$VISRETAIN
 70
     1
  9
$PLINEGEN
 70
     0
  9
$PSLTSCALE
 70
     1
  9
$TREEDEPTH
 70
  3020
  9
$CMLSTYLE
  2
Standard
  9
$CMLJUST
 70
     0
  9
$CMLSCALE
 40
1.0
  9
$PROXYGRAPHICS
 70
     1
  9
$MEASUREMENT
 70
     0
  9
$CELWEIGHT
370
    -1
  9
$ENDCAPS
280
     0
  9
$JOINSTYLE
280
     0
  9
$LWDISPLAY
290
     1
  9
$INSUNITS
 70
     1
  9
$HYPERLINKBASE
  1

  9
$STYLESHEET
  1

  9
$XEDIT
290
     1
  9
$CEPSNTYPE
380
     0
  9
$PSTYLEMODE
290
     1
  9
$FINGERPRINTGUID
  2
{70A82BBC-3B3C-39F5-6367-398535A9AEC5}
  9
$VERSIONGUID
  2
{FAEB1C32-E019-11D5-929B-00C0DF256EC4}
  9
$EXTNAMES
290
     1
  9
$PSVPSCALE
 40
0.0
  9
$OLESTARTUP
290
     0
  9
$SORTENTS
280
   127
  9
$INDEXCTL
280
     0
  9
$HIDETEXT
280
     1
  9
$XCLIPFRAME
280
     2
  9
$HALOGAP
280
     0
  9
$OBSCOLOR
 70
   257
  9
$OBSLTYPE
280
     0
  9
$INTERSECTIONDISPLAY
280
     0
  9
$INTERSECTIONCOLOR
 70
   257
  9
$DIMASSOC
280
     2
  9
$PROJECTNAME
  1

  9
$CAMERADISPLAY
290
     0
  9
$LENSLENGTH
 40
50.0
  9
$CAMERAHEIGHT
 40
0.0
  9
$STEPSPERSEC
 40
2.0
  9
$STEPSIZE
 40
6.0
  9
$3DDWFPREC
 40
2.0
  9
$PSOLWIDTH
 40
0.25
  9
$PSOLHEIGHT
 40
4.0
  9
$LOFTANG1
 40
1.570796326794897
  9
$LOFTANG2
 40
1.570796326794897
  9
$LOFTMAG1
 40
0.0
  9
$LOFTMAG2
 40
0.0
  9
$LOFTPARAM
 70
     7
  9
$LOFTNORMALS
280
     1
  9
$LATITUDE
 40
37.795
  9
$LONGITUDE
 40
-122.394
  9
$NORTHDIRECTION
 40
0.0
  9
$TIMEZONE
 70
 -8000
  9
$LIGHTGLYPHDISPLAY
280
     1
  9
$TILEMODELIGHTSYNCH
280
     1
  9
$CMATERIAL
347
3C
  9
$SOLIDHIST
280
     1
  9
$SHOWHIST
280
     1
  9
$DWFFRAME
280
     2
  9
$DGNFRAME
280
     2
  9
$REALWORLDSCALE
290
     1
  9
$INTERFERECOLOR
 62
   256
  9
$CSHADOW
280
     0
  9
$SHADOWPLANELOCATION
 40
0.0
  0
ENDSEC
  0
SECTION
  2
CLASSES
  0
CLASS
  1
ACDBDICTIONARYWDFLT
  2
AcDbDictionaryWithDefault
  3
ObjectDBX Classes
 90
        0
 91
        4
280
     0
281
     0
  0
CLASS
  1
VISUALSTYLE
  2
AcDbVisualStyle
  3
ObjectDBX Classes
 90
     4095
 91
        4
280
     0
281
     0
  0
CLASS
  1
MATERIAL
  2
AcDbMaterial
  3
ObjectDBX Classes
 90
     1153
 91
        4
280
     0
281
     0
  0
CLASS
  1
SUN
  2
AcDbSun
  3
SCENEOE
 90
     1024
 91
        4
280
     0
281
     0
  0
ENDSEC
  0
SECTION
  2
TABLES
  0
TABLE
  2
VPORT
  5
8
330
0
100
AcDbSymbolTable
 70
     1
  0
VPORT
  5
29
330
8
100
AcDbSymbolTableRecord
100
AcDbViewportTableRecord
  2
*Active
 70
     0
 10
0.0
 20
0.0
 11
1.0
 21
1.0
 12
0.0
 22
0.0
 13
0.0
 23
0.0
 14
0.5
 24
0.5
 15
0.5
 25
0.5
 16
0.0
 26
0.0
 36
1.0
 17
91.00082462281999
 27
-128.4993055234307
 37
0.0
 40
256.9986110468615
 41
0.7081814508812795
 42
50.0
 43
0.0
 44
0.0
 50
0.0
 51
0.0
 71
     0
 72
   100
 73
     1
 74
     3
 75
     0
 76
     0
 77
     0
 78
     0
281
     0
 65
     1
110
0.0
120
0.0
130
0.0
111
1.0
121
0.0
131
0.0
112
0.0
122
1.0
132
0.0
 79
     0
146
0.0
 60
     3
 61
     5
292
     1
282
     1
141
0.0
142
0.0
 63
   250
361
3F
  0
ENDTAB
  0
TABLE
  2
LTYPE
  5
5
330
0
100
AcDbSymbolTable
 70
     1
  0
LTYPE
  5
14
330
5
100
AcDbSymbolTableRecord
100
AcDbLinetypeTableRecord
  2
ByBlock
 70
     0
  3

 72
    65
 73
     0
 40
0.0
  0
LTYPE
  5
15
330
5
100
AcDbSymbolTableRecord
100
AcDbLinetypeTableRecord
  2
ByLayer
 70
     0
  3

 72
    65
 73
     0
 40
0.0
  0
LTYPE
  5
16
330
5
100
AcDbSymbolTableRecord
100
AcDbLinetypeTableRecord
  2
Continuous
 70
     0
  3
Solid line
 72
    65
 73
     0
 40
0.0
  0
ENDTAB
  0
TABLE
  2
LAYER
  5
2
330
0
100
AcDbSymbolTable
 70
     2
  0
LAYER
  5
10
330
2
100
AcDbSymbolTableRecord
100
AcDbLayerTableRecord
  2
0
 70
     0
 62
     7
  6
Continuous
370
    -3
390
F
347
3E
  0
LAYER
  5
40
330
2
100
AcDbSymbolTableRecord
100
AcDbLayerTableRecord
  2
_U+30EC_U+30A4_U+30E4_U+30FC 1
 70
     0
 62
     7
  6
Continuous
370
    -3
390
F
347
3E
  0
ENDTAB
  0
TABLE
  2
STYLE
  5
3
330
0
100
AcDbSymbolTable
 70
     1
  0
STYLE
  5
11
330
3
100
AcDbSymbolTableRecord
100
AcDbTextStyleTableRecord
  2
Standard
 70
     0
 40
0.0
 41
1.0
 50
0.0
 71
     0
 42
0.2
  3
txt
  4

  0
ENDTAB
  0
TABLE
  2
VIEW
  5
6
330
0
100
AcDbSymbolTable
 70
     0
  0
ENDTAB
  0
TABLE
  2
UCS
  5
7
330
0
100
AcDbSymbolTable
 70
     0
  0
ENDTAB
  0
TABLE
  2
APPID
  5
9
330
0
100
AcDbSymbolTable
 70
     1
  0
APPID
  5
12
330
9
100
AcDbSymbolTableRecord
100
AcDbRegAppTableRecord
  2
ACAD
 70
     0
  0
ENDTAB
  0
TABLE
  2
DIMSTYLE
  5
A
330
0
100
AcDbSymbolTable
 70
     1
100
AcDbDimStyleTable
  0
DIMSTYLE
105
27
330
A
100
AcDbSymbolTableRecord
100
AcDbDimStyleTableRecord
  2
Standard
 70
     0
178
     0
340
11
  0
ENDTAB
  0
TABLE
  2
BLOCK_RECORD
  5
1
330
0
100
AcDbSymbolTable
 70
     5
  0
BLOCK_RECORD
  5
1F
330
1
100
AcDbSymbolTableRecord
100
AcDbBlockTableRecord
  2
*Model_Space
340
22
 70
     0
280
     1
281
     0
  0
BLOCK_RECORD
  5
1B
330
1
100
AcDbSymbolTableRecord
100
AcDbBlockTableRecord
  2
*Paper_Space
340
1E
 70
     0
280
     1
281
     0
  0
BLOCK_RECORD
  5
23
330
1
100
AcDbSymbolTableRecord
100
AcDbBlockTableRecord
  2
*Paper_Space0
340
26
 70
     0
280
     1
281
     0
  0
BLOCK_RECORD
  5
5B
330
1
100
AcDbSymbolTableRecord
100
AcDbBlockTableRecord
  2
block 2
340
0
102
{BLKREFS
331
5C
102
}
 70
     0
280
     1
281
     0
  0
BLOCK_RECORD
  5
7A
330
1
100
AcDbSymbolTableRecord
100
AcDbBlockTableRecord
  2
block 3
340
0
102
{BLKREFS
331
7B
102
}
 70
     0
280
     1
281
     0
  0
BLOCK_RECORD
  5
8E
330
1
100
AcDbSymbolTableRecord
100
AcDbBlockTableRecord
  2
block 4
340
0
102
{BLKREFS
331
8F
102
}
 70
     0
280
     1
281
     0
  0
BLOCK_RECORD
  5
AA
330
1
100
AcDbSymbolTableRecord
100
AcDbBlockTableRecord
  2
block 5
340
0
102
{BLKREFS
331
AB
102
}
 70
     0
280
     1
281
     0
  0
ENDTAB
  0
ENDSEC
  0
SECTION
  2
BLOCKS
  0
BLOCK
  5
20
330
1F
100
AcDbEntity
  8
0
100
AcDbBlockBegin
  2
*Model_Space
 70
     0
 10
0.0
 20
0.0
 30
0.0
  3
*Model_Space
  1

  0
ENDBLK
  5
21
330
1F
100
AcDbEntity
  8
0
100
AcDbBlockEnd
  0
BLOCK
  5
1C
330
1B
100
AcDbEntity
 67
     1
  8
0
100
AcDbBlockBegin
  2
*Paper_Space
 70
     0
 10
0.0
 20
0.0
 30
0.0
  3
*Paper_Space
  1

  0
ENDBLK
  5
1D
330
1B
100
AcDbEntity
 67
     1
  8
0
100
AcDbBlockEnd
  0
BLOCK
  5
24
330
23
100
AcDbEntity
  8
0
100
AcDbBlockBegin
  2
*Paper_Space0
 70
     0
 10
0.0
 20
0.0
 30
0.0
  3
*Paper_Space0
  1

  0
ENDBLK
  5
25
330
23
100
AcDbEntity
  8
0
100
AcDbBlockEnd
  0
BLOCK
  5
5D
330
5B
100
AcDbEntity
  8
0
100
AcDbBlockBegin
  2
block 2
 70
     0
 10
0.0
 20
0.0
 30
0.0
  3
block 2
  1

  0
SPLINE
  5
5F
330
5B
100
AcDbEntity
  8
_U+30EC_U+30A4_U+30E4_U+30FC 1
370
     0
100
AcDbSpline
210
0.0
220
0.0
230
1.0
 70
    11
 71
     3
 72
    44
 73
    40
 74
     0
 42
0.0000000001
 43
0.0000000001
 12
1.0
 22
0.0
 32
0.0
 13
1.0
 23
0.0
 33
0.0
 40
0.0
 40
0.0
 40
0.0
 40
0.0
 40
1.0
 40
1.0
 40
1.0
 40
2.0
 40
2.0
 40
2.0
 40
3.0
 40
3.0
 40
3.0
 40
4.0
 40
4.0
 40
4.0
 40
5.0
 40
5.0
 40
5.0
 40
6.0
 40
6.0
 40
6.0
 40
7.0
 40
7.0
 40
7.0
 40
8.0
 40
8.0
 40
8.0
 40
9.0
 40
9.0
 40
9.0
 40
10.0
 40
10.0
 40
10.0
 40
11.0
 40
11.0
 40
11.0
 40
12.0
 40
12.0
 40
12.0
 40
13.0
 40
13.0
 40
13.0
 40
13.0
 10
92.22486163058963
 20
-102.4414645468723
 30
0.0
 10
92.20143498128992
 20
-102.3970228151125
 30
0.0
 10
92.1804198988299
 20
-102.3443128541882
 30
0.0
 10
92.17835284153875
 20
-102.1134914566765
 30
0.0
 10
92.17421872695645
 20
-101.8702677154179
 30
0.0
 10
92.11496308461015
 20
-101.8003322770673
 30
0.0
 10
91.93719615757126
 20
-101.8003322770673
 30
0.0
 10
91.93719615757126
 20
-101.8003322770673
 30
0.0
 10
91.52895234256916
 20
-101.8003322770673
 30
0.0
 10
91.52895234256916
 20
-101.8003322770673
 30
0.0
 10
91.52895234256916
 20
-101.8003322770673
 30
0.0
 10
91.52895234256916
 20
-102.4414645468723
 30
0.0
 10
91.52895234256916
 20
-102.4414645468723
 30
0.0
 10
91.52895234256916
 20
-102.4414645468723
 30
0.0
 10
91.29399683047511
 20
-102.4414645468723
 30
0.0
 10
91.29399683047511
 20
-102.4414645468723
 30
0.0
 10
91.29399683047511
 20
-102.4414645468723
 30
0.0
 10
91.29399683047511
 20
-100.8970282408348
 30
0.0
 10
91.29399683047511
 20
-100.8970282408348
 30
0.0
 10
91.29399683047511
 20
-100.8970282408348
 30
0.0
 10
91.96889103603556
 20
-100.8970282408348
 30
0.0
 10
91.96889103603556
 20
-100.8970282408348
 30
0.0
 10
92.27550453422279
 20
-100.8970282408348
 30
0.0
 10
92.44293617480594
 20
-101.0685939960002
 30
0.0
 10
92.44293617480594
 20
-101.3245645905543
 30
0.0
 10
92.44293617480594
 20
-101.3752074941874
 30
0.0
 10
92.43432343609281
 20
-101.4578897858334
 30
0.0
 10
92.38988170433309
 20
-101.5381605106398
 30
0.0
 10
92.33062606198679
 20
-101.6418578847458
 30
0.0
 10
92.26516924776705
 20
-101.6608059099147
 30
0.0
 10
92.2038465481296
 20
-101.6776868777924
 30
0.0
 10
92.34130585799106
 20
-101.720061552261
 30
0.0
 10
92.40882972950196
 20
-101.768637398603
 30
0.0
 10
92.41330835363279
 20
-102.0838636355033
 30
0.0
 10
92.41744246821509
 20
-102.354648140644
 30
0.0
 10
92.45327146126169
 20
-102.3863430191083
 30
0.0
 10
92.5211398423211
 20
-102.4414645468723
 30
0.0
 10
92.5211398423211
 20
-102.4414645468723
 30
0.0
 10
92.22486163058963
 20
-102.4414645468723
 30
0.0
 10
92.22486163058963
 20
-102.4414645468723
 30
0.0
  0
SPLINE
  5
60
330
5B
100
AcDbEntity
  8
_U+30EC_U+30A4_U+30E4_U+30FC 1
370
     0
100
AcDbSpline
210
0.0
220
0.0
230
1.0
 70
    11
 71
     3
 72
    20
 73
    16
 74
     0
 42
0.0000000001
 43
0.0000000001
 12
1.0
 22
0.0
 32
0.0
 13
1.0
 23
0.0
 33
0.0
 40
0.0
 40
0.0
 40
0.0
 40
0.0
 40
1.0
 40
1.0
 40
1.0
 40
2.0
 40
2.0
 40
2.0
 40
3.0
 40
3.0
 40
3.0
 40
4.0
 40
4.0
 40
4.0
 40
5.0
 40
5.0
 40
5.0
 40
5.0
 10
91.97302515061786
 20
-101.1085571036291
 30
0.0
 10
91.97302515061786
 20
-101.1085571036291
 30
0.0
 10
91.52895234256916
 20
-101.1085571036291
 30
0.0
 10
91.52895234256916
 20
-101.1085571036291
 30
0.0
 10
91.52895234256916
 20
-101.1085571036291
 30
0.0
 10
91.52895234256916
 20
-101.5888034142729
 30
0.0
 10
91.52895234256916
 20
-101.5888034142729
 30
0.0
 10
91.52895234256916
 20
-101.5888034142729
 30
0.0
 10
91.97095809332671
 20
-101.5888034142729
 30
0.0
 10
91.97095809332671
 20
-101.5888034142729
 30
0.0
 10
92.07052135285043
 20
-101.5888034142729
 30
0.0
 10
92.20591360542075
 20
-101.5126668040489
 30
0.0
 10
92.20591360542075
 20
-101.341445558432
 30
0.0
 10
92.20591360542075
 20
-101.2632418909168
 30
0.0
 10
92.1721516696653
 20
-101.1085571036291
 30
0.0
 10
91.97302515061786
 20
-101.1085571036291
 30
0.0
  0
HATCH
  5
61
330
5B
100
AcDbEntity
  8
_U+30EC_U+30A4_U+30E4_U+30FC 1
 62
   179
420
  2234388
100
AcDbHatch
 10
0.0
 20
0.0
 30
0.0
210
0.0
220
0.0
230
1.0
  2
SOLID
 70
     1
 71
     0
 91
        2
 92
        1
 93
        1
 72
     4
 94
        3
 73
     0
 74
     1
 95
       44
 96
       40
 40
0.0
 40
0.0
 40
0.0
 40
0.0
 40
1.0
 40
1.0
 40
1.0
 40
2.0
 40
2.0
 40
2.0
 40
3.0
 40
3.0
 40
3.0
 40
4.0
 40
4.0
 40
4.0
 40
5.0
 40
5.0
 40
5.0
 40
6.0
 40
6.0
 40
6.0
 40
7.0
 40
7.0
 40
7.0
 40
8.0
 40
8.0
 40
8.0
 40
9.0
 40
9.0
 40
9.0
 40
10.0
 40
10.0
 40
10.0
 40
11.0
 40
11.0
 40
11.0
 40
12.0
 40
12.0
 40
12.0
 40
13.0
 40
13.0
 40
13.0
 40
13.0
 10
92.22486163058963
 20
-102.4414645468723
 10
92.20143498128992
 20
-102.3970228151125
 10
92.1804198988299
 20
-102.3443128541882
 10
92.17835284153875
 20
-102.1134914566765
 10
92.17421872695645
 20
-101.8702677154179
 10
92.11496308461015
 20
-101.8003322770673
 10
91.93719615757126
 20
-101.8003322770673
 10
91.93719615757126
 20
-101.8003322770673
 10
91.52895234256916
 20
-101.8003322770673
 10
91.52895234256916
 20
-101.8003322770673
 10
91.52895234256916
 20
-101.8003322770673
 10
91.52895234256916
 20
-102.4414645468723
 10
91.52895234256916
 20
-102.4414645468723
 10
91.52895234256916
 20
-102.4414645468723
 10
91.29399683047511
 20
-102.4414645468723
 10
91.29399683047511
 20
-102.4414645468723
 10
91.29399683047511
 20
-102.4414645468723
 10
91.29399683047511
 20
-100.8970282408348
 10
91.29399683047511
 20
-100.8970282408348
 10
91.29399683047511
 20
-100.8970282408348
 10
91.96889103603556
 20
-100.8970282408348
 10
91.96889103603556
 20
-100.8970282408348
 10
92.27550453422279
 20
-100.8970282408348
 10
92.44293617480594
 20
-101.0685939960002
 10
92.44293617480594
 20
-101.3245645905543
 10
92.44293617480594
 20
-101.3752074941874
 10
92.43432343609281
 20
-101.4578897858334
 10
92.38988170433309
 20
-101.5381605106398
 10
92.33062606198679
 20
-101.6418578847458
 10
92.26516924776705
 20
-101.6608059099147
 10
92.2038465481296
 20
-101.6776868777924
 10
92.34130585799106
 20
-101.720061552261
 10
92.40882972950196
 20
-101.768637398603
 10
92.41330835363279
 20
-102.0838636355033
 10
92.41744246821509
 20
-102.354648140644
 10
92.45327146126169
 20
-102.3863430191083
 10
92.5211398423211
 20
-102.4414645468723
 10
92.5211398423211
 20
-102.4414645468723
 10
92.22486163058963
 20
-102.4414645468723
 10
92.22486163058963
 20
-102.4414645468723
 97
        0
 97
        0
 92
        1
 93
        1
 72
     4
 94
        3
 73
     0
 74
     1
 95
       20
 96
       16
 40
0.0
 40
0.0
 40
0.0
 40
0.0
 40
1.0
 40
1.0
 40
1.0
 40
2.0
 40
2.0
 40
2.0
 40
3.0
 40
3.0
 40
3.0
 40
4.0
 40
4.0
 40
4.0
 40
5.0
 40
5.0
 40
5.0
 40
5.0
 10
91.97302515061786
 20
-101.1085571036291
 10
91.97302515061786
 20
-101.1085571036291
 10
91.52895234256916
 20
-101.1085571036291
 10
91.52895234256916
 20
-101.1085571036291
 10
91.52895234256916
 20
-101.1085571036291
 10
91.52895234256916
 20
-101.5888034142729
 10
91.52895234256916
 20
-101.5888034142729
 10
91.52895234256916
 20
-101.5888034142729
 10
91.97095809332671
 20
-101.5888034142729
 10
91.97095809332671
 20
-101.5888034142729
 10
92.07052135285043
 20
-101.5888034142729
 10
92.20591360542075
 20
-101.5126668040489
 10
92.20591360542075
 20
-101.341445558432
 10
92.20591360542075
 20
-101.2632418909168
 10
92.1721516696653
 20
-101.1085571036291
 10
91.97302515061786
 20
-101.1085571036291
 97
        0
 97
        0
 75
     2
 76
     1
 98
        0
  0
SPLINE
  5
62
330
5B
100
AcDbEntity
  8
_U+30EC_U+30A4_U+30E4_U+30FC 1
370
     0
100
AcDbSpline
210
0.0
220
0.0
230
1.0
 70
    11
 71
     3
 72
    26
 73
    22
 74
     0
 42
0.0000000001
 43
0.0000000001
 12
1.0
 22
0.0
 32
0.0
 13
1.0
 23
0.0
 33
0.0
 40
0.0
 40
0.0
 40
0.0
 40
0.0
 40
1.0
 40
1.0
 40
1.0
 40
2.0
 40
2.0
 40
2.0
 40
3.0
 40
3.0
 40
3.0
 40
4.0
 40
4.0
 40
4.0
 40
5.0
 40
5.0
 40
5.0
 40
6.0
 40
6.0
 40
6.0
 40
7.0
 40
7.0
 40
7.0
 40
7.0
 10
93.11197371804145
 20
-102.4414645468723
 30
0.0
 10
93.11197371804145
 20
-102.4414645468723
 30
0.0
 10
93.11197371804145
 20
-101.3373114438497
 30
0.0
 10
93.11197371804145
 20
-101.3373114438497
 30
0.0
 10
93.11197371804145
 20
-101.3373114438497
 30
0.0
 10
92.78193357055451
 20
-101.3373114438497
 30
0.0
 10
92.78193357055451
 20
-101.3373114438497
 30
0.0
 10
92.78193357055451
 20
-101.3373114438497
 30
0.0
 10
92.78193357055451
 20
-101.189172337984
 30
0.0
 10
92.78193357055451
 20
-101.189172337984
 30
0.0
 10
93.11404077533261
 20
-101.1743584273974
 30
0.0
 10
93.16054956438347
 20
-101.0114054109451
 30
0.0
 10
93.19017738555662
 20
-100.8970282408348
 30
0.0
 10
93.19017738555662
 20
-100.8970282408348
 30
0.0
 10
93.33624943413122
 20
-100.8970282408348
 30
0.0
 10
93.33624943413122
 20
-100.8970282408348
 30
0.0
 10
93.33624943413122
 20
-100.8970282408348
 30
0.0
 10
93.33624943413122
 20
-102.4414645468723
 30
0.0
 10
93.33624943413122
 20
-102.4414645468723
 30
0.0
 10
93.33624943413122
 20
-102.4414645468723
 30
0.0
 10
93.11197371804145
 20
-102.4414645468723
 30
0.0
 10
93.11197371804145
 20
-102.4414645468723
 30
0.0
  0
HATCH
  5
63
330
5B
100
AcDbEntity
  8
_U+30EC_U+30A4_U+30E4_U+30FC 1
 62
   179
420
  2234388
100
AcDbHatch
 10
0.0
 20
0.0
 30
0.0
210
0.0
220
0.0
230
1.0
  2
SOLID
 70
     1
 71
     0
 91
        1
 92
        1
 93
        1
 72
     4
 94
        3
 73
     0
 74
     1
 95
       26
 96
       22
 40
0.0
 40
0.0
 40
0.0
 40
0.0
 40
1.0
 40
1.0
 40
1.0
 40
2.0
 40
2.0
 40
2.0
 40
3.0
 40
3.0
 40
3.0
 40
4.0
 40
4.0
 40
4.0
 40
5.0
 40
5.0
 40
5.0
 40
6.0
 40
6.0
 40
6.0
 40
7.0
 40
7.0
 40
7.0
 40
7.0
 10
93.11197371804145
 20
-102.4414645468723
 10
93.11197371804145
 20
-102.4414645468723
 10
93.11197371804145
 20
-101.3373114438497
 10
93.11197371804145
 20
-101.3373114438497
 10
93.11197371804145
 20
-101.3373114438497
 10
92.78193357055451
 20
-101.3373114438497
 10
92.78193357055451
 20
-101.3373114438497
 10
92.78193357055451
 20
-101.3373114438497
 10
92.78193357055451
 20
-101.189172337984
 10
92.78193357055451
 20
-101.189172337984
 10
93.11404077533261
 20
-101.1743584273974
 10
93.16054956438347
 20
-101.0114054109451
 10
93.19017738555662
 20
-100.8970282408348
 10
93.19017738555662
 20
-100.8970282408348
 10
93.33624943413122
 20
-100.8970282408348
 10
93.33624943413122
 20
-100.8970282408348
 10
93.33624943413122
 20
-100.8970282408348
 10
93.33624943413122
 20
-102.4414645468723
 10
93.33624943413122
 20
-102.4414645468723
 10
93.33624943413122
 20
-102.4414645468723
 10
93.11197371804145
 20
-102.4414645468723
 10
93.11197371804145
 20
-102.4414645468723
 97
        0
 97
        0
 75
     2
 76
     1
 98
        0
  0
POLYLINE
  5
64
330
5B
100
AcDbEntity
  8
_U+30EC_U+30A4_U+30E4_U+30FC 1
370
     0
100
AcDb2dPolyline
 66
     1
 10
0.0
 20
0.0
 30
0.0
  0
VERTEX
  5
65
330
64
100
AcDbEntity
  8
_U+30EC_U+30A4_U+30E4_U+30FC 1
370
     0
100
AcDbVertex
100
AcDb2dVertex
 10
93.89779999822694
 20
-102.4414645468723
 30
0.0
  0
VERTEX
  5
66
330
64
100
AcDbEntity
  8
_U+30EC_U+30A4_U+30E4_U+30FC 1
370
     0
100
AcDbVertex
100
AcDb2dVertex
 10
93.89779999822694
 20
-102.1896280669005
 30
0.0
  0
VERTEX
  5
67
330
64
100
AcDbEntity
  8
_U+30EC_U+30A4_U+30E4_U+30FC 1
370
     0
100
AcDbVertex
100
AcDb2dVertex
 10
94.1496364781987
 20
-102.1896280669005
 30
0.0
  0
VERTEX
  5
68
330
64
100
AcDbEntity
  8
_U+30EC_U+30A4_U+30E4_U+30FC 1
370
     0
100
AcDbVertex
100
AcDb2dVertex
 10
94.1496364781987
 20
-102.4414645468723
 30
0.0
  0
VERTEX
  5
69
330
64
100
AcDbEntity
  8
_U+30EC_U+30A4_U+30E4_U+30FC 1
370
     0
100
AcDbVertex
100
AcDb2dVertex
 10
93.89779999822694
 20
-102.4414645468723
 30
0.0
  0
SEQEND
  5
6A
330
64
100
AcDbEntity
  8
_U+30EC_U+30A4_U+30E4_U+30FC 1
370
     0
  0
HATCH
  5
6B
330
5B
100
AcDbEntity
  8
_U+30EC_U+30A4_U+30E4_U+30FC 1
 62
   179
420
  2234388
100
AcDbHatch
 10
0.0
 20
0.0
 30
0.0
210
0.0
220
0.0
230
1.0
  2
SOLID
 70
     1
 71
     0
 91
        1
 92
        1
 93
        4
 72
     1
 10
93.89779999822694
 20
-102.4414645468723
 11
93.89779999822694
 21
-102.1896280669005
 72
     1
 10
93.89779999822694
 20
-102.1896280669005
 11
94.1496364781987
 21
-102.1896280669005
 72
     1
 10
94.1496364781987
 20
-102.1896280669005
 11
94.1496364781987
 21
-102.4414645468723
 72
     1
 10
94.1496364781987
 20
-102.4414645468723
 11
93.89779999822694
 21
-102.4414645468723
 97
        0
 75
     2
 76
     1
 98
        0
  0
SPLINE
  5
6C
330
5B
100
AcDbEntity
  8
_U+30EC_U+30A4_U+30E4_U+30FC 1
370
     0
100
AcDbSpline
210
0.0
220
0.0
230
1.0
 70
    11
 71
     3
 72
    53
 73
    49
 74
     0
 42
0.0000000001
 43
0.0000000001
 12
1.0
 22
0.0
 32
0.0
 13
1.0
 23
0.0
 33
0.0
 40
0.0
 40
0.0
 40
0.0
 40
0.0
 40
1.0
 40
1.0
 40
1.0
 40
2.0
 40
2.0
 40
2.0
 40
3.0
 40
3.0
 40
3.0
 40
4.0
 40
4.0
 40
4.0
 40
5.0
 40
5.0
 40
5.0
 40
6.0
 40
6.0
 40
6.0
 40
7.0
 40
7.0
 40
7.0
 40
8.0
 40
8.0
 40
8.0
 40
9.0
 40
9.0
 40
9.0
 40
10.0
 40
10.0
 40
10.0
 40
11.0
 40
11.0
 40
11.0
 40
12.0
 40
12.0
 40
12.0
 40
13.0
 40
13.0
 40
13.0
 40
14.0
 40
14.0
 40
14.0
 40
15.0
 40
15.0
 40
15.0
 40
16.0
 40
16.0
 40
16.0
 40
16.0
 10
94.86690535822773
 20
-102.4921074505054
 30
0.0
 10
94.78870169071256
 20
-102.4921074505054
 30
0.0
 10
94.68707137389768
 20
-102.4752264826277
 30
0.0
 10
94.5854410570828
 20
-102.4118367256991
 30
0.0
 10
94.41215275417474
 20
-102.3019381797197
 30
0.0
 10
94.39079316216619
 20
-102.1706800417316
 30
0.0
 10
94.37184513699732
 20
-102.0628485530433
 30
0.0
 10
94.37184513699732
 20
-102.0628485530433
 30
0.0
 10
94.59405379579593
 20
-102.0628485530433
 30
0.0
 10
94.59405379579593
 20
-102.0628485530433
 30
0.0
 10
94.6488308140114
 20
-102.2616305625422
 30
0.0
 10
94.77595483741713
 20
-102.2912583837154
 30
0.0
 10
94.86897241551887
 20
-102.2912583837154
 30
0.0
 10
95.0084987826715
 20
-102.2912583837154
 30
0.0
 10
95.16077200311953
 20
-102.1916951241917
 30
0.0
 10
95.16077200311953
 20
-101.9591511789373
 30
0.0
 10
95.16077200311953
 20
-101.7031805843832
 30
0.0
 10
94.98093801878949
 20
-101.6332451460327
 30
0.0
 10
94.86035967680574
 20
-101.6332451460327
 30
0.0
 10
94.82866479834145
 20
-101.6332451460327
 30
0.0
 10
94.68707137389768
 20
-101.6332451460327
 30
0.0
 10
94.59818791037823
 20
-101.7624362267295
 30
0.0
 10
94.59818791037823
 20
-101.7624362267295
 30
0.0
 10
94.4224880406305
 20
-101.7434882015607
 30
0.0
 10
94.4224880406305
 20
-101.7434882015607
 30
0.0
 10
94.4224880406305
 20
-101.7434882015607
 30
0.0
 10
94.54306638261424
 20
-100.8970282408348
 30
0.0
 10
94.54306638261424
 20
-100.8970282408348
 30
0.0
 10
94.54306638261424
 20
-100.8970282408348
 30
0.0
 10
95.3216579622807
 20
-100.8970282408348
 30
0.0
 10
95.3216579622807
 20
-100.8970282408348
 30
0.0
 10
95.3216579622807
 20
-100.8970282408348
 30
0.0
 10
95.3216579622807
 20
-101.0916761357514
 30
0.0
 10
95.3216579622807
 20
-101.0916761357514
 30
0.0
 10
95.3216579622807
 20
-101.0916761357514
 30
0.0
 10
94.70601939906655
 20
-101.0916761357514
 30
0.0
 10
94.70601939906655
 20
-101.0916761357514
 30
0.0
 10
94.70601939906655
 20
-101.0916761357514
 30
0.0
 10
94.6405625848468
 20
-101.5147338613401
 30
0.0
 10
94.6405625848468
 20
-101.5147338613401
 30
0.0
 10
94.70188528448425
 20
-101.4809719255846
 30
0.0
 10
94.78422306658173
 20
-101.4406643084072
 30
0.0
 10
94.90273435127432
 20
-101.4406643084072
 30
0.0
 10
95.15663788853723
 20
-101.4406643084072
 30
0.0
 10
95.39366045792242
 20
-101.6270439741592
 30
0.0
 10
95.39366045792242
 20
-101.9402031537684
 30
0.0
 10
95.39366045792242
 20
-102.2574964479599
 30
0.0
 10
95.16938474183266
 20
-102.4921074505054
 30
0.0
 10
94.86690535822773
 20
-102.4921074505054
 30
0.0
  0
HATCH
  5
6D
330
5B
100
AcDbEntity
  8
_U+30EC_U+30A4_U+30E4_U+30FC 1
 62
   179
420
  2234388
100
AcDbHatch
 10
0.0
 20
0.0
 30
0.0
210
0.0
220
0.0
230
1.0
  2
SOLID
 70
     1
 71
     0
 91
        1
 92
        1
 93
        1
 72
     4
 94
        3
 73
     0
 74
     1
 95
       53
 96
       49
 40
0.0
 40
0.0
 40
0.0
 40
0.0
 40
1.0
 40
1.0
 40
1.0
 40
2.0
 40
2.0
 40
2.0
 40
3.0
 40
3.0
 40
3.0
 40
4.0
 40
4.0
 40
4.0
 40
5.0
 40
5.0
 40
5.0
 40
6.0
 40
6.0
 40
6.0
 40
7.0
 40
7.0
 40
7.0
 40
8.0
 40
8.0
 40
8.0
 40
9.0
 40
9.0
 40
9.0
 40
10.0
 40
10.0
 40
10.0
 40
11.0
 40
11.0
 40
11.0
 40
12.0
 40
12.0
 40
12.0
 40
13.0
 40
13.0
 40
13.0
 40
14.0
 40
14.0
 40
14.0
 40
15.0
 40
15.0
 40
15.0
 40
16.0
 40
16.0
 40
16.0
 40
16.0
 10
94.86690535822773
 20
-102.4921074505054
 10
94.78870169071256
 20
-102.4921074505054
 10
94.68707137389768
 20
-102.4752264826277
 10
94.5854410570828
 20
-102.4118367256991
 10
94.41215275417474
 20
-102.3019381797197
 10
94.39079316216619
 20
-102.1706800417316
 10
94.37184513699732
 20
-102.0628485530433
 10
94.37184513699732
 20
-102.0628485530433
 10
94.59405379579593
 20
-102.0628485530433
 10
94.59405379579593
 20
-102.0628485530433
 10
94.6488308140114
 20
-102.2616305625422
 10
94.77595483741713
 20
-102.2912583837154
 10
94.86897241551887
 20
-102.2912583837154
 10
95.0084987826715
 20
-102.2912583837154
 10
95.16077200311953
 20
-102.1916951241917
 10
95.16077200311953
 20
-101.9591511789373
 10
95.16077200311953
 20
-101.7031805843832
 10
94.98093801878949
 20
-101.6332451460327
 10
94.86035967680574
 20
-101.6332451460327
 10
94.82866479834145
 20
-101.6332451460327
 10
94.68707137389768
 20
-101.6332451460327
 10
94.59818791037823
 20
-101.7624362267295
 10
94.59818791037823
 20
-101.7624362267295
 10
94.4224880406305
 20
-101.7434882015607
 10
94.4224880406305
 20
-101.7434882015607
 10
94.4224880406305
 20
-101.7434882015607
 10
94.54306638261424
 20
-100.8970282408348
 10
94.54306638261424
 20
-100.8970282408348
 10
94.54306638261424
 20
-100.8970282408348
 10
95.3216579622807
 20
-100.8970282408348
 10
95.3216579622807
 20
-100.8970282408348
 10
95.3216579622807
 20
-100.8970282408348
 10
95.3216579622807
 20
-101.0916761357514
 10
95.3216579622807
 20
-101.0916761357514
 10
95.3216579622807
 20
-101.0916761357514
 10
94.70601939906655
 20
-101.0916761357514
 10
94.70601939906655
 20
-101.0916761357514
 10
94.70601939906655
 20
-101.0916761357514
 10
94.6405625848468
 20
-101.5147338613401
 10
94.6405625848468
 20
-101.5147338613401
 10
94.70188528448425
 20
-101.4809719255846
 10
94.78422306658173
 20
-101.4406643084072
 10
94.90273435127432
 20
-101.4406643084072
 10
95.15663788853723
 20
-101.4406643084072
 10
95.39366045792242
 20
-101.6270439741592
 10
95.39366045792242
 20
-101.9402031537684
 10
95.39366045792242
 20
-102.2574964479599
 10
95.16938474183266
 20
-102.4921074505054
 10
94.86690535822773
 20
-102.4921074505054
 97
        0
 97
        0
 75
     2
 76
     1
 98
        0
  0
ENDBLK
  5
5E
330
5B
100
AcDbEntity
  8
0
100
AcDbBlockEnd
  0
BLOCK
  5
7C
330
7A
100
AcDbEntity
  8
0
100
AcDbBlockBegin
  2
block 3
 70
     0
 10
0.0
 20
0.0
 30
0.0
  3
block 3
  1

  0
SPLINE
  5
7E
330
7A
100
AcDbEntity
  8
_U+30EC_U+30A4_U+30E4_U+30FC 1
370
     0
100
AcDbSpline
210
0.0
220
0.0
230
1.0
 70
    11
 71
     3
 72
    44
 73
    40
 74
     0
 42
0.0000000001
 43
0.0000000001
 12
1.0
 22
0.0
 32
0.0
 13
1.0
 23
0.0
 33
0.0
 40
0.0
 40
0.0
 40
0.0
 40
0.0
 40
1.0
 40
1.0
 40
1.0
 40
2.0
 40
2.0
 40
2.0
 40
3.0
 40
3.0
 40
3.0
 40
4.0
 40
4.0
 40
4.0
 40
5.0
 40
5.0
 40
5.0
 40
6.0
 40
6.0
 40
6.0
 40
7.0
 40
7.0
 40
7.0
 40
8.0
 40
8.0
 40
8.0
 40
9.0
 40
9.0
 40
9.0
 40
10.0
 40
10.0
 40
10.0
 40
11.0
 40
11.0
 40
11.0
 40
12.0
 40
12.0
 40
12.0
 40
13.0
 40
13.0
 40
13.0
 40
13.0
 10
92.22486163058963
 20
-159.5327256545613
 30
0.0
 10
92.20143498128992
 20
-159.4882839228015
 30
0.0
 10
92.1804198988299
 20
-159.4355739618772
 30
0.0
 10
92.17835284153875
 20
-159.2047525643655
 30
0.0
 10
92.17421872695645
 20
-158.9615288231068
 30
0.0
 10
92.11496308461015
 20
-158.8915933847563
 30
0.0
 10
91.93719615757126
 20
-158.8915933847563
 30
0.0
 10
91.93719615757126
 20
-158.8915933847563
 30
0.0
 10
91.52895234256916
 20
-158.8915933847563
 30
0.0
 10
91.52895234256916
 20
-158.8915933847563
 30
0.0
 10
91.52895234256916
 20
-158.8915933847563
 30
0.0
 10
91.52895234256916
 20
-159.5327256545613
 30
0.0
 10
91.52895234256916
 20
-159.5327256545613
 30
0.0
 10
91.52895234256916
 20
-159.5327256545613
 30
0.0
 10
91.29399683047511
 20
-159.5327256545613
 30
0.0
 10
91.29399683047511
 20
-159.5327256545613
 30
0.0
 10
91.29399683047511
 20
-159.5327256545613
 30
0.0
 10
91.29399683047511
 20
-157.9882893485238
 30
0.0
 10
91.29399683047511
 20
-157.9882893485238
 30
0.0
 10
91.29399683047511
 20
-157.9882893485238
 30
0.0
 10
91.96889103603556
 20
-157.9882893485238
 30
0.0
 10
91.96889103603556
 20
-157.9882893485238
 30
0.0
 10
92.27550453422279
 20
-157.9882893485238
 30
0.0
 10
92.44293617480594
 20
-158.1598551036892
 30
0.0
 10
92.44293617480594
 20
-158.4158256982433
 30
0.0
 10
92.44293617480594
 20
-158.4664686018764
 30
0.0
 10
92.43432343609281
 20
-158.5491508935224
 30
0.0
 10
92.38988170433309
 20
-158.6294216183288
 30
0.0
 10
92.33062606198679
 20
-158.7331189924348
 30
0.0
 10
92.26516924776705
 20
-158.7520670176037
 30
0.0
 10
92.2038465481296
 20
-158.7689479854814
 30
0.0
 10
92.34130585799106
 20
-158.81132265995
 30
0.0
 10
92.40882972950196
 20
-158.859898506292
 30
0.0
 10
92.41330835363279
 20
-159.1751247431923
 30
0.0
 10
92.41744246821509
 20
-159.445909248333
 30
0.0
 10
92.45327146126169
 20
-159.4776041267973
 30
0.0
 10
92.5211398423211
 20
-159.5327256545613
 30
0.0
 10
92.5211398423211
 20
-159.5327256545613
 30
0.0
 10
92.22486163058963
 20
-159.5327256545613
 30
0.0
 10
92.22486163058963
 20
-159.5327256545613
 30
0.0
  0
SPLINE
  5
7F
330
7A
100
AcDbEntity
  8
_U+30EC_U+30A4_U+30E4_U+30FC 1
370
     0
100
AcDbSpline
210
0.0
220
0.0
230
1.0
 70
    11
 71
     3
 72
    20
 73
    16
 74
     0
 42
0.0000000001
 43
0.0000000001
 12
1.0
 22
0.0
 32
0.0
 13
1.0
 23
0.0
 33
0.0
 40
0.0
 40
0.0
 40
0.0
 40
0.0
 40
1.0
 40
1.0
 40
1.0
 40
2.0
 40
2.0
 40
2.0
 40
3.0
 40
3.0
 40
3.0
 40
4.0
 40
4.0
 40
4.0
 40
5.0
 40
5.0
 40
5.0
 40
5.0
 10
91.97302515061786
 20
-158.1998182113181
 30
0.0
 10
91.97302515061786
 20
-158.1998182113181
 30
0.0
 10
91.52895234256916
 20
-158.1998182113181
 30
0.0
 10
91.52895234256916
 20
-158.1998182113181
 30
0.0
 10
91.52895234256916
 20
-158.1998182113181
 30
0.0
 10
91.52895234256916
 20
-158.6800645219619
 30
0.0
 10
91.52895234256916
 20
-158.6800645219619
 30
0.0
 10
91.52895234256916
 20
-158.6800645219619
 30
0.0
 10
91.97095809332671
 20
-158.6800645219619
 30
0.0
 10
91.97095809332671
 20
-158.6800645219619
 30
0.0
 10
92.07052135285043
 20
-158.6800645219619
 30
0.0
 10
92.20591360542075
 20
-158.6039279117379
 30
0.0
 10
92.20591360542075
 20
-158.432706666121
 30
0.0
 10
92.20591360542075
 20
-158.3545029986058
 30
0.0
 10
92.1721516696653
 20
-158.1998182113181
 30
0.0
 10
91.97302515061786
 20
-158.1998182113181
 30
0.0
  0
HATCH
  5
80
330
7A
100
AcDbEntity
  8
_U+30EC_U+30A4_U+30E4_U+30FC 1
 62
   179
420
  2234388
100
AcDbHatch
 10
0.0
 20
0.0
 30
0.0
210
0.0
220
0.0
230
1.0
  2
SOLID
 70
     1
 71
     0
 91
        2
 92
        1
 93
        1
 72
     4
 94
        3
 73
     0
 74
     1
 95
       44
 96
       40
 40
0.0
 40
0.0
 40
0.0
 40
0.0
 40
1.0
 40
1.0
 40
1.0
 40
2.0
 40
2.0
 40
2.0
 40
3.0
 40
3.0
 40
3.0
 40
4.0
 40
4.0
 40
4.0
 40
5.0
 40
5.0
 40
5.0
 40
6.0
 40
6.0
 40
6.0
 40
7.0
 40
7.0
 40
7.0
 40
8.0
 40
8.0
 40
8.0
 40
9.0
 40
9.0
 40
9.0
 40
10.0
 40
10.0
 40
10.0
 40
11.0
 40
11.0
 40
11.0
 40
12.0
 40
12.0
 40
12.0
 40
13.0
 40
13.0
 40
13.0
 40
13.0
 10
92.22486163058963
 20
-159.5327256545613
 10
92.20143498128992
 20
-159.4882839228015
 10
92.1804198988299
 20
-159.4355739618772
 10
92.17835284153875
 20
-159.2047525643655
 10
92.17421872695645
 20
-158.9615288231068
 10
92.11496308461015
 20
-158.8915933847563
 10
91.93719615757126
 20
-158.8915933847563
 10
91.93719615757126
 20
-158.8915933847563
 10
91.52895234256916
 20
-158.8915933847563
 10
91.52895234256916
 20
-158.8915933847563
 10
91.52895234256916
 20
-158.8915933847563
 10
91.52895234256916
 20
-159.5327256545613
 10
91.52895234256916
 20
-159.5327256545613
 10
91.52895234256916
 20
-159.5327256545613
 10
91.29399683047511
 20
-159.5327256545613
 10
91.29399683047511
 20
-159.5327256545613
 10
91.29399683047511
 20
-159.5327256545613
 10
91.29399683047511
 20
-157.9882893485238
 10
91.29399683047511
 20
-157.9882893485238
 10
91.29399683047511
 20
-157.9882893485238
 10
91.96889103603556
 20
-157.9882893485238
 10
91.96889103603556
 20
-157.9882893485238
 10
92.27550453422279
 20
-157.9882893485238
 10
92.44293617480594
 20
-158.1598551036892
 10
92.44293617480594
 20
-158.4158256982433
 10
92.44293617480594
 20
-158.4664686018764
 10
92.43432343609281
 20
-158.5491508935224
 10
92.38988170433309
 20
-158.6294216183288
 10
92.33062606198679
 20
-158.7331189924348
 10
92.26516924776705
 20
-158.7520670176037
 10
92.2038465481296
 20
-158.7689479854814
 10
92.34130585799106
 20
-158.81132265995
 10
92.40882972950196
 20
-158.859898506292
 10
92.41330835363279
 20
-159.1751247431923
 10
92.41744246821509
 20
-159.445909248333
 10
92.45327146126169
 20
-159.4776041267973
 10
92.5211398423211
 20
-159.5327256545613
 10
92.5211398423211
 20
-159.5327256545613
 10
92.22486163058963
 20
-159.5327256545613
 10
92.22486163058963
 20
-159.5327256545613
 97
        0
 97
        0
 92
        1
 93
        1
 72
     4
 94
        3
 73
     0
 74
     1
 95
       20
 96
       16
 40
0.0
 40
0.0
 40
0.0
 40
0.0
 40
1.0
 40
1.0
 40
1.0
 40
2.0
 40
2.0
 40
2.0
 40
3.0
 40
3.0
 40
3.0
 40
4.0
 40
4.0
 40
4.0
 40
5.0
 40
5.0
 40
5.0
 40
5.0
 10
91.97302515061786
 20
-158.1998182113181
 10
91.97302515061786
 20
-158.1998182113181
 10
91.52895234256916
 20
-158.1998182113181
 10
91.52895234256916
 20
-158.1998182113181
 10
91.52895234256916
 20
-158.1998182113181
 10
91.52895234256916
 20
-158.6800645219619
 10
91.52895234256916
 20
-158.6800645219619
 10
91.52895234256916
 20
-158.6800645219619
 10
91.97095809332671
 20
-158.6800645219619
 10
91.97095809332671
 20
-158.6800645219619
 10
92.07052135285043
 20
-158.6800645219619
 10
92.20591360542075
 20
-158.6039279117379
 10
92.20591360542075
 20
-158.432706666121
 10
92.20591360542075
 20
-158.3545029986058
 10
92.1721516696653
 20
-158.1998182113181
 10
91.97302515061786
 20
-158.1998182113181
 97
        0
 97
        0
 75
     2
 76
     1
 98
        0
  0
SPLINE
  5
81
330
7A
100
AcDbEntity
  8
_U+30EC_U+30A4_U+30E4_U+30FC 1
370
     0
100
AcDbSpline
210
0.0
220
0.0
230
1.0
 70
    11
 71
     3
 72
    29
 73
    25
 74
     0
 42
0.0000000001
 43
0.0000000001
 12
1.0
 22
0.0
 32
0.0
 13
1.0
 23
0.0
 33
0.0
 40
0.0
 40
0.0
 40
0.0
 40
0.0
 40
1.0
 40
1.0
 40
1.0
 40
2.0
 40
2.0
 40
2.0
 40
3.0
 40
3.0
 40
3.0
 40
4.0
 40
4.0
 40
4.0
 40
5.0
 40
5.0
 40
5.0
 40
6.0
 40
6.0
 40
6.0
 40
7.0
 40
7.0
 40
7.0
 40
8.0
 40
8.0
 40
8.0
 40
8.0
 10
93.55845809292984
 20
-159.3549587275224
 30
0.0
 10
93.45062660424152
 20
-159.5644205330256
 30
0.0
 10
93.27699379178492
 20
-159.5833685581945
 30
0.0
 10
93.16054956438347
 20
-159.5833685581945
 30
0.0
 10
93.00000811477084
 20
-159.5833685581945
 30
0.0
 10
92.85807018077854
 20
-159.5368597691436
 30
0.0
 10
92.76298554538565
 20
-159.3549587275224
 30
0.0
 10
92.65928817127963
 20
-159.1603108326058
 30
0.0
 10
92.64034014611076
 20
-158.9236327727691
 30
0.0
 10
92.64034014611076
 20
-158.7606797563168
 30
0.0
 10
92.64034014611076
 20
-158.6166747650333
 30
0.0
 10
92.65722111398847
 20
-158.3648382850616
 30
0.0
 10
92.76298554538565
 20
-158.1660562755627
 30
0.0
 10
92.87081703407397
 20
-157.9631401514814
 30
0.0
 10
93.03170299323513
 20
-157.9397135021817
 30
0.0
 10
93.16054956438347
 20
-157.9397135021817
 30
0.0
 10
93.3193684662535
 20
-157.9397135021817
 30
0.0
 10
93.46302894798842
 20
-157.9841552339415
 30
0.0
 10
93.55845809292984
 20
-158.1660562755627
 30
0.0
 10
93.65802135245356
 20
-158.3586371131881
 30
0.0
 10
93.68110349220473
 20
-158.5870469438602
 30
0.0
 10
93.68110349220473
 20
-158.7606797563168
 30
0.0
 10
93.68110349220473
 20
-158.9319010019337
 30
0.0
 10
93.6600884097447
 20
-159.1623778898969
 30
0.0
 10
93.55845809292984
 20
-159.3549587275224
 30
0.0
  0
SPLINE
  5
82
330
7A
100
AcDbEntity
  8
_U+30EC_U+30A4_U+30E4_U+30FC 1
370
     0
100
AcDbSpline
210
0.0
220
0.0
230
1.0
 70
    11
 71
     3
 72
    17
 73
    13
 74
     0
 42
0.0000000001
 43
0.0000000001
 12
1.0
 22
0.0
 32
0.0
 13
1.0
 23
0.0
 33
0.0
 40
0.0
 40
0.0
 40
0.0
 40
0.0
 40
1.0
 40
1.0
 40
1.0
 40
2.0
 40
2.0
 40
2.0
 40
3.0
 40
3.0
 40
3.0
 40
4.0
 40
4.0
 40
4.0
 40
4.0
 10
93.16054956438347
 20
-158.1322943398072
 30
0.0
 10
92.91112465125138
 20
-158.1322943398072
 30
0.0
 10
92.86461586220052
 20
-158.4158256982433
 30
0.0
 10
92.86461586220052
 20
-158.7606797563168
 30
0.0
 10
92.86461586220052
 20
-159.0800401077994
 30
0.0
 10
92.90044485524712
 20
-159.3887206632778
 30
0.0
 10
93.16054956438347
 20
-159.3887206632778
 30
0.0
 10
93.40825192977294
 20
-159.3887206632778
 30
0.0
 10
93.45682777611496
 20
-159.1076008716814
 30
0.0
 10
93.45682777611496
 20
-158.7606797563168
 30
0.0
 10
93.45682777611496
 20
-158.4409748952856
 30
0.0
 10
93.41893172577721
 20
-158.1322943398072
 30
0.0
 10
93.16054956438347
 20
-158.1322943398072
 30
0.0
  0
HATCH
  5
83
330
7A
100
AcDbEntity
  8
_U+30EC_U+30A4_U+30E4_U+30FC 1
 62
   179
420
  2234388
100
AcDbHatch
 10
0.0
 20
0.0
 30
0.0
210
0.0
220
0.0
230
1.0
  2
SOLID
 70
     1
 71
     0
 91
        2
 92
        1
 93
        1
 72
     4
 94
        3
 73
     0
 74
     1
 95
       29
 96
       25
 40
0.0
 40
0.0
 40
0.0
 40
0.0
 40
1.0
 40
1.0
 40
1.0
 40
2.0
 40
2.0
 40
2.0
 40
3.0
 40
3.0
 40
3.0
 40
4.0
 40
4.0
 40
4.0
 40
5.0
 40
5.0
 40
5.0
 40
6.0
 40
6.0
 40
6.0
 40
7.0
 40
7.0
 40
7.0
 40
8.0
 40
8.0
 40
8.0
 40
8.0
 10
93.55845809292984
 20
-159.3549587275224
 10
93.45062660424152
 20
-159.5644205330256
 10
93.27699379178492
 20
-159.5833685581945
 10
93.16054956438347
 20
-159.5833685581945
 10
93.00000811477084
 20
-159.5833685581945
 10
92.85807018077854
 20
-159.5368597691436
 10
92.76298554538565
 20
-159.3549587275224
 10
92.65928817127963
 20
-159.1603108326058
 10
92.64034014611076
 20
-158.9236327727691
 10
92.64034014611076
 20
-158.7606797563168
 10
92.64034014611076
 20
-158.6166747650333
 10
92.65722111398847
 20
-158.3648382850616
 10
92.76298554538565
 20
-158.1660562755627
 10
92.87081703407397
 20
-157.9631401514814
 10
93.03170299323513
 20
-157.9397135021817
 10
93.16054956438347
 20
-157.9397135021817
 10
93.3193684662535
 20
-157.9397135021817
 10
93.46302894798842
 20
-157.9841552339415
 10
93.55845809292984
 20
-158.1660562755627
 10
93.65802135245356
 20
-158.3586371131881
 10
93.68110349220473
 20
-158.5870469438602
 10
93.68110349220473
 20
-158.7606797563168
 10
93.68110349220473
 20
-158.9319010019337
 10
93.6600884097447
 20
-159.1623778898969
 10
93.55845809292984
 20
-159.3549587275224
 97
        0
 97
        0
 92
        1
 93
        1
 72
     4
 94
        3
 73
     0
 74
     1
 95
       17
 96
       13
 40
0.0
 40
0.0
 40
0.0
 40
0.0
 40
1.0
 40
1.0
 40
1.0
 40
2.0
 40
2.0
 40
2.0
 40
3.0
 40
3.0
 40
3.0
 40
4.0
 40
4.0
 40
4.0
 40
4.0
 10
93.16054956438347
 20
-158.1322943398072
 10
92.91112465125138
 20
-158.1322943398072
 10
92.86461586220052
 20
-158.4158256982433
 10
92.86461586220052
 20
-158.7606797563168
 10
92.86461586220052
 20
-159.0800401077994
 10
92.90044485524712
 20
-159.3887206632778
 10
93.16054956438347
 20
-159.3887206632778
 10
93.40825192977294
 20
-159.3887206632778
 10
93.45682777611496
 20
-159.1076008716814
 10
93.45682777611496
 20
-158.7606797563168
 10
93.45682777611496
 20
-158.4409748952856
 10
93.41893172577721
 20
-158.1322943398072
 10
93.16054956438347
 20
-158.1322943398072
 97
        0
 97
        0
 75
     2
 76
     1
 98
        0
  0
POLYLINE
  5
84
330
7A
100
AcDbEntity
  8
_U+30EC_U+30A4_U+30E4_U+30FC 1
370
     0
100
AcDb2dPolyline
 66
     1
 10
0.0
 20
0.0
 30
0.0
  0
VERTEX
  5
85
330
84
100
AcDbEntity
  8
_U+30EC_U+30A4_U+30E4_U+30FC 1
370
     0
100
AcDbVertex
100
AcDb2dVertex
 10
93.89779999822694
 20
-159.5327256545613
 30
0.0
  0
VERTEX
  5
86
330
84
100
AcDbEntity
  8
_U+30EC_U+30A4_U+30E4_U+30FC 1
370
     0
100
AcDbVertex
100
AcDb2dVertex
 10
93.89779999822694
 20
-159.2808891745895
 30
0.0
  0
VERTEX
  5
87
330
84
100
AcDbEntity
  8
_U+30EC_U+30A4_U+30E4_U+30FC 1
370
     0
100
AcDbVertex
100
AcDb2dVertex
 10
94.1496364781987
 20
-159.2808891745895
 30
0.0
  0
VERTEX
  5
88
330
84
100
AcDbEntity
  8
_U+30EC_U+30A4_U+30E4_U+30FC 1
370
     0
100
AcDbVertex
100
AcDb2dVertex
 10
94.1496364781987
 20
-159.5327256545613
 30
0.0
  0
VERTEX
  5
89
330
84
100
AcDbEntity
  8
_U+30EC_U+30A4_U+30E4_U+30FC 1
370
     0
100
AcDbVertex
100
AcDb2dVertex
 10
93.89779999822694
 20
-159.5327256545613
 30
0.0
  0
SEQEND
  5
8A
330
84
100
AcDbEntity
  8
_U+30EC_U+30A4_U+30E4_U+30FC 1
370
     0
  0
HATCH
  5
8B
330
7A
100
AcDbEntity
  8
_U+30EC_U+30A4_U+30E4_U+30FC 1
 62
   179
420
  2234388
100
AcDbHatch
 10
0.0
 20
0.0
 30
0.0
210
0.0
220
0.0
230
1.0
  2
SOLID
 70
     1
 71
     0
 91
        1
 92
        1
 93
        4
 72
     1
 10
93.89779999822694
 20
-159.5327256545613
 11
93.89779999822694
 21
-159.2808891745895
 72
     1
 10
93.89779999822694
 20
-159.2808891745895
 11
94.1496364781987
 21
-159.2808891745895
 72
     1
 10
94.1496364781987
 20
-159.2808891745895
 11
94.1496364781987
 21
-159.5327256545613
 72
     1
 10
94.1496364781987
 20
-159.5327256545613
 11
93.89779999822694
 21
-159.5327256545613
 97
        0
 75
     2
 76
     1
 98
        0
  0
SPLINE
  5
8C
330
7A
100
AcDbEntity
  8
_U+30EC_U+30A4_U+30E4_U+30FC 1
370
     0
100
AcDbSpline
210
0.0
220
0.0
230
1.0
 70
    11
 71
     3
 72
    53
 73
    49
 74
     0
 42
0.0000000001
 43
0.0000000001
 12
1.0
 22
0.0
 32
0.0
 13
1.0
 23
0.0
 33
0.0
 40
0.0
 40
0.0
 40
0.0
 40
0.0
 40
1.0
 40
1.0
 40
1.0
 40
2.0
 40
2.0
 40
2.0
 40
3.0
 40
3.0
 40
3.0
 40
4.0
 40
4.0
 40
4.0
 40
5.0
 40
5.0
 40
5.0
 40
6.0
 40
6.0
 40
6.0
 40
7.0
 40
7.0
 40
7.0
 40
8.0
 40
8.0
 40
8.0
 40
9.0
 40
9.0
 40
9.0
 40
10.0
 40
10.0
 40
10.0
 40
11.0
 40
11.0
 40
11.0
 40
12.0
 40
12.0
 40
12.0
 40
13.0
 40
13.0
 40
13.0
 40
14.0
 40
14.0
 40
14.0
 40
15.0
 40
15.0
 40
15.0
 40
16.0
 40
16.0
 40
16.0
 40
16.0
 10
94.86690535822773
 20
-159.5833685581945
 30
0.0
 10
94.78870169071256
 20
-159.5833685581945
 30
0.0
 10
94.68707137389768
 20
-159.5664875903167
 30
0.0
 10
94.5854410570828
 20
-159.5030978333881
 30
0.0
 10
94.41215275417474
 20
-159.3931992874087
 30
0.0
 10
94.39079316216619
 20
-159.2619411494206
 30
0.0
 10
94.37184513699732
 20
-159.1541096607323
 30
0.0
 10
94.37184513699732
 20
-159.1541096607323
 30
0.0
 10
94.59405379579593
 20
-159.1541096607323
 30
0.0
 10
94.59405379579593
 20
-159.1541096607323
 30
0.0
 10
94.6488308140114
 20
-159.3528916702312
 30
0.0
 10
94.77595483741713
 20
-159.3825194914044
 30
0.0
 10
94.86897241551887
 20
-159.3825194914044
 30
0.0
 10
95.0084987826715
 20
-159.3825194914044
 30
0.0
 10
95.16077200311953
 20
-159.2829562318807
 30
0.0
 10
95.16077200311953
 20
-159.0504122866263
 30
0.0
 10
95.16077200311953
 20
-158.7944416920722
 30
0.0
 10
94.98093801878949
 20
-158.7245062537217
 30
0.0
 10
94.86035967680574
 20
-158.7245062537217
 30
0.0
 10
94.82866479834145
 20
-158.7245062537217
 30
0.0
 10
94.68707137389768
 20
-158.7245062537217
 30
0.0
 10
94.59818791037823
 20
-158.8536973344185
 30
0.0
 10
94.59818791037823
 20
-158.8536973344185
 30
0.0
 10
94.4224880406305
 20
-158.8347493092496
 30
0.0
 10
94.4224880406305
 20
-158.8347493092496
 30
0.0
 10
94.4224880406305
 20
-158.8347493092496
 30
0.0
 10
94.54306638261424
 20
-157.9882893485238
 30
0.0
 10
94.54306638261424
 20
-157.9882893485238
 30
0.0
 10
94.54306638261424
 20
-157.9882893485238
 30
0.0
 10
95.3216579622807
 20
-157.9882893485238
 30
0.0
 10
95.3216579622807
 20
-157.9882893485238
 30
0.0
 10
95.3216579622807
 20
-157.9882893485238
 30
0.0
 10
95.3216579622807
 20
-158.1829372434404
 30
0.0
 10
95.3216579622807
 20
-158.1829372434404
 30
0.0
 10
95.3216579622807
 20
-158.1829372434404
 30
0.0
 10
94.70601939906655
 20
-158.1829372434404
 30
0.0
 10
94.70601939906655
 20
-158.1829372434404
 30
0.0
 10
94.70601939906655
 20
-158.1829372434404
 30
0.0
 10
94.6405625848468
 20
-158.6059949690291
 30
0.0
 10
94.6405625848468
 20
-158.6059949690291
 30
0.0
 10
94.70188528448425
 20
-158.5722330332736
 30
0.0
 10
94.78422306658173
 20
-158.5319254160962
 30
0.0
 10
94.90273435127432
 20
-158.5319254160962
 30
0.0
 10
95.15663788853723
 20
-158.5319254160962
 30
0.0
 10
95.39366045792242
 20
-158.7183050818482
 30
0.0
 10
95.39366045792242
 20
-159.0314642614574
 30
0.0
 10
95.39366045792242
 20
-159.3487575556489
 30
0.0
 10
95.16938474183266
 20
-159.5833685581945
 30
0.0
 10
94.86690535822773
 20
-159.5833685581945
 30
0.0
  0
HATCH
  5
8D
330
7A
100
AcDbEntity
  8
_U+30EC_U+30A4_U+30E4_U+30FC 1
 62
   179
420
  2234388
100
AcDbHatch
 10
0.0
 20
0.0
 30
0.0
210
0.0
220
0.0
230
1.0
  2
SOLID
 70
     1
 71
     0
 91
        1
 92
        1
 93
        1
 72
     4
 94
        3
 73
     0
 74
     1
 95
       53
 96
       49
 40
0.0
 40
0.0
 40
0.0
 40
0.0
 40
1.0
 40
1.0
 40
1.0
 40
2.0
 40
2.0
 40
2.0
 40
3.0
 40
3.0
 40
3.0
 40
4.0
 40
4.0
 40
4.0
 40
5.0
 40
5.0
 40
5.0
 40
6.0
 40
6.0
 40
6.0
 40
7.0
 40
7.0
 40
7.0
 40
8.0
 40
8.0
 40
8.0
 40
9.0
 40
9.0
 40
9.0
 40
10.0
 40
10.0
 40
10.0
 40
11.0
 40
11.0
 40
11.0
 40
12.0
 40
12.0
 40
12.0
 40
13.0
 40
13.0
 40
13.0
 40
14.0
 40
14.0
 40
14.0
 40
15.0
 40
15.0
 40
15.0
 40
16.0
 40
16.0
 40
16.0
 40
16.0
 10
94.86690535822773
 20
-159.5833685581945
 10
94.78870169071256
 20
-159.5833685581945
 10
94.68707137389768
 20
-159.5664875903167
 10
94.5854410570828
 20
-159.5030978333881
 10
94.41215275417474
 20
-159.3931992874087
 10
94.39079316216619
 20
-159.2619411494206
 10
94.37184513699732
 20
-159.1541096607323
 10
94.37184513699732
 20
-159.1541096607323
 10
94.59405379579593
 20
-159.1541096607323
 10
94.59405379579593
 20
-159.1541096607323
 10
94.6488308140114
 20
-159.3528916702312
 10
94.77595483741713
 20
-159.3825194914044
 10
94.86897241551887
 20
-159.3825194914044
 10
95.0084987826715
 20
-159.3825194914044
 10
95.16077200311953
 20
-159.2829562318807
 10
95.16077200311953
 20
-159.0504122866263
 10
95.16077200311953
 20
-158.7944416920722
 10
94.98093801878949
 20
-158.7245062537217
 10
94.86035967680574
 20
-158.7245062537217
 10
94.82866479834145
 20
-158.7245062537217
 10
94.68707137389768
 20
-158.7245062537217
 10
94.59818791037823
 20
-158.8536973344185
 10
94.59818791037823
 20
-158.8536973344185
 10
94.4224880406305
 20
-158.8347493092496
 10
94.4224880406305
 20
-158.8347493092496
 10
94.4224880406305
 20
-158.8347493092496
 10
94.54306638261424
 20
-157.9882893485238
 10
94.54306638261424
 20
-157.9882893485238
 10
94.54306638261424
 20
-157.9882893485238
 10
95.3216579622807
 20
-157.9882893485238
 10
95.3216579622807
 20
-157.9882893485238
 10
95.3216579622807
 20
-157.9882893485238
 10
95.3216579622807
 20
-158.1829372434404
 10
95.3216579622807
 20
-158.1829372434404
 10
95.3216579622807
 20
-158.1829372434404
 10
94.70601939906655
 20
-158.1829372434404
 10
94.70601939906655
 20
-158.1829372434404
 10
94.70601939906655
 20
-158.1829372434404
 10
94.6405625848468
 20
-158.6059949690291
 10
94.6405625848468
 20
-158.6059949690291
 10
94.70188528448425
 20
-158.5722330332736
 10
94.78422306658173
 20
-158.5319254160962
 10
94.90273435127432
 20
-158.5319254160962
 10
95.15663788853723
 20
-158.5319254160962
 10
95.39366045792242
 20
-158.7183050818482
 10
95.39366045792242
 20
-159.0314642614574
 10
95.39366045792242
 20
-159.3487575556489
 10
95.16938474183266
 20
-159.5833685581945
 10
94.86690535822773
 20
-159.5833685581945
 97
        0
 97
        0
 75
     2
 76
     1
 98
        0
  0
ENDBLK
  5
7D
330
7A
100
AcDbEntity
  8
0
100
AcDbBlockEnd
  0
BLOCK
  5
90
330
8E
100
AcDbEntity
  8
0
100
AcDbBlockBegin
  2
block 4
 70
     0
 10
0.0
 20
0.0
 30
0.0
  3
block 4
  1

  0
SPLINE
  5
92
330
8E
100
AcDbEntity
  8
_U+30EC_U+30A4_U+30E4_U+30FC 1
370
     0
100
AcDbSpline
210
0.0
220
0.0
230
1.0
 70
    11
 71
     3
 72
    26
 73
    22
 74
     0
 42
0.0000000001
 43
0.0000000001
 12
1.0
 22
0.0
 32
0.0
 13
1.0
 23
0.0
 33
0.0
 40
0.0
 40
0.0
 40
0.0
 40
0.0
 40
1.0
 40
1.0
 40
1.0
 40
2.0
 40
2.0
 40
2.0
 40
3.0
 40
3.0
 40
3.0
 40
4.0
 40
4.0
 40
4.0
 40
5.0
 40
5.0
 40
5.0
 40
6.0
 40
6.0
 40
6.0
 40
7.0
 40
7.0
 40
7.0
 40
7.0
 10
86.4894666667457
 20
-98.95778399218764
 30
0.0
 10
86.4894666667457
 20
-98.95778399218764
 30
0.0
 10
86.4894666667457
 20
-97.85363088916507
 30
0.0
 10
86.4894666667457
 20
-97.85363088916507
 30
0.0
 10
86.4894666667457
 20
-97.85363088916507
 30
0.0
 10
86.15942651925876
 20
-97.85363088916507
 30
0.0
 10
86.15942651925876
 20
-97.85363088916507
 30
0.0
 10
86.15942651925876
 20
-97.85363088916507
 30
0.0
 10
86.15942651925876
 20
-97.70549178329932
 30
0.0
 10
86.15942651925876
 20
-97.70549178329932
 30
0.0
 10
86.49153372403684
 20
-97.69067787271275
 30
0.0
 10
86.53804251308772
 20
-97.52772485626043
 30
0.0
 10
86.56767033426087
 20
-97.41334768615015
 30
0.0
 10
86.56767033426087
 20
-97.41334768615015
 30
0.0
 10
86.71374238283546
 20
-97.41334768615015
 30
0.0
 10
86.71374238283546
 20
-97.41334768615015
 30
0.0
 10
86.71374238283546
 20
-97.41334768615015
 30
0.0
 10
86.71374238283546
 20
-98.95778399218764
 30
0.0
 10
86.71374238283546
 20
-98.95778399218764
 30
0.0
 10
86.71374238283546
 20
-98.95778399218764
 30
0.0
 10
86.4894666667457
 20
-98.95778399218764
 30
0.0
 10
86.4894666667457
 20
-98.95778399218764
 30
0.0
  0
HATCH
  5
93
330
8E
100
AcDbEntity
  8
_U+30EC_U+30A4_U+30E4_U+30FC 1
 62
   179
420
  2234388
100
AcDbHatch
 10
0.0
 20
0.0
 30
0.0
210
0.0
220
0.0
230
1.0
  2
SOLID
 70
     1
 71
     0
 91
        1
 92
        1
 93
        1
 72
     4
 94
        3
 73
     0
 74
     1
 95
       26
 96
       22
 40
0.0
 40
0.0
 40
0.0
 40
0.0
 40
1.0
 40
1.0
 40
1.0
 40
2.0
 40
2.0
 40
2.0
 40
3.0
 40
3.0
 40
3.0
 40
4.0
 40
4.0
 40
4.0
 40
5.0
 40
5.0
 40
5.0
 40
6.0
 40
6.0
 40
6.0
 40
7.0
 40
7.0
 40
7.0
 40
7.0
 10
86.4894666667457
 20
-98.95778399218764
 10
86.4894666667457
 20
-98.95778399218764
 10
86.4894666667457
 20
-97.85363088916507
 10
86.4894666667457
 20
-97.85363088916507
 10
86.4894666667457
 20
-97.85363088916507
 10
86.15942651925876
 20
-97.85363088916507
 10
86.15942651925876
 20
-97.85363088916507
 10
86.15942651925876
 20
-97.85363088916507
 10
86.15942651925876
 20
-97.70549178329932
 10
86.15942651925876
 20
-97.70549178329932
 10
86.49153372403684
 20
-97.69067787271275
 10
86.53804251308772
 20
-97.52772485626043
 10
86.56767033426087
 20
-97.41334768615015
 10
86.56767033426087
 20
-97.41334768615015
 10
86.71374238283546
 20
-97.41334768615015
 10
86.71374238283546
 20
-97.41334768615015
 10
86.71374238283546
 20
-97.41334768615015
 10
86.71374238283546
 20
-98.95778399218764
 10
86.71374238283546
 20
-98.95778399218764
 10
86.71374238283546
 20
-98.95778399218764
 10
86.4894666667457
 20
-98.95778399218764
 10
86.4894666667457
 20
-98.95778399218764
 97
        0
 97
        0
 75
     2
 76
     1
 98
        0
  0
POLYLINE
  5
94
330
8E
100
AcDbEntity
  8
_U+30EC_U+30A4_U+30E4_U+30FC 1
370
     0
100
AcDb2dPolyline
 66
     1
 10
0.0
 20
0.0
 30
0.0
  0
VERTEX
  5
95
330
94
100
AcDbEntity
  8
_U+30EC_U+30A4_U+30E4_U+30FC 1
370
     0
100
AcDbVertex
100
AcDb2dVertex
 10
87.27494843738266
 20
-98.95778399218764
 30
0.0
  0
VERTEX
  5
96
330
94
100
AcDbEntity
  8
_U+30EC_U+30A4_U+30E4_U+30FC 1
370
     0
100
AcDbVertex
100
AcDb2dVertex
 10
87.27494843738266
 20
-98.70594751221589
 30
0.0
  0
VERTEX
  5
97
330
94
100
AcDbEntity
  8
_U+30EC_U+30A4_U+30E4_U+30FC 1
370
     0
100
AcDbVertex
100
AcDb2dVertex
 10
87.52661266258016
 20
-98.70594751221589
 30
0.0
  0
VERTEX
  5
98
330
94
100
AcDbEntity
  8
_U+30EC_U+30A4_U+30E4_U+30FC 1
370
     0
100
AcDbVertex
100
AcDb2dVertex
 10
87.52661266258016
 20
-98.95778399218764
 30
0.0
  0
VERTEX
  5
99
330
94
100
AcDbEntity
  8
_U+30EC_U+30A4_U+30E4_U+30FC 1
370
     0
100
AcDbVertex
100
AcDb2dVertex
 10
87.27494843738266
 20
-98.95778399218764
 30
0.0
  0
SEQEND
  5
9A
330
94
100
AcDbEntity
  8
_U+30EC_U+30A4_U+30E4_U+30FC 1
370
     0
  0
HATCH
  5
9B
330
8E
100
AcDbEntity
  8
_U+30EC_U+30A4_U+30E4_U+30FC 1
 62
   179
420
  2234388
100
AcDbHatch
 10
0.0
 20
0.0
 30
0.0
210
0.0
220
0.0
230
1.0
  2
SOLID
 70
     1
 71
     0
 91
        1
 92
        1
 93
        4
 72
     1
 10
87.27494843738266
 20
-98.95778399218764
 11
87.27494843738266
 21
-98.70594751221589
 72
     1
 10
87.27494843738266
 20
-98.70594751221589
 11
87.52661266258016
 21
-98.70594751221589
 72
     1
 10
87.52661266258016
 20
-98.70594751221589
 11
87.52661266258016
 21
-98.95778399218764
 72
     1
 10
87.52661266258016
 20
-98.95778399218764
 11
87.27494843738266
 21
-98.95778399218764
 97
        0
 75
     2
 76
     1
 98
        0
  0
SPLINE
  5
9C
330
8E
100
AcDbEntity
  8
_U+30EC_U+30A4_U+30E4_U+30FC 1
370
     0
100
AcDbSpline
210
0.0
220
0.0
230
1.0
 70
    11
 71
     3
 72
    53
 73
    49
 74
     0
 42
0.0000000001
 43
0.0000000001
 12
1.0
 22
0.0
 32
0.0
 13
1.0
 23
0.0
 33
0.0
 40
0.0
 40
0.0
 40
0.0
 40
0.0
 40
1.0
 40
1.0
 40
1.0
 40
2.0
 40
2.0
 40
2.0
 40
3.0
 40
3.0
 40
3.0
 40
4.0
 40
4.0
 40
4.0
 40
5.0
 40
5.0
 40
5.0
 40
6.0
 40
6.0
 40
6.0
 40
7.0
 40
7.0
 40
7.0
 40
8.0
 40
8.0
 40
8.0
 40
9.0
 40
9.0
 40
9.0
 40
10.0
 40
10.0
 40
10.0
 40
11.0
 40
11.0
 40
11.0
 40
12.0
 40
12.0
 40
12.0
 40
13.0
 40
13.0
 40
13.0
 40
14.0
 40
14.0
 40
14.0
 40
15.0
 40
15.0
 40
15.0
 40
16.0
 40
16.0
 40
16.0
 40
16.0
 10
88.2442260521577
 20
-99.00842689582082
 30
0.0
 10
88.16585012986826
 20
-99.00842689582082
 30
0.0
 10
88.06439206782765
 20
-98.9915459279431
 30
0.0
 10
87.96276175101279
 20
-98.92815617101449
 30
0.0
 10
87.78930119333046
 20
-98.81825762503502
 30
0.0
 10
87.76811385609616
 20
-98.686999487047
 30
0.0
 10
87.7491658309273
 20
-98.57916799835868
 30
0.0
 10
87.7491658309273
 20
-98.57916799835868
 30
0.0
 10
87.97120223495165
 20
-98.57916799835868
 30
0.0
 10
87.97120223495165
 20
-98.57916799835868
 30
0.0
 10
88.02632376271565
 20
-98.7779500078576
 30
0.0
 10
88.1532755313471
 20
-98.80757782903075
 30
0.0
 10
88.24629310944884
 20
-98.80757782903075
 30
0.0
 10
88.38581947660147
 20
-98.80757782903075
 30
0.0
 10
88.53826495182378
 20
-98.70801456950703
 30
0.0
 10
88.53826495182378
 20
-98.47547062425267
 30
0.0
 10
88.53826495182378
 20
-98.21950002969861
 30
0.0
 10
88.35843096749373
 20
-98.14956459134802
 30
0.0
 10
88.23785262550999
 20
-98.14956459134802
 30
0.0
 10
88.2061577470457
 20
-98.14956459134802
 30
0.0
 10
88.06439206782765
 20
-98.14956459134802
 30
0.0
 10
87.97550860430822
 20
-98.2787556720449
 30
0.0
 10
87.97550860430822
 20
-98.2787556720449
 30
0.0
 10
87.79998098933473
 20
-98.25980764687603
 30
0.0
 10
87.79998098933473
 20
-98.25980764687603
 30
0.0
 10
87.79998098933473
 20
-98.25980764687603
 30
0.0
 10
87.92055933131847
 20
-97.41334768615015
 30
0.0
 10
87.92055933131847
 20
-97.41334768615015
 30
0.0
 10
87.92055933131847
 20
-97.41334768615015
 30
0.0
 10
88.69897865621067
 20
-97.41334768615015
 30
0.0
 10
88.69897865621067
 20
-97.41334768615015
 30
0.0
 10
88.69897865621067
 20
-97.41334768615015
 30
0.0
 10
88.69897865621067
 20
-97.60799558106676
 30
0.0
 10
88.69897865621067
 20
-97.60799558106676
 30
0.0
 10
88.69897865621067
 20
-97.60799558106676
 30
0.0
 10
88.08334009299654
 20
-97.60799558106676
 30
0.0
 10
88.08334009299654
 20
-97.60799558106676
 30
0.0
 10
88.08334009299654
 20
-97.60799558106676
 30
0.0
 10
88.01788327877678
 20
-98.03105330665544
 30
0.0
 10
88.01788327877678
 20
-98.03105330665544
 30
0.0
 10
88.07920597841424
 20
-97.99729137089999
 30
0.0
 10
88.16171601528596
 20
-97.95698375372257
 30
0.0
 10
88.28005504520429
 20
-97.95698375372257
 30
0.0
 10
88.5339585824672
 20
-97.95698375372257
 30
0.0
 10
88.7709811518524
 20
-98.14336341947458
 30
0.0
 10
88.7709811518524
 20
-98.4565225990838
 30
0.0
 10
88.7709811518524
 20
-98.7738158932753
 30
0.0
 10
88.54670543576263
 20
-99.00842689582082
 30
0.0
 10
88.2442260521577
 20
-99.00842689582082
 30
0.0
  0
HATCH
  5
9D
330
8E
100
AcDbEntity
  8
_U+30EC_U+30A4_U+30E4_U+30FC 1
 62
   179
420
  2234388
100
AcDbHatch
 10
0.0
 20
0.0
 30
0.0
210
0.0
220
0.0
230
1.0
  2
SOLID
 70
     1
 71
     0
 91
        1
 92
        1
 93
        1
 72
     4
 94
        3
 73
     0
 74
     1
 95
       53
 96
       49
 40
0.0
 40
0.0
 40
0.0
 40
0.0
 40
1.0
 40
1.0
 40
1.0
 40
2.0
 40
2.0
 40
2.0
 40
3.0
 40
3.0
 40
3.0
 40
4.0
 40
4.0
 40
4.0
 40
5.0
 40
5.0
 40
5.0
 40
6.0
 40
6.0
 40
6.0
 40
7.0
 40
7.0
 40
7.0
 40
8.0
 40
8.0
 40
8.0
 40
9.0
 40
9.0
 40
9.0
 40
10.0
 40
10.0
 40
10.0
 40
11.0
 40
11.0
 40
11.0
 40
12.0
 40
12.0
 40
12.0
 40
13.0
 40
13.0
 40
13.0
 40
14.0
 40
14.0
 40
14.0
 40
15.0
 40
15.0
 40
15.0
 40
16.0
 40
16.0
 40
16.0
 40
16.0
 10
88.2442260521577
 20
-99.00842689582082
 10
88.16585012986826
 20
-99.00842689582082
 10
88.06439206782765
 20
-98.9915459279431
 10
87.96276175101279
 20
-98.92815617101449
 10
87.78930119333046
 20
-98.81825762503502
 10
87.76811385609616
 20
-98.686999487047
 10
87.7491658309273
 20
-98.57916799835868
 10
87.7491658309273
 20
-98.57916799835868
 10
87.97120223495165
 20
-98.57916799835868
 10
87.97120223495165
 20
-98.57916799835868
 10
88.02632376271565
 20
-98.7779500078576
 10
88.1532755313471
 20
-98.80757782903075
 10
88.24629310944884
 20
-98.80757782903075
 10
88.38581947660147
 20
-98.80757782903075
 10
88.53826495182378
 20
-98.70801456950703
 10
88.53826495182378
 20
-98.47547062425267
 10
88.53826495182378
 20
-98.21950002969861
 10
88.35843096749373
 20
-98.14956459134802
 10
88.23785262550999
 20
-98.14956459134802
 10
88.2061577470457
 20
-98.14956459134802
 10
88.06439206782765
 20
-98.14956459134802
 10
87.97550860430822
 20
-98.2787556720449
 10
87.97550860430822
 20
-98.2787556720449
 10
87.79998098933473
 20
-98.25980764687603
 10
87.79998098933473
 20
-98.25980764687603
 10
87.79998098933473
 20
-98.25980764687603
 10
87.92055933131847
 20
-97.41334768615015
 10
87.92055933131847
 20
-97.41334768615015
 10
87.92055933131847
 20
-97.41334768615015
 10
88.69897865621067
 20
-97.41334768615015
 10
88.69897865621067
 20
-97.41334768615015
 10
88.69897865621067
 20
-97.41334768615015
 10
88.69897865621067
 20
-97.60799558106676
 10
88.69897865621067
 20
-97.60799558106676
 10
88.69897865621067
 20
-97.60799558106676
 10
88.08334009299654
 20
-97.60799558106676
 10
88.08334009299654
 20
-97.60799558106676
 10
88.08334009299654
 20
-97.60799558106676
 10
88.01788327877678
 20
-98.03105330665544
 10
88.01788327877678
 20
-98.03105330665544
 10
88.07920597841424
 20
-97.99729137089999
 10
88.16171601528596
 20
-97.95698375372257
 10
88.28005504520429
 20
-97.95698375372257
 10
88.5339585824672
 20
-97.95698375372257
 10
88.7709811518524
 20
-98.14336341947458
 10
88.7709811518524
 20
-98.4565225990838
 10
88.7709811518524
 20
-98.7738158932753
 10
88.54670543576263
 20
-99.00842689582082
 10
88.2442260521577
 20
-99.00842689582082
 97
        0
 97
        0
 75
     2
 76
     1
 98
        0
  0
ENDBLK
  5
91
330
8E
100
AcDbEntity
  8
0
100
AcDbBlockEnd
  0
BLOCK
  5
AC
330
AA
100
AcDbEntity
  8
0
100
AcDbBlockBegin
  2
block 5
 70
     0
 10
0.0
 20
0.0
 30
0.0
  3
block 5
  1

  0
SPLINE
  5
AE
330
AA
100
AcDbEntity
  8
_U+30EC_U+30A4_U+30E4_U+30FC 1
370
     0
100
AcDbSpline
210
0.0
220
0.0
230
1.0
 70
    11
 71
     3
 72
    53
 73
    49
 74
     0
 42
0.0000000001
 43
0.0000000001
 12
1.0
 22
0.0
 32
0.0
 13
1.0
 23
0.0
 33
0.0
 40
0.0
 40
0.0
 40
0.0
 40
0.0
 40
1.0
 40
1.0
 40
1.0
 40
2.0
 40
2.0
 40
2.0
 40
3.0
 40
3.0
 40
3.0
 40
4.0
 40
4.0
 40
4.0
 40
5.0
 40
5.0
 40
5.0
 40
6.0
 40
6.0
 40
6.0
 40
7.0
 40
7.0
 40
7.0
 40
8.0
 40
8.0
 40
8.0
 40
9.0
 40
9.0
 40
9.0
 40
10.0
 40
10.0
 40
10.0
 40
11.0
 40
11.0
 40
11.0
 40
12.0
 40
12.0
 40
12.0
 40
13.0
 40
13.0
 40
13.0
 40
14.0
 40
14.0
 40
14.0
 40
15.0
 40
15.0
 40
15.0
 40
16.0
 40
16.0
 40
16.0
 40
16.0
 10
91.90619029820401
 20
-130.4244248805883
 30
0.0
 10
91.90619029820401
 20
-130.5026285481035
 30
0.0
 10
91.88930933032628
 20
-130.6042588649184
 30
0.0
 10
91.8259195733977
 20
-130.7058891817333
 30
0.0
 10
91.71602102741822
 20
-130.8791774846413
 30
0.0
 10
91.58476288943021
 20
-130.9005370766499
 30
0.0
 10
91.47693140074188
 20
-130.9194851018187
 30
0.0
 10
91.47693140074188
 20
-130.9194851018187
 30
0.0
 10
91.47693140074188
 20
-130.6972764430201
 30
0.0
 10
91.47693140074188
 20
-130.6972764430201
 30
0.0
 10
91.6757134102408
 20
-130.6424994248047
 30
0.0
 10
91.70534123141395
 20
-130.5153754013989
 30
0.0
 10
91.70534123141395
 20
-130.4223578232972
 30
0.0
 10
91.70534123141395
 20
-130.2828314561446
 30
0.0
 10
91.60577797189022
 20
-130.1305582356965
 30
0.0
 10
91.37323402663586
 20
-130.1305582356965
 30
0.0
 10
91.11709117730754
 20
-130.1305582356965
 30
0.0
 10
91.04715573895696
 20
-130.3103922200266
 30
0.0
 10
91.04715573895696
 20
-130.4309705620103
 30
0.0
 10
91.04715573895696
 20
-130.4626654404746
 30
0.0
 10
91.04715573895696
 20
-130.6042588649184
 30
0.0
 10
91.17634681965383
 20
-130.6931423284378
 30
0.0
 10
91.17634681965383
 20
-130.6931423284378
 30
0.0
 10
91.15739879448496
 20
-130.8688421981856
 30
0.0
 10
91.15739879448496
 20
-130.8688421981856
 30
0.0
 10
91.15739879448496
 20
-130.8688421981856
 30
0.0
 10
90.31093883375908
 20
-130.7482638562018
 30
0.0
 10
90.31093883375908
 20
-130.7482638562018
 30
0.0
 10
90.31093883375908
 20
-130.7482638562018
 30
0.0
 10
90.31093883375908
 20
-129.9696722765354
 30
0.0
 10
90.31093883375908
 20
-129.9696722765354
 30
0.0
 10
90.31093883375908
 20
-129.9696722765354
 30
0.0
 10
90.5055867286757
 20
-129.9696722765354
 30
0.0
 10
90.5055867286757
 20
-129.9696722765354
 30
0.0
 10
90.5055867286757
 20
-129.9696722765354
 30
0.0
 10
90.5055867286757
 20
-130.5853108397495
 30
0.0
 10
90.5055867286757
 20
-130.5853108397495
 30
0.0
 10
90.5055867286757
 20
-130.5853108397495
 30
0.0
 10
90.92864445426437
 20
-130.6507676539693
 30
0.0
 10
90.92864445426437
 20
-130.6507676539693
 30
0.0
 10
90.89488251850892
 20
-130.5894449543318
 30
0.0
 10
90.8545749013315
 20
-130.5071071722343
 30
0.0
 10
90.8545749013315
 20
-130.3885958875418
 30
0.0
 10
90.8545749013315
 20
-130.1346923502788
 30
0.0
 10
91.04095456708352
 20
-129.8976697808936
 30
0.0
 10
91.35411374669273
 20
-129.8976697808936
 30
0.0
 10
91.6715792956585
 20
-129.8976697808936
 30
0.0
 10
91.90619029820401
 20
-130.1219454969834
 30
0.0
 10
91.90619029820401
 20
-130.4244248805883
 30
0.0
  0
HATCH
  5
AF
330
AA
100
AcDbEntity
  8
_U+30EC_U+30A4_U+30E4_U+30FC 1
 62
   179
420
  2234388
100
AcDbHatch
 10
0.0
 20
0.0
 30
0.0
210
0.0
220
0.0
230
1.0
  2
SOLID
 70
     1
 71
     0
 91
        1
 92
        1
 93
        1
 72
     4
 94
        3
 73
     0
 74
     1
 95
       53
 96
       49
 40
0.0
 40
0.0
 40
0.0
 40
0.0
 40
1.0
 40
1.0
 40
1.0
 40
2.0
 40
2.0
 40
2.0
 40
3.0
 40
3.0
 40
3.0
 40
4.0
 40
4.0
 40
4.0
 40
5.0
 40
5.0
 40
5.0
 40
6.0
 40
6.0
 40
6.0
 40
7.0
 40
7.0
 40
7.0
 40
8.0
 40
8.0
 40
8.0
 40
9.0
 40
9.0
 40
9.0
 40
10.0
 40
10.0
 40
10.0
 40
11.0
 40
11.0
 40
11.0
 40
12.0
 40
12.0
 40
12.0
 40
13.0
 40
13.0
 40
13.0
 40
14.0
 40
14.0
 40
14.0
 40
15.0
 40
15.0
 40
15.0
 40
16.0
 40
16.0
 40
16.0
 40
16.0
 10
91.90619029820401
 20
-130.4244248805883
 10
91.90619029820401
 20
-130.5026285481035
 10
91.88930933032628
 20
-130.6042588649184
 10
91.8259195733977
 20
-130.7058891817333
 10
91.71602102741822
 20
-130.8791774846413
 10
91.58476288943021
 20
-130.9005370766499
 10
91.47693140074188
 20
-130.9194851018187
 10
91.47693140074188
 20
-130.9194851018187
 10
91.47693140074188
 20
-130.6972764430201
 10
91.47693140074188
 20
-130.6972764430201
 10
91.6757134102408
 20
-130.6424994248047
 10
91.70534123141395
 20
-130.5153754013989
 10
91.70534123141395
 20
-130.4223578232972
 10
91.70534123141395
 20
-130.2828314561446
 10
91.60577797189022
 20
-130.1305582356965
 10
91.37323402663586
 20
-130.1305582356965
 10
91.11709117730754
 20
-130.1305582356965
 10
91.04715573895696
 20
-130.3103922200266
 10
91.04715573895696
 20
-130.4309705620103
 10
91.04715573895696
 20
-130.4626654404746
 10
91.04715573895696
 20
-130.6042588649184
 10
91.17634681965383
 20
-130.6931423284378
 10
91.17634681965383
 20
-130.6931423284378
 10
91.15739879448496
 20
-130.8688421981856
 10
91.15739879448496
 20
-130.8688421981856
 10
91.15739879448496
 20
-130.8688421981856
 10
90.31093883375908
 20
-130.7482638562018
 10
90.31093883375908
 20
-130.7482638562018
 10
90.31093883375908
 20
-130.7482638562018
 10
90.31093883375908
 20
-129.9696722765354
 10
90.31093883375908
 20
-129.9696722765354
 10
90.31093883375908
 20
-129.9696722765354
 10
90.5055867286757
 20
-129.9696722765354
 10
90.5055867286757
 20
-129.9696722765354
 10
90.5055867286757
 20
-129.9696722765354
 10
90.5055867286757
 20
-130.5853108397495
 10
90.5055867286757
 20
-130.5853108397495
 10
90.5055867286757
 20
-130.5853108397495
 10
90.92864445426437
 20
-130.6507676539693
 10
90.92864445426437
 20
-130.6507676539693
 10
90.89488251850892
 20
-130.5894449543318
 10
90.8545749013315
 20
-130.5071071722343
 10
90.8545749013315
 20
-130.3885958875418
 10
90.8545749013315
 20
-130.1346923502788
 10
91.04095456708352
 20
-129.8976697808936
 10
91.35411374669273
 20
-129.8976697808936
 10
91.6715792956585
 20
-129.8976697808936
 10
91.90619029820401
 20
-130.1219454969834
 10
91.90619029820401
 20
-130.4244248805883
 97
        0
 97
        0
 75
     2
 76
     1
 98
        0
  0
SPLINE
  5
B0
330
AA
100
AcDbEntity
  8
_U+30EC_U+30A4_U+30E4_U+30FC 1
370
     0
100
AcDbSpline
210
0.0
220
0.0
230
1.0
 70
    11
 71
     3
 72
    29
 73
    25
 74
     0
 42
0.0000000001
 43
0.0000000001
 12
1.0
 22
0.0
 32
0.0
 13
1.0
 23
0.0
 33
0.0
 40
0.0
 40
0.0
 40
0.0
 40
0.0
 40
1.0
 40
1.0
 40
1.0
 40
2.0
 40
2.0
 40
2.0
 40
3.0
 40
3.0
 40
3.0
 40
4.0
 40
4.0
 40
4.0
 40
5.0
 40
5.0
 40
5.0
 40
6.0
 40
6.0
 40
6.0
 40
7.0
 40
7.0
 40
7.0
 40
8.0
 40
8.0
 40
8.0
 40
8.0
 10
91.67778046753195
 20
-128.8307237091118
 30
0.0
 10
91.88724227303514
 20
-128.9388997073486
 30
0.0
 10
91.90619029820401
 20
-129.1121880102567
 30
0.0
 10
91.90619029820401
 20
-129.2286322376581
 30
0.0
 10
91.90619029820401
 20
-129.3895181968193
 30
0.0
 10
91.85968150915313
 20
-129.5311116212631
 30
0.0
 10
91.67778046753195
 20
-129.626196256656
 30
0.0
 10
91.48313257261533
 20
-129.729893630762
 30
0.0
 10
91.24593774845589
 20
-129.7491861654794
 30
0.0
 10
91.0833292415521
 20
-129.7491861654794
 30
0.0
 10
90.93932425026864
 20
-129.7491861654794
 30
0.0
 10
90.68748777029688
 20
-129.7319606880531
 30
0.0
 10
90.48870576079797
 20
-129.626196256656
 30
0.0
 10
90.28578963671676
 20
-129.5183647679676
 30
0.0
 10
90.26236298741705
 20
-129.3574788088065
 30
0.0
 10
90.26236298741705
 20
-129.2286322376581
 30
0.0
 10
90.26236298741705
 20
-129.0698133357881
 30
0.0
 10
90.30680471917678
 20
-128.9261528540532
 30
0.0
 10
90.48870576079797
 20
-128.8307237091118
 30
0.0
 10
90.68128659842343
 20
-128.7315049591366
 30
0.0
 10
90.90969642909549
 20
-128.7080783098369
 30
0.0
 10
91.0833292415521
 20
-128.7080783098369
 30
0.0
 10
91.254550487169
 20
-128.7080783098369
 30
0.0
 10
91.48519962990648
 20
-128.7294379018454
 30
0.0
 10
91.67778046753195
 20
-128.8307237091118
 30
0.0
  0
SPLINE
  5
B1
330
AA
100
AcDbEntity
  8
_U+30EC_U+30A4_U+30E4_U+30FC 1
370
     0
100
AcDbSpline
210
0.0
220
0.0
230
1.0
 70
    11
 71
     3
 72
    17
 73
    13
 74
     0
 42
0.0000000001
 43
0.0000000001
 12
1.0
 22
0.0
 32
0.0
 13
1.0
 23
0.0
 33
0.0
 40
0.0
 40
0.0
 40
0.0
 40
0.0
 40
1.0
 40
1.0
 40
1.0
 40
2.0
 40
2.0
 40
2.0
 40
3.0
 40
3.0
 40
3.0
 40
4.0
 40
4.0
 40
4.0
 40
4.0
 10
90.45494382504252
 20
-129.2286322376581
 30
0.0
 10
90.45494382504252
 20
-129.4784016603387
 30
0.0
 10
90.73847518347858
 20
-129.5249104493896
 30
0.0
 10
91.0833292415521
 20
-129.5249104493896
 30
0.0
 10
91.402861847809
 20
-129.5249104493896
 30
0.0
 10
91.7115424032874
 20
-129.4887369467945
 30
0.0
 10
91.7115424032874
 20
-129.2286322376581
 30
0.0
 10
91.7115424032874
 20
-128.9809298722687
 30
0.0
 10
91.43042261169101
 20
-128.9323540259266
 30
0.0
 10
91.0833292415521
 20
-128.9323540259266
 30
0.0
 10
90.76362438052091
 20
-128.9323540259266
 30
0.0
 10
90.45494382504252
 20
-128.9705945858129
 30
0.0
 10
90.45494382504252
 20
-129.2286322376581
 30
0.0
  0
HATCH
  5
B2
330
AA
100
AcDbEntity
  8
_U+30EC_U+30A4_U+30E4_U+30FC 1
 62
   179
420
  2234388
100
AcDbHatch
 10
0.0
 20
0.0
 30
0.0
210
0.0
220
0.0
230
1.0
  2
SOLID
 70
     1
 71
     0
 91
        2
 92
        1
 93
        1
 72
     4
 94
        3
 73
     0
 74
     1
 95
       29
 96
       25
 40
0.0
 40
0.0
 40
0.0
 40
0.0
 40
1.0
 40
1.0
 40
1.0
 40
2.0
 40
2.0
 40
2.0
 40
3.0
 40
3.0
 40
3.0
 40
4.0
 40
4.0
 40
4.0
 40
5.0
 40
5.0
 40
5.0
 40
6.0
 40
6.0
 40
6.0
 40
7.0
 40
7.0
 40
7.0
 40
8.0
 40
8.0
 40
8.0
 40
8.0
 10
91.67778046753195
 20
-128.8307237091118
 10
91.88724227303514
 20
-128.9388997073486
 10
91.90619029820401
 20
-129.1121880102567
 10
91.90619029820401
 20
-129.2286322376581
 10
91.90619029820401
 20
-129.3895181968193
 10
91.85968150915313
 20
-129.5311116212631
 10
91.67778046753195
 20
-129.626196256656
 10
91.48313257261533
 20
-129.729893630762
 10
91.24593774845589
 20
-129.7491861654794
 10
91.0833292415521
 20
-129.7491861654794
 10
90.93932425026864
 20
-129.7491861654794
 10
90.68748777029688
 20
-129.7319606880531
 10
90.48870576079797
 20
-129.626196256656
 10
90.28578963671676
 20
-129.5183647679676
 10
90.26236298741705
 20
-129.3574788088065
 10
90.26236298741705
 20
-129.2286322376581
 10
90.26236298741705
 20
-129.0698133357881
 10
90.30680471917678
 20
-128.9261528540532
 10
90.48870576079797
 20
-128.8307237091118
 10
90.68128659842343
 20
-128.7315049591366
 10
90.90969642909549
 20
-128.7080783098369
 10
91.0833292415521
 20
-128.7080783098369
 10
91.254550487169
 20
-128.7080783098369
 10
91.48519962990648
 20
-128.7294379018454
 10
91.67778046753195
 20
-128.8307237091118
 97
        0
 97
        0
 92
        1
 93
        1
 72
     4
 94
        3
 73
     0
 74
     1
 95
       17
 96
       13
 40
0.0
 40
0.0
 40
0.0
 40
0.0
 40
1.0
 40
1.0
 40
1.0
 40
2.0
 40
2.0
 40
2.0
 40
3.0
 40
3.0
 40
3.0
 40
4.0
 40
4.0
 40
4.0
 40
4.0
 10
90.45494382504252
 20
-129.2286322376581
 10
90.45494382504252
 20
-129.4784016603387
 10
90.73847518347858
 20
-129.5249104493896
 10
91.0833292415521
 20
-129.5249104493896
 10
91.402861847809
 20
-129.5249104493896
 10
91.7115424032874
 20
-129.4887369467945
 10
91.7115424032874
 20
-129.2286322376581
 10
91.7115424032874
 20
-128.9809298722687
 10
91.43042261169101
 20
-128.9323540259266
 10
91.0833292415521
 20
-128.9323540259266
 10
90.76362438052091
 20
-128.9323540259266
 10
90.45494382504252
 20
-128.9705945858129
 10
90.45494382504252
 20
-129.2286322376581
 97
        0
 97
        0
 75
     2
 76
     1
 98
        0
  0
ENDBLK
  5
AD
330
AA
100
AcDbEntity
  8
0
100
AcDbBlockEnd
  0
ENDSEC
  0
SECTION
  2
ENTITIES
  0
SPLINE
  5
41
330
1F
100
AcDbEntity
  8
_U+30EC_U+30A4_U+30E4_U+30FC 1
 62
   179
420
  2234388
370
    25
100
AcDbSpline
210
0.0
220
0.0
230
1.0
 70
    11
 71
     3
 72
   545
 73
   541
 74
     0
 42
0.0000000001
 43
0.0000000001
 12
1.0
 22
0.0
 32
0.0
 13
1.0
 23
0.0
 33
0.0
 40
0.0
 40
0.0
 40
0.0
 40
0.0
 40
1.0
 40
1.0
 40
1.0
 40
2.0
 40
2.0
 40
2.0
 40
3.0
 40
3.0
 40
3.0
 40
4.0
 40
4.0
 40
4.0
 40
5.0
 40
5.0
 40
5.0
 40
6.0
 40
6.0
 40
6.0
 40
7.0
 40
7.0
 40
7.0
 40
8.0
 40
8.0
 40
8.0
 40
9.0
 40
9.0
 40
9.0
 40
10.0
 40
10.0
 40
10.0
 40
11.0
 40
11.0
 40
11.0
 40
12.0
 40
12.0
 40
12.0
 40
13.0
 40
13.0
 40
13.0
 40
14.0
 40
14.0
 40
14.0
 40
15.0
 40
15.0
 40
15.0
 40
16.0
 40
16.0
 40
16.0
 40
17.0
 40
17.0
 40
17.0
 40
18.0
 40
18.0
 40
18.0
 40
19.0
 40
19.0
 40
19.0
 40
20.0
 40
20.0
 40
20.0
 40
21.0
 40
21.0
 40
21.0
 40
22.0
 40
22.0
 40
22.0
 40
23.0
 40
23.0
 40
23.0
 40
24.0
 40
24.0
 40
24.0
 40
25.0
 40
25.0
 40
25.0
 40
26.0
 40
26.0
 40
26.0
 40
27.0
 40
27.0
 40
27.0
 40
28.0
 40
28.0
 40
28.0
 40
29.0
 40
29.0
 40
29.0
 40
30.0
 40
30.0
 40
30.0
 40
31.0
 40
31.0
 40
31.0
 40
32.0
 40
32.0
 40
32.0
 40
33.0
 40
33.0
 40
33.0
 40
34.0
 40
34.0
 40
34.0
 40
35.0
 40
35.0
 40
35.0
 40
36.0
 40
36.0
 40
36.0
 40
37.0
 40
37.0
 40
37.0
 40
38.0
 40
38.0
 40
38.0
 40
39.0
 40
39.0
 40
39.0
 40
40.0
 40
40.0
 40
40.0
 40
41.0
 40
41.0
 40
41.0
 40
42.0
 40
42.0
 40
42.0
 40
43.0
 40
43.0
 40
43.0
 40
44.0
 40
44.0
 40
44.0
 40
45.0
 40
45.0
 40
45.0
 40
46.0
 40
46.0
 40
46.0
 40
47.0
 40
47.0
 40
47.0
 40
48.0
 40
48.0
 40
48.0
 40
49.0
 40
49.0
 40
49.0
 40
50.0
 40
50.0
 40
50.0
 40
51.0
 40
51.0
 40
51.0
 40
52.0
 40
52.0
 40
52.0
 40
53.0
 40
53.0
 40
53.0
 40
54.0
 40
54.0
 40
54.0
 40
55.0
 40
55.0
 40
55.0
 40
56.0
 40
56.0
 40
56.0
 40
57.0
 40
57.0
 40
57.0
 40
58.0
 40
58.0
 40
58.0
 40
59.0
 40
59.0
 40
59.0
 40
60.0
 40
60.0
 40
60.0
 40
61.0
 40
61.0
 40
61.0
 40
62.0
 40
62.0
 40
62.0
 40
63.0
 40
63.0
 40
63.0
 40
64.0
 40
64.0
 40
64.0
 40
65.0
 40
65.0
 40
65.0
 40
66.0
 40
66.0
 40
66.0
 40
67.0
 40
67.0
 40
67.0
 40
68.0
 40
68.0
 40
68.0
 40
69.0
 40
69.0
 40
69.0
 40
70.0
 40
70.0
 40
70.0
 40
71.0
 40
71.0
 40
71.0
 40
72.0
 40
72.0
 40
72.0
 40
73.0
 40
73.0
 40
73.0
 40
74.0
 40
74.0
 40
74.0
 40
75.0
 40
75.0
 40
75.0
 40
76.0
 40
76.0
 40
76.0
 40
77.0
 40
77.0
 40
77.0
 40
78.0
 40
78.0
 40
78.0
 40
79.0
 40
79.0
 40
79.0
 40
80.0
 40
80.0
 40
80.0
 40
81.0
 40
81.0
 40
81.0
 40
82.0
 40
82.0
 40
82.0
 40
83.0
 40
83.0
 40
83.0
 40
84.0
 40
84.0
 40
84.0
 40
85.0
 40
85.0
 40
85.0
 40
86.0
 40
86.0
 40
86.0
 40
87.0
 40
87.0
 40
87.0
 40
88.0
 40
88.0
 40
88.0
 40
89.0
 40
89.0
 40
89.0
 40
90.0
 40
90.0
 40
90.0
 40
91.0
 40
91.0
 40
91.0
 40
92.0
 40
92.0
 40
92.0
 40
93.0
 40
93.0
 40
93.0
 40
94.0
 40
94.0
 40
94.0
 40
95.0
 40
95.0
 40
95.0
 40
96.0
 40
96.0
 40
96.0
 40
97.0
 40
97.0
 40
97.0
 40
98.0
 40
98.0
 40
98.0
 40
99.0
 40
99.0
 40
99.0
 40
100.0
 40
100.0
 40
100.0
 40
101.0
 40
101.0
 40
101.0
 40
102.0
 40
102.0
 40
102.0
 40
103.0
 40
103.0
 40
103.0
 40
104.0
 40
104.0
 40
104.0
 40
105.0
 40
105.0
 40
105.0
 40
106.0
 40
106.0
 40
106.0
 40
107.0
 40
107.0
 40
107.0
 40
108.0
 40
108.0
 40
108.0
 40
109.0
 40
109.0
 40
109.0
 40
110.0
 40
110.0
 40
110.0
 40
111.0
 40
111.0
 40
111.0
 40
112.0
 40
112.0
 40
112.0
 40
113.0
 40
113.0
 40
113.0
 40
114.0
 40
114.0
 40
114.0
 40
115.0
 40
115.0
 40
115.0
 40
116.0
 40
116.0
 40
116.0
 40
117.0
 40
117.0
 40
117.0
 40
118.0
 40
118.0
 40
118.0
 40
119.0
 40
119.0
 40
119.0
 40
120.0
 40
120.0
 40
120.0
 40
121.0
 40
121.0
 40
121.0
 40
122.0
 40
122.0
 40
122.0
 40
123.0
 40
123.0
 40
123.0
 40
124.0
 40
124.0
 40
124.0
 40
125.0
 40
125.0
 40
125.0
 40
126.0
 40
126.0
 40
126.0
 40
127.0
 40
127.0
 40
127.0
 40
128.0
 40
128.0
 40
128.0
 40
129.0
 40
129.0
 40
129.0
 40
130.0
 40
130.0
 40
130.0
 40
131.0
 40
131.0
 40
131.0
 40
132.0
 40
132.0
 40
132.0
 40
133.0
 40
133.0
 40
133.0
 40
134.0
 40
134.0
 40
134.0
 40
135.0
 40
135.0
 40
135.0
 40
136.0
 40
136.0
 40
136.0
 40
137.0
 40
137.0
 40
137.0
 40
138.0
 40
138.0
 40
138.0
 40
139.0
 40
139.0
 40
139.0
 40
140.0
 40
140.0
 40
140.0
 40
141.0
 40
141.0
 40
141.0
 40
142.0
 40
142.0
 40
142.0
 40
143.0
 40
143.0
 40
143.0
 40
144.0
 40
144.0
 40
144.0
 40
145.0
 40
145.0
 40
145.0
 40
146.0
 40
146.0
 40
146.0
 40
147.0
 40
147.0
 40
147.0
 40
148.0
 40
148.0
 40
148.0
 40
149.0
 40
149.0
 40
149.0
 40
150.0
 40
150.0
 40
150.0
 40
151.0
 40
151.0
 40
151.0
 40
152.0
 40
152.0
 40
152.0
 40
153.0
 40
153.0
 40
153.0
 40
154.0
 40
154.0
 40
154.0
 40
155.0
 40
155.0
 40
155.0
 40
156.0
 40
156.0
 40
156.0
 40
157.0
 40
157.0
 40
157.0
 40
158.0
 40
158.0
 40
158.0
 40
159.0
 40
159.0
 40
159.0
 40
160.0
 40
160.0
 40
160.0
 40
161.0
 40
161.0
 40
161.0
 40
162.0
 40
162.0
 40
162.0
 40
163.0
 40
163.0
 40
163.0
 40
164.0
 40
164.0
 40
164.0
 40
165.0
 40
165.0
 40
165.0
 40
166.0
 40
166.0
 40
166.0
 40
167.0
 40
167.0
 40
167.0
 40
168.0
 40
168.0
 40
168.0
 40
169.0
 40
169.0
 40
169.0
 40
170.0
 40
170.0
 40
170.0
 40
171.0
 40
171.0
 40
171.0
 40
172.0
 40
172.0
 40
172.0
 40
173.0
 40
173.0
 40
173.0
 40
174.0
 40
174.0
 40
174.0
 40
175.0
 40
175.0
 40
175.0
 40
176.0
 40
176.0
 40
176.0
 40
177.0
 40
177.0
 40
177.0
 40
178.0
 40
178.0
 40
178.0
 40
179.0
 40
179.0
 40
179.0
 40
180.0
 40
180.0
 40
180.0
 40
180.0
 10
88.16653747290646
 20
-106.0524435845981
 30
0.0
 10
88.16653747290646
 20
-105.3275910847791
 30
0.0
 10
87.57880971012287
 20
-104.7398633071485
 30
0.0
 10
86.8539572286154
 20
-104.7398633071485
 30
0.0
 10
86.8539572286154
 20
-104.7398633071485
 30
0.0
 10
86.63555251196514
 20
-104.7398633071485
 30
0.0
 10
86.63555251196514
 20
-104.7398633071485
 30
0.0
 10
86.63555251196514
 20
-104.7398633071485
 30
0.0
 10
86.63555251196514
 20
-106.8203702510725
 30
0.0
 10
86.63555251196514
 20
-106.8203702510725
 30
0.0
 10
86.63555251196514
 20
-106.8203702510725
 30
0.0
 10
87.09578638911249
 20
-106.8203702510725
 30
0.0
 10
87.09578638911249
 20
-106.8203702510725
 30
0.0
 10
87.09578638911249
 20
-106.8203702510725
 30
0.0
 10
86.83328445136502
 20
-107.0787446954527
 30
0.0
 10
86.83328445136502
 20
-107.0787446954527
 30
0.0
 10
86.83328445136502
 20
-107.0787446954527
 30
0.0
 10
87.09578638911249
 20
-107.3367663620547
 30
0.0
 10
87.09578638911249
 20
-107.3367663620547
 30
0.0
 10
87.09578638911249
 20
-107.3367663620547
 30
0.0
 10
86.83328445136502
 20
-107.5951408064345
 30
0.0
 10
86.83328445136502
 20
-107.5951408064345
 30
0.0
 10
86.83328445136502
 20
-107.5951408064345
 30
0.0
 10
87.09578638911249
 20
-107.8535505285922
 30
0.0
 10
87.09578638911249
 20
-107.8535505285922
 30
0.0
 10
87.09578638911249
 20
-107.8535505285922
 30
0.0
 10
86.83328445136502
 20
-108.111924972972
 30
0.0
 10
86.83328445136502
 20
-108.111924972972
 30
0.0
 10
86.83328445136502
 20
-108.111924972972
 30
0.0
 10
87.09578638911249
 20
-108.3702994173518
 30
0.0
 10
87.09578638911249
 20
-108.3702994173518
 30
0.0
 10
87.09578638911249
 20
-108.3702994173518
 30
0.0
 10
86.83328445136502
 20
-108.6290266395093
 30
0.0
 10
86.83328445136502
 20
-108.6290266395093
 30
0.0
 10
86.83328445136502
 20
-108.6290266395093
 30
0.0
 10
87.09578638911249
 20
-108.8877538616669
 30
0.0
 10
87.09578638911249
 20
-108.8877538616669
 30
0.0
 10
87.09578638911249
 20
-108.8877538616669
 30
0.0
 10
86.83328445136502
 20
-109.1468338616022
 30
0.0
 10
86.83328445136502
 20
-109.1468338616022
 30
0.0
 10
86.83328445136502
 20
-109.1468338616022
 30
0.0
 10
87.09578638911249
 20
-109.405208305982
 30
0.0
 10
87.09578638911249
 20
-109.405208305982
 30
0.0
 10
87.09578638911249
 20
-109.405208305982
 30
0.0
 10
86.83328445136502
 20
-109.6642883059174
 30
0.0
 10
86.83328445136502
 20
-109.6642883059174
 30
0.0
 10
86.83328445136502
 20
-109.6642883059174
 30
0.0
 10
87.09578638911249
 20
-109.9233683058524
 30
0.0
 10
87.09578638911249
 20
-109.9233683058524
 30
0.0
 10
87.09578638911249
 20
-109.9233683058524
 30
0.0
 10
86.83328445136502
 20
-110.1831185835654
 30
0.0
 10
86.83328445136502
 20
-110.1831185835654
 30
0.0
 10
86.83328445136502
 20
-110.1831185835654
 30
0.0
 10
87.09578638911249
 20
-110.4421985835007
 30
0.0
 10
87.09578638911249
 20
-110.4421985835007
 30
0.0
 10
87.09578638911249
 20
-110.4421985835007
 30
0.0
 10
86.83328445136502
 20
-110.7012433056582
 30
0.0
 10
86.83328445136502
 20
-110.7012433056582
 30
0.0
 10
86.83328445136502
 20
-110.7012433056582
 30
0.0
 10
87.09578638911249
 20
-110.9603233055932
 30
0.0
 10
87.09578638911249
 20
-110.9603233055932
 30
0.0
 10
87.09578638911249
 20
-110.9603233055932
 30
0.0
 10
86.83328445136502
 20
-111.218697749973
 30
0.0
 10
86.83328445136502
 20
-111.218697749973
 30
0.0
 10
86.83328445136502
 20
-111.218697749973
 30
0.0
 10
87.09578638911249
 20
-111.4777777499083
 30
0.0
 10
87.09578638911249
 20
-111.4777777499083
 30
0.0
 10
87.09578638911249
 20
-111.4777777499083
 30
0.0
 10
86.83328445136502
 20
-111.7368577498437
 30
0.0
 10
86.83328445136502
 20
-111.7368577498437
 30
0.0
 10
86.83328445136502
 20
-111.7368577498437
 30
0.0
 10
87.09578638911249
 20
-111.9952321942235
 30
0.0
 10
87.09578638911249
 20
-111.9952321942235
 30
0.0
 10
87.09578638911249
 20
-111.9952321942235
 30
0.0
 10
86.83328445136502
 20
-112.253959416381
 30
0.0
 10
86.83328445136502
 20
-112.253959416381
 30
0.0
 10
86.83328445136502
 20
-112.253959416381
 30
0.0
 10
87.09578638911249
 20
-112.5126866385386
 30
0.0
 10
87.09578638911249
 20
-112.5126866385386
 30
0.0
 10
87.09578638911249
 20
-112.5126866385386
 30
0.0
 10
86.83328445136502
 20
-112.7710610829184
 30
0.0
 10
86.83328445136502
 20
-112.7710610829184
 30
0.0
 10
86.83328445136502
 20
-112.7710610829184
 30
0.0
 10
87.09578638911249
 20
-113.029788305076
 30
0.0
 10
87.09578638911249
 20
-113.029788305076
 30
0.0
 10
87.09578638911249
 20
-113.029788305076
 30
0.0
 10
86.83328445136502
 20
-113.288868305011
 30
0.0
 10
86.83328445136502
 20
-113.288868305011
 30
0.0
 10
86.83328445136502
 20
-113.288868305011
 30
0.0
 10
87.09578638911249
 20
-113.5475955271686
 30
0.0
 10
87.09578638911249
 20
-113.5475955271686
 30
0.0
 10
87.09578638911249
 20
-113.5475955271686
 30
0.0
 10
86.83328445136502
 20
-113.8066755271039
 30
0.0
 10
86.83328445136502
 20
-113.8066755271039
 30
0.0
 10
86.83328445136502
 20
-113.8066755271039
 30
0.0
 10
87.09578638911249
 20
-114.0654027492615
 30
0.0
 10
87.09578638911249
 20
-114.0654027492615
 30
0.0
 10
87.09578638911249
 20
-114.0654027492615
 30
0.0
 10
86.83328445136502
 20
-114.3244474714189
 30
0.0
 10
86.83328445136502
 20
-114.3244474714189
 30
0.0
 10
86.83328445136502
 20
-114.3244474714189
 30
0.0
 10
87.09578638911249
 20
-114.5838802491317
 30
0.0
 10
87.09578638911249
 20
-114.5838802491317
 30
0.0
 10
87.09578638911249
 20
-114.5838802491317
 30
0.0
 10
86.83328445136502
 20
-114.842960249067
 30
0.0
 10
86.83328445136502
 20
-114.842960249067
 30
0.0
 10
86.83328445136502
 20
-114.842960249067
 30
0.0
 10
87.09578638911249
 20
-115.10271052678
 30
0.0
 10
87.09578638911249
 20
-115.10271052678
 30
0.0
 10
87.09578638911249
 20
-115.10271052678
 30
0.0
 10
86.83328445136502
 20
-115.361790526715
 30
0.0
 10
86.83328445136502
 20
-115.361790526715
 30
0.0
 10
86.83328445136502
 20
-115.361790526715
 30
0.0
 10
87.09578638911249
 20
-115.6208352488725
 30
0.0
 10
87.09578638911249
 20
-115.6208352488725
 30
0.0
 10
87.09578638911249
 20
-115.6208352488725
 30
0.0
 10
86.83328445136502
 20
-115.8799152488079
 30
0.0
 10
86.83328445136502
 20
-115.8799152488079
 30
0.0
 10
86.83328445136502
 20
-115.8799152488079
 30
0.0
 10
87.09578638911249
 20
-116.1389952487432
 30
0.0
 10
87.09578638911249
 20
-116.1389952487432
 30
0.0
 10
87.09578638911249
 20
-116.1389952487432
 30
0.0
 10
86.83328445136502
 20
-116.3977224709004
 30
0.0
 10
86.83328445136502
 20
-116.3977224709004
 30
0.0
 10
86.83328445136502
 20
-116.3977224709004
 30
0.0
 10
87.09578638911249
 20
-116.6568024708358
 30
0.0
 10
87.09578638911249
 20
-116.6568024708358
 30
0.0
 10
87.09578638911249
 20
-116.6568024708358
 30
0.0
 10
86.83328445136502
 20
-116.9155296929933
 30
0.0
 10
86.83328445136502
 20
-116.9155296929933
 30
0.0
 10
86.83328445136502
 20
-116.9155296929933
 30
0.0
 10
87.09578638911249
 20
-117.1745744151508
 30
0.0
 10
87.09578638911249
 20
-117.1745744151508
 30
0.0
 10
87.09578638911249
 20
-117.1745744151508
 30
0.0
 10
86.83328445136502
 20
-117.4336544150862
 30
0.0
 10
86.83328445136502
 20
-117.4336544150862
 30
0.0
 10
86.83328445136502
 20
-117.4336544150862
 30
0.0
 10
87.09578638911249
 20
-117.6927344150211
 30
0.0
 10
87.09578638911249
 20
-117.6927344150211
 30
0.0
 10
87.09578638911249
 20
-117.6927344150211
 30
0.0
 10
86.83328445136502
 20
-117.9518144149565
 30
0.0
 10
86.83328445136502
 20
-117.9518144149565
 30
0.0
 10
86.83328445136502
 20
-117.9518144149565
 30
0.0
 10
87.09578638911249
 20
-118.2115646926695
 30
0.0
 10
87.09578638911249
 20
-118.2115646926695
 30
0.0
 10
87.09578638911249
 20
-118.2115646926695
 30
0.0
 10
86.83328445136502
 20
-118.4709621926044
 30
0.0
 10
86.83328445136502
 20
-118.4709621926044
 30
0.0
 10
86.83328445136502
 20
-118.4709621926044
 30
0.0
 10
87.09578638911249
 20
-118.7303949703175
 30
0.0
 10
87.09578638911249
 20
-118.7303949703175
 30
0.0
 10
87.09578638911249
 20
-118.7303949703175
 30
0.0
 10
86.83328445136502
 20
-118.9897924702524
 30
0.0
 10
86.83328445136502
 20
-118.9897924702524
 30
0.0
 10
86.83328445136502
 20
-118.9897924702524
 30
0.0
 10
87.09578638911249
 20
-119.24851969241
 30
0.0
 10
87.09578638911249
 20
-119.24851969241
 30
0.0
 10
87.09578638911249
 20
-119.24851969241
 30
0.0
 10
86.83328445136502
 20
-119.5075996923453
 30
0.0
 10
86.83328445136502
 20
-119.5075996923453
 30
0.0
 10
86.83328445136502
 20
-119.5075996923453
 30
0.0
 10
87.09578638911249
 20
-119.767349970058
 30
0.0
 10
87.09578638911249
 20
-119.767349970058
 30
0.0
 10
87.09578638911249
 20
-119.767349970058
 30
0.0
 10
86.83328445136502
 20
-120.0257596922157
 30
0.0
 10
86.83328445136502
 20
-120.0257596922157
 30
0.0
 10
86.83328445136502
 20
-120.0257596922157
 30
0.0
 10
87.09578638911249
 20
-120.2855099699287
 30
0.0
 10
87.09578638911249
 20
-120.2855099699287
 30
0.0
 10
87.09578638911249
 20
-120.2855099699287
 30
0.0
 10
86.83328445136502
 20
-120.5449074698639
 30
0.0
 10
86.83328445136502
 20
-120.5449074698639
 30
0.0
 10
86.83328445136502
 20
-120.5449074698639
 30
0.0
 10
87.09578638911249
 20
-120.8043402475767
 30
0.0
 10
87.09578638911249
 20
-120.8043402475767
 30
0.0
 10
87.09578638911249
 20
-120.8043402475767
 30
0.0
 10
86.83328445136502
 20
-121.0640905252897
 30
0.0
 10
86.83328445136502
 20
-121.0640905252897
 30
0.0
 10
86.83328445136502
 20
-121.0640905252897
 30
0.0
 10
87.09578638911249
 20
-121.3231705252247
 30
0.0
 10
87.09578638911249
 20
-121.3231705252247
 30
0.0
 10
87.09578638911249
 20
-121.3231705252247
 30
0.0
 10
86.83328445136502
 20
-121.58225052516
 30
0.0
 10
86.83328445136502
 20
-121.58225052516
 30
0.0
 10
86.83328445136502
 20
-121.58225052516
 30
0.0
 10
87.09578638911249
 20
-121.8420008028727
 30
0.0
 10
87.09578638911249
 20
-121.8420008028727
 30
0.0
 10
87.09578638911249
 20
-121.8420008028727
 30
0.0
 10
86.83328445136502
 20
-122.1010808028081
 30
0.0
 10
86.83328445136502
 20
-122.1010808028081
 30
0.0
 10
86.83328445136502
 20
-122.1010808028081
 30
0.0
 10
87.09578638911249
 20
-122.3601608027434
 30
0.0
 10
87.09578638911249
 20
-122.3601608027434
 30
0.0
 10
87.09578638911249
 20
-122.3601608027434
 30
0.0
 10
86.83328445136502
 20
-122.6199110804561
 30
0.0
 10
86.83328445136502
 20
-122.6199110804561
 30
0.0
 10
86.83328445136502
 20
-122.6199110804561
 30
0.0
 10
87.09578638911249
 20
-122.8796613581691
 30
0.0
 10
87.09578638911249
 20
-122.8796613581691
 30
0.0
 10
87.09578638911249
 20
-122.8796613581691
 30
0.0
 10
86.83328445136502
 20
-123.1394116358818
 30
0.0
 10
86.83328445136502
 20
-123.1394116358818
 30
0.0
 10
86.83328445136502
 20
-123.1394116358818
 30
0.0
 10
87.09578638911249
 20
-123.3984916358171
 30
0.0
 10
87.09578638911249
 20
-123.3984916358171
 30
0.0
 10
87.09578638911249
 20
-123.3984916358171
 30
0.0
 10
86.83328445136502
 20
-123.6579244135299
 30
0.0
 10
86.83328445136502
 20
-123.6579244135299
 30
0.0
 10
86.83328445136502
 20
-123.6579244135299
 30
0.0
 10
87.09578638911249
 20
-123.9166516356874
 30
0.0
 10
87.09578638911249
 20
-123.9166516356874
 30
0.0
 10
87.09578638911249
 20
-123.9166516356874
 30
0.0
 10
86.83328445136502
 20
-124.1750260800673
 30
0.0
 10
86.83328445136502
 20
-124.1750260800673
 30
0.0
 10
86.83328445136502
 20
-124.1750260800673
 30
0.0
 10
87.09578638911249
 20
-124.4334005244471
 30
0.0
 10
87.09578638911249
 20
-124.4334005244471
 30
0.0
 10
87.09578638911249
 20
-124.4334005244471
 30
0.0
 10
86.83328445136502
 20
-124.6921277466046
 30
0.0
 10
86.83328445136502
 20
-124.6921277466046
 30
0.0
 10
86.83328445136502
 20
-124.6921277466046
 30
0.0
 10
87.09578638911249
 20
-124.9512077465399
 30
0.0
 10
87.09578638911249
 20
-124.9512077465399
 30
0.0
 10
87.09578638911249
 20
-124.9512077465399
 30
0.0
 10
86.83328445136502
 20
-125.2106052464752
 30
0.0
 10
86.83328445136502
 20
-125.2106052464752
 30
0.0
 10
86.83328445136502
 20
-125.2106052464752
 30
0.0
 10
87.09578638911249
 20
-125.4703908019657
 30
0.0
 10
87.09578638911249
 20
-125.4703908019657
 30
0.0
 10
87.09578638911249
 20
-125.4703908019657
 30
0.0
 10
86.83328445136502
 20
-125.7301410796787
 30
0.0
 10
86.83328445136502
 20
-125.7301410796787
 30
0.0
 10
86.83328445136502
 20
-125.7301410796787
 30
0.0
 10
87.09578638911249
 20
-125.9892210796137
 30
0.0
 10
87.09578638911249
 20
-125.9892210796137
 30
0.0
 10
87.09578638911249
 20
-125.9892210796137
 30
0.0
 10
86.83328445136502
 20
-126.2482658017712
 30
0.0
 10
86.83328445136502
 20
-126.2482658017712
 30
0.0
 10
86.83328445136502
 20
-126.2482658017712
 30
0.0
 10
87.09578638911249
 20
-126.5073458017066
 30
0.0
 10
87.09578638911249
 20
-126.5073458017066
 30
0.0
 10
87.09578638911249
 20
-126.5073458017066
 30
0.0
 10
86.83328445136502
 20
-126.7664258016419
 30
0.0
 10
86.83328445136502
 20
-126.7664258016419
 30
0.0
 10
86.83328445136502
 20
-126.7664258016419
 30
0.0
 10
87.09578638911249
 20
-127.0261760793546
 30
0.0
 10
87.09578638911249
 20
-127.0261760793546
 30
0.0
 10
87.09578638911249
 20
-127.0261760793546
 30
0.0
 10
86.83328445136502
 20
-127.2859263570673
 30
0.0
 10
86.83328445136502
 20
-127.2859263570673
 30
0.0
 10
86.83328445136502
 20
-127.2859263570673
 30
0.0
 10
87.09578638911249
 20
-127.5457119125581
 30
0.0
 10
87.09578638911249
 20
-127.5457119125581
 30
0.0
 10
87.09578638911249
 20
-127.5457119125581
 30
0.0
 10
86.83328445136502
 20
-127.8054621902708
 30
0.0
 10
86.83328445136502
 20
-127.8054621902708
 30
0.0
 10
86.83328445136502
 20
-127.8054621902708
 30
0.0
 10
87.09578638911249
 20
-128.0645421902061
 30
0.0
 10
87.09578638911249
 20
-128.0645421902061
 30
0.0
 10
87.09578638911249
 20
-128.0645421902061
 30
0.0
 10
86.83328445136502
 20
-128.3242924679188
 30
0.0
 10
86.83328445136502
 20
-128.3242924679188
 30
0.0
 10
86.83328445136502
 20
-128.3242924679188
 30
0.0
 10
87.09578638911249
 20
-128.584748301187
 30
0.0
 10
87.09578638911249
 20
-128.584748301187
 30
0.0
 10
87.09578638911249
 20
-128.584748301187
 30
0.0
 10
86.83328445136502
 20
-128.8441458011226
 30
0.0
 10
86.83328445136502
 20
-128.8441458011226
 30
0.0
 10
86.83328445136502
 20
-128.8441458011226
 30
0.0
 10
87.09578638911249
 20
-129.1042488566127
 30
0.0
 10
87.09578638911249
 20
-129.1042488566127
 30
0.0
 10
87.09578638911249
 20
-129.1042488566127
 30
0.0
 10
86.83328445136502
 20
-129.3640344121033
 30
0.0
 10
86.83328445136502
 20
-129.3640344121033
 30
0.0
 10
86.83328445136502
 20
-129.3640344121033
 30
0.0
 10
87.09578638911249
 20
-129.6237846898163
 30
0.0
 10
87.09578638911249
 20
-129.6237846898163
 30
0.0
 10
87.09578638911249
 20
-129.6237846898163
 30
0.0
 10
86.83328445136502
 20
-129.8842405230848
 30
0.0
 10
86.83328445136502
 20
-129.8842405230848
 30
0.0
 10
86.83328445136502
 20
-129.8842405230848
 30
0.0
 10
87.09578638911249
 20
-130.1439908007972
 30
0.0
 10
87.09578638911249
 20
-130.1439908007972
 30
0.0
 10
87.09578638911249
 20
-130.1439908007972
 30
0.0
 10
86.83328445136502
 20
-130.4044466340657
 30
0.0
 10
86.83328445136502
 20
-130.4044466340657
 30
0.0
 10
86.83328445136502
 20
-130.4044466340657
 30
0.0
 10
87.09578638911249
 20
-130.6641969117781
 30
0.0
 10
87.09578638911249
 20
-130.6641969117781
 30
0.0
 10
87.09578638911249
 20
-130.6641969117781
 30
0.0
 10
86.83328445136502
 20
-130.9236296894915
 30
0.0
 10
86.83328445136502
 20
-130.9236296894915
 30
0.0
 10
86.83328445136502
 20
-130.9236296894915
 30
0.0
 10
87.09578638911249
 20
-131.1844030227596
 30
0.0
 10
87.09578638911249
 20
-131.1844030227596
 30
0.0
 10
87.09578638911249
 20
-131.1844030227596
 30
0.0
 10
86.83328445136502
 20
-131.4438358004724
 30
0.0
 10
86.83328445136502
 20
-131.4438358004724
 30
0.0
 10
86.83328445136502
 20
-131.4438358004724
 30
0.0
 10
87.09578638911249
 20
-131.7042916337403
 30
0.0
 10
87.09578638911249
 20
-131.7042916337403
 30
0.0
 10
87.09578638911249
 20
-131.7042916337403
 30
0.0
 10
86.83328445136502
 20
-131.9650649670084
 30
0.0
 10
86.83328445136502
 20
-131.9650649670084
 30
0.0
 10
86.83328445136502
 20
-131.9650649670084
 30
0.0
 10
87.09578638911249
 20
-132.2248152447214
 30
0.0
 10
87.09578638911249
 20
-132.2248152447214
 30
0.0
 10
87.09578638911249
 20
-132.2248152447214
 30
0.0
 10
86.83328445136502
 20
-132.4859766335455
 30
0.0
 10
86.83328445136502
 20
-132.4859766335455
 30
0.0
 10
86.83328445136502
 20
-132.4859766335455
 30
0.0
 10
87.09578638911249
 20
-132.7471027445907
 30
0.0
 10
87.09578638911249
 20
-132.7471027445907
 30
0.0
 10
87.09578638911249
 20
-132.7471027445907
 30
0.0
 10
86.83328445136502
 20
-133.0089344111922
 30
0.0
 10
86.83328445136502
 20
-133.0089344111922
 30
0.0
 10
86.83328445136502
 20
-133.0089344111922
 30
0.0
 10
87.09578638911249
 20
-133.2669560777945
 30
0.0
 10
87.09578638911249
 20
-133.2669560777945
 30
0.0
 10
87.09578638911249
 20
-133.2669560777945
 30
0.0
 10
86.83328445136502
 20
-133.5250130221744
 30
0.0
 10
86.83328445136502
 20
-133.5250130221744
 30
0.0
 10
86.83328445136502
 20
-133.5250130221744
 30
0.0
 10
87.09578638911249
 20
-133.7833874665539
 30
0.0
 10
87.09578638911249
 20
-133.7833874665539
 30
0.0
 10
87.09578638911249
 20
-133.7833874665539
 30
0.0
 10
86.83328445136502
 20
-134.041761910934
 30
0.0
 10
86.83328445136502
 20
-134.041761910934
 30
0.0
 10
86.83328445136502
 20
-134.041761910934
 30
0.0
 10
87.09578638911249
 20
-134.3001716330917
 30
0.0
 10
87.09578638911249
 20
-134.3001716330917
 30
0.0
 10
87.09578638911249
 20
-134.3001716330917
 30
0.0
 10
86.83328445136502
 20
-134.5592163552492
 30
0.0
 10
86.83328445136502
 20
-134.5592163552492
 30
0.0
 10
86.83328445136502
 20
-134.5592163552492
 30
0.0
 10
87.09578638911249
 20
-134.8176260774068
 30
0.0
 10
87.09578638911249
 20
-134.8176260774068
 30
0.0
 10
87.09578638911249
 20
-134.8176260774068
 30
0.0
 10
86.83328445136502
 20
-135.0763532995641
 30
0.0
 10
86.83328445136502
 20
-135.0763532995641
 30
0.0
 10
86.83328445136502
 20
-135.0763532995641
 30
0.0
 10
87.09578638911249
 20
-135.3350805217219
 30
0.0
 10
87.09578638911249
 20
-135.3350805217219
 30
0.0
 10
87.09578638911249
 20
-135.3350805217219
 30
0.0
 10
86.83328445136502
 20
-135.5944780216572
 30
0.0
 10
86.83328445136502
 20
-135.5944780216572
 30
0.0
 10
86.83328445136502
 20
-135.5944780216572
 30
0.0
 10
87.09578638911249
 20
-135.8539107993699
 30
0.0
 10
87.09578638911249
 20
-135.8539107993699
 30
0.0
 10
87.09578638911249
 20
-135.8539107993699
 30
0.0
 10
86.83328445136502
 20
-136.1129555215275
 30
0.0
 10
86.83328445136502
 20
-136.1129555215275
 30
0.0
 10
86.83328445136502
 20
-136.1129555215275
 30
0.0
 10
87.09578638911249
 20
-136.3720355214624
 30
0.0
 10
87.09578638911249
 20
-136.3720355214624
 30
0.0
 10
87.09578638911249
 20
-136.3720355214624
 30
0.0
 10
86.83328445136502
 20
-136.6311155213981
 30
0.0
 10
86.83328445136502
 20
-136.6311155213981
 30
0.0
 10
86.83328445136502
 20
-136.6311155213981
 30
0.0
 10
87.09578638911249
 20
-136.8901955213331
 30
0.0
 10
87.09578638911249
 20
-136.8901955213331
 30
0.0
 10
87.09578638911249
 20
-136.8901955213331
 30
0.0
 10
86.83328445136502
 20
-137.1492402434906
 30
0.0
 10
86.83328445136502
 20
-137.1492402434906
 30
0.0
 10
86.83328445136502
 20
-137.1492402434906
 30
0.0
 10
87.09578638911249
 20
-137.4079674656478
 30
0.0
 10
87.09578638911249
 20
-137.4079674656478
 30
0.0
 10
87.09578638911249
 20
-137.4079674656478
 30
0.0
 10
86.83328445136502
 20
-137.6666946878057
 30
0.0
 10
86.83328445136502
 20
-137.6666946878057
 30
0.0
 10
86.83328445136502
 20
-137.6666946878057
 30
0.0
 10
87.09578638911249
 20
-137.925421909963
 30
0.0
 10
87.09578638911249
 20
-137.925421909963
 30
0.0
 10
87.09578638911249
 20
-137.925421909963
 30
0.0
 10
86.83328445136502
 20
-138.1841491321209
 30
0.0
 10
86.83328445136502
 20
-138.1841491321209
 30
0.0
 10
86.83328445136502
 20
-138.1841491321209
 30
0.0
 10
87.09578638911249
 20
-138.4425235765003
 30
0.0
 10
87.09578638911249
 20
-138.4425235765003
 30
0.0
 10
87.09578638911249
 20
-138.4425235765003
 30
0.0
 10
86.83328445136502
 20
-138.7012507986582
 30
0.0
 10
86.83328445136502
 20
-138.7012507986582
 30
0.0
 10
86.83328445136502
 20
-138.7012507986582
 30
0.0
 10
87.09578638911249
 20
-138.9599780208155
 30
0.0
 10
87.09578638911249
 20
-138.9599780208155
 30
0.0
 10
87.09578638911249
 20
-138.9599780208155
 30
0.0
 10
86.83328445136502
 20
-139.2190580207505
 30
0.0
 10
86.83328445136502
 20
-139.2190580207505
 30
0.0
 10
86.83328445136502
 20
-139.2190580207505
 30
0.0
 10
87.09578638911249
 20
-139.4774324651306
 30
0.0
 10
87.09578638911249
 20
-139.4774324651306
 30
0.0
 10
87.09578638911249
 20
-139.4774324651306
 30
0.0
 10
86.83328445136502
 20
-139.7365124650656
 30
0.0
 10
86.83328445136502
 20
-139.7365124650656
 30
0.0
 10
86.83328445136502
 20
-139.7365124650656
 30
0.0
 10
87.09578638911249
 20
-139.9955924650013
 30
0.0
 10
87.09578638911249
 20
-139.9955924650013
 30
0.0
 10
87.09578638911249
 20
-139.9955924650013
 30
0.0
 10
86.83328445136502
 20
-140.2543196871585
 30
0.0
 10
86.83328445136502
 20
-140.2543196871585
 30
0.0
 10
86.83328445136502
 20
-140.2543196871585
 30
0.0
 10
87.09578638911249
 20
-140.5137171870938
 30
0.0
 10
87.09578638911249
 20
-140.5137171870938
 30
0.0
 10
87.09578638911249
 20
-140.5137171870938
 30
0.0
 10
86.83328445136502
 20
-140.7735027425843
 30
0.0
 10
86.83328445136502
 20
-140.7735027425843
 30
0.0
 10
86.83328445136502
 20
-140.7735027425843
 30
0.0
 10
87.09578638911249
 20
-141.0325474647418
 30
0.0
 10
87.09578638911249
 20
-141.0325474647418
 30
0.0
 10
87.09578638911249
 20
-141.0325474647418
 30
0.0
 10
86.83328445136502
 20
-141.2916274646768
 30
0.0
 10
86.83328445136502
 20
-141.2916274646768
 30
0.0
 10
86.83328445136502
 20
-141.2916274646768
 30
0.0
 10
87.09578638911249
 20
-141.5510602423902
 30
0.0
 10
87.09578638911249
 20
-141.5510602423902
 30
0.0
 10
87.09578638911249
 20
-141.5510602423902
 30
0.0
 10
86.83328445136502
 20
-141.8097874645474
 30
0.0
 10
86.83328445136502
 20
-141.8097874645474
 30
0.0
 10
86.83328445136502
 20
-141.8097874645474
 30
0.0
 10
87.09578638911249
 20
-142.0688321867049
 30
0.0
 10
87.09578638911249
 20
-142.0688321867049
 30
0.0
 10
87.09578638911249
 20
-142.0688321867049
 30
0.0
 10
86.83328445136502
 20
-142.3279121866399
 30
0.0
 10
86.83328445136502
 20
-142.3279121866399
 30
0.0
 10
86.83328445136502
 20
-142.3279121866399
 30
0.0
 10
87.09578638911249
 20
-142.5866394087978
 30
0.0
 10
87.09578638911249
 20
-142.5866394087978
 30
0.0
 10
87.09578638911249
 20
-142.5866394087978
 30
0.0
 10
86.83328445136502
 20
-142.8453666309551
 30
0.0
 10
86.83328445136502
 20
-142.8453666309551
 30
0.0
 10
86.83328445136502
 20
-142.8453666309551
 30
0.0
 10
87.09578638911249
 20
-143.1044466308907
 30
0.0
 10
87.09578638911249
 20
-143.1044466308907
 30
0.0
 10
87.09578638911249
 20
-143.1044466308907
 30
0.0
 10
86.83328445136502
 20
-143.3635266308257
 30
0.0
 10
86.83328445136502
 20
-143.3635266308257
 30
0.0
 10
86.83328445136502
 20
-143.3635266308257
 30
0.0
 10
87.09578638911249
 20
-143.622924130761
 30
0.0
 10
87.09578638911249
 20
-143.622924130761
 30
0.0
 10
87.09578638911249
 20
-143.622924130761
 30
0.0
 10
86.83328445136502
 20
-143.8823569084738
 30
0.0
 10
86.83328445136502
 20
-143.8823569084738
 30
0.0
 10
86.83328445136502
 20
-143.8823569084738
 30
0.0
 10
87.09578638911249
 20
-144.141754408409
 30
0.0
 10
87.09578638911249
 20
-144.141754408409
 30
0.0
 10
87.09578638911249
 20
-144.141754408409
 30
0.0
 10
86.83328445136502
 20
-144.4011871861218
 30
0.0
 10
86.83328445136502
 20
-144.4011871861218
 30
0.0
 10
86.83328445136502
 20
-144.4011871861218
 30
0.0
 10
87.09578638911249
 20
-144.6602319082793
 30
0.0
 10
87.09578638911249
 20
-144.6602319082793
 30
0.0
 10
87.09578638911249
 20
-144.6602319082793
 30
0.0
 10
86.83328445136502
 20
-144.9200174637698
 30
0.0
 10
86.83328445136502
 20
-144.9200174637698
 30
0.0
 10
86.83328445136502
 20
-144.9200174637698
 30
0.0
 10
87.09578638911249
 20
-145.1790974637054
 30
0.0
 10
87.09578638911249
 20
-145.1790974637054
 30
0.0
 10
87.09578638911249
 20
-145.1790974637054
 30
0.0
 10
86.83328445136502
 20
-145.4381421858629
 30
0.0
 10
86.83328445136502
 20
-145.4381421858629
 30
0.0
 10
86.83328445136502
 20
-145.4381421858629
 30
0.0
 10
87.09578638911249
 20
-145.6972221857979
 30
0.0
 10
87.09578638911249
 20
-145.6972221857979
 30
0.0
 10
87.09578638911249
 20
-145.6972221857979
 30
0.0
 10
86.83328445136502
 20
-145.9563021857329
 30
0.0
 10
86.83328445136502
 20
-145.9563021857329
 30
0.0
 10
86.83328445136502
 20
-145.9563021857329
 30
0.0
 10
87.09578638911249
 20
-146.2153821856686
 30
0.0
 10
87.09578638911249
 20
-146.2153821856686
 30
0.0
 10
87.09578638911249
 20
-146.2153821856686
 30
0.0
 10
86.83328445136502
 20
-146.475132463381
 30
0.0
 10
86.83328445136502
 20
-146.475132463381
 30
0.0
 10
86.83328445136502
 20
-146.475132463381
 30
0.0
 10
87.09578638911249
 20
-146.734882741094
 30
0.0
 10
87.09578638911249
 20
-146.734882741094
 30
0.0
 10
87.09578638911249
 20
-146.734882741094
 30
0.0
 10
86.83328445136502
 20
-146.9939627410296
 30
0.0
 10
86.83328445136502
 20
-146.9939627410296
 30
0.0
 10
86.83328445136502
 20
-146.9939627410296
 30
0.0
 10
87.09578638911249
 20
-147.253713018742
 30
0.0
 10
87.09578638911249
 20
-147.253713018742
 30
0.0
 10
87.09578638911249
 20
-147.253713018742
 30
0.0
 10
86.83328445136502
 20
-147.5127930186776
 30
0.0
 10
86.83328445136502
 20
-147.5127930186776
 30
0.0
 10
86.83328445136502
 20
-147.5127930186776
 30
0.0
 10
87.09578638911249
 20
-147.7718730186126
 30
0.0
 10
87.09578638911249
 20
-147.7718730186126
 30
0.0
 10
87.09578638911249
 20
-147.7718730186126
 30
0.0
 10
86.83328445136502
 20
-148.0316232963256
 30
0.0
 10
86.83328445136502
 20
-148.0316232963256
 30
0.0
 10
86.83328445136502
 20
-148.0316232963256
 30
0.0
 10
87.09578638911249
 20
-148.2907032962607
 30
0.0
 10
87.09578638911249
 20
-148.2907032962607
 30
0.0
 10
87.09578638911249
 20
-148.2907032962607
 30
0.0
 10
86.83328445136502
 20
-148.5504535739737
 30
0.0
 10
86.83328445136502
 20
-148.5504535739737
 30
0.0
 10
86.83328445136502
 20
-148.5504535739737
 30
0.0
 10
87.09578638911249
 20
-148.810203851686
 30
0.0
 10
87.09578638911249
 20
-148.810203851686
 30
0.0
 10
87.09578638911249
 20
-148.810203851686
 30
0.0
 10
86.83328445136502
 20
-149.0692838516217
 30
0.0
 10
86.83328445136502
 20
-149.0692838516217
 30
0.0
 10
86.83328445136502
 20
-149.0692838516217
 30
0.0
 10
87.09578638911249
 20
-149.3290341293347
 30
0.0
 10
87.09578638911249
 20
-149.3290341293347
 30
0.0
 10
87.09578638911249
 20
-149.3290341293347
 30
0.0
 10
86.83328445136502
 20
-149.5881141292697
 30
0.0
 10
86.83328445136502
 20
-149.5881141292697
 30
0.0
 10
86.83328445136502
 20
-149.5881141292697
 30
0.0
 10
87.09578638911249
 20
-149.8464885736492
 30
0.0
 10
87.09578638911249
 20
-149.8464885736492
 30
0.0
 10
87.09578638911249
 20
-149.8464885736492
 30
0.0
 10
86.83328445136502
 20
-150.1048630180293
 30
0.0
 10
86.83328445136502
 20
-150.1048630180293
 30
0.0
 10
86.83328445136502
 20
-150.1048630180293
 30
0.0
 10
87.09578638911249
 20
-150.3639430179643
 30
0.0
 10
87.09578638911249
 20
-150.3639430179643
 30
0.0
 10
87.09578638911249
 20
-150.3639430179643
 30
0.0
 10
86.83328445136502
 20
-150.6223174623445
 30
0.0
 10
86.83328445136502
 20
-150.6223174623445
 30
0.0
 10
86.83328445136502
 20
-150.6223174623445
 30
0.0
 10
87.09578638911249
 20
-150.8813974622794
 30
0.0
 10
87.09578638911249
 20
-150.8813974622794
 30
0.0
 10
87.09578638911249
 20
-150.8813974622794
 30
0.0
 10
86.63555251196514
 20
-150.8813974622794
 30
0.0
 10
86.63555251196514
 20
-150.8813974622794
 30
0.0
 10
86.63555251196514
 20
-150.8813974622794
 30
0.0
 10
86.63555251196514
 20
-153.0772980172865
 30
0.0
 10
86.63555251196514
 20
-153.0772980172865
 30
0.0
 10
86.63555251196514
 20
-153.0772980172865
 30
0.0
 10
87.38725138167659
 20
-154.8938919057207
 30
0.0
 10
87.38725138167659
 20
-154.8938919057207
 30
0.0
 10
87.38725138167659
 20
-154.8938919057207
 30
0.0
 10
87.7731197051656
 20
-154.8938919057207
 30
0.0
 10
87.7731197051656
 20
-154.8938919057207
 30
0.0
 10
87.99014858851763
 20
-154.8938919057207
 30
0.0
 10
88.16653747290646
 20
-154.7178557946537
 30
0.0
 10
88.16653747290646
 20
-154.5001213502641
 30
0.0
 10
88.16653747290646
 20
-154.5001213502641
 30
0.0
 10
88.16653747290646
 20
-106.0524435845981
 30
0.0
 10
88.16653747290646
 20
-106.0524435845981
 30
0.0
  0
HATCH
  5
42
330
1F
100
AcDbEntity
  8
_U+30EC_U+30A4_U+30E4_U+30FC 1
 62
     9
420
 13224394
100
AcDbHatch
 10
0.0
 20
0.0
 30
0.0
210
0.0
220
0.0
230
1.0
  2
SOLID
 70
     1
 71
     0
 91
        1
 92
        1
 93
        2
 72
     4
 94
        3
 73
     0
 74
     0
 95
      545
 96
      541
 40
0.0
 40
0.0
 40
0.0
 40
0.0
 40
0.3527777776895833
 40
0.3527777776895833
 40
0.3527777776895833
 40
0.7055555553791667
 40
0.7055555553791667
 40
0.7055555553791667
 40
1.05833333306875
 40
1.05833333306875
 40
1.05833333306875
 40
1.411111110758333
 40
1.411111110758333
 40
1.411111110758333
 40
1.763888888447917
 40
1.763888888447917
 40
1.763888888447917
 40
2.1166666661375
 40
2.1166666661375
 40
2.1166666661375
 40
2.469444443827083
 40
2.469444443827083
 40
2.469444443827083
 40
2.822222221516667
 40
2.822222221516667
 40
2.822222221516667
 40
3.17499999920625
 40
3.17499999920625
 40
3.17499999920625
 40
3.527777776895833
 40
3.527777776895833
 40
3.527777776895833
 40
3.880555554585417
 40
3.880555554585417
 40
3.880555554585417
 40
4.233333332275
 40
4.233333332275
 40
4.233333332275
 40
4.586111109964584
 40
4.586111109964584
 40
4.586111109964584
 40
4.938888887654167
 40
4.938888887654167
 40
4.938888887654167
 40
5.29166666534375
 40
5.29166666534375
 40
5.29166666534375
 40
5.644444443033334
 40
5.644444443033334
 40
5.644444443033334
 40
5.997222220722917
 40
5.997222220722917
 40
5.997222220722917
 40
6.349999998412501
 40
6.349999998412501
 40
6.349999998412501
 40
6.702777776102083
 40
6.702777776102083
 40
6.702777776102083
 40
7.055555553791667
 40
7.055555553791667
 40
7.055555553791667
 40
7.40833333148125
 40
7.40833333148125
 40
7.40833333148125
 40
7.761111109170834
 40
7.761111109170834
 40
7.761111109170834
 40
8.113888886860417
 40
8.113888886860417
 40
8.113888886860417
 40
8.46666666455
 40
8.46666666455
 40
8.46666666455
 40
8.819444442239584
 40
8.819444442239584
 40
8.819444442239584
 40
9.172222219929168
 40
9.172222219929168
 40
9.172222219929168
 40
9.52499999761875
 40
9.52499999761875
 40
9.52499999761875
 40
9.877777775308333
 40
9.877777775308333
 40
9.877777775308333
 40
10.23055555299792
 40
10.23055555299792
 40
10.23055555299792
 40
10.5833333306875
 40
10.5833333306875
 40
10.5833333306875
 40
10.93611110837708
 40
10.93611110837708
 40
10.93611110837708
 40
11.28888888606667
 40
11.28888888606667
 40
11.28888888606667
 40
11.64166666375625
 40
11.64166666375625
 40
11.64166666375625
 40
11.99444444144583
 40
11.99444444144583
 40
11.99444444144583
 40
12.34722221913542
 40
12.34722221913542
 40
12.34722221913542
 40
12.699999996825
 40
12.699999996825
 40
12.699999996825
 40
13.05277777451458
 40
13.05277777451458
 40
13.05277777451458
 40
13.40555555220417
 40
13.40555555220417
 40
13.40555555220417
 40
13.75833332989375
 40
13.75833332989375
 40
13.75833332989375
 40
14.11111110758333
 40
14.11111110758333
 40
14.11111110758333
 40
14.46388888527292
 40
14.46388888527292
 40
14.46388888527292
 40
14.8166666629625
 40
14.8166666629625
 40
14.8166666629625
 40
15.16944444065208
 40
15.16944444065208
 40
15.16944444065208
 40
15.52222221834167
 40
15.52222221834167
 40
15.52222221834167
 40
15.87499999603125
 40
15.87499999603125
 40
15.87499999603125
 40
16.22777777372083
 40
16.22777777372083
 40
16.22777777372083
 40
16.58055555141042
 40
16.58055555141042
 40
16.58055555141042
 40
16.9333333291
 40
16.9333333291
 40
16.9333333291
 40
17.28611110678958
 40
17.28611110678958
 40
17.28611110678958
 40
17.63888888447917
 40
17.63888888447917
 40
17.63888888447917
 40
17.99166666216875
 40
17.99166666216875
 40
17.99166666216875
 40
18.34444443985834
 40
18.34444443985834
 40
18.34444443985834
 40
18.69722221754792
 40
18.69722221754792
 40
18.69722221754792
 40
19.0499999952375
 40
19.0499999952375
 40
19.0499999952375
 40
19.40277777292708
 40
19.40277777292708
 40
19.40277777292708
 40
19.75555555061667
 40
19.75555555061667
 40
19.75555555061667
 40
20.10833332830625
 40
20.10833332830625
 40
20.10833332830625
 40
20.46111110599583
 40
20.46111110599583
 40
20.46111110599583
 40
20.81388888368542
 40
20.81388888368542
 40
20.81388888368542
 40
21.166666661375
 40
21.166666661375
 40
21.166666661375
 40
21.51944443906459
 40
21.51944443906459
 40
21.51944443906459
 40
21.87222221675417
 40
21.87222221675417
 40
21.87222221675417
 40
22.22499999444375
 40
22.22499999444375
 40
22.22499999444375
 40
22.57777777213333
 40
22.57777777213333
 40
22.57777777213333
 40
22.93055554982292
 40
22.93055554982292
 40
22.93055554982292
 40
23.2833333275125
 40
23.2833333275125
 40
23.2833333275125
 40
23.63611110520208
 40
23.63611110520208
 40
23.63611110520208
 40
23.98888888289167
 40
23.98888888289167
 40
23.98888888289167
 40
24.34166666058125
 40
24.34166666058125
 40
24.34166666058125
 40
24.69444443827084
 40
24.69444443827084
 40
24.69444443827084
 40
25.04722221596042
 40
25.04722221596042
 40
25.04722221596042
 40
25.39999999365
 40
25.39999999365
 40
25.39999999365
 40
25.75277777133958
 40
25.75277777133958
 40
25.75277777133958
 40
26.10555554902917
 40
26.10555554902917
 40
26.10555554902917
 40
26.45833332671875
 40
26.45833332671875
 40
26.45833332671875
 40
26.81111110440833
 40
26.81111110440833
 40
26.81111110440833
 40
27.16388888209792
 40
27.16388888209792
 40
27.16388888209792
 40
27.5166666597875
 40
27.5166666597875
 40
27.5166666597875
 40
27.86944443747709
 40
27.86944443747709
 40
27.86944443747709
 40
28.22222221516667
 40
28.22222221516667
 40
28.22222221516667
 40
28.57499999285625
 40
28.57499999285625
 40
28.57499999285625
 40
28.92777777054583
 40
28.92777777054583
 40
28.92777777054583
 40
29.28055554823542
 40
29.28055554823542
 40
29.28055554823542
 40
29.633333325925
 40
29.633333325925
 40
29.633333325925
 40
29.98611110361459
 40
29.98611110361459
 40
29.98611110361459
 40
30.33888888130417
 40
30.33888888130417
 40
30.33888888130417
 40
30.69166665899375
 40
30.69166665899375
 40
30.69166665899375
 40
31.04444443668334
 40
31.04444443668334
 40
31.04444443668334
 40
31.39722221437292
 40
31.39722221437292
 40
31.39722221437292
 40
31.7499999920625
 40
31.7499999920625
 40
31.7499999920625
 40
32.10277776975209
 40
32.10277776975209
 40
32.10277776975209
 40
32.45555554744167
 40
32.45555554744167
 40
32.45555554744167
 40
32.80833332513125
 40
32.80833332513125
 40
32.80833332513125
 40
33.16111110282083
 40
33.16111110282083
 40
33.16111110282083
 40
33.51388888051042
 40
33.51388888051042
 40
33.51388888051042
 40
33.8666666582
 40
33.8666666582
 40
33.8666666582
 40
34.21944443588959
 40
34.21944443588959
 40
34.21944443588959
 40
34.57222221357917
 40
34.57222221357917
 40
34.57222221357917
 40
34.92499999126875
 40
34.92499999126875
 40
34.92499999126875
 40
35.27777776895834
 40
35.27777776895834
 40
35.27777776895834
 40
35.63055554664792
 40
35.63055554664792
 40
35.63055554664792
 40
35.9833333243375
 40
35.9833333243375
 40
35.9833333243375
 40
36.33611110202708
 40
36.33611110202708
 40
36.33611110202708
 40
36.68888887971667
 40
36.68888887971667
 40
36.68888887971667
 40
37.04166665740625
 40
37.04166665740625
 40
37.04166665740625
 40
37.39444443509583
 40
37.39444443509583
 40
37.39444443509583
 40
37.74722221278542
 40
37.74722221278542
 40
37.74722221278542
 40
38.099999990475
 40
38.099999990475
 40
38.099999990475
 40
38.45277776816459
 40
38.45277776816459
 40
38.45277776816459
 40
38.80555554585417
 40
38.80555554585417
 40
38.80555554585417
 40
39.15833332354375
 40
39.15833332354375
 40
39.15833332354375
 40
39.51111110123333
 40
39.51111110123333
 40
39.51111110123333
 40
39.86388887892292
 40
39.86388887892292
 40
39.86388887892292
 40
40.2166666566125
 40
40.2166666566125
 40
40.2166666566125
 40
40.56944443430208
 40
40.56944443430208
 40
40.56944443430208
 40
40.92222221199167
 40
40.92222221199167
 40
40.92222221199167
 40
41.27499998968126
 40
41.27499998968126
 40
41.27499998968126
 40
41.62777776737084
 40
41.62777776737084
 40
41.62777776737084
 40
41.98055554506042
 40
41.98055554506042
 40
41.98055554506042
 40
42.33333332275
 40
42.33333332275
 40
42.33333332275
 40
42.68611110043958
 40
42.68611110043958
 40
42.68611110043958
 40
43.03888887812917
 40
43.03888887812917
 40
43.03888887812917
 40
43.39166665581875
 40
43.39166665581875
 40
43.39166665581875
 40
43.74444443350833
 40
43.74444443350833
 40
43.74444443350833
 40
44.09722221119792
 40
44.09722221119792
 40
44.09722221119792
 40
44.44999998888751
 40
44.44999998888751
 40
44.44999998888751
 40
44.80277776657709
 40
44.80277776657709
 40
44.80277776657709
 40
45.15555554426667
 40
45.15555554426667
 40
45.15555554426667
 40
45.50833332195625
 40
45.50833332195625
 40
45.50833332195625
 40
45.86111109964583
 40
45.86111109964583
 40
45.86111109964583
 40
46.21388887733542
 40
46.21388887733542
 40
46.21388887733542
 40
46.566666655025
 40
46.566666655025
 40
46.566666655025
 40
46.91944443271458
 40
46.91944443271458
 40
46.91944443271458
 40
47.27222221040417
 40
47.27222221040417
 40
47.27222221040417
 40
47.62499998809376
 40
47.62499998809376
 40
47.62499998809376
 40
47.97777776578334
 40
47.97777776578334
 40
47.97777776578334
 40
48.33055554347292
 40
48.33055554347292
 40
48.33055554347292
 40
48.6833333211625
 40
48.6833333211625
 40
48.6833333211625
 40
49.03611109885208
 40
49.03611109885208
 40
49.03611109885208
 40
49.38888887654167
 40
49.38888887654167
 40
49.38888887654167
 40
49.74166665423125
 40
49.74166665423125
 40
49.74166665423125
 40
50.09444443192083
 40
50.09444443192083
 40
50.09444443192083
 40
50.44722220961042
 40
50.44722220961042
 40
50.44722220961042
 40
50.7999999873
 40
50.7999999873
 40
50.7999999873
 40
51.15277776498959
 40
51.15277776498959
 40
51.15277776498959
 40
51.50555554267917
 40
51.50555554267917
 40
51.50555554267917
 40
51.85833332036875
 40
51.85833332036875
 40
51.85833332036875
 40
52.21111109805834
 40
52.21111109805834
 40
52.21111109805834
 40
52.56388887574792
 40
52.56388887574792
 40
52.56388887574792
 40
52.9166666534375
 40
52.9166666534375
 40
52.9166666534375
 40
53.26944443112708
 40
53.26944443112708
 40
53.26944443112708
 40
53.62222220881667
 40
53.62222220881667
 40
53.62222220881667
 40
53.97499998650625
 40
53.97499998650625
 40
53.97499998650625
 40
54.32777776419584
 40
54.32777776419584
 40
54.32777776419584
 40
54.68055554188542
 40
54.68055554188542
 40
54.68055554188542
 40
55.033333319575
 40
55.033333319575
 40
55.033333319575
 40
55.38611109726459
 40
55.38611109726459
 40
55.38611109726459
 40
55.73888887495417
 40
55.73888887495417
 40
55.73888887495417
 40
56.09166665264375
 40
56.09166665264375
 40
56.09166665264375
 40
56.44444443033333
 40
56.44444443033333
 40
56.44444443033333
 40
56.79722220802292
 40
56.79722220802292
 40
56.79722220802292
 40
57.1499999857125
 40
57.1499999857125
 40
57.1499999857125
 40
57.50277776340209
 40
57.50277776340209
 40
57.50277776340209
 40
57.85555554109167
 40
57.85555554109167
 40
57.85555554109167
 40
58.20833331878125
 40
58.20833331878125
 40
58.20833331878125
 40
58.56111109647084
 40
58.56111109647084
 40
58.56111109647084
 40
58.91388887416042
 40
58.91388887416042
 40
58.91388887416042
 40
59.26666665185
 40
59.26666665185
 40
59.26666665185
 40
59.61944442953958
 40
59.61944442953958
 40
59.61944442953958
 40
59.97222220722917
 40
59.97222220722917
 40
59.97222220722917
 40
60.32499998491875
 40
60.32499998491875
 40
60.32499998491875
 40
60.67777776260834
 40
60.67777776260834
 40
60.67777776260834
 40
61.03055554029792
 40
61.03055554029792
 40
61.03055554029792
 40
61.3833333179875
 40
61.3833333179875
 40
61.3833333179875
 40
61.73611109567709
 40
61.73611109567709
 40
61.73611109567709
 40
62.08888887336667
 40
62.08888887336667
 40
62.08888887336667
 40
62.44166665105625
 40
62.44166665105625
 40
62.44166665105625
 40
62.79444442874583
 40
62.79444442874583
 40
62.79444442874583
 40
63.14722220643542
 40
63.14722220643542
 40
63.14722220643542
 40
63.499999984125
 40
63.499999984125
 40
63.499999984125
 40
63.499999984125
 10
88.16653747290646
 20
-106.0524435845981
 10
88.16653747290646
 20
-105.3275910847791
 10
87.57880971012287
 20
-104.7398633071485
 10
86.8539572286154
 20
-104.7398633071485
 10
86.8539572286154
 20
-104.7398633071485
 10
86.63555251196514
 20
-104.7398633071485
 10
86.63555251196514
 20
-104.7398633071485
 10
86.63555251196514
 20
-104.7398633071485
 10
86.63555251196514
 20
-106.8203702510725
 10
86.63555251196514
 20
-106.8203702510725
 10
86.63555251196514
 20
-106.8203702510725
 10
87.09578638911249
 20
-106.8203702510725
 10
87.09578638911249
 20
-106.8203702510725
 10
87.09578638911249
 20
-106.8203702510725
 10
86.83328445136502
 20
-107.0787446954527
 10
86.83328445136502
 20
-107.0787446954527
 10
86.83328445136502
 20
-107.0787446954527
 10
87.09578638911249
 20
-107.3367663620547
 10
87.09578638911249
 20
-107.3367663620547
 10
87.09578638911249
 20
-107.3367663620547
 10
86.83328445136502
 20
-107.5951408064345
 10
86.83328445136502
 20
-107.5951408064345
 10
86.83328445136502
 20
-107.5951408064345
 10
87.09578638911249
 20
-107.8535505285922
 10
87.09578638911249
 20
-107.8535505285922
 10
87.09578638911249
 20
-107.8535505285922
 10
86.83328445136502
 20
-108.111924972972
 10
86.83328445136502
 20
-108.111924972972
 10
86.83328445136502
 20
-108.111924972972
 10
87.09578638911249
 20
-108.3702994173518
 10
87.09578638911249
 20
-108.3702994173518
 10
87.09578638911249
 20
-108.3702994173518
 10
86.83328445136502
 20
-108.6290266395093
 10
86.83328445136502
 20
-108.6290266395093
 10
86.83328445136502
 20
-108.6290266395093
 10
87.09578638911249
 20
-108.8877538616669
 10
87.09578638911249
 20
-108.8877538616669
 10
87.09578638911249
 20
-108.8877538616669
 10
86.83328445136502
 20
-109.1468338616022
 10
86.83328445136502
 20
-109.1468338616022
 10
86.83328445136502
 20
-109.1468338616022
 10
87.09578638911249
 20
-109.405208305982
 10
87.09578638911249
 20
-109.405208305982
 10
87.09578638911249
 20
-109.405208305982
 10
86.83328445136502
 20
-109.6642883059174
 10
86.83328445136502
 20
-109.6642883059174
 10
86.83328445136502
 20
-109.6642883059174
 10
87.09578638911249
 20
-109.9233683058524
 10
87.09578638911249
 20
-109.9233683058524
 10
87.09578638911249
 20
-109.9233683058524
 10
86.83328445136502
 20
-110.1831185835654
 10
86.83328445136502
 20
-110.1831185835654
 10
86.83328445136502
 20
-110.1831185835654
 10
87.09578638911249
 20
-110.4421985835007
 10
87.09578638911249
 20
-110.4421985835007
 10
87.09578638911249
 20
-110.4421985835007
 10
86.83328445136502
 20
-110.7012433056582
 10
86.83328445136502
 20
-110.7012433056582
 10
86.83328445136502
 20
-110.7012433056582
 10
87.09578638911249
 20
-110.9603233055932
 10
87.09578638911249
 20
-110.9603233055932
 10
87.09578638911249
 20
-110.9603233055932
 10
86.83328445136502
 20
-111.218697749973
 10
86.83328445136502
 20
-111.218697749973
 10
86.83328445136502
 20
-111.218697749973
 10
87.09578638911249
 20
-111.4777777499083
 10
87.09578638911249
 20
-111.4777777499083
 10
87.09578638911249
 20
-111.4777777499083
 10
86.83328445136502
 20
-111.7368577498437
 10
86.83328445136502
 20
-111.7368577498437
 10
86.83328445136502
 20
-111.7368577498437
 10
87.09578638911249
 20
-111.9952321942235
 10
87.09578638911249
 20
-111.9952321942235
 10
87.09578638911249
 20
-111.9952321942235
 10
86.83328445136502
 20
-112.253959416381
 10
86.83328445136502
 20
-112.253959416381
 10
86.83328445136502
 20
-112.253959416381
 10
87.09578638911249
 20
-112.5126866385386
 10
87.09578638911249
 20
-112.5126866385386
 10
87.09578638911249
 20
-112.5126866385386
 10
86.83328445136502
 20
-112.7710610829184
 10
86.83328445136502
 20
-112.7710610829184
 10
86.83328445136502
 20
-112.7710610829184
 10
87.09578638911249
 20
-113.029788305076
 10
87.09578638911249
 20
-113.029788305076
 10
87.09578638911249
 20
-113.029788305076
 10
86.83328445136502
 20
-113.288868305011
 10
86.83328445136502
 20
-113.288868305011
 10
86.83328445136502
 20
-113.288868305011
 10
87.09578638911249
 20
-113.5475955271686
 10
87.09578638911249
 20
-113.5475955271686
 10
87.09578638911249
 20
-113.5475955271686
 10
86.83328445136502
 20
-113.8066755271039
 10
86.83328445136502
 20
-113.8066755271039
 10
86.83328445136502
 20
-113.8066755271039
 10
87.09578638911249
 20
-114.0654027492615
 10
87.09578638911249
 20
-114.0654027492615
 10
87.09578638911249
 20
-114.0654027492615
 10
86.83328445136502
 20
-114.3244474714189
 10
86.83328445136502
 20
-114.3244474714189
 10
86.83328445136502
 20
-114.3244474714189
 10
87.09578638911249
 20
-114.5838802491317
 10
87.09578638911249
 20
-114.5838802491317
 10
87.09578638911249
 20
-114.5838802491317
 10
86.83328445136502
 20
-114.842960249067
 10
86.83328445136502
 20
-114.842960249067
 10
86.83328445136502
 20
-114.842960249067
 10
87.09578638911249
 20
-115.10271052678
 10
87.09578638911249
 20
-115.10271052678
 10
87.09578638911249
 20
-115.10271052678
 10
86.83328445136502
 20
-115.361790526715
 10
86.83328445136502
 20
-115.361790526715
 10
86.83328445136502
 20
-115.361790526715
 10
87.09578638911249
 20
-115.6208352488725
 10
87.09578638911249
 20
-115.6208352488725
 10
87.09578638911249
 20
-115.6208352488725
 10
86.83328445136502
 20
-115.8799152488079
 10
86.83328445136502
 20
-115.8799152488079
 10
86.83328445136502
 20
-115.8799152488079
 10
87.09578638911249
 20
-116.1389952487432
 10
87.09578638911249
 20
-116.1389952487432
 10
87.09578638911249
 20
-116.1389952487432
 10
86.83328445136502
 20
-116.3977224709004
 10
86.83328445136502
 20
-116.3977224709004
 10
86.83328445136502
 20
-116.3977224709004
 10
87.09578638911249
 20
-116.6568024708358
 10
87.09578638911249
 20
-116.6568024708358
 10
87.09578638911249
 20
-116.6568024708358
 10
86.83328445136502
 20
-116.9155296929933
 10
86.83328445136502
 20
-116.9155296929933
 10
86.83328445136502
 20
-116.9155296929933
 10
87.09578638911249
 20
-117.1745744151508
 10
87.09578638911249
 20
-117.1745744151508
 10
87.09578638911249
 20
-117.1745744151508
 10
86.83328445136502
 20
-117.4336544150862
 10
86.83328445136502
 20
-117.4336544150862
 10
86.83328445136502
 20
-117.4336544150862
 10
87.09578638911249
 20
-117.6927344150211
 10
87.09578638911249
 20
-117.6927344150211
 10
87.09578638911249
 20
-117.6927344150211
 10
86.83328445136502
 20
-117.9518144149565
 10
86.83328445136502
 20
-117.9518144149565
 10
86.83328445136502
 20
-117.9518144149565
 10
87.09578638911249
 20
-118.2115646926695
 10
87.09578638911249
 20
-118.2115646926695
 10
87.09578638911249
 20
-118.2115646926695
 10
86.83328445136502
 20
-118.4709621926044
 10
86.83328445136502
 20
-118.4709621926044
 10
86.83328445136502
 20
-118.4709621926044
 10
87.09578638911249
 20
-118.7303949703175
 10
87.09578638911249
 20
-118.7303949703175
 10
87.09578638911249
 20
-118.7303949703175
 10
86.83328445136502
 20
-118.9897924702524
 10
86.83328445136502
 20
-118.9897924702524
 10
86.83328445136502
 20
-118.9897924702524
 10
87.09578638911249
 20
-119.24851969241
 10
87.09578638911249
 20
-119.24851969241
 10
87.09578638911249
 20
-119.24851969241
 10
86.83328445136502
 20
-119.5075996923453
 10
86.83328445136502
 20
-119.5075996923453
 10
86.83328445136502
 20
-119.5075996923453
 10
87.09578638911249
 20
-119.767349970058
 10
87.09578638911249
 20
-119.767349970058
 10
87.09578638911249
 20
-119.767349970058
 10
86.83328445136502
 20
-120.0257596922157
 10
86.83328445136502
 20
-120.0257596922157
 10
86.83328445136502
 20
-120.0257596922157
 10
87.09578638911249
 20
-120.2855099699287
 10
87.09578638911249
 20
-120.2855099699287
 10
87.09578638911249
 20
-120.2855099699287
 10
86.83328445136502
 20
-120.5449074698639
 10
86.83328445136502
 20
-120.5449074698639
 10
86.83328445136502
 20
-120.5449074698639
 10
87.09578638911249
 20
-120.8043402475767
 10
87.09578638911249
 20
-120.8043402475767
 10
87.09578638911249
 20
-120.8043402475767
 10
86.83328445136502
 20
-121.0640905252897
 10
86.83328445136502
 20
-121.0640905252897
 10
86.83328445136502
 20
-121.0640905252897
 10
87.09578638911249
 20
-121.3231705252247
 10
87.09578638911249
 20
-121.3231705252247
 10
87.09578638911249
 20
-121.3231705252247
 10
86.83328445136502
 20
-121.58225052516
 10
86.83328445136502
 20
-121.58225052516
 10
86.83328445136502
 20
-121.58225052516
 10
87.09578638911249
 20
-121.8420008028727
 10
87.09578638911249
 20
-121.8420008028727
 10
87.09578638911249
 20
-121.8420008028727
 10
86.83328445136502
 20
-122.1010808028081
 10
86.83328445136502
 20
-122.1010808028081
 10
86.83328445136502
 20
-122.1010808028081
 10
87.09578638911249
 20
-122.3601608027434
 10
87.09578638911249
 20
-122.3601608027434
 10
87.09578638911249
 20
-122.3601608027434
 10
86.83328445136502
 20
-122.6199110804561
 10
86.83328445136502
 20
-122.6199110804561
 10
86.83328445136502
 20
-122.6199110804561
 10
87.09578638911249
 20
-122.8796613581691
 10
87.09578638911249
 20
-122.8796613581691
 10
87.09578638911249
 20
-122.8796613581691
 10
86.83328445136502
 20
-123.1394116358818
 10
86.83328445136502
 20
-123.1394116358818
 10
86.83328445136502
 20
-123.1394116358818
 10
87.09578638911249
 20
-123.3984916358171
 10
87.09578638911249
 20
-123.3984916358171
 10
87.09578638911249
 20
-123.3984916358171
 10
86.83328445136502
 20
-123.6579244135299
 10
86.83328445136502
 20
-123.6579244135299
 10
86.83328445136502
 20
-123.6579244135299
 10
87.09578638911249
 20
-123.9166516356874
 10
87.09578638911249
 20
-123.9166516356874
 10
87.09578638911249
 20
-123.9166516356874
 10
86.83328445136502
 20
-124.1750260800673
 10
86.83328445136502
 20
-124.1750260800673
 10
86.83328445136502
 20
-124.1750260800673
 10
87.09578638911249
 20
-124.4334005244471
 10
87.09578638911249
 20
-124.4334005244471
 10
87.09578638911249
 20
-124.4334005244471
 10
86.83328445136502
 20
-124.6921277466046
 10
86.83328445136502
 20
-124.6921277466046
 10
86.83328445136502
 20
-124.6921277466046
 10
87.09578638911249
 20
-124.9512077465399
 10
87.09578638911249
 20
-124.9512077465399
 10
87.09578638911249
 20
-124.9512077465399
 10
86.83328445136502
 20
-125.2106052464752
 10
86.83328445136502
 20
-125.2106052464752
 10
86.83328445136502
 20
-125.2106052464752
 10
87.09578638911249
 20
-125.4703908019657
 10
87.09578638911249
 20
-125.4703908019657
 10
87.09578638911249
 20
-125.4703908019657
 10
86.83328445136502
 20
-125.7301410796787
 10
86.83328445136502
 20
-125.7301410796787
 10
86.83328445136502
 20
-125.7301410796787
 10
87.09578638911249
 20
-125.9892210796137
 10
87.09578638911249
 20
-125.9892210796137
 10
87.09578638911249
 20
-125.9892210796137
 10
86.83328445136502
 20
-126.2482658017712
 10
86.83328445136502
 20
-126.2482658017712
 10
86.83328445136502
 20
-126.2482658017712
 10
87.09578638911249
 20
-126.5073458017066
 10
87.09578638911249
 20
-126.5073458017066
 10
87.09578638911249
 20
-126.5073458017066
 10
86.83328445136502
 20
-126.7664258016419
 10
86.83328445136502
 20
-126.7664258016419
 10
86.83328445136502
 20
-126.7664258016419
 10
87.09578638911249
 20
-127.0261760793546
 10
87.09578638911249
 20
-127.0261760793546
 10
87.09578638911249
 20
-127.0261760793546
 10
86.83328445136502
 20
-127.2859263570673
 10
86.83328445136502
 20
-127.2859263570673
 10
86.83328445136502
 20
-127.2859263570673
 10
87.09578638911249
 20
-127.5457119125581
 10
87.09578638911249
 20
-127.5457119125581
 10
87.09578638911249
 20
-127.5457119125581
 10
86.83328445136502
 20
-127.8054621902708
 10
86.83328445136502
 20
-127.8054621902708
 10
86.83328445136502
 20
-127.8054621902708
 10
87.09578638911249
 20
-128.0645421902061
 10
87.09578638911249
 20
-128.0645421902061
 10
87.09578638911249
 20
-128.0645421902061
 10
86.83328445136502
 20
-128.3242924679188
 10
86.83328445136502
 20
-128.3242924679188
 10
86.83328445136502
 20
-128.3242924679188
 10
87.09578638911249
 20
-128.584748301187
 10
87.09578638911249
 20
-128.584748301187
 10
87.09578638911249
 20
-128.584748301187
 10
86.83328445136502
 20
-128.8441458011226
 10
86.83328445136502
 20
-128.8441458011226
 10
86.83328445136502
 20
-128.8441458011226
 10
87.09578638911249
 20
-129.1042488566127
 10
87.09578638911249
 20
-129.1042488566127
 10
87.09578638911249
 20
-129.1042488566127
 10
86.83328445136502
 20
-129.3640344121033
 10
86.83328445136502
 20
-129.3640344121033
 10
86.83328445136502
 20
-129.3640344121033
 10
87.09578638911249
 20
-129.6237846898163
 10
87.09578638911249
 20
-129.6237846898163
 10
87.09578638911249
 20
-129.6237846898163
 10
86.83328445136502
 20
-129.8842405230848
 10
86.83328445136502
 20
-129.8842405230848
 10
86.83328445136502
 20
-129.8842405230848
 10
87.09578638911249
 20
-130.1439908007972
 10
87.09578638911249
 20
-130.1439908007972
 10
87.09578638911249
 20
-130.1439908007972
 10
86.83328445136502
 20
-130.4044466340657
 10
86.83328445136502
 20
-130.4044466340657
 10
86.83328445136502
 20
-130.4044466340657
 10
87.09578638911249
 20
-130.6641969117781
 10
87.09578638911249
 20
-130.6641969117781
 10
87.09578638911249
 20
-130.6641969117781
 10
86.83328445136502
 20
-130.9236296894915
 10
86.83328445136502
 20
-130.9236296894915
 10
86.83328445136502
 20
-130.9236296894915
 10
87.09578638911249
 20
-131.1844030227596
 10
87.09578638911249
 20
-131.1844030227596
 10
87.09578638911249
 20
-131.1844030227596
 10
86.83328445136502
 20
-131.4438358004724
 10
86.83328445136502
 20
-131.4438358004724
 10
86.83328445136502
 20
-131.4438358004724
 10
87.09578638911249
 20
-131.7042916337403
 10
87.09578638911249
 20
-131.7042916337403
 10
87.09578638911249
 20
-131.7042916337403
 10
86.83328445136502
 20
-131.9650649670084
 10
86.83328445136502
 20
-131.9650649670084
 10
86.83328445136502
 20
-131.9650649670084
 10
87.09578638911249
 20
-132.2248152447214
 10
87.09578638911249
 20
-132.2248152447214
 10
87.09578638911249
 20
-132.2248152447214
 10
86.83328445136502
 20
-132.4859766335455
 10
86.83328445136502
 20
-132.4859766335455
 10
86.83328445136502
 20
-132.4859766335455
 10
87.09578638911249
 20
-132.7471027445907
 10
87.09578638911249
 20
-132.7471027445907
 10
87.09578638911249
 20
-132.7471027445907
 10
86.83328445136502
 20
-133.0089344111922
 10
86.83328445136502
 20
-133.0089344111922
 10
86.83328445136502
 20
-133.0089344111922
 10
87.09578638911249
 20
-133.2669560777945
 10
87.09578638911249
 20
-133.2669560777945
 10
87.09578638911249
 20
-133.2669560777945
 10
86.83328445136502
 20
-133.5250130221744
 10
86.83328445136502
 20
-133.5250130221744
 10
86.83328445136502
 20
-133.5250130221744
 10
87.09578638911249
 20
-133.7833874665539
 10
87.09578638911249
 20
-133.7833874665539
 10
87.09578638911249
 20
-133.7833874665539
 10
86.83328445136502
 20
-134.041761910934
 10
86.83328445136502
 20
-134.041761910934
 10
86.83328445136502
 20
-134.041761910934
 10
87.09578638911249
 20
-134.3001716330917
 10
87.09578638911249
 20
-134.3001716330917
 10
87.09578638911249
 20
-134.3001716330917
 10
86.83328445136502
 20
-134.5592163552492
 10
86.83328445136502
 20
-134.5592163552492
 10
86.83328445136502
 20
-134.5592163552492
 10
87.09578638911249
 20
-134.8176260774068
 10
87.09578638911249
 20
-134.8176260774068
 10
87.09578638911249
 20
-134.8176260774068
 10
86.83328445136502
 20
-135.0763532995641
 10
86.83328445136502
 20
-135.0763532995641
 10
86.83328445136502
 20
-135.0763532995641
 10
87.09578638911249
 20
-135.3350805217219
 10
87.09578638911249
 20
-135.3350805217219
 10
87.09578638911249
 20
-135.3350805217219
 10
86.83328445136502
 20
-135.5944780216572
 10
86.83328445136502
 20
-135.5944780216572
 10
86.83328445136502
 20
-135.5944780216572
 10
87.09578638911249
 20
-135.8539107993699
 10
87.09578638911249
 20
-135.8539107993699
 10
87.09578638911249
 20
-135.8539107993699
 10
86.83328445136502
 20
-136.1129555215275
 10
86.83328445136502
 20
-136.1129555215275
 10
86.83328445136502
 20
-136.1129555215275
 10
87.09578638911249
 20
-136.3720355214624
 10
87.09578638911249
 20
-136.3720355214624
 10
87.09578638911249
 20
-136.3720355214624
 10
86.83328445136502
 20
-136.6311155213981
 10
86.83328445136502
 20
-136.6311155213981
 10
86.83328445136502
 20
-136.6311155213981
 10
87.09578638911249
 20
-136.8901955213331
 10
87.09578638911249
 20
-136.8901955213331
 10
87.09578638911249
 20
-136.8901955213331
 10
86.83328445136502
 20
-137.1492402434906
 10
86.83328445136502
 20
-137.1492402434906
 10
86.83328445136502
 20
-137.1492402434906
 10
87.09578638911249
 20
-137.4079674656478
 10
87.09578638911249
 20
-137.4079674656478
 10
87.09578638911249
 20
-137.4079674656478
 10
86.83328445136502
 20
-137.6666946878057
 10
86.83328445136502
 20
-137.6666946878057
 10
86.83328445136502
 20
-137.6666946878057
 10
87.09578638911249
 20
-137.925421909963
 10
87.09578638911249
 20
-137.925421909963
 10
87.09578638911249
 20
-137.925421909963
 10
86.83328445136502
 20
-138.1841491321209
 10
86.83328445136502
 20
-138.1841491321209
 10
86.83328445136502
 20
-138.1841491321209
 10
87.09578638911249
 20
-138.4425235765003
 10
87.09578638911249
 20
-138.4425235765003
 10
87.09578638911249
 20
-138.4425235765003
 10
86.83328445136502
 20
-138.7012507986582
 10
86.83328445136502
 20
-138.7012507986582
 10
86.83328445136502
 20
-138.7012507986582
 10
87.09578638911249
 20
-138.9599780208155
 10
87.09578638911249
 20
-138.9599780208155
 10
87.09578638911249
 20
-138.9599780208155
 10
86.83328445136502
 20
-139.2190580207505
 10
86.83328445136502
 20
-139.2190580207505
 10
86.83328445136502
 20
-139.2190580207505
 10
87.09578638911249
 20
-139.4774324651306
 10
87.09578638911249
 20
-139.4774324651306
 10
87.09578638911249
 20
-139.4774324651306
 10
86.83328445136502
 20
-139.7365124650656
 10
86.83328445136502
 20
-139.7365124650656
 10
86.83328445136502
 20
-139.7365124650656
 10
87.09578638911249
 20
-139.9955924650013
 10
87.09578638911249
 20
-139.9955924650013
 10
87.09578638911249
 20
-139.9955924650013
 10
86.83328445136502
 20
-140.2543196871585
 10
86.83328445136502
 20
-140.2543196871585
 10
86.83328445136502
 20
-140.2543196871585
 10
87.09578638911249
 20
-140.5137171870938
 10
87.09578638911249
 20
-140.5137171870938
 10
87.09578638911249
 20
-140.5137171870938
 10
86.83328445136502
 20
-140.7735027425843
 10
86.83328445136502
 20
-140.7735027425843
 10
86.83328445136502
 20
-140.7735027425843
 10
87.09578638911249
 20
-141.0325474647418
 10
87.09578638911249
 20
-141.0325474647418
 10
87.09578638911249
 20
-141.0325474647418
 10
86.83328445136502
 20
-141.2916274646768
 10
86.83328445136502
 20
-141.2916274646768
 10
86.83328445136502
 20
-141.2916274646768
 10
87.09578638911249
 20
-141.5510602423902
 10
87.09578638911249
 20
-141.5510602423902
 10
87.09578638911249
 20
-141.5510602423902
 10
86.83328445136502
 20
-141.8097874645474
 10
86.83328445136502
 20
-141.8097874645474
 10
86.83328445136502
 20
-141.8097874645474
 10
87.09578638911249
 20
-142.0688321867049
 10
87.09578638911249
 20
-142.0688321867049
 10
87.09578638911249
 20
-142.0688321867049
 10
86.83328445136502
 20
-142.3279121866399
 10
86.83328445136502
 20
-142.3279121866399
 10
86.83328445136502
 20
-142.3279121866399
 10
87.09578638911249
 20
-142.5866394087978
 10
87.09578638911249
 20
-142.5866394087978
 10
87.09578638911249
 20
-142.5866394087978
 10
86.83328445136502
 20
-142.8453666309551
 10
86.83328445136502
 20
-142.8453666309551
 10
86.83328445136502
 20
-142.8453666309551
 10
87.09578638911249
 20
-143.1044466308907
 10
87.09578638911249
 20
-143.1044466308907
 10
87.09578638911249
 20
-143.1044466308907
 10
86.83328445136502
 20
-143.3635266308257
 10
86.83328445136502
 20
-143.3635266308257
 10
86.83328445136502
 20
-143.3635266308257
 10
87.09578638911249
 20
-143.622924130761
 10
87.09578638911249
 20
-143.622924130761
 10
87.09578638911249
 20
-143.622924130761
 10
86.83328445136502
 20
-143.8823569084738
 10
86.83328445136502
 20
-143.8823569084738
 10
86.83328445136502
 20
-143.8823569084738
 10
87.09578638911249
 20
-144.141754408409
 10
87.09578638911249
 20
-144.141754408409
 10
87.09578638911249
 20
-144.141754408409
 10
86.83328445136502
 20
-144.4011871861218
 10
86.83328445136502
 20
-144.4011871861218
 10
86.83328445136502
 20
-144.4011871861218
 10
87.09578638911249
 20
-144.6602319082793
 10
87.09578638911249
 20
-144.6602319082793
 10
87.09578638911249
 20
-144.6602319082793
 10
86.83328445136502
 20
-144.9200174637698
 10
86.83328445136502
 20
-144.9200174637698
 10
86.83328445136502
 20
-144.9200174637698
 10
87.09578638911249
 20
-145.1790974637054
 10
87.09578638911249
 20
-145.1790974637054
 10
87.09578638911249
 20
-145.1790974637054
 10
86.83328445136502
 20
-145.4381421858629
 10
86.83328445136502
 20
-145.4381421858629
 10
86.83328445136502
 20
-145.4381421858629
 10
87.09578638911249
 20
-145.6972221857979
 10
87.09578638911249
 20
-145.6972221857979
 10
87.09578638911249
 20
-145.6972221857979
 10
86.83328445136502
 20
-145.9563021857329
 10
86.83328445136502
 20
-145.9563021857329
 10
86.83328445136502
 20
-145.9563021857329
 10
87.09578638911249
 20
-146.2153821856686
 10
87.09578638911249
 20
-146.2153821856686
 10
87.09578638911249
 20
-146.2153821856686
 10
86.83328445136502
 20
-146.475132463381
 10
86.83328445136502
 20
-146.475132463381
 10
86.83328445136502
 20
-146.475132463381
 10
87.09578638911249
 20
-146.734882741094
 10
87.09578638911249
 20
-146.734882741094
 10
87.09578638911249
 20
-146.734882741094
 10
86.83328445136502
 20
-146.9939627410296
 10
86.83328445136502
 20
-146.9939627410296
 10
86.83328445136502
 20
-146.9939627410296
 10
87.09578638911249
 20
-147.253713018742
 10
87.09578638911249
 20
-147.253713018742
 10
87.09578638911249
 20
-147.253713018742
 10
86.83328445136502
 20
-147.5127930186776
 10
86.83328445136502
 20
-147.5127930186776
 10
86.83328445136502
 20
-147.5127930186776
 10
87.09578638911249
 20
-147.7718730186126
 10
87.09578638911249
 20
-147.7718730186126
 10
87.09578638911249
 20
-147.7718730186126
 10
86.83328445136502
 20
-148.0316232963256
 10
86.83328445136502
 20
-148.0316232963256
 10
86.83328445136502
 20
-148.0316232963256
 10
87.09578638911249
 20
-148.2907032962607
 10
87.09578638911249
 20
-148.2907032962607
 10
87.09578638911249
 20
-148.2907032962607
 10
86.83328445136502
 20
-148.5504535739737
 10
86.83328445136502
 20
-148.5504535739737
 10
86.83328445136502
 20
-148.5504535739737
 10
87.09578638911249
 20
-148.810203851686
 10
87.09578638911249
 20
-148.810203851686
 10
87.09578638911249
 20
-148.810203851686
 10
86.83328445136502
 20
-149.0692838516217
 10
86.83328445136502
 20
-149.0692838516217
 10
86.83328445136502
 20
-149.0692838516217
 10
87.09578638911249
 20
-149.3290341293347
 10
87.09578638911249
 20
-149.3290341293347
 10
87.09578638911249
 20
-149.3290341293347
 10
86.83328445136502
 20
-149.5881141292697
 10
86.83328445136502
 20
-149.5881141292697
 10
86.83328445136502
 20
-149.5881141292697
 10
87.09578638911249
 20
-149.8464885736492
 10
87.09578638911249
 20
-149.8464885736492
 10
87.09578638911249
 20
-149.8464885736492
 10
86.83328445136502
 20
-150.1048630180293
 10
86.83328445136502
 20
-150.1048630180293
 10
86.83328445136502
 20
-150.1048630180293
 10
87.09578638911249
 20
-150.3639430179643
 10
87.09578638911249
 20
-150.3639430179643
 10
87.09578638911249
 20
-150.3639430179643
 10
86.83328445136502
 20
-150.6223174623445
 10
86.83328445136502
 20
-150.6223174623445
 10
86.83328445136502
 20
-150.6223174623445
 10
87.09578638911249
 20
-150.8813974622794
 10
87.09578638911249
 20
-150.8813974622794
 10
87.09578638911249
 20
-150.8813974622794
 10
86.63555251196514
 20
-150.8813974622794
 10
86.63555251196514
 20
-150.8813974622794
 10
86.63555251196514
 20
-150.8813974622794
 10
86.63555251196514
 20
-153.0772980172865
 10
86.63555251196514
 20
-153.0772980172865
 10
86.63555251196514
 20
-153.0772980172865
 10
87.38725138167659
 20
-154.8938919057207
 10
87.38725138167659
 20
-154.8938919057207
 10
87.38725138167659
 20
-154.8938919057207
 10
87.7731197051656
 20
-154.8938919057207
 10
87.7731197051656
 20
-154.8938919057207
 10
87.99014858851763
 20
-154.8938919057207
 10
88.16653747290646
 20
-154.7178557946537
 10
88.16653747290646
 20
-154.5001213502641
 10
88.16653747290646
 20
-154.5001213502641
 10
88.16653747290646
 20
-106.0524435845981
 10
88.16653747290646
 20
-106.0524435845981
 97
        0
 72
     1
 10
88.16653747290646
 20
-106.0524435845981
 11
88.16653747290646
 21
-106.0524435845981
 97
        0
 75
     2
 76
     1
 98
        0
  0
POLYLINE
  5
43
330
1F
100
AcDbEntity
  8
_U+30EC_U+30A4_U+30E4_U+30FC 1
 62
   179
420
  2234388
370
     9
100
AcDb2dPolyline
 66
     1
 10
0.0
 20
0.0
 30
0.0
  0
VERTEX
  5
44
330
43
100
AcDbEntity
  8
_U+30EC_U+30A4_U+30E4_U+30FC 1
 62
   179
420
  2234388
370
     9
100
AcDbVertex
100
AcDb2dVertex
 10
91.11142045333179
 20
-101.9098799745224
 30
0.0
  0
VERTEX
  5
45
330
43
100
AcDbEntity
  8
_U+30EC_U+30A4_U+30E4_U+30FC 1
 62
   179
420
  2234388
370
     9
100
AcDbVertex
100
AcDb2dVertex
 10
88.07283969751911
 20
-104.9443333070971
 30
0.0
  0
SEQEND
  5
46
330
43
100
AcDbEntity
  8
_U+30EC_U+30A4_U+30E4_U+30FC 1
 62
   179
420
  2234388
370
     9
  0
POLYLINE
  5
47
330
1F
100
AcDbEntity
  8
_U+30EC_U+30A4_U+30E4_U+30FC 1
 62
   179
420
  2234388
370
     9
100
AcDb2dPolyline
 66
     1
 10
0.0
 20
0.0
 30
0.0
  0
VERTEX
  5
48
330
47
100
AcDbEntity
  8
_U+30EC_U+30A4_U+30E4_U+30FC 1
 62
   179
420
  2234388
370
     9
100
AcDbVertex
100
AcDb2dVertex
 10
89.11187605989997
 20
-104.3441877516917
 30
0.0
  0
VERTEX
  5
49
330
47
100
AcDbEntity
  8
_U+30EC_U+30A4_U+30E4_U+30FC 1
 62
   179
420
  2234388
370
     9
100
AcDbVertex
100
AcDb2dVertex
 10
88.07283969751911
 20
-104.9443333070971
 30
0.0
  0
SEQEND
  5
4A
330
47
100
AcDbEntity
  8
_U+30EC_U+30A4_U+30E4_U+30FC 1
 62
   179
420
  2234388
370
     9
  0
POLYLINE
  5
4B
330
1F
100
AcDbEntity
  8
_U+30EC_U+30A4_U+30E4_U+30FC 1
 62
   179
420
  2234388
370
     9
100
AcDb2dPolyline
 66
     1
 10
0.0
 20
0.0
 30
0.0
  0
VERTEX
  5
4C
330
4B
100
AcDbEntity
  8
_U+30EC_U+30A4_U+30E4_U+30FC 1
 62
   179
420
  2234388
370
     9
100
AcDbVertex
100
AcDb2dVertex
 10
88.6729499599868
 20
-103.9052969184682
 30
0.0
  0
VERTEX
  5
4D
330
4B
100
AcDbEntity
  8
_U+30EC_U+30A4_U+30E4_U+30FC 1
 62
   179
420
  2234388
370
     9
100
AcDbVertex
100
AcDb2dVertex
 10
88.07283969751911
 20
-104.9443333070971
 30
0.0
  0
SEQEND
  5
4E
330
4B
100
AcDbEntity
  8
_U+30EC_U+30A4_U+30E4_U+30FC 1
 62
   179
420
  2234388
370
     9
  0
POLYLINE
  5
4F
330
1F
100
AcDbEntity
  8
_U+30EC_U+30A4_U+30E4_U+30FC 1
 62
   179
420
  2234388
370
     9
100
AcDb2dPolyline
 66
     1
 10
0.0
 20
0.0
 30
0.0
  0
VERTEX
  5
50
330
4F
100
AcDbEntity
  8
_U+30EC_U+30A4_U+30E4_U+30FC 1
 62
   179
420
  2234388
370
     9
100
AcDbVertex
100
AcDb2dVertex
 10
89.24483800095227
 20
-154.8938919057207
 30
0.0
  0
VERTEX
  5
51
330
4F
100
AcDbEntity
  8
_U+30EC_U+30A4_U+30E4_U+30FC 1
 62
   179
420
  2234388
370
     9
100
AcDbVertex
100
AcDb2dVertex
 10
93.87300010510025
 20
-154.8938919057207
 30
0.0
  0
SEQEND
  5
52
330
4F
100
AcDbEntity
  8
_U+30EC_U+30A4_U+30E4_U+30FC 1
 62
   179
420
  2234388
370
     9
  0
POLYLINE
  5
53
330
1F
100
AcDbEntity
  8
_U+30EC_U+30A4_U+30E4_U+30FC 1
 62
   179
420
  2234388
370
     9
100
AcDb2dPolyline
 66
     1
 10
0.0
 20
0.0
 30
0.0
  0
VERTEX
  5
54
330
53
100
AcDbEntity
  8
_U+30EC_U+30A4_U+30E4_U+30FC 1
 62
   179
420
  2234388
370
     9
100
AcDbVertex
100
AcDb2dVertex
 10
89.24483800095227
 20
-104.7398633071485
 30
0.0
  0
VERTEX
  5
55
330
53
100
AcDbEntity
  8
_U+30EC_U+30A4_U+30E4_U+30FC 1
 62
   179
420
  2234388
370
     9
100
AcDbVertex
100
AcDb2dVertex
 10
93.87300010510025
 20
-104.7398633071485
 30
0.0
  0
SEQEND
  5
56
330
53
100
AcDbEntity
  8
_U+30EC_U+30A4_U+30E4_U+30FC 1
 62
   179
420
  2234388
370
     9
  0
POLYLINE
  5
57
330
1F
100
AcDbEntity
  8
_U+30EC_U+30A4_U+30E4_U+30FC 1
 62
   179
420
  2234388
370
     9
100
AcDb2dPolyline
 66
     1
 10
0.0
 20
0.0
 30
0.0
  0
VERTEX
  5
58
330
57
100
AcDbEntity
  8
_U+30EC_U+30A4_U+30E4_U+30FC 1
 62
   179
420
  2234388
370
     9
100
AcDbVertex
100
AcDb2dVertex
 10
86.63555251196514
 20
-100.6241813637329
 30
0.0
  0
VERTEX
  5
59
330
57
100
AcDbEntity
  8
_U+30EC_U+30A4_U+30E4_U+30FC 1
 62
   179
420
  2234388
370
     9
100
AcDbVertex
100
AcDb2dVertex
 10
88.16653747290646
 20
-100.6241813637329
 30
0.0
  0
SEQEND
  5
5A
330
57
100
AcDbEntity
  8
_U+30EC_U+30A4_U+30E4_U+30FC 1
 62
   179
420
  2234388
370
     9
  0
INSERT
  5
5C
330
1F
100
AcDbEntity
  8
_U+30EC_U+30A4_U+30E4_U+30FC 1
100
AcDbBlockReference
  2
block 2
 10
0.0
 20
0.0
 30
0.0
  0
POLYLINE
  5
6E
330
1F
100
AcDbEntity
  8
_U+30EC_U+30A4_U+30E4_U+30FC 1
 62
   179
420
  2234388
370
     9
100
AcDb2dPolyline
 66
     1
 10
0.0
 20
0.0
 30
0.0
  0
VERTEX
  5
6F
330
6E
100
AcDbEntity
  8
_U+30EC_U+30A4_U+30E4_U+30FC 1
 62
   179
420
  2234388
370
     9
100
AcDbVertex
100
AcDb2dVertex
 10
91.11142045333179
 20
-158.2432346826615
 30
0.0
  0
VERTEX
  5
70
330
6E
100
AcDbEntity
  8
_U+30EC_U+30A4_U+30E4_U+30FC 1
 62
   179
420
  2234388
370
     9
100
AcDbVertex
100
AcDb2dVertex
 10
88.07283969751911
 20
-155.2087813500868
 30
0.0
  0
SEQEND
  5
71
330
6E
100
AcDbEntity
  8
_U+30EC_U+30A4_U+30E4_U+30FC 1
 62
   179
420
  2234388
370
     9
  0
POLYLINE
  5
72
330
1F
100
AcDbEntity
  8
_U+30EC_U+30A4_U+30E4_U+30FC 1
 62
   179
420
  2234388
370
     9
100
AcDb2dPolyline
 66
     1
 10
0.0
 20
0.0
 30
0.0
  0
VERTEX
  5
73
330
72
100
AcDbEntity
  8
_U+30EC_U+30A4_U+30E4_U+30FC 1
 62
   179
420
  2234388
370
     9
100
AcDbVertex
100
AcDb2dVertex
 10
89.11187605989997
 20
-155.8089269054921
 30
0.0
  0
VERTEX
  5
74
330
72
100
AcDbEntity
  8
_U+30EC_U+30A4_U+30E4_U+30FC 1
 62
   179
420
  2234388
370
     9
100
AcDbVertex
100
AcDb2dVertex
 10
88.07283969751911
 20
-155.2087813500868
 30
0.0
  0
SEQEND
  5
75
330
72
100
AcDbEntity
  8
_U+30EC_U+30A4_U+30E4_U+30FC 1
 62
   179
420
  2234388
370
     9
  0
POLYLINE
  5
76
330
1F
100
AcDbEntity
  8
_U+30EC_U+30A4_U+30E4_U+30FC 1
 62
   179
420
  2234388
370
     9
100
AcDb2dPolyline
 66
     1
 10
0.0
 20
0.0
 30
0.0
  0
VERTEX
  5
77
330
76
100
AcDbEntity
  8
_U+30EC_U+30A4_U+30E4_U+30FC 1
 62
   179
420
  2234388
370
     9
100
AcDbVertex
100
AcDb2dVertex
 10
88.6729499599868
 20
-156.2478177387157
 30
0.0
  0
VERTEX
  5
78
330
76
100
AcDbEntity
  8
_U+30EC_U+30A4_U+30E4_U+30FC 1
 62
   179
420
  2234388
370
     9
100
AcDbVertex
100
AcDb2dVertex
 10
88.07283969751911
 20
-155.2087813500868
 30
0.0
  0
SEQEND
  5
79
330
76
100
AcDbEntity
  8
_U+30EC_U+30A4_U+30E4_U+30FC 1
 62
   179
420
  2234388
370
     9
  0
INSERT
  5
7B
330
1F
100
AcDbEntity
  8
_U+30EC_U+30A4_U+30E4_U+30FC 1
100
AcDbBlockReference
  2
block 3
 10
0.0
 20
0.0
 30
0.0
  0
INSERT
  5
8F
330
1F
100
AcDbEntity
  8
_U+30EC_U+30A4_U+30E4_U+30FC 1
100
AcDbBlockReference
  2
block 4
 10
0.0
 20
0.0
 30
0.0
  0
POLYLINE
  5
9E
330
1F
100
AcDbEntity
  8
_U+30EC_U+30A4_U+30E4_U+30FC 1
 62
   179
420
  2234388
370
     9
100
AcDb2dPolyline
 66
     1
 10
0.0
 20
0.0
 30
0.0
  0
VERTEX
  5
9F
330
9E
100
AcDbEntity
  8
_U+30EC_U+30A4_U+30E4_U+30FC 1
 62
   179
420
  2234388
370
     9
100
AcDbVertex
100
AcDb2dVertex
 10
86.63555251196514
 20
-99.3858255307092
 30
0.0
  0
VERTEX
  5
A0
330
9E
100
AcDbEntity
  8
_U+30EC_U+30A4_U+30E4_U+30FC 1
 62
   179
420
  2234388
370
     9
100
AcDbVertex
100
AcDb2dVertex
 10
86.63555251196514
 20
-103.811422751825
 30
0.0
  0
SEQEND
  5
A1
330
9E
100
AcDbEntity
  8
_U+30EC_U+30A4_U+30E4_U+30FC 1
 62
   179
420
  2234388
370
     9
  0
POLYLINE
  5
A2
330
1F
100
AcDbEntity
  8
_U+30EC_U+30A4_U+30E4_U+30FC 1
 62
   179
420
  2234388
370
     9
100
AcDb2dPolyline
 66
     1
 10
0.0
 20
0.0
 30
0.0
  0
VERTEX
  5
A3
330
A2
100
AcDbEntity
  8
_U+30EC_U+30A4_U+30E4_U+30FC 1
 62
   179
420
  2234388
370
     9
100
AcDbVertex
100
AcDb2dVertex
 10
88.16724302844402
 20
-99.3858255307092
 30
0.0
  0
VERTEX
  5
A4
330
A2
100
AcDbEntity
  8
_U+30EC_U+30A4_U+30E4_U+30FC 1
 62
   179
420
  2234388
370
     9
100
AcDbVertex
100
AcDb2dVertex
 10
88.16724302844402
 20
-103.811422751825
 30
0.0
  0
SEQEND
  5
A5
330
A2
100
AcDbEntity
  8
_U+30EC_U+30A4_U+30E4_U+30FC 1
 62
   179
420
  2234388
370
     9
  0
POLYLINE
  5
A6
330
1F
100
AcDbEntity
  8
_U+30EC_U+30A4_U+30E4_U+30FC 1
 62
   179
420
  2234388
370
     9
100
AcDb2dPolyline
 66
     1
 10
0.0
 20
0.0
 30
0.0
  0
VERTEX
  5
A7
330
A6
100
AcDbEntity
  8
_U+30EC_U+30A4_U+30E4_U+30FC 1
 62
   179
420
  2234388
370
     9
100
AcDbVertex
100
AcDb2dVertex
 10
92.28274847900428
 20
-104.7398633071485
 30
0.0
  0
VERTEX
  5
A8
330
A6
100
AcDbEntity
  8
_U+30EC_U+30A4_U+30E4_U+30FC 1
 62
   179
420
  2234388
370
     9
100
AcDbVertex
100
AcDb2dVertex
 10
92.28274847900428
 20
-154.8938919057207
 30
0.0
  0
SEQEND
  5
A9
330
A6
100
AcDbEntity
  8
_U+30EC_U+30A4_U+30E4_U+30FC 1
 62
   179
420
  2234388
370
     9
  0
INSERT
  5
AB
330
1F
100
AcDbEntity
  8
_U+30EC_U+30A4_U+30E4_U+30FC 1
100
AcDbBlockReference
  2
block 5
 10
0.0
 20
0.0
 30
0.0
  0
SPLINE
  5
B3
330
1F
100
AcDbEntity
  8
_U+30EC_U+30A4_U+30E4_U+30FC 1
370
     0
100
AcDbSpline
210
0.0
220
0.0
230
1.0
 70
    11
 71
     3
 72
    17
 73
    13
 74
     0
 42
0.0000000001
 43
0.0000000001
 12
1.0
 22
0.0
 32
0.0
 13
1.0
 23
0.0
 33
0.0
 40
0.0
 40
0.0
 40
0.0
 40
0.0
 40
1.0
 40
1.0
 40
1.0
 40
2.0
 40
2.0
 40
2.0
 40
3.0
 40
3.0
 40
3.0
 40
4.0
 40
4.0
 40
4.0
 40
4.0
 10
86.7857300081338
 20
-100.624004974844
 30
0.0
 10
86.7857300081338
 20
-100.707048863712
 30
0.0
 10
86.71856112095853
 20
-100.7742177525842
 30
0.0
 10
86.63555251196514
 20
-100.7742177525842
 30
0.0
 10
86.55286140296366
 20
-100.7742177525842
 30
0.0
 10
86.48569251578839
 20
-100.707048863712
 30
0.0
 10
86.48569251578839
 20
-100.624004974844
 30
0.0
 10
86.48569251578839
 20
-100.5413138637535
 30
0.0
 10
86.55286140296366
 20
-100.4741449748816
 30
0.0
 10
86.63555251196514
 20
-100.4741449748816
 30
0.0
 10
86.71856112095853
 20
-100.4741449748816
 30
0.0
 10
86.7857300081338
 20
-100.5413138637535
 30
0.0
 10
86.7857300081338
 20
-100.624004974844
 30
0.0
  0
HATCH
  5
B4
330
1F
100
AcDbEntity
  8
_U+30EC_U+30A4_U+30E4_U+30FC 1
 62
   179
420
  2234388
100
AcDbHatch
 10
0.0
 20
0.0
 30
0.0
210
0.0
220
0.0
230
1.0
  2
SOLID
 70
     1
 71
     0
 91
        1
 92
        1
 93
        1
 72
     4
 94
        3
 73
     0
 74
     1
 95
       17
 96
       13
 40
0.0
 40
0.0
 40
0.0
 40
0.0
 40
1.0
 40
1.0
 40
1.0
 40
2.0
 40
2.0
 40
2.0
 40
3.0
 40
3.0
 40
3.0
 40
4.0
 40
4.0
 40
4.0
 40
4.0
 10
86.7857300081338
 20
-100.624004974844
 10
86.7857300081338
 20
-100.707048863712
 10
86.71856112095853
 20
-100.7742177525842
 10
86.63555251196514
 20
-100.7742177525842
 10
86.55286140296366
 20
-100.7742177525842
 10
86.48569251578839
 20
-100.707048863712
 10
86.48569251578839
 20
-100.624004974844
 10
86.48569251578839
 20
-100.5413138637535
 10
86.55286140296366
 20
-100.4741449748816
 10
86.63555251196514
 20
-100.4741449748816
 10
86.71856112095853
 20
-100.4741449748816
 10
86.7857300081338
 20
-100.5413138637535
 10
86.7857300081338
 20
-100.624004974844
 97
        0
 97
        0
 75
     2
 76
     1
 98
        0
  0
SPLINE
  5
B5
330
1F
100
AcDbEntity
  8
_U+30EC_U+30A4_U+30E4_U+30FC 1
370
     0
100
AcDbSpline
210
0.0
220
0.0
230
1.0
 70
    11
 71
     3
 72
    17
 73
    13
 74
     0
 42
0.0000000001
 43
0.0000000001
 12
1.0
 22
0.0
 32
0.0
 13
1.0
 23
0.0
 33
0.0
 40
0.0
 40
0.0
 40
0.0
 40
0.0
 40
1.0
 40
1.0
 40
1.0
 40
2.0
 40
2.0
 40
2.0
 40
3.0
 40
3.0
 40
3.0
 40
4.0
 40
4.0
 40
4.0
 40
4.0
 10
88.316750246852
 20
-100.624004974844
 30
0.0
 10
88.316750246852
 20
-100.707048863712
 30
0.0
 10
88.24989885966862
 20
-100.7742177525842
 30
0.0
 10
88.16653747290646
 20
-100.7742177525842
 30
0.0
 10
88.08384636390497
 20
-100.7742177525842
 30
0.0
 10
88.01703025449848
 20
-100.707048863712
 30
0.0
 10
88.01703025449848
 20
-100.624004974844
 30
0.0
 10
88.01703025449848
 20
-100.5413138637535
 30
0.0
 10
88.08384636390497
 20
-100.4741449748816
 30
0.0
 10
88.16653747290646
 20
-100.4741449748816
 30
0.0
 10
88.24989885966862
 20
-100.4741449748816
 30
0.0
 10
88.316750246852
 20
-100.5413138637535
 30
0.0
 10
88.316750246852
 20
-100.624004974844
 30
0.0
  0
HATCH
  5
B6
330
1F
100
AcDbEntity
  8
_U+30EC_U+30A4_U+30E4_U+30FC 1
 62
   179
420
  2234388
100
AcDbHatch
 10
0.0
 20
0.0
 30
0.0
210
0.0
220
0.0
230
1.0
  2
SOLID
 70
     1
 71
     0
 91
        1
 92
        1
 93
        1
 72
     4
 94
        3
 73
     0
 74
     1
 95
       17
 96
       13
 40
0.0
 40
0.0
 40
0.0
 40
0.0
 40
1.0
 40
1.0
 40
1.0
 40
2.0
 40
2.0
 40
2.0
 40
3.0
 40
3.0
 40
3.0
 40
4.0
 40
4.0
 40
4.0
 40
4.0
 10
88.316750246852
 20
-100.624004974844
 10
88.316750246852
 20
-100.707048863712
 10
88.24989885966862
 20
-100.7742177525842
 10
88.16653747290646
 20
-100.7742177525842
 10
88.08384636390497
 20
-100.7742177525842
 10
88.01703025449848
 20
-100.707048863712
 10
88.01703025449848
 20
-100.624004974844
 10
88.01703025449848
 20
-100.5413138637535
 10
88.08384636390497
 20
-100.4741449748816
 10
88.16653747290646
 20
-100.4741449748816
 10
88.24989885966862
 20
-100.4741449748816
 10
88.316750246852
 20
-100.5413138637535
 10
88.316750246852
 20
-100.624004974844
 97
        0
 97
        0
 75
     2
 76
     1
 98
        0
  0
SPLINE
  5
B7
330
1F
100
AcDbEntity
  8
_U+30EC_U+30A4_U+30E4_U+30FC 1
370
     0
100
AcDbSpline
210
0.0
220
0.0
230
1.0
 70
    11
 71
     3
 72
    17
 73
    13
 74
     0
 42
0.0000000001
 43
0.0000000001
 12
1.0
 22
0.0
 32
0.0
 13
1.0
 23
0.0
 33
0.0
 40
0.0
 40
0.0
 40
0.0
 40
0.0
 40
1.0
 40
1.0
 40
1.0
 40
2.0
 40
2.0
 40
2.0
 40
3.0
 40
3.0
 40
3.0
 40
4.0
 40
4.0
 40
4.0
 40
4.0
 10
92.43292597517294
 20
-104.7396869182597
 30
0.0
 10
92.43292597517294
 20
-104.8227308071276
 30
0.0
 10
92.36540431022888
 20
-104.8898996959999
 30
0.0
 10
92.28274847900428
 20
-104.8898996959999
 30
0.0
 10
92.2000573700028
 20
-104.8898996959999
 30
0.0
 10
92.13253570505874
 20
-104.8227308071276
 30
0.0
 10
92.13253570505874
 20
-104.7396869182597
 30
0.0
 10
92.13253570505874
 20
-104.6569958071691
 30
0.0
 10
92.2000573700028
 20
-104.5898269182969
 30
0.0
 10
92.28274847900428
 20
-104.5898269182969
 30
0.0
 10
92.36540431022888
 20
-104.5898269182969
 30
0.0
 10
92.43292597517294
 20
-104.6569958071691
 30
0.0
 10
92.43292597517294
 20
-104.7396869182597
 30
0.0
  0
HATCH
  5
B8
330
1F
100
AcDbEntity
  8
_U+30EC_U+30A4_U+30E4_U+30FC 1
 62
   179
420
  2234388
100
AcDbHatch
 10
0.0
 20
0.0
 30
0.0
210
0.0
220
0.0
230
1.0
  2
SOLID
 70
     1
 71
     0
 91
        1
 92
        1
 93
        1
 72
     4
 94
        3
 73
     0
 74
     1
 95
       17
 96
       13
 40
0.0
 40
0.0
 40
0.0
 40
0.0
 40
1.0
 40
1.0
 40
1.0
 40
2.0
 40
2.0
 40
2.0
 40
3.0
 40
3.0
 40
3.0
 40
4.0
 40
4.0
 40
4.0
 40
4.0
 10
92.43292597517294
 20
-104.7396869182597
 10
92.43292597517294
 20
-104.8227308071276
 10
92.36540431022888
 20
-104.8898996959999
 10
92.28274847900428
 20
-104.8898996959999
 10
92.2000573700028
 20
-104.8898996959999
 10
92.13253570505874
 20
-104.8227308071276
 10
92.13253570505874
 20
-104.7396869182597
 10
92.13253570505874
 20
-104.6569958071691
 10
92.2000573700028
 20
-104.5898269182969
 10
92.28274847900428
 20
-104.5898269182969
 10
92.36540431022888
 20
-104.5898269182969
 10
92.43292597517294
 20
-104.6569958071691
 10
92.43292597517294
 20
-104.7396869182597
 97
        0
 97
        0
 75
     2
 76
     1
 98
        0
  0
SPLINE
  5
B9
330
1F
100
AcDbEntity
  8
_U+30EC_U+30A4_U+30E4_U+30FC 1
370
     0
100
AcDbSpline
210
0.0
220
0.0
230
1.0
 70
    11
 71
     3
 72
    17
 73
    13
 74
     0
 42
0.0000000001
 43
0.0000000001
 12
1.0
 22
0.0
 32
0.0
 13
1.0
 23
0.0
 33
0.0
 40
0.0
 40
0.0
 40
0.0
 40
0.0
 40
1.0
 40
1.0
 40
1.0
 40
2.0
 40
2.0
 40
2.0
 40
3.0
 40
3.0
 40
3.0
 40
4.0
 40
4.0
 40
4.0
 40
4.0
 10
92.43292597517294
 20
-154.8935744057211
 30
0.0
 10
92.43292597517294
 20
-154.9769357945893
 30
0.0
 10
92.36540431022888
 20
-155.0437519056835
 30
0.0
 10
92.28274847900428
 20
-155.0437519056835
 30
0.0
 10
92.2000573700028
 20
-155.0437519056835
 30
0.0
 10
92.13253570505874
 20
-154.9769357945893
 30
0.0
 10
92.13253570505874
 20
-154.8935744057211
 30
0.0
 10
92.13253570505874
 20
-154.8108832946309
 30
0.0
 10
92.2000573700028
 20
-154.7440319057586
 30
0.0
 10
92.28274847900428
 20
-154.7440319057586
 30
0.0
 10
92.36540431022888
 20
-154.7440319057586
 30
0.0
 10
92.43292597517294
 20
-154.8108832946309
 30
0.0
 10
92.43292597517294
 20
-154.8935744057211
 30
0.0
  0
HATCH
  5
BA
330
1F
100
AcDbEntity
  8
_U+30EC_U+30A4_U+30E4_U+30FC 1
 62
   179
420
  2234388
100
AcDbHatch
 10
0.0
 20
0.0
 30
0.0
210
0.0
220
0.0
230
1.0
  2
SOLID
 70
     1
 71
     0
 91
        1
 92
        1
 93
        1
 72
     4
 94
        3
 73
     0
 74
     1
 95
       17
 96
       13
 40
0.0
 40
0.0
 40
0.0
 40
0.0
 40
1.0
 40
1.0
 40
1.0
 40
2.0
 40
2.0
 40
2.0
 40
3.0
 40
3.0
 40
3.0
 40
4.0
 40
4.0
 40
4.0
 40
4.0
 10
92.43292597517294
 20
-154.8935744057211
 10
92.43292597517294
 20
-154.9769357945893
 10
92.36540431022888
 20
-155.0437519056835
 10
92.28274847900428
 20
-155.0437519056835
 10
92.2000573700028
 20
-155.0437519056835
 10
92.13253570505874
 20
-154.9769357945893
 10
92.13253570505874
 20
-154.8935744057211
 10
92.13253570505874
 20
-154.8108832946309
 10
92.2000573700028
 20
-154.7440319057586
 10
92.28274847900428
 20
-154.7440319057586
 10
92.36540431022888
 20
-154.7440319057586
 10
92.43292597517294
 20
-154.8108832946309
 10
92.43292597517294
 20
-154.8935744057211
 97
        0
 97
        0
 75
     2
 76
     1
 98
        0
  0
ENDSEC
  0
SECTION
  2
OBJECTS
  0
DICTIONARY
  5
C
330
0
100
AcDbDictionary
281
     1
  3
ACAD_GROUP
350
D
  3
ACAD_LAYOUT
350
1A
  3
ACAD_MATERIAL
350
3B
  3
ACAD_MLEADERSTYLE
350
BC
  3
ACAD_MLINESTYLE
350
17
  3
ACAD_PLOTSETTINGS
350
19
  3
ACAD_PLOTSTYLENAME
350
E
  3
ACAD_TABLESTYLE
350
BB
  3
ACAD_VISUALSTYLE
350
2A
  0
SUN
  5
3F
330
29
100
AcDbSun
 90
        1
290
     0
 63
     7
421
 16777215
 40
1.0
291
     1
 91
  2455826
 92
 54000000
292
     0
 70
     2
 71
   256
280
     1
  0
DICTIONARY
  5
D
102
{ACAD_REACTORS
330
C
102
}
330
C
100
AcDbDictionary
281
     1
  0
DICTIONARY
  5
1A
102
{ACAD_REACTORS
330
C
102
}
330
C
100
AcDbDictionary
281
     1
  3
Layout1
350
1E
  3
Layout2
350
26
  3
Model
350
22
  0
DICTIONARY
  5
3B
102
{ACAD_REACTORS
330
C
102
}
330
C
100
AcDbDictionary
281
     1
  3
ByBlock
350
3D
  3
ByLayer
350
3C
  3
Global
350
3E
  0
DICTIONARY
  5
BC
102
{ACAD_REACTORS
330
C
102
}
330
C
100
AcDbDictionary
281
     1
  0
DICTIONARY
  5
17
102
{ACAD_REACTORS
330
C
102
}
330
C
100
AcDbDictionary
281
     1
  3
Standard
350
18
  0
DICTIONARY
  5
19
102
{ACAD_REACTORS
330
C
102
}
330
C
100
AcDbDictionary
281
     1
  0
ACDBDICTIONARYWDFLT
  5
E
102
{ACAD_REACTORS
330
C
102
}
330
C
100
AcDbDictionary
281
     1
  3
Normal
350
F
100
AcDbDictionaryWithDefault
340
F
  0
DICTIONARY
  5
BB
102
{ACAD_REACTORS
330
C
102
}
330
C
100
AcDbDictionary
281
     1
  0
DICTIONARY
  5
2A
102
{ACAD_REACTORS
330
C
102
}
330
C
100
AcDbDictionary
281
     1
  3
2dWireframe
350
2F
  3
3D Hidden
350
31
  3
3dWireframe
350
30
  3
Basic
350
32
  3
Brighten
350
36
  3
ColorChange
350
3A
  3
Conceptual
350
34
  3
Dim
350
35
  3
Facepattern
350
39
  3
Flat
350
2B
  3
FlatWithEdges
350
2C
  3
Gouraud
350
2D
  3
GouraudWithEdges
350
2E
  3
Linepattern
350
38
  3
Realistic
350
33
  3
Thicken
350
37
  0
LAYOUT
  5
1E
102
{ACAD_REACTORS
330
1A
102
}
330
1A
100
AcDbPlotSettings
  1

  2
none_device
  4

  6

 40
0.0
 41
0.0
 42
0.0
 43
0.0
 44
0.0
 45
0.0
 46
0.0
 47
0.0
 48
0.0
 49
0.0
140
0.0
141
0.0
142
1.0
143
1.0
 70
   688
 72
     0
 73
     0
 74
     5
  7

 75
    16
 76
     0
 77
     2
 78
   300
147
1.0
148
0.0
149
0.0
100
AcDbLayout
  1
Layout1
 70
     1
 71
     1
 10
0.0
 20
0.0
 11
12.0
 21
9.0
 12
0.0
 22
0.0
 32
0.0
 14
1.000000000000000E+20
 24
1.000000000000000E+20
 34
1.000000000000000E+20
 15
-1.000000000000000E+20
 25
-1.000000000000000E+20
 35
-1.000000000000000E+20
146
0.0
 13
0.0
 23
0.0
 33
0.0
 16
1.0
 26
0.0
 36
0.0
 17
0.0
 27
1.0
 37
0.0
 76
     0
330
1B
  0
LAYOUT
  5
26
102
{ACAD_REACTORS
330
1A
102
}
330
1A
100
AcDbPlotSettings
  1

  2
none_device
  4

  6

 40
0.0
 41
0.0
 42
0.0
 43
0.0
 44
0.0
 45
0.0
 46
0.0
 47
0.0
 48
0.0
 49
0.0
140
0.0
141
0.0
142
1.0
143
1.0
 70
   688
 72
     0
 73
     0
 74
     5
  7

 75
    16
 76
     0
 77
     2
 78
   300
147
1.0
148
0.0
149
0.0
100
AcDbLayout
  1
Layout2
 70
     1
 71
     2
 10
0.0
 20
0.0
 11
0.0
 21
0.0
 12
0.0
 22
0.0
 32
0.0
 14
0.0
 24
0.0
 34
0.0
 15
0.0
 25
0.0
 35
0.0
146
0.0
 13
0.0
 23
0.0
 33
0.0
 16
1.0
 26
0.0
 36
0.0
 17
0.0
 27
1.0
 37
0.0
 76
     0
330
23
  0
LAYOUT
  5
22
102
{ACAD_REACTORS
330
1A
102
}
330
1A
100
AcDbPlotSettings
  1

  2
none_device
  4

  6

 40
0.0
 41
0.0
 42
0.0
 43
0.0
 44
0.0
 45
0.0
 46
0.0
 47
0.0
 48
0.0
 49
0.0
140
0.0
141
0.0
142
1.0
143
1.0
 70
  1712
 72
     0
 73
     0
 74
     0
  7

 75
     0
 76
     0
 77
     2
 78
   300
147
1.0
148
0.0
149
0.0
100
AcDbLayout
  1
Model
 70
     1
 71
     0
 10
0.0
 20
0.0
 11
12.0
 21
9.0
 12
0.0
 22
0.0
 32
0.0
 14
1.000000000000000E+20
 24
1.000000000000000E+20
 34
1.000000000000000E+20
 15
-1.000000000000000E+20
 25
-1.000000000000000E+20
 35
-1.000000000000000E+20
146
0.0
 13
0.0
 23
0.0
 33
0.0
 16
1.0
 26
0.0
 36
0.0
 17
0.0
 27
1.0
 37
0.0
 76
     0
330
1F
331
29
  0
MATERIAL
  5
3D
102
{ACAD_REACTORS
330
3B
102
}
330
3B
100
AcDbMaterial
  1
ByBlock
 72
     1
 94
      127
  0
MATERIAL
  5
3C
102
{ACAD_REACTORS
330
3B
102
}
330
3B
100
AcDbMaterial
  1
ByLayer
 72
     1
 94
      127
  0
MATERIAL
  5
3E
102
{ACAD_REACTORS
330
3B
102
}
330
3B
100
AcDbMaterial
  1
Global
 72
     1
 94
      127
  0
MLINESTYLE
  5
18
102
{ACAD_REACTORS
330
17
102
}
330
17
100
AcDbMlineStyle
  2
Standard
 70
     0
  3

 62
   256
 51
90.0
 52
90.0
 71
     2
 49
0.5
 62
   256
  6
BYLAYER
 49
-0.5
 62
   256
  6
BYLAYER
  0
ACDBPLACEHOLDER
  5
F
102
{ACAD_REACTORS
330
E
102
}
330
E
  0
VISUALSTYLE
  5
2F
102
{ACAD_REACTORS
330
2A
102
}
330
2A
100
AcDbVisualStyle
  2
2dWireframe
 70
     4
177
     2
291
     0
 71
     0
176
     1
 72
     2
176
     1
 73
     0
176
     1
 90
        0
176
     1
 40
-0.6
176
     1
 41
-30.0
176
     1
 62
     5
 63
     7
421
 16777215
176
     1
 74
     1
176
     1
 91
        4
176
     1
 64
     7
176
     1
 65
   257
176
     1
 75
     1
176
     1
175
     1
176
     1
 42
1.0
176
     1
 92
        0
176
     1
 66
   257
176
     1
 43
1.0
176
     1
 76
     1
176
     1
 77
     6
176
     1
 78
     2
176
     1
 67
     7
176
     1
 79
     5
176
     1
170
     0
176
     1
171
     0
176
     1
290
     0
176
     1
 93
        1
176
     1
 44
0.0
176
     1
173
     0
176
     1
  0
VISUALSTYLE
  5
31
102
{ACAD_REACTORS
330
2A
102
}
330
2A
100
AcDbVisualStyle
  2
3D Hidden
 70
     6
177
     2
291
     0
 71
     1
176
     1
 72
     2
176
     1
 73
     2
176
     1
 90
        0
176
     1
 40
-0.6
176
     1
 41
-30.0
176
     1
 62
     5
 63
     7
421
 16777215
176
     1
 74
     2
176
     1
 91
        2
176
     1
 64
     7
176
     1
 65
   257
176
     1
 75
     2
176
     1
175
     1
176
     1
 42
40.0
176
     1
 92
        0
176
     1
 66
   257
176
     1
 43
1.0
176
     1
 76
     1
176
     1
 77
     6
176
     1
 78
     2
176
     1
 67
     7
176
     1
 79
     3
176
     1
170
     0
176
     1
171
     0
176
     1
290
     0
176
     1
 93
        1
176
     1
 44
0.0
176
     1
173
     0
176
     1
  0
VISUALSTYLE
  5
30
102
{ACAD_REACTORS
330
2A
102
}
330
2A
100
AcDbVisualStyle
  2
3dWireframe
 70
     5
177
     2
291
     0
 71
     0
176
     1
 72
     2
176
     1
 73
     0
176
     1
 90
        0
176
     1
 40
-0.6
176
     1
 41
-30.0
176
     1
 62
     5
 63
     7
421
 16777215
176
     1
 74
     1
176
     1
 91
        4
176
     1
 64
     7
176
     1
 65
   257
176
     1
 75
     1
176
     1
175
     1
176
     1
 42
1.0
176
     1
 92
        0
176
     1
 66
   257
176
     1
 43
1.0
176
     1
 76
     1
176
     1
 77
     6
176
     1
 78
     2
176
     1
 67
     7
176
     1
 79
     5
176
     1
170
     0
176
     1
171
     0
176
     1
290
     0
176
     1
 93
        1
176
     1
 44
0.0
176
     1
173
     0
176
     1
  0
VISUALSTYLE
  5
32
102
{ACAD_REACTORS
330
2A
102
}
330
2A
100
AcDbVisualStyle
  2
Basic
 70
     7
177
     2
291
     1
 71
     1
176
     1
 72
     0
176
     1
 73
     1
176
     1
 90
        0
176
     1
 40
-0.6
176
     1
 41
-30.0
176
     1
 62
     5
 63
     7
421
 16777215
176
     1
 74
     0
176
     1
 91
        4
176
     1
 64
     7
176
     1
 65
   257
176
     1
 75
     1
176
     1
175
     1
176
     1
 42
1.0
176
     1
 92
        8
176
     1
 66
     7
176
     1
 43
1.0
176
     1
 76
     1
176
     1
 77
     6
176
     1
 78
     2
176
     1
 67
     7
176
     1
 79
     5
176
     1
170
     0
176
     1
171
     0
176
     1
290
     0
176
     1
 93
        1
176
     1
 44
0.0
176
     1
173
     0
176
     1
  0
VISUALSTYLE
  5
36
102
{ACAD_REACTORS
330
2A
102
}
330
2A
100
AcDbVisualStyle
  2
Brighten
 70
    12
177
     2
291
     1
 71
     2
176
     1
 72
     2
176
     1
 73
     0
176
     1
 90
        0
176
     1
 40
-0.6
176
     1
 41
-30.0
176
     1
 62
     5
 63
     7
421
 16777215
176
     1
 74
     1
176
     1
 91
        4
176
     1
 64
     7
176
     1
 65
   257
176
     1
 75
     1
176
     1
175
     1
176
     1
 42
1.0
176
     1
 92
        8
176
     1
 66
     7
176
     1
 43
1.0
176
     1
 76
     1
176
     1
 77
     6
176
     1
 78
     2
176
     1
 67
     7
176
     1
 79
     5
176
     1
170
     0
176
     1
171
     0
176
     1
290
     0
176
     1
 93
        1
176
     1
 44
50.0
176
     1
173
     0
176
     1
  0
VISUALSTYLE
  5
3A
102
{ACAD_REACTORS
330
2A
102
}
330
2A
100
AcDbVisualStyle
  2
ColorChange
 70
    16
177
     2
291
     1
 71
     2
176
     1
 72
     2
176
     1
 73
     3
176
     1
 90
        0
176
     1
 40
-0.6
176
     1
 41
-30.0
176
     1
 62
     5
 63
     8
421
  8421504
176
     1
 74
     1
176
     1
 91
        4
176
     1
 64
     7
176
     1
 65
   257
176
     1
 75
     1
176
     1
175
     1
176
     1
 42
1.0
176
     1
 92
        8
176
     1
 66
     8
424
  8421504
176
     1
 43
1.0
176
     1
 76
     1
176
     1
 77
     6
176
     1
 78
     2
176
     1
 67
     7
176
     1
 79
     5
176
     1
170
     0
176
     1
171
     0
176
     1
290
     0
176
     1
 93
        1
176
     1
 44
0.0
176
     1
173
     0
176
     1
  0
VISUALSTYLE
  5
34
102
{ACAD_REACTORS
330
2A
102
}
330
2A
100
AcDbVisualStyle
  2
Conceptual
 70
     9
177
     2
291
     0
 71
     3
176
     1
 72
     2
176
     1
 73
     0
176
     1
 90
        0
176
     1
 40
-0.6
176
     1
 41
-30.0
176
     1
 62
     5
 63
     7
421
 16777215
176
     1
 74
     2
176
     1
 91
        2
176
     1
 64
     7
176
     1
 65
   257
176
     1
 75
     1
176
     1
175
     1
176
     1
 42
40.0
176
     1
 92
        8
176
     1
 66
     7
176
     1
 43
1.0
176
     1
 76
     1
176
     1
 77
     6
176
     1
 78
     2
176
     1
 67
     7
176
     1
 79
     3
176
     1
170
     0
176
     1
171
     0
176
     1
290
     0
176
     1
 93
        1
176
     1
 44
0.0
176
     1
173
     0
176
     1
  0
VISUALSTYLE
  5
35
102
{ACAD_REACTORS
330
2A
102
}
330
2A
100
AcDbVisualStyle
  2
Dim
 70
    11
177
     2
291
     1
 71
     2
176
     1
 72
     2
176
     1
 73
     0
176
     1
 90
        0
176
     1
 40
-0.6
176
     1
 41
-30.0
176
     1
 62
     5
 63
     7
421
 16777215
176
     1
 74
     1
176
     1
 91
        4
176
     1
 64
     7
176
     1
 65
   257
176
     1
 75
     1
176
     1
175
     1
176
     1
 42
1.0
176
     1
 92
        8
176
     1
 66
     7
176
     1
 43
1.0
176
     1
 76
     1
176
     1
 77
     6
176
     1
 78
     2
176
     1
 67
     7
176
     1
 79
     5
176
     1
170
     0
176
     1
171
     0
176
     1
290
     0
176
     1
 93
        1
176
     1
 44
-50.0
176
     1
173
     0
176
     1
  0
VISUALSTYLE
  5
39
102
{ACAD_REACTORS
330
2A
102
}
330
2A
100
AcDbVisualStyle
  2
Facepattern
 70
    15
177
     2
291
     1
 71
     2
176
     1
 72
     2
176
     1
 73
     0
176
     1
 90
        0
176
     1
 40
-0.6
176
     1
 41
-30.0
176
     1
 62
     5
 63
     7
421
 16777215
176
     1
 74
     1
176
     1
 91
        4
176
     1
 64
     7
176
     1
 65
   257
176
     1
 75
     1
176
     1
175
     1
176
     1
 42
1.0
176
     1
 92
        8
176
     1
 66
     7
176
     1
 43
1.0
176
     1
 76
     1
176
     1
 77
     6
176
     1
 78
     2
176
     1
 67
     7
176
     1
 79
     5
176
     1
170
     0
176
     1
171
     0
176
     1
290
     0
176
     1
 93
        1
176
     1
 44
0.0
176
     1
173
     0
176
     1
  0
VISUALSTYLE
  5
2B
102
{ACAD_REACTORS
330
2A
102
}
330
2A
100
AcDbVisualStyle
  2
Flat
 70
     0
177
     2
291
     1
 71
     2
176
     1
 72
     1
176
     1
 73
     1
176
     1
 90
        2
176
     1
 40
-0.6
176
     1
 41
30.0
176
     1
 62
     5
 63
     7
421
 16777215
176
     1
 74
     0
176
     1
 91
        4
176
     1
 64
     7
176
     1
 65
   257
176
     1
 75
     1
176
     1
175
     1
176
     1
 42
1.0
176
     1
 92
        8
176
     1
 66
     7
176
     1
 43
1.0
176
     1
 76
     1
176
     1
 77
     6
176
     1
 78
     2
176
     1
 67
     7
176
     1
 79
     5
176
     1
170
     0
176
     1
171
     0
176
     1
290
     0
176
     1
 93
       13
176
     1
 44
0.0
176
     1
173
     0
176
     1
  0
VISUALSTYLE
  5
2C
102
{ACAD_REACTORS
330
2A
102
}
330
2A
100
AcDbVisualStyle
  2
FlatWithEdges
 70
     1
177
     2
291
     1
 71
     2
176
     1
 72
     1
176
     1
 73
     1
176
     1
 90
        2
176
     1
 40
-0.6
176
     1
 41
30.0
176
     1
 62
     5
 63
     7
421
 16777215
176
     1
 74
     1
176
     1
 91
        4
176
     1
 64
     7
176
     1
 65
   257
176
     1
 75
     1
176
     1
175
     1
176
     1
 42
1.0
176
     1
 92
        0
176
     1
 66
   257
176
     1
 43
1.0
176
     1
 76
     1
176
     1
 77
     6
176
     1
 78
     2
176
     1
 67
     7
176
     1
 79
     5
176
     1
170
     0
176
     1
171
     0
176
     1
290
     0
176
     1
 93
       13
176
     1
 44
0.0
176
     1
173
     0
176
     1
  0
VISUALSTYLE
  5
2D
102
{ACAD_REACTORS
330
2A
102
}
330
2A
100
AcDbVisualStyle
  2
Gouraud
 70
     2
177
     2
291
     1
 71
     2
176
     1
 72
     2
176
     1
 73
     1
176
     1
 90
        2
176
     1
 40
-0.6
176
     1
 41
30.0
176
     1
 62
     5
 63
     7
421
 16777215
176
     1
 74
     0
176
     1
 91
        4
176
     1
 64
     7
176
     1
 65
   257
176
     1
 75
     1
176
     1
175
     1
176
     1
 42
1.0
176
     1
 92
        0
176
     1
 66
     7
176
     1
 43
1.0
176
     1
 76
     1
176
     1
 77
     6
176
     1
 78
     2
176
     1
 67
     7
176
     1
 79
     5
176
     1
170
     0
176
     1
171
     0
176
     1
290
     0
176
     1
 93
       13
176
     1
 44
0.0
176
     1
173
     0
176
     1
  0
VISUALSTYLE
  5
2E
102
{ACAD_REACTORS
330
2A
102
}
330
2A
100
AcDbVisualStyle
  2
GouraudWithEdges
 70
     3
177
     2
291
     1
 71
     2
176
     1
 72
     2
176
     1
 73
     1
176
     1
 90
        2
176
     1
 40
-0.6
176
     1
 41
30.0
176
     1
 62
     5
 63
     7
421
 16777215
176
     1
 74
     1
176
     1
 91
        4
176
     1
 64
     7
176
     1
 65
   257
176
     1
 75
     1
176
     1
175
     1
176
     1
 42
1.0
176
     1
 92
        0
176
     1
 66
   257
176
     1
 43
1.0
176
     1
 76
     1
176
     1
 77
     6
176
     1
 78
     2
176
     1
 67
     7
176
     1
 79
     5
176
     1
170
     0
176
     1
171
     0
176
     1
290
     0
176
     1
 93
       13
176
     1
 44
0.0
176
     1
173
     0
176
     1
  0
VISUALSTYLE
  5
38
102
{ACAD_REACTORS
330
2A
102
}
330
2A
100
AcDbVisualStyle
  2
Linepattern
 70
    14
177
     2
291
     1
 71
     2
176
     1
 72
     2
176
     1
 73
     0
176
     1
 90
        0
176
     1
 40
-0.6
176
     1
 41
-30.0
176
     1
 62
     5
 63
     7
421
 16777215
176
     1
 74
     1
176
     1
 91
        4
176
     1
 64
     7
176
     1
 65
   257
176
     1
 75
     7
176
     1
175
     7
176
     1
 42
1.0
176
     1
 92
        8
176
     1
 66
     7
176
     1
 43
1.0
176
     1
 76
     1
176
     1
 77
     6
176
     1
 78
     2
176
     1
 67
     7
176
     1
 79
     5
176
     1
170
     0
176
     1
171
     0
176
     1
290
     0
176
     1
 93
        1
176
     1
 44
0.0
176
     1
173
     0
176
     1
  0
VISUALSTYLE
  5
33
102
{ACAD_REACTORS
330
2A
102
}
330
2A
100
AcDbVisualStyle
  2
Realistic
 70
     8
177
     2
291
     0
 71
     2
176
     1
 72
     2
176
     1
 73
     0
176
     1
 90
        0
176
     1
 40
-0.6
176
     1
 41
-30.0
176
     1
 62
     5
 63
     7
421
 16777215
176
     1
 74
     1
176
     1
 91
        0
176
     1
 64
     7
176
     1
 65
   257
176
     1
 75
     1
176
     1
175
     1
176
     1
 42
1.0
176
     1
 92
        8
176
     1
 66
     8
424
  7895160
176
     1
 43
1.0
176
     1
 76
     1
176
     1
 77
     6
176
     1
 78
     2
176
     1
 67
     7
176
     1
 79
     5
176
     1
170
     0
176
     1
171
     0
176
     1
290
     0
176
     1
 93
       13
176
     1
 44
0.0
176
     1
173
     0
176
     1
  0
VISUALSTYLE
  5
37
102
{ACAD_REACTORS
330
2A
102
}
330
2A
100
AcDbVisualStyle
  2
Thicken
 70
    13
177
     2
291
     1
 71
     2
176
     1
 72
     2
176
     1
 73
     0
176
     1
 90
        0
176
     1
 40
-0.6
176
     1
 41
-30.0
176
     1
 62
     5
 63
     7
421
 16777215
176
     1
 74
     1
176
     1
 91
        4
176
     1
 64
     7
176
     1
 65
   257
176
     1
 75
     1
176
     1
175
     1
176
     1
 42
1.0
176
     1
 92
       12
176
     1
 66
     7
176
     1
 43
1.0
176
     1
 76
     1
176
     1
 77
     6
176
     1
 78
     2
176
     1
 67
     7
176
     1
 79
     5
176
     1
170
     0
176
     1
171
     0
176
     1
290
     0
176
     1
 93
        1
176
     1
 44
0.0
176
     1
173
     0
176
     1
  0
ENDSEC
  0
EOF
