  0
SECTION
  2
HEADER
  9
$ACADVER
  1
AC1024
  9
$ACADMAINTVER
 70
     6
  9
$DWGCODEPAGE
  3
UNDEFINED
  9
$INSBASE
 10
0.0
 20
0.0
 30
0.0
  9
$EXTMIN
 10
1.000000000000000E+20
 20
1.000000000000000E+20
 30
1.000000000000000E+20
  9
$EXTMAX
 10
-1.000000000000000E+20
 20
-1.000000000000000E+20
 30
-1.000000000000000E+20
  9
$LIMMIN
 10
0.0
 20
0.0
  9
$LIMMAX
 10
12.0
 20
9.0
  9
$ORTHOMODE
 70
     0
  9
$REGENMODE
 70
     1
  9
$FILLMODE
 70
     1
  9
$QTEXTMODE
 70
     0
  9
$MIRRTEXT
 70
     1
  9
$LTSCALE
 40
1.0
  9
$ATTMODE
 70
     1
  9
$TEXTSIZE
 40
0.2
  9
$TRACEWID
 40
0.05
  9
$TEXTSTYLE
  7
Standard
  9
$CLAYER
  8
0
  9
$CELTYPE
  6
ByLayer
  9
$CECOLOR
 62
   256
  9
$CELTSCALE
 40
1.0
  9
$DISPSILH
 70
     0
  9
$DIMSCALE
 40
1.0
  9
$DIMASZ
 40
0.18
  9
$DIMEXO
 40
0.0625
  9
$DIMDLI
 40
0.38
  9
$DIMRND
 40
0.0
  9
$DIMDLE
 40
0.0
  9
$DIMEXE
 40
0.18
  9
$DIMTP
 40
0.0
  9
$DIMTM
 40
0.0
  9
$DIMTXT
 40
0.18
  9
$DIMCEN
 40
0.09
  9
$DIMTSZ
 40
0.0
  9
$DIMTOL
 70
     0
  9
$DIMLIM
 70
     0
  9
$DIMTIH
 70
     1
  9
$DIMTOH
 70
     1
  9
$DIMSE1
 70
     0
  9
$DIMSE2
 70
     0
  9
$DIMTAD
 70
     0
  9
$DIMZIN
 70
     0
  9
$DIMBLK
  1

  9
$DIMASO
 70
     1
  9
$DIMSHO
 70
     1
  9
$DIMPOST
  1

  9
$DIMAPOST
  1

  9
$DIMALT
 70
     0
  9
$DIMALTD
 70
     2
  9
$DIMALTF
 40
25.4
  9
$DIMLFAC
 40
1.0
  9
$DIMTOFL
 70
     0
  9
$DIMTVP
 40
0.0
  9
$DIMTIX
 70
     0
  9
$DIMSOXD
 70
     0
  9
$DIMSAH
 70
     0
  9
$DIMBLK1
  1

  9
$DIMBLK2
  1

  9
$DIMSTYLE
  2
Standard
  9
$DIMCLRD
 70
     0
  9
$DIMCLRE
 70
     0
  9
$DIMCLRT
 70
     0
  9
$DIMTFAC
 40
1.0
  9
$DIMGAP
 40
0.09
  9
$DIMJUST
 70
     0
  9
$DIMSD1
 70
     0
  9
$DIMSD2
 70
     0
  9
$DIMTOLJ
 70
     1
  9
$DIMTZIN
 70
     0
  9
$DIMALTZ
 70
     0
  9
$DIMALTTZ
 70
     0
  9
$DIMUPT
 70
     0
  9
$DIMDEC
 70
     4
  9
$DIMTDEC
 70
     4
  9
$DIMALTU
 70
     2
  9
$DIMALTTD
 70
     2
  9
$DIMTXSTY
  7
Standard
  9
$DIMAUNIT
 70
     0
  9
$DIMADEC
 70
     0
  9
$DIMALTRND
 40
0.0
  9
$DIMAZIN
 70
     0
  9
$DIMDSEP
 70
    46
  9
$DIMATFIT
 70
     3
  9
$DIMFRAC
 70
     0
  9
$DIMLDRBLK
  1

  9
$DIMLUNIT
 70
     2
  9
$DIMLWD
 70
    -2
  9
$DIMLWE
 70
    -2
  9
$DIMTMOVE
 70
     0
  9
$DIMFXL
 40
1.0
  9
$DIMFXLON
 70
     0
  9
$DIMJOGANG
 40
0.7853981633974483
  9
$DIMTFILL
 70
     0
  9
$DIMTFILLCLR
 70
     0
  9
$DIMARCSYM
 70
     0
  9
$DIMLTYPE
  6

  9
$DIMLTEX1
  6

  9
$DIMLTEX2
  6

  9
$DIMTXTDIRECTION
 70
     0
  9
$LUNITS
 70
     2
  9
$LUPREC
 70
     4
  9
$SKETCHINC
 40
0.1
  9
$FILLETRAD
 40
0.5
  9
$AUNITS
 70
     0
  9
$AUPREC
 70
     0
  9
$MENU
  1
.
  9
$ELEVATION
 40
0.0
  9
$PELEVATION
 40
0.0
  9
$THICKNESS
 40
0.0
  9
$LIMCHECK
 70
     0
  9
$CHAMFERA
 40
0.5
  9
$CHAMFERB
 40
0.5
  9
$CHAMFERC
 40
1.0
  9
$CHAMFERD
 40
0.0
  9
$SKPOLY
 70
     0
  9
$TDCREATE
 40
2457917.628217581
  9
$TDUCREATE
 40
2457917.253217592
  9
$TDUPDATE
 40
2457917.628217581
  9
$TDUUPDATE
 40
2457917.253217592
  9
$TDINDWG
 40
0.0000000116
  9
$TDUSRTIMER
 40
0.0000000116
  9
$USRTIMER
 70
     1
  9
$ANGBASE
 50
0.0
  9
$ANGDIR
 70
     0
  9
$PDMODE
 70
     0
  9
$PDSIZE
 40
0.0
  9
$PLINEWID
 40
0.0
  9
$SPLFRAME
 70
     0
  9
$SPLINETYPE
 70
     6
  9
$SPLINESEGS
 70
     8
  9
$HANDSEED
  5
15A
  9
$SURFTAB1
 70
     6
  9
$SURFTAB2
 70
     6
  9
$SURFTYPE
 70
     6
  9
$SURFU
 70
     6
  9
$SURFV
 70
     6
  9
$UCSBASE
  2

  9
$UCSNAME
  2

  9
$UCSORG
 10
0.0
 20
0.0
 30
0.0
  9
$UCSXDIR
 10
1.0
 20
0.0
 30
0.0
  9
$UCSYDIR
 10
0.0
 20
1.0
 30
0.0
  9
$UCSORTHOREF
  2

  9
$UCSORTHOVIEW
 70
     0
  9
$UCSORGTOP
 10
0.0
 20
0.0
 30
0.0
  9
$UCSORGBOTTOM
 10
0.0
 20
0.0
 30
0.0
  9
$UCSORGLEFT
 10
0.0
 20
0.0
 30
0.0
  9
$UCSORGRIGHT
 10
0.0
 20
0.0
 30
0.0
  9
$UCSORGFRONT
 10
0.0
 20
0.0
 30
0.0
  9
$UCSORGBACK
 10
0.0
 20
0.0
 30
0.0
  9
$PUCSBASE
  2

  9
$PUCSNAME
  2

  9
$PUCSORG
 10
0.0
 20
0.0
 30
0.0
  9
$PUCSXDIR
 10
1.0
 20
0.0
 30
0.0
  9
$PUCSYDIR
 10
0.0
 20
1.0
 30
0.0
  9
$PUCSORTHOREF
  2

  9
$PUCSORTHOVIEW
 70
     0
  9
$PUCSORGTOP
 10
0.0
 20
0.0
 30
0.0
  9
$PUCSORGBOTTOM
 10
0.0
 20
0.0
 30
0.0
  9
$PUCSORGLEFT
 10
0.0
 20
0.0
 30
0.0
  9
$PUCSORGRIGHT
 10
0.0
 20
0.0
 30
0.0
  9
$PUCSORGFRONT
 10
0.0
 20
0.0
 30
0.0
  9
$PUCSORGBACK
 10
0.0
 20
0.0
 30
0.0
  9
$USERI1
 70
     0
  9
$USERI2
 70
     0
  9
$USERI3
 70
     0
  9
$USERI4
 70
     0
  9
$USERI5
 70
     0
  9
$USERR1
 40
0.0
  9
$USERR2
 40
0.0
  9
$USERR3
 40
0.0
  9
$USERR4
 40
0.0
  9
$USERR5
 40
0.0
  9
$WORLDVIEW
 70
     1
  9
$SHADEDGE
 70
     3
  9
$SHADEDIF
 70
    70
  9
$TILEMODE
 70
     1
  9
$MAXACTVP
 70
    64
  9
$PINSBASE
 10
0.0
 20
0.0
 30
0.0
  9
$PLIMCHECK
 70
     0
  9
$PEXTMIN
 10
1.000000000000000E+20
 20
1.000000000000000E+20
 30
1.000000000000000E+20
  9
$PEXTMAX
 10
-1.000000000000000E+20
 20
-1.000000000000000E+20
 30
-1.000000000000000E+20
  9
$PLIMMIN
 10
0.0
 20
0.0
  9
$PLIMMAX
 10
12.0
 20
9.0
  9
$UNITMODE
 70
     0
  9
$VISRETAIN
 70
     1
  9
$PLINEGEN
 70
     0
  9
$PSLTSCALE
 70
     1
  9
$TREEDEPTH
 70
  3020
  9
$CMLSTYLE
  2
Standard
  9
$CMLJUST
 70
     0
  9
$CMLSCALE
 40
1.0
  9
$PROXYGRAPHICS
 70
     1
  9
$MEASUREMENT
 70
     0
  9
$CELWEIGHT
370
    -1
  9
$ENDCAPS
280
     0
  9
$JOINSTYLE
280
     0
  9
$LWDISPLAY
290
     1
  9
$INSUNITS
 70
     1
  9
$HYPERLINKBASE
  1

  9
$STYLESHEET
  1

  9
$XEDIT
290
     1
  9
$CEPSNTYPE
380
     0
  9
$PSTYLEMODE
290
     1
  9
$FINGERPRINTGUID
  2
{1484E9D9-48DD-F7C6-3BAD-C896260F1F9F}
  9
$VERSIONGUID
  2
{FAEB1C32-E019-11D5-929B-00C0DF256EC4}
  9
$EXTNAMES
290
     1
  9
$PSVPSCALE
 40
0.0
  9
$OLESTARTUP
290
     0
  9
$SORTENTS
280
   127
  9
$INDEXCTL
280
     0
  9
$HIDETEXT
280
     1
  9
$XCLIPFRAME
280
     2
  9
$HALOGAP
280
     0
  9
$OBSCOLOR
 70
   257
  9
$OBSLTYPE
280
     0
  9
$INTERSECTIONDISPLAY
280
     0
  9
$INTERSECTIONCOLOR
 70
   257
  9
$DIMASSOC
280
     2
  9
$PROJECTNAME
  1

  9
$CAMERADISPLAY
290
     0
  9
$LENSLENGTH
 40
50.0
  9
$CAMERAHEIGHT
 40
0.0
  9
$STEPSPERSEC
 40
2.0
  9
$STEPSIZE
 40
6.0
  9
$3DDWFPREC
 40
2.0
  9
$PSOLWIDTH
 40
0.25
  9
$PSOLHEIGHT
 40
4.0
  9
$LOFTANG1
 40
1.570796326794897
  9
$LOFTANG2
 40
1.570796326794897
  9
$LOFTMAG1
 40
0.0
  9
$LOFTMAG2
 40
0.0
  9
$LOFTPARAM
 70
     7
  9
$LOFTNORMALS
280
     1
  9
$LATITUDE
 40
37.795
  9
$LONGITUDE
 40
-122.394
  9
$NORTHDIRECTION
 40
0.0
  9
$TIMEZONE
 70
 -8000
  9
$LIGHTGLYPHDISPLAY
280
     1
  9
$TILEMODELIGHTSYNCH
280
     1
  9
$CMATERIAL
347
3C
  9
$SOLIDHIST
280
     1
  9
$SHOWHIST
280
     1
  9
$DWFFRAME
280
     2
  9
$DGNFRAME
280
     2
  9
$REALWORLDSCALE
290
     1
  9
$INTERFERECOLOR
 62
   256
  9
$CSHADOW
280
     0
  9
$SHADOWPLANELOCATION
 40
0.0
  0
ENDSEC
  0
SECTION
  2
CLASSES
  0
CLASS
  1
ACDBDICTIONARYWDFLT
  2
AcDbDictionaryWithDefault
  3
ObjectDBX Classes
 90
        0
 91
        4
280
     0
281
     0
  0
CLASS
  1
VISUALSTYLE
  2
AcDbVisualStyle
  3
ObjectDBX Classes
 90
     4095
 91
        4
280
     0
281
     0
  0
CLASS
  1
MATERIAL
  2
AcDbMaterial
  3
ObjectDBX Classes
 90
     1153
 91
        4
280
     0
281
     0
  0
CLASS
  1
SUN
  2
AcDbSun
  3
SCENEOE
 90
     1024
 91
        4
280
     0
281
     0
  0
ENDSEC
  0
SECTION
  2
TABLES
  0
TABLE
  2
VPORT
  5
8
330
0
100
AcDbSymbolTable
 70
     1
  0
VPORT
  5
29
330
8
100
AcDbSymbolTableRecord
100
AcDbViewportTableRecord
  2
*Active
 70
     0
 10
0.0
 20
0.0
 11
1.0
 21
1.0
 12
0.0
 22
0.0
 13
0.0
 23
0.0
 14
0.5
 24
0.5
 15
0.5
 25
0.5
 16
0.0
 26
0.0
 36
1.0
 17
91.00082462281999
 27
-128.4993055234307
 37
0.0
 40
256.9986110468615
 41
0.7081814508812795
 42
50.0
 43
0.0
 44
0.0
 50
0.0
 51
0.0
 71
     0
 72
   100
 73
     1
 74
     3
 75
     0
 76
     0
 77
     0
 78
     0
281
     0
 65
     1
110
0.0
120
0.0
130
0.0
111
1.0
121
0.0
131
0.0
112
0.0
122
1.0
132
0.0
 79
     0
146
0.0
 60
     3
 61
     5
292
     1
282
     1
141
0.0
142
0.0
 63
   250
361
3F
  0
ENDTAB
  0
TABLE
  2
LTYPE
  5
5
330
0
100
AcDbSymbolTable
 70
     1
  0
LTYPE
  5
14
330
5
100
AcDbSymbolTableRecord
100
AcDbLinetypeTableRecord
  2
ByBlock
 70
     0
  3

 72
    65
 73
     0
 40
0.0
  0
LTYPE
  5
15
330
5
100
AcDbSymbolTableRecord
100
AcDbLinetypeTableRecord
  2
ByLayer
 70
     0
  3

 72
    65
 73
     0
 40
0.0
  0
LTYPE
  5
16
330
5
100
AcDbSymbolTableRecord
100
AcDbLinetypeTableRecord
  2
Continuous
 70
     0
  3
Solid line
 72
    65
 73
     0
 40
0.0
  0
ENDTAB
  0
TABLE
  2
LAYER
  5
2
330
0
100
AcDbSymbolTable
 70
     2
  0
LAYER
  5
10
330
2
100
AcDbSymbolTableRecord
100
AcDbLayerTableRecord
  2
0
 70
     0
 62
     7
  6
Continuous
370
    -3
390
F
347
3E
  0
LAYER
  5
40
330
2
100
AcDbSymbolTableRecord
100
AcDbLayerTableRecord
  2
_U+30EC_U+30A4_U+30E4_U+30FC 1
 70
     0
 62
     7
  6
Continuous
370
    -3
390
F
347
3E
  0
ENDTAB
  0
TABLE
  2
STYLE
  5
3
330
0
100
AcDbSymbolTable
 70
     1
  0
STYLE
  5
11
330
3
100
AcDbSymbolTableRecord
100
AcDbTextStyleTableRecord
  2
Standard
 70
     0
 40
0.0
 41
1.0
 50
0.0
 71
     0
 42
0.2
  3
txt
  4

  0
ENDTAB
  0
TABLE
  2
VIEW
  5
6
330
0
100
AcDbSymbolTable
 70
     0
  0
ENDTAB
  0
TABLE
  2
UCS
  5
7
330
0
100
AcDbSymbolTable
 70
     0
  0
ENDTAB
  0
TABLE
  2
APPID
  5
9
330
0
100
AcDbSymbolTable
 70
     1
  0
APPID
  5
12
330
9
100
AcDbSymbolTableRecord
100
AcDbRegAppTableRecord
  2
ACAD
 70
     0
  0
ENDTAB
  0
TABLE
  2
DIMSTYLE
  5
A
330
0
100
AcDbSymbolTable
 70
     1
100
AcDbDimStyleTable
  0
DIMSTYLE
105
27
330
A
100
AcDbSymbolTableRecord
100
AcDbDimStyleTableRecord
  2
Standard
 70
     0
178
     0
340
11
  0
ENDTAB
  0
TABLE
  2
BLOCK_RECORD
  5
1
330
0
100
AcDbSymbolTable
 70
     9
  0
BLOCK_RECORD
  5
1F
330
1
100
AcDbSymbolTableRecord
100
AcDbBlockTableRecord
  2
*Model_Space
340
22
 70
     0
280
     1
281
     0
  0
BLOCK_RECORD
  5
1B
330
1
100
AcDbSymbolTableRecord
100
AcDbBlockTableRecord
  2
*Paper_Space
340
1E
 70
     0
280
     1
281
     0
  0
BLOCK_RECORD
  5
23
330
1
100
AcDbSymbolTableRecord
100
AcDbBlockTableRecord
  2
*Paper_Space0
340
26
 70
     0
280
     1
281
     0
  0
BLOCK_RECORD
  5
41
330
1
100
AcDbSymbolTableRecord
100
AcDbBlockTableRecord
  2
block 2
340
0
102
{BLKREFS
331
42
102
}
 70
     0
280
     1
281
     0
  0
BLOCK_RECORD
  5
47
330
1
100
AcDbSymbolTableRecord
100
AcDbBlockTableRecord
  2
block 3
340
0
102
{BLKREFS
331
48
102
}
 70
     0
280
     1
281
     0
  0
BLOCK_RECORD
  5
4B
330
1
100
AcDbSymbolTableRecord
100
AcDbBlockTableRecord
  2
block 4
340
0
102
{BLKREFS
331
4C
102
}
 70
     0
280
     1
281
     0
  0
BLOCK_RECORD
  5
C1
330
1
100
AcDbSymbolTableRecord
100
AcDbBlockTableRecord
  2
block 5
340
0
102
{BLKREFS
331
C2
102
}
 70
     0
280
     1
281
     0
  0
BLOCK_RECORD
  5
DA
330
1
100
AcDbSymbolTableRecord
100
AcDbBlockTableRecord
  2
block 6
340
0
102
{BLKREFS
331
DB
102
}
 70
     0
280
     1
281
     0
  0
BLOCK_RECORD
  5
108
330
1
100
AcDbSymbolTableRecord
100
AcDbBlockTableRecord
  2
block 7
340
0
102
{BLKREFS
331
109
102
}
 70
     0
280
     1
281
     0
  0
BLOCK_RECORD
  5
140
330
1
100
AcDbSymbolTableRecord
100
AcDbBlockTableRecord
  2
block 8
340
0
102
{BLKREFS
331
141
102
}
 70
     0
280
     1
281
     0
  0
BLOCK_RECORD
  5
14C
330
1
100
AcDbSymbolTableRecord
100
AcDbBlockTableRecord
  2
block 9
340
0
102
{BLKREFS
331
14D
102
}
 70
     0
280
     1
281
     0
  0
ENDTAB
  0
ENDSEC
  0
SECTION
  2
BLOCKS
  0
BLOCK
  5
20
330
1F
100
AcDbEntity
  8
0
100
AcDbBlockBegin
  2
*Model_Space
 70
     0
 10
0.0
 20
0.0
 30
0.0
  3
*Model_Space
  1

  0
ENDBLK
  5
21
330
1F
100
AcDbEntity
  8
0
100
AcDbBlockEnd
  0
BLOCK
  5
1C
330
1B
100
AcDbEntity
 67
     1
  8
0
100
AcDbBlockBegin
  2
*Paper_Space
 70
     0
 10
0.0
 20
0.0
 30
0.0
  3
*Paper_Space
  1

  0
ENDBLK
  5
1D
330
1B
100
AcDbEntity
 67
     1
  8
0
100
AcDbBlockEnd
  0
BLOCK
  5
24
330
23
100
AcDbEntity
  8
0
100
AcDbBlockBegin
  2
*Paper_Space0
 70
     0
 10
0.0
 20
0.0
 30
0.0
  3
*Paper_Space0
  1

  0
ENDBLK
  5
25
330
23
100
AcDbEntity
  8
0
100
AcDbBlockEnd
  0
BLOCK
  5
43
330
41
100
AcDbEntity
  8
0
100
AcDbBlockBegin
  2
block 2
 70
     0
 10
0.0
 20
0.0
 30
0.0
  3
block 2
  1

  0
SPLINE
  5
45
330
41
100
AcDbEntity
  8
_U+30EC_U+30A4_U+30E4_U+30FC 1
370
     0
100
AcDbSpline
210
0.0
220
0.0
230
1.0
 70
    11
 71
     3
 72
   323
 73
   319
 74
     0
 42
0.0000000001
 43
0.0000000001
 12
1.0
 22
0.0
 32
0.0
 13
1.0
 23
0.0
 33
0.0
 40
0.0
 40
0.0
 40
0.0
 40
0.0
 40
1.0
 40
1.0
 40
1.0
 40
2.0
 40
2.0
 40
2.0
 40
3.0
 40
3.0
 40
3.0
 40
4.0
 40
4.0
 40
4.0
 40
5.0
 40
5.0
 40
5.0
 40
6.0
 40
6.0
 40
6.0
 40
7.0
 40
7.0
 40
7.0
 40
8.0
 40
8.0
 40
8.0
 40
9.0
 40
9.0
 40
9.0
 40
10.0
 40
10.0
 40
10.0
 40
11.0
 40
11.0
 40
11.0
 40
12.0
 40
12.0
 40
12.0
 40
13.0
 40
13.0
 40
13.0
 40
14.0
 40
14.0
 40
14.0
 40
15.0
 40
15.0
 40
15.0
 40
16.0
 40
16.0
 40
16.0
 40
17.0
 40
17.0
 40
17.0
 40
18.0
 40
18.0
 40
18.0
 40
19.0
 40
19.0
 40
19.0
 40
20.0
 40
20.0
 40
20.0
 40
21.0
 40
21.0
 40
21.0
 40
22.0
 40
22.0
 40
22.0
 40
23.0
 40
23.0
 40
23.0
 40
24.0
 40
24.0
 40
24.0
 40
25.0
 40
25.0
 40
25.0
 40
26.0
 40
26.0
 40
26.0
 40
27.0
 40
27.0
 40
27.0
 40
28.0
 40
28.0
 40
28.0
 40
29.0
 40
29.0
 40
29.0
 40
30.0
 40
30.0
 40
30.0
 40
31.0
 40
31.0
 40
31.0
 40
32.0
 40
32.0
 40
32.0
 40
33.0
 40
33.0
 40
33.0
 40
34.0
 40
34.0
 40
34.0
 40
35.0
 40
35.0
 40
35.0
 40
36.0
 40
36.0
 40
36.0
 40
37.0
 40
37.0
 40
37.0
 40
38.0
 40
38.0
 40
38.0
 40
39.0
 40
39.0
 40
39.0
 40
40.0
 40
40.0
 40
40.0
 40
41.0
 40
41.0
 40
41.0
 40
42.0
 40
42.0
 40
42.0
 40
43.0
 40
43.0
 40
43.0
 40
44.0
 40
44.0
 40
44.0
 40
45.0
 40
45.0
 40
45.0
 40
46.0
 40
46.0
 40
46.0
 40
47.0
 40
47.0
 40
47.0
 40
48.0
 40
48.0
 40
48.0
 40
49.0
 40
49.0
 40
49.0
 40
50.0
 40
50.0
 40
50.0
 40
51.0
 40
51.0
 40
51.0
 40
52.0
 40
52.0
 40
52.0
 40
53.0
 40
53.0
 40
53.0
 40
54.0
 40
54.0
 40
54.0
 40
55.0
 40
55.0
 40
55.0
 40
56.0
 40
56.0
 40
56.0
 40
57.0
 40
57.0
 40
57.0
 40
58.0
 40
58.0
 40
58.0
 40
59.0
 40
59.0
 40
59.0
 40
60.0
 40
60.0
 40
60.0
 40
61.0
 40
61.0
 40
61.0
 40
62.0
 40
62.0
 40
62.0
 40
63.0
 40
63.0
 40
63.0
 40
64.0
 40
64.0
 40
64.0
 40
65.0
 40
65.0
 40
65.0
 40
66.0
 40
66.0
 40
66.0
 40
67.0
 40
67.0
 40
67.0
 40
68.0
 40
68.0
 40
68.0
 40
69.0
 40
69.0
 40
69.0
 40
70.0
 40
70.0
 40
70.0
 40
71.0
 40
71.0
 40
71.0
 40
72.0
 40
72.0
 40
72.0
 40
73.0
 40
73.0
 40
73.0
 40
74.0
 40
74.0
 40
74.0
 40
75.0
 40
75.0
 40
75.0
 40
76.0
 40
76.0
 40
76.0
 40
77.0
 40
77.0
 40
77.0
 40
78.0
 40
78.0
 40
78.0
 40
79.0
 40
79.0
 40
79.0
 40
80.0
 40
80.0
 40
80.0
 40
81.0
 40
81.0
 40
81.0
 40
82.0
 40
82.0
 40
82.0
 40
83.0
 40
83.0
 40
83.0
 40
84.0
 40
84.0
 40
84.0
 40
85.0
 40
85.0
 40
85.0
 40
86.0
 40
86.0
 40
86.0
 40
87.0
 40
87.0
 40
87.0
 40
88.0
 40
88.0
 40
88.0
 40
89.0
 40
89.0
 40
89.0
 40
90.0
 40
90.0
 40
90.0
 40
91.0
 40
91.0
 40
91.0
 40
92.0
 40
92.0
 40
92.0
 40
93.0
 40
93.0
 40
93.0
 40
94.0
 40
94.0
 40
94.0
 40
95.0
 40
95.0
 40
95.0
 40
96.0
 40
96.0
 40
96.0
 40
97.0
 40
97.0
 40
97.0
 40
98.0
 40
98.0
 40
98.0
 40
99.0
 40
99.0
 40
99.0
 40
100.0
 40
100.0
 40
100.0
 40
101.0
 40
101.0
 40
101.0
 40
102.0
 40
102.0
 40
102.0
 40
103.0
 40
103.0
 40
103.0
 40
104.0
 40
104.0
 40
104.0
 40
105.0
 40
105.0
 40
105.0
 40
106.0
 40
106.0
 40
106.0
 40
106.0
 10
113.7887515414515
 20
-111.4934410832377
 30
0.0
 10
113.7887515414515
 20
-111.4934410832377
 30
0.0
 10
113.7887515414515
 20
-131.296727467176
 30
0.0
 10
113.7887515414515
 20
-131.296727467176
 30
0.0
 10
113.7887515414515
 20
-131.4489863560268
 30
0.0
 10
113.6654204334869
 20
-131.5730230226625
 30
0.0
 10
113.5131262707056
 20
-131.5730230226625
 30
0.0
 10
113.5131262707056
 20
-131.5730230226625
 30
0.0
 10
61.04364205375806
 20
-150.7256813512074
 30
0.0
 10
61.04364205375806
 20
-150.7256813512074
 30
0.0
 10
61.04364205375806
 20
-150.7256813512074
 30
0.0
 10
60.77338054036212
 20
-150.7256813512074
 30
0.0
 10
60.77338054036212
 20
-150.7256813512074
 30
0.0
 10
60.77338054036212
 20
-150.7256813512074
 30
0.0
 10
60.24731679629623
 20
-149.4516949626368
 30
0.0
 10
60.24731679629623
 20
-149.4516949626368
 30
0.0
 10
60.24731679629623
 20
-149.4516949626368
 30
0.0
 10
60.24731679629623
 20
-147.9110438519113
 30
0.0
 10
60.24731679629623
 20
-147.9110438519113
 30
0.0
 10
60.24731679629623
 20
-147.9110438519113
 30
0.0
 10
60.56943817696712
 20
-147.9110438519113
 30
0.0
 10
60.56943817696712
 20
-147.9110438519113
 30
0.0
 10
60.56943817696712
 20
-147.9110438519113
 30
0.0
 10
60.38564095943396
 20
-147.7291516297343
 30
0.0
 10
60.38564095943396
 20
-147.7291516297343
 30
0.0
 10
60.38564095943396
 20
-147.7291516297343
 30
0.0
 10
60.56943817696712
 20
-147.5465538520025
 30
0.0
 10
60.56943817696712
 20
-147.5465538520025
 30
0.0
 10
60.56943817696712
 20
-147.5465538520025
 30
0.0
 10
60.38564095943396
 20
-147.36395607427
 30
0.0
 10
60.38564095943396
 20
-147.36395607427
 30
0.0
 10
60.38564095943396
 20
-147.36395607427
 30
0.0
 10
60.56943817696712
 20
-147.1813582965381
 30
0.0
 10
60.56943817696712
 20
-147.1813582965381
 30
0.0
 10
60.56943817696712
 20
-147.1813582965381
 30
0.0
 10
60.38564095943396
 20
-146.9994660743612
 30
0.0
 10
60.38564095943396
 20
-146.9994660743612
 30
0.0
 10
60.38564095943396
 20
-146.9994660743612
 30
0.0
 10
60.56943817696712
 20
-146.8168682966293
 30
0.0
 10
60.56943817696712
 20
-146.8168682966293
 30
0.0
 10
60.56943817696712
 20
-146.8168682966293
 30
0.0
 10
60.38564095943396
 20
-146.634305796675
 30
0.0
 10
60.38564095943396
 20
-146.634305796675
 30
0.0
 10
60.38564095943396
 20
-146.634305796675
 30
0.0
 10
60.56943817696712
 20
-146.4523782967205
 30
0.0
 10
60.56943817696712
 20
-146.4523782967205
 30
0.0
 10
60.56943817696712
 20
-146.4523782967205
 30
0.0
 10
60.38564095943396
 20
-146.269780518988
 30
0.0
 10
60.38564095943396
 20
-146.269780518988
 30
0.0
 10
60.38564095943396
 20
-146.269780518988
 30
0.0
 10
60.56943817696712
 20
-146.0878882968117
 30
0.0
 10
60.56943817696712
 20
-146.0878882968117
 30
0.0
 10
60.56943817696712
 20
-146.0878882968117
 30
0.0
 10
60.38564095943396
 20
-145.9059960746347
 30
0.0
 10
60.38564095943396
 20
-145.9059960746347
 30
0.0
 10
60.38564095943396
 20
-145.9059960746347
 30
0.0
 10
60.56943817696712
 20
-145.7241038524577
 30
0.0
 10
60.56943817696712
 20
-145.7241038524577
 30
0.0
 10
60.56943817696712
 20
-145.7241038524577
 30
0.0
 10
60.38564095943396
 20
-145.5415060747258
 30
0.0
 10
60.38564095943396
 20
-145.5415060747258
 30
0.0
 10
60.38564095943396
 20
-145.5415060747258
 30
0.0
 10
60.56943817696712
 20
-145.3589082969933
 30
0.0
 10
60.56943817696712
 20
-145.3589082969933
 30
0.0
 10
60.56943817696712
 20
-145.3589082969933
 30
0.0
 10
60.38564095943396
 20
-145.177016074817
 30
0.0
 10
60.38564095943396
 20
-145.177016074817
 30
0.0
 10
60.38564095943396
 20
-145.177016074817
 30
0.0
 10
60.56943817696712
 20
-144.9957941304174
 30
0.0
 10
60.56943817696712
 20
-144.9957941304174
 30
0.0
 10
60.56943817696712
 20
-144.9957941304174
 30
0.0
 10
60.38564095943396
 20
-144.8139019082411
 30
0.0
 10
60.38564095943396
 20
-144.8139019082411
 30
0.0
 10
60.38564095943396
 20
-144.8139019082411
 30
0.0
 10
60.56943817696712
 20
-144.6320096860641
 30
0.0
 10
60.56943817696712
 20
-144.6320096860641
 30
0.0
 10
60.56943817696712
 20
-144.6320096860641
 30
0.0
 10
60.38564095943396
 20
-144.4500821861096
 30
0.0
 10
60.38564095943396
 20
-144.4500821861096
 30
0.0
 10
60.38564095943396
 20
-144.4500821861096
 30
0.0
 10
60.56943817696712
 20
-144.2681899639327
 30
0.0
 10
60.56943817696712
 20
-144.2681899639327
 30
0.0
 10
60.56943817696712
 20
-144.2681899639327
 30
0.0
 10
60.38564095943396
 20
-144.0855921862008
 30
0.0
 10
60.38564095943396
 20
-144.0855921862008
 30
0.0
 10
60.38564095943396
 20
-144.0855921862008
 30
0.0
 10
60.56943817696712
 20
-143.9036999640238
 30
0.0
 10
60.56943817696712
 20
-143.9036999640238
 30
0.0
 10
60.56943817696712
 20
-143.9036999640238
 30
0.0
 10
60.38564095943396
 20
-143.7218077418475
 30
0.0
 10
60.38564095943396
 20
-143.7218077418475
 30
0.0
 10
60.38564095943396
 20
-143.7218077418475
 30
0.0
 10
60.56943817696712
 20
-143.5405857974479
 30
0.0
 10
60.56943817696712
 20
-143.5405857974479
 30
0.0
 10
60.56943817696712
 20
-143.5405857974479
 30
0.0
 10
60.38564095943396
 20
-143.3593638530489
 30
0.0
 10
60.38564095943396
 20
-143.3593638530489
 30
0.0
 10
60.38564095943396
 20
-143.3593638530489
 30
0.0
 10
60.56943817696712
 20
-143.1781771864275
 30
0.0
 10
60.56943817696712
 20
-143.1781771864275
 30
0.0
 10
60.56943817696712
 20
-143.1781771864275
 30
0.0
 10
60.38564095943396
 20
-142.9969552420285
 30
0.0
 10
60.38564095943396
 20
-142.9969552420285
 30
0.0
 10
60.38564095943396
 20
-142.9969552420285
 30
0.0
 10
60.56943817696712
 20
-142.8143574642966
 30
0.0
 10
60.56943817696712
 20
-142.8143574642966
 30
0.0
 10
60.56943817696712
 20
-142.8143574642966
 30
0.0
 10
60.38564095943396
 20
-142.6324652421197
 30
0.0
 10
60.38564095943396
 20
-142.6324652421197
 30
0.0
 10
60.38564095943396
 20
-142.6324652421197
 30
0.0
 10
60.56943817696712
 20
-142.4505730199427
 30
0.0
 10
60.56943817696712
 20
-142.4505730199427
 30
0.0
 10
60.56943817696712
 20
-142.4505730199427
 30
0.0
 10
60.38564095943396
 20
-142.2686807977664
 30
0.0
 10
60.38564095943396
 20
-142.2686807977664
 30
0.0
 10
60.38564095943396
 20
-142.2686807977664
 30
0.0
 10
60.56943817696712
 20
-142.0860830200339
 30
0.0
 10
60.56943817696712
 20
-142.0860830200339
 30
0.0
 10
60.56943817696712
 20
-142.0860830200339
 30
0.0
 10
60.38564095943396
 20
-141.9041555200794
 30
0.0
 10
60.38564095943396
 20
-141.9041555200794
 30
0.0
 10
60.38564095943396
 20
-141.9041555200794
 30
0.0
 10
60.56943817696712
 20
-141.7222632979031
 30
0.0
 10
60.56943817696712
 20
-141.7222632979031
 30
0.0
 10
60.56943817696712
 20
-141.7222632979031
 30
0.0
 10
60.38564095943396
 20
-141.5403710757261
 30
0.0
 10
60.38564095943396
 20
-141.5403710757261
 30
0.0
 10
60.38564095943396
 20
-141.5403710757261
 30
0.0
 10
60.56943817696712
 20
-141.3591491313271
 30
0.0
 10
60.56943817696712
 20
-141.3591491313271
 30
0.0
 10
60.56943817696712
 20
-141.3591491313271
 30
0.0
 10
60.38564095943396
 20
-141.1772569091501
 30
0.0
 10
60.38564095943396
 20
-141.1772569091501
 30
0.0
 10
60.38564095943396
 20
-141.1772569091501
 30
0.0
 10
60.56943817696712
 20
-140.9946591314183
 30
0.0
 10
60.56943817696712
 20
-140.9946591314183
 30
0.0
 10
60.56943817696712
 20
-140.9946591314183
 30
0.0
 10
60.38564095943396
 20
-140.8127669092413
 30
0.0
 10
60.38564095943396
 20
-140.8127669092413
 30
0.0
 10
60.38564095943396
 20
-140.8127669092413
 30
0.0
 10
60.56943817696712
 20
-140.6308746870643
 30
0.0
 10
60.56943817696712
 20
-140.6308746870643
 30
0.0
 10
60.56943817696712
 20
-140.6308746870643
 30
0.0
 10
60.38564095943396
 20
-140.4489471871098
 30
0.0
 10
60.38564095943396
 20
-140.4489471871098
 30
0.0
 10
60.38564095943396
 20
-140.4489471871098
 30
0.0
 10
60.56943817696712
 20
-140.2677605204884
 30
0.0
 10
60.56943817696712
 20
-140.2677605204884
 30
0.0
 10
60.56943817696712
 20
-140.2677605204884
 30
0.0
 10
60.38564095943396
 20
-140.0851627427566
 30
0.0
 10
60.38564095943396
 20
-140.0851627427566
 30
0.0
 10
60.38564095943396
 20
-140.0851627427566
 30
0.0
 10
60.56943817696712
 20
-139.9032705205796
 30
0.0
 10
60.56943817696712
 20
-139.9032705205796
 30
0.0
 10
60.56943817696712
 20
-139.9032705205796
 30
0.0
 10
60.38564095943396
 20
-139.7220485761806
 30
0.0
 10
60.38564095943396
 20
-139.7220485761806
 30
0.0
 10
60.38564095943396
 20
-139.7220485761806
 30
0.0
 10
60.56943817696712
 20
-139.5401563540036
 30
0.0
 10
60.56943817696712
 20
-139.5401563540036
 30
0.0
 10
60.56943817696712
 20
-139.5401563540036
 30
0.0
 10
60.38564095943396
 20
-139.3582641318273
 30
0.0
 10
60.38564095943396
 20
-139.3582641318273
 30
0.0
 10
60.38564095943396
 20
-139.3582641318273
 30
0.0
 10
60.56943817696712
 20
-139.1763366318728
 30
0.0
 10
60.56943817696712
 20
-139.1763366318728
 30
0.0
 10
60.56943817696712
 20
-139.1763366318728
 30
0.0
 10
60.38564095943396
 20
-138.9937388541403
 30
0.0
 10
60.38564095943396
 20
-138.9937388541403
 30
0.0
 10
60.38564095943396
 20
-138.9937388541403
 30
0.0
 10
60.56943817696712
 20
-138.811846631964
 30
0.0
 10
60.56943817696712
 20
-138.811846631964
 30
0.0
 10
60.56943817696712
 20
-138.811846631964
 30
0.0
 10
60.38564095943396
 20
-138.629954409787
 30
0.0
 10
60.38564095943396
 20
-138.629954409787
 30
0.0
 10
60.38564095943396
 20
-138.629954409787
 30
0.0
 10
60.56943817696712
 20
-138.448732465388
 30
0.0
 10
60.56943817696712
 20
-138.448732465388
 30
0.0
 10
60.56943817696712
 20
-138.448732465388
 30
0.0
 10
60.38564095943396
 20
-138.2668402432111
 30
0.0
 10
60.38564095943396
 20
-138.2668402432111
 30
0.0
 10
60.38564095943396
 20
-138.2668402432111
 30
0.0
 10
60.56943817696712
 20
-138.0856182988121
 30
0.0
 10
60.56943817696712
 20
-138.0856182988121
 30
0.0
 10
60.56943817696712
 20
-138.0856182988121
 30
0.0
 10
60.38564095943396
 20
-137.9037260766351
 30
0.0
 10
60.38564095943396
 20
-137.9037260766351
 30
0.0
 10
60.38564095943396
 20
-137.9037260766351
 30
0.0
 10
60.56943817696712
 20
-137.7225041322362
 30
0.0
 10
60.56943817696712
 20
-137.7225041322362
 30
0.0
 10
60.56943817696712
 20
-137.7225041322362
 30
0.0
 10
60.38564095943396
 20
-137.5406119100592
 30
0.0
 10
60.38564095943396
 20
-137.5406119100592
 30
0.0
 10
60.38564095943396
 20
-137.5406119100592
 30
0.0
 10
60.56943817696712
 20
-137.3587196878829
 30
0.0
 10
60.56943817696712
 20
-137.3587196878829
 30
0.0
 10
60.56943817696712
 20
-137.3587196878829
 30
0.0
 10
60.38564095943396
 20
-137.1768274657059
 30
0.0
 10
60.38564095943396
 20
-137.1768274657059
 30
0.0
 10
60.38564095943396
 20
-137.1768274657059
 30
0.0
 10
60.56943817696712
 20
-136.9948999657514
 30
0.0
 10
60.56943817696712
 20
-136.9948999657514
 30
0.0
 10
60.56943817696712
 20
-136.9948999657514
 30
0.0
 10
60.38564095943396
 20
-136.8130077435744
 30
0.0
 10
60.38564095943396
 20
-136.8130077435744
 30
0.0
 10
60.38564095943396
 20
-136.8130077435744
 30
0.0
 10
60.56943817696712
 20
-136.6317857991754
 30
0.0
 10
60.56943817696712
 20
-136.6317857991754
 30
0.0
 10
60.56943817696712
 20
-136.6317857991754
 30
0.0
 10
60.38564095943396
 20
-136.4492232992211
 30
0.0
 10
60.38564095943396
 20
-136.4492232992211
 30
0.0
 10
60.38564095943396
 20
-136.4492232992211
 30
0.0
 10
60.56943817696712
 20
-136.2672957992666
 30
0.0
 10
60.56943817696712
 20
-136.2672957992666
 30
0.0
 10
60.56943817696712
 20
-136.2672957992666
 30
0.0
 10
60.38564095943396
 20
-136.0861091326452
 30
0.0
 10
60.38564095943396
 20
-136.0861091326452
 30
0.0
 10
60.38564095943396
 20
-136.0861091326452
 30
0.0
 10
60.56943817696712
 20
-135.9041816326907
 30
0.0
 10
60.56943817696712
 20
-135.9041816326907
 30
0.0
 10
60.56943817696712
 20
-135.9041816326907
 30
0.0
 10
60.38564095943396
 20
-135.7229949660693
 30
0.0
 10
60.38564095943396
 20
-135.7229949660693
 30
0.0
 10
60.38564095943396
 20
-135.7229949660693
 30
0.0
 10
60.56943817696712
 20
-135.5410674661148
 30
0.0
 10
60.56943817696712
 20
-135.5410674661148
 30
0.0
 10
60.56943817696712
 20
-135.5410674661148
 30
0.0
 10
60.38564095943396
 20
-135.3598807994933
 30
0.0
 10
60.38564095943396
 20
-135.3598807994933
 30
0.0
 10
60.38564095943396
 20
-135.3598807994933
 30
0.0
 10
60.56943817696712
 20
-135.1786588550943
 30
0.0
 10
60.56943817696712
 20
-135.1786588550943
 30
0.0
 10
60.56943817696712
 20
-135.1786588550943
 30
0.0
 10
60.38564095943396
 20
-134.9967666329174
 30
0.0
 10
60.38564095943396
 20
-134.9967666329174
 30
0.0
 10
60.38564095943396
 20
-134.9967666329174
 30
0.0
 10
60.56943817696712
 20
-134.8155446885184
 30
0.0
 10
60.56943817696712
 20
-134.8155446885184
 30
0.0
 10
60.56943817696712
 20
-134.8155446885184
 30
0.0
 10
60.38564095943396
 20
-134.6343227441194
 30
0.0
 10
60.38564095943396
 20
-134.6343227441194
 30
0.0
 10
60.38564095943396
 20
-134.6343227441194
 30
0.0
 10
60.56943817696712
 20
-134.4524305219425
 30
0.0
 10
60.56943817696712
 20
-134.4524305219425
 30
0.0
 10
60.56943817696712
 20
-134.4524305219425
 30
0.0
 10
60.38564095943396
 20
-134.2705382997655
 30
0.0
 10
60.38564095943396
 20
-134.2705382997655
 30
0.0
 10
60.38564095943396
 20
-134.2705382997655
 30
0.0
 10
60.56943817696712
 20
-134.0893163553665
 30
0.0
 10
60.56943817696712
 20
-134.0893163553665
 30
0.0
 10
60.56943817696712
 20
-134.0893163553665
 30
0.0
 10
60.38564095943396
 20
-133.9080944109675
 30
0.0
 10
60.38564095943396
 20
-133.9080944109675
 30
0.0
 10
60.38564095943396
 20
-133.9080944109675
 30
0.0
 10
60.56943817696712
 20
-133.7262021887906
 30
0.0
 10
60.56943817696712
 20
-133.7262021887906
 30
0.0
 10
60.56943817696712
 20
-133.7262021887906
 30
0.0
 10
60.38564095943396
 20
-133.5443099666142
 30
0.0
 10
60.38564095943396
 20
-133.5443099666142
 30
0.0
 10
60.38564095943396
 20
-133.5443099666142
 30
0.0
 10
60.56943817696712
 20
-133.3617121888817
 30
0.0
 10
60.56943817696712
 20
-133.3617121888817
 30
0.0
 10
60.56943817696712
 20
-133.3617121888817
 30
0.0
 10
60.38564095943396
 20
-133.1804902444828
 30
0.0
 10
60.38564095943396
 20
-133.1804902444828
 30
0.0
 10
60.38564095943396
 20
-133.1804902444828
 30
0.0
 10
60.56943817696712
 20
-132.9985980223058
 30
0.0
 10
60.56943817696712
 20
-132.9985980223058
 30
0.0
 10
60.56943817696712
 20
-132.9985980223058
 30
0.0
 10
60.38564095943396
 20
-132.8173760779068
 30
0.0
 10
60.38564095943396
 20
-132.8173760779068
 30
0.0
 10
60.38564095943396
 20
-132.8173760779068
 30
0.0
 10
60.56943817696712
 20
-132.6354838557299
 30
0.0
 10
60.56943817696712
 20
-132.6354838557299
 30
0.0
 10
60.56943817696712
 20
-132.6354838557299
 30
0.0
 10
60.38564095943396
 20
-132.4542619113309
 30
0.0
 10
60.38564095943396
 20
-132.4542619113309
 30
0.0
 10
60.38564095943396
 20
-132.4542619113309
 30
0.0
 10
60.56943817696712
 20
-132.2723696891539
 30
0.0
 10
60.56943817696712
 20
-132.2723696891539
 30
0.0
 10
60.56943817696712
 20
-132.2723696891539
 30
0.0
 10
60.38564095943396
 20
-132.0918533003105
 30
0.0
 10
60.38564095943396
 20
-132.0918533003105
 30
0.0
 10
60.38564095943396
 20
-132.0918533003105
 30
0.0
 10
60.56943817696712
 20
-131.9099610781335
 30
0.0
 10
60.56943817696712
 20
-131.9099610781335
 30
0.0
 10
60.56943817696712
 20
-131.9099610781335
 30
0.0
 10
60.38564095943396
 20
-131.7287391337345
 30
0.0
 10
60.38564095943396
 20
-131.7287391337345
 30
0.0
 10
60.38564095943396
 20
-131.7287391337345
 30
0.0
 10
60.56943817696712
 20
-131.5475171893356
 30
0.0
 10
60.56943817696712
 20
-131.5475171893356
 30
0.0
 10
60.56943817696712
 20
-131.5475171893356
 30
0.0
 10
60.38564095943396
 20
-131.3663305227141
 30
0.0
 10
60.38564095943396
 20
-131.3663305227141
 30
0.0
 10
60.38564095943396
 20
-131.3663305227141
 30
0.0
 10
60.56943817696712
 20
-131.1851085783152
 30
0.0
 10
60.56943817696712
 20
-131.1851085783152
 30
0.0
 10
60.56943817696712
 20
-131.1851085783152
 30
0.0
 10
60.24731679629623
 20
-131.1851085783152
 30
0.0
 10
60.24731679629623
 20
-131.1851085783152
 30
0.0
 10
60.24731679629623
 20
-131.1851085783152
 30
0.0
 10
60.24731679629623
 20
-129.7257727453463
 30
0.0
 10
60.24731679629623
 20
-129.7257727453463
 30
0.0
 10
60.24731679629623
 20
-129.7257727453463
 30
0.0
 10
86.33615001960354
 20
-120.2198933032785
 30
0.0
 10
86.33615001960354
 20
-120.2198933032785
 30
0.0
 10
86.33615001960354
 20
-120.2198933032785
 30
0.0
 10
87.5540094329778
 20
-120.7752360809172
 30
0.0
 10
87.5540094329778
 20
-120.7752360809172
 30
0.0
 10
87.5540094329778
 20
-120.7752360809172
 30
0.0
 10
87.5540094329778
 20
-119.7878816367197
 30
0.0
 10
87.5540094329778
 20
-119.7878816367197
 30
0.0
 10
87.5540094329778
 20
-119.7878816367197
 30
0.0
 10
112.8699418426701
 20
-110.5729380279122
 30
0.0
 10
112.8699418426701
 20
-110.5729380279122
 30
0.0
 10
113.3774126630568
 20
-110.5729380279122
 30
0.0
 10
113.7887515414515
 20
-110.984947194476
 30
0.0
 10
113.7887515414515
 20
-111.4934410832377
 30
0.0
  0
HATCH
  5
46
330
41
100
AcDbEntity
  8
_U+30EC_U+30A4_U+30E4_U+30FC 1
 62
     9
420
 13224394
100
AcDbHatch
 10
0.0
 20
0.0
 30
0.0
210
0.0
220
0.0
230
1.0
  2
SOLID
 70
     1
 71
     0
 91
        1
 92
        1
 93
        2
 72
     4
 94
        3
 73
     0
 74
     0
 95
      323
 96
      319
 40
0.0
 40
0.0
 40
0.0
 40
0.0
 40
0.3527777776895833
 40
0.3527777776895833
 40
0.3527777776895833
 40
0.7055555553791667
 40
0.7055555553791667
 40
0.7055555553791667
 40
1.05833333306875
 40
1.05833333306875
 40
1.05833333306875
 40
1.411111110758333
 40
1.411111110758333
 40
1.411111110758333
 40
1.763888888447917
 40
1.763888888447917
 40
1.763888888447917
 40
2.1166666661375
 40
2.1166666661375
 40
2.1166666661375
 40
2.469444443827083
 40
2.469444443827083
 40
2.469444443827083
 40
2.822222221516667
 40
2.822222221516667
 40
2.822222221516667
 40
3.17499999920625
 40
3.17499999920625
 40
3.17499999920625
 40
3.527777776895833
 40
3.527777776895833
 40
3.527777776895833
 40
3.880555554585417
 40
3.880555554585417
 40
3.880555554585417
 40
4.233333332275
 40
4.233333332275
 40
4.233333332275
 40
4.586111109964584
 40
4.586111109964584
 40
4.586111109964584
 40
4.938888887654167
 40
4.938888887654167
 40
4.938888887654167
 40
5.29166666534375
 40
5.29166666534375
 40
5.29166666534375
 40
5.644444443033334
 40
5.644444443033334
 40
5.644444443033334
 40
5.997222220722917
 40
5.997222220722917
 40
5.997222220722917
 40
6.349999998412501
 40
6.349999998412501
 40
6.349999998412501
 40
6.702777776102083
 40
6.702777776102083
 40
6.702777776102083
 40
7.055555553791667
 40
7.055555553791667
 40
7.055555553791667
 40
7.40833333148125
 40
7.40833333148125
 40
7.40833333148125
 40
7.761111109170834
 40
7.761111109170834
 40
7.761111109170834
 40
8.113888886860417
 40
8.113888886860417
 40
8.113888886860417
 40
8.46666666455
 40
8.46666666455
 40
8.46666666455
 40
8.819444442239584
 40
8.819444442239584
 40
8.819444442239584
 40
9.172222219929168
 40
9.172222219929168
 40
9.172222219929168
 40
9.52499999761875
 40
9.52499999761875
 40
9.52499999761875
 40
9.877777775308333
 40
9.877777775308333
 40
9.877777775308333
 40
10.23055555299792
 40
10.23055555299792
 40
10.23055555299792
 40
10.5833333306875
 40
10.5833333306875
 40
10.5833333306875
 40
10.93611110837708
 40
10.93611110837708
 40
10.93611110837708
 40
11.28888888606667
 40
11.28888888606667
 40
11.28888888606667
 40
11.64166666375625
 40
11.64166666375625
 40
11.64166666375625
 40
11.99444444144583
 40
11.99444444144583
 40
11.99444444144583
 40
12.34722221913542
 40
12.34722221913542
 40
12.34722221913542
 40
12.699999996825
 40
12.699999996825
 40
12.699999996825
 40
13.05277777451458
 40
13.05277777451458
 40
13.05277777451458
 40
13.40555555220417
 40
13.40555555220417
 40
13.40555555220417
 40
13.75833332989375
 40
13.75833332989375
 40
13.75833332989375
 40
14.11111110758333
 40
14.11111110758333
 40
14.11111110758333
 40
14.46388888527292
 40
14.46388888527292
 40
14.46388888527292
 40
14.8166666629625
 40
14.8166666629625
 40
14.8166666629625
 40
15.16944444065208
 40
15.16944444065208
 40
15.16944444065208
 40
15.52222221834167
 40
15.52222221834167
 40
15.52222221834167
 40
15.87499999603125
 40
15.87499999603125
 40
15.87499999603125
 40
16.22777777372083
 40
16.22777777372083
 40
16.22777777372083
 40
16.58055555141042
 40
16.58055555141042
 40
16.58055555141042
 40
16.9333333291
 40
16.9333333291
 40
16.9333333291
 40
17.28611110678958
 40
17.28611110678958
 40
17.28611110678958
 40
17.63888888447917
 40
17.63888888447917
 40
17.63888888447917
 40
17.99166666216875
 40
17.99166666216875
 40
17.99166666216875
 40
18.34444443985834
 40
18.34444443985834
 40
18.34444443985834
 40
18.69722221754792
 40
18.69722221754792
 40
18.69722221754792
 40
19.0499999952375
 40
19.0499999952375
 40
19.0499999952375
 40
19.40277777292708
 40
19.40277777292708
 40
19.40277777292708
 40
19.75555555061667
 40
19.75555555061667
 40
19.75555555061667
 40
20.10833332830625
 40
20.10833332830625
 40
20.10833332830625
 40
20.46111110599583
 40
20.46111110599583
 40
20.46111110599583
 40
20.81388888368542
 40
20.81388888368542
 40
20.81388888368542
 40
21.166666661375
 40
21.166666661375
 40
21.166666661375
 40
21.51944443906459
 40
21.51944443906459
 40
21.51944443906459
 40
21.87222221675417
 40
21.87222221675417
 40
21.87222221675417
 40
22.22499999444375
 40
22.22499999444375
 40
22.22499999444375
 40
22.57777777213333
 40
22.57777777213333
 40
22.57777777213333
 40
22.93055554982292
 40
22.93055554982292
 40
22.93055554982292
 40
23.2833333275125
 40
23.2833333275125
 40
23.2833333275125
 40
23.63611110520208
 40
23.63611110520208
 40
23.63611110520208
 40
23.98888888289167
 40
23.98888888289167
 40
23.98888888289167
 40
24.34166666058125
 40
24.34166666058125
 40
24.34166666058125
 40
24.69444443827084
 40
24.69444443827084
 40
24.69444443827084
 40
25.04722221596042
 40
25.04722221596042
 40
25.04722221596042
 40
25.39999999365
 40
25.39999999365
 40
25.39999999365
 40
25.75277777133958
 40
25.75277777133958
 40
25.75277777133958
 40
26.10555554902917
 40
26.10555554902917
 40
26.10555554902917
 40
26.45833332671875
 40
26.45833332671875
 40
26.45833332671875
 40
26.81111110440833
 40
26.81111110440833
 40
26.81111110440833
 40
27.16388888209792
 40
27.16388888209792
 40
27.16388888209792
 40
27.5166666597875
 40
27.5166666597875
 40
27.5166666597875
 40
27.86944443747709
 40
27.86944443747709
 40
27.86944443747709
 40
28.22222221516667
 40
28.22222221516667
 40
28.22222221516667
 40
28.57499999285625
 40
28.57499999285625
 40
28.57499999285625
 40
28.92777777054583
 40
28.92777777054583
 40
28.92777777054583
 40
29.28055554823542
 40
29.28055554823542
 40
29.28055554823542
 40
29.633333325925
 40
29.633333325925
 40
29.633333325925
 40
29.98611110361459
 40
29.98611110361459
 40
29.98611110361459
 40
30.33888888130417
 40
30.33888888130417
 40
30.33888888130417
 40
30.69166665899375
 40
30.69166665899375
 40
30.69166665899375
 40
31.04444443668334
 40
31.04444443668334
 40
31.04444443668334
 40
31.39722221437292
 40
31.39722221437292
 40
31.39722221437292
 40
31.7499999920625
 40
31.7499999920625
 40
31.7499999920625
 40
32.10277776975209
 40
32.10277776975209
 40
32.10277776975209
 40
32.45555554744167
 40
32.45555554744167
 40
32.45555554744167
 40
32.80833332513125
 40
32.80833332513125
 40
32.80833332513125
 40
33.16111110282083
 40
33.16111110282083
 40
33.16111110282083
 40
33.51388888051042
 40
33.51388888051042
 40
33.51388888051042
 40
33.8666666582
 40
33.8666666582
 40
33.8666666582
 40
34.21944443588959
 40
34.21944443588959
 40
34.21944443588959
 40
34.57222221357917
 40
34.57222221357917
 40
34.57222221357917
 40
34.92499999126875
 40
34.92499999126875
 40
34.92499999126875
 40
35.27777776895834
 40
35.27777776895834
 40
35.27777776895834
 40
35.63055554664792
 40
35.63055554664792
 40
35.63055554664792
 40
35.9833333243375
 40
35.9833333243375
 40
35.9833333243375
 40
36.33611110202708
 40
36.33611110202708
 40
36.33611110202708
 40
36.68888887971667
 40
36.68888887971667
 40
36.68888887971667
 40
37.04166665740625
 40
37.04166665740625
 40
37.04166665740625
 40
37.39444443509583
 40
37.39444443509583
 40
37.39444443509583
 40
37.39444443509583
 10
113.7887515414515
 20
-111.4934410832377
 10
113.7887515414515
 20
-111.4934410832377
 10
113.7887515414515
 20
-131.296727467176
 10
113.7887515414515
 20
-131.296727467176
 10
113.7887515414515
 20
-131.4489863560268
 10
113.6654204334869
 20
-131.5730230226625
 10
113.5131262707056
 20
-131.5730230226625
 10
113.5131262707056
 20
-131.5730230226625
 10
61.04364205375806
 20
-150.7256813512074
 10
61.04364205375806
 20
-150.7256813512074
 10
61.04364205375806
 20
-150.7256813512074
 10
60.77338054036212
 20
-150.7256813512074
 10
60.77338054036212
 20
-150.7256813512074
 10
60.77338054036212
 20
-150.7256813512074
 10
60.24731679629623
 20
-149.4516949626368
 10
60.24731679629623
 20
-149.4516949626368
 10
60.24731679629623
 20
-149.4516949626368
 10
60.24731679629623
 20
-147.9110438519113
 10
60.24731679629623
 20
-147.9110438519113
 10
60.24731679629623
 20
-147.9110438519113
 10
60.56943817696712
 20
-147.9110438519113
 10
60.56943817696712
 20
-147.9110438519113
 10
60.56943817696712
 20
-147.9110438519113
 10
60.38564095943396
 20
-147.7291516297343
 10
60.38564095943396
 20
-147.7291516297343
 10
60.38564095943396
 20
-147.7291516297343
 10
60.56943817696712
 20
-147.5465538520025
 10
60.56943817696712
 20
-147.5465538520025
 10
60.56943817696712
 20
-147.5465538520025
 10
60.38564095943396
 20
-147.36395607427
 10
60.38564095943396
 20
-147.36395607427
 10
60.38564095943396
 20
-147.36395607427
 10
60.56943817696712
 20
-147.1813582965381
 10
60.56943817696712
 20
-147.1813582965381
 10
60.56943817696712
 20
-147.1813582965381
 10
60.38564095943396
 20
-146.9994660743612
 10
60.38564095943396
 20
-146.9994660743612
 10
60.38564095943396
 20
-146.9994660743612
 10
60.56943817696712
 20
-146.8168682966293
 10
60.56943817696712
 20
-146.8168682966293
 10
60.56943817696712
 20
-146.8168682966293
 10
60.38564095943396
 20
-146.634305796675
 10
60.38564095943396
 20
-146.634305796675
 10
60.38564095943396
 20
-146.634305796675
 10
60.56943817696712
 20
-146.4523782967205
 10
60.56943817696712
 20
-146.4523782967205
 10
60.56943817696712
 20
-146.4523782967205
 10
60.38564095943396
 20
-146.269780518988
 10
60.38564095943396
 20
-146.269780518988
 10
60.38564095943396
 20
-146.269780518988
 10
60.56943817696712
 20
-146.0878882968117
 10
60.56943817696712
 20
-146.0878882968117
 10
60.56943817696712
 20
-146.0878882968117
 10
60.38564095943396
 20
-145.9059960746347
 10
60.38564095943396
 20
-145.9059960746347
 10
60.38564095943396
 20
-145.9059960746347
 10
60.56943817696712
 20
-145.7241038524577
 10
60.56943817696712
 20
-145.7241038524577
 10
60.56943817696712
 20
-145.7241038524577
 10
60.38564095943396
 20
-145.5415060747258
 10
60.38564095943396
 20
-145.5415060747258
 10
60.38564095943396
 20
-145.5415060747258
 10
60.56943817696712
 20
-145.3589082969933
 10
60.56943817696712
 20
-145.3589082969933
 10
60.56943817696712
 20
-145.3589082969933
 10
60.38564095943396
 20
-145.177016074817
 10
60.38564095943396
 20
-145.177016074817
 10
60.38564095943396
 20
-145.177016074817
 10
60.56943817696712
 20
-144.9957941304174
 10
60.56943817696712
 20
-144.9957941304174
 10
60.56943817696712
 20
-144.9957941304174
 10
60.38564095943396
 20
-144.8139019082411
 10
60.38564095943396
 20
-144.8139019082411
 10
60.38564095943396
 20
-144.8139019082411
 10
60.56943817696712
 20
-144.6320096860641
 10
60.56943817696712
 20
-144.6320096860641
 10
60.56943817696712
 20
-144.6320096860641
 10
60.38564095943396
 20
-144.4500821861096
 10
60.38564095943396
 20
-144.4500821861096
 10
60.38564095943396
 20
-144.4500821861096
 10
60.56943817696712
 20
-144.2681899639327
 10
60.56943817696712
 20
-144.2681899639327
 10
60.56943817696712
 20
-144.2681899639327
 10
60.38564095943396
 20
-144.0855921862008
 10
60.38564095943396
 20
-144.0855921862008
 10
60.38564095943396
 20
-144.0855921862008
 10
60.56943817696712
 20
-143.9036999640238
 10
60.56943817696712
 20
-143.9036999640238
 10
60.56943817696712
 20
-143.9036999640238
 10
60.38564095943396
 20
-143.7218077418475
 10
60.38564095943396
 20
-143.7218077418475
 10
60.38564095943396
 20
-143.7218077418475
 10
60.56943817696712
 20
-143.5405857974479
 10
60.56943817696712
 20
-143.5405857974479
 10
60.56943817696712
 20
-143.5405857974479
 10
60.38564095943396
 20
-143.3593638530489
 10
60.38564095943396
 20
-143.3593638530489
 10
60.38564095943396
 20
-143.3593638530489
 10
60.56943817696712
 20
-143.1781771864275
 10
60.56943817696712
 20
-143.1781771864275
 10
60.56943817696712
 20
-143.1781771864275
 10
60.38564095943396
 20
-142.9969552420285
 10
60.38564095943396
 20
-142.9969552420285
 10
60.38564095943396
 20
-142.9969552420285
 10
60.56943817696712
 20
-142.8143574642966
 10
60.56943817696712
 20
-142.8143574642966
 10
60.56943817696712
 20
-142.8143574642966
 10
60.38564095943396
 20
-142.6324652421197
 10
60.38564095943396
 20
-142.6324652421197
 10
60.38564095943396
 20
-142.6324652421197
 10
60.56943817696712
 20
-142.4505730199427
 10
60.56943817696712
 20
-142.4505730199427
 10
60.56943817696712
 20
-142.4505730199427
 10
60.38564095943396
 20
-142.2686807977664
 10
60.38564095943396
 20
-142.2686807977664
 10
60.38564095943396
 20
-142.2686807977664
 10
60.56943817696712
 20
-142.0860830200339
 10
60.56943817696712
 20
-142.0860830200339
 10
60.56943817696712
 20
-142.0860830200339
 10
60.38564095943396
 20
-141.9041555200794
 10
60.38564095943396
 20
-141.9041555200794
 10
60.38564095943396
 20
-141.9041555200794
 10
60.56943817696712
 20
-141.7222632979031
 10
60.56943817696712
 20
-141.7222632979031
 10
60.56943817696712
 20
-141.7222632979031
 10
60.38564095943396
 20
-141.5403710757261
 10
60.38564095943396
 20
-141.5403710757261
 10
60.38564095943396
 20
-141.5403710757261
 10
60.56943817696712
 20
-141.3591491313271
 10
60.56943817696712
 20
-141.3591491313271
 10
60.56943817696712
 20
-141.3591491313271
 10
60.38564095943396
 20
-141.1772569091501
 10
60.38564095943396
 20
-141.1772569091501
 10
60.38564095943396
 20
-141.1772569091501
 10
60.56943817696712
 20
-140.9946591314183
 10
60.56943817696712
 20
-140.9946591314183
 10
60.56943817696712
 20
-140.9946591314183
 10
60.38564095943396
 20
-140.8127669092413
 10
60.38564095943396
 20
-140.8127669092413
 10
60.38564095943396
 20
-140.8127669092413
 10
60.56943817696712
 20
-140.6308746870643
 10
60.56943817696712
 20
-140.6308746870643
 10
60.56943817696712
 20
-140.6308746870643
 10
60.38564095943396
 20
-140.4489471871098
 10
60.38564095943396
 20
-140.4489471871098
 10
60.38564095943396
 20
-140.4489471871098
 10
60.56943817696712
 20
-140.2677605204884
 10
60.56943817696712
 20
-140.2677605204884
 10
60.56943817696712
 20
-140.2677605204884
 10
60.38564095943396
 20
-140.0851627427566
 10
60.38564095943396
 20
-140.0851627427566
 10
60.38564095943396
 20
-140.0851627427566
 10
60.56943817696712
 20
-139.9032705205796
 10
60.56943817696712
 20
-139.9032705205796
 10
60.56943817696712
 20
-139.9032705205796
 10
60.38564095943396
 20
-139.7220485761806
 10
60.38564095943396
 20
-139.7220485761806
 10
60.38564095943396
 20
-139.7220485761806
 10
60.56943817696712
 20
-139.5401563540036
 10
60.56943817696712
 20
-139.5401563540036
 10
60.56943817696712
 20
-139.5401563540036
 10
60.38564095943396
 20
-139.3582641318273
 10
60.38564095943396
 20
-139.3582641318273
 10
60.38564095943396
 20
-139.3582641318273
 10
60.56943817696712
 20
-139.1763366318728
 10
60.56943817696712
 20
-139.1763366318728
 10
60.56943817696712
 20
-139.1763366318728
 10
60.38564095943396
 20
-138.9937388541403
 10
60.38564095943396
 20
-138.9937388541403
 10
60.38564095943396
 20
-138.9937388541403
 10
60.56943817696712
 20
-138.811846631964
 10
60.56943817696712
 20
-138.811846631964
 10
60.56943817696712
 20
-138.811846631964
 10
60.38564095943396
 20
-138.629954409787
 10
60.38564095943396
 20
-138.629954409787
 10
60.38564095943396
 20
-138.629954409787
 10
60.56943817696712
 20
-138.448732465388
 10
60.56943817696712
 20
-138.448732465388
 10
60.56943817696712
 20
-138.448732465388
 10
60.38564095943396
 20
-138.2668402432111
 10
60.38564095943396
 20
-138.2668402432111
 10
60.38564095943396
 20
-138.2668402432111
 10
60.56943817696712
 20
-138.0856182988121
 10
60.56943817696712
 20
-138.0856182988121
 10
60.56943817696712
 20
-138.0856182988121
 10
60.38564095943396
 20
-137.9037260766351
 10
60.38564095943396
 20
-137.9037260766351
 10
60.38564095943396
 20
-137.9037260766351
 10
60.56943817696712
 20
-137.7225041322362
 10
60.56943817696712
 20
-137.7225041322362
 10
60.56943817696712
 20
-137.7225041322362
 10
60.38564095943396
 20
-137.5406119100592
 10
60.38564095943396
 20
-137.5406119100592
 10
60.38564095943396
 20
-137.5406119100592
 10
60.56943817696712
 20
-137.3587196878829
 10
60.56943817696712
 20
-137.3587196878829
 10
60.56943817696712
 20
-137.3587196878829
 10
60.38564095943396
 20
-137.1768274657059
 10
60.38564095943396
 20
-137.1768274657059
 10
60.38564095943396
 20
-137.1768274657059
 10
60.56943817696712
 20
-136.9948999657514
 10
60.56943817696712
 20
-136.9948999657514
 10
60.56943817696712
 20
-136.9948999657514
 10
60.38564095943396
 20
-136.8130077435744
 10
60.38564095943396
 20
-136.8130077435744
 10
60.38564095943396
 20
-136.8130077435744
 10
60.56943817696712
 20
-136.6317857991754
 10
60.56943817696712
 20
-136.6317857991754
 10
60.56943817696712
 20
-136.6317857991754
 10
60.38564095943396
 20
-136.4492232992211
 10
60.38564095943396
 20
-136.4492232992211
 10
60.38564095943396
 20
-136.4492232992211
 10
60.56943817696712
 20
-136.2672957992666
 10
60.56943817696712
 20
-136.2672957992666
 10
60.56943817696712
 20
-136.2672957992666
 10
60.38564095943396
 20
-136.0861091326452
 10
60.38564095943396
 20
-136.0861091326452
 10
60.38564095943396
 20
-136.0861091326452
 10
60.56943817696712
 20
-135.9041816326907
 10
60.56943817696712
 20
-135.9041816326907
 10
60.56943817696712
 20
-135.9041816326907
 10
60.38564095943396
 20
-135.7229949660693
 10
60.38564095943396
 20
-135.7229949660693
 10
60.38564095943396
 20
-135.7229949660693
 10
60.56943817696712
 20
-135.5410674661148
 10
60.56943817696712
 20
-135.5410674661148
 10
60.56943817696712
 20
-135.5410674661148
 10
60.38564095943396
 20
-135.3598807994933
 10
60.38564095943396
 20
-135.3598807994933
 10
60.38564095943396
 20
-135.3598807994933
 10
60.56943817696712
 20
-135.1786588550943
 10
60.56943817696712
 20
-135.1786588550943
 10
60.56943817696712
 20
-135.1786588550943
 10
60.38564095943396
 20
-134.9967666329174
 10
60.38564095943396
 20
-134.9967666329174
 10
60.38564095943396
 20
-134.9967666329174
 10
60.56943817696712
 20
-134.8155446885184
 10
60.56943817696712
 20
-134.8155446885184
 10
60.56943817696712
 20
-134.8155446885184
 10
60.38564095943396
 20
-134.6343227441194
 10
60.38564095943396
 20
-134.6343227441194
 10
60.38564095943396
 20
-134.6343227441194
 10
60.56943817696712
 20
-134.4524305219425
 10
60.56943817696712
 20
-134.4524305219425
 10
60.56943817696712
 20
-134.4524305219425
 10
60.38564095943396
 20
-134.2705382997655
 10
60.38564095943396
 20
-134.2705382997655
 10
60.38564095943396
 20
-134.2705382997655
 10
60.56943817696712
 20
-134.0893163553665
 10
60.56943817696712
 20
-134.0893163553665
 10
60.56943817696712
 20
-134.0893163553665
 10
60.38564095943396
 20
-133.9080944109675
 10
60.38564095943396
 20
-133.9080944109675
 10
60.38564095943396
 20
-133.9080944109675
 10
60.56943817696712
 20
-133.7262021887906
 10
60.56943817696712
 20
-133.7262021887906
 10
60.56943817696712
 20
-133.7262021887906
 10
60.38564095943396
 20
-133.5443099666142
 10
60.38564095943396
 20
-133.5443099666142
 10
60.38564095943396
 20
-133.5443099666142
 10
60.56943817696712
 20
-133.3617121888817
 10
60.56943817696712
 20
-133.3617121888817
 10
60.56943817696712
 20
-133.3617121888817
 10
60.38564095943396
 20
-133.1804902444828
 10
60.38564095943396
 20
-133.1804902444828
 10
60.38564095943396
 20
-133.1804902444828
 10
60.56943817696712
 20
-132.9985980223058
 10
60.56943817696712
 20
-132.9985980223058
 10
60.56943817696712
 20
-132.9985980223058
 10
60.38564095943396
 20
-132.8173760779068
 10
60.38564095943396
 20
-132.8173760779068
 10
60.38564095943396
 20
-132.8173760779068
 10
60.56943817696712
 20
-132.6354838557299
 10
60.56943817696712
 20
-132.6354838557299
 10
60.56943817696712
 20
-132.6354838557299
 10
60.38564095943396
 20
-132.4542619113309
 10
60.38564095943396
 20
-132.4542619113309
 10
60.38564095943396
 20
-132.4542619113309
 10
60.56943817696712
 20
-132.2723696891539
 10
60.56943817696712
 20
-132.2723696891539
 10
60.56943817696712
 20
-132.2723696891539
 10
60.38564095943396
 20
-132.0918533003105
 10
60.38564095943396
 20
-132.0918533003105
 10
60.38564095943396
 20
-132.0918533003105
 10
60.56943817696712
 20
-131.9099610781335
 10
60.56943817696712
 20
-131.9099610781335
 10
60.56943817696712
 20
-131.9099610781335
 10
60.38564095943396
 20
-131.7287391337345
 10
60.38564095943396
 20
-131.7287391337345
 10
60.38564095943396
 20
-131.7287391337345
 10
60.56943817696712
 20
-131.5475171893356
 10
60.56943817696712
 20
-131.5475171893356
 10
60.56943817696712
 20
-131.5475171893356
 10
60.38564095943396
 20
-131.3663305227141
 10
60.38564095943396
 20
-131.3663305227141
 10
60.38564095943396
 20
-131.3663305227141
 10
60.56943817696712
 20
-131.1851085783152
 10
60.56943817696712
 20
-131.1851085783152
 10
60.56943817696712
 20
-131.1851085783152
 10
60.24731679629623
 20
-131.1851085783152
 10
60.24731679629623
 20
-131.1851085783152
 10
60.24731679629623
 20
-131.1851085783152
 10
60.24731679629623
 20
-129.7257727453463
 10
60.24731679629623
 20
-129.7257727453463
 10
60.24731679629623
 20
-129.7257727453463
 10
86.33615001960354
 20
-120.2198933032785
 10
86.33615001960354
 20
-120.2198933032785
 10
86.33615001960354
 20
-120.2198933032785
 10
87.5540094329778
 20
-120.7752360809172
 10
87.5540094329778
 20
-120.7752360809172
 10
87.5540094329778
 20
-120.7752360809172
 10
87.5540094329778
 20
-119.7878816367197
 10
87.5540094329778
 20
-119.7878816367197
 10
87.5540094329778
 20
-119.7878816367197
 10
112.8699418426701
 20
-110.5729380279122
 10
112.8699418426701
 20
-110.5729380279122
 10
113.3774126630568
 20
-110.5729380279122
 10
113.7887515414515
 20
-110.984947194476
 10
113.7887515414515
 20
-111.4934410832377
 97
        0
 72
     1
 10
113.7887515414515
 20
-111.4934410832377
 11
113.7887515414515
 21
-111.4934410832377
 97
        0
 75
     2
 76
     1
 98
        0
  0
INSERT
  5
48
330
41
100
AcDbEntity
  8
_U+30EC_U+30A4_U+30E4_U+30FC 1
100
AcDbBlockReference
  2
block 3
 10
0.0
 20
0.0
 30
0.0
  0
INSERT
  5
DB
330
41
100
AcDbEntity
  8
_U+30EC_U+30A4_U+30E4_U+30FC 1
100
AcDbBlockReference
  2
block 6
 10
0.0
 20
0.0
 30
0.0
  0
ENDBLK
  5
44
330
41
100
AcDbEntity
  8
0
100
AcDbBlockEnd
  0
BLOCK
  5
49
330
47
100
AcDbEntity
  8
0
100
AcDbBlockBegin
  2
block 3
 70
     0
 10
0.0
 20
0.0
 30
0.0
  3
block 3
  1

  0
INSERT
  5
4C
330
47
100
AcDbEntity
  8
_U+30EC_U+30A4_U+30E4_U+30FC 1
100
AcDbBlockReference
  2
block 4
 10
0.0
 20
0.0
 30
0.0
  0
INSERT
  5
C2
330
47
100
AcDbEntity
  8
_U+30EC_U+30A4_U+30E4_U+30FC 1
100
AcDbBlockReference
  2
block 5
 10
0.0
 20
0.0
 30
0.0
  0
POLYLINE
  5
CB
330
47
100
AcDbEntity
  8
_U+30EC_U+30A4_U+30E4_U+30FC 1
 62
   179
420
  2234388
370
    25
100
AcDb2dPolyline
 66
     1
 10
0.0
 20
0.0
 30
0.0
  0
VERTEX
  5
CC
330
CB
100
AcDbEntity
  8
_U+30EC_U+30A4_U+30E4_U+30FC 1
 62
   179
420
  2234388
370
    25
100
AcDbVertex
100
AcDb2dVertex
 10
60.24731679629623
 20
-129.7257727453463
 30
0.0
  0
VERTEX
  5
CD
330
CB
100
AcDbEntity
  8
_U+30EC_U+30A4_U+30E4_U+30FC 1
 62
   179
420
  2234388
370
    25
100
AcDbVertex
100
AcDb2dVertex
 10
86.33615001960354
 20
-120.2198933032785
 30
0.0
  0
VERTEX
  5
CE
330
CB
100
AcDbEntity
  8
_U+30EC_U+30A4_U+30E4_U+30FC 1
 62
   179
420
  2234388
370
    25
100
AcDbVertex
100
AcDb2dVertex
 10
87.5540094329778
 20
-120.775412469806
 30
0.0
  0
VERTEX
  5
CF
330
CB
100
AcDbEntity
  8
_U+30EC_U+30A4_U+30E4_U+30FC 1
 62
   179
420
  2234388
370
    25
100
AcDbVertex
100
AcDb2dVertex
 10
87.5540094329778
 20
-119.7877052478308
 30
0.0
  0
VERTEX
  5
D0
330
CB
100
AcDbEntity
  8
_U+30EC_U+30A4_U+30E4_U+30FC 1
 62
   179
420
  2234388
370
    25
100
AcDbVertex
100
AcDb2dVertex
 10
112.8699418426701
 20
-110.5727616390233
 30
0.0
  0
SEQEND
  5
D1
330
CB
100
AcDbEntity
  8
_U+30EC_U+30A4_U+30E4_U+30FC 1
 62
   179
420
  2234388
370
    25
  0
POLYLINE
  5
D2
330
47
100
AcDbEntity
  8
_U+30EC_U+30A4_U+30E4_U+30FC 1
 62
   179
420
  2234388
370
    25
100
AcDb2dPolyline
 66
     1
 10
0.0
 20
0.0
 30
0.0
  0
VERTEX
  5
D3
330
D2
100
AcDbEntity
  8
_U+30EC_U+30A4_U+30E4_U+30FC 1
 62
   179
420
  2234388
370
    25
100
AcDbVertex
100
AcDb2dVertex
 10
61.04364205375806
 20
-150.7256813512074
 30
0.0
  0
VERTEX
  5
D4
330
D2
100
AcDbEntity
  8
_U+30EC_U+30A4_U+30E4_U+30FC 1
 62
   179
420
  2234388
370
    25
100
AcDbVertex
100
AcDb2dVertex
 10
113.624077749372
 20
-131.5385566337821
 30
0.0
  0
SEQEND
  5
D5
330
D2
100
AcDbEntity
  8
_U+30EC_U+30A4_U+30E4_U+30FC 1
 62
   179
420
  2234388
370
    25
  0
POLYLINE
  5
D6
330
47
100
AcDbEntity
  8
_U+30EC_U+30A4_U+30E4_U+30FC 1
 62
   179
420
  2234388
370
    25
100
AcDb2dPolyline
 66
     1
 10
0.0
 20
0.0
 30
0.0
  0
VERTEX
  5
D7
330
D6
100
AcDbEntity
  8
_U+30EC_U+30A4_U+30E4_U+30FC 1
 62
   179
420
  2234388
370
    25
100
AcDbVertex
100
AcDb2dVertex
 10
61.31909093561966
 20
-130.344509689636
 30
0.0
  0
VERTEX
  5
D8
330
D6
100
AcDbEntity
  8
_U+30EC_U+30A4_U+30E4_U+30FC 1
 62
   179
420
  2234388
370
    25
100
AcDbVertex
100
AcDb2dVertex
 10
113.7891043192203
 20
-111.3296463610565
 30
0.0
  0
SEQEND
  5
D9
330
D6
100
AcDbEntity
  8
_U+30EC_U+30A4_U+30E4_U+30FC 1
 62
   179
420
  2234388
370
    25
  0
ENDBLK
  5
4A
330
47
100
AcDbEntity
  8
0
100
AcDbBlockEnd
  0
BLOCK
  5
4D
330
4B
100
AcDbEntity
  8
0
100
AcDbBlockBegin
  2
block 4
 70
     0
 10
0.0
 20
0.0
 30
0.0
  3
block 4
  1

  0
POLYLINE
  5
4F
330
4B
100
AcDbEntity
  8
_U+30EC_U+30A4_U+30E4_U+30FC 1
 62
   179
420
  2234388
370
    25
100
AcDb2dPolyline
 66
     1
 10
0.0
 20
0.0
 30
0.0
  0
VERTEX
  5
50
330
4F
100
AcDbEntity
  8
_U+30EC_U+30A4_U+30E4_U+30FC 1
 62
   179
420
  2234388
370
    25
100
AcDbVertex
100
AcDb2dVertex
 10
60.56943817696712
 20
-131.1851085783152
 30
0.0
  0
VERTEX
  5
51
330
4F
100
AcDbEntity
  8
_U+30EC_U+30A4_U+30E4_U+30FC 1
 62
   179
420
  2234388
370
    25
100
AcDbVertex
100
AcDb2dVertex
 10
60.38564095943396
 20
-131.3663305227141
 30
0.0
  0
VERTEX
  5
52
330
4F
100
AcDbEntity
  8
_U+30EC_U+30A4_U+30E4_U+30FC 1
 62
   179
420
  2234388
370
    25
100
AcDbVertex
100
AcDb2dVertex
 10
60.56943817696712
 20
-131.5475171893356
 30
0.0
  0
VERTEX
  5
53
330
4F
100
AcDbEntity
  8
_U+30EC_U+30A4_U+30E4_U+30FC 1
 62
   179
420
  2234388
370
    25
100
AcDbVertex
100
AcDb2dVertex
 10
60.38564095943396
 20
-131.7287391337345
 30
0.0
  0
VERTEX
  5
54
330
4F
100
AcDbEntity
  8
_U+30EC_U+30A4_U+30E4_U+30FC 1
 62
   179
420
  2234388
370
    25
100
AcDbVertex
100
AcDb2dVertex
 10
60.56943817696712
 20
-131.9099610781335
 30
0.0
  0
VERTEX
  5
55
330
4F
100
AcDbEntity
  8
_U+30EC_U+30A4_U+30E4_U+30FC 1
 62
   179
420
  2234388
370
    25
100
AcDbVertex
100
AcDb2dVertex
 10
60.38564095943396
 20
-132.0918533003105
 30
0.0
  0
VERTEX
  5
56
330
4F
100
AcDbEntity
  8
_U+30EC_U+30A4_U+30E4_U+30FC 1
 62
   179
420
  2234388
370
    25
100
AcDbVertex
100
AcDb2dVertex
 10
60.56943817696712
 20
-132.2723696891539
 30
0.0
  0
VERTEX
  5
57
330
4F
100
AcDbEntity
  8
_U+30EC_U+30A4_U+30E4_U+30FC 1
 62
   179
420
  2234388
370
    25
100
AcDbVertex
100
AcDb2dVertex
 10
60.38564095943396
 20
-132.4542619113309
 30
0.0
  0
VERTEX
  5
58
330
4F
100
AcDbEntity
  8
_U+30EC_U+30A4_U+30E4_U+30FC 1
 62
   179
420
  2234388
370
    25
100
AcDbVertex
100
AcDb2dVertex
 10
60.56943817696712
 20
-132.6354838557299
 30
0.0
  0
VERTEX
  5
59
330
4F
100
AcDbEntity
  8
_U+30EC_U+30A4_U+30E4_U+30FC 1
 62
   179
420
  2234388
370
    25
100
AcDbVertex
100
AcDb2dVertex
 10
60.38564095943396
 20
-132.8173760779068
 30
0.0
  0
VERTEX
  5
5A
330
4F
100
AcDbEntity
  8
_U+30EC_U+30A4_U+30E4_U+30FC 1
 62
   179
420
  2234388
370
    25
100
AcDbVertex
100
AcDb2dVertex
 10
60.56943817696712
 20
-132.9985980223058
 30
0.0
  0
VERTEX
  5
5B
330
4F
100
AcDbEntity
  8
_U+30EC_U+30A4_U+30E4_U+30FC 1
 62
   179
420
  2234388
370
    25
100
AcDbVertex
100
AcDb2dVertex
 10
60.38564095943396
 20
-133.1804902444828
 30
0.0
  0
VERTEX
  5
5C
330
4F
100
AcDbEntity
  8
_U+30EC_U+30A4_U+30E4_U+30FC 1
 62
   179
420
  2234388
370
    25
100
AcDbVertex
100
AcDb2dVertex
 10
60.56943817696712
 20
-133.3617121888817
 30
0.0
  0
VERTEX
  5
5D
330
4F
100
AcDbEntity
  8
_U+30EC_U+30A4_U+30E4_U+30FC 1
 62
   179
420
  2234388
370
    25
100
AcDbVertex
100
AcDb2dVertex
 10
60.38564095943396
 20
-133.5443099666142
 30
0.0
  0
VERTEX
  5
5E
330
4F
100
AcDbEntity
  8
_U+30EC_U+30A4_U+30E4_U+30FC 1
 62
   179
420
  2234388
370
    25
100
AcDbVertex
100
AcDb2dVertex
 10
60.56943817696712
 20
-133.7262021887906
 30
0.0
  0
VERTEX
  5
5F
330
4F
100
AcDbEntity
  8
_U+30EC_U+30A4_U+30E4_U+30FC 1
 62
   179
420
  2234388
370
    25
100
AcDbVertex
100
AcDb2dVertex
 10
60.38564095943396
 20
-133.9080944109675
 30
0.0
  0
VERTEX
  5
60
330
4F
100
AcDbEntity
  8
_U+30EC_U+30A4_U+30E4_U+30FC 1
 62
   179
420
  2234388
370
    25
100
AcDbVertex
100
AcDb2dVertex
 10
60.56943817696712
 20
-134.0893163553665
 30
0.0
  0
VERTEX
  5
61
330
4F
100
AcDbEntity
  8
_U+30EC_U+30A4_U+30E4_U+30FC 1
 62
   179
420
  2234388
370
    25
100
AcDbVertex
100
AcDb2dVertex
 10
60.38564095943396
 20
-134.2705382997655
 30
0.0
  0
VERTEX
  5
62
330
4F
100
AcDbEntity
  8
_U+30EC_U+30A4_U+30E4_U+30FC 1
 62
   179
420
  2234388
370
    25
100
AcDbVertex
100
AcDb2dVertex
 10
60.56943817696712
 20
-134.4524305219425
 30
0.0
  0
VERTEX
  5
63
330
4F
100
AcDbEntity
  8
_U+30EC_U+30A4_U+30E4_U+30FC 1
 62
   179
420
  2234388
370
    25
100
AcDbVertex
100
AcDb2dVertex
 10
60.38564095943396
 20
-134.6343227441194
 30
0.0
  0
VERTEX
  5
64
330
4F
100
AcDbEntity
  8
_U+30EC_U+30A4_U+30E4_U+30FC 1
 62
   179
420
  2234388
370
    25
100
AcDbVertex
100
AcDb2dVertex
 10
60.56943817696712
 20
-134.8155446885184
 30
0.0
  0
VERTEX
  5
65
330
4F
100
AcDbEntity
  8
_U+30EC_U+30A4_U+30E4_U+30FC 1
 62
   179
420
  2234388
370
    25
100
AcDbVertex
100
AcDb2dVertex
 10
60.38564095943396
 20
-134.9967666329174
 30
0.0
  0
VERTEX
  5
66
330
4F
100
AcDbEntity
  8
_U+30EC_U+30A4_U+30E4_U+30FC 1
 62
   179
420
  2234388
370
    25
100
AcDbVertex
100
AcDb2dVertex
 10
60.56943817696712
 20
-135.1786588550943
 30
0.0
  0
VERTEX
  5
67
330
4F
100
AcDbEntity
  8
_U+30EC_U+30A4_U+30E4_U+30FC 1
 62
   179
420
  2234388
370
    25
100
AcDbVertex
100
AcDb2dVertex
 10
60.38564095943396
 20
-135.3598807994933
 30
0.0
  0
VERTEX
  5
68
330
4F
100
AcDbEntity
  8
_U+30EC_U+30A4_U+30E4_U+30FC 1
 62
   179
420
  2234388
370
    25
100
AcDbVertex
100
AcDb2dVertex
 10
60.56943817696712
 20
-135.5410674661148
 30
0.0
  0
VERTEX
  5
69
330
4F
100
AcDbEntity
  8
_U+30EC_U+30A4_U+30E4_U+30FC 1
 62
   179
420
  2234388
370
    25
100
AcDbVertex
100
AcDb2dVertex
 10
60.38564095943396
 20
-135.7229949660693
 30
0.0
  0
VERTEX
  5
6A
330
4F
100
AcDbEntity
  8
_U+30EC_U+30A4_U+30E4_U+30FC 1
 62
   179
420
  2234388
370
    25
100
AcDbVertex
100
AcDb2dVertex
 10
60.56943817696712
 20
-135.9041816326907
 30
0.0
  0
VERTEX
  5
6B
330
4F
100
AcDbEntity
  8
_U+30EC_U+30A4_U+30E4_U+30FC 1
 62
   179
420
  2234388
370
    25
100
AcDbVertex
100
AcDb2dVertex
 10
60.38564095943396
 20
-136.0861091326452
 30
0.0
  0
VERTEX
  5
6C
330
4F
100
AcDbEntity
  8
_U+30EC_U+30A4_U+30E4_U+30FC 1
 62
   179
420
  2234388
370
    25
100
AcDbVertex
100
AcDb2dVertex
 10
60.56943817696712
 20
-136.2672957992666
 30
0.0
  0
VERTEX
  5
6D
330
4F
100
AcDbEntity
  8
_U+30EC_U+30A4_U+30E4_U+30FC 1
 62
   179
420
  2234388
370
    25
100
AcDbVertex
100
AcDb2dVertex
 10
60.38564095943396
 20
-136.4492232992211
 30
0.0
  0
VERTEX
  5
6E
330
4F
100
AcDbEntity
  8
_U+30EC_U+30A4_U+30E4_U+30FC 1
 62
   179
420
  2234388
370
    25
100
AcDbVertex
100
AcDb2dVertex
 10
60.56943817696712
 20
-136.6317857991754
 30
0.0
  0
VERTEX
  5
6F
330
4F
100
AcDbEntity
  8
_U+30EC_U+30A4_U+30E4_U+30FC 1
 62
   179
420
  2234388
370
    25
100
AcDbVertex
100
AcDb2dVertex
 10
60.38564095943396
 20
-136.8130077435744
 30
0.0
  0
VERTEX
  5
70
330
4F
100
AcDbEntity
  8
_U+30EC_U+30A4_U+30E4_U+30FC 1
 62
   179
420
  2234388
370
    25
100
AcDbVertex
100
AcDb2dVertex
 10
60.56943817696712
 20
-136.9948999657514
 30
0.0
  0
VERTEX
  5
71
330
4F
100
AcDbEntity
  8
_U+30EC_U+30A4_U+30E4_U+30FC 1
 62
   179
420
  2234388
370
    25
100
AcDbVertex
100
AcDb2dVertex
 10
60.38564095943396
 20
-137.1768274657059
 30
0.0
  0
VERTEX
  5
72
330
4F
100
AcDbEntity
  8
_U+30EC_U+30A4_U+30E4_U+30FC 1
 62
   179
420
  2234388
370
    25
100
AcDbVertex
100
AcDb2dVertex
 10
60.56943817696712
 20
-137.3587196878829
 30
0.0
  0
VERTEX
  5
73
330
4F
100
AcDbEntity
  8
_U+30EC_U+30A4_U+30E4_U+30FC 1
 62
   179
420
  2234388
370
    25
100
AcDbVertex
100
AcDb2dVertex
 10
60.38564095943396
 20
-137.5406119100592
 30
0.0
  0
VERTEX
  5
74
330
4F
100
AcDbEntity
  8
_U+30EC_U+30A4_U+30E4_U+30FC 1
 62
   179
420
  2234388
370
    25
100
AcDbVertex
100
AcDb2dVertex
 10
60.56943817696712
 20
-137.7225041322362
 30
0.0
  0
VERTEX
  5
75
330
4F
100
AcDbEntity
  8
_U+30EC_U+30A4_U+30E4_U+30FC 1
 62
   179
420
  2234388
370
    25
100
AcDbVertex
100
AcDb2dVertex
 10
60.38564095943396
 20
-137.9037260766351
 30
0.0
  0
VERTEX
  5
76
330
4F
100
AcDbEntity
  8
_U+30EC_U+30A4_U+30E4_U+30FC 1
 62
   179
420
  2234388
370
    25
100
AcDbVertex
100
AcDb2dVertex
 10
60.56943817696712
 20
-138.0856182988121
 30
0.0
  0
VERTEX
  5
77
330
4F
100
AcDbEntity
  8
_U+30EC_U+30A4_U+30E4_U+30FC 1
 62
   179
420
  2234388
370
    25
100
AcDbVertex
100
AcDb2dVertex
 10
60.38564095943396
 20
-138.2668402432111
 30
0.0
  0
VERTEX
  5
78
330
4F
100
AcDbEntity
  8
_U+30EC_U+30A4_U+30E4_U+30FC 1
 62
   179
420
  2234388
370
    25
100
AcDbVertex
100
AcDb2dVertex
 10
60.56943817696712
 20
-138.448732465388
 30
0.0
  0
VERTEX
  5
79
330
4F
100
AcDbEntity
  8
_U+30EC_U+30A4_U+30E4_U+30FC 1
 62
   179
420
  2234388
370
    25
100
AcDbVertex
100
AcDb2dVertex
 10
60.38564095943396
 20
-138.629954409787
 30
0.0
  0
VERTEX
  5
7A
330
4F
100
AcDbEntity
  8
_U+30EC_U+30A4_U+30E4_U+30FC 1
 62
   179
420
  2234388
370
    25
100
AcDbVertex
100
AcDb2dVertex
 10
60.56943817696712
 20
-138.811846631964
 30
0.0
  0
VERTEX
  5
7B
330
4F
100
AcDbEntity
  8
_U+30EC_U+30A4_U+30E4_U+30FC 1
 62
   179
420
  2234388
370
    25
100
AcDbVertex
100
AcDb2dVertex
 10
60.38564095943396
 20
-138.9937388541403
 30
0.0
  0
VERTEX
  5
7C
330
4F
100
AcDbEntity
  8
_U+30EC_U+30A4_U+30E4_U+30FC 1
 62
   179
420
  2234388
370
    25
100
AcDbVertex
100
AcDb2dVertex
 10
60.56943817696712
 20
-139.1763366318728
 30
0.0
  0
VERTEX
  5
7D
330
4F
100
AcDbEntity
  8
_U+30EC_U+30A4_U+30E4_U+30FC 1
 62
   179
420
  2234388
370
    25
100
AcDbVertex
100
AcDb2dVertex
 10
60.38564095943396
 20
-139.3582641318273
 30
0.0
  0
VERTEX
  5
7E
330
4F
100
AcDbEntity
  8
_U+30EC_U+30A4_U+30E4_U+30FC 1
 62
   179
420
  2234388
370
    25
100
AcDbVertex
100
AcDb2dVertex
 10
60.56943817696712
 20
-139.5401563540036
 30
0.0
  0
VERTEX
  5
7F
330
4F
100
AcDbEntity
  8
_U+30EC_U+30A4_U+30E4_U+30FC 1
 62
   179
420
  2234388
370
    25
100
AcDbVertex
100
AcDb2dVertex
 10
60.38564095943396
 20
-139.7220485761806
 30
0.0
  0
VERTEX
  5
80
330
4F
100
AcDbEntity
  8
_U+30EC_U+30A4_U+30E4_U+30FC 1
 62
   179
420
  2234388
370
    25
100
AcDbVertex
100
AcDb2dVertex
 10
60.56943817696712
 20
-139.9032705205796
 30
0.0
  0
VERTEX
  5
81
330
4F
100
AcDbEntity
  8
_U+30EC_U+30A4_U+30E4_U+30FC 1
 62
   179
420
  2234388
370
    25
100
AcDbVertex
100
AcDb2dVertex
 10
60.38564095943396
 20
-140.0851627427566
 30
0.0
  0
VERTEX
  5
82
330
4F
100
AcDbEntity
  8
_U+30EC_U+30A4_U+30E4_U+30FC 1
 62
   179
420
  2234388
370
    25
100
AcDbVertex
100
AcDb2dVertex
 10
60.56943817696712
 20
-140.2677605204884
 30
0.0
  0
VERTEX
  5
83
330
4F
100
AcDbEntity
  8
_U+30EC_U+30A4_U+30E4_U+30FC 1
 62
   179
420
  2234388
370
    25
100
AcDbVertex
100
AcDb2dVertex
 10
60.38564095943396
 20
-140.4489471871098
 30
0.0
  0
VERTEX
  5
84
330
4F
100
AcDbEntity
  8
_U+30EC_U+30A4_U+30E4_U+30FC 1
 62
   179
420
  2234388
370
    25
100
AcDbVertex
100
AcDb2dVertex
 10
60.56943817696712
 20
-140.6308746870643
 30
0.0
  0
VERTEX
  5
85
330
4F
100
AcDbEntity
  8
_U+30EC_U+30A4_U+30E4_U+30FC 1
 62
   179
420
  2234388
370
    25
100
AcDbVertex
100
AcDb2dVertex
 10
60.38564095943396
 20
-140.8127669092413
 30
0.0
  0
VERTEX
  5
86
330
4F
100
AcDbEntity
  8
_U+30EC_U+30A4_U+30E4_U+30FC 1
 62
   179
420
  2234388
370
    25
100
AcDbVertex
100
AcDb2dVertex
 10
60.56943817696712
 20
-140.9946591314183
 30
0.0
  0
VERTEX
  5
87
330
4F
100
AcDbEntity
  8
_U+30EC_U+30A4_U+30E4_U+30FC 1
 62
   179
420
  2234388
370
    25
100
AcDbVertex
100
AcDb2dVertex
 10
60.38564095943396
 20
-141.1772569091501
 30
0.0
  0
VERTEX
  5
88
330
4F
100
AcDbEntity
  8
_U+30EC_U+30A4_U+30E4_U+30FC 1
 62
   179
420
  2234388
370
    25
100
AcDbVertex
100
AcDb2dVertex
 10
60.56943817696712
 20
-141.3591491313271
 30
0.0
  0
VERTEX
  5
89
330
4F
100
AcDbEntity
  8
_U+30EC_U+30A4_U+30E4_U+30FC 1
 62
   179
420
  2234388
370
    25
100
AcDbVertex
100
AcDb2dVertex
 10
60.38564095943396
 20
-141.5403710757261
 30
0.0
  0
VERTEX
  5
8A
330
4F
100
AcDbEntity
  8
_U+30EC_U+30A4_U+30E4_U+30FC 1
 62
   179
420
  2234388
370
    25
100
AcDbVertex
100
AcDb2dVertex
 10
60.56943817696712
 20
-141.7222632979031
 30
0.0
  0
VERTEX
  5
8B
330
4F
100
AcDbEntity
  8
_U+30EC_U+30A4_U+30E4_U+30FC 1
 62
   179
420
  2234388
370
    25
100
AcDbVertex
100
AcDb2dVertex
 10
60.38564095943396
 20
-141.9041555200794
 30
0.0
  0
VERTEX
  5
8C
330
4F
100
AcDbEntity
  8
_U+30EC_U+30A4_U+30E4_U+30FC 1
 62
   179
420
  2234388
370
    25
100
AcDbVertex
100
AcDb2dVertex
 10
60.56943817696712
 20
-142.0860830200339
 30
0.0
  0
VERTEX
  5
8D
330
4F
100
AcDbEntity
  8
_U+30EC_U+30A4_U+30E4_U+30FC 1
 62
   179
420
  2234388
370
    25
100
AcDbVertex
100
AcDb2dVertex
 10
60.38564095943396
 20
-142.2686807977664
 30
0.0
  0
VERTEX
  5
8E
330
4F
100
AcDbEntity
  8
_U+30EC_U+30A4_U+30E4_U+30FC 1
 62
   179
420
  2234388
370
    25
100
AcDbVertex
100
AcDb2dVertex
 10
60.56943817696712
 20
-142.4505730199427
 30
0.0
  0
VERTEX
  5
8F
330
4F
100
AcDbEntity
  8
_U+30EC_U+30A4_U+30E4_U+30FC 1
 62
   179
420
  2234388
370
    25
100
AcDbVertex
100
AcDb2dVertex
 10
60.38564095943396
 20
-142.6324652421197
 30
0.0
  0
VERTEX
  5
90
330
4F
100
AcDbEntity
  8
_U+30EC_U+30A4_U+30E4_U+30FC 1
 62
   179
420
  2234388
370
    25
100
AcDbVertex
100
AcDb2dVertex
 10
60.56943817696712
 20
-142.8143574642966
 30
0.0
  0
VERTEX
  5
91
330
4F
100
AcDbEntity
  8
_U+30EC_U+30A4_U+30E4_U+30FC 1
 62
   179
420
  2234388
370
    25
100
AcDbVertex
100
AcDb2dVertex
 10
60.38564095943396
 20
-142.9969552420285
 30
0.0
  0
VERTEX
  5
92
330
4F
100
AcDbEntity
  8
_U+30EC_U+30A4_U+30E4_U+30FC 1
 62
   179
420
  2234388
370
    25
100
AcDbVertex
100
AcDb2dVertex
 10
60.56943817696712
 20
-143.1781771864275
 30
0.0
  0
VERTEX
  5
93
330
4F
100
AcDbEntity
  8
_U+30EC_U+30A4_U+30E4_U+30FC 1
 62
   179
420
  2234388
370
    25
100
AcDbVertex
100
AcDb2dVertex
 10
60.38564095943396
 20
-143.3593638530489
 30
0.0
  0
VERTEX
  5
94
330
4F
100
AcDbEntity
  8
_U+30EC_U+30A4_U+30E4_U+30FC 1
 62
   179
420
  2234388
370
    25
100
AcDbVertex
100
AcDb2dVertex
 10
60.56943817696712
 20
-143.5405857974479
 30
0.0
  0
VERTEX
  5
95
330
4F
100
AcDbEntity
  8
_U+30EC_U+30A4_U+30E4_U+30FC 1
 62
   179
420
  2234388
370
    25
100
AcDbVertex
100
AcDb2dVertex
 10
60.38564095943396
 20
-143.7218077418475
 30
0.0
  0
VERTEX
  5
96
330
4F
100
AcDbEntity
  8
_U+30EC_U+30A4_U+30E4_U+30FC 1
 62
   179
420
  2234388
370
    25
100
AcDbVertex
100
AcDb2dVertex
 10
60.56943817696712
 20
-143.9036999640238
 30
0.0
  0
VERTEX
  5
97
330
4F
100
AcDbEntity
  8
_U+30EC_U+30A4_U+30E4_U+30FC 1
 62
   179
420
  2234388
370
    25
100
AcDbVertex
100
AcDb2dVertex
 10
60.38564095943396
 20
-144.0855921862008
 30
0.0
  0
VERTEX
  5
98
330
4F
100
AcDbEntity
  8
_U+30EC_U+30A4_U+30E4_U+30FC 1
 62
   179
420
  2234388
370
    25
100
AcDbVertex
100
AcDb2dVertex
 10
60.56943817696712
 20
-144.2681899639327
 30
0.0
  0
VERTEX
  5
99
330
4F
100
AcDbEntity
  8
_U+30EC_U+30A4_U+30E4_U+30FC 1
 62
   179
420
  2234388
370
    25
100
AcDbVertex
100
AcDb2dVertex
 10
60.38564095943396
 20
-144.4500821861096
 30
0.0
  0
VERTEX
  5
9A
330
4F
100
AcDbEntity
  8
_U+30EC_U+30A4_U+30E4_U+30FC 1
 62
   179
420
  2234388
370
    25
100
AcDbVertex
100
AcDb2dVertex
 10
60.56943817696712
 20
-144.6320096860641
 30
0.0
  0
VERTEX
  5
9B
330
4F
100
AcDbEntity
  8
_U+30EC_U+30A4_U+30E4_U+30FC 1
 62
   179
420
  2234388
370
    25
100
AcDbVertex
100
AcDb2dVertex
 10
60.38564095943396
 20
-144.8139019082411
 30
0.0
  0
VERTEX
  5
9C
330
4F
100
AcDbEntity
  8
_U+30EC_U+30A4_U+30E4_U+30FC 1
 62
   179
420
  2234388
370
    25
100
AcDbVertex
100
AcDb2dVertex
 10
60.56943817696712
 20
-144.9957941304174
 30
0.0
  0
VERTEX
  5
9D
330
4F
100
AcDbEntity
  8
_U+30EC_U+30A4_U+30E4_U+30FC 1
 62
   179
420
  2234388
370
    25
100
AcDbVertex
100
AcDb2dVertex
 10
60.38564095943396
 20
-145.177016074817
 30
0.0
  0
VERTEX
  5
9E
330
4F
100
AcDbEntity
  8
_U+30EC_U+30A4_U+30E4_U+30FC 1
 62
   179
420
  2234388
370
    25
100
AcDbVertex
100
AcDb2dVertex
 10
60.56943817696712
 20
-145.3589082969933
 30
0.0
  0
VERTEX
  5
9F
330
4F
100
AcDbEntity
  8
_U+30EC_U+30A4_U+30E4_U+30FC 1
 62
   179
420
  2234388
370
    25
100
AcDbVertex
100
AcDb2dVertex
 10
60.38564095943396
 20
-145.5415060747258
 30
0.0
  0
VERTEX
  5
A0
330
4F
100
AcDbEntity
  8
_U+30EC_U+30A4_U+30E4_U+30FC 1
 62
   179
420
  2234388
370
    25
100
AcDbVertex
100
AcDb2dVertex
 10
60.56943817696712
 20
-145.7241038524577
 30
0.0
  0
VERTEX
  5
A1
330
4F
100
AcDbEntity
  8
_U+30EC_U+30A4_U+30E4_U+30FC 1
 62
   179
420
  2234388
370
    25
100
AcDbVertex
100
AcDb2dVertex
 10
60.38564095943396
 20
-145.9059960746347
 30
0.0
  0
VERTEX
  5
A2
330
4F
100
AcDbEntity
  8
_U+30EC_U+30A4_U+30E4_U+30FC 1
 62
   179
420
  2234388
370
    25
100
AcDbVertex
100
AcDb2dVertex
 10
60.56943817696712
 20
-146.0878882968117
 30
0.0
  0
VERTEX
  5
A3
330
4F
100
AcDbEntity
  8
_U+30EC_U+30A4_U+30E4_U+30FC 1
 62
   179
420
  2234388
370
    25
100
AcDbVertex
100
AcDb2dVertex
 10
60.38564095943396
 20
-146.269780518988
 30
0.0
  0
VERTEX
  5
A4
330
4F
100
AcDbEntity
  8
_U+30EC_U+30A4_U+30E4_U+30FC 1
 62
   179
420
  2234388
370
    25
100
AcDbVertex
100
AcDb2dVertex
 10
60.56943817696712
 20
-146.4523782967205
 30
0.0
  0
VERTEX
  5
A5
330
4F
100
AcDbEntity
  8
_U+30EC_U+30A4_U+30E4_U+30FC 1
 62
   179
420
  2234388
370
    25
100
AcDbVertex
100
AcDb2dVertex
 10
60.38564095943396
 20
-146.634305796675
 30
0.0
  0
VERTEX
  5
A6
330
4F
100
AcDbEntity
  8
_U+30EC_U+30A4_U+30E4_U+30FC 1
 62
   179
420
  2234388
370
    25
100
AcDbVertex
100
AcDb2dVertex
 10
60.56943817696712
 20
-146.8168682966293
 30
0.0
  0
VERTEX
  5
A7
330
4F
100
AcDbEntity
  8
_U+30EC_U+30A4_U+30E4_U+30FC 1
 62
   179
420
  2234388
370
    25
100
AcDbVertex
100
AcDb2dVertex
 10
60.38564095943396
 20
-146.9994660743612
 30
0.0
  0
VERTEX
  5
A8
330
4F
100
AcDbEntity
  8
_U+30EC_U+30A4_U+30E4_U+30FC 1
 62
   179
420
  2234388
370
    25
100
AcDbVertex
100
AcDb2dVertex
 10
60.56943817696712
 20
-147.1813582965381
 30
0.0
  0
VERTEX
  5
A9
330
4F
100
AcDbEntity
  8
_U+30EC_U+30A4_U+30E4_U+30FC 1
 62
   179
420
  2234388
370
    25
100
AcDbVertex
100
AcDb2dVertex
 10
60.38564095943396
 20
-147.36395607427
 30
0.0
  0
VERTEX
  5
AA
330
4F
100
AcDbEntity
  8
_U+30EC_U+30A4_U+30E4_U+30FC 1
 62
   179
420
  2234388
370
    25
100
AcDbVertex
100
AcDb2dVertex
 10
60.56943817696712
 20
-147.5465538520025
 30
0.0
  0
VERTEX
  5
AB
330
4F
100
AcDbEntity
  8
_U+30EC_U+30A4_U+30E4_U+30FC 1
 62
   179
420
  2234388
370
    25
100
AcDbVertex
100
AcDb2dVertex
 10
60.38564095943396
 20
-147.7291516297343
 30
0.0
  0
VERTEX
  5
AC
330
4F
100
AcDbEntity
  8
_U+30EC_U+30A4_U+30E4_U+30FC 1
 62
   179
420
  2234388
370
    25
100
AcDbVertex
100
AcDb2dVertex
 10
60.56943817696712
 20
-147.9110438519113
 30
0.0
  0
SEQEND
  5
AD
330
4F
100
AcDbEntity
  8
_U+30EC_U+30A4_U+30E4_U+30FC 1
 62
   179
420
  2234388
370
    25
  0
POLYLINE
  5
AE
330
4B
100
AcDbEntity
  8
_U+30EC_U+30A4_U+30E4_U+30FC 1
 62
   179
420
  2234388
370
    25
100
AcDb2dPolyline
 66
     1
 10
0.0
 20
0.0
 30
0.0
  0
VERTEX
  5
AF
330
AE
100
AcDbEntity
  8
_U+30EC_U+30A4_U+30E4_U+30FC 1
 62
   179
420
  2234388
370
    25
100
AcDbVertex
100
AcDb2dVertex
 10
61.31909093561966
 20
-130.6469813562273
 30
0.0
  0
VERTEX
  5
B0
330
AE
100
AcDbEntity
  8
_U+30EC_U+30A4_U+30E4_U+30FC 1
 62
   179
420
  2234388
370
    25
100
AcDbVertex
100
AcDb2dVertex
 10
61.31909093561966
 20
-150.4500913512765
 30
0.0
  0
SEQEND
  5
B1
330
AE
100
AcDbEntity
  8
_U+30EC_U+30A4_U+30E4_U+30FC 1
 62
   179
420
  2234388
370
    25
  0
SPLINE
  5
B2
330
4B
100
AcDbEntity
  8
_U+30EC_U+30A4_U+30E4_U+30FC 1
 62
   179
420
  2234388
370
    25
100
AcDbSpline
210
0.0
220
0.0
230
1.0
 70
     8
 71
     3
 72
     8
 73
     4
 74
     0
 42
0.0000000001
 43
0.0000000001
 12
1.0
 22
0.0
 32
0.0
 13
1.0
 23
0.0
 33
0.0
 40
0.0
 40
0.0
 40
0.0
 40
0.0
 40
1.0
 40
1.0
 40
1.0
 40
1.0
 10
61.31909093561966
 20
-150.4500913512765
 30
0.0
 10
61.31909093561966
 20
-150.6023502401272
 30
0.0
 10
61.1955834387706
 20
-150.7256813512074
 30
0.0
 10
61.04364205375806
 20
-150.7256813512074
 30
0.0
  0
POLYLINE
  5
B3
330
4B
100
AcDbEntity
  8
_U+30EC_U+30A4_U+30E4_U+30FC 1
 62
   179
420
  2234388
370
    25
100
AcDb2dPolyline
 66
     1
 10
0.0
 20
0.0
 30
0.0
  0
VERTEX
  5
B4
330
B3
100
AcDbEntity
  8
_U+30EC_U+30A4_U+30E4_U+30FC 1
 62
   179
420
  2234388
370
    25
100
AcDbVertex
100
AcDb2dVertex
 10
61.04364205375806
 20
-150.7256813512074
 30
0.0
  0
VERTEX
  5
B5
330
B3
100
AcDbEntity
  8
_U+30EC_U+30A4_U+30E4_U+30FC 1
 62
   179
420
  2234388
370
    25
100
AcDbVertex
100
AcDb2dVertex
 10
60.77338054036212
 20
-150.7256813512074
 30
0.0
  0
VERTEX
  5
B6
330
B3
100
AcDbEntity
  8
_U+30EC_U+30A4_U+30E4_U+30FC 1
 62
   179
420
  2234388
370
    25
100
AcDbVertex
100
AcDb2dVertex
 10
60.24731679629623
 20
-149.4516949626368
 30
0.0
  0
VERTEX
  5
B7
330
B3
100
AcDbEntity
  8
_U+30EC_U+30A4_U+30E4_U+30FC 1
 62
   179
420
  2234388
370
    25
100
AcDbVertex
100
AcDb2dVertex
 10
60.24731679629623
 20
-147.9110438519113
 30
0.0
  0
VERTEX
  5
B8
330
B3
100
AcDbEntity
  8
_U+30EC_U+30A4_U+30E4_U+30FC 1
 62
   179
420
  2234388
370
    25
100
AcDbVertex
100
AcDb2dVertex
 10
60.56943817696712
 20
-147.9110438519113
 30
0.0
  0
SEQEND
  5
B9
330
B3
100
AcDbEntity
  8
_U+30EC_U+30A4_U+30E4_U+30FC 1
 62
   179
420
  2234388
370
    25
  0
POLYLINE
  5
BA
330
4B
100
AcDbEntity
  8
_U+30EC_U+30A4_U+30E4_U+30FC 1
 62
   179
420
  2234388
370
    25
100
AcDb2dPolyline
 66
     1
 10
0.0
 20
0.0
 30
0.0
  0
VERTEX
  5
BB
330
BA
100
AcDbEntity
  8
_U+30EC_U+30A4_U+30E4_U+30FC 1
 62
   179
420
  2234388
370
    25
100
AcDbVertex
100
AcDb2dVertex
 10
60.40028123683823
 20
-129.7257727453463
 30
0.0
  0
VERTEX
  5
BC
330
BA
100
AcDbEntity
  8
_U+30EC_U+30A4_U+30E4_U+30FC 1
 62
   179
420
  2234388
370
    25
100
AcDbVertex
100
AcDb2dVertex
 10
60.24731679629623
 20
-129.7257727453463
 30
0.0
  0
VERTEX
  5
BD
330
BA
100
AcDbEntity
  8
_U+30EC_U+30A4_U+30E4_U+30FC 1
 62
   179
420
  2234388
370
    25
100
AcDbVertex
100
AcDb2dVertex
 10
60.24731679629623
 20
-131.1851085783152
 30
0.0
  0
VERTEX
  5
BE
330
BA
100
AcDbEntity
  8
_U+30EC_U+30A4_U+30E4_U+30FC 1
 62
   179
420
  2234388
370
    25
100
AcDbVertex
100
AcDb2dVertex
 10
60.56943817696712
 20
-131.1851085783152
 30
0.0
  0
SEQEND
  5
BF
330
BA
100
AcDbEntity
  8
_U+30EC_U+30A4_U+30E4_U+30FC 1
 62
   179
420
  2234388
370
    25
  0
SPLINE
  5
C0
330
4B
100
AcDbEntity
  8
_U+30EC_U+30A4_U+30E4_U+30FC 1
 62
   179
420
  2234388
370
    25
100
AcDbSpline
210
0.0
220
0.0
230
1.0
 70
     8
 71
     3
 72
     8
 73
     4
 74
     0
 42
0.0000000001
 43
0.0000000001
 12
1.0
 22
0.0
 32
0.0
 13
1.0
 23
0.0
 33
0.0
 40
0.0
 40
0.0
 40
0.0
 40
0.0
 40
1.0
 40
1.0
 40
1.0
 40
1.0
 10
60.40028123683823
 20
-129.7257727453463
 30
0.0
 10
60.90757566834051
 20
-129.7257727453463
 30
0.0
 10
61.31909093561966
 20
-130.1384874674656
 30
0.0
 10
61.31909093561966
 20
-130.6469813562273
 30
0.0
  0
ENDBLK
  5
4E
330
4B
100
AcDbEntity
  8
0
100
AcDbBlockEnd
  0
BLOCK
  5
C3
330
C1
100
AcDbEntity
  8
0
100
AcDbBlockBegin
  2
block 5
 70
     0
 10
0.0
 20
0.0
 30
0.0
  3
block 5
  1

  0
POLYLINE
  5
C5
330
C1
100
AcDbEntity
  8
_U+30EC_U+30A4_U+30E4_U+30FC 1
 62
   179
420
  2234388
370
    25
100
AcDb2dPolyline
 66
     1
 10
0.0
 20
0.0
 30
0.0
  0
VERTEX
  5
C6
330
C5
100
AcDbEntity
  8
_U+30EC_U+30A4_U+30E4_U+30FC 1
 62
   179
420
  2234388
370
    25
100
AcDbVertex
100
AcDb2dVertex
 10
113.7887515414515
 20
-111.4934410832377
 30
0.0
  0
VERTEX
  5
C7
330
C5
100
AcDbEntity
  8
_U+30EC_U+30A4_U+30E4_U+30FC 1
 62
   179
420
  2234388
370
    25
100
AcDbVertex
100
AcDb2dVertex
 10
113.7887515414515
 20
-131.296727467176
 30
0.0
  0
SEQEND
  5
C8
330
C5
100
AcDbEntity
  8
_U+30EC_U+30A4_U+30E4_U+30FC 1
 62
   179
420
  2234388
370
    25
  0
SPLINE
  5
C9
330
C1
100
AcDbEntity
  8
_U+30EC_U+30A4_U+30E4_U+30FC 1
 62
   179
420
  2234388
370
    25
100
AcDbSpline
210
0.0
220
0.0
230
1.0
 70
     8
 71
     3
 72
     8
 73
     4
 74
     0
 42
0.0000000001
 43
0.0000000001
 12
1.0
 22
0.0
 32
0.0
 13
1.0
 23
0.0
 33
0.0
 40
0.0
 40
0.0
 40
0.0
 40
0.0
 40
1.0
 40
1.0
 40
1.0
 40
1.0
 10
113.7887515414515
 20
-131.296727467176
 30
0.0
 10
113.7887515414515
 20
-131.4489863560268
 30
0.0
 10
113.6654204334869
 20
-131.5730230226625
 30
0.0
 10
113.5131262707056
 20
-131.5730230226625
 30
0.0
  0
SPLINE
  5
CA
330
C1
100
AcDbEntity
  8
_U+30EC_U+30A4_U+30E4_U+30FC 1
 62
   179
420
  2234388
370
    25
100
AcDbSpline
210
0.0
220
0.0
230
1.0
 70
     8
 71
     3
 72
     8
 73
     4
 74
     0
 42
0.0000000001
 43
0.0000000001
 12
1.0
 22
0.0
 32
0.0
 13
1.0
 23
0.0
 33
0.0
 40
0.0
 40
0.0
 40
0.0
 40
0.0
 40
1.0
 40
1.0
 40
1.0
 40
1.0
 10
112.8699418426701
 20
-110.5727616390233
 30
0.0
 10
113.3774126630568
 20
-110.5727616390233
 30
0.0
 10
113.7887515414515
 20
-110.9851235833649
 30
0.0
 10
113.7887515414515
 20
-111.4934410832377
 30
0.0
  0
ENDBLK
  5
C4
330
C1
100
AcDbEntity
  8
0
100
AcDbBlockEnd
  0
BLOCK
  5
DC
330
DA
100
AcDbEntity
  8
0
100
AcDbBlockBegin
  2
block 6
 70
     0
 10
0.0
 20
0.0
 30
0.0
  3
block 6
  1

  0
POLYLINE
  5
DE
330
DA
100
AcDbEntity
  8
_U+30EC_U+30A4_U+30E4_U+30FC 1
 62
   179
420
  2234388
370
     9
100
AcDb2dPolyline
 66
     1
 10
0.0
 20
0.0
 30
0.0
  0
VERTEX
  5
DF
330
DE
100
AcDbEntity
  8
_U+30EC_U+30A4_U+30E4_U+30FC 1
 62
   179
420
  2234388
370
     9
100
AcDbVertex
100
AcDb2dVertex
 10
114.5659562438456
 20
-110.6978213612144
 30
0.0
  0
VERTEX
  5
E0
330
DE
100
AcDbEntity
  8
_U+30EC_U+30A4_U+30E4_U+30FC 1
 62
   179
420
  2234388
370
     9
100
AcDbVertex
100
AcDb2dVertex
 10
117.8057261611922
 20
-110.6978213612144
 30
0.0
  0
SEQEND
  5
E1
330
DE
100
AcDbEntity
  8
_U+30EC_U+30A4_U+30E4_U+30FC 1
 62
   179
420
  2234388
370
     9
  0
POLYLINE
  5
E2
330
DA
100
AcDbEntity
  8
_U+30EC_U+30A4_U+30E4_U+30FC 1
 62
   179
420
  2234388
370
     9
100
AcDb2dPolyline
 66
     1
 10
0.0
 20
0.0
 30
0.0
  0
VERTEX
  5
E3
330
E2
100
AcDbEntity
  8
_U+30EC_U+30A4_U+30E4_U+30FC 1
 62
   179
420
  2234388
370
     9
100
AcDbVertex
100
AcDb2dVertex
 10
114.5659562438456
 20
-131.5730230226625
 30
0.0
  0
VERTEX
  5
E4
330
E2
100
AcDbEntity
  8
_U+30EC_U+30A4_U+30E4_U+30FC 1
 62
   179
420
  2234388
370
     9
100
AcDbVertex
100
AcDb2dVertex
 10
117.8057261611922
 20
-131.5730230226625
 30
0.0
  0
SEQEND
  5
E5
330
E2
100
AcDbEntity
  8
_U+30EC_U+30A4_U+30E4_U+30FC 1
 62
   179
420
  2234388
370
     9
  0
POLYLINE
  5
E6
330
DA
100
AcDbEntity
  8
_U+30EC_U+30A4_U+30E4_U+30FC 1
 62
   179
420
  2234388
370
     9
100
AcDb2dPolyline
 66
     1
 10
0.0
 20
0.0
 30
0.0
  0
VERTEX
  5
E7
330
E6
100
AcDbEntity
  8
_U+30EC_U+30A4_U+30E4_U+30FC 1
 62
   179
420
  2234388
370
     9
100
AcDbVertex
100
AcDb2dVertex
 10
60.24731679629623
 20
-125.2063013575873
 30
0.0
  0
VERTEX
  5
E8
330
E6
100
AcDbEntity
  8
_U+30EC_U+30A4_U+30E4_U+30FC 1
 62
   179
420
  2234388
370
     9
100
AcDbVertex
100
AcDb2dVertex
 10
60.24731679629623
 20
-128.3041488568128
 30
0.0
  0
SEQEND
  5
E9
330
E6
100
AcDbEntity
  8
_U+30EC_U+30A4_U+30E4_U+30FC 1
 62
   179
420
  2234388
370
     9
  0
POLYLINE
  5
EA
330
DA
100
AcDbEntity
  8
_U+30EC_U+30A4_U+30E4_U+30FC 1
 62
   179
420
  2234388
370
     9
100
AcDb2dPolyline
 66
     1
 10
0.0
 20
0.0
 30
0.0
  0
VERTEX
  5
EB
330
EA
100
AcDbEntity
  8
_U+30EC_U+30A4_U+30E4_U+30FC 1
 62
   179
420
  2234388
370
     9
100
AcDbVertex
100
AcDb2dVertex
 10
60.24731679629623
 20
-125.2063013575873
 30
0.0
  0
VERTEX
  5
EC
330
EA
100
AcDbEntity
  8
_U+30EC_U+30A4_U+30E4_U+30FC 1
 62
   179
420
  2234388
370
     9
100
AcDbVertex
100
AcDb2dVertex
 10
60.24731679629623
 20
-128.3041488568128
 30
0.0
  0
SEQEND
  5
ED
330
EA
100
AcDbEntity
  8
_U+30EC_U+30A4_U+30E4_U+30FC 1
 62
   179
420
  2234388
370
     9
  0
POLYLINE
  5
EE
330
DA
100
AcDbEntity
  8
_U+30EC_U+30A4_U+30E4_U+30FC 1
 62
   179
420
  2234388
370
     9
100
AcDb2dPolyline
 66
     1
 10
0.0
 20
0.0
 30
0.0
  0
VERTEX
  5
EF
330
EE
100
AcDbEntity
  8
_U+30EC_U+30A4_U+30E4_U+30FC 1
 62
   179
420
  2234388
370
     9
100
AcDbVertex
100
AcDb2dVertex
 10
86.55854112504097
 20
-115.6170605266513
 30
0.0
  0
VERTEX
  5
F0
330
EE
100
AcDbEntity
  8
_U+30EC_U+30A4_U+30E4_U+30FC 1
 62
   179
420
  2234388
370
     9
100
AcDbVertex
100
AcDb2dVertex
 10
86.55854112504097
 20
-118.7148727480992
 30
0.0
  0
SEQEND
  5
F1
330
EE
100
AcDbEntity
  8
_U+30EC_U+30A4_U+30E4_U+30FC 1
 62
   179
420
  2234388
370
     9
  0
POLYLINE
  5
F2
330
DA
100
AcDbEntity
  8
_U+30EC_U+30A4_U+30E4_U+30FC 1
 62
   179
420
  2234388
370
     9
100
AcDb2dPolyline
 66
     1
 10
0.0
 20
0.0
 30
0.0
  0
VERTEX
  5
F3
330
F2
100
AcDbEntity
  8
_U+30EC_U+30A4_U+30E4_U+30FC 1
 62
   179
420
  2234388
370
     9
100
AcDbVertex
100
AcDb2dVertex
 10
112.8699418426701
 20
-106.0524435845981
 30
0.0
  0
VERTEX
  5
F4
330
F2
100
AcDbEntity
  8
_U+30EC_U+30A4_U+30E4_U+30FC 1
 62
   179
420
  2234388
370
     9
100
AcDbVertex
100
AcDb2dVertex
 10
112.8699418426701
 20
-109.1502558060457
 30
0.0
  0
SEQEND
  5
F5
330
F2
100
AcDbEntity
  8
_U+30EC_U+30A4_U+30E4_U+30FC 1
 62
   179
420
  2234388
370
     9
  0
POLYLINE
  5
F6
330
DA
100
AcDbEntity
  8
_U+30EC_U+30A4_U+30E4_U+30FC 1
 62
   179
420
  2234388
370
     9
100
AcDb2dPolyline
 66
     1
 10
0.0
 20
0.0
 30
0.0
  0
VERTEX
  5
F7
330
F6
100
AcDbEntity
  8
_U+30EC_U+30A4_U+30E4_U+30FC 1
 62
   179
420
  2234388
370
     9
100
AcDbVertex
100
AcDb2dVertex
 10
116.1858412025189
 20
-110.6978213612144
 30
0.0
  0
VERTEX
  5
F8
330
F6
100
AcDbEntity
  8
_U+30EC_U+30A4_U+30E4_U+30FC 1
 62
   179
420
  2234388
370
     9
100
AcDbVertex
100
AcDb2dVertex
 10
116.1858412025189
 20
-131.5730230226625
 30
0.0
  0
SEQEND
  5
F9
330
F6
100
AcDbEntity
  8
_U+30EC_U+30A4_U+30E4_U+30FC 1
 62
   179
420
  2234388
370
     9
  0
SPLINE
  5
FA
330
DA
100
AcDbEntity
  8
_U+30EC_U+30A4_U+30E4_U+30FC 1
370
     0
100
AcDbSpline
210
0.0
220
0.0
230
1.0
 70
    11
 71
     3
 72
    17
 73
    13
 74
     0
 42
0.0000000001
 43
0.0000000001
 12
1.0
 22
0.0
 32
0.0
 13
1.0
 23
0.0
 33
0.0
 40
0.0
 40
0.0
 40
0.0
 40
0.0
 40
1.0
 40
1.0
 40
1.0
 40
2.0
 40
2.0
 40
2.0
 40
3.0
 40
3.0
 40
3.0
 40
4.0
 40
4.0
 40
4.0
 40
4.0
 10
60.39735318135737
 20
-126.7627921905314
 30
0.0
 10
60.39735318135737
 20
-126.8458360793997
 30
0.0
 10
60.33014901640523
 20
-126.9130049682716
 30
0.0
 10
60.24714040741184
 20
-126.9130049682716
 30
0.0
 10
60.16444929841035
 20
-126.9130049682716
 30
0.0
 10
60.09728041123509
 20
-126.8458360793997
 30
0.0
 10
60.09728041123509
 20
-126.7627921905314
 30
0.0
 10
60.09728041123509
 20
-126.680136357219
 30
0.0
 10
60.16444929841035
 20
-126.6129321905689
 30
0.0
 10
60.24714040741184
 20
-126.6129321905689
 30
0.0
 10
60.33014901640523
 20
-126.6129321905689
 30
0.0
 10
60.39735318135737
 20
-126.680136357219
 30
0.0
 10
60.39735318135737
 20
-126.7627921905314
 30
0.0
  0
HATCH
  5
FB
330
DA
100
AcDbEntity
  8
_U+30EC_U+30A4_U+30E4_U+30FC 1
 62
   179
420
  2234388
100
AcDbHatch
 10
0.0
 20
0.0
 30
0.0
210
0.0
220
0.0
230
1.0
  2
SOLID
 70
     1
 71
     0
 91
        1
 92
        1
 93
        1
 72
     4
 94
        3
 73
     0
 74
     1
 95
       17
 96
       13
 40
0.0
 40
0.0
 40
0.0
 40
0.0
 40
1.0
 40
1.0
 40
1.0
 40
2.0
 40
2.0
 40
2.0
 40
3.0
 40
3.0
 40
3.0
 40
4.0
 40
4.0
 40
4.0
 40
4.0
 10
60.39735318135737
 20
-126.7627921905314
 10
60.39735318135737
 20
-126.8458360793997
 10
60.33014901640523
 20
-126.9130049682716
 10
60.24714040741184
 20
-126.9130049682716
 10
60.16444929841035
 20
-126.9130049682716
 10
60.09728041123509
 20
-126.8458360793997
 10
60.09728041123509
 20
-126.7627921905314
 10
60.09728041123509
 20
-126.680136357219
 10
60.16444929841035
 20
-126.6129321905689
 10
60.24714040741184
 20
-126.6129321905689
 10
60.33014901640523
 20
-126.6129321905689
 10
60.39735318135737
 20
-126.680136357219
 10
60.39735318135737
 20
-126.7627921905314
 97
        0
 97
        0
 75
     2
 76
     1
 98
        0
  0
POLYLINE
  5
FC
330
DA
100
AcDbEntity
  8
_U+30EC_U+30A4_U+30E4_U+30FC 1
 62
   179
420
  2234388
370
     9
100
AcDb2dPolyline
 66
     1
 10
0.0
 20
0.0
 30
0.0
  0
VERTEX
  5
FD
330
FC
100
AcDbEntity
  8
_U+30EC_U+30A4_U+30E4_U+30FC 1
 62
   179
420
  2234388
370
     9
100
AcDbVertex
100
AcDb2dVertex
 10
112.8699418426701
 20
-107.609110806431
 30
0.0
  0
VERTEX
  5
FE
330
FC
100
AcDbEntity
  8
_U+30EC_U+30A4_U+30E4_U+30FC 1
 62
   179
420
  2234388
370
     9
100
AcDbVertex
100
AcDb2dVertex
 10
60.24731679629623
 20
-126.7627921905314
 30
0.0
  0
SEQEND
  5
FF
330
FC
100
AcDbEntity
  8
_U+30EC_U+30A4_U+30E4_U+30FC 1
 62
   179
420
  2234388
370
     9
  0
SPLINE
  5
100
330
DA
100
AcDbEntity
  8
_U+30EC_U+30A4_U+30E4_U+30FC 1
370
     0
100
AcDbSpline
210
0.0
220
0.0
230
1.0
 70
    11
 71
     3
 72
    17
 73
    13
 74
     0
 42
0.0000000001
 43
0.0000000001
 12
1.0
 22
0.0
 32
0.0
 13
1.0
 23
0.0
 33
0.0
 40
0.0
 40
0.0
 40
0.0
 40
0.0
 40
1.0
 40
1.0
 40
1.0
 40
2.0
 40
2.0
 40
2.0
 40
3.0
 40
3.0
 40
3.0
 40
4.0
 40
4.0
 40
4.0
 40
4.0
 10
86.70857751010212
 20
-117.1850871929261
 30
0.0
 10
86.70857751010212
 20
-117.2686249706828
 30
0.0
 10
86.64140862292685
 20
-117.3356527484437
 30
0.0
 10
86.55854112504097
 20
-117.3356527484437
 30
0.0
 10
86.47585001603949
 20
-117.3356527484437
 30
0.0
 10
86.4086833117312
 20
-117.2686249706828
 30
0.0
 10
86.4086833117312
 20
-117.1850871929261
 30
0.0
 10
86.4086833117312
 20
-117.1023960818355
 30
0.0
 10
86.47585001603949
 20
-117.035579970741
 30
0.0
 10
86.55854112504097
 20
-117.035579970741
 30
0.0
 10
86.64140862292685
 20
-117.035579970741
 30
0.0
 10
86.70857751010212
 20
-117.1023960818355
 30
0.0
 10
86.70857751010212
 20
-117.1850871929261
 30
0.0
  0
HATCH
  5
101
330
DA
100
AcDbEntity
  8
_U+30EC_U+30A4_U+30E4_U+30FC 1
 62
   179
420
  2234388
100
AcDbHatch
 10
0.0
 20
0.0
 30
0.0
210
0.0
220
0.0
230
1.0
  2
SOLID
 70
     1
 71
     0
 91
        1
 92
        1
 93
        1
 72
     4
 94
        3
 73
     0
 74
     1
 95
       17
 96
       13
 40
0.0
 40
0.0
 40
0.0
 40
0.0
 40
1.0
 40
1.0
 40
1.0
 40
2.0
 40
2.0
 40
2.0
 40
3.0
 40
3.0
 40
3.0
 40
4.0
 40
4.0
 40
4.0
 40
4.0
 10
86.70857751010212
 20
-117.1850871929261
 10
86.70857751010212
 20
-117.2686249706828
 10
86.64140862292685
 20
-117.3356527484437
 10
86.55854112504097
 20
-117.3356527484437
 10
86.47585001603949
 20
-117.3356527484437
 10
86.4086833117312
 20
-117.2686249706828
 10
86.4086833117312
 20
-117.1850871929261
 10
86.4086833117312
 20
-117.1023960818355
 10
86.47585001603949
 20
-117.035579970741
 10
86.55854112504097
 20
-117.035579970741
 10
86.64140862292685
 20
-117.035579970741
 10
86.70857751010212
 20
-117.1023960818355
 10
86.70857751010212
 20
-117.1850871929261
 97
        0
 97
        0
 75
     2
 76
     1
 98
        0
  0
SPLINE
  5
102
330
DA
100
AcDbEntity
  8
_U+30EC_U+30A4_U+30E4_U+30FC 1
370
     0
100
AcDbSpline
210
0.0
220
0.0
230
1.0
 70
    11
 71
     3
 72
    17
 73
    13
 74
     0
 42
0.0000000001
 43
0.0000000001
 12
1.0
 22
0.0
 32
0.0
 13
1.0
 23
0.0
 33
0.0
 40
0.0
 40
0.0
 40
0.0
 40
0.0
 40
1.0
 40
1.0
 40
1.0
 40
2.0
 40
2.0
 40
2.0
 40
3.0
 40
3.0
 40
3.0
 40
4.0
 40
4.0
 40
4.0
 40
4.0
 10
113.0198018388469
 20
-107.6089344175422
 30
0.0
 10
113.0198018388469
 20
-107.6921194175215
 30
0.0
 10
112.9526329516716
 20
-107.7591471952824
 30
0.0
 10
112.8699418426701
 20
-107.7591471952824
 30
0.0
 10
112.7872507336686
 20
-107.7591471952824
 30
0.0
 10
112.7200818464934
 20
-107.6921194175215
 30
0.0
 10
112.7200818464934
 20
-107.6089344175422
 30
0.0
 10
112.7200818464934
 20
-107.5260669175631
 30
0.0
 10
112.7872507336686
 20
-107.4590744175797
 30
0.0
 10
112.8699418426701
 20
-107.4590744175797
 30
0.0
 10
112.9526329516716
 20
-107.4590744175797
 30
0.0
 10
113.0198018388469
 20
-107.5260669175631
 30
0.0
 10
113.0198018388469
 20
-107.6089344175422
 30
0.0
  0
HATCH
  5
103
330
DA
100
AcDbEntity
  8
_U+30EC_U+30A4_U+30E4_U+30FC 1
 62
   179
420
  2234388
100
AcDbHatch
 10
0.0
 20
0.0
 30
0.0
210
0.0
220
0.0
230
1.0
  2
SOLID
 70
     1
 71
     0
 91
        1
 92
        1
 93
        1
 72
     4
 94
        3
 73
     0
 74
     1
 95
       17
 96
       13
 40
0.0
 40
0.0
 40
0.0
 40
0.0
 40
1.0
 40
1.0
 40
1.0
 40
2.0
 40
2.0
 40
2.0
 40
3.0
 40
3.0
 40
3.0
 40
4.0
 40
4.0
 40
4.0
 40
4.0
 10
113.0198018388469
 20
-107.6089344175422
 10
113.0198018388469
 20
-107.6921194175215
 10
112.9526329516716
 20
-107.7591471952824
 10
112.8699418426701
 20
-107.7591471952824
 10
112.7872507336686
 20
-107.7591471952824
 10
112.7200818464934
 20
-107.6921194175215
 10
112.7200818464934
 20
-107.6089344175422
 10
112.7200818464934
 20
-107.5260669175631
 10
112.7872507336686
 20
-107.4590744175797
 10
112.8699418426701
 20
-107.4590744175797
 10
112.9526329516716
 20
-107.4590744175797
 10
113.0198018388469
 20
-107.5260669175631
 10
113.0198018388469
 20
-107.6089344175422
 97
        0
 97
        0
 75
     2
 76
     1
 98
        0
  0
SPLINE
  5
104
330
DA
100
AcDbEntity
  8
_U+30EC_U+30A4_U+30E4_U+30FC 1
370
     0
100
AcDbSpline
210
0.0
220
0.0
230
1.0
 70
    11
 71
     3
 72
    17
 73
    13
 74
     0
 42
0.0000000001
 43
0.0000000001
 12
1.0
 22
0.0
 32
0.0
 13
1.0
 23
0.0
 33
0.0
 40
0.0
 40
0.0
 40
0.0
 40
0.0
 40
1.0
 40
1.0
 40
1.0
 40
2.0
 40
2.0
 40
2.0
 40
3.0
 40
3.0
 40
3.0
 40
4.0
 40
4.0
 40
4.0
 40
4.0
 10
116.3353484209269
 20
-110.6967630278815
 30
0.0
 10
116.3353484209269
 20
-110.7803008056382
 30
0.0
 10
116.2685323115204
 20
-110.8473285833994
 30
0.0
 10
116.1858412025189
 20
-110.8473285833994
 30
0.0
 10
116.1035028712862
 20
-110.8473285833994
 30
0.0
 10
116.0356284285734
 20
-110.7803008056382
 30
0.0
 10
116.0356284285734
 20
-110.6967630278815
 30
0.0
 10
116.0356284285734
 20
-110.6141071945688
 30
0.0
 10
116.1035028712862
 20
-110.5472558056965
 30
0.0
 10
116.1858412025189
 20
-110.5472558056965
 30
0.0
 10
116.2685323115204
 20
-110.5472558056965
 30
0.0
 10
116.3353484209269
 20
-110.6141071945688
 30
0.0
 10
116.3353484209269
 20
-110.6967630278815
 30
0.0
  0
HATCH
  5
105
330
DA
100
AcDbEntity
  8
_U+30EC_U+30A4_U+30E4_U+30FC 1
 62
   179
420
  2234388
100
AcDbHatch
 10
0.0
 20
0.0
 30
0.0
210
0.0
220
0.0
230
1.0
  2
SOLID
 70
     1
 71
     0
 91
        1
 92
        1
 93
        1
 72
     4
 94
        3
 73
     0
 74
     1
 95
       17
 96
       13
 40
0.0
 40
0.0
 40
0.0
 40
0.0
 40
1.0
 40
1.0
 40
1.0
 40
2.0
 40
2.0
 40
2.0
 40
3.0
 40
3.0
 40
3.0
 40
4.0
 40
4.0
 40
4.0
 40
4.0
 10
116.3353484209269
 20
-110.6967630278815
 10
116.3353484209269
 20
-110.7803008056382
 10
116.2685323115204
 20
-110.8473285833994
 10
116.1858412025189
 20
-110.8473285833994
 10
116.1035028712862
 20
-110.8473285833994
 10
116.0356284285734
 20
-110.7803008056382
 10
116.0356284285734
 20
-110.6967630278815
 10
116.0356284285734
 20
-110.6141071945688
 10
116.1035028712862
 20
-110.5472558056965
 10
116.1858412025189
 20
-110.5472558056965
 10
116.2685323115204
 20
-110.5472558056965
 10
116.3353484209269
 20
-110.6141071945688
 10
116.3353484209269
 20
-110.6967630278815
 97
        0
 97
        0
 75
     2
 76
     1
 98
        0
  0
SPLINE
  5
106
330
DA
100
AcDbEntity
  8
_U+30EC_U+30A4_U+30E4_U+30FC 1
370
     0
100
AcDbSpline
210
0.0
220
0.0
230
1.0
 70
    11
 71
     3
 72
    17
 73
    13
 74
     0
 42
0.0000000001
 43
0.0000000001
 12
1.0
 22
0.0
 32
0.0
 13
1.0
 23
0.0
 33
0.0
 40
0.0
 40
0.0
 40
0.0
 40
0.0
 40
1.0
 40
1.0
 40
1.0
 40
2.0
 40
2.0
 40
2.0
 40
3.0
 40
3.0
 40
3.0
 40
4.0
 40
4.0
 40
4.0
 40
4.0
 10
116.3353484209269
 20
-131.5730230226625
 30
0.0
 10
116.3353484209269
 20
-131.65638441153
 30
0.0
 10
116.2685323115204
 20
-131.7232358004024
 30
0.0
 10
116.1858412025189
 20
-131.7232358004024
 30
0.0
 10
116.1035028712862
 20
-131.7232358004024
 30
0.0
 10
116.0356284285734
 20
-131.65638441153
 30
0.0
 10
116.0356284285734
 20
-131.5730230226625
 30
0.0
 10
116.0356284285734
 20
-131.4903319115716
 30
0.0
 10
116.1035028712862
 20
-131.4235158004774
 30
0.0
 10
116.1858412025189
 20
-131.4235158004774
 30
0.0
 10
116.2685323115204
 20
-131.4235158004774
 30
0.0
 10
116.3353484209269
 20
-131.4903319115716
 30
0.0
 10
116.3353484209269
 20
-131.5730230226625
 30
0.0
  0
HATCH
  5
107
330
DA
100
AcDbEntity
  8
_U+30EC_U+30A4_U+30E4_U+30FC 1
 62
   179
420
  2234388
100
AcDbHatch
 10
0.0
 20
0.0
 30
0.0
210
0.0
220
0.0
230
1.0
  2
SOLID
 70
     1
 71
     0
 91
        1
 92
        1
 93
        1
 72
     4
 94
        3
 73
     0
 74
     1
 95
       17
 96
       13
 40
0.0
 40
0.0
 40
0.0
 40
0.0
 40
1.0
 40
1.0
 40
1.0
 40
2.0
 40
2.0
 40
2.0
 40
3.0
 40
3.0
 40
3.0
 40
4.0
 40
4.0
 40
4.0
 40
4.0
 10
116.3353484209269
 20
-131.5730230226625
 10
116.3353484209269
 20
-131.65638441153
 10
116.2685323115204
 20
-131.7232358004024
 10
116.1858412025189
 20
-131.7232358004024
 10
116.1035028712862
 20
-131.7232358004024
 10
116.0356284285734
 20
-131.65638441153
 10
116.0356284285734
 20
-131.5730230226625
 10
116.0356284285734
 20
-131.4903319115716
 10
116.1035028712862
 20
-131.4235158004774
 10
116.1858412025189
 20
-131.4235158004774
 10
116.2685323115204
 20
-131.4235158004774
 10
116.3353484209269
 20
-131.4903319115716
 10
116.3353484209269
 20
-131.5730230226625
 97
        0
 97
        0
 75
     2
 76
     1
 98
        0
  0
INSERT
  5
109
330
DA
100
AcDbEntity
  8
_U+30EC_U+30A4_U+30E4_U+30FC 1
100
AcDbBlockReference
  2
block 7
 10
0.0
 20
0.0
 30
0.0
  0
INSERT
  5
141
330
DA
100
AcDbEntity
  8
_U+30EC_U+30A4_U+30E4_U+30FC 1
100
AcDbBlockReference
  2
block 8
 10
0.0
 20
0.0
 30
0.0
  0
INSERT
  5
14D
330
DA
100
AcDbEntity
  8
_U+30EC_U+30A4_U+30E4_U+30FC 1
100
AcDbBlockReference
  2
block 9
 10
0.0
 20
0.0
 30
0.0
  0
ENDBLK
  5
DD
330
DA
100
AcDbEntity
  8
0
100
AcDbBlockEnd
  0
BLOCK
  5
10A
330
108
100
AcDbEntity
  8
0
100
AcDbBlockBegin
  2
block 7
 70
     0
 10
0.0
 20
0.0
 30
0.0
  3
block 7
  1

  0
SPLINE
  5
10C
330
108
100
AcDbEntity
  8
_U+30EC_U+30A4_U+30E4_U+30FC 1
370
     0
100
AcDbSpline
210
0.0
220
0.0
230
1.0
 70
    11
 71
     3
 72
    62
 73
    58
 74
     0
 42
0.0000000001
 43
0.0000000001
 12
1.0
 22
0.0
 32
0.0
 13
1.0
 23
0.0
 33
0.0
 40
0.0
 40
0.0
 40
0.0
 40
0.0
 40
1.0
 40
1.0
 40
1.0
 40
2.0
 40
2.0
 40
2.0
 40
3.0
 40
3.0
 40
3.0
 40
4.0
 40
4.0
 40
4.0
 40
5.0
 40
5.0
 40
5.0
 40
6.0
 40
6.0
 40
6.0
 40
7.0
 40
7.0
 40
7.0
 40
8.0
 40
8.0
 40
8.0
 40
9.0
 40
9.0
 40
9.0
 40
10.0
 40
10.0
 40
10.0
 40
11.0
 40
11.0
 40
11.0
 40
12.0
 40
12.0
 40
12.0
 40
13.0
 40
13.0
 40
13.0
 40
14.0
 40
14.0
 40
14.0
 40
15.0
 40
15.0
 40
15.0
 40
16.0
 40
16.0
 40
16.0
 40
17.0
 40
17.0
 40
17.0
 40
18.0
 40
18.0
 40
18.0
 40
19.0
 40
19.0
 40
19.0
 40
19.0
 10
118.0489528784739
 20
-115.0412122650765
 30
0.0
 10
117.953868243081
 20
-115.0412122650765
 30
0.0
 10
117.7361382084132
 20
-115.0201971826165
 30
0.0
 10
117.6114257518472
 20
-114.834162026413
 30
0.0
 10
117.5370116893658
 20
-114.7218519135939
 30
0.0
 10
117.5328775747835
 20
-114.6226331636187
 30
0.0
 10
117.5287434602012
 20
-114.5378838146815
 30
0.0
 10
117.5287434602012
 20
-114.5378838146815
 30
0.0
 10
117.7485405521601
 20
-114.5378838146815
 30
0.0
 10
117.7485405521601
 20
-114.5378838146815
 30
0.0
 10
117.7506076094512
 20
-114.6119533676144
 30
0.0
 10
117.761631915004
 20
-114.8465643701599
 30
0.0
 10
118.0448187638916
 20
-114.8465643701599
 30
0.0
 10
118.1826225833016
 20
-114.8465643701599
 30
0.0
 10
118.3348958037496
 20
-114.7769734413578
 30
0.0
 10
118.3348958037496
 20
-114.5485636106858
 30
0.0
 10
118.3348958037496
 20
-114.4321193832843
 30
0.0
 10
118.2966552438633
 20
-114.3835435369423
 30
0.0
 10
118.264960365399
 20
-114.351848658478
 30
0.0
 10
118.1908908124662
 20
-114.2777791055452
 30
0.0
 10
118.0744465850647
 20
-114.2650322522497
 30
0.0
 10
118.0193250573007
 20
-114.2650322522497
 30
0.0
 10
118.0007215416804
 20
-114.2650322522497
 30
0.0
 10
117.9645480390853
 20
-114.2670993095409
 30
0.0
 10
117.9369872752033
 20
-114.2712334241232
 30
0.0
 10
117.9369872752033
 20
-114.2712334241232
 30
0.0
 10
117.9369872752033
 20
-114.0765855292066
 30
0.0
 10
117.9369872752033
 20
-114.0765855292066
 30
0.0
 10
117.9752278350895
 20
-114.0831312106285
 30
0.0
 10
118.0172580000096
 20
-114.0851982679197
 30
0.0
 10
118.0238036814316
 20
-114.0851982679197
 30
0.0
 10
118.0892604956513
 20
-114.0851982679197
 30
0.0
 10
118.2880425051502
 20
-114.0638386759111
 30
0.0
 10
118.2880425051502
 20
-113.8271606160745
 30
0.0
 10
118.2880425051502
 20
-113.6493936890356
 30
0.0
 10
118.1571288767107
 20
-113.5942721612716
 30
0.0
 10
118.0468858211827
 20
-113.5942721612716
 30
0.0
 10
117.7826469974641
 20
-113.5942721612716
 30
0.0
 10
117.7740342587509
 20
-113.8271606160745
 30
0.0
 10
117.7699001441686
 20
-113.8988186021677
 30
0.0
 10
117.7699001441686
 20
-113.8988186021677
 30
0.0
 10
117.5666395105389
 20
-113.8988186021677
 30
0.0
 10
117.5666395105389
 20
-113.8988186021677
 30
0.0
 10
117.575252249252
 20
-113.7741061456016
 30
0.0
 10
117.602813013134
 20
-113.3975572090638
 30
0.0
 10
118.0596326744782
 20
-113.3975572090638
 30
0.0
 10
118.2839083905679
 20
-113.3975572090638
 30
0.0
 10
118.5250650745354
 20
-113.5246812324695
 30
0.0
 10
118.5250650745354
 20
-113.8206149346525
 30
0.0
 10
118.5250650745354
 20
-114.0069946004045
 30
0.0
 10
118.4299804391425
 20
-114.089332382502
 30
0.0
 10
118.3304171796188
 20
-114.1506550821394
 30
0.0
 10
118.3920843888048
 20
-114.1782158460214
 30
0.0
 10
118.5739854304259
 20
-114.2584865708277
 30
0.0
 10
118.5739854304259
 20
-114.5358167573904
 30
0.0
 10
118.5739854304259
 20
-114.8741251340419
 30
0.0
 10
118.3262830650365
 20
-115.0412122650765
 30
0.0
 10
118.0489528784739
 20
-115.0412122650765
 30
0.0
  0
HATCH
  5
10D
330
108
100
AcDbEntity
  8
_U+30EC_U+30A4_U+30E4_U+30FC 1
 62
   179
420
  2234388
100
AcDbHatch
 10
0.0
 20
0.0
 30
0.0
210
0.0
220
0.0
230
1.0
  2
SOLID
 70
     1
 71
     0
 91
        1
 92
        1
 93
        1
 72
     4
 94
        3
 73
     0
 74
     1
 95
       62
 96
       58
 40
0.0
 40
0.0
 40
0.0
 40
0.0
 40
1.0
 40
1.0
 40
1.0
 40
2.0
 40
2.0
 40
2.0
 40
3.0
 40
3.0
 40
3.0
 40
4.0
 40
4.0
 40
4.0
 40
5.0
 40
5.0
 40
5.0
 40
6.0
 40
6.0
 40
6.0
 40
7.0
 40
7.0
 40
7.0
 40
8.0
 40
8.0
 40
8.0
 40
9.0
 40
9.0
 40
9.0
 40
10.0
 40
10.0
 40
10.0
 40
11.0
 40
11.0
 40
11.0
 40
12.0
 40
12.0
 40
12.0
 40
13.0
 40
13.0
 40
13.0
 40
14.0
 40
14.0
 40
14.0
 40
15.0
 40
15.0
 40
15.0
 40
16.0
 40
16.0
 40
16.0
 40
17.0
 40
17.0
 40
17.0
 40
18.0
 40
18.0
 40
18.0
 40
19.0
 40
19.0
 40
19.0
 40
19.0
 10
118.0489528784739
 20
-115.0412122650765
 10
117.953868243081
 20
-115.0412122650765
 10
117.7361382084132
 20
-115.0201971826165
 10
117.6114257518472
 20
-114.834162026413
 10
117.5370116893658
 20
-114.7218519135939
 10
117.5328775747835
 20
-114.6226331636187
 10
117.5287434602012
 20
-114.5378838146815
 10
117.5287434602012
 20
-114.5378838146815
 10
117.7485405521601
 20
-114.5378838146815
 10
117.7485405521601
 20
-114.5378838146815
 10
117.7506076094512
 20
-114.6119533676144
 10
117.761631915004
 20
-114.8465643701599
 10
118.0448187638916
 20
-114.8465643701599
 10
118.1826225833016
 20
-114.8465643701599
 10
118.3348958037496
 20
-114.7769734413578
 10
118.3348958037496
 20
-114.5485636106858
 10
118.3348958037496
 20
-114.4321193832843
 10
118.2966552438633
 20
-114.3835435369423
 10
118.264960365399
 20
-114.351848658478
 10
118.1908908124662
 20
-114.2777791055452
 10
118.0744465850647
 20
-114.2650322522497
 10
118.0193250573007
 20
-114.2650322522497
 10
118.0007215416804
 20
-114.2650322522497
 10
117.9645480390853
 20
-114.2670993095409
 10
117.9369872752033
 20
-114.2712334241232
 10
117.9369872752033
 20
-114.2712334241232
 10
117.9369872752033
 20
-114.0765855292066
 10
117.9369872752033
 20
-114.0765855292066
 10
117.9752278350895
 20
-114.0831312106285
 10
118.0172580000096
 20
-114.0851982679197
 10
118.0238036814316
 20
-114.0851982679197
 10
118.0892604956513
 20
-114.0851982679197
 10
118.2880425051502
 20
-114.0638386759111
 10
118.2880425051502
 20
-113.8271606160745
 10
118.2880425051502
 20
-113.6493936890356
 10
118.1571288767107
 20
-113.5942721612716
 10
118.0468858211827
 20
-113.5942721612716
 10
117.7826469974641
 20
-113.5942721612716
 10
117.7740342587509
 20
-113.8271606160745
 10
117.7699001441686
 20
-113.8988186021677
 10
117.7699001441686
 20
-113.8988186021677
 10
117.5666395105389
 20
-113.8988186021677
 10
117.5666395105389
 20
-113.8988186021677
 10
117.575252249252
 20
-113.7741061456016
 10
117.602813013134
 20
-113.3975572090638
 10
118.0596326744782
 20
-113.3975572090638
 10
118.2839083905679
 20
-113.3975572090638
 10
118.5250650745354
 20
-113.5246812324695
 10
118.5250650745354
 20
-113.8206149346525
 10
118.5250650745354
 20
-114.0069946004045
 10
118.4299804391425
 20
-114.089332382502
 10
118.3304171796188
 20
-114.1506550821394
 10
118.3920843888048
 20
-114.1782158460214
 10
118.5739854304259
 20
-114.2584865708277
 10
118.5739854304259
 20
-114.5358167573904
 10
118.5739854304259
 20
-114.8741251340419
 10
118.3262830650365
 20
-115.0412122650765
 10
118.0489528784739
 20
-115.0412122650765
 97
        0
 97
        0
 75
     2
 76
     1
 98
        0
  0
SPLINE
  5
10E
330
108
100
AcDbEntity
  8
_U+30EC_U+30A4_U+30E4_U+30FC 1
370
     0
100
AcDbSpline
210
0.0
220
0.0
230
1.0
 70
    11
 71
     3
 72
    29
 73
    25
 74
     0
 42
0.0000000001
 43
0.0000000001
 12
1.0
 22
0.0
 32
0.0
 13
1.0
 23
0.0
 33
0.0
 40
0.0
 40
0.0
 40
0.0
 40
0.0
 40
1.0
 40
1.0
 40
1.0
 40
2.0
 40
2.0
 40
2.0
 40
3.0
 40
3.0
 40
3.0
 40
4.0
 40
4.0
 40
4.0
 40
5.0
 40
5.0
 40
5.0
 40
6.0
 40
6.0
 40
6.0
 40
7.0
 40
7.0
 40
7.0
 40
8.0
 40
8.0
 40
8.0
 40
8.0
 10
119.6323187634947
 20
-114.8128024344044
 30
0.0
 10
119.5241427652579
 20
-115.0222642399076
 30
0.0
 10
119.3508544623498
 20
-115.0412122650765
 30
0.0
 10
119.2344102349483
 20
-115.0412122650765
 30
0.0
 10
119.0735242757872
 20
-115.0412122650765
 30
0.0
 10
118.9319308513434
 20
-114.9947034760256
 30
0.0
 10
118.836501706402
 20
-114.8128024344044
 30
0.0
 10
118.7331488418445
 20
-114.6181545394878
 30
0.0
 10
118.7138563071271
 20
-114.3814764796512
 30
0.0
 10
118.7138563071271
 20
-114.2185234631988
 30
0.0
 10
118.7138563071271
 20
-114.0745184719154
 30
0.0
 10
118.7310817845533
 20
-113.8226819919436
 30
0.0
 10
118.836501706402
 20
-113.6238999824447
 30
0.0
 10
118.9446777046388
 20
-113.4209838583635
 30
0.0
 10
119.1052191542515
 20
-113.3975572090638
 30
0.0
 10
119.2344102349483
 20
-113.3975572090638
 30
0.0
 10
119.3932291368184
 20
-113.3975572090638
 30
0.0
 10
119.5368896185533
 20
-113.4419989408235
 30
0.0
 10
119.6323187634947
 20
-113.6238999824447
 30
0.0
 10
119.7315375134699
 20
-113.8164808200702
 30
0.0
 10
119.7549641627696
 20
-114.0448906507423
 30
0.0
 10
119.7549641627696
 20
-114.2185234631988
 30
0.0
 10
119.7549641627696
 20
-114.3897447088158
 30
0.0
 10
119.733604570761
 20
-114.620221596779
 30
0.0
 10
119.6323187634947
 20
-114.8128024344044
 30
0.0
  0
SPLINE
  5
10F
330
108
100
AcDbEntity
  8
_U+30EC_U+30A4_U+30E4_U+30FC 1
370
     0
100
AcDbSpline
210
0.0
220
0.0
230
1.0
 70
    11
 71
     3
 72
    17
 73
    13
 74
     0
 42
0.0000000001
 43
0.0000000001
 12
1.0
 22
0.0
 32
0.0
 13
1.0
 23
0.0
 33
0.0
 40
0.0
 40
0.0
 40
0.0
 40
0.0
 40
1.0
 40
1.0
 40
1.0
 40
2.0
 40
2.0
 40
2.0
 40
3.0
 40
3.0
 40
3.0
 40
4.0
 40
4.0
 40
4.0
 40
4.0
 10
119.2344102349483
 20
-113.5901380466893
 30
0.0
 10
118.9846408122677
 20
-113.5901380466893
 30
0.0
 10
118.9384765327654
 20
-113.8736694051253
 30
0.0
 10
118.9384765327654
 20
-114.2185234631988
 30
0.0
 10
118.9384765327654
 20
-114.5378838146815
 30
0.0
 10
118.974305525812
 20
-114.8465643701599
 30
0.0
 10
119.2344102349483
 20
-114.8465643701599
 30
0.0
 10
119.4821126003378
 20
-114.8465643701599
 30
0.0
 10
119.5306884466798
 20
-114.5654445785635
 30
0.0
 10
119.5306884466798
 20
-114.2185234631988
 30
0.0
 10
119.5306884466798
 20
-113.8988186021677
 30
0.0
 10
119.4924478867936
 20
-113.5901380466893
 30
0.0
 10
119.2344102349483
 20
-113.5901380466893
 30
0.0
  0
HATCH
  5
110
330
108
100
AcDbEntity
  8
_U+30EC_U+30A4_U+30E4_U+30FC 1
 62
   179
420
  2234388
100
AcDbHatch
 10
0.0
 20
0.0
 30
0.0
210
0.0
220
0.0
230
1.0
  2
SOLID
 70
     1
 71
     0
 91
        2
 92
        1
 93
        1
 72
     4
 94
        3
 73
     0
 74
     1
 95
       29
 96
       25
 40
0.0
 40
0.0
 40
0.0
 40
0.0
 40
1.0
 40
1.0
 40
1.0
 40
2.0
 40
2.0
 40
2.0
 40
3.0
 40
3.0
 40
3.0
 40
4.0
 40
4.0
 40
4.0
 40
5.0
 40
5.0
 40
5.0
 40
6.0
 40
6.0
 40
6.0
 40
7.0
 40
7.0
 40
7.0
 40
8.0
 40
8.0
 40
8.0
 40
8.0
 10
119.6323187634947
 20
-114.8128024344044
 10
119.5241427652579
 20
-115.0222642399076
 10
119.3508544623498
 20
-115.0412122650765
 10
119.2344102349483
 20
-115.0412122650765
 10
119.0735242757872
 20
-115.0412122650765
 10
118.9319308513434
 20
-114.9947034760256
 10
118.836501706402
 20
-114.8128024344044
 10
118.7331488418445
 20
-114.6181545394878
 10
118.7138563071271
 20
-114.3814764796512
 10
118.7138563071271
 20
-114.2185234631988
 10
118.7138563071271
 20
-114.0745184719154
 10
118.7310817845533
 20
-113.8226819919436
 10
118.836501706402
 20
-113.6238999824447
 10
118.9446777046388
 20
-113.4209838583635
 10
119.1052191542515
 20
-113.3975572090638
 10
119.2344102349483
 20
-113.3975572090638
 10
119.3932291368184
 20
-113.3975572090638
 10
119.5368896185533
 20
-113.4419989408235
 10
119.6323187634947
 20
-113.6238999824447
 10
119.7315375134699
 20
-113.8164808200702
 10
119.7549641627696
 20
-114.0448906507423
 10
119.7549641627696
 20
-114.2185234631988
 10
119.7549641627696
 20
-114.3897447088158
 10
119.733604570761
 20
-114.620221596779
 10
119.6323187634947
 20
-114.8128024344044
 97
        0
 97
        0
 92
        1
 93
        1
 72
     4
 94
        3
 73
     0
 74
     1
 95
       17
 96
       13
 40
0.0
 40
0.0
 40
0.0
 40
0.0
 40
1.0
 40
1.0
 40
1.0
 40
2.0
 40
2.0
 40
2.0
 40
3.0
 40
3.0
 40
3.0
 40
4.0
 40
4.0
 40
4.0
 40
4.0
 10
119.2344102349483
 20
-113.5901380466893
 10
118.9846408122677
 20
-113.5901380466893
 10
118.9384765327654
 20
-113.8736694051253
 10
118.9384765327654
 20
-114.2185234631988
 10
118.9384765327654
 20
-114.5378838146815
 10
118.974305525812
 20
-114.8465643701599
 10
119.2344102349483
 20
-114.8465643701599
 10
119.4821126003378
 20
-114.8465643701599
 10
119.5306884466798
 20
-114.5654445785635
 10
119.5306884466798
 20
-114.2185234631988
 10
119.5306884466798
 20
-113.8988186021677
 10
119.4924478867936
 20
-113.5901380466893
 10
119.2344102349483
 20
-113.5901380466893
 97
        0
 97
        0
 75
     2
 76
     1
 98
        0
  0
POLYLINE
  5
111
330
108
100
AcDbEntity
  8
_U+30EC_U+30A4_U+30E4_U+30FC 1
370
     0
100
AcDb2dPolyline
 66
     1
 10
0.0
 20
0.0
 30
0.0
  0
VERTEX
  5
112
330
111
100
AcDbEntity
  8
_U+30EC_U+30A4_U+30E4_U+30FC 1
370
     0
100
AcDbVertex
100
AcDb2dVertex
 10
118.3896728219651
 20
-117.4045477679579
 30
0.0
  0
VERTEX
  5
113
330
111
100
AcDbEntity
  8
_U+30EC_U+30A4_U+30E4_U+30FC 1
370
     0
100
AcDbVertex
100
AcDb2dVertex
 10
118.3896728219651
 20
-117.7514688833226
 30
0.0
  0
VERTEX
  5
114
330
111
100
AcDbEntity
  8
_U+30EC_U+30A4_U+30E4_U+30FC 1
370
     0
100
AcDbVertex
100
AcDb2dVertex
 10
118.1715982777488
 20
-117.7514688833226
 30
0.0
  0
VERTEX
  5
115
330
111
100
AcDbEntity
  8
_U+30EC_U+30A4_U+30E4_U+30FC 1
370
     0
100
AcDbVertex
100
AcDb2dVertex
 10
118.1715982777488
 20
-117.4045477679579
 30
0.0
  0
VERTEX
  5
116
330
111
100
AcDbEntity
  8
_U+30EC_U+30A4_U+30E4_U+30FC 1
370
     0
100
AcDbVertex
100
AcDb2dVertex
 10
117.5159966069057
 20
-117.4045477679579
 30
0.0
  0
VERTEX
  5
117
330
111
100
AcDbEntity
  8
_U+30EC_U+30A4_U+30E4_U+30FC 1
370
     0
100
AcDbVertex
100
AcDb2dVertex
 10
117.5159966069057
 20
-117.1802720518681
 30
0.0
  0
VERTEX
  5
118
330
111
100
AcDbEntity
  8
_U+30EC_U+30A4_U+30E4_U+30FC 1
370
     0
100
AcDbVertex
100
AcDb2dVertex
 10
118.1950249270485
 20
-116.207032577285
 30
0.0
  0
VERTEX
  5
119
330
111
100
AcDbEntity
  8
_U+30EC_U+30A4_U+30E4_U+30FC 1
370
     0
100
AcDbVertex
100
AcDb2dVertex
 10
118.3896728219651
 20
-116.207032577285
 30
0.0
  0
VERTEX
  5
11A
330
111
100
AcDbEntity
  8
_U+30EC_U+30A4_U+30E4_U+30FC 1
370
     0
100
AcDbVertex
100
AcDb2dVertex
 10
118.3896728219651
 20
-117.205765758459
 30
0.0
  0
VERTEX
  5
11B
330
111
100
AcDbEntity
  8
_U+30EC_U+30A4_U+30E4_U+30FC 1
370
     0
100
AcDbVertex
100
AcDb2dVertex
 10
118.5970675701771
 20
-117.205765758459
 30
0.0
  0
VERTEX
  5
11C
330
111
100
AcDbEntity
  8
_U+30EC_U+30A4_U+30E4_U+30FC 1
370
     0
100
AcDbVertex
100
AcDb2dVertex
 10
118.5970675701771
 20
-117.4045477679579
 30
0.0
  0
VERTEX
  5
11D
330
111
100
AcDbEntity
  8
_U+30EC_U+30A4_U+30E4_U+30FC 1
370
     0
100
AcDbVertex
100
AcDb2dVertex
 10
118.3896728219651
 20
-117.4045477679579
 30
0.0
  0
SEQEND
  5
11E
330
111
100
AcDbEntity
  8
_U+30EC_U+30A4_U+30E4_U+30FC 1
370
     0
  0
POLYLINE
  5
11F
330
108
100
AcDbEntity
  8
_U+30EC_U+30A4_U+30E4_U+30FC 1
370
     0
100
AcDb2dPolyline
 66
     1
 10
0.0
 20
0.0
 30
0.0
  0
VERTEX
  5
120
330
11F
100
AcDbEntity
  8
_U+30EC_U+30A4_U+30E4_U+30FC 1
370
     0
100
AcDbVertex
100
AcDb2dVertex
 10
118.1715982777488
 20
-116.5498195780674
 30
0.0
  0
VERTEX
  5
121
330
11F
100
AcDbEntity
  8
_U+30EC_U+30A4_U+30E4_U+30FC 1
370
     0
100
AcDbVertex
100
AcDb2dVertex
 10
117.7147786164046
 20
-117.205765758459
 30
0.0
  0
VERTEX
  5
122
330
11F
100
AcDbEntity
  8
_U+30EC_U+30A4_U+30E4_U+30FC 1
370
     0
100
AcDbVertex
100
AcDb2dVertex
 10
118.1715982777488
 20
-117.205765758459
 30
0.0
  0
VERTEX
  5
123
330
11F
100
AcDbEntity
  8
_U+30EC_U+30A4_U+30E4_U+30FC 1
370
     0
100
AcDbVertex
100
AcDb2dVertex
 10
118.1715982777488
 20
-116.5498195780674
 30
0.0
  0
SEQEND
  5
124
330
11F
100
AcDbEntity
  8
_U+30EC_U+30A4_U+30E4_U+30FC 1
370
     0
  0
HATCH
  5
125
330
108
100
AcDbEntity
  8
_U+30EC_U+30A4_U+30E4_U+30FC 1
 62
   179
420
  2234388
100
AcDbHatch
 10
0.0
 20
0.0
 30
0.0
210
0.0
220
0.0
230
1.0
  2
SOLID
 70
     1
 71
     0
 91
        2
 92
        1
 93
       11
 72
     1
 10
118.3896728219651
 20
-117.4045477679579
 11
118.3896728219651
 21
-117.7514688833226
 72
     1
 10
118.3896728219651
 20
-117.7514688833226
 11
118.1715982777488
 21
-117.7514688833226
 72
     1
 10
118.1715982777488
 20
-117.7514688833226
 11
118.1715982777488
 21
-117.4045477679579
 72
     1
 10
118.1715982777488
 20
-117.4045477679579
 11
117.5159966069057
 21
-117.4045477679579
 72
     1
 10
117.5159966069057
 20
-117.4045477679579
 11
117.5159966069057
 21
-117.1802720518681
 72
     1
 10
117.5159966069057
 20
-117.1802720518681
 11
118.1950249270485
 21
-116.207032577285
 72
     1
 10
118.1950249270485
 20
-116.207032577285
 11
118.3896728219651
 21
-116.207032577285
 72
     1
 10
118.3896728219651
 20
-116.207032577285
 11
118.3896728219651
 21
-117.205765758459
 72
     1
 10
118.3896728219651
 20
-117.205765758459
 11
118.5970675701771
 21
-117.205765758459
 72
     1
 10
118.5970675701771
 20
-117.205765758459
 11
118.5970675701771
 21
-117.4045477679579
 72
     1
 10
118.5970675701771
 20
-117.4045477679579
 11
118.3896728219651
 21
-117.4045477679579
 97
        0
 92
        1
 93
        3
 72
     1
 10
118.1715982777488
 20
-116.5498195780674
 11
117.7147786164046
 21
-117.205765758459
 72
     1
 10
117.7147786164046
 20
-117.205765758459
 11
118.1715982777488
 21
-117.205765758459
 72
     1
 10
118.1715982777488
 20
-117.205765758459
 11
118.1715982777488
 21
-116.5498195780674
 97
        0
 75
     2
 76
     1
 98
        0
  0
SPLINE
  5
126
330
108
100
AcDbEntity
  8
_U+30EC_U+30A4_U+30E4_U+30FC 1
370
     0
100
AcDbSpline
210
0.0
220
0.0
230
1.0
 70
    11
 71
     3
 72
    29
 73
    25
 74
     0
 42
0.0000000001
 43
0.0000000001
 12
1.0
 22
0.0
 32
0.0
 13
1.0
 23
0.0
 33
0.0
 40
0.0
 40
0.0
 40
0.0
 40
0.0
 40
1.0
 40
1.0
 40
1.0
 40
2.0
 40
2.0
 40
2.0
 40
3.0
 40
3.0
 40
3.0
 40
4.0
 40
4.0
 40
4.0
 40
5.0
 40
5.0
 40
5.0
 40
6.0
 40
6.0
 40
6.0
 40
7.0
 40
7.0
 40
7.0
 40
8.0
 40
8.0
 40
8.0
 40
8.0
 10
119.6323187634947
 20
-117.5737019562837
 30
0.0
 10
119.5241427652579
 20
-117.7831637617869
 30
0.0
 10
119.3508544623498
 20
-117.8021117869557
 30
0.0
 10
119.2344102349483
 20
-117.8021117869557
 30
0.0
 10
119.0735242757872
 20
-117.8021117869557
 30
0.0
 10
118.9319308513434
 20
-117.7556029979049
 30
0.0
 10
118.836501706402
 20
-117.5737019562837
 30
0.0
 10
118.7331488418445
 20
-117.379054061367
 30
0.0
 10
118.7138563071271
 20
-117.1423760015304
 30
0.0
 10
118.7138563071271
 20
-116.9794229850781
 30
0.0
 10
118.7138563071271
 20
-116.8354179937946
 30
0.0
 10
118.7310817845533
 20
-116.5835815138229
 30
0.0
 10
118.836501706402
 20
-116.384799504324
 30
0.0
 10
118.9446777046388
 20
-116.1818833802427
 30
0.0
 10
119.1052191542515
 20
-116.158456730943
 30
0.0
 10
119.2344102349483
 20
-116.158456730943
 30
0.0
 10
119.3932291368184
 20
-116.158456730943
 30
0.0
 10
119.5368896185533
 20
-116.2028984627027
 30
0.0
 10
119.6323187634947
 20
-116.384799504324
 30
0.0
 10
119.7315375134699
 20
-116.5773803419494
 30
0.0
 10
119.7549641627696
 20
-116.8057901726215
 30
0.0
 10
119.7549641627696
 20
-116.9794229850781
 30
0.0
 10
119.7549641627696
 20
-117.150644230695
 30
0.0
 10
119.733604570761
 20
-117.3811211186582
 30
0.0
 10
119.6323187634947
 20
-117.5737019562837
 30
0.0
  0
SPLINE
  5
127
330
108
100
AcDbEntity
  8
_U+30EC_U+30A4_U+30E4_U+30FC 1
370
     0
100
AcDbSpline
210
0.0
220
0.0
230
1.0
 70
    11
 71
     3
 72
    17
 73
    13
 74
     0
 42
0.0000000001
 43
0.0000000001
 12
1.0
 22
0.0
 32
0.0
 13
1.0
 23
0.0
 33
0.0
 40
0.0
 40
0.0
 40
0.0
 40
0.0
 40
1.0
 40
1.0
 40
1.0
 40
2.0
 40
2.0
 40
2.0
 40
3.0
 40
3.0
 40
3.0
 40
4.0
 40
4.0
 40
4.0
 40
4.0
 10
119.2344102349483
 20
-116.3510375685685
 30
0.0
 10
118.9846408122677
 20
-116.3510375685685
 30
0.0
 10
118.9384765327654
 20
-116.6345689270046
 30
0.0
 10
118.9384765327654
 20
-116.9794229850781
 30
0.0
 10
118.9384765327654
 20
-117.2987833365607
 30
0.0
 10
118.974305525812
 20
-117.6074638920391
 30
0.0
 10
119.2344102349483
 20
-117.6074638920391
 30
0.0
 10
119.4821126003378
 20
-117.6074638920391
 30
0.0
 10
119.5306884466798
 20
-117.3263441004427
 30
0.0
 10
119.5306884466798
 20
-116.9794229850781
 30
0.0
 10
119.5306884466798
 20
-116.6597181240469
 30
0.0
 10
119.4924478867936
 20
-116.3510375685685
 30
0.0
 10
119.2344102349483
 20
-116.3510375685685
 30
0.0
  0
HATCH
  5
128
330
108
100
AcDbEntity
  8
_U+30EC_U+30A4_U+30E4_U+30FC 1
 62
   179
420
  2234388
100
AcDbHatch
 10
0.0
 20
0.0
 30
0.0
210
0.0
220
0.0
230
1.0
  2
SOLID
 70
     1
 71
     0
 91
        2
 92
        1
 93
        1
 72
     4
 94
        3
 73
     0
 74
     1
 95
       29
 96
       25
 40
0.0
 40
0.0
 40
0.0
 40
0.0
 40
1.0
 40
1.0
 40
1.0
 40
2.0
 40
2.0
 40
2.0
 40
3.0
 40
3.0
 40
3.0
 40
4.0
 40
4.0
 40
4.0
 40
5.0
 40
5.0
 40
5.0
 40
6.0
 40
6.0
 40
6.0
 40
7.0
 40
7.0
 40
7.0
 40
8.0
 40
8.0
 40
8.0
 40
8.0
 10
119.6323187634947
 20
-117.5737019562837
 10
119.5241427652579
 20
-117.7831637617869
 10
119.3508544623498
 20
-117.8021117869557
 10
119.2344102349483
 20
-117.8021117869557
 10
119.0735242757872
 20
-117.8021117869557
 10
118.9319308513434
 20
-117.7556029979049
 10
118.836501706402
 20
-117.5737019562837
 10
118.7331488418445
 20
-117.379054061367
 10
118.7138563071271
 20
-117.1423760015304
 10
118.7138563071271
 20
-116.9794229850781
 10
118.7138563071271
 20
-116.8354179937946
 10
118.7310817845533
 20
-116.5835815138229
 10
118.836501706402
 20
-116.384799504324
 10
118.9446777046388
 20
-116.1818833802427
 10
119.1052191542515
 20
-116.158456730943
 10
119.2344102349483
 20
-116.158456730943
 10
119.3932291368184
 20
-116.158456730943
 10
119.5368896185533
 20
-116.2028984627027
 10
119.6323187634947
 20
-116.384799504324
 10
119.7315375134699
 20
-116.5773803419494
 10
119.7549641627696
 20
-116.8057901726215
 10
119.7549641627696
 20
-116.9794229850781
 10
119.7549641627696
 20
-117.150644230695
 10
119.733604570761
 20
-117.3811211186582
 10
119.6323187634947
 20
-117.5737019562837
 97
        0
 97
        0
 92
        1
 93
        1
 72
     4
 94
        3
 73
     0
 74
     1
 95
       17
 96
       13
 40
0.0
 40
0.0
 40
0.0
 40
0.0
 40
1.0
 40
1.0
 40
1.0
 40
2.0
 40
2.0
 40
2.0
 40
3.0
 40
3.0
 40
3.0
 40
4.0
 40
4.0
 40
4.0
 40
4.0
 10
119.2344102349483
 20
-116.3510375685685
 10
118.9846408122677
 20
-116.3510375685685
 10
118.9384765327654
 20
-116.6345689270046
 10
118.9384765327654
 20
-116.9794229850781
 10
118.9384765327654
 20
-117.2987833365607
 10
118.974305525812
 20
-117.6074638920391
 10
119.2344102349483
 20
-117.6074638920391
 10
119.4821126003378
 20
-117.6074638920391
 10
119.5306884466798
 20
-117.3263441004427
 10
119.5306884466798
 20
-116.9794229850781
 10
119.5306884466798
 20
-116.6597181240469
 10
119.4924478867936
 20
-116.3510375685685
 10
119.2344102349483
 20
-116.3510375685685
 97
        0
 97
        0
 75
     2
 76
     1
 98
        0
  0
SPLINE
  5
129
330
108
100
AcDbEntity
  8
_U+30EC_U+30A4_U+30E4_U+30FC 1
370
     0
100
AcDbSpline
210
0.0
220
0.0
230
1.0
 70
    11
 71
     3
 72
    53
 73
    49
 74
     0
 42
0.0000000001
 43
0.0000000001
 12
1.0
 22
0.0
 32
0.0
 13
1.0
 23
0.0
 33
0.0
 40
0.0
 40
0.0
 40
0.0
 40
0.0
 40
1.0
 40
1.0
 40
1.0
 40
2.0
 40
2.0
 40
2.0
 40
3.0
 40
3.0
 40
3.0
 40
4.0
 40
4.0
 40
4.0
 40
5.0
 40
5.0
 40
5.0
 40
6.0
 40
6.0
 40
6.0
 40
7.0
 40
7.0
 40
7.0
 40
8.0
 40
8.0
 40
8.0
 40
9.0
 40
9.0
 40
9.0
 40
10.0
 40
10.0
 40
10.0
 40
11.0
 40
11.0
 40
11.0
 40
12.0
 40
12.0
 40
12.0
 40
13.0
 40
13.0
 40
13.0
 40
14.0
 40
14.0
 40
14.0
 40
15.0
 40
15.0
 40
15.0
 40
16.0
 40
16.0
 40
16.0
 40
16.0
 10
118.0386175920181
 20
-120.5626667992864
 30
0.0
 10
117.9600694149544
 20
-120.5626667992864
 30
0.0
 10
117.8587836076881
 20
-120.5457858314087
 30
0.0
 10
117.7571532908732
 20
-120.4823960744801
 30
0.0
 10
117.5838649879652
 20
-120.3724975285006
 30
0.0
 10
117.5625053959566
 20
-120.2412393905126
 30
0.0
 10
117.5435573707877
 20
-120.1334079018243
 30
0.0
 10
117.5435573707877
 20
-120.1334079018243
 30
0.0
 10
117.7657660295863
 20
-120.1334079018243
 30
0.0
 10
117.7657660295863
 20
-120.1334079018243
 30
0.0
 10
117.8208875573503
 20
-120.3321899113232
 30
0.0
 10
117.9476670712075
 20
-120.3618177324964
 30
0.0
 10
118.0406846493093
 20
-120.3618177324964
 30
0.0
 10
118.1802110164619
 20
-120.3618177324964
 30
0.0
 10
118.3328287464585
 20
-120.2622544729726
 30
0.0
 10
118.3328287464585
 20
-120.0297105277183
 30
0.0
 10
118.3328287464585
 20
-119.7737399331642
 30
0.0
 10
118.1529947621284
 20
-119.7038044948136
 30
0.0
 10
118.0324164201447
 20
-119.7038044948136
 30
0.0
 10
118.0007215416804
 20
-119.7038044948136
 30
0.0
 10
117.8587836076881
 20
-119.7038044948136
 30
0.0
 10
117.7699001441686
 20
-119.8329955755105
 30
0.0
 10
117.7699001441686
 20
-119.8329955755105
 30
0.0
 10
117.5942002744209
 20
-119.8140475503416
 30
0.0
 10
117.5942002744209
 20
-119.8140475503416
 30
0.0
 10
117.5942002744209
 20
-119.8140475503416
 30
0.0
 10
117.7147786164046
 20
-118.9675875896157
 30
0.0
 10
117.7147786164046
 20
-118.9675875896157
 30
0.0
 10
117.7147786164046
 20
-118.9675875896157
 30
0.0
 10
118.4933701960711
 20
-118.9675875896157
 30
0.0
 10
118.4933701960711
 20
-118.9675875896157
 30
0.0
 10
118.4933701960711
 20
-118.9675875896157
 30
0.0
 10
118.4933701960711
 20
-119.1622354845324
 30
0.0
 10
118.4933701960711
 20
-119.1622354845324
 30
0.0
 10
118.4933701960711
 20
-119.1622354845324
 30
0.0
 10
117.877731632857
 20
-119.1622354845324
 30
0.0
 10
117.877731632857
 20
-119.1622354845324
 30
0.0
 10
117.877731632857
 20
-119.1622354845324
 30
0.0
 10
117.8122748186372
 20
-119.585293210121
 30
0.0
 10
117.8122748186372
 20
-119.585293210121
 30
0.0
 10
117.8735975182747
 20
-119.5515312743656
 30
0.0
 10
117.9559353003721
 20
-119.5112236571882
 30
0.0
 10
118.0744465850647
 20
-119.5112236571882
 30
0.0
 10
118.3283501223276
 20
-119.5112236571882
 30
0.0
 10
118.5653726917128
 20
-119.6976033229402
 30
0.0
 10
118.5653726917128
 20
-120.0107625025494
 30
0.0
 10
118.5653726917128
 20
-120.3280557967409
 30
0.0
 10
118.3410969756231
 20
-120.5626667992864
 30
0.0
 10
118.0386175920181
 20
-120.5626667992864
 30
0.0
  0
HATCH
  5
12A
330
108
100
AcDbEntity
  8
_U+30EC_U+30A4_U+30E4_U+30FC 1
 62
   179
420
  2234388
100
AcDbHatch
 10
0.0
 20
0.0
 30
0.0
210
0.0
220
0.0
230
1.0
  2
SOLID
 70
     1
 71
     0
 91
        1
 92
        1
 93
        1
 72
     4
 94
        3
 73
     0
 74
     1
 95
       53
 96
       49
 40
0.0
 40
0.0
 40
0.0
 40
0.0
 40
1.0
 40
1.0
 40
1.0
 40
2.0
 40
2.0
 40
2.0
 40
3.0
 40
3.0
 40
3.0
 40
4.0
 40
4.0
 40
4.0
 40
5.0
 40
5.0
 40
5.0
 40
6.0
 40
6.0
 40
6.0
 40
7.0
 40
7.0
 40
7.0
 40
8.0
 40
8.0
 40
8.0
 40
9.0
 40
9.0
 40
9.0
 40
10.0
 40
10.0
 40
10.0
 40
11.0
 40
11.0
 40
11.0
 40
12.0
 40
12.0
 40
12.0
 40
13.0
 40
13.0
 40
13.0
 40
14.0
 40
14.0
 40
14.0
 40
15.0
 40
15.0
 40
15.0
 40
16.0
 40
16.0
 40
16.0
 40
16.0
 10
118.0386175920181
 20
-120.5626667992864
 10
117.9600694149544
 20
-120.5626667992864
 10
117.8587836076881
 20
-120.5457858314087
 10
117.7571532908732
 20
-120.4823960744801
 10
117.5838649879652
 20
-120.3724975285006
 10
117.5625053959566
 20
-120.2412393905126
 10
117.5435573707877
 20
-120.1334079018243
 10
117.5435573707877
 20
-120.1334079018243
 10
117.7657660295863
 20
-120.1334079018243
 10
117.7657660295863
 20
-120.1334079018243
 10
117.8208875573503
 20
-120.3321899113232
 10
117.9476670712075
 20
-120.3618177324964
 10
118.0406846493093
 20
-120.3618177324964
 10
118.1802110164619
 20
-120.3618177324964
 10
118.3328287464585
 20
-120.2622544729726
 10
118.3328287464585
 20
-120.0297105277183
 10
118.3328287464585
 20
-119.7737399331642
 10
118.1529947621284
 20
-119.7038044948136
 10
118.0324164201447
 20
-119.7038044948136
 10
118.0007215416804
 20
-119.7038044948136
 10
117.8587836076881
 20
-119.7038044948136
 10
117.7699001441686
 20
-119.8329955755105
 10
117.7699001441686
 20
-119.8329955755105
 10
117.5942002744209
 20
-119.8140475503416
 10
117.5942002744209
 20
-119.8140475503416
 10
117.5942002744209
 20
-119.8140475503416
 10
117.7147786164046
 20
-118.9675875896157
 10
117.7147786164046
 20
-118.9675875896157
 10
117.7147786164046
 20
-118.9675875896157
 10
118.4933701960711
 20
-118.9675875896157
 10
118.4933701960711
 20
-118.9675875896157
 10
118.4933701960711
 20
-118.9675875896157
 10
118.4933701960711
 20
-119.1622354845324
 10
118.4933701960711
 20
-119.1622354845324
 10
118.4933701960711
 20
-119.1622354845324
 10
117.877731632857
 20
-119.1622354845324
 10
117.877731632857
 20
-119.1622354845324
 10
117.877731632857
 20
-119.1622354845324
 10
117.8122748186372
 20
-119.585293210121
 10
117.8122748186372
 20
-119.585293210121
 10
117.8735975182747
 20
-119.5515312743656
 10
117.9559353003721
 20
-119.5112236571882
 10
118.0744465850647
 20
-119.5112236571882
 10
118.3283501223276
 20
-119.5112236571882
 10
118.5653726917128
 20
-119.6976033229402
 10
118.5653726917128
 20
-120.0107625025494
 10
118.5653726917128
 20
-120.3280557967409
 10
118.3410969756231
 20
-120.5626667992864
 10
118.0386175920181
 20
-120.5626667992864
 97
        0
 97
        0
 75
     2
 76
     1
 98
        0
  0
SPLINE
  5
12B
330
108
100
AcDbEntity
  8
_U+30EC_U+30A4_U+30E4_U+30FC 1
370
     0
100
AcDbSpline
210
0.0
220
0.0
230
1.0
 70
    11
 71
     3
 72
    29
 73
    25
 74
     0
 42
0.0000000001
 43
0.0000000001
 12
1.0
 22
0.0
 32
0.0
 13
1.0
 23
0.0
 33
0.0
 40
0.0
 40
0.0
 40
0.0
 40
0.0
 40
1.0
 40
1.0
 40
1.0
 40
2.0
 40
2.0
 40
2.0
 40
3.0
 40
3.0
 40
3.0
 40
4.0
 40
4.0
 40
4.0
 40
5.0
 40
5.0
 40
5.0
 40
6.0
 40
6.0
 40
6.0
 40
7.0
 40
7.0
 40
7.0
 40
8.0
 40
8.0
 40
8.0
 40
8.0
 10
119.6323187634947
 20
-120.3342569686144
 30
0.0
 10
119.5241427652579
 20
-120.5437187741176
 30
0.0
 10
119.3508544623498
 20
-120.5626667992864
 30
0.0
 10
119.2344102349483
 20
-120.5626667992864
 30
0.0
 10
119.0735242757872
 20
-120.5626667992864
 30
0.0
 10
118.9319308513434
 20
-120.5161580102355
 30
0.0
 10
118.836501706402
 20
-120.3342569686144
 30
0.0
 10
118.7331488418445
 20
-120.1396090736977
 30
0.0
 10
118.7138563071271
 20
-119.9025865043126
 30
0.0
 10
118.7138563071271
 20
-119.7399779974088
 30
0.0
 10
118.7138563071271
 20
-119.5959730061253
 30
0.0
 10
118.7310817845533
 20
-119.3441365261535
 30
0.0
 10
118.836501706402
 20
-119.1453545166546
 30
0.0
 10
118.9446777046388
 20
-118.9424383925734
 30
0.0
 10
119.1052191542515
 20
-118.9190117432737
 30
0.0
 10
119.2344102349483
 20
-118.9190117432737
 30
0.0
 10
119.3932291368184
 20
-118.9190117432737
 30
0.0
 10
119.5368896185533
 20
-118.9634534750334
 30
0.0
 10
119.6323187634947
 20
-119.1453545166546
 30
0.0
 10
119.7315375134699
 20
-119.3379353542801
 30
0.0
 10
119.7549641627696
 20
-119.5663451849522
 30
0.0
 10
119.7549641627696
 20
-119.7399779974088
 30
0.0
 10
119.7549641627696
 20
-119.9111992430257
 30
0.0
 10
119.733604570761
 20
-120.1416761309889
 30
0.0
 10
119.6323187634947
 20
-120.3342569686144
 30
0.0
  0
SPLINE
  5
12C
330
108
100
AcDbEntity
  8
_U+30EC_U+30A4_U+30E4_U+30FC 1
370
     0
100
AcDbSpline
210
0.0
220
0.0
230
1.0
 70
    11
 71
     3
 72
    17
 73
    13
 74
     0
 42
0.0000000001
 43
0.0000000001
 12
1.0
 22
0.0
 32
0.0
 13
1.0
 23
0.0
 33
0.0
 40
0.0
 40
0.0
 40
0.0
 40
0.0
 40
1.0
 40
1.0
 40
1.0
 40
2.0
 40
2.0
 40
2.0
 40
3.0
 40
3.0
 40
3.0
 40
4.0
 40
4.0
 40
4.0
 40
4.0
 10
119.2344102349483
 20
-119.1115925808992
 30
0.0
 10
118.9846408122677
 20
-119.1115925808992
 30
0.0
 10
118.9384765327654
 20
-119.3951239393352
 30
0.0
 10
118.9384765327654
 20
-119.7399779974088
 30
0.0
 10
118.9384765327654
 20
-120.0593383488914
 30
0.0
 10
118.974305525812
 20
-120.3680189043698
 30
0.0
 10
119.2344102349483
 20
-120.3680189043698
 30
0.0
 10
119.4821126003378
 20
-120.3680189043698
 30
0.0
 10
119.5306884466798
 20
-120.0868991127734
 30
0.0
 10
119.5306884466798
 20
-119.7399779974088
 30
0.0
 10
119.5306884466798
 20
-119.4202731363776
 30
0.0
 10
119.4924478867936
 20
-119.1115925808992
 30
0.0
 10
119.2344102349483
 20
-119.1115925808992
 30
0.0
  0
HATCH
  5
12D
330
108
100
AcDbEntity
  8
_U+30EC_U+30A4_U+30E4_U+30FC 1
 62
   179
420
  2234388
100
AcDbHatch
 10
0.0
 20
0.0
 30
0.0
210
0.0
220
0.0
230
1.0
  2
SOLID
 70
     1
 71
     0
 91
        2
 92
        1
 93
        1
 72
     4
 94
        3
 73
     0
 74
     1
 95
       29
 96
       25
 40
0.0
 40
0.0
 40
0.0
 40
0.0
 40
1.0
 40
1.0
 40
1.0
 40
2.0
 40
2.0
 40
2.0
 40
3.0
 40
3.0
 40
3.0
 40
4.0
 40
4.0
 40
4.0
 40
5.0
 40
5.0
 40
5.0
 40
6.0
 40
6.0
 40
6.0
 40
7.0
 40
7.0
 40
7.0
 40
8.0
 40
8.0
 40
8.0
 40
8.0
 10
119.6323187634947
 20
-120.3342569686144
 10
119.5241427652579
 20
-120.5437187741176
 10
119.3508544623498
 20
-120.5626667992864
 10
119.2344102349483
 20
-120.5626667992864
 10
119.0735242757872
 20
-120.5626667992864
 10
118.9319308513434
 20
-120.5161580102355
 10
118.836501706402
 20
-120.3342569686144
 10
118.7331488418445
 20
-120.1396090736977
 10
118.7138563071271
 20
-119.9025865043126
 10
118.7138563071271
 20
-119.7399779974088
 10
118.7138563071271
 20
-119.5959730061253
 10
118.7310817845533
 20
-119.3441365261535
 10
118.836501706402
 20
-119.1453545166546
 10
118.9446777046388
 20
-118.9424383925734
 10
119.1052191542515
 20
-118.9190117432737
 10
119.2344102349483
 20
-118.9190117432737
 10
119.3932291368184
 20
-118.9190117432737
 10
119.5368896185533
 20
-118.9634534750334
 10
119.6323187634947
 20
-119.1453545166546
 10
119.7315375134699
 20
-119.3379353542801
 10
119.7549641627696
 20
-119.5663451849522
 10
119.7549641627696
 20
-119.7399779974088
 10
119.7549641627696
 20
-119.9111992430257
 10
119.733604570761
 20
-120.1416761309889
 10
119.6323187634947
 20
-120.3342569686144
 97
        0
 97
        0
 92
        1
 93
        1
 72
     4
 94
        3
 73
     0
 74
     1
 95
       17
 96
       13
 40
0.0
 40
0.0
 40
0.0
 40
0.0
 40
1.0
 40
1.0
 40
1.0
 40
2.0
 40
2.0
 40
2.0
 40
3.0
 40
3.0
 40
3.0
 40
4.0
 40
4.0
 40
4.0
 40
4.0
 10
119.2344102349483
 20
-119.1115925808992
 10
118.9846408122677
 20
-119.1115925808992
 10
118.9384765327654
 20
-119.3951239393352
 10
118.9384765327654
 20
-119.7399779974088
 10
118.9384765327654
 20
-120.0593383488914
 10
118.974305525812
 20
-120.3680189043698
 10
119.2344102349483
 20
-120.3680189043698
 10
119.4821126003378
 20
-120.3680189043698
 10
119.5306884466798
 20
-120.0868991127734
 10
119.5306884466798
 20
-119.7399779974088
 10
119.5306884466798
 20
-119.4202731363776
 10
119.4924478867936
 20
-119.1115925808992
 10
119.2344102349483
 20
-119.1115925808992
 97
        0
 97
        0
 75
     2
 76
     1
 98
        0
  0
SPLINE
  5
12E
330
108
100
AcDbEntity
  8
_U+30EC_U+30A4_U+30E4_U+30FC 1
370
     0
100
AcDbSpline
210
0.0
220
0.0
230
1.0
 70
    11
 71
     3
 72
    32
 73
    28
 74
     0
 42
0.0000000001
 43
0.0000000001
 12
1.0
 22
0.0
 32
0.0
 13
1.0
 23
0.0
 33
0.0
 40
0.0
 40
0.0
 40
0.0
 40
0.0
 40
1.0
 40
1.0
 40
1.0
 40
2.0
 40
2.0
 40
2.0
 40
3.0
 40
3.0
 40
3.0
 40
4.0
 40
4.0
 40
4.0
 40
5.0
 40
5.0
 40
5.0
 40
6.0
 40
6.0
 40
6.0
 40
7.0
 40
7.0
 40
7.0
 40
8.0
 40
8.0
 40
8.0
 40
9.0
 40
9.0
 40
9.0
 40
9.0
 10
118.0620442413178
 20
-123.3235663211656
 30
0.0
 10
117.5456244280789
 20
-123.3235663211656
 30
0.0
 10
117.5370116893658
 20
-122.7695949671375
 30
0.0
 10
117.5370116893658
 20
-122.5556545375035
 30
0.0
 10
117.5370116893658
 20
-122.3251776495402
 30
0.0
 10
117.5563042240831
 20
-121.6778442078618
 30
0.0
 10
118.0999402916556
 20
-121.6778442078618
 30
0.0
 10
118.2735731041122
 20
-121.6778442078618
 30
0.0
 10
118.518863902662
 20
-121.7477796462124
 30
0.0
 10
118.5567599529997
 20
-122.0798868509904
 30
0.0
 10
118.5567599529997
 20
-122.0798868509904
 30
0.0
 10
118.3431640329142
 20
-122.0798868509904
 30
0.0
 10
118.3431640329142
 20
-122.0798868509904
 30
0.0
 10
118.3328287464585
 20
-122.0226982659353
 30
0.0
 10
118.3011338679942
 20
-121.8745591600696
 30
0.0
 10
118.0978732343644
 20
-121.8745591600696
 30
0.0
 10
117.8057291372152
 20
-121.8745591600696
 30
0.0
 10
117.7657660295863
 20
-122.2025322502653
 30
0.0
 10
117.7530191762909
 20
-122.4075154316377
 30
0.0
 10
117.8460367543927
 20
-122.3293117641225
 30
0.0
 10
117.9139051354521
 20
-122.2700561217762
 30
0.0
 10
118.0958061770733
 20
-122.2700561217762
 30
0.0
 10
118.2756401614033
 20
-122.2700561217762
 30
0.0
 10
118.5781195450082
 20
-122.3782321200131
 30
0.0
 10
118.5781195450082
 20
-122.784408877724
 30
0.0
 10
118.5781195450082
 20
-123.1037692292067
 30
0.0
 10
118.3789930259608
 20
-123.3235663211656
 30
0.0
 10
118.0620442413178
 20
-123.3235663211656
 30
0.0
  0
SPLINE
  5
12F
330
108
100
AcDbEntity
  8
_U+30EC_U+30A4_U+30E4_U+30FC 1
370
     0
100
AcDbSpline
210
0.0
220
0.0
230
1.0
 70
    11
 71
     3
 72
    17
 73
    13
 74
     0
 42
0.0000000001
 43
0.0000000001
 12
1.0
 22
0.0
 32
0.0
 13
1.0
 23
0.0
 33
0.0
 40
0.0
 40
0.0
 40
0.0
 40
0.0
 40
1.0
 40
1.0
 40
1.0
 40
2.0
 40
2.0
 40
2.0
 40
3.0
 40
3.0
 40
3.0
 40
4.0
 40
4.0
 40
4.0
 40
4.0
 10
118.078580699647
 20
-122.4647040166929
 30
0.0
 10
117.8164089332195
 20
-122.4647040166929
 30
0.0
 10
117.7781683733332
 20
-122.6762328794872
 30
0.0
 10
117.7781683733332
 20
-122.7926771068886
 30
0.0
 10
117.7781683733332
 20
-122.9683769766364
 30
0.0
 10
117.8735975182747
 20
-123.1313299930887
 30
0.0
 10
118.057565617187
 20
-123.1313299930887
 30
0.0
 10
118.1781439591708
 20
-123.1313299930887
 30
0.0
 10
118.3538438289185
 20
-123.0720743507424
 30
0.0
 10
118.3538438289185
 20
-122.7864759350152
 30
0.0
 10
118.3538438289185
 20
-122.5622002189254
 30
0.0
 10
118.2143174617659
 20
-122.4647040166929
 30
0.0
 10
118.078580699647
 20
-122.4647040166929
 30
0.0
  0
HATCH
  5
130
330
108
100
AcDbEntity
  8
_U+30EC_U+30A4_U+30E4_U+30FC 1
 62
   179
420
  2234388
100
AcDbHatch
 10
0.0
 20
0.0
 30
0.0
210
0.0
220
0.0
230
1.0
  2
SOLID
 70
     1
 71
     0
 91
        2
 92
        1
 93
        1
 72
     4
 94
        3
 73
     0
 74
     1
 95
       32
 96
       28
 40
0.0
 40
0.0
 40
0.0
 40
0.0
 40
1.0
 40
1.0
 40
1.0
 40
2.0
 40
2.0
 40
2.0
 40
3.0
 40
3.0
 40
3.0
 40
4.0
 40
4.0
 40
4.0
 40
5.0
 40
5.0
 40
5.0
 40
6.0
 40
6.0
 40
6.0
 40
7.0
 40
7.0
 40
7.0
 40
8.0
 40
8.0
 40
8.0
 40
9.0
 40
9.0
 40
9.0
 40
9.0
 10
118.0620442413178
 20
-123.3235663211656
 10
117.5456244280789
 20
-123.3235663211656
 10
117.5370116893658
 20
-122.7695949671375
 10
117.5370116893658
 20
-122.5556545375035
 10
117.5370116893658
 20
-122.3251776495402
 10
117.5563042240831
 20
-121.6778442078618
 10
118.0999402916556
 20
-121.6778442078618
 10
118.2735731041122
 20
-121.6778442078618
 10
118.518863902662
 20
-121.7477796462124
 10
118.5567599529997
 20
-122.0798868509904
 10
118.5567599529997
 20
-122.0798868509904
 10
118.3431640329142
 20
-122.0798868509904
 10
118.3431640329142
 20
-122.0798868509904
 10
118.3328287464585
 20
-122.0226982659353
 10
118.3011338679942
 20
-121.8745591600696
 10
118.0978732343644
 20
-121.8745591600696
 10
117.8057291372152
 20
-121.8745591600696
 10
117.7657660295863
 20
-122.2025322502653
 10
117.7530191762909
 20
-122.4075154316377
 10
117.8460367543927
 20
-122.3293117641225
 10
117.9139051354521
 20
-122.2700561217762
 10
118.0958061770733
 20
-122.2700561217762
 10
118.2756401614033
 20
-122.2700561217762
 10
118.5781195450082
 20
-122.3782321200131
 10
118.5781195450082
 20
-122.784408877724
 10
118.5781195450082
 20
-123.1037692292067
 10
118.3789930259608
 20
-123.3235663211656
 10
118.0620442413178
 20
-123.3235663211656
 97
        0
 97
        0
 92
        1
 93
        1
 72
     4
 94
        3
 73
     0
 74
     1
 95
       17
 96
       13
 40
0.0
 40
0.0
 40
0.0
 40
0.0
 40
1.0
 40
1.0
 40
1.0
 40
2.0
 40
2.0
 40
2.0
 40
3.0
 40
3.0
 40
3.0
 40
4.0
 40
4.0
 40
4.0
 40
4.0
 10
118.078580699647
 20
-122.4647040166929
 10
117.8164089332195
 20
-122.4647040166929
 10
117.7781683733332
 20
-122.6762328794872
 10
117.7781683733332
 20
-122.7926771068886
 10
117.7781683733332
 20
-122.9683769766364
 10
117.8735975182747
 20
-123.1313299930887
 10
118.057565617187
 20
-123.1313299930887
 10
118.1781439591708
 20
-123.1313299930887
 10
118.3538438289185
 20
-123.0720743507424
 10
118.3538438289185
 20
-122.7864759350152
 10
118.3538438289185
 20
-122.5622002189254
 10
118.2143174617659
 20
-122.4647040166929
 10
118.078580699647
 20
-122.4647040166929
 97
        0
 97
        0
 75
     2
 76
     1
 98
        0
  0
SPLINE
  5
131
330
108
100
AcDbEntity
  8
_U+30EC_U+30A4_U+30E4_U+30FC 1
370
     0
100
AcDbSpline
210
0.0
220
0.0
230
1.0
 70
    11
 71
     3
 72
    29
 73
    25
 74
     0
 42
0.0000000001
 43
0.0000000001
 12
1.0
 22
0.0
 32
0.0
 13
1.0
 23
0.0
 33
0.0
 40
0.0
 40
0.0
 40
0.0
 40
0.0
 40
1.0
 40
1.0
 40
1.0
 40
2.0
 40
2.0
 40
2.0
 40
3.0
 40
3.0
 40
3.0
 40
4.0
 40
4.0
 40
4.0
 40
5.0
 40
5.0
 40
5.0
 40
6.0
 40
6.0
 40
6.0
 40
7.0
 40
7.0
 40
7.0
 40
8.0
 40
8.0
 40
8.0
 40
8.0
 10
119.6323187634947
 20
-123.0951564904936
 30
0.0
 10
119.5241427652579
 20
-123.3046182959968
 30
0.0
 10
119.3508544623498
 20
-123.3235663211656
 30
0.0
 10
119.2344102349483
 20
-123.3235663211656
 30
0.0
 10
119.0735242757872
 20
-123.3235663211656
 30
0.0
 10
118.9319308513434
 20
-123.2770575321148
 30
0.0
 10
118.836501706402
 20
-123.0951564904936
 30
0.0
 10
118.7331488418445
 20
-122.900508595577
 30
0.0
 10
118.7138563071271
 20
-122.6634860261918
 30
0.0
 10
118.7138563071271
 20
-122.500877519288
 30
0.0
 10
118.7138563071271
 20
-122.3568725280045
 30
0.0
 10
118.7310817845533
 20
-122.1050360480328
 30
0.0
 10
118.836501706402
 20
-121.9062540385339
 30
0.0
 10
118.9446777046388
 20
-121.7033379144526
 30
0.0
 10
119.1052191542515
 20
-121.6799112651529
 30
0.0
 10
119.2344102349483
 20
-121.6799112651529
 30
0.0
 10
119.3932291368184
 20
-121.6799112651529
 30
0.0
 10
119.5368896185533
 20
-121.7243529969127
 30
0.0
 10
119.6323187634947
 20
-121.9062540385339
 30
0.0
 10
119.7315375134699
 20
-122.0988348761593
 30
0.0
 10
119.7549641627696
 20
-122.3272447068314
 30
0.0
 10
119.7549641627696
 20
-122.500877519288
 30
0.0
 10
119.7549641627696
 20
-122.6720987649049
 30
0.0
 10
119.733604570761
 20
-122.9025756528681
 30
0.0
 10
119.6323187634947
 20
-123.0951564904936
 30
0.0
  0
SPLINE
  5
132
330
108
100
AcDbEntity
  8
_U+30EC_U+30A4_U+30E4_U+30FC 1
370
     0
100
AcDbSpline
210
0.0
220
0.0
230
1.0
 70
    11
 71
     3
 72
    17
 73
    13
 74
     0
 42
0.0000000001
 43
0.0000000001
 12
1.0
 22
0.0
 32
0.0
 13
1.0
 23
0.0
 33
0.0
 40
0.0
 40
0.0
 40
0.0
 40
0.0
 40
1.0
 40
1.0
 40
1.0
 40
2.0
 40
2.0
 40
2.0
 40
3.0
 40
3.0
 40
3.0
 40
4.0
 40
4.0
 40
4.0
 40
4.0
 10
119.2344102349483
 20
-121.8724921027784
 30
0.0
 10
118.9846408122677
 20
-121.8724921027784
 30
0.0
 10
118.9384765327654
 20
-122.1560234612145
 30
0.0
 10
118.9384765327654
 20
-122.500877519288
 30
0.0
 10
118.9384765327654
 20
-122.8202378707706
 30
0.0
 10
118.974305525812
 20
-123.128918426249
 30
0.0
 10
119.2344102349483
 20
-123.128918426249
 30
0.0
 10
119.4821126003378
 20
-123.128918426249
 30
0.0
 10
119.5306884466798
 20
-122.8477986346526
 30
0.0
 10
119.5306884466798
 20
-122.500877519288
 30
0.0
 10
119.5306884466798
 20
-122.1811726582568
 30
0.0
 10
119.4924478867936
 20
-121.8724921027784
 30
0.0
 10
119.2344102349483
 20
-121.8724921027784
 30
0.0
  0
HATCH
  5
133
330
108
100
AcDbEntity
  8
_U+30EC_U+30A4_U+30E4_U+30FC 1
 62
   179
420
  2234388
100
AcDbHatch
 10
0.0
 20
0.0
 30
0.0
210
0.0
220
0.0
230
1.0
  2
SOLID
 70
     1
 71
     0
 91
        2
 92
        1
 93
        1
 72
     4
 94
        3
 73
     0
 74
     1
 95
       29
 96
       25
 40
0.0
 40
0.0
 40
0.0
 40
0.0
 40
1.0
 40
1.0
 40
1.0
 40
2.0
 40
2.0
 40
2.0
 40
3.0
 40
3.0
 40
3.0
 40
4.0
 40
4.0
 40
4.0
 40
5.0
 40
5.0
 40
5.0
 40
6.0
 40
6.0
 40
6.0
 40
7.0
 40
7.0
 40
7.0
 40
8.0
 40
8.0
 40
8.0
 40
8.0
 10
119.6323187634947
 20
-123.0951564904936
 10
119.5241427652579
 20
-123.3046182959968
 10
119.3508544623498
 20
-123.3235663211656
 10
119.2344102349483
 20
-123.3235663211656
 10
119.0735242757872
 20
-123.3235663211656
 10
118.9319308513434
 20
-123.2770575321148
 10
118.836501706402
 20
-123.0951564904936
 10
118.7331488418445
 20
-122.900508595577
 10
118.7138563071271
 20
-122.6634860261918
 10
118.7138563071271
 20
-122.500877519288
 10
118.7138563071271
 20
-122.3568725280045
 10
118.7310817845533
 20
-122.1050360480328
 10
118.836501706402
 20
-121.9062540385339
 10
118.9446777046388
 20
-121.7033379144526
 10
119.1052191542515
 20
-121.6799112651529
 10
119.2344102349483
 20
-121.6799112651529
 10
119.3932291368184
 20
-121.6799112651529
 10
119.5368896185533
 20
-121.7243529969127
 10
119.6323187634947
 20
-121.9062540385339
 10
119.7315375134699
 20
-122.0988348761593
 10
119.7549641627696
 20
-122.3272447068314
 10
119.7549641627696
 20
-122.500877519288
 10
119.7549641627696
 20
-122.6720987649049
 10
119.733604570761
 20
-122.9025756528681
 10
119.6323187634947
 20
-123.0951564904936
 97
        0
 97
        0
 92
        1
 93
        1
 72
     4
 94
        3
 73
     0
 74
     1
 95
       17
 96
       13
 40
0.0
 40
0.0
 40
0.0
 40
0.0
 40
1.0
 40
1.0
 40
1.0
 40
2.0
 40
2.0
 40
2.0
 40
3.0
 40
3.0
 40
3.0
 40
4.0
 40
4.0
 40
4.0
 40
4.0
 10
119.2344102349483
 20
-121.8724921027784
 10
118.9846408122677
 20
-121.8724921027784
 10
118.9384765327654
 20
-122.1560234612145
 10
118.9384765327654
 20
-122.500877519288
 10
118.9384765327654
 20
-122.8202378707706
 10
118.974305525812
 20
-123.128918426249
 10
119.2344102349483
 20
-123.128918426249
 10
119.4821126003378
 20
-123.128918426249
 10
119.5306884466798
 20
-122.8477986346526
 10
119.5306884466798
 20
-122.500877519288
 10
119.5306884466798
 20
-122.1811726582568
 10
119.4924478867936
 20
-121.8724921027784
 10
119.2344102349483
 20
-121.8724921027784
 97
        0
 97
        0
 75
     2
 76
     1
 98
        0
  0
SPLINE
  5
134
330
108
100
AcDbEntity
  8
_U+30EC_U+30A4_U+30E4_U+30FC 1
370
     0
100
AcDbSpline
210
0.0
220
0.0
230
1.0
 70
    11
 71
     3
 72
    26
 73
    22
 74
     0
 42
0.0000000001
 43
0.0000000001
 12
1.0
 22
0.0
 32
0.0
 13
1.0
 23
0.0
 33
0.0
 40
0.0
 40
0.0
 40
0.0
 40
0.0
 40
1.0
 40
1.0
 40
1.0
 40
2.0
 40
2.0
 40
2.0
 40
3.0
 40
3.0
 40
3.0
 40
4.0
 40
4.0
 40
4.0
 40
5.0
 40
5.0
 40
5.0
 40
6.0
 40
6.0
 40
6.0
 40
7.0
 40
7.0
 40
7.0
 40
7.0
 10
117.9686821536676
 20
-126.0338229394117
 30
0.0
 10
117.9686821536676
 20
-126.0338229394117
 30
0.0
 10
117.7320040938309
 20
-126.0338229394117
 30
0.0
 10
117.7320040938309
 20
-126.0338229394117
 30
0.0
 10
117.7571532908732
 20
-125.7247978743848
 30
0.0
 10
117.9497341284987
 20
-125.2066555134032
 30
0.0
 10
118.3559108862096
 20
-124.7009154961685
 30
0.0
 10
118.3559108862096
 20
-124.7009154961685
 30
0.0
 10
117.5180636641969
 20
-124.7009154961685
 30
0.0
 10
117.5180636641969
 20
-124.7009154961685
 30
0.0
 10
117.5180636641969
 20
-124.7009154961685
 30
0.0
 10
117.5180636641969
 20
-124.4893866333742
 30
0.0
 10
117.5180636641969
 20
-124.4893866333742
 30
0.0
 10
117.5180636641969
 20
-124.4893866333742
 30
0.0
 10
118.5925889460463
 20
-124.4893866333742
 30
0.0
 10
118.5925889460463
 20
-124.4893866333742
 30
0.0
 10
118.5925889460463
 20
-124.4893866333742
 30
0.0
 10
118.5925889460463
 20
-124.7009154961685
 30
0.0
 10
118.5925889460463
 20
-124.7009154961685
 30
0.0
 10
118.2690944799813
 20
-124.9909925360266
 30
0.0
 10
118.0027885989715
 20
-125.583204449941
 30
0.0
 10
117.9686821536676
 20
-126.0338229394117
 30
0.0
  0
HATCH
  5
135
330
108
100
AcDbEntity
  8
_U+30EC_U+30A4_U+30E4_U+30FC 1
 62
   179
420
  2234388
100
AcDbHatch
 10
0.0
 20
0.0
 30
0.0
210
0.0
220
0.0
230
1.0
  2
SOLID
 70
     1
 71
     0
 91
        1
 92
        1
 93
        1
 72
     4
 94
        3
 73
     0
 74
     1
 95
       26
 96
       22
 40
0.0
 40
0.0
 40
0.0
 40
0.0
 40
1.0
 40
1.0
 40
1.0
 40
2.0
 40
2.0
 40
2.0
 40
3.0
 40
3.0
 40
3.0
 40
4.0
 40
4.0
 40
4.0
 40
5.0
 40
5.0
 40
5.0
 40
6.0
 40
6.0
 40
6.0
 40
7.0
 40
7.0
 40
7.0
 40
7.0
 10
117.9686821536676
 20
-126.0338229394117
 10
117.9686821536676
 20
-126.0338229394117
 10
117.7320040938309
 20
-126.0338229394117
 10
117.7320040938309
 20
-126.0338229394117
 10
117.7571532908732
 20
-125.7247978743848
 10
117.9497341284987
 20
-125.2066555134032
 10
118.3559108862096
 20
-124.7009154961685
 10
118.3559108862096
 20
-124.7009154961685
 10
117.5180636641969
 20
-124.7009154961685
 10
117.5180636641969
 20
-124.7009154961685
 10
117.5180636641969
 20
-124.7009154961685
 10
117.5180636641969
 20
-124.4893866333742
 10
117.5180636641969
 20
-124.4893866333742
 10
117.5180636641969
 20
-124.4893866333742
 10
118.5925889460463
 20
-124.4893866333742
 10
118.5925889460463
 20
-124.4893866333742
 10
118.5925889460463
 20
-124.4893866333742
 10
118.5925889460463
 20
-124.7009154961685
 10
118.5925889460463
 20
-124.7009154961685
 10
118.2690944799813
 20
-124.9909925360266
 10
118.0027885989715
 20
-125.583204449941
 10
117.9686821536676
 20
-126.0338229394117
 97
        0
 97
        0
 75
     2
 76
     1
 98
        0
  0
SPLINE
  5
136
330
108
100
AcDbEntity
  8
_U+30EC_U+30A4_U+30E4_U+30FC 1
370
     0
100
AcDbSpline
210
0.0
220
0.0
230
1.0
 70
    11
 71
     3
 72
    53
 73
    49
 74
     0
 42
0.0000000001
 43
0.0000000001
 12
1.0
 22
0.0
 32
0.0
 13
1.0
 23
0.0
 33
0.0
 40
0.0
 40
0.0
 40
0.0
 40
0.0
 40
1.0
 40
1.0
 40
1.0
 40
2.0
 40
2.0
 40
2.0
 40
3.0
 40
3.0
 40
3.0
 40
4.0
 40
4.0
 40
4.0
 40
5.0
 40
5.0
 40
5.0
 40
6.0
 40
6.0
 40
6.0
 40
7.0
 40
7.0
 40
7.0
 40
8.0
 40
8.0
 40
8.0
 40
9.0
 40
9.0
 40
9.0
 40
10.0
 40
10.0
 40
10.0
 40
11.0
 40
11.0
 40
11.0
 40
12.0
 40
12.0
 40
12.0
 40
13.0
 40
13.0
 40
13.0
 40
14.0
 40
14.0
 40
14.0
 40
15.0
 40
15.0
 40
15.0
 40
16.0
 40
16.0
 40
16.0
 40
16.0
 10
119.2154622097795
 20
-126.0844658430449
 30
0.0
 10
119.1369140327158
 20
-126.0844658430449
 30
0.0
 10
119.0356282254494
 20
-126.0675848751671
 30
0.0
 10
118.9339979086346
 20
-126.0041951182385
 30
0.0
 10
118.7607096057265
 20
-125.8942965722591
 30
0.0
 10
118.7393500137179
 20
-125.7630384342711
 30
0.0
 10
118.7204019885491
 20
-125.6552069455827
 30
0.0
 10
118.7204019885491
 20
-125.6552069455827
 30
0.0
 10
118.9426106473477
 20
-125.6552069455827
 30
0.0
 10
118.9426106473477
 20
-125.6552069455827
 30
0.0
 10
118.9977321751117
 20
-125.8539889550816
 30
0.0
 10
119.1245116889689
 20
-125.8836167762548
 30
0.0
 10
119.2175292670706
 20
-125.8836167762548
 30
0.0
 10
119.3570556342232
 20
-125.8836167762548
 30
0.0
 10
119.5096733642198
 20
-125.7840535167311
 30
0.0
 10
119.5096733642198
 20
-125.5515095714767
 30
0.0
 10
119.5096733642198
 20
-125.2955389769226
 30
0.0
 10
119.3298393798898
 20
-125.2256035385721
 30
0.0
 10
119.209261037906
 20
-125.2256035385721
 30
0.0
 10
119.1775661594417
 20
-125.2256035385721
 30
0.0
 10
119.0356282254494
 20
-125.2256035385721
 30
0.0
 10
118.94674476193
 20
-125.3547946192689
 30
0.0
 10
118.94674476193
 20
-125.3547946192689
 30
0.0
 10
118.7710448921822
 20
-125.3358465941001
 30
0.0
 10
118.7710448921822
 20
-125.3358465941001
 30
0.0
 10
118.7710448921822
 20
-125.3358465941001
 30
0.0
 10
118.891623234166
 20
-124.4893866333742
 30
0.0
 10
118.891623234166
 20
-124.4893866333742
 30
0.0
 10
118.891623234166
 20
-124.4893866333742
 30
0.0
 10
119.6702148138325
 20
-124.4893866333742
 30
0.0
 10
119.6702148138325
 20
-124.4893866333742
 30
0.0
 10
119.6702148138325
 20
-124.4893866333742
 30
0.0
 10
119.6702148138325
 20
-124.6840345282908
 30
0.0
 10
119.6702148138325
 20
-124.6840345282908
 30
0.0
 10
119.6702148138325
 20
-124.6840345282908
 30
0.0
 10
119.0545762506183
 20
-124.6840345282908
 30
0.0
 10
119.0545762506183
 20
-124.6840345282908
 30
0.0
 10
119.0545762506183
 20
-124.6840345282908
 30
0.0
 10
118.9891194363986
 20
-125.1070922538795
 30
0.0
 10
118.9891194363986
 20
-125.1070922538795
 30
0.0
 10
119.050442136036
 20
-125.073330318124
 30
0.0
 10
119.1327799181335
 20
-125.0330227009466
 30
0.0
 10
119.2512912028261
 20
-125.0330227009466
 30
0.0
 10
119.505194740089
 20
-125.0330227009466
 30
0.0
 10
119.7422173094742
 20
-125.2194023666986
 30
0.0
 10
119.7422173094742
 20
-125.5325615463078
 30
0.0
 10
119.7422173094742
 20
-125.8498548404993
 30
0.0
 10
119.5179415933844
 20
-126.0844658430449
 30
0.0
 10
119.2154622097795
 20
-126.0844658430449
 30
0.0
  0
HATCH
  5
137
330
108
100
AcDbEntity
  8
_U+30EC_U+30A4_U+30E4_U+30FC 1
 62
   179
420
  2234388
100
AcDbHatch
 10
0.0
 20
0.0
 30
0.0
210
0.0
220
0.0
230
1.0
  2
SOLID
 70
     1
 71
     0
 91
        1
 92
        1
 93
        1
 72
     4
 94
        3
 73
     0
 74
     1
 95
       53
 96
       49
 40
0.0
 40
0.0
 40
0.0
 40
0.0
 40
1.0
 40
1.0
 40
1.0
 40
2.0
 40
2.0
 40
2.0
 40
3.0
 40
3.0
 40
3.0
 40
4.0
 40
4.0
 40
4.0
 40
5.0
 40
5.0
 40
5.0
 40
6.0
 40
6.0
 40
6.0
 40
7.0
 40
7.0
 40
7.0
 40
8.0
 40
8.0
 40
8.0
 40
9.0
 40
9.0
 40
9.0
 40
10.0
 40
10.0
 40
10.0
 40
11.0
 40
11.0
 40
11.0
 40
12.0
 40
12.0
 40
12.0
 40
13.0
 40
13.0
 40
13.0
 40
14.0
 40
14.0
 40
14.0
 40
15.0
 40
15.0
 40
15.0
 40
16.0
 40
16.0
 40
16.0
 40
16.0
 10
119.2154622097795
 20
-126.0844658430449
 10
119.1369140327158
 20
-126.0844658430449
 10
119.0356282254494
 20
-126.0675848751671
 10
118.9339979086346
 20
-126.0041951182385
 10
118.7607096057265
 20
-125.8942965722591
 10
118.7393500137179
 20
-125.7630384342711
 10
118.7204019885491
 20
-125.6552069455827
 10
118.7204019885491
 20
-125.6552069455827
 10
118.9426106473477
 20
-125.6552069455827
 10
118.9426106473477
 20
-125.6552069455827
 10
118.9977321751117
 20
-125.8539889550816
 10
119.1245116889689
 20
-125.8836167762548
 10
119.2175292670706
 20
-125.8836167762548
 10
119.3570556342232
 20
-125.8836167762548
 10
119.5096733642198
 20
-125.7840535167311
 10
119.5096733642198
 20
-125.5515095714767
 10
119.5096733642198
 20
-125.2955389769226
 10
119.3298393798898
 20
-125.2256035385721
 10
119.209261037906
 20
-125.2256035385721
 10
119.1775661594417
 20
-125.2256035385721
 10
119.0356282254494
 20
-125.2256035385721
 10
118.94674476193
 20
-125.3547946192689
 10
118.94674476193
 20
-125.3547946192689
 10
118.7710448921822
 20
-125.3358465941001
 10
118.7710448921822
 20
-125.3358465941001
 10
118.7710448921822
 20
-125.3358465941001
 10
118.891623234166
 20
-124.4893866333742
 10
118.891623234166
 20
-124.4893866333742
 10
118.891623234166
 20
-124.4893866333742
 10
119.6702148138325
 20
-124.4893866333742
 10
119.6702148138325
 20
-124.4893866333742
 10
119.6702148138325
 20
-124.4893866333742
 10
119.6702148138325
 20
-124.6840345282908
 10
119.6702148138325
 20
-124.6840345282908
 10
119.6702148138325
 20
-124.6840345282908
 10
119.0545762506183
 20
-124.6840345282908
 10
119.0545762506183
 20
-124.6840345282908
 10
119.0545762506183
 20
-124.6840345282908
 10
118.9891194363986
 20
-125.1070922538795
 10
118.9891194363986
 20
-125.1070922538795
 10
119.050442136036
 20
-125.073330318124
 10
119.1327799181335
 20
-125.0330227009466
 10
119.2512912028261
 20
-125.0330227009466
 10
119.505194740089
 20
-125.0330227009466
 10
119.7422173094742
 20
-125.2194023666986
 10
119.7422173094742
 20
-125.5325615463078
 10
119.7422173094742
 20
-125.8498548404993
 10
119.5179415933844
 20
-126.0844658430449
 10
119.2154622097795
 20
-126.0844658430449
 97
        0
 97
        0
 75
     2
 76
     1
 98
        0
  0
SPLINE
  5
138
330
108
100
AcDbEntity
  8
_U+30EC_U+30A4_U+30E4_U+30FC 1
370
     0
100
AcDbSpline
210
0.0
220
0.0
230
1.0
 70
    11
 71
     3
 72
    26
 73
    22
 74
     0
 42
0.0000000001
 43
0.0000000001
 12
1.0
 22
0.0
 32
0.0
 13
1.0
 23
0.0
 33
0.0
 40
0.0
 40
0.0
 40
0.0
 40
0.0
 40
1.0
 40
1.0
 40
1.0
 40
2.0
 40
2.0
 40
2.0
 40
3.0
 40
3.0
 40
3.0
 40
4.0
 40
4.0
 40
4.0
 40
5.0
 40
5.0
 40
5.0
 40
6.0
 40
6.0
 40
6.0
 40
7.0
 40
7.0
 40
7.0
 40
7.0
 10
117.4205674619643
 20
-128.7948947160652
 30
0.0
 10
117.4205674619643
 20
-128.7948947160652
 30
0.0
 10
117.4205674619643
 20
-127.6905693582683
 30
0.0
 10
117.4205674619643
 20
-127.6905693582683
 30
0.0
 10
117.4205674619643
 20
-127.6905693582683
 30
0.0
 10
117.0905273144774
 20
-127.6905693582683
 30
0.0
 10
117.0905273144774
 20
-127.6905693582683
 30
0.0
 10
117.0905273144774
 20
-127.6905693582683
 30
0.0
 10
117.0905273144774
 20
-127.5424302524026
 30
0.0
 10
117.0905273144774
 20
-127.5424302524026
 30
0.0
 10
117.4226345192555
 20
-127.527616341816
 30
0.0
 10
117.4691433083063
 20
-127.3646633253637
 30
0.0
 10
117.4987711294795
 20
-127.2502861552534
 30
0.0
 10
117.4987711294795
 20
-127.2502861552534
 30
0.0
 10
117.6448431780541
 20
-127.2502861552534
 30
0.0
 10
117.6448431780541
 20
-127.2502861552534
 30
0.0
 10
117.6448431780541
 20
-127.2502861552534
 30
0.0
 10
117.6448431780541
 20
-128.7948947160652
 30
0.0
 10
117.6448431780541
 20
-128.7948947160652
 30
0.0
 10
117.6448431780541
 20
-128.7948947160652
 30
0.0
 10
117.4205674619643
 20
-128.7948947160652
 30
0.0
 10
117.4205674619643
 20
-128.7948947160652
 30
0.0
  0
HATCH
  5
139
330
108
100
AcDbEntity
  8
_U+30EC_U+30A4_U+30E4_U+30FC 1
 62
   179
420
  2234388
100
AcDbHatch
 10
0.0
 20
0.0
 30
0.0
210
0.0
220
0.0
230
1.0
  2
SOLID
 70
     1
 71
     0
 91
        1
 92
        1
 93
        1
 72
     4
 94
        3
 73
     0
 74
     1
 95
       26
 96
       22
 40
0.0
 40
0.0
 40
0.0
 40
0.0
 40
1.0
 40
1.0
 40
1.0
 40
2.0
 40
2.0
 40
2.0
 40
3.0
 40
3.0
 40
3.0
 40
4.0
 40
4.0
 40
4.0
 40
5.0
 40
5.0
 40
5.0
 40
6.0
 40
6.0
 40
6.0
 40
7.0
 40
7.0
 40
7.0
 40
7.0
 10
117.4205674619643
 20
-128.7948947160652
 10
117.4205674619643
 20
-128.7948947160652
 10
117.4205674619643
 20
-127.6905693582683
 10
117.4205674619643
 20
-127.6905693582683
 10
117.4205674619643
 20
-127.6905693582683
 10
117.0905273144774
 20
-127.6905693582683
 10
117.0905273144774
 20
-127.6905693582683
 10
117.0905273144774
 20
-127.6905693582683
 10
117.0905273144774
 20
-127.5424302524026
 10
117.0905273144774
 20
-127.5424302524026
 10
117.4226345192555
 20
-127.527616341816
 10
117.4691433083063
 20
-127.3646633253637
 10
117.4987711294795
 20
-127.2502861552534
 10
117.4987711294795
 20
-127.2502861552534
 10
117.6448431780541
 20
-127.2502861552534
 10
117.6448431780541
 20
-127.2502861552534
 10
117.6448431780541
 20
-127.2502861552534
 10
117.6448431780541
 20
-128.7948947160652
 10
117.6448431780541
 20
-128.7948947160652
 10
117.6448431780541
 20
-128.7948947160652
 10
117.4205674619643
 20
-128.7948947160652
 10
117.4205674619643
 20
-128.7948947160652
 97
        0
 97
        0
 75
     2
 76
     1
 98
        0
  0
SPLINE
  5
13A
330
108
100
AcDbEntity
  8
_U+30EC_U+30A4_U+30E4_U+30FC 1
370
     0
100
AcDbSpline
210
0.0
220
0.0
230
1.0
 70
    11
 71
     3
 72
    29
 73
    25
 74
     0
 42
0.0000000001
 43
0.0000000001
 12
1.0
 22
0.0
 32
0.0
 13
1.0
 23
0.0
 33
0.0
 40
0.0
 40
0.0
 40
0.0
 40
0.0
 40
1.0
 40
1.0
 40
1.0
 40
2.0
 40
2.0
 40
2.0
 40
3.0
 40
3.0
 40
3.0
 40
4.0
 40
4.0
 40
4.0
 40
5.0
 40
5.0
 40
5.0
 40
6.0
 40
6.0
 40
6.0
 40
7.0
 40
7.0
 40
7.0
 40
8.0
 40
8.0
 40
8.0
 40
8.0
 10
119.043896454614
 20
-128.616955534252
 30
0.0
 10
118.9357204563772
 20
-128.8265895945295
 30
0.0
 10
118.7624321534691
 20
-128.8455376196983
 30
0.0
 10
118.6459879260677
 20
-128.8455376196983
 30
0.0
 10
118.4851019669065
 20
-128.8455376196983
 30
0.0
 10
118.3435085424627
 20
-128.7990288306475
 30
0.0
 10
118.2480793975213
 20
-128.616955534252
 30
0.0
 10
118.1447265329638
 20
-128.4223076393354
 30
0.0
 10
118.1254339982464
 20
-128.1852850699502
 30
0.0
 10
118.1254339982464
 20
-128.0226765630464
 30
0.0
 10
118.1254339982464
 20
-127.878671571763
 30
0.0
 10
118.1426594756727
 20
-127.6268350917912
 30
0.0
 10
118.2480793975213
 20
-127.4280530822923
 30
0.0
 10
118.3562553957582
 20
-127.2251369582111
 30
0.0
 10
118.5167968453708
 20
-127.2017103089114
 30
0.0
 10
118.6459879260677
 20
-127.2017103089114
 30
0.0
 10
118.8048068279377
 20
-127.2017103089114
 30
0.0
 10
118.9484673096726
 20
-127.2461520406711
 30
0.0
 10
119.043896454614
 20
-127.4280530822923
 30
0.0
 10
119.1431152045892
 20
-127.6206339199178
 30
0.0
 10
119.1665418538889
 20
-127.8490437505898
 30
0.0
 10
119.1665418538889
 20
-128.0226765630464
 30
0.0
 10
119.1665418538889
 20
-128.1938978086633
 30
0.0
 10
119.1451822618804
 20
-128.4243746966266
 30
0.0
 10
119.043896454614
 20
-128.616955534252
 30
0.0
  0
SPLINE
  5
13B
330
108
100
AcDbEntity
  8
_U+30EC_U+30A4_U+30E4_U+30FC 1
370
     0
100
AcDbSpline
210
0.0
220
0.0
230
1.0
 70
    11
 71
     3
 72
    17
 73
    13
 74
     0
 42
0.0000000001
 43
0.0000000001
 12
1.0
 22
0.0
 32
0.0
 13
1.0
 23
0.0
 33
0.0
 40
0.0
 40
0.0
 40
0.0
 40
0.0
 40
1.0
 40
1.0
 40
1.0
 40
2.0
 40
2.0
 40
2.0
 40
3.0
 40
3.0
 40
3.0
 40
4.0
 40
4.0
 40
4.0
 40
4.0
 10
118.6459879260677
 20
-127.3942911465368
 30
0.0
 10
118.3962185033871
 20
-127.3942911465368
 30
0.0
 10
118.3500542238847
 20
-127.6778225049729
 30
0.0
 10
118.3500542238847
 20
-128.0226765630464
 30
0.0
 10
118.3500542238847
 20
-128.3420369145291
 30
0.0
 10
118.3858832169313
 20
-128.6507174700075
 30
0.0
 10
118.6459879260677
 20
-128.6507174700075
 30
0.0
 10
118.8936902914571
 20
-128.6507174700075
 30
0.0
 10
118.9422661377992
 20
-128.3695976784111
 30
0.0
 10
118.9422661377992
 20
-128.0226765630464
 30
0.0
 10
118.9422661377992
 20
-127.7029717020152
 30
0.0
 10
118.9040255779129
 20
-127.3942911465368
 30
0.0
 10
118.6459879260677
 20
-127.3942911465368
 30
0.0
  0
HATCH
  5
13C
330
108
100
AcDbEntity
  8
_U+30EC_U+30A4_U+30E4_U+30FC 1
 62
   179
420
  2234388
100
AcDbHatch
 10
0.0
 20
0.0
 30
0.0
210
0.0
220
0.0
230
1.0
  2
SOLID
 70
     1
 71
     0
 91
        2
 92
        1
 93
        1
 72
     4
 94
        3
 73
     0
 74
     1
 95
       29
 96
       25
 40
0.0
 40
0.0
 40
0.0
 40
0.0
 40
1.0
 40
1.0
 40
1.0
 40
2.0
 40
2.0
 40
2.0
 40
3.0
 40
3.0
 40
3.0
 40
4.0
 40
4.0
 40
4.0
 40
5.0
 40
5.0
 40
5.0
 40
6.0
 40
6.0
 40
6.0
 40
7.0
 40
7.0
 40
7.0
 40
8.0
 40
8.0
 40
8.0
 40
8.0
 10
119.043896454614
 20
-128.616955534252
 10
118.9357204563772
 20
-128.8265895945295
 10
118.7624321534691
 20
-128.8455376196983
 10
118.6459879260677
 20
-128.8455376196983
 10
118.4851019669065
 20
-128.8455376196983
 10
118.3435085424627
 20
-128.7990288306475
 10
118.2480793975213
 20
-128.616955534252
 10
118.1447265329638
 20
-128.4223076393354
 10
118.1254339982464
 20
-128.1852850699502
 10
118.1254339982464
 20
-128.0226765630464
 10
118.1254339982464
 20
-127.878671571763
 10
118.1426594756727
 20
-127.6268350917912
 10
118.2480793975213
 20
-127.4280530822923
 10
118.3562553957582
 20
-127.2251369582111
 10
118.5167968453708
 20
-127.2017103089114
 10
118.6459879260677
 20
-127.2017103089114
 10
118.8048068279377
 20
-127.2017103089114
 10
118.9484673096726
 20
-127.2461520406711
 10
119.043896454614
 20
-127.4280530822923
 10
119.1431152045892
 20
-127.6206339199178
 10
119.1665418538889
 20
-127.8490437505898
 10
119.1665418538889
 20
-128.0226765630464
 10
119.1665418538889
 20
-128.1938978086633
 10
119.1451822618804
 20
-128.4243746966266
 10
119.043896454614
 20
-128.616955534252
 97
        0
 97
        0
 92
        1
 93
        1
 72
     4
 94
        3
 73
     0
 74
     1
 95
       17
 96
       13
 40
0.0
 40
0.0
 40
0.0
 40
0.0
 40
1.0
 40
1.0
 40
1.0
 40
2.0
 40
2.0
 40
2.0
 40
3.0
 40
3.0
 40
3.0
 40
4.0
 40
4.0
 40
4.0
 40
4.0
 10
118.6459879260677
 20
-127.3942911465368
 10
118.3962185033871
 20
-127.3942911465368
 10
118.3500542238847
 20
-127.6778225049729
 10
118.3500542238847
 20
-128.0226765630464
 10
118.3500542238847
 20
-128.3420369145291
 10
118.3858832169313
 20
-128.6507174700075
 10
118.6459879260677
 20
-128.6507174700075
 10
118.8936902914571
 20
-128.6507174700075
 10
118.9422661377992
 20
-128.3695976784111
 10
118.9422661377992
 20
-128.0226765630464
 10
118.9422661377992
 20
-127.7029717020152
 10
118.9040255779129
 20
-127.3942911465368
 10
118.6459879260677
 20
-127.3942911465368
 97
        0
 97
        0
 75
     2
 76
     1
 98
        0
  0
SPLINE
  5
13D
330
108
100
AcDbEntity
  8
_U+30EC_U+30A4_U+30E4_U+30FC 1
370
     0
100
AcDbSpline
210
0.0
220
0.0
230
1.0
 70
    11
 71
     3
 72
    29
 73
    25
 74
     0
 42
0.0000000001
 43
0.0000000001
 12
1.0
 22
0.0
 32
0.0
 13
1.0
 23
0.0
 33
0.0
 40
0.0
 40
0.0
 40
0.0
 40
0.0
 40
1.0
 40
1.0
 40
1.0
 40
2.0
 40
2.0
 40
2.0
 40
3.0
 40
3.0
 40
3.0
 40
4.0
 40
4.0
 40
4.0
 40
5.0
 40
5.0
 40
5.0
 40
6.0
 40
6.0
 40
6.0
 40
7.0
 40
7.0
 40
7.0
 40
8.0
 40
8.0
 40
8.0
 40
8.0
 10
120.2207410723754
 20
-128.616955534252
 30
0.0
 10
120.1125650741385
 20
-128.8265895945295
 30
0.0
 10
119.9392767712305
 20
-128.8455376196983
 30
0.0
 10
119.822832543829
 20
-128.8455376196983
 30
0.0
 10
119.6619465846678
 20
-128.8455376196983
 30
0.0
 10
119.5203531602241
 20
-128.7990288306475
 30
0.0
 10
119.4249240152827
 20
-128.616955534252
 30
0.0
 10
119.3215711507252
 20
-128.4223076393354
 30
0.0
 10
119.3022786160078
 20
-128.1852850699502
 30
0.0
 10
119.3022786160078
 20
-128.0226765630464
 30
0.0
 10
119.3022786160078
 20
-127.878671571763
 30
0.0
 10
119.319504093434
 20
-127.6268350917912
 30
0.0
 10
119.4249240152827
 20
-127.4280530822923
 30
0.0
 10
119.5331000135195
 20
-127.2251369582111
 30
0.0
 10
119.6936414631322
 20
-127.2017103089114
 30
0.0
 10
119.822832543829
 20
-127.2017103089114
 30
0.0
 10
119.981651445699
 20
-127.2017103089114
 30
0.0
 10
120.125311927434
 20
-127.2461520406711
 30
0.0
 10
120.2207410723754
 20
-127.4280530822923
 30
0.0
 10
120.3199598223506
 20
-127.6206339199178
 30
0.0
 10
120.3433864716503
 20
-127.8490437505898
 30
0.0
 10
120.3433864716503
 20
-128.0226765630464
 30
0.0
 10
120.3433864716503
 20
-128.1938978086633
 30
0.0
 10
120.3220268796417
 20
-128.4243746966266
 30
0.0
 10
120.2207410723754
 20
-128.616955534252
 30
0.0
  0
SPLINE
  5
13E
330
108
100
AcDbEntity
  8
_U+30EC_U+30A4_U+30E4_U+30FC 1
370
     0
100
AcDbSpline
210
0.0
220
0.0
230
1.0
 70
    11
 71
     3
 72
    17
 73
    13
 74
     0
 42
0.0000000001
 43
0.0000000001
 12
1.0
 22
0.0
 32
0.0
 13
1.0
 23
0.0
 33
0.0
 40
0.0
 40
0.0
 40
0.0
 40
0.0
 40
1.0
 40
1.0
 40
1.0
 40
2.0
 40
2.0
 40
2.0
 40
3.0
 40
3.0
 40
3.0
 40
4.0
 40
4.0
 40
4.0
 40
4.0
 10
119.822832543829
 20
-127.3942911465368
 30
0.0
 10
119.5730631211484
 20
-127.3942911465368
 30
0.0
 10
119.5268988416461
 20
-127.6778225049729
 30
0.0
 10
119.5268988416461
 20
-128.0226765630464
 30
0.0
 10
119.5268988416461
 20
-128.3420369145291
 30
0.0
 10
119.5627278346927
 20
-128.6507174700075
 30
0.0
 10
119.822832543829
 20
-128.6507174700075
 30
0.0
 10
120.0705349092185
 20
-128.6507174700075
 30
0.0
 10
120.1191107555605
 20
-128.3695976784111
 30
0.0
 10
120.1191107555605
 20
-128.0226765630464
 30
0.0
 10
120.1191107555605
 20
-127.7029717020152
 30
0.0
 10
120.0808701956742
 20
-127.3942911465368
 30
0.0
 10
119.822832543829
 20
-127.3942911465368
 30
0.0
  0
HATCH
  5
13F
330
108
100
AcDbEntity
  8
_U+30EC_U+30A4_U+30E4_U+30FC 1
 62
   179
420
  2234388
100
AcDbHatch
 10
0.0
 20
0.0
 30
0.0
210
0.0
220
0.0
230
1.0
  2
SOLID
 70
     1
 71
     0
 91
        2
 92
        1
 93
        1
 72
     4
 94
        3
 73
     0
 74
     1
 95
       29
 96
       25
 40
0.0
 40
0.0
 40
0.0
 40
0.0
 40
1.0
 40
1.0
 40
1.0
 40
2.0
 40
2.0
 40
2.0
 40
3.0
 40
3.0
 40
3.0
 40
4.0
 40
4.0
 40
4.0
 40
5.0
 40
5.0
 40
5.0
 40
6.0
 40
6.0
 40
6.0
 40
7.0
 40
7.0
 40
7.0
 40
8.0
 40
8.0
 40
8.0
 40
8.0
 10
120.2207410723754
 20
-128.616955534252
 10
120.1125650741385
 20
-128.8265895945295
 10
119.9392767712305
 20
-128.8455376196983
 10
119.822832543829
 20
-128.8455376196983
 10
119.6619465846678
 20
-128.8455376196983
 10
119.5203531602241
 20
-128.7990288306475
 10
119.4249240152827
 20
-128.616955534252
 10
119.3215711507252
 20
-128.4223076393354
 10
119.3022786160078
 20
-128.1852850699502
 10
119.3022786160078
 20
-128.0226765630464
 10
119.3022786160078
 20
-127.878671571763
 10
119.319504093434
 20
-127.6268350917912
 10
119.4249240152827
 20
-127.4280530822923
 10
119.5331000135195
 20
-127.2251369582111
 10
119.6936414631322
 20
-127.2017103089114
 10
119.822832543829
 20
-127.2017103089114
 10
119.981651445699
 20
-127.2017103089114
 10
120.125311927434
 20
-127.2461520406711
 10
120.2207410723754
 20
-127.4280530822923
 10
120.3199598223506
 20
-127.6206339199178
 10
120.3433864716503
 20
-127.8490437505898
 10
120.3433864716503
 20
-128.0226765630464
 10
120.3433864716503
 20
-128.1938978086633
 10
120.3220268796417
 20
-128.4243746966266
 10
120.2207410723754
 20
-128.616955534252
 97
        0
 97
        0
 92
        1
 93
        1
 72
     4
 94
        3
 73
     0
 74
     1
 95
       17
 96
       13
 40
0.0
 40
0.0
 40
0.0
 40
0.0
 40
1.0
 40
1.0
 40
1.0
 40
2.0
 40
2.0
 40
2.0
 40
3.0
 40
3.0
 40
3.0
 40
4.0
 40
4.0
 40
4.0
 40
4.0
 10
119.822832543829
 20
-127.3942911465368
 10
119.5730631211484
 20
-127.3942911465368
 10
119.5268988416461
 20
-127.6778225049729
 10
119.5268988416461
 20
-128.0226765630464
 10
119.5268988416461
 20
-128.3420369145291
 10
119.5627278346927
 20
-128.6507174700075
 10
119.822832543829
 20
-128.6507174700075
 10
120.0705349092185
 20
-128.6507174700075
 10
120.1191107555605
 20
-128.3695976784111
 10
120.1191107555605
 20
-128.0226765630464
 10
120.1191107555605
 20
-127.7029717020152
 10
120.0808701956742
 20
-127.3942911465368
 10
119.822832543829
 20
-127.3942911465368
 97
        0
 97
        0
 75
     2
 76
     1
 98
        0
  0
ENDBLK
  5
10B
330
108
100
AcDbEntity
  8
0
100
AcDbBlockEnd
  0
BLOCK
  5
142
330
140
100
AcDbEntity
  8
0
100
AcDbBlockBegin
  2
block 8
 70
     0
 10
0.0
 20
0.0
 30
0.0
  3
block 8
  1

  0
SPLINE
  5
144
330
140
100
AcDbEntity
  8
_U+30EC_U+30A4_U+30E4_U+30FC 1
370
     0
100
AcDbSpline
210
0.0
220
0.0
230
1.0
 70
    11
 71
     3
 72
    62
 73
    58
 74
     0
 42
0.0000000001
 43
0.0000000001
 12
1.0
 22
0.0
 32
0.0
 13
1.0
 23
0.0
 33
0.0
 40
0.0
 40
0.0
 40
0.0
 40
0.0
 40
1.0
 40
1.0
 40
1.0
 40
2.0
 40
2.0
 40
2.0
 40
3.0
 40
3.0
 40
3.0
 40
4.0
 40
4.0
 40
4.0
 40
5.0
 40
5.0
 40
5.0
 40
6.0
 40
6.0
 40
6.0
 40
7.0
 40
7.0
 40
7.0
 40
8.0
 40
8.0
 40
8.0
 40
9.0
 40
9.0
 40
9.0
 40
10.0
 40
10.0
 40
10.0
 40
11.0
 40
11.0
 40
11.0
 40
12.0
 40
12.0
 40
12.0
 40
13.0
 40
13.0
 40
13.0
 40
14.0
 40
14.0
 40
14.0
 40
15.0
 40
15.0
 40
15.0
 40
16.0
 40
16.0
 40
16.0
 40
17.0
 40
17.0
 40
17.0
 40
18.0
 40
18.0
 40
18.0
 40
19.0
 40
19.0
 40
19.0
 40
19.0
 10
72.36388615812432
 20
-119.753930634124
 30
0.0
 10
72.26862926795715
 20
-119.753930634124
 30
0.0
 10
72.0507269785151
 20
-119.732915551664
 30
0.0
 10
71.92601452194906
 20
-119.5468803954605
 30
0.0
 10
71.85194496901619
 20
-119.4345702826414
 30
0.0
 10
71.84763859965962
 20
-119.3353515326662
 30
0.0
 10
71.84350448507732
 20
-119.250602183729
 30
0.0
 10
71.84350448507732
 20
-119.250602183729
 30
0.0
 10
72.06347383181053
 20
-119.250602183729
 30
0.0
 10
72.06347383181053
 20
-119.250602183729
 30
0.0
 10
72.06554088910167
 20
-119.3246717366619
 30
0.0
 10
72.07622068510595
 20
-119.5592827392074
 30
0.0
 10
72.35957978876775
 20
-119.5592827392074
 30
0.0
 10
72.49721135340347
 20
-119.5592827392074
 30
0.0
 10
72.64948457385152
 20
-119.4896918104054
 30
0.0
 10
72.64948457385152
 20
-119.2612819797333
 30
0.0
 10
72.64948457385152
 20
-119.1448377523319
 30
0.0
 10
72.6114162687395
 20
-119.0962619059898
 30
0.0
 10
72.57972139027521
 20
-119.0645670275255
 30
0.0
 10
72.50565183734234
 20
-118.9904974745927
 30
0.0
 10
72.3892076099409
 20
-118.9777506212972
 30
0.0
 10
72.33425833695117
 20
-118.9777506212972
 30
0.0
 10
72.31531031178228
 20
-118.9777506212972
 30
0.0
 10
72.27930906396142
 20
-118.9798176785884
 30
0.0
 10
72.25174830007943
 20
-118.9839517931707
 30
0.0
 10
72.25174830007943
 20
-118.9839517931707
 30
0.0
 10
72.25174830007943
 20
-118.7893038982541
 30
0.0
 10
72.25174830007943
 20
-118.7893038982541
 30
0.0
 10
72.28981660519143
 20
-118.795849579676
 30
0.0
 10
72.33219127966001
 20
-118.7979166369672
 30
0.0
 10
72.33856470630772
 20
-118.7979166369672
 30
0.0
 10
72.40402152052746
 20
-118.7979166369672
 30
0.0
 10
72.60297578480065
 20
-118.7765570449587
 30
0.0
 10
72.60297578480065
 20
-118.539878985122
 30
0.0
 10
72.60297578480065
 20
-118.3621120580831
 30
0.0
 10
72.47171764681264
 20
-118.3069905303191
 30
0.0
 10
72.36181910083316
 20
-118.3069905303191
 30
0.0
 10
72.09740802234023
 20
-118.3069905303191
 30
0.0
 10
72.0887952836271
 20
-118.539878985122
 30
0.0
 10
72.08466116904481
 20
-118.6115369712152
 30
0.0
 10
72.08466116904481
 20
-118.6115369712152
 30
0.0
 10
71.88157279018934
 20
-118.6115369712152
 30
0.0
 10
71.88157279018934
 20
-118.6115369712152
 30
0.0
 10
71.8900132741282
 20
-118.4868245146491
 30
0.0
 10
71.91757403801019
 20
-118.1102755781113
 30
0.0
 10
72.37439369935433
 20
-118.1102755781113
 30
0.0
 10
72.59866941544409
 20
-118.1102755781113
 30
0.0
 10
72.83982609941158
 20
-118.237399601517
 30
0.0
 10
72.83982609941158
 20
-118.5333333037
 30
0.0
 10
72.83982609941158
 20
-118.719712969452
 30
0.0
 10
72.74474146401867
 20
-118.8020507515495
 30
0.0
 10
72.64517820449495
 20
-118.8633734511869
 30
0.0
 10
72.70667315890667
 20
-118.8909342150689
 30
0.0
 10
72.88857420052786
 20
-118.9712049398753
 30
0.0
 10
72.88857420052786
 20
-119.2485351264379
 30
0.0
 10
72.88857420052786
 20
-119.5868435030894
 30
0.0
 10
72.64104408991265
 20
-119.753930634124
 30
0.0
 10
72.36388615812432
 20
-119.753930634124
 30
0.0
  0
HATCH
  5
145
330
140
100
AcDbEntity
  8
_U+30EC_U+30A4_U+30E4_U+30FC 1
 62
   179
420
  2234388
100
AcDbHatch
 10
0.0
 20
0.0
 30
0.0
210
0.0
220
0.0
230
1.0
  2
SOLID
 70
     1
 71
     0
 91
        1
 92
        1
 93
        1
 72
     4
 94
        3
 73
     0
 74
     1
 95
       62
 96
       58
 40
0.0
 40
0.0
 40
0.0
 40
0.0
 40
1.0
 40
1.0
 40
1.0
 40
2.0
 40
2.0
 40
2.0
 40
3.0
 40
3.0
 40
3.0
 40
4.0
 40
4.0
 40
4.0
 40
5.0
 40
5.0
 40
5.0
 40
6.0
 40
6.0
 40
6.0
 40
7.0
 40
7.0
 40
7.0
 40
8.0
 40
8.0
 40
8.0
 40
9.0
 40
9.0
 40
9.0
 40
10.0
 40
10.0
 40
10.0
 40
11.0
 40
11.0
 40
11.0
 40
12.0
 40
12.0
 40
12.0
 40
13.0
 40
13.0
 40
13.0
 40
14.0
 40
14.0
 40
14.0
 40
15.0
 40
15.0
 40
15.0
 40
16.0
 40
16.0
 40
16.0
 40
17.0
 40
17.0
 40
17.0
 40
18.0
 40
18.0
 40
18.0
 40
19.0
 40
19.0
 40
19.0
 40
19.0
 10
72.36388615812432
 20
-119.753930634124
 10
72.26862926795715
 20
-119.753930634124
 10
72.0507269785151
 20
-119.732915551664
 10
71.92601452194906
 20
-119.5468803954605
 10
71.85194496901619
 20
-119.4345702826414
 10
71.84763859965962
 20
-119.3353515326662
 10
71.84350448507732
 20
-119.250602183729
 10
71.84350448507732
 20
-119.250602183729
 10
72.06347383181053
 20
-119.250602183729
 10
72.06347383181053
 20
-119.250602183729
 10
72.06554088910167
 20
-119.3246717366619
 10
72.07622068510595
 20
-119.5592827392074
 10
72.35957978876775
 20
-119.5592827392074
 10
72.49721135340347
 20
-119.5592827392074
 10
72.64948457385152
 20
-119.4896918104054
 10
72.64948457385152
 20
-119.2612819797333
 10
72.64948457385152
 20
-119.1448377523319
 10
72.6114162687395
 20
-119.0962619059898
 10
72.57972139027521
 20
-119.0645670275255
 10
72.50565183734234
 20
-118.9904974745927
 10
72.3892076099409
 20
-118.9777506212972
 10
72.33425833695117
 20
-118.9777506212972
 10
72.31531031178228
 20
-118.9777506212972
 10
72.27930906396142
 20
-118.9798176785884
 10
72.25174830007943
 20
-118.9839517931707
 10
72.25174830007943
 20
-118.9839517931707
 10
72.25174830007943
 20
-118.7893038982541
 10
72.25174830007943
 20
-118.7893038982541
 10
72.28981660519143
 20
-118.795849579676
 10
72.33219127966001
 20
-118.7979166369672
 10
72.33856470630772
 20
-118.7979166369672
 10
72.40402152052746
 20
-118.7979166369672
 10
72.60297578480065
 20
-118.7765570449587
 10
72.60297578480065
 20
-118.539878985122
 10
72.60297578480065
 20
-118.3621120580831
 10
72.47171764681264
 20
-118.3069905303191
 10
72.36181910083316
 20
-118.3069905303191
 10
72.09740802234023
 20
-118.3069905303191
 10
72.0887952836271
 20
-118.539878985122
 10
72.08466116904481
 20
-118.6115369712152
 10
72.08466116904481
 20
-118.6115369712152
 10
71.88157279018934
 20
-118.6115369712152
 10
71.88157279018934
 20
-118.6115369712152
 10
71.8900132741282
 20
-118.4868245146491
 10
71.91757403801019
 20
-118.1102755781113
 10
72.37439369935433
 20
-118.1102755781113
 10
72.59866941544409
 20
-118.1102755781113
 10
72.83982609941158
 20
-118.237399601517
 10
72.83982609941158
 20
-118.5333333037
 10
72.83982609941158
 20
-118.719712969452
 10
72.74474146401867
 20
-118.8020507515495
 10
72.64517820449495
 20
-118.8633734511869
 10
72.70667315890667
 20
-118.8909342150689
 10
72.88857420052786
 20
-118.9712049398753
 10
72.88857420052786
 20
-119.2485351264379
 10
72.88857420052786
 20
-119.5868435030894
 10
72.64104408991265
 20
-119.753930634124
 10
72.36388615812432
 20
-119.753930634124
 97
        0
 97
        0
 75
     2
 76
     1
 98
        0
  0
SPLINE
  5
146
330
140
100
AcDbEntity
  8
_U+30EC_U+30A4_U+30E4_U+30FC 1
370
     0
100
AcDbSpline
210
0.0
220
0.0
230
1.0
 70
    11
 71
     3
 72
    29
 73
    25
 74
     0
 42
0.0000000001
 43
0.0000000001
 12
1.0
 22
0.0
 32
0.0
 13
1.0
 23
0.0
 33
0.0
 40
0.0
 40
0.0
 40
0.0
 40
0.0
 40
1.0
 40
1.0
 40
1.0
 40
2.0
 40
2.0
 40
2.0
 40
3.0
 40
3.0
 40
3.0
 40
4.0
 40
4.0
 40
4.0
 40
5.0
 40
5.0
 40
5.0
 40
6.0
 40
6.0
 40
6.0
 40
7.0
 40
7.0
 40
7.0
 40
8.0
 40
8.0
 40
8.0
 40
8.0
 10
73.94690753359662
 20
-119.525520803452
 30
0.0
 10
73.8390760449083
 20
-119.7349826089551
 30
0.0
 10
73.66561548722596
 20
-119.753930634124
 30
0.0
 10
73.54917125982452
 20
-119.753930634124
 30
0.0
 10
73.38845755543761
 20
-119.753930634124
 30
0.0
 10
73.24669187621959
 20
-119.7074218450732
 30
0.0
 10
73.15143498605242
 20
-119.525520803452
 30
0.0
 10
73.04790986672066
 20
-119.3308729085353
 30
0.0
 10
73.02878958677753
 20
-119.0941948486987
 30
0.0
 10
73.02878958677753
 20
-118.9312418322464
 30
0.0
 10
73.02878958677753
 20
-118.7872368409629
 30
0.0
 10
73.04567055465525
 20
-118.5354003609912
 30
0.0
 10
73.15143498605242
 20
-118.3366183514922
 30
0.0
 10
73.25943872951501
 20
-118.133702227411
 30
0.0
 10
73.4201524339019
 20
-118.1102755781113
 30
0.0
 10
73.54917125982452
 20
-118.1102755781113
 30
0.0
 10
73.70781790692027
 20
-118.1102755781113
 30
0.0
 10
73.85165064342945
 20
-118.154717309871
 30
0.0
 10
73.94690753359662
 20
-118.3366183514922
 30
0.0
 10
74.04629853834606
 20
-118.5291991891177
 30
0.0
 10
74.0695529328715
 20
-118.7576090197898
 30
0.0
 10
74.0695529328715
 20
-118.9312418322464
 30
0.0
 10
74.0695529328715
 20
-119.1024630778633
 30
0.0
 10
74.04853785041148
 20
-119.3329399658265
 30
0.0
 10
73.94690753359662
 20
-119.525520803452
 30
0.0
  0
SPLINE
  5
147
330
140
100
AcDbEntity
  8
_U+30EC_U+30A4_U+30E4_U+30FC 1
370
     0
100
AcDbSpline
210
0.0
220
0.0
230
1.0
 70
    11
 71
     3
 72
    17
 73
    13
 74
     0
 42
0.0000000001
 43
0.0000000001
 12
1.0
 22
0.0
 32
0.0
 13
1.0
 23
0.0
 33
0.0
 40
0.0
 40
0.0
 40
0.0
 40
0.0
 40
1.0
 40
1.0
 40
1.0
 40
2.0
 40
2.0
 40
2.0
 40
3.0
 40
3.0
 40
3.0
 40
4.0
 40
4.0
 40
4.0
 40
4.0
 10
73.54917125982452
 20
-118.3028564157368
 30
0.0
 10
73.29957409191816
 20
-118.3028564157368
 30
0.0
 10
73.2530653028673
 20
-118.5863877741728
 30
0.0
 10
73.2530653028673
 20
-118.9312418322464
 30
0.0
 10
73.2530653028673
 20
-119.250602183729
 30
0.0
 10
73.28906655068815
 20
-119.5592827392074
 30
0.0
 10
73.54917125982452
 20
-119.5592827392074
 30
0.0
 10
73.79670137043972
 20
-119.5592827392074
 30
0.0
 10
73.84544947155601
 20
-119.278162947611
 30
0.0
 10
73.84544947155601
 20
-118.9312418322464
 30
0.0
 10
73.84544947155601
 20
-118.6115369712152
 30
0.0
 10
73.80720891166973
 20
-118.3028564157368
 30
0.0
 10
73.54917125982452
 20
-118.3028564157368
 30
0.0
  0
HATCH
  5
148
330
140
100
AcDbEntity
  8
_U+30EC_U+30A4_U+30E4_U+30FC 1
 62
   179
420
  2234388
100
AcDbHatch
 10
0.0
 20
0.0
 30
0.0
210
0.0
220
0.0
230
1.0
  2
SOLID
 70
     1
 71
     0
 91
        2
 92
        1
 93
        1
 72
     4
 94
        3
 73
     0
 74
     1
 95
       29
 96
       25
 40
0.0
 40
0.0
 40
0.0
 40
0.0
 40
1.0
 40
1.0
 40
1.0
 40
2.0
 40
2.0
 40
2.0
 40
3.0
 40
3.0
 40
3.0
 40
4.0
 40
4.0
 40
4.0
 40
5.0
 40
5.0
 40
5.0
 40
6.0
 40
6.0
 40
6.0
 40
7.0
 40
7.0
 40
7.0
 40
8.0
 40
8.0
 40
8.0
 40
8.0
 10
73.94690753359662
 20
-119.525520803452
 10
73.8390760449083
 20
-119.7349826089551
 10
73.66561548722596
 20
-119.753930634124
 10
73.54917125982452
 20
-119.753930634124
 10
73.38845755543761
 20
-119.753930634124
 10
73.24669187621959
 20
-119.7074218450732
 10
73.15143498605242
 20
-119.525520803452
 10
73.04790986672066
 20
-119.3308729085353
 10
73.02878958677753
 20
-119.0941948486987
 10
73.02878958677753
 20
-118.9312418322464
 10
73.02878958677753
 20
-118.7872368409629
 10
73.04567055465525
 20
-118.5354003609912
 10
73.15143498605242
 20
-118.3366183514922
 10
73.25943872951501
 20
-118.133702227411
 10
73.4201524339019
 20
-118.1102755781113
 10
73.54917125982452
 20
-118.1102755781113
 10
73.70781790692027
 20
-118.1102755781113
 10
73.85165064342945
 20
-118.154717309871
 10
73.94690753359662
 20
-118.3366183514922
 10
74.04629853834606
 20
-118.5291991891177
 10
74.0695529328715
 20
-118.7576090197898
 10
74.0695529328715
 20
-118.9312418322464
 10
74.0695529328715
 20
-119.1024630778633
 10
74.04853785041148
 20
-119.3329399658265
 10
73.94690753359662
 20
-119.525520803452
 97
        0
 97
        0
 92
        1
 93
        1
 72
     4
 94
        3
 73
     0
 74
     1
 95
       17
 96
       13
 40
0.0
 40
0.0
 40
0.0
 40
0.0
 40
1.0
 40
1.0
 40
1.0
 40
2.0
 40
2.0
 40
2.0
 40
3.0
 40
3.0
 40
3.0
 40
4.0
 40
4.0
 40
4.0
 40
4.0
 10
73.54917125982452
 20
-118.3028564157368
 10
73.29957409191816
 20
-118.3028564157368
 10
73.2530653028673
 20
-118.5863877741728
 10
73.2530653028673
 20
-118.9312418322464
 10
73.2530653028673
 20
-119.250602183729
 10
73.28906655068815
 20
-119.5592827392074
 10
73.54917125982452
 20
-119.5592827392074
 10
73.79670137043972
 20
-119.5592827392074
 10
73.84544947155601
 20
-119.278162947611
 10
73.84544947155601
 20
-118.9312418322464
 10
73.84544947155601
 20
-118.6115369712152
 10
73.80720891166973
 20
-118.3028564157368
 10
73.54917125982452
 20
-118.3028564157368
 97
        0
 97
        0
 75
     2
 76
     1
 98
        0
  0
SPLINE
  5
149
330
140
100
AcDbEntity
  8
_U+30EC_U+30A4_U+30E4_U+30FC 1
370
     0
100
AcDbSpline
210
0.0
220
0.0
230
1.0
 70
    11
 71
     3
 72
    29
 73
    25
 74
     0
 42
0.0000000001
 43
0.0000000001
 12
1.0
 22
0.0
 32
0.0
 13
1.0
 23
0.0
 33
0.0
 40
0.0
 40
0.0
 40
0.0
 40
0.0
 40
1.0
 40
1.0
 40
1.0
 40
2.0
 40
2.0
 40
2.0
 40
3.0
 40
3.0
 40
3.0
 40
4.0
 40
4.0
 40
4.0
 40
5.0
 40
5.0
 40
5.0
 40
6.0
 40
6.0
 40
6.0
 40
7.0
 40
7.0
 40
7.0
 40
8.0
 40
8.0
 40
8.0
 40
8.0
 10
75.12375215135795
 20
-119.525520803452
 30
0.0
 10
75.01592066266963
 20
-119.7349826089551
 30
0.0
 10
74.84246010498731
 20
-119.753930634124
 30
0.0
 10
74.72601587758587
 20
-119.753930634124
 30
0.0
 10
74.56530217319896
 20
-119.753930634124
 30
0.0
 10
74.42353649398092
 20
-119.7074218450732
 30
0.0
 10
74.32827960381377
 20
-119.525520803452
 30
0.0
 10
74.224754484482
 20
-119.3308729085353
 30
0.0
 10
74.20563420453887
 20
-119.0941948486987
 30
0.0
 10
74.20563420453887
 20
-118.9312418322464
 30
0.0
 10
74.20563420453887
 20
-118.7872368409629
 30
0.0
 10
74.22251517241659
 20
-118.5354003609912
 30
0.0
 10
74.32827960381377
 20
-118.3366183514922
 30
0.0
 10
74.43628334727634
 20
-118.133702227411
 30
0.0
 10
74.59699705166325
 20
-118.1102755781113
 30
0.0
 10
74.72601587758587
 20
-118.1102755781113
 30
0.0
 10
74.88466252468162
 20
-118.1102755781113
 30
0.0
 10
75.0284952611908
 20
-118.154717309871
 30
0.0
 10
75.12375215135795
 20
-118.3366183514922
 30
0.0
 10
75.22314315610741
 20
-118.5291991891177
 30
0.0
 10
75.24639755063285
 20
-118.7576090197898
 30
0.0
 10
75.24639755063285
 20
-118.9312418322464
 30
0.0
 10
75.24639755063285
 20
-119.1024630778633
 30
0.0
 10
75.22538246817282
 20
-119.3329399658265
 30
0.0
 10
75.12375215135795
 20
-119.525520803452
 30
0.0
  0
SPLINE
  5
14A
330
140
100
AcDbEntity
  8
_U+30EC_U+30A4_U+30E4_U+30FC 1
370
     0
100
AcDbSpline
210
0.0
220
0.0
230
1.0
 70
    11
 71
     3
 72
    17
 73
    13
 74
     0
 42
0.0000000001
 43
0.0000000001
 12
1.0
 22
0.0
 32
0.0
 13
1.0
 23
0.0
 33
0.0
 40
0.0
 40
0.0
 40
0.0
 40
0.0
 40
1.0
 40
1.0
 40
1.0
 40
2.0
 40
2.0
 40
2.0
 40
3.0
 40
3.0
 40
3.0
 40
4.0
 40
4.0
 40
4.0
 40
4.0
 10
74.72601587758587
 20
-118.3028564157368
 30
0.0
 10
74.4764187096795
 20
-118.3028564157368
 30
0.0
 10
74.42990992062863
 20
-118.5863877741728
 30
0.0
 10
74.42990992062863
 20
-118.9312418322464
 30
0.0
 10
74.42990992062863
 20
-119.250602183729
 30
0.0
 10
74.4659111684495
 20
-119.5592827392074
 30
0.0
 10
74.72601587758587
 20
-119.5592827392074
 30
0.0
 10
74.97354598820107
 20
-119.5592827392074
 30
0.0
 10
75.02229408931734
 20
-119.278162947611
 30
0.0
 10
75.02229408931734
 20
-118.9312418322464
 30
0.0
 10
75.02229408931734
 20
-118.6115369712152
 30
0.0
 10
74.98405352943108
 20
-118.3028564157368
 30
0.0
 10
74.72601587758587
 20
-118.3028564157368
 30
0.0
  0
HATCH
  5
14B
330
140
100
AcDbEntity
  8
_U+30EC_U+30A4_U+30E4_U+30FC 1
 62
   179
420
  2234388
100
AcDbHatch
 10
0.0
 20
0.0
 30
0.0
210
0.0
220
0.0
230
1.0
  2
SOLID
 70
     1
 71
     0
 91
        2
 92
        1
 93
        1
 72
     4
 94
        3
 73
     0
 74
     1
 95
       29
 96
       25
 40
0.0
 40
0.0
 40
0.0
 40
0.0
 40
1.0
 40
1.0
 40
1.0
 40
2.0
 40
2.0
 40
2.0
 40
3.0
 40
3.0
 40
3.0
 40
4.0
 40
4.0
 40
4.0
 40
5.0
 40
5.0
 40
5.0
 40
6.0
 40
6.0
 40
6.0
 40
7.0
 40
7.0
 40
7.0
 40
8.0
 40
8.0
 40
8.0
 40
8.0
 10
75.12375215135795
 20
-119.525520803452
 10
75.01592066266963
 20
-119.7349826089551
 10
74.84246010498731
 20
-119.753930634124
 10
74.72601587758587
 20
-119.753930634124
 10
74.56530217319896
 20
-119.753930634124
 10
74.42353649398092
 20
-119.7074218450732
 10
74.32827960381377
 20
-119.525520803452
 10
74.224754484482
 20
-119.3308729085353
 10
74.20563420453887
 20
-119.0941948486987
 10
74.20563420453887
 20
-118.9312418322464
 10
74.20563420453887
 20
-118.7872368409629
 10
74.22251517241659
 20
-118.5354003609912
 10
74.32827960381377
 20
-118.3366183514922
 10
74.43628334727634
 20
-118.133702227411
 10
74.59699705166325
 20
-118.1102755781113
 10
74.72601587758587
 20
-118.1102755781113
 10
74.88466252468162
 20
-118.1102755781113
 10
75.0284952611908
 20
-118.154717309871
 10
75.12375215135795
 20
-118.3366183514922
 10
75.22314315610741
 20
-118.5291991891177
 10
75.24639755063285
 20
-118.7576090197898
 10
75.24639755063285
 20
-118.9312418322464
 10
75.24639755063285
 20
-119.1024630778633
 10
75.22538246817282
 20
-119.3329399658265
 10
75.12375215135795
 20
-119.525520803452
 97
        0
 97
        0
 92
        1
 93
        1
 72
     4
 94
        3
 73
     0
 74
     1
 95
       17
 96
       13
 40
0.0
 40
0.0
 40
0.0
 40
0.0
 40
1.0
 40
1.0
 40
1.0
 40
2.0
 40
2.0
 40
2.0
 40
3.0
 40
3.0
 40
3.0
 40
4.0
 40
4.0
 40
4.0
 40
4.0
 10
74.72601587758587
 20
-118.3028564157368
 10
74.4764187096795
 20
-118.3028564157368
 10
74.42990992062863
 20
-118.5863877741728
 10
74.42990992062863
 20
-118.9312418322464
 10
74.42990992062863
 20
-119.250602183729
 10
74.4659111684495
 20
-119.5592827392074
 10
74.72601587758587
 20
-119.5592827392074
 10
74.97354598820107
 20
-119.5592827392074
 10
75.02229408931734
 20
-119.278162947611
 10
75.02229408931734
 20
-118.9312418322464
 10
75.02229408931734
 20
-118.6115369712152
 10
74.98405352943108
 20
-118.3028564157368
 10
74.72601587758587
 20
-118.3028564157368
 97
        0
 97
        0
 75
     2
 76
     1
 98
        0
  0
ENDBLK
  5
143
330
140
100
AcDbEntity
  8
0
100
AcDbBlockEnd
  0
BLOCK
  5
14E
330
14C
100
AcDbEntity
  8
0
100
AcDbBlockBegin
  2
block 9
 70
     0
 10
0.0
 20
0.0
 30
0.0
  3
block 9
  1

  0
SPLINE
  5
150
330
14C
100
AcDbEntity
  8
_U+30EC_U+30A4_U+30E4_U+30FC 1
370
     0
100
AcDbSpline
210
0.0
220
0.0
230
1.0
 70
    11
 71
     3
 72
    62
 73
    58
 74
     0
 42
0.0000000001
 43
0.0000000001
 12
1.0
 22
0.0
 32
0.0
 13
1.0
 23
0.0
 33
0.0
 40
0.0
 40
0.0
 40
0.0
 40
0.0
 40
1.0
 40
1.0
 40
1.0
 40
2.0
 40
2.0
 40
2.0
 40
3.0
 40
3.0
 40
3.0
 40
4.0
 40
4.0
 40
4.0
 40
5.0
 40
5.0
 40
5.0
 40
6.0
 40
6.0
 40
6.0
 40
7.0
 40
7.0
 40
7.0
 40
8.0
 40
8.0
 40
8.0
 40
9.0
 40
9.0
 40
9.0
 40
10.0
 40
10.0
 40
10.0
 40
11.0
 40
11.0
 40
11.0
 40
12.0
 40
12.0
 40
12.0
 40
13.0
 40
13.0
 40
13.0
 40
14.0
 40
14.0
 40
14.0
 40
15.0
 40
15.0
 40
15.0
 40
16.0
 40
16.0
 40
16.0
 40
17.0
 40
17.0
 40
17.0
 40
18.0
 40
18.0
 40
18.0
 40
19.0
 40
19.0
 40
19.0
 40
19.0
 10
95.88251950727937
 20
-111.8164306361084
 30
0.0
 10
95.78709036233795
 20
-111.8164306361084
 30
0.0
 10
95.56936032767017
 20
-111.7954155536484
 30
0.0
 10
95.44464787110412
 20
-111.6093803974449
 30
0.0
 10
95.37057831817125
 20
-111.4970702846257
 30
0.0
 10
95.36609969404043
 20
-111.3978515346505
 30
0.0
 10
95.36196557945813
 20
-111.3131021857134
 30
0.0
 10
95.36196557945813
 20
-111.3131021857134
 30
0.0
 10
95.5821071809656
 20
-111.3131021857134
 30
0.0
 10
95.5821071809656
 20
-111.3131021857134
 30
0.0
 10
95.58417423825674
 20
-111.3871717386463
 30
0.0
 10
95.59485403426102
 20
-111.6217827411918
 30
0.0
 10
95.87804088314854
 20
-111.6217827411918
 30
0.0
 10
96.01584470255854
 20
-111.6217827411918
 30
0.0
 10
96.16811792300659
 20
-111.5521918123897
 30
0.0
 10
96.16811792300659
 20
-111.3237819817177
 30
0.0
 10
96.16811792300659
 20
-111.2073377543162
 30
0.0
 10
96.12987736312031
 20
-111.1587619079742
 30
0.0
 10
96.09818248465601
 20
-111.1270670295099
 30
0.0
 10
96.02411293172314
 20
-111.052997476577
 30
0.0
 10
95.9076687043217
 20
-111.0402506232816
 30
0.0
 10
95.85289168610623
 20
-111.0402506232816
 30
0.0
 10
95.83394366093735
 20
-111.0402506232816
 30
0.0
 10
95.79777015834223
 20
-111.0423176805728
 30
0.0
 10
95.77020939446022
 20
-111.0464517951551
 30
0.0
 10
95.77020939446022
 20
-111.0464517951551
 30
0.0
 10
95.77020939446022
 20
-110.8518039002384
 30
0.0
 10
95.77020939446022
 20
-110.8518039002384
 30
0.0
 10
95.8084499543465
 20
-110.8583495816604
 30
0.0
 10
95.85082462881508
 20
-110.8604166389516
 30
0.0
 10
95.85702580068853
 20
-110.8604166389516
 30
0.0
 10
95.92248261490828
 20
-110.8604166389516
 30
0.0
 10
96.12160913395572
 20
-110.839057046943
 30
0.0
 10
96.12160913395572
 20
-110.6023789871063
 30
0.0
 10
96.12160913395572
 20
-110.4246120600675
 30
0.0
 10
95.99035099596769
 20
-110.3694905323035
 30
0.0
 10
95.88045244998823
 20
-110.3694905323035
 30
0.0
 10
95.61586911672104
 20
-110.3694905323035
 30
0.0
 10
95.60725637800792
 20
-110.6023789871063
 30
0.0
 10
95.60312226342562
 20
-110.6740369731995
 30
0.0
 10
95.60312226342562
 20
-110.6740369731995
 30
0.0
 10
95.40020613934439
 20
-110.6740369731995
 30
0.0
 10
95.40020613934439
 20
-110.6740369731995
 30
0.0
 10
95.40847436850899
 20
-110.5493245166335
 30
0.0
 10
95.436035132391
 20
-110.1727755800957
 30
0.0
 10
95.89285479373513
 20
-110.1727755800957
 30
0.0
 10
96.11713050982489
 20
-110.1727755800957
 30
0.0
 10
96.35828719379238
 20
-110.2998996035014
 30
0.0
 10
96.35828719379238
 20
-110.5958333056844
 30
0.0
 10
96.35828719379238
 20
-110.7822129714364
 30
0.0
 10
96.26320255839948
 20
-110.8645507535339
 30
0.0
 10
96.16363929887576
 20
-110.9258734531713
 30
0.0
 10
96.22530650806173
 20
-110.9534342170533
 30
0.0
 10
96.40720754968292
 20
-111.0337049418596
 30
0.0
 10
96.40720754968292
 20
-111.3110351284222
 30
0.0
 10
96.40720754968292
 20
-111.6493435050738
 30
0.0
 10
96.15950518429347
 20
-111.8164306361084
 30
0.0
 10
95.88251950727937
 20
-111.8164306361084
 30
0.0
  0
HATCH
  5
151
330
14C
100
AcDbEntity
  8
_U+30EC_U+30A4_U+30E4_U+30FC 1
 62
   179
420
  2234388
100
AcDbHatch
 10
0.0
 20
0.0
 30
0.0
210
0.0
220
0.0
230
1.0
  2
SOLID
 70
     1
 71
     0
 91
        1
 92
        1
 93
        1
 72
     4
 94
        3
 73
     0
 74
     1
 95
       62
 96
       58
 40
0.0
 40
0.0
 40
0.0
 40
0.0
 40
1.0
 40
1.0
 40
1.0
 40
2.0
 40
2.0
 40
2.0
 40
3.0
 40
3.0
 40
3.0
 40
4.0
 40
4.0
 40
4.0
 40
5.0
 40
5.0
 40
5.0
 40
6.0
 40
6.0
 40
6.0
 40
7.0
 40
7.0
 40
7.0
 40
8.0
 40
8.0
 40
8.0
 40
9.0
 40
9.0
 40
9.0
 40
10.0
 40
10.0
 40
10.0
 40
11.0
 40
11.0
 40
11.0
 40
12.0
 40
12.0
 40
12.0
 40
13.0
 40
13.0
 40
13.0
 40
14.0
 40
14.0
 40
14.0
 40
15.0
 40
15.0
 40
15.0
 40
16.0
 40
16.0
 40
16.0
 40
17.0
 40
17.0
 40
17.0
 40
18.0
 40
18.0
 40
18.0
 40
19.0
 40
19.0
 40
19.0
 40
19.0
 10
95.88251950727937
 20
-111.8164306361084
 10
95.78709036233795
 20
-111.8164306361084
 10
95.56936032767017
 20
-111.7954155536484
 10
95.44464787110412
 20
-111.6093803974449
 10
95.37057831817125
 20
-111.4970702846257
 10
95.36609969404043
 20
-111.3978515346505
 10
95.36196557945813
 20
-111.3131021857134
 10
95.36196557945813
 20
-111.3131021857134
 10
95.5821071809656
 20
-111.3131021857134
 10
95.5821071809656
 20
-111.3131021857134
 10
95.58417423825674
 20
-111.3871717386463
 10
95.59485403426102
 20
-111.6217827411918
 10
95.87804088314854
 20
-111.6217827411918
 10
96.01584470255854
 20
-111.6217827411918
 10
96.16811792300659
 20
-111.5521918123897
 10
96.16811792300659
 20
-111.3237819817177
 10
96.16811792300659
 20
-111.2073377543162
 10
96.12987736312031
 20
-111.1587619079742
 10
96.09818248465601
 20
-111.1270670295099
 10
96.02411293172314
 20
-111.052997476577
 10
95.9076687043217
 20
-111.0402506232816
 10
95.85289168610623
 20
-111.0402506232816
 10
95.83394366093735
 20
-111.0402506232816
 10
95.79777015834223
 20
-111.0423176805728
 10
95.77020939446022
 20
-111.0464517951551
 10
95.77020939446022
 20
-111.0464517951551
 10
95.77020939446022
 20
-110.8518039002384
 10
95.77020939446022
 20
-110.8518039002384
 10
95.8084499543465
 20
-110.8583495816604
 10
95.85082462881508
 20
-110.8604166389516
 10
95.85702580068853
 20
-110.8604166389516
 10
95.92248261490828
 20
-110.8604166389516
 10
96.12160913395572
 20
-110.839057046943
 10
96.12160913395572
 20
-110.6023789871063
 10
96.12160913395572
 20
-110.4246120600675
 10
95.99035099596769
 20
-110.3694905323035
 10
95.88045244998823
 20
-110.3694905323035
 10
95.61586911672104
 20
-110.3694905323035
 10
95.60725637800792
 20
-110.6023789871063
 10
95.60312226342562
 20
-110.6740369731995
 10
95.60312226342562
 20
-110.6740369731995
 10
95.40020613934439
 20
-110.6740369731995
 10
95.40020613934439
 20
-110.6740369731995
 10
95.40847436850899
 20
-110.5493245166335
 10
95.436035132391
 20
-110.1727755800957
 10
95.89285479373513
 20
-110.1727755800957
 10
96.11713050982489
 20
-110.1727755800957
 10
96.35828719379238
 20
-110.2998996035014
 10
96.35828719379238
 20
-110.5958333056844
 10
96.35828719379238
 20
-110.7822129714364
 10
96.26320255839948
 20
-110.8645507535339
 10
96.16363929887576
 20
-110.9258734531713
 10
96.22530650806173
 20
-110.9534342170533
 10
96.40720754968292
 20
-111.0337049418596
 10
96.40720754968292
 20
-111.3110351284222
 10
96.40720754968292
 20
-111.6493435050738
 10
96.15950518429347
 20
-111.8164306361084
 10
95.88251950727937
 20
-111.8164306361084
 97
        0
 97
        0
 75
     2
 76
     1
 98
        0
  0
SPLINE
  5
152
330
14C
100
AcDbEntity
  8
_U+30EC_U+30A4_U+30E4_U+30FC 1
370
     0
100
AcDbSpline
210
0.0
220
0.0
230
1.0
 70
    11
 71
     3
 72
    29
 73
    25
 74
     0
 42
0.0000000001
 43
0.0000000001
 12
1.0
 22
0.0
 32
0.0
 13
1.0
 23
0.0
 33
0.0
 40
0.0
 40
0.0
 40
0.0
 40
0.0
 40
1.0
 40
1.0
 40
1.0
 40
2.0
 40
2.0
 40
2.0
 40
3.0
 40
3.0
 40
3.0
 40
4.0
 40
4.0
 40
4.0
 40
5.0
 40
5.0
 40
5.0
 40
6.0
 40
6.0
 40
6.0
 40
7.0
 40
7.0
 40
7.0
 40
8.0
 40
8.0
 40
8.0
 40
8.0
 10
97.46554088275167
 20
-111.5880208054363
 30
0.0
 10
97.35770939406335
 20
-111.7974826109395
 30
0.0
 10
97.18407658160676
 20
-111.8164306361084
 30
0.0
 10
97.06763235420532
 20
-111.8164306361084
 30
0.0
 10
96.90709090459268
 20
-111.8164306361084
 30
0.0
 10
96.76515297060038
 20
-111.7699218470575
 30
0.0
 10
96.67006833520749
 20
-111.5880208054363
 30
0.0
 10
96.56637096110147
 20
-111.3933729105197
 30
0.0
 10
96.54742293593259
 20
-111.1566948506831
 30
0.0
 10
96.54742293593259
 20
-110.9937418342307
 30
0.0
 10
96.54742293593259
 20
-110.8497368429473
 30
0.0
 10
96.56430390381031
 20
-110.5979003629755
 30
0.0
 10
96.67006833520749
 20
-110.3991183534766
 30
0.0
 10
96.77789982389581
 20
-110.1962022293954
 30
0.0
 10
96.93878578305697
 20
-110.1727755800957
 30
0.0
 10
97.06763235420532
 20
-110.1727755800957
 30
0.0
 10
97.22645125607534
 20
-110.1727755800957
 30
0.0
 10
97.37011173781025
 20
-110.2172173118554
 30
0.0
 10
97.46554088275167
 20
-110.3991183534766
 30
0.0
 10
97.56475963272688
 20
-110.5916991911021
 30
0.0
 10
97.58818628202657
 20
-110.8201090217741
 30
0.0
 10
97.58818628202657
 20
-110.9937418342307
 30
0.0
 10
97.58818628202657
 20
-111.1649630798477
 30
0.0
 10
97.56717119956654
 20
-111.3954399678109
 30
0.0
 10
97.46554088275167
 20
-111.5880208054363
 30
0.0
  0
SPLINE
  5
153
330
14C
100
AcDbEntity
  8
_U+30EC_U+30A4_U+30E4_U+30FC 1
370
     0
100
AcDbSpline
210
0.0
220
0.0
230
1.0
 70
    11
 71
     3
 72
    17
 73
    13
 74
     0
 42
0.0000000001
 43
0.0000000001
 12
1.0
 22
0.0
 32
0.0
 13
1.0
 23
0.0
 33
0.0
 40
0.0
 40
0.0
 40
0.0
 40
0.0
 40
1.0
 40
1.0
 40
1.0
 40
2.0
 40
2.0
 40
2.0
 40
3.0
 40
3.0
 40
3.0
 40
4.0
 40
4.0
 40
4.0
 40
4.0
 10
97.06763235420532
 20
-110.3653564177212
 30
0.0
 10
96.81820744107323
 20
-110.3653564177212
 30
0.0
 10
96.77169865202235
 20
-110.6488877761572
 30
0.0
 10
96.77169865202235
 20
-110.9937418342307
 30
0.0
 10
96.77169865202235
 20
-111.3131021857134
 30
0.0
 10
96.80752764506896
 20
-111.6217827411918
 30
0.0
 10
97.06763235420532
 20
-111.6217827411918
 30
0.0
 10
97.31533471959479
 20
-111.6217827411918
 30
0.0
 10
97.3639105659368
 20
-111.3406629495954
 30
0.0
 10
97.3639105659368
 20
-110.9937418342307
 30
0.0
 10
97.3639105659368
 20
-110.6740369731995
 30
0.0
 10
97.32567000605053
 20
-110.3653564177212
 30
0.0
 10
97.06763235420532
 20
-110.3653564177212
 30
0.0
  0
HATCH
  5
154
330
14C
100
AcDbEntity
  8
_U+30EC_U+30A4_U+30E4_U+30FC 1
 62
   179
420
  2234388
100
AcDbHatch
 10
0.0
 20
0.0
 30
0.0
210
0.0
220
0.0
230
1.0
  2
SOLID
 70
     1
 71
     0
 91
        2
 92
        1
 93
        1
 72
     4
 94
        3
 73
     0
 74
     1
 95
       29
 96
       25
 40
0.0
 40
0.0
 40
0.0
 40
0.0
 40
1.0
 40
1.0
 40
1.0
 40
2.0
 40
2.0
 40
2.0
 40
3.0
 40
3.0
 40
3.0
 40
4.0
 40
4.0
 40
4.0
 40
5.0
 40
5.0
 40
5.0
 40
6.0
 40
6.0
 40
6.0
 40
7.0
 40
7.0
 40
7.0
 40
8.0
 40
8.0
 40
8.0
 40
8.0
 10
97.46554088275167
 20
-111.5880208054363
 10
97.35770939406335
 20
-111.7974826109395
 10
97.18407658160676
 20
-111.8164306361084
 10
97.06763235420532
 20
-111.8164306361084
 10
96.90709090459268
 20
-111.8164306361084
 10
96.76515297060038
 20
-111.7699218470575
 10
96.67006833520749
 20
-111.5880208054363
 10
96.56637096110147
 20
-111.3933729105197
 10
96.54742293593259
 20
-111.1566948506831
 10
96.54742293593259
 20
-110.9937418342307
 10
96.54742293593259
 20
-110.8497368429473
 10
96.56430390381031
 20
-110.5979003629755
 10
96.67006833520749
 20
-110.3991183534766
 10
96.77789982389581
 20
-110.1962022293954
 10
96.93878578305697
 20
-110.1727755800957
 10
97.06763235420532
 20
-110.1727755800957
 10
97.22645125607534
 20
-110.1727755800957
 10
97.37011173781025
 20
-110.2172173118554
 10
97.46554088275167
 20
-110.3991183534766
 10
97.56475963272688
 20
-110.5916991911021
 10
97.58818628202657
 20
-110.8201090217741
 10
97.58818628202657
 20
-110.9937418342307
 10
97.58818628202657
 20
-111.1649630798477
 10
97.56717119956654
 20
-111.3954399678109
 10
97.46554088275167
 20
-111.5880208054363
 97
        0
 97
        0
 92
        1
 93
        1
 72
     4
 94
        3
 73
     0
 74
     1
 95
       17
 96
       13
 40
0.0
 40
0.0
 40
0.0
 40
0.0
 40
1.0
 40
1.0
 40
1.0
 40
2.0
 40
2.0
 40
2.0
 40
3.0
 40
3.0
 40
3.0
 40
4.0
 40
4.0
 40
4.0
 40
4.0
 10
97.06763235420532
 20
-110.3653564177212
 10
96.81820744107323
 20
-110.3653564177212
 10
96.77169865202235
 20
-110.6488877761572
 10
96.77169865202235
 20
-110.9937418342307
 10
96.77169865202235
 20
-111.3131021857134
 10
96.80752764506896
 20
-111.6217827411918
 10
97.06763235420532
 20
-111.6217827411918
 10
97.31533471959479
 20
-111.6217827411918
 10
97.3639105659368
 20
-111.3406629495954
 10
97.3639105659368
 20
-110.9937418342307
 10
97.3639105659368
 20
-110.6740369731995
 10
97.32567000605053
 20
-110.3653564177212
 10
97.06763235420532
 20
-110.3653564177212
 97
        0
 97
        0
 75
     2
 76
     1
 98
        0
  0
SPLINE
  5
155
330
14C
100
AcDbEntity
  8
_U+30EC_U+30A4_U+30E4_U+30FC 1
370
     0
100
AcDbSpline
210
0.0
220
0.0
230
1.0
 70
    11
 71
     3
 72
    29
 73
    25
 74
     0
 42
0.0000000001
 43
0.0000000001
 12
1.0
 22
0.0
 32
0.0
 13
1.0
 23
0.0
 33
0.0
 40
0.0
 40
0.0
 40
0.0
 40
0.0
 40
1.0
 40
1.0
 40
1.0
 40
2.0
 40
2.0
 40
2.0
 40
3.0
 40
3.0
 40
3.0
 40
4.0
 40
4.0
 40
4.0
 40
5.0
 40
5.0
 40
5.0
 40
6.0
 40
6.0
 40
6.0
 40
7.0
 40
7.0
 40
7.0
 40
8.0
 40
8.0
 40
8.0
 40
8.0
 10
98.64238550051302
 20
-111.5880208054363
 30
0.0
 10
98.5345540118247
 20
-111.7974826109395
 30
0.0
 10
98.36092119936811
 20
-111.8164306361084
 30
0.0
 10
98.24447697196666
 20
-111.8164306361084
 30
0.0
 10
98.08393552235403
 20
-111.8164306361084
 30
0.0
 10
97.94199758836173
 20
-111.7699218470575
 30
0.0
 10
97.84691295296884
 20
-111.5880208054363
 30
0.0
 10
97.74321557886282
 20
-111.3933729105197
 30
0.0
 10
97.72426755369393
 20
-111.1566948506831
 30
0.0
 10
97.72426755369393
 20
-110.9937418342307
 30
0.0
 10
97.72426755369393
 20
-110.8497368429473
 30
0.0
 10
97.74114852157166
 20
-110.5979003629755
 30
0.0
 10
97.84691295296884
 20
-110.3991183534766
 30
0.0
 10
97.95474444165716
 20
-110.1962022293954
 30
0.0
 10
98.11563040081832
 20
-110.1727755800957
 30
0.0
 10
98.24447697196666
 20
-110.1727755800957
 30
0.0
 10
98.40329587383668
 20
-110.1727755800957
 30
0.0
 10
98.5469563555716
 20
-110.2172173118554
 30
0.0
 10
98.64238550051302
 20
-110.3991183534766
 30
0.0
 10
98.74160425048821
 20
-110.5916991911021
 30
0.0
 10
98.76503089978792
 20
-110.8201090217741
 30
0.0
 10
98.76503089978792
 20
-110.9937418342307
 30
0.0
 10
98.76503089978792
 20
-111.1649630798477
 30
0.0
 10
98.74401581732789
 20
-111.3954399678109
 30
0.0
 10
98.64238550051302
 20
-111.5880208054363
 30
0.0
  0
SPLINE
  5
156
330
14C
100
AcDbEntity
  8
_U+30EC_U+30A4_U+30E4_U+30FC 1
370
     0
100
AcDbSpline
210
0.0
220
0.0
230
1.0
 70
    11
 71
     3
 72
    17
 73
    13
 74
     0
 42
0.0000000001
 43
0.0000000001
 12
1.0
 22
0.0
 32
0.0
 13
1.0
 23
0.0
 33
0.0
 40
0.0
 40
0.0
 40
0.0
 40
0.0
 40
1.0
 40
1.0
 40
1.0
 40
2.0
 40
2.0
 40
2.0
 40
3.0
 40
3.0
 40
3.0
 40
4.0
 40
4.0
 40
4.0
 40
4.0
 10
98.24447697196666
 20
-110.3653564177212
 30
0.0
 10
97.99505205883457
 20
-110.3653564177212
 30
0.0
 10
97.9485432697837
 20
-110.6488877761572
 30
0.0
 10
97.9485432697837
 20
-110.9937418342307
 30
0.0
 10
97.9485432697837
 20
-111.3131021857134
 30
0.0
 10
97.9843722628303
 20
-111.6217827411918
 30
0.0
 10
98.24447697196666
 20
-111.6217827411918
 30
0.0
 10
98.49217933735612
 20
-111.6217827411918
 30
0.0
 10
98.54075518369815
 20
-111.3406629495954
 30
0.0
 10
98.54075518369815
 20
-110.9937418342307
 30
0.0
 10
98.54075518369815
 20
-110.6740369731995
 30
0.0
 10
98.50251462381188
 20
-110.3653564177212
 30
0.0
 10
98.24447697196666
 20
-110.3653564177212
 30
0.0
  0
HATCH
  5
157
330
14C
100
AcDbEntity
  8
_U+30EC_U+30A4_U+30E4_U+30FC 1
 62
   179
420
  2234388
100
AcDbHatch
 10
0.0
 20
0.0
 30
0.0
210
0.0
220
0.0
230
1.0
  2
SOLID
 70
     1
 71
     0
 91
        2
 92
        1
 93
        1
 72
     4
 94
        3
 73
     0
 74
     1
 95
       29
 96
       25
 40
0.0
 40
0.0
 40
0.0
 40
0.0
 40
1.0
 40
1.0
 40
1.0
 40
2.0
 40
2.0
 40
2.0
 40
3.0
 40
3.0
 40
3.0
 40
4.0
 40
4.0
 40
4.0
 40
5.0
 40
5.0
 40
5.0
 40
6.0
 40
6.0
 40
6.0
 40
7.0
 40
7.0
 40
7.0
 40
8.0
 40
8.0
 40
8.0
 40
8.0
 10
98.64238550051302
 20
-111.5880208054363
 10
98.5345540118247
 20
-111.7974826109395
 10
98.36092119936811
 20
-111.8164306361084
 10
98.24447697196666
 20
-111.8164306361084
 10
98.08393552235403
 20
-111.8164306361084
 10
97.94199758836173
 20
-111.7699218470575
 10
97.84691295296884
 20
-111.5880208054363
 10
97.74321557886282
 20
-111.3933729105197
 10
97.72426755369393
 20
-111.1566948506831
 10
97.72426755369393
 20
-110.9937418342307
 10
97.72426755369393
 20
-110.8497368429473
 10
97.74114852157166
 20
-110.5979003629755
 10
97.84691295296884
 20
-110.3991183534766
 10
97.95474444165716
 20
-110.1962022293954
 10
98.11563040081832
 20
-110.1727755800957
 10
98.24447697196666
 20
-110.1727755800957
 10
98.40329587383668
 20
-110.1727755800957
 10
98.5469563555716
 20
-110.2172173118554
 10
98.64238550051302
 20
-110.3991183534766
 10
98.74160425048821
 20
-110.5916991911021
 10
98.76503089978792
 20
-110.8201090217741
 10
98.76503089978792
 20
-110.9937418342307
 10
98.76503089978792
 20
-111.1649630798477
 10
98.74401581732789
 20
-111.3954399678109
 10
98.64238550051302
 20
-111.5880208054363
 97
        0
 97
        0
 92
        1
 93
        1
 72
     4
 94
        3
 73
     0
 74
     1
 95
       17
 96
       13
 40
0.0
 40
0.0
 40
0.0
 40
0.0
 40
1.0
 40
1.0
 40
1.0
 40
2.0
 40
2.0
 40
2.0
 40
3.0
 40
3.0
 40
3.0
 40
4.0
 40
4.0
 40
4.0
 40
4.0
 10
98.24447697196666
 20
-110.3653564177212
 10
97.99505205883457
 20
-110.3653564177212
 10
97.9485432697837
 20
-110.6488877761572
 10
97.9485432697837
 20
-110.9937418342307
 10
97.9485432697837
 20
-111.3131021857134
 10
97.9843722628303
 20
-111.6217827411918
 10
98.24447697196666
 20
-111.6217827411918
 10
98.49217933735612
 20
-111.6217827411918
 10
98.54075518369815
 20
-111.3406629495954
 10
98.54075518369815
 20
-110.9937418342307
 10
98.54075518369815
 20
-110.6740369731995
 10
98.50251462381188
 20
-110.3653564177212
 10
98.24447697196666
 20
-110.3653564177212
 97
        0
 97
        0
 75
     2
 76
     1
 98
        0
  0
ENDBLK
  5
14F
330
14C
100
AcDbEntity
  8
0
100
AcDbBlockEnd
  0
ENDSEC
  0
SECTION
  2
ENTITIES
  0
INSERT
  5
42
330
1F
100
AcDbEntity
  8
_U+30EC_U+30A4_U+30E4_U+30FC 1
100
AcDbBlockReference
  2
block 2
 10
0.0
 20
0.0
 30
0.0
  0
ENDSEC
  0
SECTION
  2
OBJECTS
  0
DICTIONARY
  5
C
330
0
100
AcDbDictionary
281
     1
  3
ACAD_GROUP
350
D
  3
ACAD_LAYOUT
350
1A
  3
ACAD_MATERIAL
350
3B
  3
ACAD_MLEADERSTYLE
350
159
  3
ACAD_MLINESTYLE
350
17
  3
ACAD_PLOTSETTINGS
350
19
  3
ACAD_PLOTSTYLENAME
350
E
  3
ACAD_TABLESTYLE
350
158
  3
ACAD_VISUALSTYLE
350
2A
  0
SUN
  5
3F
330
29
100
AcDbSun
 90
        1
290
     0
 63
     7
421
 16777215
 40
1.0
291
     1
 91
  2455826
 92
 54000000
292
     0
 70
     2
 71
   256
280
     1
  0
DICTIONARY
  5
D
102
{ACAD_REACTORS
330
C
102
}
330
C
100
AcDbDictionary
281
     1
  0
DICTIONARY
  5
1A
102
{ACAD_REACTORS
330
C
102
}
330
C
100
AcDbDictionary
281
     1
  3
Layout1
350
1E
  3
Layout2
350
26
  3
Model
350
22
  0
DICTIONARY
  5
3B
102
{ACAD_REACTORS
330
C
102
}
330
C
100
AcDbDictionary
281
     1
  3
ByBlock
350
3D
  3
ByLayer
350
3C
  3
Global
350
3E
  0
DICTIONARY
  5
159
102
{ACAD_REACTORS
330
C
102
}
330
C
100
AcDbDictionary
281
     1
  0
DICTIONARY
  5
17
102
{ACAD_REACTORS
330
C
102
}
330
C
100
AcDbDictionary
281
     1
  3
Standard
350
18
  0
DICTIONARY
  5
19
102
{ACAD_REACTORS
330
C
102
}
330
C
100
AcDbDictionary
281
     1
  0
ACDBDICTIONARYWDFLT
  5
E
102
{ACAD_REACTORS
330
C
102
}
330
C
100
AcDbDictionary
281
     1
  3
Normal
350
F
100
AcDbDictionaryWithDefault
340
F
  0
DICTIONARY
  5
158
102
{ACAD_REACTORS
330
C
102
}
330
C
100
AcDbDictionary
281
     1
  0
DICTIONARY
  5
2A
102
{ACAD_REACTORS
330
C
102
}
330
C
100
AcDbDictionary
281
     1
  3
2dWireframe
350
2F
  3
3D Hidden
350
31
  3
3dWireframe
350
30
  3
Basic
350
32
  3
Brighten
350
36
  3
ColorChange
350
3A
  3
Conceptual
350
34
  3
Dim
350
35
  3
Facepattern
350
39
  3
Flat
350
2B
  3
FlatWithEdges
350
2C
  3
Gouraud
350
2D
  3
GouraudWithEdges
350
2E
  3
Linepattern
350
38
  3
Realistic
350
33
  3
Thicken
350
37
  0
LAYOUT
  5
1E
102
{ACAD_REACTORS
330
1A
102
}
330
1A
100
AcDbPlotSettings
  1

  2
none_device
  4

  6

 40
0.0
 41
0.0
 42
0.0
 43
0.0
 44
0.0
 45
0.0
 46
0.0
 47
0.0
 48
0.0
 49
0.0
140
0.0
141
0.0
142
1.0
143
1.0
 70
   688
 72
     0
 73
     0
 74
     5
  7

 75
    16
 76
     0
 77
     2
 78
   300
147
1.0
148
0.0
149
0.0
100
AcDbLayout
  1
Layout1
 70
     1
 71
     1
 10
0.0
 20
0.0
 11
12.0
 21
9.0
 12
0.0
 22
0.0
 32
0.0
 14
1.000000000000000E+20
 24
1.000000000000000E+20
 34
1.000000000000000E+20
 15
-1.000000000000000E+20
 25
-1.000000000000000E+20
 35
-1.000000000000000E+20
146
0.0
 13
0.0
 23
0.0
 33
0.0
 16
1.0
 26
0.0
 36
0.0
 17
0.0
 27
1.0
 37
0.0
 76
     0
330
1B
  0
LAYOUT
  5
26
102
{ACAD_REACTORS
330
1A
102
}
330
1A
100
AcDbPlotSettings
  1

  2
none_device
  4

  6

 40
0.0
 41
0.0
 42
0.0
 43
0.0
 44
0.0
 45
0.0
 46
0.0
 47
0.0
 48
0.0
 49
0.0
140
0.0
141
0.0
142
1.0
143
1.0
 70
   688
 72
     0
 73
     0
 74
     5
  7

 75
    16
 76
     0
 77
     2
 78
   300
147
1.0
148
0.0
149
0.0
100
AcDbLayout
  1
Layout2
 70
     1
 71
     2
 10
0.0
 20
0.0
 11
0.0
 21
0.0
 12
0.0
 22
0.0
 32
0.0
 14
0.0
 24
0.0
 34
0.0
 15
0.0
 25
0.0
 35
0.0
146
0.0
 13
0.0
 23
0.0
 33
0.0
 16
1.0
 26
0.0
 36
0.0
 17
0.0
 27
1.0
 37
0.0
 76
     0
330
23
  0
LAYOUT
  5
22
102
{ACAD_REACTORS
330
1A
102
}
330
1A
100
AcDbPlotSettings
  1

  2
none_device
  4

  6

 40
0.0
 41
0.0
 42
0.0
 43
0.0
 44
0.0
 45
0.0
 46
0.0
 47
0.0
 48
0.0
 49
0.0
140
0.0
141
0.0
142
1.0
143
1.0
 70
  1712
 72
     0
 73
     0
 74
     0
  7

 75
     0
 76
     0
 77
     2
 78
   300
147
1.0
148
0.0
149
0.0
100
AcDbLayout
  1
Model
 70
     1
 71
     0
 10
0.0
 20
0.0
 11
12.0
 21
9.0
 12
0.0
 22
0.0
 32
0.0
 14
1.000000000000000E+20
 24
1.000000000000000E+20
 34
1.000000000000000E+20
 15
-1.000000000000000E+20
 25
-1.000000000000000E+20
 35
-1.000000000000000E+20
146
0.0
 13
0.0
 23
0.0
 33
0.0
 16
1.0
 26
0.0
 36
0.0
 17
0.0
 27
1.0
 37
0.0
 76
     0
330
1F
331
29
  0
MATERIAL
  5
3D
102
{ACAD_REACTORS
330
3B
102
}
330
3B
100
AcDbMaterial
  1
ByBlock
 72
     1
 94
      127
  0
MATERIAL
  5
3C
102
{ACAD_REACTORS
330
3B
102
}
330
3B
100
AcDbMaterial
  1
ByLayer
 72
     1
 94
      127
  0
MATERIAL
  5
3E
102
{ACAD_REACTORS
330
3B
102
}
330
3B
100
AcDbMaterial
  1
Global
 72
     1
 94
      127
  0
MLINESTYLE
  5
18
102
{ACAD_REACTORS
330
17
102
}
330
17
100
AcDbMlineStyle
  2
Standard
 70
     0
  3

 62
   256
 51
90.0
 52
90.0
 71
     2
 49
0.5
 62
   256
  6
BYLAYER
 49
-0.5
 62
   256
  6
BYLAYER
  0
ACDBPLACEHOLDER
  5
F
102
{ACAD_REACTORS
330
E
102
}
330
E
  0
VISUALSTYLE
  5
2F
102
{ACAD_REACTORS
330
2A
102
}
330
2A
100
AcDbVisualStyle
  2
2dWireframe
 70
     4
177
     2
291
     0
 71
     0
176
     1
 72
     2
176
     1
 73
     0
176
     1
 90
        0
176
     1
 40
-0.6
176
     1
 41
-30.0
176
     1
 62
     5
 63
     7
421
 16777215
176
     1
 74
     1
176
     1
 91
        4
176
     1
 64
     7
176
     1
 65
   257
176
     1
 75
     1
176
     1
175
     1
176
     1
 42
1.0
176
     1
 92
        0
176
     1
 66
   257
176
     1
 43
1.0
176
     1
 76
     1
176
     1
 77
     6
176
     1
 78
     2
176
     1
 67
     7
176
     1
 79
     5
176
     1
170
     0
176
     1
171
     0
176
     1
290
     0
176
     1
 93
        1
176
     1
 44
0.0
176
     1
173
     0
176
     1
  0
VISUALSTYLE
  5
31
102
{ACAD_REACTORS
330
2A
102
}
330
2A
100
AcDbVisualStyle
  2
3D Hidden
 70
     6
177
     2
291
     0
 71
     1
176
     1
 72
     2
176
     1
 73
     2
176
     1
 90
        0
176
     1
 40
-0.6
176
     1
 41
-30.0
176
     1
 62
     5
 63
     7
421
 16777215
176
     1
 74
     2
176
     1
 91
        2
176
     1
 64
     7
176
     1
 65
   257
176
     1
 75
     2
176
     1
175
     1
176
     1
 42
40.0
176
     1
 92
        0
176
     1
 66
   257
176
     1
 43
1.0
176
     1
 76
     1
176
     1
 77
     6
176
     1
 78
     2
176
     1
 67
     7
176
     1
 79
     3
176
     1
170
     0
176
     1
171
     0
176
     1
290
     0
176
     1
 93
        1
176
     1
 44
0.0
176
     1
173
     0
176
     1
  0
VISUALSTYLE
  5
30
102
{ACAD_REACTORS
330
2A
102
}
330
2A
100
AcDbVisualStyle
  2
3dWireframe
 70
     5
177
     2
291
     0
 71
     0
176
     1
 72
     2
176
     1
 73
     0
176
     1
 90
        0
176
     1
 40
-0.6
176
     1
 41
-30.0
176
     1
 62
     5
 63
     7
421
 16777215
176
     1
 74
     1
176
     1
 91
        4
176
     1
 64
     7
176
     1
 65
   257
176
     1
 75
     1
176
     1
175
     1
176
     1
 42
1.0
176
     1
 92
        0
176
     1
 66
   257
176
     1
 43
1.0
176
     1
 76
     1
176
     1
 77
     6
176
     1
 78
     2
176
     1
 67
     7
176
     1
 79
     5
176
     1
170
     0
176
     1
171
     0
176
     1
290
     0
176
     1
 93
        1
176
     1
 44
0.0
176
     1
173
     0
176
     1
  0
VISUALSTYLE
  5
32
102
{ACAD_REACTORS
330
2A
102
}
330
2A
100
AcDbVisualStyle
  2
Basic
 70
     7
177
     2
291
     1
 71
     1
176
     1
 72
     0
176
     1
 73
     1
176
     1
 90
        0
176
     1
 40
-0.6
176
     1
 41
-30.0
176
     1
 62
     5
 63
     7
421
 16777215
176
     1
 74
     0
176
     1
 91
        4
176
     1
 64
     7
176
     1
 65
   257
176
     1
 75
     1
176
     1
175
     1
176
     1
 42
1.0
176
     1
 92
        8
176
     1
 66
     7
176
     1
 43
1.0
176
     1
 76
     1
176
     1
 77
     6
176
     1
 78
     2
176
     1
 67
     7
176
     1
 79
     5
176
     1
170
     0
176
     1
171
     0
176
     1
290
     0
176
     1
 93
        1
176
     1
 44
0.0
176
     1
173
     0
176
     1
  0
VISUALSTYLE
  5
36
102
{ACAD_REACTORS
330
2A
102
}
330
2A
100
AcDbVisualStyle
  2
Brighten
 70
    12
177
     2
291
     1
 71
     2
176
     1
 72
     2
176
     1
 73
     0
176
     1
 90
        0
176
     1
 40
-0.6
176
     1
 41
-30.0
176
     1
 62
     5
 63
     7
421
 16777215
176
     1
 74
     1
176
     1
 91
        4
176
     1
 64
     7
176
     1
 65
   257
176
     1
 75
     1
176
     1
175
     1
176
     1
 42
1.0
176
     1
 92
        8
176
     1
 66
     7
176
     1
 43
1.0
176
     1
 76
     1
176
     1
 77
     6
176
     1
 78
     2
176
     1
 67
     7
176
     1
 79
     5
176
     1
170
     0
176
     1
171
     0
176
     1
290
     0
176
     1
 93
        1
176
     1
 44
50.0
176
     1
173
     0
176
     1
  0
VISUALSTYLE
  5
3A
102
{ACAD_REACTORS
330
2A
102
}
330
2A
100
AcDbVisualStyle
  2
ColorChange
 70
    16
177
     2
291
     1
 71
     2
176
     1
 72
     2
176
     1
 73
     3
176
     1
 90
        0
176
     1
 40
-0.6
176
     1
 41
-30.0
176
     1
 62
     5
 63
     8
421
  8421504
176
     1
 74
     1
176
     1
 91
        4
176
     1
 64
     7
176
     1
 65
   257
176
     1
 75
     1
176
     1
175
     1
176
     1
 42
1.0
176
     1
 92
        8
176
     1
 66
     8
424
  8421504
176
     1
 43
1.0
176
     1
 76
     1
176
     1
 77
     6
176
     1
 78
     2
176
     1
 67
     7
176
     1
 79
     5
176
     1
170
     0
176
     1
171
     0
176
     1
290
     0
176
     1
 93
        1
176
     1
 44
0.0
176
     1
173
     0
176
     1
  0
VISUALSTYLE
  5
34
102
{ACAD_REACTORS
330
2A
102
}
330
2A
100
AcDbVisualStyle
  2
Conceptual
 70
     9
177
     2
291
     0
 71
     3
176
     1
 72
     2
176
     1
 73
     0
176
     1
 90
        0
176
     1
 40
-0.6
176
     1
 41
-30.0
176
     1
 62
     5
 63
     7
421
 16777215
176
     1
 74
     2
176
     1
 91
        2
176
     1
 64
     7
176
     1
 65
   257
176
     1
 75
     1
176
     1
175
     1
176
     1
 42
40.0
176
     1
 92
        8
176
     1
 66
     7
176
     1
 43
1.0
176
     1
 76
     1
176
     1
 77
     6
176
     1
 78
     2
176
     1
 67
     7
176
     1
 79
     3
176
     1
170
     0
176
     1
171
     0
176
     1
290
     0
176
     1
 93
        1
176
     1
 44
0.0
176
     1
173
     0
176
     1
  0
VISUALSTYLE
  5
35
102
{ACAD_REACTORS
330
2A
102
}
330
2A
100
AcDbVisualStyle
  2
Dim
 70
    11
177
     2
291
     1
 71
     2
176
     1
 72
     2
176
     1
 73
     0
176
     1
 90
        0
176
     1
 40
-0.6
176
     1
 41
-30.0
176
     1
 62
     5
 63
     7
421
 16777215
176
     1
 74
     1
176
     1
 91
        4
176
     1
 64
     7
176
     1
 65
   257
176
     1
 75
     1
176
     1
175
     1
176
     1
 42
1.0
176
     1
 92
        8
176
     1
 66
     7
176
     1
 43
1.0
176
     1
 76
     1
176
     1
 77
     6
176
     1
 78
     2
176
     1
 67
     7
176
     1
 79
     5
176
     1
170
     0
176
     1
171
     0
176
     1
290
     0
176
     1
 93
        1
176
     1
 44
-50.0
176
     1
173
     0
176
     1
  0
VISUALSTYLE
  5
39
102
{ACAD_REACTORS
330
2A
102
}
330
2A
100
AcDbVisualStyle
  2
Facepattern
 70
    15
177
     2
291
     1
 71
     2
176
     1
 72
     2
176
     1
 73
     0
176
     1
 90
        0
176
     1
 40
-0.6
176
     1
 41
-30.0
176
     1
 62
     5
 63
     7
421
 16777215
176
     1
 74
     1
176
     1
 91
        4
176
     1
 64
     7
176
     1
 65
   257
176
     1
 75
     1
176
     1
175
     1
176
     1
 42
1.0
176
     1
 92
        8
176
     1
 66
     7
176
     1
 43
1.0
176
     1
 76
     1
176
     1
 77
     6
176
     1
 78
     2
176
     1
 67
     7
176
     1
 79
     5
176
     1
170
     0
176
     1
171
     0
176
     1
290
     0
176
     1
 93
        1
176
     1
 44
0.0
176
     1
173
     0
176
     1
  0
VISUALSTYLE
  5
2B
102
{ACAD_REACTORS
330
2A
102
}
330
2A
100
AcDbVisualStyle
  2
Flat
 70
     0
177
     2
291
     1
 71
     2
176
     1
 72
     1
176
     1
 73
     1
176
     1
 90
        2
176
     1
 40
-0.6
176
     1
 41
30.0
176
     1
 62
     5
 63
     7
421
 16777215
176
     1
 74
     0
176
     1
 91
        4
176
     1
 64
     7
176
     1
 65
   257
176
     1
 75
     1
176
     1
175
     1
176
     1
 42
1.0
176
     1
 92
        8
176
     1
 66
     7
176
     1
 43
1.0
176
     1
 76
     1
176
     1
 77
     6
176
     1
 78
     2
176
     1
 67
     7
176
     1
 79
     5
176
     1
170
     0
176
     1
171
     0
176
     1
290
     0
176
     1
 93
       13
176
     1
 44
0.0
176
     1
173
     0
176
     1
  0
VISUALSTYLE
  5
2C
102
{ACAD_REACTORS
330
2A
102
}
330
2A
100
AcDbVisualStyle
  2
FlatWithEdges
 70
     1
177
     2
291
     1
 71
     2
176
     1
 72
     1
176
     1
 73
     1
176
     1
 90
        2
176
     1
 40
-0.6
176
     1
 41
30.0
176
     1
 62
     5
 63
     7
421
 16777215
176
     1
 74
     1
176
     1
 91
        4
176
     1
 64
     7
176
     1
 65
   257
176
     1
 75
     1
176
     1
175
     1
176
     1
 42
1.0
176
     1
 92
        0
176
     1
 66
   257
176
     1
 43
1.0
176
     1
 76
     1
176
     1
 77
     6
176
     1
 78
     2
176
     1
 67
     7
176
     1
 79
     5
176
     1
170
     0
176
     1
171
     0
176
     1
290
     0
176
     1
 93
       13
176
     1
 44
0.0
176
     1
173
     0
176
     1
  0
VISUALSTYLE
  5
2D
102
{ACAD_REACTORS
330
2A
102
}
330
2A
100
AcDbVisualStyle
  2
Gouraud
 70
     2
177
     2
291
     1
 71
     2
176
     1
 72
     2
176
     1
 73
     1
176
     1
 90
        2
176
     1
 40
-0.6
176
     1
 41
30.0
176
     1
 62
     5
 63
     7
421
 16777215
176
     1
 74
     0
176
     1
 91
        4
176
     1
 64
     7
176
     1
 65
   257
176
     1
 75
     1
176
     1
175
     1
176
     1
 42
1.0
176
     1
 92
        0
176
     1
 66
     7
176
     1
 43
1.0
176
     1
 76
     1
176
     1
 77
     6
176
     1
 78
     2
176
     1
 67
     7
176
     1
 79
     5
176
     1
170
     0
176
     1
171
     0
176
     1
290
     0
176
     1
 93
       13
176
     1
 44
0.0
176
     1
173
     0
176
     1
  0
VISUALSTYLE
  5
2E
102
{ACAD_REACTORS
330
2A
102
}
330
2A
100
AcDbVisualStyle
  2
GouraudWithEdges
 70
     3
177
     2
291
     1
 71
     2
176
     1
 72
     2
176
     1
 73
     1
176
     1
 90
        2
176
     1
 40
-0.6
176
     1
 41
30.0
176
     1
 62
     5
 63
     7
421
 16777215
176
     1
 74
     1
176
     1
 91
        4
176
     1
 64
     7
176
     1
 65
   257
176
     1
 75
     1
176
     1
175
     1
176
     1
 42
1.0
176
     1
 92
        0
176
     1
 66
   257
176
     1
 43
1.0
176
     1
 76
     1
176
     1
 77
     6
176
     1
 78
     2
176
     1
 67
     7
176
     1
 79
     5
176
     1
170
     0
176
     1
171
     0
176
     1
290
     0
176
     1
 93
       13
176
     1
 44
0.0
176
     1
173
     0
176
     1
  0
VISUALSTYLE
  5
38
102
{ACAD_REACTORS
330
2A
102
}
330
2A
100
AcDbVisualStyle
  2
Linepattern
 70
    14
177
     2
291
     1
 71
     2
176
     1
 72
     2
176
     1
 73
     0
176
     1
 90
        0
176
     1
 40
-0.6
176
     1
 41
-30.0
176
     1
 62
     5
 63
     7
421
 16777215
176
     1
 74
     1
176
     1
 91
        4
176
     1
 64
     7
176
     1
 65
   257
176
     1
 75
     7
176
     1
175
     7
176
     1
 42
1.0
176
     1
 92
        8
176
     1
 66
     7
176
     1
 43
1.0
176
     1
 76
     1
176
     1
 77
     6
176
     1
 78
     2
176
     1
 67
     7
176
     1
 79
     5
176
     1
170
     0
176
     1
171
     0
176
     1
290
     0
176
     1
 93
        1
176
     1
 44
0.0
176
     1
173
     0
176
     1
  0
VISUALSTYLE
  5
33
102
{ACAD_REACTORS
330
2A
102
}
330
2A
100
AcDbVisualStyle
  2
Realistic
 70
     8
177
     2
291
     0
 71
     2
176
     1
 72
     2
176
     1
 73
     0
176
     1
 90
        0
176
     1
 40
-0.6
176
     1
 41
-30.0
176
     1
 62
     5
 63
     7
421
 16777215
176
     1
 74
     1
176
     1
 91
        0
176
     1
 64
     7
176
     1
 65
   257
176
     1
 75
     1
176
     1
175
     1
176
     1
 42
1.0
176
     1
 92
        8
176
     1
 66
     8
424
  7895160
176
     1
 43
1.0
176
     1
 76
     1
176
     1
 77
     6
176
     1
 78
     2
176
     1
 67
     7
176
     1
 79
     5
176
     1
170
     0
176
     1
171
     0
176
     1
290
     0
176
     1
 93
       13
176
     1
 44
0.0
176
     1
173
     0
176
     1
  0
VISUALSTYLE
  5
37
102
{ACAD_REACTORS
330
2A
102
}
330
2A
100
AcDbVisualStyle
  2
Thicken
 70
    13
177
     2
291
     1
 71
     2
176
     1
 72
     2
176
     1
 73
     0
176
     1
 90
        0
176
     1
 40
-0.6
176
     1
 41
-30.0
176
     1
 62
     5
 63
     7
421
 16777215
176
     1
 74
     1
176
     1
 91
        4
176
     1
 64
     7
176
     1
 65
   257
176
     1
 75
     1
176
     1
175
     1
176
     1
 42
1.0
176
     1
 92
       12
176
     1
 66
     7
176
     1
 43
1.0
176
     1
 76
     1
176
     1
 77
     6
176
     1
 78
     2
176
     1
 67
     7
176
     1
 79
     5
176
     1
170
     0
176
     1
171
     0
176
     1
290
     0
176
     1
 93
        1
176
     1
 44
0.0
176
     1
173
     0
176
     1
  0
ENDSEC
  0
EOF
