  0
SECTION
  2
HEADER
  9
$ACADVER
  1
AC1024
  9
$ACADMAINTVER
 70
     6
  9
$DWGCODEPAGE
  3
UNDEFINED
  9
$INSBASE
 10
0.0
 20
0.0
 30
0.0
  9
$EXTMIN
 10
1.000000000000000E+20
 20
1.000000000000000E+20
 30
1.000000000000000E+20
  9
$EXTMAX
 10
-1.000000000000000E+20
 20
-1.000000000000000E+20
 30
-1.000000000000000E+20
  9
$LIMMIN
 10
0.0
 20
0.0
  9
$LIMMAX
 10
12.0
 20
9.0
  9
$ORTHOMODE
 70
     0
  9
$REGENMODE
 70
     1
  9
$FILLMODE
 70
     1
  9
$QTEXTMODE
 70
     0
  9
$MIRRTEXT
 70
     1
  9
$LTSCALE
 40
1.0
  9
$ATTMODE
 70
     1
  9
$TEXTSIZE
 40
0.2
  9
$TRACEWID
 40
0.05
  9
$TEXTSTYLE
  7
Standard
  9
$CLAYER
  8
0
  9
$CELTYPE
  6
ByLayer
  9
$CECOLOR
 62
   256
  9
$CELTSCALE
 40
1.0
  9
$DISPSILH
 70
     0
  9
$DIMSCALE
 40
1.0
  9
$DIMASZ
 40
0.18
  9
$DIMEXO
 40
0.0625
  9
$DIMDLI
 40
0.38
  9
$DIMRND
 40
0.0
  9
$DIMDLE
 40
0.0
  9
$DIMEXE
 40
0.18
  9
$DIMTP
 40
0.0
  9
$DIMTM
 40
0.0
  9
$DIMTXT
 40
0.18
  9
$DIMCEN
 40
0.09
  9
$DIMTSZ
 40
0.0
  9
$DIMTOL
 70
     0
  9
$DIMLIM
 70
     0
  9
$DIMTIH
 70
     1
  9
$DIMTOH
 70
     1
  9
$DIMSE1
 70
     0
  9
$DIMSE2
 70
     0
  9
$DIMTAD
 70
     0
  9
$DIMZIN
 70
     0
  9
$DIMBLK
  1

  9
$DIMASO
 70
     1
  9
$DIMSHO
 70
     1
  9
$DIMPOST
  1

  9
$DIMAPOST
  1

  9
$DIMALT
 70
     0
  9
$DIMALTD
 70
     2
  9
$DIMALTF
 40
25.4
  9
$DIMLFAC
 40
1.0
  9
$DIMTOFL
 70
     0
  9
$DIMTVP
 40
0.0
  9
$DIMTIX
 70
     0
  9
$DIMSOXD
 70
     0
  9
$DIMSAH
 70
     0
  9
$DIMBLK1
  1

  9
$DIMBLK2
  1

  9
$DIMSTYLE
  2
Standard
  9
$DIMCLRD
 70
     0
  9
$DIMCLRE
 70
     0
  9
$DIMCLRT
 70
     0
  9
$DIMTFAC
 40
1.0
  9
$DIMGAP
 40
0.09
  9
$DIMJUST
 70
     0
  9
$DIMSD1
 70
     0
  9
$DIMSD2
 70
     0
  9
$DIMTOLJ
 70
     1
  9
$DIMTZIN
 70
     0
  9
$DIMALTZ
 70
     0
  9
$DIMALTTZ
 70
     0
  9
$DIMUPT
 70
     0
  9
$DIMDEC
 70
     4
  9
$DIMTDEC
 70
     4
  9
$DIMALTU
 70
     2
  9
$DIMALTTD
 70
     2
  9
$DIMTXSTY
  7
Standard
  9
$DIMAUNIT
 70
     0
  9
$DIMADEC
 70
     0
  9
$DIMALTRND
 40
0.0
  9
$DIMAZIN
 70
     0
  9
$DIMDSEP
 70
    46
  9
$DIMATFIT
 70
     3
  9
$DIMFRAC
 70
     0
  9
$DIMLDRBLK
  1

  9
$DIMLUNIT
 70
     2
  9
$DIMLWD
 70
    -2
  9
$DIMLWE
 70
    -2
  9
$DIMTMOVE
 70
     0
  9
$DIMFXL
 40
1.0
  9
$DIMFXLON
 70
     0
  9
$DIMJOGANG
 40
0.7853981633974483
  9
$DIMTFILL
 70
     0
  9
$DIMTFILLCLR
 70
     0
  9
$DIMARCSYM
 70
     0
  9
$DIMLTYPE
  6

  9
$DIMLTEX1
  6

  9
$DIMLTEX2
  6

  9
$DIMTXTDIRECTION
 70
     0
  9
$LUNITS
 70
     2
  9
$LUPREC
 70
     4
  9
$SKETCHINC
 40
0.1
  9
$FILLETRAD
 40
0.5
  9
$AUNITS
 70
     0
  9
$AUPREC
 70
     0
  9
$MENU
  1
.
  9
$ELEVATION
 40
0.0
  9
$PELEVATION
 40
0.0
  9
$THICKNESS
 40
0.0
  9
$LIMCHECK
 70
     0
  9
$CHAMFERA
 40
0.5
  9
$CHAMFERB
 40
0.5
  9
$CHAMFERC
 40
1.0
  9
$CHAMFERD
 40
0.0
  9
$SKPOLY
 70
     0
  9
$TDCREATE
 40
2457917.628136574
  9
$TDUCREATE
 40
2457917.253136574
  9
$TDUPDATE
 40
2457917.628136574
  9
$TDUUPDATE
 40
2457917.253136574
  9
$TDINDWG
 40
0.0000000116
  9
$TDUSRTIMER
 40
0.0000000116
  9
$USRTIMER
 70
     1
  9
$ANGBASE
 50
0.0
  9
$ANGDIR
 70
     0
  9
$PDMODE
 70
     0
  9
$PDSIZE
 40
0.0
  9
$PLINEWID
 40
0.0
  9
$SPLFRAME
 70
     0
  9
$SPLINETYPE
 70
     6
  9
$SPLINESEGS
 70
     8
  9
$HANDSEED
  5
BD
  9
$SURFTAB1
 70
     6
  9
$SURFTAB2
 70
     6
  9
$SURFTYPE
 70
     6
  9
$SURFU
 70
     6
  9
$SURFV
 70
     6
  9
$UCSBASE
  2

  9
$UCSNAME
  2

  9
$UCSORG
 10
0.0
 20
0.0
 30
0.0
  9
$UCSXDIR
 10
1.0
 20
0.0
 30
0.0
  9
$UCSYDIR
 10
0.0
 20
1.0
 30
0.0
  9
$UCSORTHOREF
  2

  9
$UCSORTHOVIEW
 70
     0
  9
$UCSORGTOP
 10
0.0
 20
0.0
 30
0.0
  9
$UCSORGBOTTOM
 10
0.0
 20
0.0
 30
0.0
  9
$UCSORGLEFT
 10
0.0
 20
0.0
 30
0.0
  9
$UCSORGRIGHT
 10
0.0
 20
0.0
 30
0.0
  9
$UCSORGFRONT
 10
0.0
 20
0.0
 30
0.0
  9
$UCSORGBACK
 10
0.0
 20
0.0
 30
0.0
  9
$PUCSBASE
  2

  9
$PUCSNAME
  2

  9
$PUCSORG
 10
0.0
 20
0.0
 30
0.0
  9
$PUCSXDIR
 10
1.0
 20
0.0
 30
0.0
  9
$PUCSYDIR
 10
0.0
 20
1.0
 30
0.0
  9
$PUCSORTHOREF
  2

  9
$PUCSORTHOVIEW
 70
     0
  9
$PUCSORGTOP
 10
0.0
 20
0.0
 30
0.0
  9
$PUCSORGBOTTOM
 10
0.0
 20
0.0
 30
0.0
  9
$PUCSORGLEFT
 10
0.0
 20
0.0
 30
0.0
  9
$PUCSORGRIGHT
 10
0.0
 20
0.0
 30
0.0
  9
$PUCSORGFRONT
 10
0.0
 20
0.0
 30
0.0
  9
$PUCSORGBACK
 10
0.0
 20
0.0
 30
0.0
  9
$USERI1
 70
     0
  9
$USERI2
 70
     0
  9
$USERI3
 70
     0
  9
$USERI4
 70
     0
  9
$USERI5
 70
     0
  9
$USERR1
 40
0.0
  9
$USERR2
 40
0.0
  9
$USERR3
 40
0.0
  9
$USERR4
 40
0.0
  9
$USERR5
 40
0.0
  9
$WORLDVIEW
 70
     1
  9
$SHADEDGE
 70
     3
  9
$SHADEDIF
 70
    70
  9
$TILEMODE
 70
     1
  9
$MAXACTVP
 70
    64
  9
$PINSBASE
 10
0.0
 20
0.0
 30
0.0
  9
$PLIMCHECK
 70
     0
  9
$PEXTMIN
 10
1.000000000000000E+20
 20
1.000000000000000E+20
 30
1.000000000000000E+20
  9
$PEXTMAX
 10
-1.000000000000000E+20
 20
-1.000000000000000E+20
 30
-1.000000000000000E+20
  9
$PLIMMIN
 10
0.0
 20
0.0
  9
$PLIMMAX
 10
12.0
 20
9.0
  9
$UNITMODE
 70
     0
  9
$VISRETAIN
 70
     1
  9
$PLINEGEN
 70
     0
  9
$PSLTSCALE
 70
     1
  9
$TREEDEPTH
 70
  3020
  9
$CMLSTYLE
  2
Standard
  9
$CMLJUST
 70
     0
  9
$CMLSCALE
 40
1.0
  9
$PROXYGRAPHICS
 70
     1
  9
$MEASUREMENT
 70
     0
  9
$CELWEIGHT
370
    -1
  9
$ENDCAPS
280
     0
  9
$JOINSTYLE
280
     0
  9
$LWDISPLAY
290
     1
  9
$INSUNITS
 70
     1
  9
$HYPERLINKBASE
  1

  9
$STYLESHEET
  1

  9
$XEDIT
290
     1
  9
$CEPSNTYPE
380
     0
  9
$PSTYLEMODE
290
     1
  9
$FINGERPRINTGUID
  2
{7744DADA-3227-918E-75BB-0426ED8DEDCB}
  9
$VERSIONGUID
  2
{FAEB1C32-E019-11D5-929B-00C0DF256EC4}
  9
$EXTNAMES
290
     1
  9
$PSVPSCALE
 40
0.0
  9
$OLESTARTUP
290
     0
  9
$SORTENTS
280
   127
  9
$INDEXCTL
280
     0
  9
$HIDETEXT
280
     1
  9
$XCLIPFRAME
280
     2
  9
$HALOGAP
280
     0
  9
$OBSCOLOR
 70
   257
  9
$OBSLTYPE
280
     0
  9
$INTERSECTIONDISPLAY
280
     0
  9
$INTERSECTIONCOLOR
 70
   257
  9
$DIMASSOC
280
     2
  9
$PROJECTNAME
  1

  9
$CAMERADISPLAY
290
     0
  9
$LENSLENGTH
 40
50.0
  9
$CAMERAHEIGHT
 40
0.0
  9
$STEPSPERSEC
 40
2.0
  9
$STEPSIZE
 40
6.0
  9
$3DDWFPREC
 40
2.0
  9
$PSOLWIDTH
 40
0.25
  9
$PSOLHEIGHT
 40
4.0
  9
$LOFTANG1
 40
1.570796326794897
  9
$LOFTANG2
 40
1.570796326794897
  9
$LOFTMAG1
 40
0.0
  9
$LOFTMAG2
 40
0.0
  9
$LOFTPARAM
 70
     7
  9
$LOFTNORMALS
280
     1
  9
$LATITUDE
 40
37.795
  9
$LONGITUDE
 40
-122.394
  9
$NORTHDIRECTION
 40
0.0
  9
$TIMEZONE
 70
 -8000
  9
$LIGHTGLYPHDISPLAY
280
     1
  9
$TILEMODELIGHTSYNCH
280
     1
  9
$CMATERIAL
347
3C
  9
$SOLIDHIST
280
     1
  9
$SHOWHIST
280
     1
  9
$DWFFRAME
280
     2
  9
$DGNFRAME
280
     2
  9
$REALWORLDSCALE
290
     1
  9
$INTERFERECOLOR
 62
   256
  9
$CSHADOW
280
     0
  9
$SHADOWPLANELOCATION
 40
0.0
  0
ENDSEC
  0
SECTION
  2
CLASSES
  0
CLASS
  1
ACDBDICTIONARYWDFLT
  2
AcDbDictionaryWithDefault
  3
ObjectDBX Classes
 90
        0
 91
        4
280
     0
281
     0
  0
CLASS
  1
VISUALSTYLE
  2
AcDbVisualStyle
  3
ObjectDBX Classes
 90
     4095
 91
        4
280
     0
281
     0
  0
CLASS
  1
MATERIAL
  2
AcDbMaterial
  3
ObjectDBX Classes
 90
     1153
 91
        4
280
     0
281
     0
  0
CLASS
  1
SUN
  2
AcDbSun
  3
SCENEOE
 90
     1024
 91
        4
280
     0
281
     0
  0
ENDSEC
  0
SECTION
  2
TABLES
  0
TABLE
  2
VPORT
  5
8
330
0
100
AcDbSymbolTable
 70
     1
  0
VPORT
  5
29
330
8
100
AcDbSymbolTableRecord
100
AcDbViewportTableRecord
  2
*Active
 70
     0
 10
0.0
 20
0.0
 11
1.0
 21
1.0
 12
0.0
 22
0.0
 13
0.0
 23
0.0
 14
0.5
 24
0.5
 15
0.5
 25
0.5
 16
0.0
 26
0.0
 36
1.0
 17
91.00082462281999
 27
-128.4993055234307
 37
0.0
 40
256.9986110468615
 41
0.7081814508812795
 42
50.0
 43
0.0
 44
0.0
 50
0.0
 51
0.0
 71
     0
 72
   100
 73
     1
 74
     3
 75
     0
 76
     0
 77
     0
 78
     0
281
     0
 65
     1
110
0.0
120
0.0
130
0.0
111
1.0
121
0.0
131
0.0
112
0.0
122
1.0
132
0.0
 79
     0
146
0.0
 60
     3
 61
     5
292
     1
282
     1
141
0.0
142
0.0
 63
   250
361
3F
  0
ENDTAB
  0
TABLE
  2
LTYPE
  5
5
330
0
100
AcDbSymbolTable
 70
     1
  0
LTYPE
  5
14
330
5
100
AcDbSymbolTableRecord
100
AcDbLinetypeTableRecord
  2
ByBlock
 70
     0
  3

 72
    65
 73
     0
 40
0.0
  0
LTYPE
  5
15
330
5
100
AcDbSymbolTableRecord
100
AcDbLinetypeTableRecord
  2
ByLayer
 70
     0
  3

 72
    65
 73
     0
 40
0.0
  0
LTYPE
  5
16
330
5
100
AcDbSymbolTableRecord
100
AcDbLinetypeTableRecord
  2
Continuous
 70
     0
  3
Solid line
 72
    65
 73
     0
 40
0.0
  0
ENDTAB
  0
TABLE
  2
LAYER
  5
2
330
0
100
AcDbSymbolTable
 70
     2
  0
LAYER
  5
10
330
2
100
AcDbSymbolTableRecord
100
AcDbLayerTableRecord
  2
0
 70
     0
 62
     7
  6
Continuous
370
    -3
390
F
347
3E
  0
LAYER
  5
40
330
2
100
AcDbSymbolTableRecord
100
AcDbLayerTableRecord
  2
_U+30EC_U+30A4_U+30E4_U+30FC 1
 70
     0
 62
     7
  6
Continuous
370
    -3
390
F
347
3E
  0
ENDTAB
  0
TABLE
  2
STYLE
  5
3
330
0
100
AcDbSymbolTable
 70
     1
  0
STYLE
  5
11
330
3
100
AcDbSymbolTableRecord
100
AcDbTextStyleTableRecord
  2
Standard
 70
     0
 40
0.0
 41
1.0
 50
0.0
 71
     0
 42
0.2
  3
txt
  4

  0
ENDTAB
  0
TABLE
  2
VIEW
  5
6
330
0
100
AcDbSymbolTable
 70
     0
  0
ENDTAB
  0
TABLE
  2
UCS
  5
7
330
0
100
AcDbSymbolTable
 70
     0
  0
ENDTAB
  0
TABLE
  2
APPID
  5
9
330
0
100
AcDbSymbolTable
 70
     1
  0
APPID
  5
12
330
9
100
AcDbSymbolTableRecord
100
AcDbRegAppTableRecord
  2
ACAD
 70
     0
  0
ENDTAB
  0
TABLE
  2
DIMSTYLE
  5
A
330
0
100
AcDbSymbolTable
 70
     1
100
AcDbDimStyleTable
  0
DIMSTYLE
105
27
330
A
100
AcDbSymbolTableRecord
100
AcDbDimStyleTableRecord
  2
Standard
 70
     0
178
     0
340
11
  0
ENDTAB
  0
TABLE
  2
BLOCK_RECORD
  5
1
330
0
100
AcDbSymbolTable
 70
     5
  0
BLOCK_RECORD
  5
1F
330
1
100
AcDbSymbolTableRecord
100
AcDbBlockTableRecord
  2
*Model_Space
340
22
 70
     0
280
     1
281
     0
  0
BLOCK_RECORD
  5
1B
330
1
100
AcDbSymbolTableRecord
100
AcDbBlockTableRecord
  2
*Paper_Space
340
1E
 70
     0
280
     1
281
     0
  0
BLOCK_RECORD
  5
23
330
1
100
AcDbSymbolTableRecord
100
AcDbBlockTableRecord
  2
*Paper_Space0
340
26
 70
     0
280
     1
281
     0
  0
BLOCK_RECORD
  5
5B
330
1
100
AcDbSymbolTableRecord
100
AcDbBlockTableRecord
  2
block 2
340
0
102
{BLKREFS
331
5C
102
}
 70
     0
280
     1
281
     0
  0
BLOCK_RECORD
  5
7A
330
1
100
AcDbSymbolTableRecord
100
AcDbBlockTableRecord
  2
block 3
340
0
102
{BLKREFS
331
7B
102
}
 70
     0
280
     1
281
     0
  0
BLOCK_RECORD
  5
8E
330
1
100
AcDbSymbolTableRecord
100
AcDbBlockTableRecord
  2
block 4
340
0
102
{BLKREFS
331
8F
102
}
 70
     0
280
     1
281
     0
  0
BLOCK_RECORD
  5
AA
330
1
100
AcDbSymbolTableRecord
100
AcDbBlockTableRecord
  2
block 5
340
0
102
{BLKREFS
331
AB
102
}
 70
     0
280
     1
281
     0
  0
ENDTAB
  0
ENDSEC
  0
SECTION
  2
BLOCKS
  0
BLOCK
  5
20
330
1F
100
AcDbEntity
  8
0
100
AcDbBlockBegin
  2
*Model_Space
 70
     0
 10
0.0
 20
0.0
 30
0.0
  3
*Model_Space
  1

  0
ENDBLK
  5
21
330
1F
100
AcDbEntity
  8
0
100
AcDbBlockEnd
  0
BLOCK
  5
1C
330
1B
100
AcDbEntity
 67
     1
  8
0
100
AcDbBlockBegin
  2
*Paper_Space
 70
     0
 10
0.0
 20
0.0
 30
0.0
  3
*Paper_Space
  1

  0
ENDBLK
  5
1D
330
1B
100
AcDbEntity
 67
     1
  8
0
100
AcDbBlockEnd
  0
BLOCK
  5
24
330
23
100
AcDbEntity
  8
0
100
AcDbBlockBegin
  2
*Paper_Space0
 70
     0
 10
0.0
 20
0.0
 30
0.0
  3
*Paper_Space0
  1

  0
ENDBLK
  5
25
330
23
100
AcDbEntity
  8
0
100
AcDbBlockEnd
  0
BLOCK
  5
5D
330
5B
100
AcDbEntity
  8
0
100
AcDbBlockBegin
  2
block 2
 70
     0
 10
0.0
 20
0.0
 30
0.0
  3
block 2
  1

  0
SPLINE
  5
5F
330
5B
100
AcDbEntity
  8
_U+30EC_U+30A4_U+30E4_U+30FC 1
370
     0
100
AcDbSpline
210
0.0
220
0.0
230
1.0
 70
    11
 71
     3
 72
    44
 73
    40
 74
     0
 42
0.0000000001
 43
0.0000000001
 12
1.0
 22
0.0
 32
0.0
 13
1.0
 23
0.0
 33
0.0
 40
0.0
 40
0.0
 40
0.0
 40
0.0
 40
1.0
 40
1.0
 40
1.0
 40
2.0
 40
2.0
 40
2.0
 40
3.0
 40
3.0
 40
3.0
 40
4.0
 40
4.0
 40
4.0
 40
5.0
 40
5.0
 40
5.0
 40
6.0
 40
6.0
 40
6.0
 40
7.0
 40
7.0
 40
7.0
 40
8.0
 40
8.0
 40
8.0
 40
9.0
 40
9.0
 40
9.0
 40
10.0
 40
10.0
 40
10.0
 40
11.0
 40
11.0
 40
11.0
 40
12.0
 40
12.0
 40
12.0
 40
13.0
 40
13.0
 40
13.0
 40
13.0
 10
92.12495386151738
 20
-112.3486978885795
 30
0.0
 10
92.10152721221768
 20
-112.3042561568198
 30
0.0
 10
92.08051212975765
 20
-112.2515461958955
 30
0.0
 10
92.07810056291798
 20
-112.0207247983837
 30
0.0
 10
92.07396644833568
 20
-111.7775010571251
 30
0.0
 10
92.01471080598938
 20
-111.7075656187745
 30
0.0
 10
91.83694387895049
 20
-111.7075656187745
 30
0.0
 10
91.83694387895049
 20
-111.7075656187745
 30
0.0
 10
91.42870006394838
 20
-111.7075656187745
 30
0.0
 10
91.42870006394838
 20
-111.7075656187745
 30
0.0
 10
91.42870006394838
 20
-111.7075656187745
 30
0.0
 10
91.42870006394838
 20
-112.3486978885795
 30
0.0
 10
91.42870006394838
 20
-112.3486978885795
 30
0.0
 10
91.42870006394838
 20
-112.3486978885795
 30
0.0
 10
91.19408906140288
 20
-112.3486978885795
 30
0.0
 10
91.19408906140288
 20
-112.3486978885795
 30
0.0
 10
91.19408906140288
 20
-112.3486978885795
 30
0.0
 10
91.19408906140288
 20
-110.804261582542
 30
0.0
 10
91.19408906140288
 20
-110.804261582542
 30
0.0
 10
91.19408906140288
 20
-110.804261582542
 30
0.0
 10
91.86863875741479
 20
-110.804261582542
 30
0.0
 10
91.86863875741479
 20
-110.804261582542
 30
0.0
 10
92.17559676515054
 20
-110.804261582542
 30
0.0
 10
92.34268389618516
 20
-110.9758273377074
 30
0.0
 10
92.34268389618516
 20
-111.2317979322615
 30
0.0
 10
92.34268389618516
 20
-111.2824408358947
 30
0.0
 10
92.33407115747204
 20
-111.3651231275407
 30
0.0
 10
92.28962942571232
 20
-111.445393852347
 30
0.0
 10
92.23071829291455
 20
-111.549091226453
 30
0.0
 10
92.16491696914628
 20
-111.5680392516219
 30
0.0
 10
92.10359426950883
 20
-111.5849202194996
 30
0.0
 10
92.2410535793703
 20
-111.6272948939682
 30
0.0
 10
92.30892196042971
 20
-111.6758707403102
 30
0.0
 10
92.31305607501201
 20
-111.9910969772106
 30
0.0
 10
92.31719018959431
 20
-112.2618814823512
 30
0.0
 10
92.35336369218945
 20
-112.2935763608155
 30
0.0
 10
92.42088756370033
 20
-112.3486978885795
 30
0.0
 10
92.42088756370033
 20
-112.3486978885795
 30
0.0
 10
92.12495386151738
 20
-112.3486978885795
 30
0.0
 10
92.12495386151738
 20
-112.3486978885795
 30
0.0
  0
SPLINE
  5
60
330
5B
100
AcDbEntity
  8
_U+30EC_U+30A4_U+30E4_U+30FC 1
370
     0
100
AcDbSpline
210
0.0
220
0.0
230
1.0
 70
    11
 71
     3
 72
    20
 73
    16
 74
     0
 42
0.0000000001
 43
0.0000000001
 12
1.0
 22
0.0
 32
0.0
 13
1.0
 23
0.0
 33
0.0
 40
0.0
 40
0.0
 40
0.0
 40
0.0
 40
1.0
 40
1.0
 40
1.0
 40
2.0
 40
2.0
 40
2.0
 40
3.0
 40
3.0
 40
3.0
 40
4.0
 40
4.0
 40
4.0
 40
5.0
 40
5.0
 40
5.0
 40
5.0
 10
91.87311738154561
 20
-111.0157904453363
 30
0.0
 10
91.87311738154561
 20
-111.0157904453363
 30
0.0
 10
91.42870006394838
 20
-111.0157904453363
 30
0.0
 10
91.42870006394838
 20
-111.0157904453363
 30
0.0
 10
91.42870006394838
 20
-111.0157904453363
 30
0.0
 10
91.42870006394838
 20
-111.4960367559802
 30
0.0
 10
91.42870006394838
 20
-111.4960367559802
 30
0.0
 10
91.42870006394838
 20
-111.4960367559802
 30
0.0
 10
91.87105032425447
 20
-111.4960367559802
 30
0.0
 10
91.87105032425447
 20
-111.4960367559802
 30
0.0
 10
91.97026907422966
 20
-111.4960367559802
 30
0.0
 10
92.10566132679998
 20
-111.4199001457561
 30
0.0
 10
92.10566132679998
 20
-111.2486789001392
 30
0.0
 10
92.10566132679998
 20
-111.1704752326241
 30
0.0
 10
92.07189939104452
 20
-111.0157904453363
 30
0.0
 10
91.87311738154561
 20
-111.0157904453363
 30
0.0
  0
HATCH
  5
61
330
5B
100
AcDbEntity
  8
_U+30EC_U+30A4_U+30E4_U+30FC 1
 62
   179
420
  2234388
100
AcDbHatch
 10
0.0
 20
0.0
 30
0.0
210
0.0
220
0.0
230
1.0
  2
SOLID
 70
     1
 71
     0
 91
        2
 92
        1
 93
        1
 72
     4
 94
        3
 73
     0
 74
     1
 95
       44
 96
       40
 40
0.0
 40
0.0
 40
0.0
 40
0.0
 40
1.0
 40
1.0
 40
1.0
 40
2.0
 40
2.0
 40
2.0
 40
3.0
 40
3.0
 40
3.0
 40
4.0
 40
4.0
 40
4.0
 40
5.0
 40
5.0
 40
5.0
 40
6.0
 40
6.0
 40
6.0
 40
7.0
 40
7.0
 40
7.0
 40
8.0
 40
8.0
 40
8.0
 40
9.0
 40
9.0
 40
9.0
 40
10.0
 40
10.0
 40
10.0
 40
11.0
 40
11.0
 40
11.0
 40
12.0
 40
12.0
 40
12.0
 40
13.0
 40
13.0
 40
13.0
 40
13.0
 10
92.12495386151738
 20
-112.3486978885795
 10
92.10152721221768
 20
-112.3042561568198
 10
92.08051212975765
 20
-112.2515461958955
 10
92.07810056291798
 20
-112.0207247983837
 10
92.07396644833568
 20
-111.7775010571251
 10
92.01471080598938
 20
-111.7075656187745
 10
91.83694387895049
 20
-111.7075656187745
 10
91.83694387895049
 20
-111.7075656187745
 10
91.42870006394838
 20
-111.7075656187745
 10
91.42870006394838
 20
-111.7075656187745
 10
91.42870006394838
 20
-111.7075656187745
 10
91.42870006394838
 20
-112.3486978885795
 10
91.42870006394838
 20
-112.3486978885795
 10
91.42870006394838
 20
-112.3486978885795
 10
91.19408906140288
 20
-112.3486978885795
 10
91.19408906140288
 20
-112.3486978885795
 10
91.19408906140288
 20
-112.3486978885795
 10
91.19408906140288
 20
-110.804261582542
 10
91.19408906140288
 20
-110.804261582542
 10
91.19408906140288
 20
-110.804261582542
 10
91.86863875741479
 20
-110.804261582542
 10
91.86863875741479
 20
-110.804261582542
 10
92.17559676515054
 20
-110.804261582542
 10
92.34268389618516
 20
-110.9758273377074
 10
92.34268389618516
 20
-111.2317979322615
 10
92.34268389618516
 20
-111.2824408358947
 10
92.33407115747204
 20
-111.3651231275407
 10
92.28962942571232
 20
-111.445393852347
 10
92.23071829291455
 20
-111.549091226453
 10
92.16491696914628
 20
-111.5680392516219
 10
92.10359426950883
 20
-111.5849202194996
 10
92.2410535793703
 20
-111.6272948939682
 10
92.30892196042971
 20
-111.6758707403102
 10
92.31305607501201
 20
-111.9910969772106
 10
92.31719018959431
 20
-112.2618814823512
 10
92.35336369218945
 20
-112.2935763608155
 10
92.42088756370033
 20
-112.3486978885795
 10
92.42088756370033
 20
-112.3486978885795
 10
92.12495386151738
 20
-112.3486978885795
 10
92.12495386151738
 20
-112.3486978885795
 97
        0
 97
        0
 92
        1
 93
        1
 72
     4
 94
        3
 73
     0
 74
     1
 95
       20
 96
       16
 40
0.0
 40
0.0
 40
0.0
 40
0.0
 40
1.0
 40
1.0
 40
1.0
 40
2.0
 40
2.0
 40
2.0
 40
3.0
 40
3.0
 40
3.0
 40
4.0
 40
4.0
 40
4.0
 40
5.0
 40
5.0
 40
5.0
 40
5.0
 10
91.87311738154561
 20
-111.0157904453363
 10
91.87311738154561
 20
-111.0157904453363
 10
91.42870006394838
 20
-111.0157904453363
 10
91.42870006394838
 20
-111.0157904453363
 10
91.42870006394838
 20
-111.0157904453363
 10
91.42870006394838
 20
-111.4960367559802
 10
91.42870006394838
 20
-111.4960367559802
 10
91.42870006394838
 20
-111.4960367559802
 10
91.87105032425447
 20
-111.4960367559802
 10
91.87105032425447
 20
-111.4960367559802
 10
91.97026907422966
 20
-111.4960367559802
 10
92.10566132679998
 20
-111.4199001457561
 10
92.10566132679998
 20
-111.2486789001392
 10
92.10566132679998
 20
-111.1704752326241
 10
92.07189939104452
 20
-111.0157904453363
 10
91.87311738154561
 20
-111.0157904453363
 97
        0
 97
        0
 75
     2
 76
     1
 98
        0
  0
SPLINE
  5
62
330
5B
100
AcDbEntity
  8
_U+30EC_U+30A4_U+30E4_U+30FC 1
370
     0
100
AcDbSpline
210
0.0
220
0.0
230
1.0
 70
    11
 71
     3
 72
    26
 73
    22
 74
     0
 42
0.0000000001
 43
0.0000000001
 12
1.0
 22
0.0
 32
0.0
 13
1.0
 23
0.0
 33
0.0
 40
0.0
 40
0.0
 40
0.0
 40
0.0
 40
1.0
 40
1.0
 40
1.0
 40
2.0
 40
2.0
 40
2.0
 40
3.0
 40
3.0
 40
3.0
 40
4.0
 40
4.0
 40
4.0
 40
5.0
 40
5.0
 40
5.0
 40
6.0
 40
6.0
 40
6.0
 40
7.0
 40
7.0
 40
7.0
 40
7.0
 10
93.01206594896921
 20
-112.3486978885795
 30
0.0
 10
93.01206594896921
 20
-112.3486978885795
 30
0.0
 10
93.01206594896921
 20
-111.2445447855569
 30
0.0
 10
93.01206594896921
 20
-111.2445447855569
 30
0.0
 10
93.01206594896921
 20
-111.2445447855569
 30
0.0
 10
92.68202580148228
 20
-111.2445447855569
 30
0.0
 10
92.68202580148228
 20
-111.2445447855569
 30
0.0
 10
92.68202580148228
 20
-111.2445447855569
 30
0.0
 10
92.68202580148228
 20
-111.0964056796912
 30
0.0
 10
92.68202580148228
 20
-111.0964056796912
 30
0.0
 10
93.01413300626037
 20
-111.0815917691046
 30
0.0
 10
93.06064179531123
 20
-110.9186387526523
 30
0.0
 10
93.09026961648438
 20
-110.804261582542
 30
0.0
 10
93.09026961648438
 20
-110.804261582542
 30
0.0
 10
93.23634166505897
 20
-110.804261582542
 30
0.0
 10
93.23634166505897
 20
-110.804261582542
 30
0.0
 10
93.23634166505897
 20
-110.804261582542
 30
0.0
 10
93.23634166505897
 20
-112.3486978885795
 30
0.0
 10
93.23634166505897
 20
-112.3486978885795
 30
0.0
 10
93.23634166505897
 20
-112.3486978885795
 30
0.0
 10
93.01206594896921
 20
-112.3486978885795
 30
0.0
 10
93.01206594896921
 20
-112.3486978885795
 30
0.0
  0
HATCH
  5
63
330
5B
100
AcDbEntity
  8
_U+30EC_U+30A4_U+30E4_U+30FC 1
 62
   179
420
  2234388
100
AcDbHatch
 10
0.0
 20
0.0
 30
0.0
210
0.0
220
0.0
230
1.0
  2
SOLID
 70
     1
 71
     0
 91
        1
 92
        1
 93
        1
 72
     4
 94
        3
 73
     0
 74
     1
 95
       26
 96
       22
 40
0.0
 40
0.0
 40
0.0
 40
0.0
 40
1.0
 40
1.0
 40
1.0
 40
2.0
 40
2.0
 40
2.0
 40
3.0
 40
3.0
 40
3.0
 40
4.0
 40
4.0
 40
4.0
 40
5.0
 40
5.0
 40
5.0
 40
6.0
 40
6.0
 40
6.0
 40
7.0
 40
7.0
 40
7.0
 40
7.0
 10
93.01206594896921
 20
-112.3486978885795
 10
93.01206594896921
 20
-112.3486978885795
 10
93.01206594896921
 20
-111.2445447855569
 10
93.01206594896921
 20
-111.2445447855569
 10
93.01206594896921
 20
-111.2445447855569
 10
92.68202580148228
 20
-111.2445447855569
 10
92.68202580148228
 20
-111.2445447855569
 10
92.68202580148228
 20
-111.2445447855569
 10
92.68202580148228
 20
-111.0964056796912
 10
92.68202580148228
 20
-111.0964056796912
 10
93.01413300626037
 20
-111.0815917691046
 10
93.06064179531123
 20
-110.9186387526523
 10
93.09026961648438
 20
-110.804261582542
 10
93.09026961648438
 20
-110.804261582542
 10
93.23634166505897
 20
-110.804261582542
 10
93.23634166505897
 20
-110.804261582542
 10
93.23634166505897
 20
-110.804261582542
 10
93.23634166505897
 20
-112.3486978885795
 10
93.23634166505897
 20
-112.3486978885795
 10
93.23634166505897
 20
-112.3486978885795
 10
93.01206594896921
 20
-112.3486978885795
 10
93.01206594896921
 20
-112.3486978885795
 97
        0
 97
        0
 75
     2
 76
     1
 98
        0
  0
POLYLINE
  5
64
330
5B
100
AcDbEntity
  8
_U+30EC_U+30A4_U+30E4_U+30FC 1
370
     0
100
AcDb2dPolyline
 66
     1
 10
0.0
 20
0.0
 30
0.0
  0
VERTEX
  5
65
330
64
100
AcDbEntity
  8
_U+30EC_U+30A4_U+30E4_U+30FC 1
370
     0
100
AcDbVertex
100
AcDb2dVertex
 10
93.79754771960617
 20
-112.3486978885795
 30
0.0
  0
VERTEX
  5
66
330
64
100
AcDbEntity
  8
_U+30EC_U+30A4_U+30E4_U+30FC 1
370
     0
100
AcDbVertex
100
AcDb2dVertex
 10
93.79754771960617
 20
-112.0968614086077
 30
0.0
  0
VERTEX
  5
67
330
64
100
AcDbEntity
  8
_U+30EC_U+30A4_U+30E4_U+30FC 1
370
     0
100
AcDbVertex
100
AcDb2dVertex
 10
94.04938419957793
 20
-112.0968614086077
 30
0.0
  0
VERTEX
  5
68
330
64
100
AcDbEntity
  8
_U+30EC_U+30A4_U+30E4_U+30FC 1
370
     0
100
AcDbVertex
100
AcDb2dVertex
 10
94.04938419957793
 20
-112.3486978885795
 30
0.0
  0
VERTEX
  5
69
330
64
100
AcDbEntity
  8
_U+30EC_U+30A4_U+30E4_U+30FC 1
370
     0
100
AcDbVertex
100
AcDb2dVertex
 10
93.79754771960617
 20
-112.3486978885795
 30
0.0
  0
SEQEND
  5
6A
330
64
100
AcDbEntity
  8
_U+30EC_U+30A4_U+30E4_U+30FC 1
370
     0
  0
HATCH
  5
6B
330
5B
100
AcDbEntity
  8
_U+30EC_U+30A4_U+30E4_U+30FC 1
 62
   179
420
  2234388
100
AcDbHatch
 10
0.0
 20
0.0
 30
0.0
210
0.0
220
0.0
230
1.0
  2
SOLID
 70
     1
 71
     0
 91
        1
 92
        1
 93
        4
 72
     1
 10
93.79754771960617
 20
-112.3486978885795
 11
93.79754771960617
 21
-112.0968614086077
 72
     1
 10
93.79754771960617
 20
-112.0968614086077
 11
94.04938419957793
 21
-112.0968614086077
 72
     1
 10
94.04938419957793
 20
-112.0968614086077
 11
94.04938419957793
 21
-112.3486978885795
 72
     1
 10
94.04938419957793
 20
-112.3486978885795
 11
93.79754771960617
 21
-112.3486978885795
 97
        0
 75
     2
 76
     1
 98
        0
  0
SPLINE
  5
6C
330
5B
100
AcDbEntity
  8
_U+30EC_U+30A4_U+30E4_U+30FC 1
370
     0
100
AcDbSpline
210
0.0
220
0.0
230
1.0
 70
    11
 71
     3
 72
    53
 73
    49
 74
     0
 42
0.0000000001
 43
0.0000000001
 12
1.0
 22
0.0
 32
0.0
 13
1.0
 23
0.0
 33
0.0
 40
0.0
 40
0.0
 40
0.0
 40
0.0
 40
1.0
 40
1.0
 40
1.0
 40
2.0
 40
2.0
 40
2.0
 40
3.0
 40
3.0
 40
3.0
 40
4.0
 40
4.0
 40
4.0
 40
5.0
 40
5.0
 40
5.0
 40
6.0
 40
6.0
 40
6.0
 40
7.0
 40
7.0
 40
7.0
 40
8.0
 40
8.0
 40
8.0
 40
9.0
 40
9.0
 40
9.0
 40
10.0
 40
10.0
 40
10.0
 40
11.0
 40
11.0
 40
11.0
 40
12.0
 40
12.0
 40
12.0
 40
13.0
 40
13.0
 40
13.0
 40
14.0
 40
14.0
 40
14.0
 40
15.0
 40
15.0
 40
15.0
 40
16.0
 40
16.0
 40
16.0
 40
16.0
 10
94.76665307960695
 20
-112.3993407922127
 30
0.0
 10
94.68844941209179
 20
-112.3993407922127
 30
0.0
 10
94.58681909527691
 20
-112.3824598243349
 30
0.0
 10
94.48518877846205
 20
-112.3190700674063
 30
0.0
 10
94.31190047555397
 20
-112.2091715214269
 30
0.0
 10
94.29054088354542
 20
-112.0779133834389
 30
0.0
 10
94.27159285837655
 20
-111.9700818947505
 30
0.0
 10
94.27159285837655
 20
-111.9700818947505
 30
0.0
 10
94.49380151717517
 20
-111.9700818947505
 30
0.0
 10
94.49380151717517
 20
-111.9700818947505
 30
0.0
 10
94.54857853539063
 20
-112.1688639042495
 30
0.0
 10
94.67570255879636
 20
-112.1984917254226
 30
0.0
 10
94.7687201368981
 20
-112.1984917254226
 30
0.0
 10
94.90824650405072
 20
-112.1984917254226
 30
0.0
 10
95.06051972449876
 20
-112.0989284658989
 30
0.0
 10
95.06051972449876
 20
-111.8663845206445
 30
0.0
 10
95.06051972449876
 20
-111.6104139260905
 30
0.0
 10
94.88068574016872
 20
-111.5404784877399
 30
0.0
 10
94.76010739818497
 20
-111.5404784877399
 30
0.0
 10
94.72841251972068
 20
-111.5404784877399
 30
0.0
 10
94.58681909527691
 20
-111.5404784877399
 30
0.0
 10
94.49793563175747
 20
-111.6696695684368
 30
0.0
 10
94.49793563175747
 20
-111.6696695684368
 30
0.0
 10
94.32223576200973
 20
-111.6507215432679
 30
0.0
 10
94.32223576200973
 20
-111.6507215432679
 30
0.0
 10
94.32223576200973
 20
-111.6507215432679
 30
0.0
 10
94.44281410399347
 20
-110.804261582542
 30
0.0
 10
94.44281410399347
 20
-110.804261582542
 30
0.0
 10
94.44281410399347
 20
-110.804261582542
 30
0.0
 10
95.22140568365992
 20
-110.804261582542
 30
0.0
 10
95.22140568365992
 20
-110.804261582542
 30
0.0
 10
95.22140568365992
 20
-110.804261582542
 30
0.0
 10
95.22140568365992
 20
-110.9989094774586
 30
0.0
 10
95.22140568365992
 20
-110.9989094774586
 30
0.0
 10
95.22140568365992
 20
-110.9989094774586
 30
0.0
 10
94.60576712044579
 20
-110.9989094774586
 30
0.0
 10
94.60576712044579
 20
-110.9989094774586
 30
0.0
 10
94.60576712044579
 20
-110.9989094774586
 30
0.0
 10
94.54031030622603
 20
-111.4219672030473
 30
0.0
 10
94.54031030622603
 20
-111.4219672030473
 30
0.0
 10
94.60163300586349
 20
-111.3882052672918
 30
0.0
 10
94.68397078796096
 20
-111.3478976501144
 30
0.0
 10
94.80248207265355
 20
-111.3478976501144
 30
0.0
 10
95.05638560991646
 20
-111.3478976501144
 30
0.0
 10
95.29340817930165
 20
-111.5342773158664
 30
0.0
 10
95.29340817930165
 20
-111.8474364954756
 30
0.0
 10
95.29340817930165
 20
-112.1647297896671
 30
0.0
 10
95.06913246321189
 20
-112.3993407922127
 30
0.0
 10
94.76665307960695
 20
-112.3993407922127
 30
0.0
  0
HATCH
  5
6D
330
5B
100
AcDbEntity
  8
_U+30EC_U+30A4_U+30E4_U+30FC 1
 62
   179
420
  2234388
100
AcDbHatch
 10
0.0
 20
0.0
 30
0.0
210
0.0
220
0.0
230
1.0
  2
SOLID
 70
     1
 71
     0
 91
        1
 92
        1
 93
        1
 72
     4
 94
        3
 73
     0
 74
     1
 95
       53
 96
       49
 40
0.0
 40
0.0
 40
0.0
 40
0.0
 40
1.0
 40
1.0
 40
1.0
 40
2.0
 40
2.0
 40
2.0
 40
3.0
 40
3.0
 40
3.0
 40
4.0
 40
4.0
 40
4.0
 40
5.0
 40
5.0
 40
5.0
 40
6.0
 40
6.0
 40
6.0
 40
7.0
 40
7.0
 40
7.0
 40
8.0
 40
8.0
 40
8.0
 40
9.0
 40
9.0
 40
9.0
 40
10.0
 40
10.0
 40
10.0
 40
11.0
 40
11.0
 40
11.0
 40
12.0
 40
12.0
 40
12.0
 40
13.0
 40
13.0
 40
13.0
 40
14.0
 40
14.0
 40
14.0
 40
15.0
 40
15.0
 40
15.0
 40
16.0
 40
16.0
 40
16.0
 40
16.0
 10
94.76665307960695
 20
-112.3993407922127
 10
94.68844941209179
 20
-112.3993407922127
 10
94.58681909527691
 20
-112.3824598243349
 10
94.48518877846205
 20
-112.3190700674063
 10
94.31190047555397
 20
-112.2091715214269
 10
94.29054088354542
 20
-112.0779133834389
 10
94.27159285837655
 20
-111.9700818947505
 10
94.27159285837655
 20
-111.9700818947505
 10
94.49380151717517
 20
-111.9700818947505
 10
94.49380151717517
 20
-111.9700818947505
 10
94.54857853539063
 20
-112.1688639042495
 10
94.67570255879636
 20
-112.1984917254226
 10
94.7687201368981
 20
-112.1984917254226
 10
94.90824650405072
 20
-112.1984917254226
 10
95.06051972449876
 20
-112.0989284658989
 10
95.06051972449876
 20
-111.8663845206445
 10
95.06051972449876
 20
-111.6104139260905
 10
94.88068574016872
 20
-111.5404784877399
 10
94.76010739818497
 20
-111.5404784877399
 10
94.72841251972068
 20
-111.5404784877399
 10
94.58681909527691
 20
-111.5404784877399
 10
94.49793563175747
 20
-111.6696695684368
 10
94.49793563175747
 20
-111.6696695684368
 10
94.32223576200973
 20
-111.6507215432679
 10
94.32223576200973
 20
-111.6507215432679
 10
94.32223576200973
 20
-111.6507215432679
 10
94.44281410399347
 20
-110.804261582542
 10
94.44281410399347
 20
-110.804261582542
 10
94.44281410399347
 20
-110.804261582542
 10
95.22140568365992
 20
-110.804261582542
 10
95.22140568365992
 20
-110.804261582542
 10
95.22140568365992
 20
-110.804261582542
 10
95.22140568365992
 20
-110.9989094774586
 10
95.22140568365992
 20
-110.9989094774586
 10
95.22140568365992
 20
-110.9989094774586
 10
94.60576712044579
 20
-110.9989094774586
 10
94.60576712044579
 20
-110.9989094774586
 10
94.60576712044579
 20
-110.9989094774586
 10
94.54031030622603
 20
-111.4219672030473
 10
94.54031030622603
 20
-111.4219672030473
 10
94.60163300586349
 20
-111.3882052672918
 10
94.68397078796096
 20
-111.3478976501144
 10
94.80248207265355
 20
-111.3478976501144
 10
95.05638560991646
 20
-111.3478976501144
 10
95.29340817930165
 20
-111.5342773158664
 10
95.29340817930165
 20
-111.8474364954756
 10
95.29340817930165
 20
-112.1647297896671
 10
95.06913246321189
 20
-112.3993407922127
 10
94.76665307960695
 20
-112.3993407922127
 97
        0
 97
        0
 75
     2
 76
     1
 98
        0
  0
ENDBLK
  5
5E
330
5B
100
AcDbEntity
  8
0
100
AcDbBlockEnd
  0
BLOCK
  5
7C
330
7A
100
AcDbEntity
  8
0
100
AcDbBlockBegin
  2
block 3
 70
     0
 10
0.0
 20
0.0
 30
0.0
  3
block 3
  1

  0
SPLINE
  5
7E
330
7A
100
AcDbEntity
  8
_U+30EC_U+30A4_U+30E4_U+30FC 1
370
     0
100
AcDbSpline
210
0.0
220
0.0
230
1.0
 70
    11
 71
     3
 72
    44
 73
    40
 74
     0
 42
0.0000000001
 43
0.0000000001
 12
1.0
 22
0.0
 32
0.0
 13
1.0
 23
0.0
 33
0.0
 40
0.0
 40
0.0
 40
0.0
 40
0.0
 40
1.0
 40
1.0
 40
1.0
 40
2.0
 40
2.0
 40
2.0
 40
3.0
 40
3.0
 40
3.0
 40
4.0
 40
4.0
 40
4.0
 40
5.0
 40
5.0
 40
5.0
 40
6.0
 40
6.0
 40
6.0
 40
7.0
 40
7.0
 40
7.0
 40
8.0
 40
8.0
 40
8.0
 40
9.0
 40
9.0
 40
9.0
 40
10.0
 40
10.0
 40
10.0
 40
11.0
 40
11.0
 40
11.0
 40
12.0
 40
12.0
 40
12.0
 40
13.0
 40
13.0
 40
13.0
 40
13.0
 10
92.12495386151738
 20
-149.3021701015633
 30
0.0
 10
92.10152721221768
 20
-149.2577283698036
 30
0.0
 10
92.08051212975765
 20
-149.2050184088793
 30
0.0
 10
92.07810056291798
 20
-148.9741970113676
 30
0.0
 10
92.07396644833568
 20
-148.7309732701089
 30
0.0
 10
92.01471080598938
 20
-148.6610378317584
 30
0.0
 10
91.83694387895049
 20
-148.6610378317584
 30
0.0
 10
91.83694387895049
 20
-148.6610378317584
 30
0.0
 10
91.42870006394838
 20
-148.6610378317584
 30
0.0
 10
91.42870006394838
 20
-148.6610378317584
 30
0.0
 10
91.42870006394838
 20
-148.6610378317584
 30
0.0
 10
91.42870006394838
 20
-149.3021701015633
 30
0.0
 10
91.42870006394838
 20
-149.3021701015633
 30
0.0
 10
91.42870006394838
 20
-149.3021701015633
 30
0.0
 10
91.19408906140288
 20
-149.3021701015633
 30
0.0
 10
91.19408906140288
 20
-149.3021701015633
 30
0.0
 10
91.19408906140288
 20
-149.3021701015633
 30
0.0
 10
91.19408906140288
 20
-147.7577337955258
 30
0.0
 10
91.19408906140288
 20
-147.7577337955258
 30
0.0
 10
91.19408906140288
 20
-147.7577337955258
 30
0.0
 10
91.86863875741479
 20
-147.7577337955258
 30
0.0
 10
91.86863875741479
 20
-147.7577337955258
 30
0.0
 10
92.17559676515054
 20
-147.7577337955258
 30
0.0
 10
92.34268389618516
 20
-147.9292995506913
 30
0.0
 10
92.34268389618516
 20
-148.1852701452454
 30
0.0
 10
92.34268389618516
 20
-148.2359130488785
 30
0.0
 10
92.33407115747204
 20
-148.3185953405245
 30
0.0
 10
92.28962942571232
 20
-148.3988660653309
 30
0.0
 10
92.23071829291455
 20
-148.5025634394369
 30
0.0
 10
92.16491696914628
 20
-148.5215114646057
 30
0.0
 10
92.10359426950883
 20
-148.5383924324835
 30
0.0
 10
92.2410535793703
 20
-148.580767106952
 30
0.0
 10
92.30892196042971
 20
-148.6293429532941
 30
0.0
 10
92.31305607501201
 20
-148.9445691901944
 30
0.0
 10
92.31719018959431
 20
-149.2153536953351
 30
0.0
 10
92.35336369218945
 20
-149.2470485737994
 30
0.0
 10
92.42088756370033
 20
-149.3021701015633
 30
0.0
 10
92.42088756370033
 20
-149.3021701015633
 30
0.0
 10
92.12495386151738
 20
-149.3021701015633
 30
0.0
 10
92.12495386151738
 20
-149.3021701015633
 30
0.0
  0
SPLINE
  5
7F
330
7A
100
AcDbEntity
  8
_U+30EC_U+30A4_U+30E4_U+30FC 1
370
     0
100
AcDbSpline
210
0.0
220
0.0
230
1.0
 70
    11
 71
     3
 72
    20
 73
    16
 74
     0
 42
0.0000000001
 43
0.0000000001
 12
1.0
 22
0.0
 32
0.0
 13
1.0
 23
0.0
 33
0.0
 40
0.0
 40
0.0
 40
0.0
 40
0.0
 40
1.0
 40
1.0
 40
1.0
 40
2.0
 40
2.0
 40
2.0
 40
3.0
 40
3.0
 40
3.0
 40
4.0
 40
4.0
 40
4.0
 40
5.0
 40
5.0
 40
5.0
 40
5.0
 10
91.87311738154561
 20
-147.9692626583202
 30
0.0
 10
91.87311738154561
 20
-147.9692626583202
 30
0.0
 10
91.42870006394838
 20
-147.9692626583202
 30
0.0
 10
91.42870006394838
 20
-147.9692626583202
 30
0.0
 10
91.42870006394838
 20
-147.9692626583202
 30
0.0
 10
91.42870006394838
 20
-148.449508968964
 30
0.0
 10
91.42870006394838
 20
-148.449508968964
 30
0.0
 10
91.42870006394838
 20
-148.449508968964
 30
0.0
 10
91.87105032425447
 20
-148.449508968964
 30
0.0
 10
91.87105032425447
 20
-148.449508968964
 30
0.0
 10
91.97026907422966
 20
-148.449508968964
 30
0.0
 10
92.10566132679998
 20
-148.37337235874
 30
0.0
 10
92.10566132679998
 20
-148.2021511131231
 30
0.0
 10
92.10566132679998
 20
-148.1239474456079
 30
0.0
 10
92.07189939104452
 20
-147.9692626583202
 30
0.0
 10
91.87311738154561
 20
-147.9692626583202
 30
0.0
  0
HATCH
  5
80
330
7A
100
AcDbEntity
  8
_U+30EC_U+30A4_U+30E4_U+30FC 1
 62
   179
420
  2234388
100
AcDbHatch
 10
0.0
 20
0.0
 30
0.0
210
0.0
220
0.0
230
1.0
  2
SOLID
 70
     1
 71
     0
 91
        2
 92
        1
 93
        1
 72
     4
 94
        3
 73
     0
 74
     1
 95
       44
 96
       40
 40
0.0
 40
0.0
 40
0.0
 40
0.0
 40
1.0
 40
1.0
 40
1.0
 40
2.0
 40
2.0
 40
2.0
 40
3.0
 40
3.0
 40
3.0
 40
4.0
 40
4.0
 40
4.0
 40
5.0
 40
5.0
 40
5.0
 40
6.0
 40
6.0
 40
6.0
 40
7.0
 40
7.0
 40
7.0
 40
8.0
 40
8.0
 40
8.0
 40
9.0
 40
9.0
 40
9.0
 40
10.0
 40
10.0
 40
10.0
 40
11.0
 40
11.0
 40
11.0
 40
12.0
 40
12.0
 40
12.0
 40
13.0
 40
13.0
 40
13.0
 40
13.0
 10
92.12495386151738
 20
-149.3021701015633
 10
92.10152721221768
 20
-149.2577283698036
 10
92.08051212975765
 20
-149.2050184088793
 10
92.07810056291798
 20
-148.9741970113676
 10
92.07396644833568
 20
-148.7309732701089
 10
92.01471080598938
 20
-148.6610378317584
 10
91.83694387895049
 20
-148.6610378317584
 10
91.83694387895049
 20
-148.6610378317584
 10
91.42870006394838
 20
-148.6610378317584
 10
91.42870006394838
 20
-148.6610378317584
 10
91.42870006394838
 20
-148.6610378317584
 10
91.42870006394838
 20
-149.3021701015633
 10
91.42870006394838
 20
-149.3021701015633
 10
91.42870006394838
 20
-149.3021701015633
 10
91.19408906140288
 20
-149.3021701015633
 10
91.19408906140288
 20
-149.3021701015633
 10
91.19408906140288
 20
-149.3021701015633
 10
91.19408906140288
 20
-147.7577337955258
 10
91.19408906140288
 20
-147.7577337955258
 10
91.19408906140288
 20
-147.7577337955258
 10
91.86863875741479
 20
-147.7577337955258
 10
91.86863875741479
 20
-147.7577337955258
 10
92.17559676515054
 20
-147.7577337955258
 10
92.34268389618516
 20
-147.9292995506913
 10
92.34268389618516
 20
-148.1852701452454
 10
92.34268389618516
 20
-148.2359130488785
 10
92.33407115747204
 20
-148.3185953405245
 10
92.28962942571232
 20
-148.3988660653309
 10
92.23071829291455
 20
-148.5025634394369
 10
92.16491696914628
 20
-148.5215114646057
 10
92.10359426950883
 20
-148.5383924324835
 10
92.2410535793703
 20
-148.580767106952
 10
92.30892196042971
 20
-148.6293429532941
 10
92.31305607501201
 20
-148.9445691901944
 10
92.31719018959431
 20
-149.2153536953351
 10
92.35336369218945
 20
-149.2470485737994
 10
92.42088756370033
 20
-149.3021701015633
 10
92.42088756370033
 20
-149.3021701015633
 10
92.12495386151738
 20
-149.3021701015633
 10
92.12495386151738
 20
-149.3021701015633
 97
        0
 97
        0
 92
        1
 93
        1
 72
     4
 94
        3
 73
     0
 74
     1
 95
       20
 96
       16
 40
0.0
 40
0.0
 40
0.0
 40
0.0
 40
1.0
 40
1.0
 40
1.0
 40
2.0
 40
2.0
 40
2.0
 40
3.0
 40
3.0
 40
3.0
 40
4.0
 40
4.0
 40
4.0
 40
5.0
 40
5.0
 40
5.0
 40
5.0
 10
91.87311738154561
 20
-147.9692626583202
 10
91.87311738154561
 20
-147.9692626583202
 10
91.42870006394838
 20
-147.9692626583202
 10
91.42870006394838
 20
-147.9692626583202
 10
91.42870006394838
 20
-147.9692626583202
 10
91.42870006394838
 20
-148.449508968964
 10
91.42870006394838
 20
-148.449508968964
 10
91.42870006394838
 20
-148.449508968964
 10
91.87105032425447
 20
-148.449508968964
 10
91.87105032425447
 20
-148.449508968964
 10
91.97026907422966
 20
-148.449508968964
 10
92.10566132679998
 20
-148.37337235874
 10
92.10566132679998
 20
-148.2021511131231
 10
92.10566132679998
 20
-148.1239474456079
 10
92.07189939104452
 20
-147.9692626583202
 10
91.87311738154561
 20
-147.9692626583202
 97
        0
 97
        0
 75
     2
 76
     1
 98
        0
  0
SPLINE
  5
81
330
7A
100
AcDbEntity
  8
_U+30EC_U+30A4_U+30E4_U+30FC 1
370
     0
100
AcDbSpline
210
0.0
220
0.0
230
1.0
 70
    11
 71
     3
 72
    29
 73
    25
 74
     0
 42
0.0000000001
 43
0.0000000001
 12
1.0
 22
0.0
 32
0.0
 13
1.0
 23
0.0
 33
0.0
 40
0.0
 40
0.0
 40
0.0
 40
0.0
 40
1.0
 40
1.0
 40
1.0
 40
2.0
 40
2.0
 40
2.0
 40
3.0
 40
3.0
 40
3.0
 40
4.0
 40
4.0
 40
4.0
 40
5.0
 40
5.0
 40
5.0
 40
6.0
 40
6.0
 40
6.0
 40
7.0
 40
7.0
 40
7.0
 40
8.0
 40
8.0
 40
8.0
 40
8.0
 10
93.45820581430907
 20
-149.1244031745245
 30
0.0
 10
93.35037432562075
 20
-149.3338649800276
 30
0.0
 10
93.17708602271267
 20
-149.3528130051965
 30
0.0
 10
93.06064179531123
 20
-149.3528130051965
 30
0.0
 10
92.89975583615006
 20
-149.3528130051965
 30
0.0
 10
92.7581624117063
 20
-149.3063042161457
 30
0.0
 10
92.66273326676487
 20
-149.1244031745245
 30
0.0
 10
92.55938040220738
 20
-148.9297552796078
 30
0.0
 10
92.54008786748999
 20
-148.6930772197712
 30
0.0
 10
92.54008786748999
 20
-148.5301242033189
 30
0.0
 10
92.54008786748999
 20
-148.3861192120354
 30
0.0
 10
92.55696883536771
 20
-148.1342827320637
 30
0.0
 10
92.66273326676487
 20
-147.9355007225647
 30
0.0
 10
92.77090926500172
 20
-147.7325845984835
 30
0.0
 10
92.93145071461436
 20
-147.7091579491838
 30
0.0
 10
93.06064179531123
 20
-147.7091579491838
 30
0.0
 10
93.21911618763272
 20
-147.7091579491838
 30
0.0
 10
93.36312117891617
 20
-147.7535996809436
 30
0.0
 10
93.45820581430907
 20
-147.9355007225647
 30
0.0
 10
93.55776907383279
 20
-148.1280815601902
 30
0.0
 10
93.58085121358395
 20
-148.3564913908623
 30
0.0
 10
93.58085121358395
 20
-148.5301242033189
 30
0.0
 10
93.58085121358395
 20
-148.7013454489358
 30
0.0
 10
93.55983613112393
 20
-148.931822336899
 30
0.0
 10
93.45820581430907
 20
-149.1244031745245
 30
0.0
  0
SPLINE
  5
82
330
7A
100
AcDbEntity
  8
_U+30EC_U+30A4_U+30E4_U+30FC 1
370
     0
100
AcDbSpline
210
0.0
220
0.0
230
1.0
 70
    11
 71
     3
 72
    17
 73
    13
 74
     0
 42
0.0000000001
 43
0.0000000001
 12
1.0
 22
0.0
 32
0.0
 13
1.0
 23
0.0
 33
0.0
 40
0.0
 40
0.0
 40
0.0
 40
0.0
 40
1.0
 40
1.0
 40
1.0
 40
2.0
 40
2.0
 40
2.0
 40
3.0
 40
3.0
 40
3.0
 40
4.0
 40
4.0
 40
4.0
 40
4.0
 10
93.06064179531123
 20
-147.9017387868093
 30
0.0
 10
92.81087237263061
 20
-147.9017387868093
 30
0.0
 10
92.76436358357975
 20
-148.1852701452454
 30
0.0
 10
92.76436358357975
 20
-148.5301242033189
 30
0.0
 10
92.76436358357975
 20
-148.8494845548015
 30
0.0
 10
92.80053708617487
 20
-149.1581651102799
 30
0.0
 10
93.06064179531123
 20
-149.1581651102799
 30
0.0
 10
93.30799965115217
 20
-149.1581651102799
 30
0.0
 10
93.35692000704272
 20
-148.8770453186835
 30
0.0
 10
93.35692000704272
 20
-148.5301242033189
 30
0.0
 10
93.35692000704272
 20
-148.2104193422877
 30
0.0
 10
93.31867944715644
 20
-147.9017387868093
 30
0.0
 10
93.06064179531123
 20
-147.9017387868093
 30
0.0
  0
HATCH
  5
83
330
7A
100
AcDbEntity
  8
_U+30EC_U+30A4_U+30E4_U+30FC 1
 62
   179
420
  2234388
100
AcDbHatch
 10
0.0
 20
0.0
 30
0.0
210
0.0
220
0.0
230
1.0
  2
SOLID
 70
     1
 71
     0
 91
        2
 92
        1
 93
        1
 72
     4
 94
        3
 73
     0
 74
     1
 95
       29
 96
       25
 40
0.0
 40
0.0
 40
0.0
 40
0.0
 40
1.0
 40
1.0
 40
1.0
 40
2.0
 40
2.0
 40
2.0
 40
3.0
 40
3.0
 40
3.0
 40
4.0
 40
4.0
 40
4.0
 40
5.0
 40
5.0
 40
5.0
 40
6.0
 40
6.0
 40
6.0
 40
7.0
 40
7.0
 40
7.0
 40
8.0
 40
8.0
 40
8.0
 40
8.0
 10
93.45820581430907
 20
-149.1244031745245
 10
93.35037432562075
 20
-149.3338649800276
 10
93.17708602271267
 20
-149.3528130051965
 10
93.06064179531123
 20
-149.3528130051965
 10
92.89975583615006
 20
-149.3528130051965
 10
92.7581624117063
 20
-149.3063042161457
 10
92.66273326676487
 20
-149.1244031745245
 10
92.55938040220738
 20
-148.9297552796078
 10
92.54008786748999
 20
-148.6930772197712
 10
92.54008786748999
 20
-148.5301242033189
 10
92.54008786748999
 20
-148.3861192120354
 10
92.55696883536771
 20
-148.1342827320637
 10
92.66273326676487
 20
-147.9355007225647
 10
92.77090926500172
 20
-147.7325845984835
 10
92.93145071461436
 20
-147.7091579491838
 10
93.06064179531123
 20
-147.7091579491838
 10
93.21911618763272
 20
-147.7091579491838
 10
93.36312117891617
 20
-147.7535996809436
 10
93.45820581430907
 20
-147.9355007225647
 10
93.55776907383279
 20
-148.1280815601902
 10
93.58085121358395
 20
-148.3564913908623
 10
93.58085121358395
 20
-148.5301242033189
 10
93.58085121358395
 20
-148.7013454489358
 10
93.55983613112393
 20
-148.931822336899
 10
93.45820581430907
 20
-149.1244031745245
 97
        0
 97
        0
 92
        1
 93
        1
 72
     4
 94
        3
 73
     0
 74
     1
 95
       17
 96
       13
 40
0.0
 40
0.0
 40
0.0
 40
0.0
 40
1.0
 40
1.0
 40
1.0
 40
2.0
 40
2.0
 40
2.0
 40
3.0
 40
3.0
 40
3.0
 40
4.0
 40
4.0
 40
4.0
 40
4.0
 10
93.06064179531123
 20
-147.9017387868093
 10
92.81087237263061
 20
-147.9017387868093
 10
92.76436358357975
 20
-148.1852701452454
 10
92.76436358357975
 20
-148.5301242033189
 10
92.76436358357975
 20
-148.8494845548015
 10
92.80053708617487
 20
-149.1581651102799
 10
93.06064179531123
 20
-149.1581651102799
 10
93.30799965115217
 20
-149.1581651102799
 10
93.35692000704272
 20
-148.8770453186835
 10
93.35692000704272
 20
-148.5301242033189
 10
93.35692000704272
 20
-148.2104193422877
 10
93.31867944715644
 20
-147.9017387868093
 10
93.06064179531123
 20
-147.9017387868093
 97
        0
 97
        0
 75
     2
 76
     1
 98
        0
  0
POLYLINE
  5
84
330
7A
100
AcDbEntity
  8
_U+30EC_U+30A4_U+30E4_U+30FC 1
370
     0
100
AcDb2dPolyline
 66
     1
 10
0.0
 20
0.0
 30
0.0
  0
VERTEX
  5
85
330
84
100
AcDbEntity
  8
_U+30EC_U+30A4_U+30E4_U+30FC 1
370
     0
100
AcDbVertex
100
AcDb2dVertex
 10
93.79754771960617
 20
-149.3021701015633
 30
0.0
  0
VERTEX
  5
86
330
84
100
AcDbEntity
  8
_U+30EC_U+30A4_U+30E4_U+30FC 1
370
     0
100
AcDbVertex
100
AcDb2dVertex
 10
93.79754771960617
 20
-149.0503336215916
 30
0.0
  0
VERTEX
  5
87
330
84
100
AcDbEntity
  8
_U+30EC_U+30A4_U+30E4_U+30FC 1
370
     0
100
AcDbVertex
100
AcDb2dVertex
 10
94.04938419957793
 20
-149.0503336215916
 30
0.0
  0
VERTEX
  5
88
330
84
100
AcDbEntity
  8
_U+30EC_U+30A4_U+30E4_U+30FC 1
370
     0
100
AcDbVertex
100
AcDb2dVertex
 10
94.04938419957793
 20
-149.3021701015633
 30
0.0
  0
VERTEX
  5
89
330
84
100
AcDbEntity
  8
_U+30EC_U+30A4_U+30E4_U+30FC 1
370
     0
100
AcDbVertex
100
AcDb2dVertex
 10
93.79754771960617
 20
-149.3021701015633
 30
0.0
  0
SEQEND
  5
8A
330
84
100
AcDbEntity
  8
_U+30EC_U+30A4_U+30E4_U+30FC 1
370
     0
  0
HATCH
  5
8B
330
7A
100
AcDbEntity
  8
_U+30EC_U+30A4_U+30E4_U+30FC 1
 62
   179
420
  2234388
100
AcDbHatch
 10
0.0
 20
0.0
 30
0.0
210
0.0
220
0.0
230
1.0
  2
SOLID
 70
     1
 71
     0
 91
        1
 92
        1
 93
        4
 72
     1
 10
93.79754771960617
 20
-149.3021701015633
 11
93.79754771960617
 21
-149.0503336215916
 72
     1
 10
93.79754771960617
 20
-149.0503336215916
 11
94.04938419957793
 21
-149.0503336215916
 72
     1
 10
94.04938419957793
 20
-149.0503336215916
 11
94.04938419957793
 21
-149.3021701015633
 72
     1
 10
94.04938419957793
 20
-149.3021701015633
 11
93.79754771960617
 21
-149.3021701015633
 97
        0
 75
     2
 76
     1
 98
        0
  0
SPLINE
  5
8C
330
7A
100
AcDbEntity
  8
_U+30EC_U+30A4_U+30E4_U+30FC 1
370
     0
100
AcDbSpline
210
0.0
220
0.0
230
1.0
 70
    11
 71
     3
 72
    53
 73
    49
 74
     0
 42
0.0000000001
 43
0.0000000001
 12
1.0
 22
0.0
 32
0.0
 13
1.0
 23
0.0
 33
0.0
 40
0.0
 40
0.0
 40
0.0
 40
0.0
 40
1.0
 40
1.0
 40
1.0
 40
2.0
 40
2.0
 40
2.0
 40
3.0
 40
3.0
 40
3.0
 40
4.0
 40
4.0
 40
4.0
 40
5.0
 40
5.0
 40
5.0
 40
6.0
 40
6.0
 40
6.0
 40
7.0
 40
7.0
 40
7.0
 40
8.0
 40
8.0
 40
8.0
 40
9.0
 40
9.0
 40
9.0
 40
10.0
 40
10.0
 40
10.0
 40
11.0
 40
11.0
 40
11.0
 40
12.0
 40
12.0
 40
12.0
 40
13.0
 40
13.0
 40
13.0
 40
14.0
 40
14.0
 40
14.0
 40
15.0
 40
15.0
 40
15.0
 40
16.0
 40
16.0
 40
16.0
 40
16.0
 10
94.76665307960695
 20
-149.3528130051965
 30
0.0
 10
94.68844941209179
 20
-149.3528130051965
 30
0.0
 10
94.58681909527691
 20
-149.3359320373188
 30
0.0
 10
94.48518877846205
 20
-149.2725422803902
 30
0.0
 10
94.31190047555397
 20
-149.1626437344107
 30
0.0
 10
94.29054088354542
 20
-149.0313855964227
 30
0.0
 10
94.27159285837655
 20
-148.9235541077344
 30
0.0
 10
94.27159285837655
 20
-148.9235541077344
 30
0.0
 10
94.49380151717517
 20
-148.9235541077344
 30
0.0
 10
94.49380151717517
 20
-148.9235541077344
 30
0.0
 10
94.54857853539063
 20
-149.1223361172333
 30
0.0
 10
94.67570255879636
 20
-149.1519639384065
 30
0.0
 10
94.7687201368981
 20
-149.1519639384065
 30
0.0
 10
94.90824650405072
 20
-149.1519639384065
 30
0.0
 10
95.06051972449876
 20
-149.0524006788827
 30
0.0
 10
95.06051972449876
 20
-148.8198567336284
 30
0.0
 10
95.06051972449876
 20
-148.5638861390743
 30
0.0
 10
94.88068574016872
 20
-148.4939507007237
 30
0.0
 10
94.76010739818497
 20
-148.4939507007237
 30
0.0
 10
94.72841251972068
 20
-148.4939507007237
 30
0.0
 10
94.58681909527691
 20
-148.4939507007237
 30
0.0
 10
94.49793563175747
 20
-148.6231417814206
 30
0.0
 10
94.49793563175747
 20
-148.6231417814206
 30
0.0
 10
94.32223576200973
 20
-148.6041937562517
 30
0.0
 10
94.32223576200973
 20
-148.6041937562517
 30
0.0
 10
94.32223576200973
 20
-148.6041937562517
 30
0.0
 10
94.44281410399347
 20
-147.7577337955258
 30
0.0
 10
94.44281410399347
 20
-147.7577337955258
 30
0.0
 10
94.44281410399347
 20
-147.7577337955258
 30
0.0
 10
95.22140568365992
 20
-147.7577337955258
 30
0.0
 10
95.22140568365992
 20
-147.7577337955258
 30
0.0
 10
95.22140568365992
 20
-147.7577337955258
 30
0.0
 10
95.22140568365992
 20
-147.9523816904425
 30
0.0
 10
95.22140568365992
 20
-147.9523816904425
 30
0.0
 10
95.22140568365992
 20
-147.9523816904425
 30
0.0
 10
94.60576712044579
 20
-147.9523816904425
 30
0.0
 10
94.60576712044579
 20
-147.9523816904425
 30
0.0
 10
94.60576712044579
 20
-147.9523816904425
 30
0.0
 10
94.54031030622603
 20
-148.3754394160312
 30
0.0
 10
94.54031030622603
 20
-148.3754394160312
 30
0.0
 10
94.60163300586349
 20
-148.3416774802757
 30
0.0
 10
94.68397078796096
 20
-148.3013698630983
 30
0.0
 10
94.80248207265355
 20
-148.3013698630983
 30
0.0
 10
95.05638560991646
 20
-148.3013698630983
 30
0.0
 10
95.29340817930165
 20
-148.4877495288503
 30
0.0
 10
95.29340817930165
 20
-148.8009087084595
 30
0.0
 10
95.29340817930165
 20
-149.118202002651
 30
0.0
 10
95.06913246321189
 20
-149.3528130051965
 30
0.0
 10
94.76665307960695
 20
-149.3528130051965
 30
0.0
  0
HATCH
  5
8D
330
7A
100
AcDbEntity
  8
_U+30EC_U+30A4_U+30E4_U+30FC 1
 62
   179
420
  2234388
100
AcDbHatch
 10
0.0
 20
0.0
 30
0.0
210
0.0
220
0.0
230
1.0
  2
SOLID
 70
     1
 71
     0
 91
        1
 92
        1
 93
        1
 72
     4
 94
        3
 73
     0
 74
     1
 95
       53
 96
       49
 40
0.0
 40
0.0
 40
0.0
 40
0.0
 40
1.0
 40
1.0
 40
1.0
 40
2.0
 40
2.0
 40
2.0
 40
3.0
 40
3.0
 40
3.0
 40
4.0
 40
4.0
 40
4.0
 40
5.0
 40
5.0
 40
5.0
 40
6.0
 40
6.0
 40
6.0
 40
7.0
 40
7.0
 40
7.0
 40
8.0
 40
8.0
 40
8.0
 40
9.0
 40
9.0
 40
9.0
 40
10.0
 40
10.0
 40
10.0
 40
11.0
 40
11.0
 40
11.0
 40
12.0
 40
12.0
 40
12.0
 40
13.0
 40
13.0
 40
13.0
 40
14.0
 40
14.0
 40
14.0
 40
15.0
 40
15.0
 40
15.0
 40
16.0
 40
16.0
 40
16.0
 40
16.0
 10
94.76665307960695
 20
-149.3528130051965
 10
94.68844941209179
 20
-149.3528130051965
 10
94.58681909527691
 20
-149.3359320373188
 10
94.48518877846205
 20
-149.2725422803902
 10
94.31190047555397
 20
-149.1626437344107
 10
94.29054088354542
 20
-149.0313855964227
 10
94.27159285837655
 20
-148.9235541077344
 10
94.27159285837655
 20
-148.9235541077344
 10
94.49380151717517
 20
-148.9235541077344
 10
94.49380151717517
 20
-148.9235541077344
 10
94.54857853539063
 20
-149.1223361172333
 10
94.67570255879636
 20
-149.1519639384065
 10
94.7687201368981
 20
-149.1519639384065
 10
94.90824650405072
 20
-149.1519639384065
 10
95.06051972449876
 20
-149.0524006788827
 10
95.06051972449876
 20
-148.8198567336284
 10
95.06051972449876
 20
-148.5638861390743
 10
94.88068574016872
 20
-148.4939507007237
 10
94.76010739818497
 20
-148.4939507007237
 10
94.72841251972068
 20
-148.4939507007237
 10
94.58681909527691
 20
-148.4939507007237
 10
94.49793563175747
 20
-148.6231417814206
 10
94.49793563175747
 20
-148.6231417814206
 10
94.32223576200973
 20
-148.6041937562517
 10
94.32223576200973
 20
-148.6041937562517
 10
94.32223576200973
 20
-148.6041937562517
 10
94.44281410399347
 20
-147.7577337955258
 10
94.44281410399347
 20
-147.7577337955258
 10
94.44281410399347
 20
-147.7577337955258
 10
95.22140568365992
 20
-147.7577337955258
 10
95.22140568365992
 20
-147.7577337955258
 10
95.22140568365992
 20
-147.7577337955258
 10
95.22140568365992
 20
-147.9523816904425
 10
95.22140568365992
 20
-147.9523816904425
 10
95.22140568365992
 20
-147.9523816904425
 10
94.60576712044579
 20
-147.9523816904425
 10
94.60576712044579
 20
-147.9523816904425
 10
94.60576712044579
 20
-147.9523816904425
 10
94.54031030622603
 20
-148.3754394160312
 10
94.54031030622603
 20
-148.3754394160312
 10
94.60163300586349
 20
-148.3416774802757
 10
94.68397078796096
 20
-148.3013698630983
 10
94.80248207265355
 20
-148.3013698630983
 10
95.05638560991646
 20
-148.3013698630983
 10
95.29340817930165
 20
-148.4877495288503
 10
95.29340817930165
 20
-148.8009087084595
 10
95.29340817930165
 20
-149.118202002651
 10
95.06913246321189
 20
-149.3528130051965
 10
94.76665307960695
 20
-149.3528130051965
 97
        0
 97
        0
 75
     2
 76
     1
 98
        0
  0
ENDBLK
  5
7D
330
7A
100
AcDbEntity
  8
0
100
AcDbBlockEnd
  0
BLOCK
  5
90
330
8E
100
AcDbEntity
  8
0
100
AcDbBlockBegin
  2
block 4
 70
     0
 10
0.0
 20
0.0
 30
0.0
  3
block 4
  1

  0
SPLINE
  5
92
330
8E
100
AcDbEntity
  8
_U+30EC_U+30A4_U+30E4_U+30FC 1
370
     0
100
AcDbSpline
210
0.0
220
0.0
230
1.0
 70
    11
 71
     3
 72
    26
 73
    22
 74
     0
 42
0.0000000001
 43
0.0000000001
 12
1.0
 22
0.0
 32
0.0
 13
1.0
 23
0.0
 33
0.0
 40
0.0
 40
0.0
 40
0.0
 40
0.0
 40
1.0
 40
1.0
 40
1.0
 40
2.0
 40
2.0
 40
2.0
 40
3.0
 40
3.0
 40
3.0
 40
4.0
 40
4.0
 40
4.0
 40
5.0
 40
5.0
 40
5.0
 40
6.0
 40
6.0
 40
6.0
 40
7.0
 40
7.0
 40
7.0
 40
7.0
 10
86.38955889767345
 20
-108.8650173338949
 30
0.0
 10
86.38955889767345
 20
-108.8650173338949
 30
0.0
 10
86.38955889767345
 20
-107.7608642308723
 30
0.0
 10
86.38955889767345
 20
-107.7608642308723
 30
0.0
 10
86.38955889767345
 20
-107.7608642308723
 30
0.0
 10
86.05951875018651
 20
-107.7608642308723
 30
0.0
 10
86.05951875018651
 20
-107.7608642308723
 30
0.0
 10
86.05951875018651
 20
-107.7608642308723
 30
0.0
 10
86.05951875018651
 20
-107.6127251250065
 30
0.0
 10
86.05951875018651
 20
-107.6127251250065
 30
0.0
 10
86.3916259549646
 20
-107.59791121442
 30
0.0
 10
86.43813474401547
 20
-107.4349581979677
 30
0.0
 10
86.46776256518862
 20
-107.3205810278574
 30
0.0
 10
86.46776256518862
 20
-107.3205810278574
 30
0.0
 10
86.61383461376322
 20
-107.3205810278574
 30
0.0
 10
86.61383461376322
 20
-107.3205810278574
 30
0.0
 10
86.61383461376322
 20
-107.3205810278574
 30
0.0
 10
86.61383461376322
 20
-108.8650173338949
 30
0.0
 10
86.61383461376322
 20
-108.8650173338949
 30
0.0
 10
86.61383461376322
 20
-108.8650173338949
 30
0.0
 10
86.38955889767345
 20
-108.8650173338949
 30
0.0
 10
86.38955889767345
 20
-108.8650173338949
 30
0.0
  0
HATCH
  5
93
330
8E
100
AcDbEntity
  8
_U+30EC_U+30A4_U+30E4_U+30FC 1
 62
   179
420
  2234388
100
AcDbHatch
 10
0.0
 20
0.0
 30
0.0
210
0.0
220
0.0
230
1.0
  2
SOLID
 70
     1
 71
     0
 91
        1
 92
        1
 93
        1
 72
     4
 94
        3
 73
     0
 74
     1
 95
       26
 96
       22
 40
0.0
 40
0.0
 40
0.0
 40
0.0
 40
1.0
 40
1.0
 40
1.0
 40
2.0
 40
2.0
 40
2.0
 40
3.0
 40
3.0
 40
3.0
 40
4.0
 40
4.0
 40
4.0
 40
5.0
 40
5.0
 40
5.0
 40
6.0
 40
6.0
 40
6.0
 40
7.0
 40
7.0
 40
7.0
 40
7.0
 10
86.38955889767345
 20
-108.8650173338949
 10
86.38955889767345
 20
-108.8650173338949
 10
86.38955889767345
 20
-107.7608642308723
 10
86.38955889767345
 20
-107.7608642308723
 10
86.38955889767345
 20
-107.7608642308723
 10
86.05951875018651
 20
-107.7608642308723
 10
86.05951875018651
 20
-107.7608642308723
 10
86.05951875018651
 20
-107.7608642308723
 10
86.05951875018651
 20
-107.6127251250065
 10
86.05951875018651
 20
-107.6127251250065
 10
86.3916259549646
 20
-107.59791121442
 10
86.43813474401547
 20
-107.4349581979677
 10
86.46776256518862
 20
-107.3205810278574
 10
86.46776256518862
 20
-107.3205810278574
 10
86.61383461376322
 20
-107.3205810278574
 10
86.61383461376322
 20
-107.3205810278574
 10
86.61383461376322
 20
-107.3205810278574
 10
86.61383461376322
 20
-108.8650173338949
 10
86.61383461376322
 20
-108.8650173338949
 10
86.61383461376322
 20
-108.8650173338949
 10
86.38955889767345
 20
-108.8650173338949
 10
86.38955889767345
 20
-108.8650173338949
 97
        0
 97
        0
 75
     2
 76
     1
 98
        0
  0
POLYLINE
  5
94
330
8E
100
AcDbEntity
  8
_U+30EC_U+30A4_U+30E4_U+30FC 1
370
     0
100
AcDb2dPolyline
 66
     1
 10
0.0
 20
0.0
 30
0.0
  0
VERTEX
  5
95
330
94
100
AcDbEntity
  8
_U+30EC_U+30A4_U+30E4_U+30FC 1
370
     0
100
AcDbVertex
100
AcDb2dVertex
 10
87.17504066831042
 20
-108.8650173338949
 30
0.0
  0
VERTEX
  5
96
330
94
100
AcDbEntity
  8
_U+30EC_U+30A4_U+30E4_U+30FC 1
370
     0
100
AcDbVertex
100
AcDb2dVertex
 10
87.17504066831042
 20
-108.6131808539231
 30
0.0
  0
VERTEX
  5
97
330
94
100
AcDbEntity
  8
_U+30EC_U+30A4_U+30E4_U+30FC 1
370
     0
100
AcDbVertex
100
AcDb2dVertex
 10
87.42670489350792
 20
-108.6131808539231
 30
0.0
  0
VERTEX
  5
98
330
94
100
AcDbEntity
  8
_U+30EC_U+30A4_U+30E4_U+30FC 1
370
     0
100
AcDbVertex
100
AcDb2dVertex
 10
87.42670489350792
 20
-108.8650173338949
 30
0.0
  0
VERTEX
  5
99
330
94
100
AcDbEntity
  8
_U+30EC_U+30A4_U+30E4_U+30FC 1
370
     0
100
AcDbVertex
100
AcDb2dVertex
 10
87.17504066831042
 20
-108.8650173338949
 30
0.0
  0
SEQEND
  5
9A
330
94
100
AcDbEntity
  8
_U+30EC_U+30A4_U+30E4_U+30FC 1
370
     0
  0
HATCH
  5
9B
330
8E
100
AcDbEntity
  8
_U+30EC_U+30A4_U+30E4_U+30FC 1
 62
   179
420
  2234388
100
AcDbHatch
 10
0.0
 20
0.0
 30
0.0
210
0.0
220
0.0
230
1.0
  2
SOLID
 70
     1
 71
     0
 91
        1
 92
        1
 93
        4
 72
     1
 10
87.17504066831042
 20
-108.8650173338949
 11
87.17504066831042
 21
-108.6131808539231
 72
     1
 10
87.17504066831042
 20
-108.6131808539231
 11
87.42670489350792
 21
-108.6131808539231
 72
     1
 10
87.42670489350792
 20
-108.6131808539231
 11
87.42670489350792
 21
-108.8650173338949
 72
     1
 10
87.42670489350792
 20
-108.8650173338949
 11
87.17504066831042
 21
-108.8650173338949
 97
        0
 75
     2
 76
     1
 98
        0
  0
SPLINE
  5
9C
330
8E
100
AcDbEntity
  8
_U+30EC_U+30A4_U+30E4_U+30FC 1
370
     0
100
AcDbSpline
210
0.0
220
0.0
230
1.0
 70
    11
 71
     3
 72
    53
 73
    49
 74
     0
 42
0.0000000001
 43
0.0000000001
 12
1.0
 22
0.0
 32
0.0
 13
1.0
 23
0.0
 33
0.0
 40
0.0
 40
0.0
 40
0.0
 40
0.0
 40
1.0
 40
1.0
 40
1.0
 40
2.0
 40
2.0
 40
2.0
 40
3.0
 40
3.0
 40
3.0
 40
4.0
 40
4.0
 40
4.0
 40
5.0
 40
5.0
 40
5.0
 40
6.0
 40
6.0
 40
6.0
 40
7.0
 40
7.0
 40
7.0
 40
8.0
 40
8.0
 40
8.0
 40
9.0
 40
9.0
 40
9.0
 40
10.0
 40
10.0
 40
10.0
 40
11.0
 40
11.0
 40
11.0
 40
12.0
 40
12.0
 40
12.0
 40
13.0
 40
13.0
 40
13.0
 40
14.0
 40
14.0
 40
14.0
 40
15.0
 40
15.0
 40
15.0
 40
16.0
 40
16.0
 40
16.0
 40
16.0
 10
88.14431828308545
 20
-108.915660237528
 30
0.0
 10
88.06594236079602
 20
-108.915660237528
 30
0.0
 10
87.96448429875541
 20
-108.8987792696503
 30
0.0
 10
87.86285398194055
 20
-108.8353895127217
 30
0.0
 10
87.68939342425821
 20
-108.7254909667422
 30
0.0
 10
87.66820608702392
 20
-108.5942328287542
 30
0.0
 10
87.64925806185505
 20
-108.4864013400659
 30
0.0
 10
87.64925806185505
 20
-108.4864013400659
 30
0.0
 10
87.8712944658794
 20
-108.4864013400659
 30
0.0
 10
87.8712944658794
 20
-108.4864013400659
 30
0.0
 10
87.9264159936434
 20
-108.6851833495648
 30
0.0
 10
88.05336776227486
 20
-108.714811170738
 30
0.0
 10
88.1463853403766
 20
-108.714811170738
 30
0.0
 10
88.28591170752922
 20
-108.714811170738
 30
0.0
 10
88.43835718275153
 20
-108.6152479112143
 30
0.0
 10
88.43835718275153
 20
-108.3827039659599
 30
0.0
 10
88.43835718275153
 20
-108.1267333714058
 30
0.0
 10
88.25852319842149
 20
-108.0567979330553
 30
0.0
 10
88.13794485643774
 20
-108.0567979330553
 30
0.0
 10
88.10624997797345
 20
-108.0567979330553
 30
0.0
 10
87.96448429875541
 20
-108.0567979330553
 30
0.0
 10
87.87560083523597
 20
-108.1859890137521
 30
0.0
 10
87.87560083523597
 20
-108.1859890137521
 30
0.0
 10
87.70007322026248
 20
-108.1670409885832
 30
0.0
 10
87.70007322026248
 20
-108.1670409885832
 30
0.0
 10
87.70007322026248
 20
-108.1670409885832
 30
0.0
 10
87.82065156224623
 20
-107.3205810278574
 30
0.0
 10
87.82065156224623
 20
-107.3205810278574
 30
0.0
 10
87.82065156224623
 20
-107.3205810278574
 30
0.0
 10
88.59907088713842
 20
-107.3205810278574
 30
0.0
 10
88.59907088713842
 20
-107.3205810278574
 30
0.0
 10
88.59907088713842
 20
-107.3205810278574
 30
0.0
 10
88.59907088713842
 20
-107.515228922774
 30
0.0
 10
88.59907088713842
 20
-107.515228922774
 30
0.0
 10
88.59907088713842
 20
-107.515228922774
 30
0.0
 10
87.98343232392429
 20
-107.515228922774
 30
0.0
 10
87.98343232392429
 20
-107.515228922774
 30
0.0
 10
87.98343232392429
 20
-107.515228922774
 30
0.0
 10
87.91797550970453
 20
-107.9382866483626
 30
0.0
 10
87.91797550970453
 20
-107.9382866483626
 30
0.0
 10
87.97929820934199
 20
-107.9045247126072
 30
0.0
 10
88.06180824621372
 20
-107.8642170954298
 30
0.0
 10
88.18014727613205
 20
-107.8642170954298
 30
0.0
 10
88.43405081339496
 20
-107.8642170954298
 30
0.0
 10
88.67107338278015
 20
-108.0505967611818
 30
0.0
 10
88.67107338278015
 20
-108.363755940791
 30
0.0
 10
88.67107338278015
 20
-108.6810492349825
 30
0.0
 10
88.44679766669039
 20
-108.915660237528
 30
0.0
 10
88.14431828308545
 20
-108.915660237528
 30
0.0
  0
HATCH
  5
9D
330
8E
100
AcDbEntity
  8
_U+30EC_U+30A4_U+30E4_U+30FC 1
 62
   179
420
  2234388
100
AcDbHatch
 10
0.0
 20
0.0
 30
0.0
210
0.0
220
0.0
230
1.0
  2
SOLID
 70
     1
 71
     0
 91
        1
 92
        1
 93
        1
 72
     4
 94
        3
 73
     0
 74
     1
 95
       53
 96
       49
 40
0.0
 40
0.0
 40
0.0
 40
0.0
 40
1.0
 40
1.0
 40
1.0
 40
2.0
 40
2.0
 40
2.0
 40
3.0
 40
3.0
 40
3.0
 40
4.0
 40
4.0
 40
4.0
 40
5.0
 40
5.0
 40
5.0
 40
6.0
 40
6.0
 40
6.0
 40
7.0
 40
7.0
 40
7.0
 40
8.0
 40
8.0
 40
8.0
 40
9.0
 40
9.0
 40
9.0
 40
10.0
 40
10.0
 40
10.0
 40
11.0
 40
11.0
 40
11.0
 40
12.0
 40
12.0
 40
12.0
 40
13.0
 40
13.0
 40
13.0
 40
14.0
 40
14.0
 40
14.0
 40
15.0
 40
15.0
 40
15.0
 40
16.0
 40
16.0
 40
16.0
 40
16.0
 10
88.14431828308545
 20
-108.915660237528
 10
88.06594236079602
 20
-108.915660237528
 10
87.96448429875541
 20
-108.8987792696503
 10
87.86285398194055
 20
-108.8353895127217
 10
87.68939342425821
 20
-108.7254909667422
 10
87.66820608702392
 20
-108.5942328287542
 10
87.64925806185505
 20
-108.4864013400659
 10
87.64925806185505
 20
-108.4864013400659
 10
87.8712944658794
 20
-108.4864013400659
 10
87.8712944658794
 20
-108.4864013400659
 10
87.9264159936434
 20
-108.6851833495648
 10
88.05336776227486
 20
-108.714811170738
 10
88.1463853403766
 20
-108.714811170738
 10
88.28591170752922
 20
-108.714811170738
 10
88.43835718275153
 20
-108.6152479112143
 10
88.43835718275153
 20
-108.3827039659599
 10
88.43835718275153
 20
-108.1267333714058
 10
88.25852319842149
 20
-108.0567979330553
 10
88.13794485643774
 20
-108.0567979330553
 10
88.10624997797345
 20
-108.0567979330553
 10
87.96448429875541
 20
-108.0567979330553
 10
87.87560083523597
 20
-108.1859890137521
 10
87.87560083523597
 20
-108.1859890137521
 10
87.70007322026248
 20
-108.1670409885832
 10
87.70007322026248
 20
-108.1670409885832
 10
87.70007322026248
 20
-108.1670409885832
 10
87.82065156224623
 20
-107.3205810278574
 10
87.82065156224623
 20
-107.3205810278574
 10
87.82065156224623
 20
-107.3205810278574
 10
88.59907088713842
 20
-107.3205810278574
 10
88.59907088713842
 20
-107.3205810278574
 10
88.59907088713842
 20
-107.3205810278574
 10
88.59907088713842
 20
-107.515228922774
 10
88.59907088713842
 20
-107.515228922774
 10
88.59907088713842
 20
-107.515228922774
 10
87.98343232392429
 20
-107.515228922774
 10
87.98343232392429
 20
-107.515228922774
 10
87.98343232392429
 20
-107.515228922774
 10
87.91797550970453
 20
-107.9382866483626
 10
87.91797550970453
 20
-107.9382866483626
 10
87.97929820934199
 20
-107.9045247126072
 10
88.06180824621372
 20
-107.8642170954298
 10
88.18014727613205
 20
-107.8642170954298
 10
88.43405081339496
 20
-107.8642170954298
 10
88.67107338278015
 20
-108.0505967611818
 10
88.67107338278015
 20
-108.363755940791
 10
88.67107338278015
 20
-108.6810492349825
 10
88.44679766669039
 20
-108.915660237528
 10
88.14431828308545
 20
-108.915660237528
 97
        0
 97
        0
 75
     2
 76
     1
 98
        0
  0
ENDBLK
  5
91
330
8E
100
AcDbEntity
  8
0
100
AcDbBlockEnd
  0
BLOCK
  5
AC
330
AA
100
AcDbEntity
  8
0
100
AcDbBlockBegin
  2
block 5
 70
     0
 10
0.0
 20
0.0
 30
0.0
  3
block 5
  1

  0
SPLINE
  5
AE
330
AA
100
AcDbEntity
  8
_U+30EC_U+30A4_U+30E4_U+30FC 1
370
     0
100
AcDbSpline
210
0.0
220
0.0
230
1.0
 70
    11
 71
     3
 72
    62
 73
    58
 74
     0
 42
0.0000000001
 43
0.0000000001
 12
1.0
 22
0.0
 32
0.0
 13
1.0
 23
0.0
 33
0.0
 40
0.0
 40
0.0
 40
0.0
 40
0.0
 40
1.0
 40
1.0
 40
1.0
 40
2.0
 40
2.0
 40
2.0
 40
3.0
 40
3.0
 40
3.0
 40
4.0
 40
4.0
 40
4.0
 40
5.0
 40
5.0
 40
5.0
 40
6.0
 40
6.0
 40
6.0
 40
7.0
 40
7.0
 40
7.0
 40
8.0
 40
8.0
 40
8.0
 40
9.0
 40
9.0
 40
9.0
 40
10.0
 40
10.0
 40
10.0
 40
11.0
 40
11.0
 40
11.0
 40
12.0
 40
12.0
 40
12.0
 40
13.0
 40
13.0
 40
13.0
 40
14.0
 40
14.0
 40
14.0
 40
15.0
 40
15.0
 40
15.0
 40
16.0
 40
16.0
 40
16.0
 40
17.0
 40
17.0
 40
17.0
 40
18.0
 40
18.0
 40
18.0
 40
19.0
 40
19.0
 40
19.0
 40
19.0
 10
91.80628252913176
 20
-130.2125515082455
 30
0.0
 10
91.80628252913176
 20
-130.3079806531869
 30
0.0
 10
91.78526744667174
 20
-130.5257106878547
 30
0.0
 10
91.59923229046825
 20
-130.6507676539693
 30
0.0
 10
91.4869221776491
 20
-130.7248372069021
 30
0.0
 10
91.38770342767391
 20
-130.7289713214844
 30
0.0
 10
91.30295407873676
 20
-130.7331054360667
 30
0.0
 10
91.30295407873676
 20
-130.7331054360667
 30
0.0
 10
91.30295407873676
 20
-130.5129638345593
 30
0.0
 10
91.30295407873676
 20
-130.5129638345593
 30
0.0
 10
91.37702363166964
 20
-130.5108967772681
 30
0.0
 10
91.61163463421515
 20
-130.5005614908124
 30
0.0
 10
91.61163463421515
 20
-130.2170301323763
 30
0.0
 10
91.61163463421515
 20
-130.0795708225148
 30
0.0
 10
91.5420437054131
 20
-129.9269530925183
 30
0.0
 10
91.31363387474104
 20
-129.9269530925183
 30
0.0
 10
91.1971896473396
 20
-129.9269530925183
 30
0.0
 10
91.14861380099757
 20
-129.9651936524045
 30
0.0
 10
91.11691892253327
 20
-129.9968885308688
 30
0.0
 10
91.0428493696004
 20
-130.0709580838017
 30
0.0
 10
91.03010251630498
 20
-130.1874023112032
 30
0.0
 10
91.03010251630498
 20
-130.2421793294186
 30
0.0
 10
91.03010251630498
 20
-130.261471864136
 30
0.0
 10
91.03216957359612
 20
-130.2973008571826
 30
0.0
 10
91.03630368817844
 20
-130.3248616210646
 30
0.0
 10
91.03630368817844
 20
-130.3248616210646
 30
0.0
 10
90.84165579326181
 20
-130.3248616210646
 30
0.0
 10
90.84165579326181
 20
-130.3248616210646
 30
0.0
 10
90.84820147468379
 20
-130.2866210611784
 30
0.0
 10
90.85026853197493
 20
-130.2445908962583
 30
0.0
 10
90.85026853197493
 20
-130.2380452148363
 30
0.0
 10
90.85026853197493
 20
-130.1725884006166
 30
0.0
 10
90.82890893996638
 20
-129.9738063911177
 30
0.0
 10
90.59223088012972
 20
-129.9738063911177
 30
0.0
 10
90.41446395309083
 20
-129.9738063911177
 30
0.0
 10
90.35934242532683
 20
-130.1047200195572
 30
0.0
 10
90.35934242532683
 20
-130.2149630750852
 30
0.0
 10
90.35934242532683
 20
-130.4792018988038
 30
0.0
 10
90.59223088012972
 20
-130.4878146375169
 30
0.0
 10
90.66388886622292
 20
-130.4919487520992
 30
0.0
 10
90.66388886622292
 20
-130.4919487520992
 30
0.0
 10
90.66388886622292
 20
-130.695209385729
 30
0.0
 10
90.66388886622292
 20
-130.695209385729
 30
0.0
 10
90.53917640965687
 20
-130.6865966470158
 30
0.0
 10
90.16262747311907
 20
-130.6590358831339
 30
0.0
 10
90.16262747311907
 20
-130.2022162217897
 30
0.0
 10
90.16262747311907
 20
-129.9779405057
 30
0.0
 10
90.28975149652479
 20
-129.7367838217325
 30
0.0
 10
90.58568519870775
 20
-129.7367838217325
 30
0.0
 10
90.77206486445976
 20
-129.7367838217325
 30
0.0
 10
90.85440264655723
 20
-129.8318684571254
 30
0.0
 10
90.91572534619469
 20
-129.9314317166491
 30
0.0
 10
90.94328611007668
 20
-129.8701090170117
 30
0.0
 10
91.02355683488301
 20
-129.6882079753904
 30
0.0
 10
91.30088702144562
 20
-129.6882079753904
 30
0.0
 10
91.63919539809714
 20
-129.6882079753904
 30
0.0
 10
91.80628252913176
 20
-129.9355658312314
 30
0.0
 10
91.80628252913176
 20
-130.2125515082455
 30
0.0
  0
HATCH
  5
AF
330
AA
100
AcDbEntity
  8
_U+30EC_U+30A4_U+30E4_U+30FC 1
 62
   179
420
  2234388
100
AcDbHatch
 10
0.0
 20
0.0
 30
0.0
210
0.0
220
0.0
230
1.0
  2
SOLID
 70
     1
 71
     0
 91
        1
 92
        1
 93
        1
 72
     4
 94
        3
 73
     0
 74
     1
 95
       62
 96
       58
 40
0.0
 40
0.0
 40
0.0
 40
0.0
 40
1.0
 40
1.0
 40
1.0
 40
2.0
 40
2.0
 40
2.0
 40
3.0
 40
3.0
 40
3.0
 40
4.0
 40
4.0
 40
4.0
 40
5.0
 40
5.0
 40
5.0
 40
6.0
 40
6.0
 40
6.0
 40
7.0
 40
7.0
 40
7.0
 40
8.0
 40
8.0
 40
8.0
 40
9.0
 40
9.0
 40
9.0
 40
10.0
 40
10.0
 40
10.0
 40
11.0
 40
11.0
 40
11.0
 40
12.0
 40
12.0
 40
12.0
 40
13.0
 40
13.0
 40
13.0
 40
14.0
 40
14.0
 40
14.0
 40
15.0
 40
15.0
 40
15.0
 40
16.0
 40
16.0
 40
16.0
 40
17.0
 40
17.0
 40
17.0
 40
18.0
 40
18.0
 40
18.0
 40
19.0
 40
19.0
 40
19.0
 40
19.0
 10
91.80628252913176
 20
-130.2125515082455
 10
91.80628252913176
 20
-130.3079806531869
 10
91.78526744667174
 20
-130.5257106878547
 10
91.59923229046825
 20
-130.6507676539693
 10
91.4869221776491
 20
-130.7248372069021
 10
91.38770342767391
 20
-130.7289713214844
 10
91.30295407873676
 20
-130.7331054360667
 10
91.30295407873676
 20
-130.7331054360667
 10
91.30295407873676
 20
-130.5129638345593
 10
91.30295407873676
 20
-130.5129638345593
 10
91.37702363166964
 20
-130.5108967772681
 10
91.61163463421515
 20
-130.5005614908124
 10
91.61163463421515
 20
-130.2170301323763
 10
91.61163463421515
 20
-130.0795708225148
 10
91.5420437054131
 20
-129.9269530925183
 10
91.31363387474104
 20
-129.9269530925183
 10
91.1971896473396
 20
-129.9269530925183
 10
91.14861380099757
 20
-129.9651936524045
 10
91.11691892253327
 20
-129.9968885308688
 10
91.0428493696004
 20
-130.0709580838017
 10
91.03010251630498
 20
-130.1874023112032
 10
91.03010251630498
 20
-130.2421793294186
 10
91.03010251630498
 20
-130.261471864136
 10
91.03216957359612
 20
-130.2973008571826
 10
91.03630368817844
 20
-130.3248616210646
 10
91.03630368817844
 20
-130.3248616210646
 10
90.84165579326181
 20
-130.3248616210646
 10
90.84165579326181
 20
-130.3248616210646
 10
90.84820147468379
 20
-130.2866210611784
 10
90.85026853197493
 20
-130.2445908962583
 10
90.85026853197493
 20
-130.2380452148363
 10
90.85026853197493
 20
-130.1725884006166
 10
90.82890893996638
 20
-129.9738063911177
 10
90.59223088012972
 20
-129.9738063911177
 10
90.41446395309083
 20
-129.9738063911177
 10
90.35934242532683
 20
-130.1047200195572
 10
90.35934242532683
 20
-130.2149630750852
 10
90.35934242532683
 20
-130.4792018988038
 10
90.59223088012972
 20
-130.4878146375169
 10
90.66388886622292
 20
-130.4919487520992
 10
90.66388886622292
 20
-130.4919487520992
 10
90.66388886622292
 20
-130.695209385729
 10
90.66388886622292
 20
-130.695209385729
 10
90.53917640965687
 20
-130.6865966470158
 10
90.16262747311907
 20
-130.6590358831339
 10
90.16262747311907
 20
-130.2022162217897
 10
90.16262747311907
 20
-129.9779405057
 10
90.28975149652479
 20
-129.7367838217325
 10
90.58568519870775
 20
-129.7367838217325
 10
90.77206486445976
 20
-129.7367838217325
 10
90.85440264655723
 20
-129.8318684571254
 10
90.91572534619469
 20
-129.9314317166491
 10
90.94328611007668
 20
-129.8701090170117
 10
91.02355683488301
 20
-129.6882079753904
 10
91.30088702144562
 20
-129.6882079753904
 10
91.63919539809714
 20
-129.6882079753904
 10
91.80628252913176
 20
-129.9355658312314
 10
91.80628252913176
 20
-130.2125515082455
 97
        0
 97
        0
 75
     2
 76
     1
 98
        0
  0
SPLINE
  5
B0
330
AA
100
AcDbEntity
  8
_U+30EC_U+30A4_U+30E4_U+30FC 1
370
     0
100
AcDbSpline
210
0.0
220
0.0
230
1.0
 70
    11
 71
     3
 72
    29
 73
    25
 74
     0
 42
0.0000000001
 43
0.0000000001
 12
1.0
 22
0.0
 32
0.0
 13
1.0
 23
0.0
 33
0.0
 40
0.0
 40
0.0
 40
0.0
 40
0.0
 40
1.0
 40
1.0
 40
1.0
 40
2.0
 40
2.0
 40
2.0
 40
3.0
 40
3.0
 40
3.0
 40
4.0
 40
4.0
 40
4.0
 40
5.0
 40
5.0
 40
5.0
 40
6.0
 40
6.0
 40
6.0
 40
7.0
 40
7.0
 40
7.0
 40
8.0
 40
8.0
 40
8.0
 40
8.0
 10
91.5778726984597
 20
-128.6295301327732
 30
0.0
 10
91.7873345039629
 20
-128.73770613101
 30
0.0
 10
91.80628252913176
 20
-128.9109944339181
 30
0.0
 10
91.80628252913176
 20
-129.0274386613195
 30
0.0
 10
91.80628252913176
 20
-129.1883246204807
 30
0.0
 10
91.75977374008089
 20
-129.3299180449245
 30
0.0
 10
91.5778726984597
 20
-129.4250026803174
 30
0.0
 10
91.38322480354309
 20
-129.5287000544234
 30
0.0
 10
91.1462022341579
 20
-129.5479925891408
 30
0.0
 10
90.9835937272541
 20
-129.5479925891408
 30
0.0
 10
90.83958873597066
 20
-129.5479925891408
 30
0.0
 10
90.5877522559989
 20
-129.5307671117145
 30
0.0
 10
90.38897024649998
 20
-129.4250026803174
 30
0.0
 10
90.18605412241877
 20
-129.3171711916291
 30
0.0
 10
90.16262747311907
 20
-129.1562852324679
 30
0.0
 10
90.16262747311907
 20
-129.0274386613195
 30
0.0
 10
90.16262747311907
 20
-128.8686197594495
 30
0.0
 10
90.20706920487879
 20
-128.7249592777146
 30
0.0
 10
90.38897024649998
 20
-128.6295301327732
 30
0.0
 10
90.58155108412545
 20
-128.530311382798
 30
0.0
 10
90.80996091479751
 20
-128.5068847334983
 30
0.0
 10
90.9835937272541
 20
-128.5068847334983
 30
0.0
 10
91.15481497287102
 20
-128.5068847334983
 30
0.0
 10
91.38529186083424
 20
-128.5282443255068
 30
0.0
 10
91.5778726984597
 20
-128.6295301327732
 30
0.0
  0
SPLINE
  5
B1
330
AA
100
AcDbEntity
  8
_U+30EC_U+30A4_U+30E4_U+30FC 1
370
     0
100
AcDbSpline
210
0.0
220
0.0
230
1.0
 70
    11
 71
     3
 72
    17
 73
    13
 74
     0
 42
0.0000000001
 43
0.0000000001
 12
1.0
 22
0.0
 32
0.0
 13
1.0
 23
0.0
 33
0.0
 40
0.0
 40
0.0
 40
0.0
 40
0.0
 40
1.0
 40
1.0
 40
1.0
 40
2.0
 40
2.0
 40
2.0
 40
3.0
 40
3.0
 40
3.0
 40
4.0
 40
4.0
 40
4.0
 40
4.0
 10
90.35520831074453
 20
-129.0274386613195
 30
0.0
 10
90.35520831074453
 20
-129.2772080840001
 30
0.0
 10
90.6387396691806
 20
-129.323716873051
 30
0.0
 10
90.9835937272541
 20
-129.323716873051
 30
0.0
 10
91.30295407873676
 20
-129.323716873051
 30
0.0
 10
91.61163463421515
 20
-129.2875433704559
 30
0.0
 10
91.61163463421515
 20
-129.0274386613195
 30
0.0
 10
91.61163463421515
 20
-128.7797362959301
 30
0.0
 10
91.33051484261877
 20
-128.7311604495881
 30
0.0
 10
90.9835937272541
 20
-128.7311604495881
 30
0.0
 10
90.66388886622292
 20
-128.7311604495881
 30
0.0
 10
90.35520831074453
 20
-128.7694010094743
 30
0.0
 10
90.35520831074453
 20
-129.0274386613195
 30
0.0
  0
HATCH
  5
B2
330
AA
100
AcDbEntity
  8
_U+30EC_U+30A4_U+30E4_U+30FC 1
 62
   179
420
  2234388
100
AcDbHatch
 10
0.0
 20
0.0
 30
0.0
210
0.0
220
0.0
230
1.0
  2
SOLID
 70
     1
 71
     0
 91
        2
 92
        1
 93
        1
 72
     4
 94
        3
 73
     0
 74
     1
 95
       29
 96
       25
 40
0.0
 40
0.0
 40
0.0
 40
0.0
 40
1.0
 40
1.0
 40
1.0
 40
2.0
 40
2.0
 40
2.0
 40
3.0
 40
3.0
 40
3.0
 40
4.0
 40
4.0
 40
4.0
 40
5.0
 40
5.0
 40
5.0
 40
6.0
 40
6.0
 40
6.0
 40
7.0
 40
7.0
 40
7.0
 40
8.0
 40
8.0
 40
8.0
 40
8.0
 10
91.5778726984597
 20
-128.6295301327732
 10
91.7873345039629
 20
-128.73770613101
 10
91.80628252913176
 20
-128.9109944339181
 10
91.80628252913176
 20
-129.0274386613195
 10
91.80628252913176
 20
-129.1883246204807
 10
91.75977374008089
 20
-129.3299180449245
 10
91.5778726984597
 20
-129.4250026803174
 10
91.38322480354309
 20
-129.5287000544234
 10
91.1462022341579
 20
-129.5479925891408
 10
90.9835937272541
 20
-129.5479925891408
 10
90.83958873597066
 20
-129.5479925891408
 10
90.5877522559989
 20
-129.5307671117145
 10
90.38897024649998
 20
-129.4250026803174
 10
90.18605412241877
 20
-129.3171711916291
 10
90.16262747311907
 20
-129.1562852324679
 10
90.16262747311907
 20
-129.0274386613195
 10
90.16262747311907
 20
-128.8686197594495
 10
90.20706920487879
 20
-128.7249592777146
 10
90.38897024649998
 20
-128.6295301327732
 10
90.58155108412545
 20
-128.530311382798
 10
90.80996091479751
 20
-128.5068847334983
 10
90.9835937272541
 20
-128.5068847334983
 10
91.15481497287102
 20
-128.5068847334983
 10
91.38529186083424
 20
-128.5282443255068
 10
91.5778726984597
 20
-128.6295301327732
 97
        0
 97
        0
 92
        1
 93
        1
 72
     4
 94
        3
 73
     0
 74
     1
 95
       17
 96
       13
 40
0.0
 40
0.0
 40
0.0
 40
0.0
 40
1.0
 40
1.0
 40
1.0
 40
2.0
 40
2.0
 40
2.0
 40
3.0
 40
3.0
 40
3.0
 40
4.0
 40
4.0
 40
4.0
 40
4.0
 10
90.35520831074453
 20
-129.0274386613195
 10
90.35520831074453
 20
-129.2772080840001
 10
90.6387396691806
 20
-129.323716873051
 10
90.9835937272541
 20
-129.323716873051
 10
91.30295407873676
 20
-129.323716873051
 10
91.61163463421515
 20
-129.2875433704559
 10
91.61163463421515
 20
-129.0274386613195
 10
91.61163463421515
 20
-128.7797362959301
 10
91.33051484261877
 20
-128.7311604495881
 10
90.9835937272541
 20
-128.7311604495881
 10
90.66388886622292
 20
-128.7311604495881
 10
90.35520831074453
 20
-128.7694010094743
 10
90.35520831074453
 20
-129.0274386613195
 97
        0
 97
        0
 75
     2
 76
     1
 98
        0
  0
ENDBLK
  5
AD
330
AA
100
AcDbEntity
  8
0
100
AcDbBlockEnd
  0
ENDSEC
  0
SECTION
  2
ENTITIES
  0
SPLINE
  5
41
330
1F
100
AcDbEntity
  8
_U+30EC_U+30A4_U+30E4_U+30FC 1
 62
   179
420
  2234388
370
    25
100
AcDbSpline
210
0.0
220
0.0
230
1.0
 70
    11
 71
     3
 72
   311
 73
   307
 74
     0
 42
0.0000000001
 43
0.0000000001
 12
1.0
 22
0.0
 32
0.0
 13
1.0
 23
0.0
 33
0.0
 40
0.0
 40
0.0
 40
0.0
 40
0.0
 40
1.0
 40
1.0
 40
1.0
 40
2.0
 40
2.0
 40
2.0
 40
3.0
 40
3.0
 40
3.0
 40
4.0
 40
4.0
 40
4.0
 40
5.0
 40
5.0
 40
5.0
 40
6.0
 40
6.0
 40
6.0
 40
7.0
 40
7.0
 40
7.0
 40
8.0
 40
8.0
 40
8.0
 40
9.0
 40
9.0
 40
9.0
 40
10.0
 40
10.0
 40
10.0
 40
11.0
 40
11.0
 40
11.0
 40
12.0
 40
12.0
 40
12.0
 40
13.0
 40
13.0
 40
13.0
 40
14.0
 40
14.0
 40
14.0
 40
15.0
 40
15.0
 40
15.0
 40
16.0
 40
16.0
 40
16.0
 40
17.0
 40
17.0
 40
17.0
 40
18.0
 40
18.0
 40
18.0
 40
19.0
 40
19.0
 40
19.0
 40
20.0
 40
20.0
 40
20.0
 40
21.0
 40
21.0
 40
21.0
 40
22.0
 40
22.0
 40
22.0
 40
23.0
 40
23.0
 40
23.0
 40
24.0
 40
24.0
 40
24.0
 40
25.0
 40
25.0
 40
25.0
 40
26.0
 40
26.0
 40
26.0
 40
27.0
 40
27.0
 40
27.0
 40
28.0
 40
28.0
 40
28.0
 40
29.0
 40
29.0
 40
29.0
 40
30.0
 40
30.0
 40
30.0
 40
31.0
 40
31.0
 40
31.0
 40
32.0
 40
32.0
 40
32.0
 40
33.0
 40
33.0
 40
33.0
 40
34.0
 40
34.0
 40
34.0
 40
35.0
 40
35.0
 40
35.0
 40
36.0
 40
36.0
 40
36.0
 40
37.0
 40
37.0
 40
37.0
 40
38.0
 40
38.0
 40
38.0
 40
39.0
 40
39.0
 40
39.0
 40
40.0
 40
40.0
 40
40.0
 40
41.0
 40
41.0
 40
41.0
 40
42.0
 40
42.0
 40
42.0
 40
43.0
 40
43.0
 40
43.0
 40
44.0
 40
44.0
 40
44.0
 40
45.0
 40
45.0
 40
45.0
 40
46.0
 40
46.0
 40
46.0
 40
47.0
 40
47.0
 40
47.0
 40
48.0
 40
48.0
 40
48.0
 40
49.0
 40
49.0
 40
49.0
 40
50.0
 40
50.0
 40
50.0
 40
51.0
 40
51.0
 40
51.0
 40
52.0
 40
52.0
 40
52.0
 40
53.0
 40
53.0
 40
53.0
 40
54.0
 40
54.0
 40
54.0
 40
55.0
 40
55.0
 40
55.0
 40
56.0
 40
56.0
 40
56.0
 40
57.0
 40
57.0
 40
57.0
 40
58.0
 40
58.0
 40
58.0
 40
59.0
 40
59.0
 40
59.0
 40
60.0
 40
60.0
 40
60.0
 40
61.0
 40
61.0
 40
61.0
 40
62.0
 40
62.0
 40
62.0
 40
63.0
 40
63.0
 40
63.0
 40
64.0
 40
64.0
 40
64.0
 40
65.0
 40
65.0
 40
65.0
 40
66.0
 40
66.0
 40
66.0
 40
67.0
 40
67.0
 40
67.0
 40
68.0
 40
68.0
 40
68.0
 40
69.0
 40
69.0
 40
69.0
 40
70.0
 40
70.0
 40
70.0
 40
71.0
 40
71.0
 40
71.0
 40
72.0
 40
72.0
 40
72.0
 40
73.0
 40
73.0
 40
73.0
 40
74.0
 40
74.0
 40
74.0
 40
75.0
 40
75.0
 40
75.0
 40
76.0
 40
76.0
 40
76.0
 40
77.0
 40
77.0
 40
77.0
 40
78.0
 40
78.0
 40
78.0
 40
79.0
 40
79.0
 40
79.0
 40
80.0
 40
80.0
 40
80.0
 40
81.0
 40
81.0
 40
81.0
 40
82.0
 40
82.0
 40
82.0
 40
83.0
 40
83.0
 40
83.0
 40
84.0
 40
84.0
 40
84.0
 40
85.0
 40
85.0
 40
85.0
 40
86.0
 40
86.0
 40
86.0
 40
87.0
 40
87.0
 40
87.0
 40
88.0
 40
88.0
 40
88.0
 40
89.0
 40
89.0
 40
89.0
 40
90.0
 40
90.0
 40
90.0
 40
91.0
 40
91.0
 40
91.0
 40
92.0
 40
92.0
 40
92.0
 40
93.0
 40
93.0
 40
93.0
 40
94.0
 40
94.0
 40
94.0
 40
95.0
 40
95.0
 40
95.0
 40
96.0
 40
96.0
 40
96.0
 40
97.0
 40
97.0
 40
97.0
 40
98.0
 40
98.0
 40
98.0
 40
99.0
 40
99.0
 40
99.0
 40
100.0
 40
100.0
 40
100.0
 40
101.0
 40
101.0
 40
101.0
 40
102.0
 40
102.0
 40
102.0
 40
102.0
 10
86.99587972499465
 20
-116.731908859706
 30
0.0
 10
86.99587972499465
 20
-116.731908859706
 30
0.0
 10
86.5356458478473
 20
-116.731908859706
 30
0.0
 10
86.5356458478473
 20
-116.731908859706
 30
0.0
 10
86.5356458478473
 20
-116.731908859706
 30
0.0
 10
86.5356458478473
 20
-114.6470980268938
 30
0.0
 10
86.5356458478473
 20
-114.6470980268938
 30
0.0
 10
86.5356458478473
 20
-114.6470980268938
 30
0.0
 10
86.7540527560894
 20
-114.6470980268938
 30
0.0
 10
86.7540527560894
 20
-114.6470980268938
 30
0.0
 10
87.47890304600503
 20
-114.6470980268938
 30
0.0
 10
88.06663080878863
 20
-115.2360252489688
 30
0.0
 10
88.06663080878863
 20
-115.9624299710095
 30
0.0
 10
88.06663080878863
 20
-115.9624299710095
 30
0.0
 10
88.06663080878863
 20
-144.2523502417147
 30
0.0
 10
88.06663080878863
 20
-144.2523502417147
 30
0.0
 10
88.06663080878863
 20
-144.4707549638823
 30
0.0
 10
87.89024192439979
 20
-144.6471438527271
 30
0.0
 10
87.67321304104777
 20
-144.6471438527271
 30
0.0
 10
87.67321304104777
 20
-144.6471438527271
 30
0.0
 10
87.28699193978998
 20
-144.6471438527271
 30
0.0
 10
87.28699193978998
 20
-144.6471438527271
 30
0.0
 10
87.28699193978998
 20
-144.6471438527271
 30
0.0
 10
86.5356458478473
 20
-142.8267752420714
 30
0.0
 10
86.5356458478473
 20
-142.8267752420714
 30
0.0
 10
86.5356458478473
 20
-142.8267752420714
 30
0.0
 10
86.5356458478473
 20
-140.6260416315102
 30
0.0
 10
86.5356458478473
 20
-140.6260416315102
 30
0.0
 10
86.5356458478473
 20
-140.6260416315102
 30
0.0
 10
86.99587972499465
 20
-140.6260416315102
 30
0.0
 10
86.99587972499465
 20
-140.6260416315102
 30
0.0
 10
86.99587972499465
 20
-140.6260416315102
 30
0.0
 10
86.73302500947841
 20
-140.3655857982416
 30
0.0
 10
86.73302500947841
 20
-140.3655857982416
 30
0.0
 10
86.73302500947841
 20
-140.3655857982416
 30
0.0
 10
86.99587972499465
 20
-140.1051299649737
 30
0.0
 10
86.99587972499465
 20
-140.1051299649737
 30
0.0
 10
86.99587972499465
 20
-140.1051299649737
 30
0.0
 10
86.73302500947841
 20
-139.8447094094834
 30
0.0
 10
86.73302500947841
 20
-139.8447094094834
 30
0.0
 10
86.73302500947841
 20
-139.8447094094834
 30
0.0
 10
86.99587972499465
 20
-139.5835480206599
 30
0.0
 10
86.99587972499465
 20
-139.5835480206599
 30
0.0
 10
86.99587972499465
 20
-139.5835480206599
 30
0.0
 10
86.73302500947841
 20
-139.3230921873914
 30
0.0
 10
86.73302500947841
 20
-139.3230921873914
 30
0.0
 10
86.73302500947841
 20
-139.3230921873914
 30
0.0
 10
86.99587972499465
 20
-139.0626716319011
 30
0.0
 10
86.99587972499465
 20
-139.0626716319011
 30
0.0
 10
86.99587972499465
 20
-139.0626716319011
 30
0.0
 10
86.73302500947841
 20
-138.8022157986325
 30
0.0
 10
86.73302500947841
 20
-138.8022157986325
 30
0.0
 10
86.73302500947841
 20
-138.8022157986325
 30
0.0
 10
86.99587972499465
 20
-138.5424655209201
 30
0.0
 10
86.99587972499465
 20
-138.5424655209201
 30
0.0
 10
86.99587972499465
 20
-138.5424655209201
 30
0.0
 10
86.73302500947841
 20
-138.2813041320961
 30
0.0
 10
86.73302500947841
 20
-138.2813041320961
 30
0.0
 10
86.73302500947841
 20
-138.2813041320961
 30
0.0
 10
86.99587972499465
 20
-138.0208482988282
 30
0.0
 10
86.99587972499465
 20
-138.0208482988282
 30
0.0
 10
86.99587972499465
 20
-138.0208482988282
 30
0.0
 10
86.73302500947841
 20
-137.7610980211152
 30
0.0
 10
86.73302500947841
 20
-137.7610980211152
 30
0.0
 10
86.73302500947841
 20
-137.7610980211152
 30
0.0
 10
86.99587972499465
 20
-137.5013477434022
 30
0.0
 10
86.99587972499465
 20
-137.5013477434022
 30
0.0
 10
86.99587972499465
 20
-137.5013477434022
 30
0.0
 10
86.73302500947841
 20
-137.2408919101343
 30
0.0
 10
86.73302500947841
 20
-137.2408919101343
 30
0.0
 10
86.73302500947841
 20
-137.2408919101343
 30
0.0
 10
86.99587972499465
 20
-136.9804360768657
 30
0.0
 10
86.99587972499465
 20
-136.9804360768657
 30
0.0
 10
86.99587972499465
 20
-136.9804360768657
 30
0.0
 10
86.73302500947841
 20
-136.7199802435979
 30
0.0
 10
86.73302500947841
 20
-136.7199802435979
 30
0.0
 10
86.73302500947841
 20
-136.7199802435979
 30
0.0
 10
86.99587972499465
 20
-136.4609355214404
 30
0.0
 10
86.99587972499465
 20
-136.4609355214404
 30
0.0
 10
86.99587972499465
 20
-136.4609355214404
 30
0.0
 10
86.73302500947841
 20
-136.2011499659498
 30
0.0
 10
86.73302500947841
 20
-136.2011499659498
 30
0.0
 10
86.73302500947841
 20
-136.2011499659498
 30
0.0
 10
86.99587972499465
 20
-135.9413996882368
 30
0.0
 10
86.99587972499465
 20
-135.9413996882368
 30
0.0
 10
86.99587972499465
 20
-135.9413996882368
 30
0.0
 10
86.73302500947841
 20
-135.6816494105238
 30
0.0
 10
86.73302500947841
 20
-135.6816494105238
 30
0.0
 10
86.73302500947841
 20
-135.6816494105238
 30
0.0
 10
86.99587972499465
 20
-135.4211935772559
 30
0.0
 10
86.99587972499465
 20
-135.4211935772559
 30
0.0
 10
86.99587972499465
 20
-135.4211935772559
 30
0.0
 10
86.73302500947841
 20
-135.1614432995429
 30
0.0
 10
86.73302500947841
 20
-135.1614432995429
 30
0.0
 10
86.73302500947841
 20
-135.1614432995429
 30
0.0
 10
86.99587972499465
 20
-134.900987466275
 30
0.0
 10
86.99587972499465
 20
-134.900987466275
 30
0.0
 10
86.99587972499465
 20
-134.900987466275
 30
0.0
 10
86.73302500947841
 20
-134.641237188562
 30
0.0
 10
86.73302500947841
 20
-134.641237188562
 30
0.0
 10
86.73302500947841
 20
-134.641237188562
 30
0.0
 10
86.99587972499465
 20
-134.382157188627
 30
0.0
 10
86.99587972499465
 20
-134.382157188627
 30
0.0
 10
86.99587972499465
 20
-134.382157188627
 30
0.0
 10
86.73302500947841
 20
-134.1230771886914
 30
0.0
 10
86.73302500947841
 20
-134.1230771886914
 30
0.0
 10
86.73302500947841
 20
-134.1230771886914
 30
0.0
 10
86.99587972499465
 20
-133.8647027443119
 30
0.0
 10
86.99587972499465
 20
-133.8647027443119
 30
0.0
 10
86.99587972499465
 20
-133.8647027443119
 30
0.0
 10
86.73302500947841
 20
-133.6049524665989
 30
0.0
 10
86.73302500947841
 20
-133.6049524665989
 30
0.0
 10
86.73302500947841
 20
-133.6049524665989
 30
0.0
 10
86.99587972499465
 20
-133.3451669111083
 30
0.0
 10
86.99587972499465
 20
-133.3451669111083
 30
0.0
 10
86.99587972499465
 20
-133.3451669111083
 30
0.0
 10
86.73302500947841
 20
-133.0854166333953
 30
0.0
 10
86.73302500947841
 20
-133.0854166333953
 30
0.0
 10
86.73302500947841
 20
-133.0854166333953
 30
0.0
 10
86.99587972499465
 20
-132.8249608001268
 30
0.0
 10
86.99587972499465
 20
-132.8249608001268
 30
0.0
 10
86.99587972499465
 20
-132.8249608001268
 30
0.0
 10
86.73302500947841
 20
-132.5652105224144
 30
0.0
 10
86.73302500947841
 20
-132.5652105224144
 30
0.0
 10
86.73302500947841
 20
-132.5652105224144
 30
0.0
 10
86.99587972499465
 20
-132.3047546891459
 30
0.0
 10
86.99587972499465
 20
-132.3047546891459
 30
0.0
 10
86.99587972499465
 20
-132.3047546891459
 30
0.0
 10
86.73302500947841
 20
-132.0450044114335
 30
0.0
 10
86.73302500947841
 20
-132.0450044114335
 30
0.0
 10
86.73302500947841
 20
-132.0450044114335
 30
0.0
 10
86.99587972499465
 20
-131.7852541337205
 30
0.0
 10
86.99587972499465
 20
-131.7852541337205
 30
0.0
 10
86.99587972499465
 20
-131.7852541337205
 30
0.0
 10
86.73302500947841
 20
-131.524798300452
 30
0.0
 10
86.73302500947841
 20
-131.524798300452
 30
0.0
 10
86.73302500947841
 20
-131.524798300452
 30
0.0
 10
86.99587972499465
 20
-131.265718300517
 30
0.0
 10
86.99587972499465
 20
-131.265718300517
 30
0.0
 10
86.99587972499465
 20
-131.265718300517
 30
0.0
 10
86.73302500947841
 20
-131.005968022804
 30
0.0
 10
86.73302500947841
 20
-131.005968022804
 30
0.0
 10
86.73302500947841
 20
-131.005968022804
 30
0.0
 10
86.99587972499465
 20
-130.7455121895361
 30
0.0
 10
86.99587972499465
 20
-130.7455121895361
 30
0.0
 10
86.99587972499465
 20
-130.7455121895361
 30
0.0
 10
86.73302500947841
 20
-130.4857619118231
 30
0.0
 10
86.73302500947841
 20
-130.4857619118231
 30
0.0
 10
86.73302500947841
 20
-130.4857619118231
 30
0.0
 10
86.99587972499465
 20
-130.2253060785545
 30
0.0
 10
86.99587972499465
 20
-130.2253060785545
 30
0.0
 10
86.99587972499465
 20
-130.2253060785545
 30
0.0
 10
86.73302500947841
 20
-129.9655558008421
 30
0.0
 10
86.73302500947841
 20
-129.9655558008421
 30
0.0
 10
86.73302500947841
 20
-129.9655558008421
 30
0.0
 10
86.99587972499465
 20
-129.7064758009065
 30
0.0
 10
86.99587972499465
 20
-129.7064758009065
 30
0.0
 10
86.99587972499465
 20
-129.7064758009065
 30
0.0
 10
86.73302500947841
 20
-129.4460199676386
 30
0.0
 10
86.73302500947841
 20
-129.4460199676386
 30
0.0
 10
86.73302500947841
 20
-129.4460199676386
 30
0.0
 10
86.99587972499465
 20
-129.1862696899256
 30
0.0
 10
86.99587972499465
 20
-129.1862696899256
 30
0.0
 10
86.99587972499465
 20
-129.1862696899256
 30
0.0
 10
86.73302500947841
 20
-128.9271896899906
 30
0.0
 10
86.73302500947841
 20
-128.9271896899906
 30
0.0
 10
86.73302500947841
 20
-128.9271896899906
 30
0.0
 10
86.99587972499465
 20
-128.6670866344998
 30
0.0
 10
86.99587972499465
 20
-128.6670866344998
 30
0.0
 10
86.99587972499465
 20
-128.6670866344998
 30
0.0
 10
86.73302500947841
 20
-128.4071599678983
 30
0.0
 10
86.73302500947841
 20
-128.4071599678983
 30
0.0
 10
86.73302500947841
 20
-128.4071599678983
 30
0.0
 10
86.99587972499465
 20
-128.1472333012967
 30
0.0
 10
86.99587972499465
 20
-128.1472333012967
 30
0.0
 10
86.99587972499465
 20
-128.1472333012967
 30
0.0
 10
86.73302500947841
 20
-127.886953856917
 30
0.0
 10
86.73302500947841
 20
-127.886953856917
 30
0.0
 10
86.73302500947841
 20
-127.886953856917
 30
0.0
 10
86.99587972499465
 20
-127.6273446903154
 30
0.0
 10
86.99587972499465
 20
-127.6273446903154
 30
0.0
 10
86.99587972499465
 20
-127.6273446903154
 30
0.0
 10
86.73302500947841
 20
-127.3675944126027
 30
0.0
 10
86.73302500947841
 20
-127.3675944126027
 30
0.0
 10
86.73302500947841
 20
-127.3675944126027
 30
0.0
 10
86.99587972499465
 20
-127.1080205237785
 30
0.0
 10
86.99587972499465
 20
-127.1080205237785
 30
0.0
 10
86.99587972499465
 20
-127.1080205237785
 30
0.0
 10
86.73302500947841
 20
-126.8484113571769
 30
0.0
 10
86.73302500947841
 20
-126.8484113571769
 30
0.0
 10
86.73302500947841
 20
-126.8484113571769
 30
0.0
 10
86.99587972499465
 20
-126.5891549683527
 30
0.0
 10
86.99587972499465
 20
-126.5891549683527
 30
0.0
 10
86.99587972499465
 20
-126.5891549683527
 30
0.0
 10
86.73302500947841
 20
-126.3295810795286
 30
0.0
 10
86.73302500947841
 20
-126.3295810795286
 30
0.0
 10
86.73302500947841
 20
-126.3295810795286
 30
0.0
 10
86.99587972499465
 20
-126.0703246907047
 30
0.0
 10
86.99587972499465
 20
-126.0703246907047
 30
0.0
 10
86.99587972499465
 20
-126.0703246907047
 30
0.0
 10
86.73302500947841
 20
-125.8105744129917
 30
0.0
 10
86.73302500947841
 20
-125.8105744129917
 30
0.0
 10
86.73302500947841
 20
-125.8105744129917
 30
0.0
 10
86.99587972499465
 20
-125.5510005241679
 30
0.0
 10
86.99587972499465
 20
-125.5510005241679
 30
0.0
 10
86.99587972499465
 20
-125.5510005241679
 30
0.0
 10
86.73302500947841
 20
-125.2913913575659
 30
0.0
 10
86.73302500947841
 20
-125.2913913575659
 30
0.0
 10
86.73302500947841
 20
-125.2913913575659
 30
0.0
 10
86.99587972499465
 20
-125.0318174687421
 30
0.0
 10
86.99587972499465
 20
-125.0318174687421
 30
0.0
 10
86.99587972499465
 20
-125.0318174687421
 30
0.0
 10
86.73302500947841
 20
-124.7715380243627
 30
0.0
 10
86.73302500947841
 20
-124.7715380243627
 30
0.0
 10
86.73302500947841
 20
-124.7715380243627
 30
0.0
 10
86.99587972499465
 20
-124.5119641355386
 30
0.0
 10
86.99587972499465
 20
-124.5119641355386
 30
0.0
 10
86.99587972499465
 20
-124.5119641355386
 30
0.0
 10
86.73302500947841
 20
-124.2518610800482
 30
0.0
 10
86.73302500947841
 20
-124.2518610800482
 30
0.0
 10
86.73302500947841
 20
-124.2518610800482
 30
0.0
 10
86.99587972499465
 20
-123.9922519134465
 30
0.0
 10
86.99587972499465
 20
-123.9922519134465
 30
0.0
 10
86.99587972499465
 20
-123.9922519134465
 30
0.0
 10
86.73302500947841
 20
-123.7330308024002
 30
0.0
 10
86.73302500947841
 20
-123.7330308024002
 30
0.0
 10
86.73302500947841
 20
-123.7330308024002
 30
0.0
 10
86.99587972499465
 20
-123.4734216357982
 30
0.0
 10
86.99587972499465
 20
-123.4734216357982
 30
0.0
 10
86.99587972499465
 20
-123.4734216357982
 30
0.0
 10
86.73302500947841
 20
-123.2142005247521
 30
0.0
 10
86.73302500947841
 20
-123.2142005247521
 30
0.0
 10
86.73302500947841
 20
-123.2142005247521
 30
0.0
 10
86.99587972499465
 20
-122.9545913581502
 30
0.0
 10
86.99587972499465
 20
-122.9545913581502
 30
0.0
 10
86.99587972499465
 20
-122.9545913581502
 30
0.0
 10
86.73302500947841
 20
-122.6951938582152
 30
0.0
 10
86.73302500947841
 20
-122.6951938582152
 30
0.0
 10
86.73302500947841
 20
-122.6951938582152
 30
0.0
 10
86.99587972499465
 20
-122.4362902471688
 30
0.0
 10
86.99587972499465
 20
-122.4362902471688
 30
0.0
 10
86.99587972499465
 20
-122.4362902471688
 30
0.0
 10
86.73302500947841
 20
-122.1770338583446
 30
0.0
 10
86.73302500947841
 20
-122.1770338583446
 30
0.0
 10
86.73302500947841
 20
-122.1770338583446
 30
0.0
 10
86.99587972499465
 20
-121.9178127472982
 30
0.0
 10
86.99587972499465
 20
-121.9178127472982
 30
0.0
 10
86.99587972499465
 20
-121.9178127472982
 30
0.0
 10
86.73302500947841
 20
-121.6589091362521
 30
0.0
 10
86.73302500947841
 20
-121.6589091362521
 30
0.0
 10
86.73302500947841
 20
-121.6589091362521
 30
0.0
 10
86.99587972499465
 20
-121.3991235807612
 30
0.0
 10
86.99587972499465
 20
-121.3991235807612
 30
0.0
 10
86.99587972499465
 20
-121.3991235807612
 30
0.0
 10
86.73302500947841
 20
-121.1395496919374
 30
0.0
 10
86.73302500947841
 20
-121.1395496919374
 30
0.0
 10
86.73302500947841
 20
-121.1395496919374
 30
0.0
 10
86.99587972499465
 20
-120.880646080891
 30
0.0
 10
86.99587972499465
 20
-120.880646080891
 30
0.0
 10
86.99587972499465
 20
-120.880646080891
 30
0.0
 10
86.73302500947841
 20
-120.6210721920668
 30
0.0
 10
86.73302500947841
 20
-120.6210721920668
 30
0.0
 10
86.73302500947841
 20
-120.6210721920668
 30
0.0
 10
86.99587972499465
 20
-120.3614630254652
 30
0.0
 10
86.99587972499465
 20
-120.3614630254652
 30
0.0
 10
86.99587972499465
 20
-120.3614630254652
 30
0.0
 10
86.73302500947841
 20
-120.1018891366411
 30
0.0
 10
86.73302500947841
 20
-120.1018891366411
 30
0.0
 10
86.73302500947841
 20
-120.1018891366411
 30
0.0
 10
86.99587972499465
 20
-119.8414333033729
 30
0.0
 10
86.99587972499465
 20
-119.8414333033729
 30
0.0
 10
86.99587972499465
 20
-119.8414333033729
 30
0.0
 10
86.73302500947841
 20
-119.581859414549
 30
0.0
 10
86.73302500947841
 20
-119.581859414549
 30
0.0
 10
86.73302500947841
 20
-119.581859414549
 30
0.0
 10
86.99587972499465
 20
-119.3222502479474
 30
0.0
 10
86.99587972499465
 20
-119.3222502479474
 30
0.0
 10
86.99587972499465
 20
-119.3222502479474
 30
0.0
 10
86.73302500947841
 20
-119.0633466369009
 30
0.0
 10
86.73302500947841
 20
-119.0633466369009
 30
0.0
 10
86.73302500947841
 20
-119.0633466369009
 30
0.0
 10
86.99587972499465
 20
-118.8037727480768
 30
0.0
 10
86.99587972499465
 20
-118.8037727480768
 30
0.0
 10
86.99587972499465
 20
-118.8037727480768
 30
0.0
 10
86.73302500947841
 20
-118.5445163592526
 30
0.0
 10
86.73302500947841
 20
-118.5445163592526
 30
0.0
 10
86.73302500947841
 20
-118.5445163592526
 30
0.0
 10
86.99587972499465
 20
-118.2851188593177
 30
0.0
 10
86.99587972499465
 20
-118.2851188593177
 30
0.0
 10
86.99587972499465
 20
-118.2851188593177
 30
0.0
 10
86.73302500947841
 20
-118.0262152482712
 30
0.0
 10
86.73302500947841
 20
-118.0262152482712
 30
0.0
 10
86.73302500947841
 20
-118.0262152482712
 30
0.0
 10
86.99587972499465
 20
-117.7673116372248
 30
0.0
 10
86.99587972499465
 20
-117.7673116372248
 30
0.0
 10
86.99587972499465
 20
-117.7673116372248
 30
0.0
 10
86.73302500947841
 20
-117.5084080261783
 30
0.0
 10
86.73302500947841
 20
-117.5084080261783
 30
0.0
 10
86.73302500947841
 20
-117.5084080261783
 30
0.0
 10
86.99587972499465
 20
-117.2495044151322
 30
0.0
 10
86.99587972499465
 20
-117.2495044151322
 30
0.0
 10
86.99587972499465
 20
-117.2495044151322
 30
0.0
 10
86.73302500947841
 20
-116.9909535818635
 30
0.0
 10
86.73302500947841
 20
-116.9909535818635
 30
0.0
 10
86.73302500947841
 20
-116.9909535818635
 30
0.0
 10
86.99587972499465
 20
-116.731908859706
 30
0.0
 10
86.99587972499465
 20
-116.731908859706
 30
0.0
  0
HATCH
  5
42
330
1F
100
AcDbEntity
  8
_U+30EC_U+30A4_U+30E4_U+30FC 1
 62
     9
420
 13224394
100
AcDbHatch
 10
0.0
 20
0.0
 30
0.0
210
0.0
220
0.0
230
1.0
  2
SOLID
 70
     1
 71
     0
 91
        1
 92
        1
 93
        1
 72
     4
 94
        3
 73
     0
 74
     1
 95
      311
 96
      307
 40
0.0
 40
0.0
 40
0.0
 40
0.0
 40
1.0
 40
1.0
 40
1.0
 40
2.0
 40
2.0
 40
2.0
 40
3.0
 40
3.0
 40
3.0
 40
4.0
 40
4.0
 40
4.0
 40
5.0
 40
5.0
 40
5.0
 40
6.0
 40
6.0
 40
6.0
 40
7.0
 40
7.0
 40
7.0
 40
8.0
 40
8.0
 40
8.0
 40
9.0
 40
9.0
 40
9.0
 40
10.0
 40
10.0
 40
10.0
 40
11.0
 40
11.0
 40
11.0
 40
12.0
 40
12.0
 40
12.0
 40
13.0
 40
13.0
 40
13.0
 40
14.0
 40
14.0
 40
14.0
 40
15.0
 40
15.0
 40
15.0
 40
16.0
 40
16.0
 40
16.0
 40
17.0
 40
17.0
 40
17.0
 40
18.0
 40
18.0
 40
18.0
 40
19.0
 40
19.0
 40
19.0
 40
20.0
 40
20.0
 40
20.0
 40
21.0
 40
21.0
 40
21.0
 40
22.0
 40
22.0
 40
22.0
 40
23.0
 40
23.0
 40
23.0
 40
24.0
 40
24.0
 40
24.0
 40
25.0
 40
25.0
 40
25.0
 40
26.0
 40
26.0
 40
26.0
 40
27.0
 40
27.0
 40
27.0
 40
28.0
 40
28.0
 40
28.0
 40
29.0
 40
29.0
 40
29.0
 40
30.0
 40
30.0
 40
30.0
 40
31.0
 40
31.0
 40
31.0
 40
32.0
 40
32.0
 40
32.0
 40
33.0
 40
33.0
 40
33.0
 40
34.0
 40
34.0
 40
34.0
 40
35.0
 40
35.0
 40
35.0
 40
36.0
 40
36.0
 40
36.0
 40
37.0
 40
37.0
 40
37.0
 40
38.0
 40
38.0
 40
38.0
 40
39.0
 40
39.0
 40
39.0
 40
40.0
 40
40.0
 40
40.0
 40
41.0
 40
41.0
 40
41.0
 40
42.0
 40
42.0
 40
42.0
 40
43.0
 40
43.0
 40
43.0
 40
44.0
 40
44.0
 40
44.0
 40
45.0
 40
45.0
 40
45.0
 40
46.0
 40
46.0
 40
46.0
 40
47.0
 40
47.0
 40
47.0
 40
48.0
 40
48.0
 40
48.0
 40
49.0
 40
49.0
 40
49.0
 40
50.0
 40
50.0
 40
50.0
 40
51.0
 40
51.0
 40
51.0
 40
52.0
 40
52.0
 40
52.0
 40
53.0
 40
53.0
 40
53.0
 40
54.0
 40
54.0
 40
54.0
 40
55.0
 40
55.0
 40
55.0
 40
56.0
 40
56.0
 40
56.0
 40
57.0
 40
57.0
 40
57.0
 40
58.0
 40
58.0
 40
58.0
 40
59.0
 40
59.0
 40
59.0
 40
60.0
 40
60.0
 40
60.0
 40
61.0
 40
61.0
 40
61.0
 40
62.0
 40
62.0
 40
62.0
 40
63.0
 40
63.0
 40
63.0
 40
64.0
 40
64.0
 40
64.0
 40
65.0
 40
65.0
 40
65.0
 40
66.0
 40
66.0
 40
66.0
 40
67.0
 40
67.0
 40
67.0
 40
68.0
 40
68.0
 40
68.0
 40
69.0
 40
69.0
 40
69.0
 40
70.0
 40
70.0
 40
70.0
 40
71.0
 40
71.0
 40
71.0
 40
72.0
 40
72.0
 40
72.0
 40
73.0
 40
73.0
 40
73.0
 40
74.0
 40
74.0
 40
74.0
 40
75.0
 40
75.0
 40
75.0
 40
76.0
 40
76.0
 40
76.0
 40
77.0
 40
77.0
 40
77.0
 40
78.0
 40
78.0
 40
78.0
 40
79.0
 40
79.0
 40
79.0
 40
80.0
 40
80.0
 40
80.0
 40
81.0
 40
81.0
 40
81.0
 40
82.0
 40
82.0
 40
82.0
 40
83.0
 40
83.0
 40
83.0
 40
84.0
 40
84.0
 40
84.0
 40
85.0
 40
85.0
 40
85.0
 40
86.0
 40
86.0
 40
86.0
 40
87.0
 40
87.0
 40
87.0
 40
88.0
 40
88.0
 40
88.0
 40
89.0
 40
89.0
 40
89.0
 40
90.0
 40
90.0
 40
90.0
 40
91.0
 40
91.0
 40
91.0
 40
92.0
 40
92.0
 40
92.0
 40
93.0
 40
93.0
 40
93.0
 40
94.0
 40
94.0
 40
94.0
 40
95.0
 40
95.0
 40
95.0
 40
96.0
 40
96.0
 40
96.0
 40
97.0
 40
97.0
 40
97.0
 40
98.0
 40
98.0
 40
98.0
 40
99.0
 40
99.0
 40
99.0
 40
100.0
 40
100.0
 40
100.0
 40
101.0
 40
101.0
 40
101.0
 40
102.0
 40
102.0
 40
102.0
 40
102.0
 10
86.99587972499465
 20
-116.731908859706
 10
86.99587972499465
 20
-116.731908859706
 10
86.5356458478473
 20
-116.731908859706
 10
86.5356458478473
 20
-116.731908859706
 10
86.5356458478473
 20
-116.731908859706
 10
86.5356458478473
 20
-114.6470980268938
 10
86.5356458478473
 20
-114.6470980268938
 10
86.5356458478473
 20
-114.6470980268938
 10
86.7540527560894
 20
-114.6470980268938
 10
86.7540527560894
 20
-114.6470980268938
 10
87.47890304600503
 20
-114.6470980268938
 10
88.06663080878863
 20
-115.2360252489688
 10
88.06663080878863
 20
-115.9624299710095
 10
88.06663080878863
 20
-115.9624299710095
 10
88.06663080878863
 20
-144.2523502417147
 10
88.06663080878863
 20
-144.2523502417147
 10
88.06663080878863
 20
-144.4707549638823
 10
87.89024192439979
 20
-144.6471438527271
 10
87.67321304104777
 20
-144.6471438527271
 10
87.67321304104777
 20
-144.6471438527271
 10
87.28699193978998
 20
-144.6471438527271
 10
87.28699193978998
 20
-144.6471438527271
 10
87.28699193978998
 20
-144.6471438527271
 10
86.5356458478473
 20
-142.8267752420714
 10
86.5356458478473
 20
-142.8267752420714
 10
86.5356458478473
 20
-142.8267752420714
 10
86.5356458478473
 20
-140.6260416315102
 10
86.5356458478473
 20
-140.6260416315102
 10
86.5356458478473
 20
-140.6260416315102
 10
86.99587972499465
 20
-140.6260416315102
 10
86.99587972499465
 20
-140.6260416315102
 10
86.99587972499465
 20
-140.6260416315102
 10
86.73302500947841
 20
-140.3655857982416
 10
86.73302500947841
 20
-140.3655857982416
 10
86.73302500947841
 20
-140.3655857982416
 10
86.99587972499465
 20
-140.1051299649737
 10
86.99587972499465
 20
-140.1051299649737
 10
86.99587972499465
 20
-140.1051299649737
 10
86.73302500947841
 20
-139.8447094094834
 10
86.73302500947841
 20
-139.8447094094834
 10
86.73302500947841
 20
-139.8447094094834
 10
86.99587972499465
 20
-139.5835480206599
 10
86.99587972499465
 20
-139.5835480206599
 10
86.99587972499465
 20
-139.5835480206599
 10
86.73302500947841
 20
-139.3230921873914
 10
86.73302500947841
 20
-139.3230921873914
 10
86.73302500947841
 20
-139.3230921873914
 10
86.99587972499465
 20
-139.0626716319011
 10
86.99587972499465
 20
-139.0626716319011
 10
86.99587972499465
 20
-139.0626716319011
 10
86.73302500947841
 20
-138.8022157986325
 10
86.73302500947841
 20
-138.8022157986325
 10
86.73302500947841
 20
-138.8022157986325
 10
86.99587972499465
 20
-138.5424655209201
 10
86.99587972499465
 20
-138.5424655209201
 10
86.99587972499465
 20
-138.5424655209201
 10
86.73302500947841
 20
-138.2813041320961
 10
86.73302500947841
 20
-138.2813041320961
 10
86.73302500947841
 20
-138.2813041320961
 10
86.99587972499465
 20
-138.0208482988282
 10
86.99587972499465
 20
-138.0208482988282
 10
86.99587972499465
 20
-138.0208482988282
 10
86.73302500947841
 20
-137.7610980211152
 10
86.73302500947841
 20
-137.7610980211152
 10
86.73302500947841
 20
-137.7610980211152
 10
86.99587972499465
 20
-137.5013477434022
 10
86.99587972499465
 20
-137.5013477434022
 10
86.99587972499465
 20
-137.5013477434022
 10
86.73302500947841
 20
-137.2408919101343
 10
86.73302500947841
 20
-137.2408919101343
 10
86.73302500947841
 20
-137.2408919101343
 10
86.99587972499465
 20
-136.9804360768657
 10
86.99587972499465
 20
-136.9804360768657
 10
86.99587972499465
 20
-136.9804360768657
 10
86.73302500947841
 20
-136.7199802435979
 10
86.73302500947841
 20
-136.7199802435979
 10
86.73302500947841
 20
-136.7199802435979
 10
86.99587972499465
 20
-136.4609355214404
 10
86.99587972499465
 20
-136.4609355214404
 10
86.99587972499465
 20
-136.4609355214404
 10
86.73302500947841
 20
-136.2011499659498
 10
86.73302500947841
 20
-136.2011499659498
 10
86.73302500947841
 20
-136.2011499659498
 10
86.99587972499465
 20
-135.9413996882368
 10
86.99587972499465
 20
-135.9413996882368
 10
86.99587972499465
 20
-135.9413996882368
 10
86.73302500947841
 20
-135.6816494105238
 10
86.73302500947841
 20
-135.6816494105238
 10
86.73302500947841
 20
-135.6816494105238
 10
86.99587972499465
 20
-135.4211935772559
 10
86.99587972499465
 20
-135.4211935772559
 10
86.99587972499465
 20
-135.4211935772559
 10
86.73302500947841
 20
-135.1614432995429
 10
86.73302500947841
 20
-135.1614432995429
 10
86.73302500947841
 20
-135.1614432995429
 10
86.99587972499465
 20
-134.900987466275
 10
86.99587972499465
 20
-134.900987466275
 10
86.99587972499465
 20
-134.900987466275
 10
86.73302500947841
 20
-134.641237188562
 10
86.73302500947841
 20
-134.641237188562
 10
86.73302500947841
 20
-134.641237188562
 10
86.99587972499465
 20
-134.382157188627
 10
86.99587972499465
 20
-134.382157188627
 10
86.99587972499465
 20
-134.382157188627
 10
86.73302500947841
 20
-134.1230771886914
 10
86.73302500947841
 20
-134.1230771886914
 10
86.73302500947841
 20
-134.1230771886914
 10
86.99587972499465
 20
-133.8647027443119
 10
86.99587972499465
 20
-133.8647027443119
 10
86.99587972499465
 20
-133.8647027443119
 10
86.73302500947841
 20
-133.6049524665989
 10
86.73302500947841
 20
-133.6049524665989
 10
86.73302500947841
 20
-133.6049524665989
 10
86.99587972499465
 20
-133.3451669111083
 10
86.99587972499465
 20
-133.3451669111083
 10
86.99587972499465
 20
-133.3451669111083
 10
86.73302500947841
 20
-133.0854166333953
 10
86.73302500947841
 20
-133.0854166333953
 10
86.73302500947841
 20
-133.0854166333953
 10
86.99587972499465
 20
-132.8249608001268
 10
86.99587972499465
 20
-132.8249608001268
 10
86.99587972499465
 20
-132.8249608001268
 10
86.73302500947841
 20
-132.5652105224144
 10
86.73302500947841
 20
-132.5652105224144
 10
86.73302500947841
 20
-132.5652105224144
 10
86.99587972499465
 20
-132.3047546891459
 10
86.99587972499465
 20
-132.3047546891459
 10
86.99587972499465
 20
-132.3047546891459
 10
86.73302500947841
 20
-132.0450044114335
 10
86.73302500947841
 20
-132.0450044114335
 10
86.73302500947841
 20
-132.0450044114335
 10
86.99587972499465
 20
-131.7852541337205
 10
86.99587972499465
 20
-131.7852541337205
 10
86.99587972499465
 20
-131.7852541337205
 10
86.73302500947841
 20
-131.524798300452
 10
86.73302500947841
 20
-131.524798300452
 10
86.73302500947841
 20
-131.524798300452
 10
86.99587972499465
 20
-131.265718300517
 10
86.99587972499465
 20
-131.265718300517
 10
86.99587972499465
 20
-131.265718300517
 10
86.73302500947841
 20
-131.005968022804
 10
86.73302500947841
 20
-131.005968022804
 10
86.73302500947841
 20
-131.005968022804
 10
86.99587972499465
 20
-130.7455121895361
 10
86.99587972499465
 20
-130.7455121895361
 10
86.99587972499465
 20
-130.7455121895361
 10
86.73302500947841
 20
-130.4857619118231
 10
86.73302500947841
 20
-130.4857619118231
 10
86.73302500947841
 20
-130.4857619118231
 10
86.99587972499465
 20
-130.2253060785545
 10
86.99587972499465
 20
-130.2253060785545
 10
86.99587972499465
 20
-130.2253060785545
 10
86.73302500947841
 20
-129.9655558008421
 10
86.73302500947841
 20
-129.9655558008421
 10
86.73302500947841
 20
-129.9655558008421
 10
86.99587972499465
 20
-129.7064758009065
 10
86.99587972499465
 20
-129.7064758009065
 10
86.99587972499465
 20
-129.7064758009065
 10
86.73302500947841
 20
-129.4460199676386
 10
86.73302500947841
 20
-129.4460199676386
 10
86.73302500947841
 20
-129.4460199676386
 10
86.99587972499465
 20
-129.1862696899256
 10
86.99587972499465
 20
-129.1862696899256
 10
86.99587972499465
 20
-129.1862696899256
 10
86.73302500947841
 20
-128.9271896899906
 10
86.73302500947841
 20
-128.9271896899906
 10
86.73302500947841
 20
-128.9271896899906
 10
86.99587972499465
 20
-128.6670866344998
 10
86.99587972499465
 20
-128.6670866344998
 10
86.99587972499465
 20
-128.6670866344998
 10
86.73302500947841
 20
-128.4071599678983
 10
86.73302500947841
 20
-128.4071599678983
 10
86.73302500947841
 20
-128.4071599678983
 10
86.99587972499465
 20
-128.1472333012967
 10
86.99587972499465
 20
-128.1472333012967
 10
86.99587972499465
 20
-128.1472333012967
 10
86.73302500947841
 20
-127.886953856917
 10
86.73302500947841
 20
-127.886953856917
 10
86.73302500947841
 20
-127.886953856917
 10
86.99587972499465
 20
-127.6273446903154
 10
86.99587972499465
 20
-127.6273446903154
 10
86.99587972499465
 20
-127.6273446903154
 10
86.73302500947841
 20
-127.3675944126027
 10
86.73302500947841
 20
-127.3675944126027
 10
86.73302500947841
 20
-127.3675944126027
 10
86.99587972499465
 20
-127.1080205237785
 10
86.99587972499465
 20
-127.1080205237785
 10
86.99587972499465
 20
-127.1080205237785
 10
86.73302500947841
 20
-126.8484113571769
 10
86.73302500947841
 20
-126.8484113571769
 10
86.73302500947841
 20
-126.8484113571769
 10
86.99587972499465
 20
-126.5891549683527
 10
86.99587972499465
 20
-126.5891549683527
 10
86.99587972499465
 20
-126.5891549683527
 10
86.73302500947841
 20
-126.3295810795286
 10
86.73302500947841
 20
-126.3295810795286
 10
86.73302500947841
 20
-126.3295810795286
 10
86.99587972499465
 20
-126.0703246907047
 10
86.99587972499465
 20
-126.0703246907047
 10
86.99587972499465
 20
-126.0703246907047
 10
86.73302500947841
 20
-125.8105744129917
 10
86.73302500947841
 20
-125.8105744129917
 10
86.73302500947841
 20
-125.8105744129917
 10
86.99587972499465
 20
-125.5510005241679
 10
86.99587972499465
 20
-125.5510005241679
 10
86.99587972499465
 20
-125.5510005241679
 10
86.73302500947841
 20
-125.2913913575659
 10
86.73302500947841
 20
-125.2913913575659
 10
86.73302500947841
 20
-125.2913913575659
 10
86.99587972499465
 20
-125.0318174687421
 10
86.99587972499465
 20
-125.0318174687421
 10
86.99587972499465
 20
-125.0318174687421
 10
86.73302500947841
 20
-124.7715380243627
 10
86.73302500947841
 20
-124.7715380243627
 10
86.73302500947841
 20
-124.7715380243627
 10
86.99587972499465
 20
-124.5119641355386
 10
86.99587972499465
 20
-124.5119641355386
 10
86.99587972499465
 20
-124.5119641355386
 10
86.73302500947841
 20
-124.2518610800482
 10
86.73302500947841
 20
-124.2518610800482
 10
86.73302500947841
 20
-124.2518610800482
 10
86.99587972499465
 20
-123.9922519134465
 10
86.99587972499465
 20
-123.9922519134465
 10
86.99587972499465
 20
-123.9922519134465
 10
86.73302500947841
 20
-123.7330308024002
 10
86.73302500947841
 20
-123.7330308024002
 10
86.73302500947841
 20
-123.7330308024002
 10
86.99587972499465
 20
-123.4734216357982
 10
86.99587972499465
 20
-123.4734216357982
 10
86.99587972499465
 20
-123.4734216357982
 10
86.73302500947841
 20
-123.2142005247521
 10
86.73302500947841
 20
-123.2142005247521
 10
86.73302500947841
 20
-123.2142005247521
 10
86.99587972499465
 20
-122.9545913581502
 10
86.99587972499465
 20
-122.9545913581502
 10
86.99587972499465
 20
-122.9545913581502
 10
86.73302500947841
 20
-122.6951938582152
 10
86.73302500947841
 20
-122.6951938582152
 10
86.73302500947841
 20
-122.6951938582152
 10
86.99587972499465
 20
-122.4362902471688
 10
86.99587972499465
 20
-122.4362902471688
 10
86.99587972499465
 20
-122.4362902471688
 10
86.73302500947841
 20
-122.1770338583446
 10
86.73302500947841
 20
-122.1770338583446
 10
86.73302500947841
 20
-122.1770338583446
 10
86.99587972499465
 20
-121.9178127472982
 10
86.99587972499465
 20
-121.9178127472982
 10
86.99587972499465
 20
-121.9178127472982
 10
86.73302500947841
 20
-121.6589091362521
 10
86.73302500947841
 20
-121.6589091362521
 10
86.73302500947841
 20
-121.6589091362521
 10
86.99587972499465
 20
-121.3991235807612
 10
86.99587972499465
 20
-121.3991235807612
 10
86.99587972499465
 20
-121.3991235807612
 10
86.73302500947841
 20
-121.1395496919374
 10
86.73302500947841
 20
-121.1395496919374
 10
86.73302500947841
 20
-121.1395496919374
 10
86.99587972499465
 20
-120.880646080891
 10
86.99587972499465
 20
-120.880646080891
 10
86.99587972499465
 20
-120.880646080891
 10
86.73302500947841
 20
-120.6210721920668
 10
86.73302500947841
 20
-120.6210721920668
 10
86.73302500947841
 20
-120.6210721920668
 10
86.99587972499465
 20
-120.3614630254652
 10
86.99587972499465
 20
-120.3614630254652
 10
86.99587972499465
 20
-120.3614630254652
 10
86.73302500947841
 20
-120.1018891366411
 10
86.73302500947841
 20
-120.1018891366411
 10
86.73302500947841
 20
-120.1018891366411
 10
86.99587972499465
 20
-119.8414333033729
 10
86.99587972499465
 20
-119.8414333033729
 10
86.99587972499465
 20
-119.8414333033729
 10
86.73302500947841
 20
-119.581859414549
 10
86.73302500947841
 20
-119.581859414549
 10
86.73302500947841
 20
-119.581859414549
 10
86.99587972499465
 20
-119.3222502479474
 10
86.99587972499465
 20
-119.3222502479474
 10
86.99587972499465
 20
-119.3222502479474
 10
86.73302500947841
 20
-119.0633466369009
 10
86.73302500947841
 20
-119.0633466369009
 10
86.73302500947841
 20
-119.0633466369009
 10
86.99587972499465
 20
-118.8037727480768
 10
86.99587972499465
 20
-118.8037727480768
 10
86.99587972499465
 20
-118.8037727480768
 10
86.73302500947841
 20
-118.5445163592526
 10
86.73302500947841
 20
-118.5445163592526
 10
86.73302500947841
 20
-118.5445163592526
 10
86.99587972499465
 20
-118.2851188593177
 10
86.99587972499465
 20
-118.2851188593177
 10
86.99587972499465
 20
-118.2851188593177
 10
86.73302500947841
 20
-118.0262152482712
 10
86.73302500947841
 20
-118.0262152482712
 10
86.73302500947841
 20
-118.0262152482712
 10
86.99587972499465
 20
-117.7673116372248
 10
86.99587972499465
 20
-117.7673116372248
 10
86.99587972499465
 20
-117.7673116372248
 10
86.73302500947841
 20
-117.5084080261783
 10
86.73302500947841
 20
-117.5084080261783
 10
86.73302500947841
 20
-117.5084080261783
 10
86.99587972499465
 20
-117.2495044151322
 10
86.99587972499465
 20
-117.2495044151322
 10
86.99587972499465
 20
-117.2495044151322
 10
86.73302500947841
 20
-116.9909535818635
 10
86.73302500947841
 20
-116.9909535818635
 10
86.73302500947841
 20
-116.9909535818635
 10
86.99587972499465
 20
-116.731908859706
 10
86.99587972499465
 20
-116.731908859706
 97
        0
 97
        0
 75
     2
 76
     1
 98
        0
  0
POLYLINE
  5
43
330
1F
100
AcDbEntity
  8
_U+30EC_U+30A4_U+30E4_U+30FC 1
 62
   179
420
  2234388
370
     9
100
AcDb2dPolyline
 66
     1
 10
0.0
 20
0.0
 30
0.0
  0
VERTEX
  5
44
330
43
100
AcDbEntity
  8
_U+30EC_U+30A4_U+30E4_U+30FC 1
 62
   179
420
  2234388
370
     9
100
AcDbVertex
100
AcDb2dVertex
 10
91.01151378921395
 20
-111.817114694268
 30
0.0
  0
VERTEX
  5
45
330
43
100
AcDbEntity
  8
_U+30EC_U+30A4_U+30E4_U+30FC 1
 62
   179
420
  2234388
370
     9
100
AcDbVertex
100
AcDb2dVertex
 10
87.97222747786373
 20
-114.8515680268427
 30
0.0
  0
SEQEND
  5
46
330
43
100
AcDbEntity
  8
_U+30EC_U+30A4_U+30E4_U+30FC 1
 62
   179
420
  2234388
370
     9
  0
POLYLINE
  5
47
330
1F
100
AcDbEntity
  8
_U+30EC_U+30A4_U+30E4_U+30FC 1
 62
   179
420
  2234388
370
     9
100
AcDb2dPolyline
 66
     1
 10
0.0
 20
0.0
 30
0.0
  0
VERTEX
  5
48
330
47
100
AcDbEntity
  8
_U+30EC_U+30A4_U+30E4_U+30FC 1
 62
   179
420
  2234388
370
     9
100
AcDbVertex
100
AcDb2dVertex
 10
89.01161661801336
 20
-114.2514224714371
 30
0.0
  0
VERTEX
  5
49
330
47
100
AcDbEntity
  8
_U+30EC_U+30A4_U+30E4_U+30FC 1
 62
   179
420
  2234388
370
     9
100
AcDbVertex
100
AcDb2dVertex
 10
87.97222747786373
 20
-114.8515680268427
 30
0.0
  0
SEQEND
  5
4A
330
47
100
AcDbEntity
  8
_U+30EC_U+30A4_U+30E4_U+30FC 1
 62
   179
420
  2234388
370
     9
  0
POLYLINE
  5
4B
330
1F
100
AcDbEntity
  8
_U+30EC_U+30A4_U+30E4_U+30FC 1
 62
   179
420
  2234388
370
     9
100
AcDb2dPolyline
 66
     1
 10
0.0
 20
0.0
 30
0.0
  0
VERTEX
  5
4C
330
4B
100
AcDbEntity
  8
_U+30EC_U+30A4_U+30E4_U+30FC 1
 62
   179
420
  2234388
370
     9
100
AcDbVertex
100
AcDb2dVertex
 10
88.5723730181083
 20
-113.8125316382135
 30
0.0
  0
VERTEX
  5
4D
330
4B
100
AcDbEntity
  8
_U+30EC_U+30A4_U+30E4_U+30FC 1
 62
   179
420
  2234388
370
     9
100
AcDbVertex
100
AcDb2dVertex
 10
87.97222747786373
 20
-114.8515680268427
 30
0.0
  0
SEQEND
  5
4E
330
4B
100
AcDbEntity
  8
_U+30EC_U+30A4_U+30E4_U+30FC 1
 62
   179
420
  2234388
370
     9
  0
POLYLINE
  5
4F
330
1F
100
AcDbEntity
  8
_U+30EC_U+30A4_U+30E4_U+30FC 1
 62
   179
420
  2234388
370
     9
100
AcDb2dPolyline
 66
     1
 10
0.0
 20
0.0
 30
0.0
  0
VERTEX
  5
50
330
4F
100
AcDbEntity
  8
_U+30EC_U+30A4_U+30E4_U+30FC 1
 62
   179
420
  2234388
370
     9
100
AcDbVertex
100
AcDb2dVertex
 10
89.14461383684254
 20
-144.5837849638542
 30
0.0
  0
VERTEX
  5
51
330
4F
100
AcDbEntity
  8
_U+30EC_U+30A4_U+30E4_U+30FC 1
 62
   179
420
  2234388
370
     9
100
AcDbVertex
100
AcDb2dVertex
 10
93.77274066321364
 20
-144.5837849638542
 30
0.0
  0
SEQEND
  5
52
330
4F
100
AcDbEntity
  8
_U+30EC_U+30A4_U+30E4_U+30FC 1
 62
   179
420
  2234388
370
     9
  0
POLYLINE
  5
53
330
1F
100
AcDbEntity
  8
_U+30EC_U+30A4_U+30E4_U+30FC 1
 62
   179
420
  2234388
370
     9
100
AcDb2dPolyline
 66
     1
 10
0.0
 20
0.0
 30
0.0
  0
VERTEX
  5
54
330
53
100
AcDbEntity
  8
_U+30EC_U+30A4_U+30E4_U+30FC 1
 62
   179
420
  2234388
370
     9
100
AcDbVertex
100
AcDb2dVertex
 10
89.14461383684254
 20
-114.6470980268938
 30
0.0
  0
VERTEX
  5
55
330
53
100
AcDbEntity
  8
_U+30EC_U+30A4_U+30E4_U+30FC 1
 62
   179
420
  2234388
370
     9
100
AcDbVertex
100
AcDb2dVertex
 10
93.77274066321364
 20
-114.6470980268938
 30
0.0
  0
SEQEND
  5
56
330
53
100
AcDbEntity
  8
_U+30EC_U+30A4_U+30E4_U+30FC 1
 62
   179
420
  2234388
370
     9
  0
POLYLINE
  5
57
330
1F
100
AcDbEntity
  8
_U+30EC_U+30A4_U+30E4_U+30FC 1
 62
   179
420
  2234388
370
     9
100
AcDb2dPolyline
 66
     1
 10
0.0
 20
0.0
 30
0.0
  0
VERTEX
  5
58
330
57
100
AcDbEntity
  8
_U+30EC_U+30A4_U+30E4_U+30FC 1
 62
   179
420
  2234388
370
     9
100
AcDbVertex
100
AcDb2dVertex
 10
86.5356458478473
 20
-110.5314160834782
 30
0.0
  0
VERTEX
  5
59
330
57
100
AcDbEntity
  8
_U+30EC_U+30A4_U+30E4_U+30FC 1
 62
   179
420
  2234388
370
     9
100
AcDbVertex
100
AcDb2dVertex
 10
88.06663080878863
 20
-110.5314160834782
 30
0.0
  0
SEQEND
  5
5A
330
57
100
AcDbEntity
  8
_U+30EC_U+30A4_U+30E4_U+30FC 1
 62
   179
420
  2234388
370
     9
  0
INSERT
  5
5C
330
1F
100
AcDbEntity
  8
_U+30EC_U+30A4_U+30E4_U+30FC 1
100
AcDbBlockReference
  2
block 2
 10
0.0
 20
0.0
 30
0.0
  0
POLYLINE
  5
6E
330
1F
100
AcDbEntity
  8
_U+30EC_U+30A4_U+30E4_U+30FC 1
 62
   179
420
  2234388
370
     9
100
AcDb2dPolyline
 66
     1
 10
0.0
 20
0.0
 30
0.0
  0
VERTEX
  5
6F
330
6E
100
AcDbEntity
  8
_U+30EC_U+30A4_U+30E4_U+30FC 1
 62
   179
420
  2234388
370
     9
100
AcDbVertex
100
AcDb2dVertex
 10
91.01151378921395
 20
-148.0130319074413
 30
0.0
  0
VERTEX
  5
70
330
6E
100
AcDbEntity
  8
_U+30EC_U+30A4_U+30E4_U+30FC 1
 62
   179
420
  2234388
370
     9
100
AcDbVertex
100
AcDb2dVertex
 10
87.97222747786373
 20
-144.9785785748666
 30
0.0
  0
SEQEND
  5
71
330
6E
100
AcDbEntity
  8
_U+30EC_U+30A4_U+30E4_U+30FC 1
 62
   179
420
  2234388
370
     9
  0
POLYLINE
  5
72
330
1F
100
AcDbEntity
  8
_U+30EC_U+30A4_U+30E4_U+30FC 1
 62
   179
420
  2234388
370
     9
100
AcDb2dPolyline
 66
     1
 10
0.0
 20
0.0
 30
0.0
  0
VERTEX
  5
73
330
72
100
AcDbEntity
  8
_U+30EC_U+30A4_U+30E4_U+30FC 1
 62
   179
420
  2234388
370
     9
100
AcDbVertex
100
AcDb2dVertex
 10
89.01161661801336
 20
-145.578724130272
 30
0.0
  0
VERTEX
  5
74
330
72
100
AcDbEntity
  8
_U+30EC_U+30A4_U+30E4_U+30FC 1
 62
   179
420
  2234388
370
     9
100
AcDbVertex
100
AcDb2dVertex
 10
87.97222747786373
 20
-144.9785785748666
 30
0.0
  0
SEQEND
  5
75
330
72
100
AcDbEntity
  8
_U+30EC_U+30A4_U+30E4_U+30FC 1
 62
   179
420
  2234388
370
     9
  0
POLYLINE
  5
76
330
1F
100
AcDbEntity
  8
_U+30EC_U+30A4_U+30E4_U+30FC 1
 62
   179
420
  2234388
370
     9
100
AcDb2dPolyline
 66
     1
 10
0.0
 20
0.0
 30
0.0
  0
VERTEX
  5
77
330
76
100
AcDbEntity
  8
_U+30EC_U+30A4_U+30E4_U+30FC 1
 62
   179
420
  2234388
370
     9
100
AcDbVertex
100
AcDb2dVertex
 10
88.5723730181083
 20
-146.0176149634956
 30
0.0
  0
VERTEX
  5
78
330
76
100
AcDbEntity
  8
_U+30EC_U+30A4_U+30E4_U+30FC 1
 62
   179
420
  2234388
370
     9
100
AcDbVertex
100
AcDb2dVertex
 10
87.97222747786373
 20
-144.9785785748666
 30
0.0
  0
SEQEND
  5
79
330
76
100
AcDbEntity
  8
_U+30EC_U+30A4_U+30E4_U+30FC 1
 62
   179
420
  2234388
370
     9
  0
INSERT
  5
7B
330
1F
100
AcDbEntity
  8
_U+30EC_U+30A4_U+30E4_U+30FC 1
100
AcDbBlockReference
  2
block 3
 10
0.0
 20
0.0
 30
0.0
  0
INSERT
  5
8F
330
1F
100
AcDbEntity
  8
_U+30EC_U+30A4_U+30E4_U+30FC 1
100
AcDbBlockReference
  2
block 4
 10
0.0
 20
0.0
 30
0.0
  0
POLYLINE
  5
9E
330
1F
100
AcDbEntity
  8
_U+30EC_U+30A4_U+30E4_U+30FC 1
 62
   179
420
  2234388
370
     9
100
AcDb2dPolyline
 66
     1
 10
0.0
 20
0.0
 30
0.0
  0
VERTEX
  5
9F
330
9E
100
AcDbEntity
  8
_U+30EC_U+30A4_U+30E4_U+30FC 1
 62
   179
420
  2234388
370
     9
100
AcDbVertex
100
AcDb2dVertex
 10
86.5356458478473
 20
-109.2930602504545
 30
0.0
  0
VERTEX
  5
A0
330
9E
100
AcDbEntity
  8
_U+30EC_U+30A4_U+30E4_U+30FC 1
 62
   179
420
  2234388
370
     9
100
AcDbVertex
100
AcDb2dVertex
 10
86.5356458478473
 20
-113.7186574715704
 30
0.0
  0
SEQEND
  5
A1
330
9E
100
AcDbEntity
  8
_U+30EC_U+30A4_U+30E4_U+30FC 1
 62
   179
420
  2234388
370
     9
  0
POLYLINE
  5
A2
330
1F
100
AcDbEntity
  8
_U+30EC_U+30A4_U+30E4_U+30FC 1
 62
   179
420
  2234388
370
     9
100
AcDb2dPolyline
 66
     1
 10
0.0
 20
0.0
 30
0.0
  0
VERTEX
  5
A3
330
A2
100
AcDbEntity
  8
_U+30EC_U+30A4_U+30E4_U+30FC 1
 62
   179
420
  2234388
370
     9
100
AcDbVertex
100
AcDb2dVertex
 10
88.06663080878863
 20
-109.2930602504545
 30
0.0
  0
VERTEX
  5
A4
330
A2
100
AcDbEntity
  8
_U+30EC_U+30A4_U+30E4_U+30FC 1
 62
   179
420
  2234388
370
     9
100
AcDbVertex
100
AcDb2dVertex
 10
88.06663080878863
 20
-113.7186574715704
 30
0.0
  0
SEQEND
  5
A5
330
A2
100
AcDbEntity
  8
_U+30EC_U+30A4_U+30E4_U+30FC 1
 62
   179
420
  2234388
370
     9
  0
POLYLINE
  5
A6
330
1F
100
AcDbEntity
  8
_U+30EC_U+30A4_U+30E4_U+30FC 1
 62
   179
420
  2234388
370
     9
100
AcDb2dPolyline
 66
     1
 10
0.0
 20
0.0
 30
0.0
  0
VERTEX
  5
A7
330
A6
100
AcDbEntity
  8
_U+30EC_U+30A4_U+30E4_U+30FC 1
 62
   179
420
  2234388
370
     9
100
AcDbVertex
100
AcDb2dVertex
 10
92.1821362593489
 20
-114.6470980268938
 30
0.0
  0
VERTEX
  5
A8
330
A6
100
AcDbEntity
  8
_U+30EC_U+30A4_U+30E4_U+30FC 1
 62
   179
420
  2234388
370
     9
100
AcDbVertex
100
AcDb2dVertex
 10
92.1821362593489
 20
-144.5844552416316
 30
0.0
  0
SEQEND
  5
A9
330
A6
100
AcDbEntity
  8
_U+30EC_U+30A4_U+30E4_U+30FC 1
 62
   179
420
  2234388
370
     9
  0
INSERT
  5
AB
330
1F
100
AcDbEntity
  8
_U+30EC_U+30A4_U+30E4_U+30FC 1
100
AcDbBlockReference
  2
block 5
 10
0.0
 20
0.0
 30
0.0
  0
SPLINE
  5
B3
330
1F
100
AcDbEntity
  8
_U+30EC_U+30A4_U+30E4_U+30FC 1
370
     0
100
AcDbSpline
210
0.0
220
0.0
230
1.0
 70
    11
 71
     3
 72
    17
 73
    13
 74
     0
 42
0.0000000001
 43
0.0000000001
 12
1.0
 22
0.0
 32
0.0
 13
1.0
 23
0.0
 33
0.0
 40
0.0
 40
0.0
 40
0.0
 40
0.0
 40
1.0
 40
1.0
 40
1.0
 40
2.0
 40
2.0
 40
2.0
 40
3.0
 40
3.0
 40
3.0
 40
4.0
 40
4.0
 40
4.0
 40
4.0
 10
86.68550584402406
 20
-110.5312396945893
 30
0.0
 10
86.68550584402406
 20
-110.6142483056798
 30
0.0
 10
86.6183016790719
 20
-110.6814524723296
 30
0.0
 10
86.5356458478473
 20
-110.6814524723296
 30
0.0
 10
86.45260196107704
 20
-110.6814524723296
 30
0.0
 10
86.38543307390178
 20
-110.6142483056798
 30
0.0
 10
86.38543307390178
 20
-110.5312396945893
 30
0.0
 10
86.38543307390178
 20
-110.4485485834991
 30
0.0
 10
86.45260196107704
 20
-110.3813796946269
 30
0.0
 10
86.5356458478473
 20
-110.3813796946269
 30
0.0
 10
86.6183016790719
 20
-110.3813796946269
 30
0.0
 10
86.68550584402406
 20
-110.4485485834991
 30
0.0
 10
86.68550584402406
 20
-110.5312396945893
 30
0.0
  0
HATCH
  5
B4
330
1F
100
AcDbEntity
  8
_U+30EC_U+30A4_U+30E4_U+30FC 1
 62
   179
420
  2234388
100
AcDbHatch
 10
0.0
 20
0.0
 30
0.0
210
0.0
220
0.0
230
1.0
  2
SOLID
 70
     1
 71
     0
 91
        1
 92
        1
 93
        1
 72
     4
 94
        3
 73
     0
 74
     1
 95
       17
 96
       13
 40
0.0
 40
0.0
 40
0.0
 40
0.0
 40
1.0
 40
1.0
 40
1.0
 40
2.0
 40
2.0
 40
2.0
 40
3.0
 40
3.0
 40
3.0
 40
4.0
 40
4.0
 40
4.0
 40
4.0
 10
86.68550584402406
 20
-110.5312396945893
 10
86.68550584402406
 20
-110.6142483056798
 10
86.6183016790719
 20
-110.6814524723296
 10
86.5356458478473
 20
-110.6814524723296
 10
86.45260196107704
 20
-110.6814524723296
 10
86.38543307390178
 20
-110.6142483056798
 10
86.38543307390178
 20
-110.5312396945893
 10
86.38543307390178
 20
-110.4485485834991
 10
86.45260196107704
 20
-110.3813796946269
 10
86.5356458478473
 20
-110.3813796946269
 10
86.6183016790719
 20
-110.3813796946269
 10
86.68550584402406
 20
-110.4485485834991
 10
86.68550584402406
 20
-110.5312396945893
 97
        0
 97
        0
 75
     2
 76
     1
 98
        0
  0
SPLINE
  5
B5
330
1F
100
AcDbEntity
  8
_U+30EC_U+30A4_U+30E4_U+30FC 1
370
     0
100
AcDbSpline
210
0.0
220
0.0
230
1.0
 70
    11
 71
     3
 72
    17
 73
    13
 74
     0
 42
0.0000000001
 43
0.0000000001
 12
1.0
 22
0.0
 32
0.0
 13
1.0
 23
0.0
 33
0.0
 40
0.0
 40
0.0
 40
0.0
 40
0.0
 40
1.0
 40
1.0
 40
1.0
 40
2.0
 40
2.0
 40
2.0
 40
3.0
 40
3.0
 40
3.0
 40
4.0
 40
4.0
 40
4.0
 40
4.0
 10
88.21649080496537
 20
-110.5312396945893
 30
0.0
 10
88.21649080496537
 20
-110.6142483056798
 30
0.0
 10
88.1493219177901
 20
-110.6814524723296
 30
0.0
 10
88.06663080878863
 20
-110.6814524723296
 30
0.0
 10
87.98358692201836
 20
-110.6814524723296
 30
0.0
 10
87.91641803484309
 20
-110.6142483056798
 30
0.0
 10
87.91641803484309
 20
-110.5312396945893
 30
0.0
 10
87.91641803484309
 20
-110.4485485834991
 30
0.0
 10
87.98358692201836
 20
-110.3813796946269
 30
0.0
 10
88.06663080878863
 20
-110.3813796946269
 30
0.0
 10
88.1493219177901
 20
-110.3813796946269
 30
0.0
 10
88.21649080496537
 20
-110.4485485834991
 30
0.0
 10
88.21649080496537
 20
-110.5312396945893
 30
0.0
  0
HATCH
  5
B6
330
1F
100
AcDbEntity
  8
_U+30EC_U+30A4_U+30E4_U+30FC 1
 62
   179
420
  2234388
100
AcDbHatch
 10
0.0
 20
0.0
 30
0.0
210
0.0
220
0.0
230
1.0
  2
SOLID
 70
     1
 71
     0
 91
        1
 92
        1
 93
        1
 72
     4
 94
        3
 73
     0
 74
     1
 95
       17
 96
       13
 40
0.0
 40
0.0
 40
0.0
 40
0.0
 40
1.0
 40
1.0
 40
1.0
 40
2.0
 40
2.0
 40
2.0
 40
3.0
 40
3.0
 40
3.0
 40
4.0
 40
4.0
 40
4.0
 40
4.0
 10
88.21649080496537
 20
-110.5312396945893
 10
88.21649080496537
 20
-110.6142483056798
 10
88.1493219177901
 20
-110.6814524723296
 10
88.06663080878863
 20
-110.6814524723296
 10
87.98358692201836
 20
-110.6814524723296
 10
87.91641803484309
 20
-110.6142483056798
 10
87.91641803484309
 20
-110.5312396945893
 10
87.91641803484309
 20
-110.4485485834991
 10
87.98358692201836
 20
-110.3813796946269
 10
88.06663080878863
 20
-110.3813796946269
 10
88.1493219177901
 20
-110.3813796946269
 10
88.21649080496537
 20
-110.4485485834991
 10
88.21649080496537
 20
-110.5312396945893
 97
        0
 97
        0
 75
     2
 76
     1
 98
        0
  0
SPLINE
  5
B7
330
1F
100
AcDbEntity
  8
_U+30EC_U+30A4_U+30E4_U+30FC 1
370
     0
100
AcDbSpline
210
0.0
220
0.0
230
1.0
 70
    11
 71
     3
 72
    17
 73
    13
 74
     0
 42
0.0000000001
 43
0.0000000001
 12
1.0
 22
0.0
 32
0.0
 13
1.0
 23
0.0
 33
0.0
 40
0.0
 40
0.0
 40
0.0
 40
0.0
 40
1.0
 40
1.0
 40
1.0
 40
2.0
 40
2.0
 40
2.0
 40
3.0
 40
3.0
 40
3.0
 40
4.0
 40
4.0
 40
4.0
 40
4.0
 10
92.33234903329442
 20
-114.646921638005
 30
0.0
 10
92.33234903329442
 20
-114.7299655268729
 30
0.0
 10
92.26518014611915
 20
-114.7971344157452
 30
0.0
 10
92.1821362593489
 20
-114.7971344157452
 30
0.0
 10
92.0994451503474
 20
-114.7971344157452
 30
0.0
 10
92.03227626317214
 20
-114.7299655268729
 30
0.0
 10
92.03227626317214
 20
-114.646921638005
 30
0.0
 10
92.03227626317214
 20
-114.5642305269144
 30
0.0
 10
92.0994451503474
 20
-114.4970616380425
 30
0.0
 10
92.1821362593489
 20
-114.4970616380425
 30
0.0
 10
92.26518014611915
 20
-114.4970616380425
 30
0.0
 10
92.33234903329442
 20
-114.5642305269144
 30
0.0
 10
92.33234903329442
 20
-114.646921638005
 30
0.0
  0
HATCH
  5
B8
330
1F
100
AcDbEntity
  8
_U+30EC_U+30A4_U+30E4_U+30FC 1
 62
   179
420
  2234388
100
AcDbHatch
 10
0.0
 20
0.0
 30
0.0
210
0.0
220
0.0
230
1.0
  2
SOLID
 70
     1
 71
     0
 91
        1
 92
        1
 93
        1
 72
     4
 94
        3
 73
     0
 74
     1
 95
       17
 96
       13
 40
0.0
 40
0.0
 40
0.0
 40
0.0
 40
1.0
 40
1.0
 40
1.0
 40
2.0
 40
2.0
 40
2.0
 40
3.0
 40
3.0
 40
3.0
 40
4.0
 40
4.0
 40
4.0
 40
4.0
 10
92.33234903329442
 20
-114.646921638005
 10
92.33234903329442
 20
-114.7299655268729
 10
92.26518014611915
 20
-114.7971344157452
 10
92.1821362593489
 20
-114.7971344157452
 10
92.0994451503474
 20
-114.7971344157452
 10
92.03227626317214
 20
-114.7299655268729
 10
92.03227626317214
 20
-114.646921638005
 10
92.03227626317214
 20
-114.5642305269144
 10
92.0994451503474
 20
-114.4970616380425
 10
92.1821362593489
 20
-114.4970616380425
 10
92.26518014611915
 20
-114.4970616380425
 10
92.33234903329442
 20
-114.5642305269144
 10
92.33234903329442
 20
-114.646921638005
 97
        0
 97
        0
 75
     2
 76
     1
 98
        0
  0
SPLINE
  5
B9
330
1F
100
AcDbEntity
  8
_U+30EC_U+30A4_U+30E4_U+30FC 1
370
     0
100
AcDbSpline
210
0.0
220
0.0
230
1.0
 70
    11
 71
     3
 72
    17
 73
    13
 74
     0
 42
0.0000000001
 43
0.0000000001
 12
1.0
 22
0.0
 32
0.0
 13
1.0
 23
0.0
 33
0.0
 40
0.0
 40
0.0
 40
0.0
 40
0.0
 40
1.0
 40
1.0
 40
1.0
 40
2.0
 40
2.0
 40
2.0
 40
3.0
 40
3.0
 40
3.0
 40
4.0
 40
4.0
 40
4.0
 40
4.0
 10
92.33234903329442
 20
-144.5837849638542
 30
0.0
 10
92.33234903329442
 20
-144.6671463527218
 30
0.0
 10
92.26518014611915
 20
-144.7339624638166
 30
0.0
 10
92.1821362593489
 20
-144.7339624638166
 30
0.0
 10
92.0994451503474
 20
-144.7339624638166
 30
0.0
 10
92.03227626317214
 20
-144.6671463527218
 30
0.0
 10
92.03227626317214
 20
-144.5837849638542
 30
0.0
 10
92.03227626317214
 20
-144.5010938527634
 30
0.0
 10
92.0994451503474
 20
-144.4342424638917
 30
0.0
 10
92.1821362593489
 20
-144.4342424638917
 30
0.0
 10
92.26518014611915
 20
-144.4342424638917
 30
0.0
 10
92.33234903329442
 20
-144.5010938527634
 30
0.0
 10
92.33234903329442
 20
-144.5837849638542
 30
0.0
  0
HATCH
  5
BA
330
1F
100
AcDbEntity
  8
_U+30EC_U+30A4_U+30E4_U+30FC 1
 62
   179
420
  2234388
100
AcDbHatch
 10
0.0
 20
0.0
 30
0.0
210
0.0
220
0.0
230
1.0
  2
SOLID
 70
     1
 71
     0
 91
        1
 92
        1
 93
        1
 72
     4
 94
        3
 73
     0
 74
     1
 95
       17
 96
       13
 40
0.0
 40
0.0
 40
0.0
 40
0.0
 40
1.0
 40
1.0
 40
1.0
 40
2.0
 40
2.0
 40
2.0
 40
3.0
 40
3.0
 40
3.0
 40
4.0
 40
4.0
 40
4.0
 40
4.0
 10
92.33234903329442
 20
-144.5837849638542
 10
92.33234903329442
 20
-144.6671463527218
 10
92.26518014611915
 20
-144.7339624638166
 10
92.1821362593489
 20
-144.7339624638166
 10
92.0994451503474
 20
-144.7339624638166
 10
92.03227626317214
 20
-144.6671463527218
 10
92.03227626317214
 20
-144.5837849638542
 10
92.03227626317214
 20
-144.5010938527634
 10
92.0994451503474
 20
-144.4342424638917
 10
92.1821362593489
 20
-144.4342424638917
 10
92.26518014611915
 20
-144.4342424638917
 10
92.33234903329442
 20
-144.5010938527634
 10
92.33234903329442
 20
-144.5837849638542
 97
        0
 97
        0
 75
     2
 76
     1
 98
        0
  0
ENDSEC
  0
SECTION
  2
OBJECTS
  0
DICTIONARY
  5
C
330
0
100
AcDbDictionary
281
     1
  3
ACAD_GROUP
350
D
  3
ACAD_LAYOUT
350
1A
  3
ACAD_MATERIAL
350
3B
  3
ACAD_MLEADERSTYLE
350
BC
  3
ACAD_MLINESTYLE
350
17
  3
ACAD_PLOTSETTINGS
350
19
  3
ACAD_PLOTSTYLENAME
350
E
  3
ACAD_TABLESTYLE
350
BB
  3
ACAD_VISUALSTYLE
350
2A
  0
SUN
  5
3F
330
29
100
AcDbSun
 90
        1
290
     0
 63
     7
421
 16777215
 40
1.0
291
     1
 91
  2455826
 92
 54000000
292
     0
 70
     2
 71
   256
280
     1
  0
DICTIONARY
  5
D
102
{ACAD_REACTORS
330
C
102
}
330
C
100
AcDbDictionary
281
     1
  0
DICTIONARY
  5
1A
102
{ACAD_REACTORS
330
C
102
}
330
C
100
AcDbDictionary
281
     1
  3
Layout1
350
1E
  3
Layout2
350
26
  3
Model
350
22
  0
DICTIONARY
  5
3B
102
{ACAD_REACTORS
330
C
102
}
330
C
100
AcDbDictionary
281
     1
  3
ByBlock
350
3D
  3
ByLayer
350
3C
  3
Global
350
3E
  0
DICTIONARY
  5
BC
102
{ACAD_REACTORS
330
C
102
}
330
C
100
AcDbDictionary
281
     1
  0
DICTIONARY
  5
17
102
{ACAD_REACTORS
330
C
102
}
330
C
100
AcDbDictionary
281
     1
  3
Standard
350
18
  0
DICTIONARY
  5
19
102
{ACAD_REACTORS
330
C
102
}
330
C
100
AcDbDictionary
281
     1
  0
ACDBDICTIONARYWDFLT
  5
E
102
{ACAD_REACTORS
330
C
102
}
330
C
100
AcDbDictionary
281
     1
  3
Normal
350
F
100
AcDbDictionaryWithDefault
340
F
  0
DICTIONARY
  5
BB
102
{ACAD_REACTORS
330
C
102
}
330
C
100
AcDbDictionary
281
     1
  0
DICTIONARY
  5
2A
102
{ACAD_REACTORS
330
C
102
}
330
C
100
AcDbDictionary
281
     1
  3
2dWireframe
350
2F
  3
3D Hidden
350
31
  3
3dWireframe
350
30
  3
Basic
350
32
  3
Brighten
350
36
  3
ColorChange
350
3A
  3
Conceptual
350
34
  3
Dim
350
35
  3
Facepattern
350
39
  3
Flat
350
2B
  3
FlatWithEdges
350
2C
  3
Gouraud
350
2D
  3
GouraudWithEdges
350
2E
  3
Linepattern
350
38
  3
Realistic
350
33
  3
Thicken
350
37
  0
LAYOUT
  5
1E
102
{ACAD_REACTORS
330
1A
102
}
330
1A
100
AcDbPlotSettings
  1

  2
none_device
  4

  6

 40
0.0
 41
0.0
 42
0.0
 43
0.0
 44
0.0
 45
0.0
 46
0.0
 47
0.0
 48
0.0
 49
0.0
140
0.0
141
0.0
142
1.0
143
1.0
 70
   688
 72
     0
 73
     0
 74
     5
  7

 75
    16
 76
     0
 77
     2
 78
   300
147
1.0
148
0.0
149
0.0
100
AcDbLayout
  1
Layout1
 70
     1
 71
     1
 10
0.0
 20
0.0
 11
12.0
 21
9.0
 12
0.0
 22
0.0
 32
0.0
 14
1.000000000000000E+20
 24
1.000000000000000E+20
 34
1.000000000000000E+20
 15
-1.000000000000000E+20
 25
-1.000000000000000E+20
 35
-1.000000000000000E+20
146
0.0
 13
0.0
 23
0.0
 33
0.0
 16
1.0
 26
0.0
 36
0.0
 17
0.0
 27
1.0
 37
0.0
 76
     0
330
1B
  0
LAYOUT
  5
26
102
{ACAD_REACTORS
330
1A
102
}
330
1A
100
AcDbPlotSettings
  1

  2
none_device
  4

  6

 40
0.0
 41
0.0
 42
0.0
 43
0.0
 44
0.0
 45
0.0
 46
0.0
 47
0.0
 48
0.0
 49
0.0
140
0.0
141
0.0
142
1.0
143
1.0
 70
   688
 72
     0
 73
     0
 74
     5
  7

 75
    16
 76
     0
 77
     2
 78
   300
147
1.0
148
0.0
149
0.0
100
AcDbLayout
  1
Layout2
 70
     1
 71
     2
 10
0.0
 20
0.0
 11
0.0
 21
0.0
 12
0.0
 22
0.0
 32
0.0
 14
0.0
 24
0.0
 34
0.0
 15
0.0
 25
0.0
 35
0.0
146
0.0
 13
0.0
 23
0.0
 33
0.0
 16
1.0
 26
0.0
 36
0.0
 17
0.0
 27
1.0
 37
0.0
 76
     0
330
23
  0
LAYOUT
  5
22
102
{ACAD_REACTORS
330
1A
102
}
330
1A
100
AcDbPlotSettings
  1

  2
none_device
  4

  6

 40
0.0
 41
0.0
 42
0.0
 43
0.0
 44
0.0
 45
0.0
 46
0.0
 47
0.0
 48
0.0
 49
0.0
140
0.0
141
0.0
142
1.0
143
1.0
 70
  1712
 72
     0
 73
     0
 74
     0
  7

 75
     0
 76
     0
 77
     2
 78
   300
147
1.0
148
0.0
149
0.0
100
AcDbLayout
  1
Model
 70
     1
 71
     0
 10
0.0
 20
0.0
 11
12.0
 21
9.0
 12
0.0
 22
0.0
 32
0.0
 14
1.000000000000000E+20
 24
1.000000000000000E+20
 34
1.000000000000000E+20
 15
-1.000000000000000E+20
 25
-1.000000000000000E+20
 35
-1.000000000000000E+20
146
0.0
 13
0.0
 23
0.0
 33
0.0
 16
1.0
 26
0.0
 36
0.0
 17
0.0
 27
1.0
 37
0.0
 76
     0
330
1F
331
29
  0
MATERIAL
  5
3D
102
{ACAD_REACTORS
330
3B
102
}
330
3B
100
AcDbMaterial
  1
ByBlock
 72
     1
 94
      127
  0
MATERIAL
  5
3C
102
{ACAD_REACTORS
330
3B
102
}
330
3B
100
AcDbMaterial
  1
ByLayer
 72
     1
 94
      127
  0
MATERIAL
  5
3E
102
{ACAD_REACTORS
330
3B
102
}
330
3B
100
AcDbMaterial
  1
Global
 72
     1
 94
      127
  0
MLINESTYLE
  5
18
102
{ACAD_REACTORS
330
17
102
}
330
17
100
AcDbMlineStyle
  2
Standard
 70
     0
  3

 62
   256
 51
90.0
 52
90.0
 71
     2
 49
0.5
 62
   256
  6
BYLAYER
 49
-0.5
 62
   256
  6
BYLAYER
  0
ACDBPLACEHOLDER
  5
F
102
{ACAD_REACTORS
330
E
102
}
330
E
  0
VISUALSTYLE
  5
2F
102
{ACAD_REACTORS
330
2A
102
}
330
2A
100
AcDbVisualStyle
  2
2dWireframe
 70
     4
177
     2
291
     0
 71
     0
176
     1
 72
     2
176
     1
 73
     0
176
     1
 90
        0
176
     1
 40
-0.6
176
     1
 41
-30.0
176
     1
 62
     5
 63
     7
421
 16777215
176
     1
 74
     1
176
     1
 91
        4
176
     1
 64
     7
176
     1
 65
   257
176
     1
 75
     1
176
     1
175
     1
176
     1
 42
1.0
176
     1
 92
        0
176
     1
 66
   257
176
     1
 43
1.0
176
     1
 76
     1
176
     1
 77
     6
176
     1
 78
     2
176
     1
 67
     7
176
     1
 79
     5
176
     1
170
     0
176
     1
171
     0
176
     1
290
     0
176
     1
 93
        1
176
     1
 44
0.0
176
     1
173
     0
176
     1
  0
VISUALSTYLE
  5
31
102
{ACAD_REACTORS
330
2A
102
}
330
2A
100
AcDbVisualStyle
  2
3D Hidden
 70
     6
177
     2
291
     0
 71
     1
176
     1
 72
     2
176
     1
 73
     2
176
     1
 90
        0
176
     1
 40
-0.6
176
     1
 41
-30.0
176
     1
 62
     5
 63
     7
421
 16777215
176
     1
 74
     2
176
     1
 91
        2
176
     1
 64
     7
176
     1
 65
   257
176
     1
 75
     2
176
     1
175
     1
176
     1
 42
40.0
176
     1
 92
        0
176
     1
 66
   257
176
     1
 43
1.0
176
     1
 76
     1
176
     1
 77
     6
176
     1
 78
     2
176
     1
 67
     7
176
     1
 79
     3
176
     1
170
     0
176
     1
171
     0
176
     1
290
     0
176
     1
 93
        1
176
     1
 44
0.0
176
     1
173
     0
176
     1
  0
VISUALSTYLE
  5
30
102
{ACAD_REACTORS
330
2A
102
}
330
2A
100
AcDbVisualStyle
  2
3dWireframe
 70
     5
177
     2
291
     0
 71
     0
176
     1
 72
     2
176
     1
 73
     0
176
     1
 90
        0
176
     1
 40
-0.6
176
     1
 41
-30.0
176
     1
 62
     5
 63
     7
421
 16777215
176
     1
 74
     1
176
     1
 91
        4
176
     1
 64
     7
176
     1
 65
   257
176
     1
 75
     1
176
     1
175
     1
176
     1
 42
1.0
176
     1
 92
        0
176
     1
 66
   257
176
     1
 43
1.0
176
     1
 76
     1
176
     1
 77
     6
176
     1
 78
     2
176
     1
 67
     7
176
     1
 79
     5
176
     1
170
     0
176
     1
171
     0
176
     1
290
     0
176
     1
 93
        1
176
     1
 44
0.0
176
     1
173
     0
176
     1
  0
VISUALSTYLE
  5
32
102
{ACAD_REACTORS
330
2A
102
}
330
2A
100
AcDbVisualStyle
  2
Basic
 70
     7
177
     2
291
     1
 71
     1
176
     1
 72
     0
176
     1
 73
     1
176
     1
 90
        0
176
     1
 40
-0.6
176
     1
 41
-30.0
176
     1
 62
     5
 63
     7
421
 16777215
176
     1
 74
     0
176
     1
 91
        4
176
     1
 64
     7
176
     1
 65
   257
176
     1
 75
     1
176
     1
175
     1
176
     1
 42
1.0
176
     1
 92
        8
176
     1
 66
     7
176
     1
 43
1.0
176
     1
 76
     1
176
     1
 77
     6
176
     1
 78
     2
176
     1
 67
     7
176
     1
 79
     5
176
     1
170
     0
176
     1
171
     0
176
     1
290
     0
176
     1
 93
        1
176
     1
 44
0.0
176
     1
173
     0
176
     1
  0
VISUALSTYLE
  5
36
102
{ACAD_REACTORS
330
2A
102
}
330
2A
100
AcDbVisualStyle
  2
Brighten
 70
    12
177
     2
291
     1
 71
     2
176
     1
 72
     2
176
     1
 73
     0
176
     1
 90
        0
176
     1
 40
-0.6
176
     1
 41
-30.0
176
     1
 62
     5
 63
     7
421
 16777215
176
     1
 74
     1
176
     1
 91
        4
176
     1
 64
     7
176
     1
 65
   257
176
     1
 75
     1
176
     1
175
     1
176
     1
 42
1.0
176
     1
 92
        8
176
     1
 66
     7
176
     1
 43
1.0
176
     1
 76
     1
176
     1
 77
     6
176
     1
 78
     2
176
     1
 67
     7
176
     1
 79
     5
176
     1
170
     0
176
     1
171
     0
176
     1
290
     0
176
     1
 93
        1
176
     1
 44
50.0
176
     1
173
     0
176
     1
  0
VISUALSTYLE
  5
3A
102
{ACAD_REACTORS
330
2A
102
}
330
2A
100
AcDbVisualStyle
  2
ColorChange
 70
    16
177
     2
291
     1
 71
     2
176
     1
 72
     2
176
     1
 73
     3
176
     1
 90
        0
176
     1
 40
-0.6
176
     1
 41
-30.0
176
     1
 62
     5
 63
     8
421
  8421504
176
     1
 74
     1
176
     1
 91
        4
176
     1
 64
     7
176
     1
 65
   257
176
     1
 75
     1
176
     1
175
     1
176
     1
 42
1.0
176
     1
 92
        8
176
     1
 66
     8
424
  8421504
176
     1
 43
1.0
176
     1
 76
     1
176
     1
 77
     6
176
     1
 78
     2
176
     1
 67
     7
176
     1
 79
     5
176
     1
170
     0
176
     1
171
     0
176
     1
290
     0
176
     1
 93
        1
176
     1
 44
0.0
176
     1
173
     0
176
     1
  0
VISUALSTYLE
  5
34
102
{ACAD_REACTORS
330
2A
102
}
330
2A
100
AcDbVisualStyle
  2
Conceptual
 70
     9
177
     2
291
     0
 71
     3
176
     1
 72
     2
176
     1
 73
     0
176
     1
 90
        0
176
     1
 40
-0.6
176
     1
 41
-30.0
176
     1
 62
     5
 63
     7
421
 16777215
176
     1
 74
     2
176
     1
 91
        2
176
     1
 64
     7
176
     1
 65
   257
176
     1
 75
     1
176
     1
175
     1
176
     1
 42
40.0
176
     1
 92
        8
176
     1
 66
     7
176
     1
 43
1.0
176
     1
 76
     1
176
     1
 77
     6
176
     1
 78
     2
176
     1
 67
     7
176
     1
 79
     3
176
     1
170
     0
176
     1
171
     0
176
     1
290
     0
176
     1
 93
        1
176
     1
 44
0.0
176
     1
173
     0
176
     1
  0
VISUALSTYLE
  5
35
102
{ACAD_REACTORS
330
2A
102
}
330
2A
100
AcDbVisualStyle
  2
Dim
 70
    11
177
     2
291
     1
 71
     2
176
     1
 72
     2
176
     1
 73
     0
176
     1
 90
        0
176
     1
 40
-0.6
176
     1
 41
-30.0
176
     1
 62
     5
 63
     7
421
 16777215
176
     1
 74
     1
176
     1
 91
        4
176
     1
 64
     7
176
     1
 65
   257
176
     1
 75
     1
176
     1
175
     1
176
     1
 42
1.0
176
     1
 92
        8
176
     1
 66
     7
176
     1
 43
1.0
176
     1
 76
     1
176
     1
 77
     6
176
     1
 78
     2
176
     1
 67
     7
176
     1
 79
     5
176
     1
170
     0
176
     1
171
     0
176
     1
290
     0
176
     1
 93
        1
176
     1
 44
-50.0
176
     1
173
     0
176
     1
  0
VISUALSTYLE
  5
39
102
{ACAD_REACTORS
330
2A
102
}
330
2A
100
AcDbVisualStyle
  2
Facepattern
 70
    15
177
     2
291
     1
 71
     2
176
     1
 72
     2
176
     1
 73
     0
176
     1
 90
        0
176
     1
 40
-0.6
176
     1
 41
-30.0
176
     1
 62
     5
 63
     7
421
 16777215
176
     1
 74
     1
176
     1
 91
        4
176
     1
 64
     7
176
     1
 65
   257
176
     1
 75
     1
176
     1
175
     1
176
     1
 42
1.0
176
     1
 92
        8
176
     1
 66
     7
176
     1
 43
1.0
176
     1
 76
     1
176
     1
 77
     6
176
     1
 78
     2
176
     1
 67
     7
176
     1
 79
     5
176
     1
170
     0
176
     1
171
     0
176
     1
290
     0
176
     1
 93
        1
176
     1
 44
0.0
176
     1
173
     0
176
     1
  0
VISUALSTYLE
  5
2B
102
{ACAD_REACTORS
330
2A
102
}
330
2A
100
AcDbVisualStyle
  2
Flat
 70
     0
177
     2
291
     1
 71
     2
176
     1
 72
     1
176
     1
 73
     1
176
     1
 90
        2
176
     1
 40
-0.6
176
     1
 41
30.0
176
     1
 62
     5
 63
     7
421
 16777215
176
     1
 74
     0
176
     1
 91
        4
176
     1
 64
     7
176
     1
 65
   257
176
     1
 75
     1
176
     1
175
     1
176
     1
 42
1.0
176
     1
 92
        8
176
     1
 66
     7
176
     1
 43
1.0
176
     1
 76
     1
176
     1
 77
     6
176
     1
 78
     2
176
     1
 67
     7
176
     1
 79
     5
176
     1
170
     0
176
     1
171
     0
176
     1
290
     0
176
     1
 93
       13
176
     1
 44
0.0
176
     1
173
     0
176
     1
  0
VISUALSTYLE
  5
2C
102
{ACAD_REACTORS
330
2A
102
}
330
2A
100
AcDbVisualStyle
  2
FlatWithEdges
 70
     1
177
     2
291
     1
 71
     2
176
     1
 72
     1
176
     1
 73
     1
176
     1
 90
        2
176
     1
 40
-0.6
176
     1
 41
30.0
176
     1
 62
     5
 63
     7
421
 16777215
176
     1
 74
     1
176
     1
 91
        4
176
     1
 64
     7
176
     1
 65
   257
176
     1
 75
     1
176
     1
175
     1
176
     1
 42
1.0
176
     1
 92
        0
176
     1
 66
   257
176
     1
 43
1.0
176
     1
 76
     1
176
     1
 77
     6
176
     1
 78
     2
176
     1
 67
     7
176
     1
 79
     5
176
     1
170
     0
176
     1
171
     0
176
     1
290
     0
176
     1
 93
       13
176
     1
 44
0.0
176
     1
173
     0
176
     1
  0
VISUALSTYLE
  5
2D
102
{ACAD_REACTORS
330
2A
102
}
330
2A
100
AcDbVisualStyle
  2
Gouraud
 70
     2
177
     2
291
     1
 71
     2
176
     1
 72
     2
176
     1
 73
     1
176
     1
 90
        2
176
     1
 40
-0.6
176
     1
 41
30.0
176
     1
 62
     5
 63
     7
421
 16777215
176
     1
 74
     0
176
     1
 91
        4
176
     1
 64
     7
176
     1
 65
   257
176
     1
 75
     1
176
     1
175
     1
176
     1
 42
1.0
176
     1
 92
        0
176
     1
 66
     7
176
     1
 43
1.0
176
     1
 76
     1
176
     1
 77
     6
176
     1
 78
     2
176
     1
 67
     7
176
     1
 79
     5
176
     1
170
     0
176
     1
171
     0
176
     1
290
     0
176
     1
 93
       13
176
     1
 44
0.0
176
     1
173
     0
176
     1
  0
VISUALSTYLE
  5
2E
102
{ACAD_REACTORS
330
2A
102
}
330
2A
100
AcDbVisualStyle
  2
GouraudWithEdges
 70
     3
177
     2
291
     1
 71
     2
176
     1
 72
     2
176
     1
 73
     1
176
     1
 90
        2
176
     1
 40
-0.6
176
     1
 41
30.0
176
     1
 62
     5
 63
     7
421
 16777215
176
     1
 74
     1
176
     1
 91
        4
176
     1
 64
     7
176
     1
 65
   257
176
     1
 75
     1
176
     1
175
     1
176
     1
 42
1.0
176
     1
 92
        0
176
     1
 66
   257
176
     1
 43
1.0
176
     1
 76
     1
176
     1
 77
     6
176
     1
 78
     2
176
     1
 67
     7
176
     1
 79
     5
176
     1
170
     0
176
     1
171
     0
176
     1
290
     0
176
     1
 93
       13
176
     1
 44
0.0
176
     1
173
     0
176
     1
  0
VISUALSTYLE
  5
38
102
{ACAD_REACTORS
330
2A
102
}
330
2A
100
AcDbVisualStyle
  2
Linepattern
 70
    14
177
     2
291
     1
 71
     2
176
     1
 72
     2
176
     1
 73
     0
176
     1
 90
        0
176
     1
 40
-0.6
176
     1
 41
-30.0
176
     1
 62
     5
 63
     7
421
 16777215
176
     1
 74
     1
176
     1
 91
        4
176
     1
 64
     7
176
     1
 65
   257
176
     1
 75
     7
176
     1
175
     7
176
     1
 42
1.0
176
     1
 92
        8
176
     1
 66
     7
176
     1
 43
1.0
176
     1
 76
     1
176
     1
 77
     6
176
     1
 78
     2
176
     1
 67
     7
176
     1
 79
     5
176
     1
170
     0
176
     1
171
     0
176
     1
290
     0
176
     1
 93
        1
176
     1
 44
0.0
176
     1
173
     0
176
     1
  0
VISUALSTYLE
  5
33
102
{ACAD_REACTORS
330
2A
102
}
330
2A
100
AcDbVisualStyle
  2
Realistic
 70
     8
177
     2
291
     0
 71
     2
176
     1
 72
     2
176
     1
 73
     0
176
     1
 90
        0
176
     1
 40
-0.6
176
     1
 41
-30.0
176
     1
 62
     5
 63
     7
421
 16777215
176
     1
 74
     1
176
     1
 91
        0
176
     1
 64
     7
176
     1
 65
   257
176
     1
 75
     1
176
     1
175
     1
176
     1
 42
1.0
176
     1
 92
        8
176
     1
 66
     8
424
  7895160
176
     1
 43
1.0
176
     1
 76
     1
176
     1
 77
     6
176
     1
 78
     2
176
     1
 67
     7
176
     1
 79
     5
176
     1
170
     0
176
     1
171
     0
176
     1
290
     0
176
     1
 93
       13
176
     1
 44
0.0
176
     1
173
     0
176
     1
  0
VISUALSTYLE
  5
37
102
{ACAD_REACTORS
330
2A
102
}
330
2A
100
AcDbVisualStyle
  2
Thicken
 70
    13
177
     2
291
     1
 71
     2
176
     1
 72
     2
176
     1
 73
     0
176
     1
 90
        0
176
     1
 40
-0.6
176
     1
 41
-30.0
176
     1
 62
     5
 63
     7
421
 16777215
176
     1
 74
     1
176
     1
 91
        4
176
     1
 64
     7
176
     1
 65
   257
176
     1
 75
     1
176
     1
175
     1
176
     1
 42
1.0
176
     1
 92
       12
176
     1
 66
     7
176
     1
 43
1.0
176
     1
 76
     1
176
     1
 77
     6
176
     1
 78
     2
176
     1
 67
     7
176
     1
 79
     5
176
     1
170
     0
176
     1
171
     0
176
     1
290
     0
176
     1
 93
        1
176
     1
 44
0.0
176
     1
173
     0
176
     1
  0
ENDSEC
  0
EOF
